  0
SECTION
  2
HEADER
  9
$ACADVER
  1
AC1015
  9
$ACADMAINTVER
 70
    20
  9
$DWGCODEPAGE
  3
ANSI_1252
  9
$INSBASE
 10
0.0
 20
0.0
 30
0.0
  9
$EXTMIN
 10
5048.380813734694
 20
2538.678393590271
 30
0.0
  9
$EXTMAX
 10
5051.926693862323
 20
2539.428702320183
 30
0.0
  9
$LIMMIN
 10
0.0
 20
0.0
  9
$LIMMAX
 10
420.0
 20
297.0
  9
$ORTHOMODE
 70
     1
  9
$REGENMODE
 70
     1
  9
$FILLMODE
 70
     1
  9
$QTEXTMODE
 70
     0
  9
$MIRRTEXT
 70
     1
  9
$LTSCALE
 40
1.0
  9
$ATTMODE
 70
     1
  9
$TEXTSIZE
 40
2.5
  9
$TRACEWID
 40
1.0
  9
$TEXTSTYLE
  7
SANINDUSA
  9
$CLAYER
  8
0
  9
$CELTYPE
  6
ByLayer
  9
$CECOLOR
 62
   256
  9
$CELTSCALE
 40
1.0
  9
$DISPSILH
 70
     0
  9
$DIMSCALE
 40
1.0
  9
$DIMASZ
 40
2.0
  9
$DIMEXO
 40
1.0
  9
$DIMDLI
 40
1.0
  9
$DIMRND
 40
0.0
  9
$DIMDLE
 40
0.0
  9
$DIMEXE
 40
1.0
  9
$DIMTP
 40
0.0
  9
$DIMTM
 40
0.0
  9
$DIMTXT
 40
2.0
  9
$DIMCEN
 40
0.0
  9
$DIMTSZ
 40
0.0
  9
$DIMTOL
 70
     0
  9
$DIMLIM
 70
     0
  9
$DIMTIH
 70
     0
  9
$DIMTOH
 70
     0
  9
$DIMSE1
 70
     0
  9
$DIMSE2
 70
     0
  9
$DIMTAD
 70
     1
  9
$DIMZIN
 70
     8
  9
$DIMBLK
  1

  9
$DIMASO
 70
     1
  9
$DIMSHO
 70
     1
  9
$DIMPOST
  1

  9
$DIMAPOST
  1

  9
$DIMALT
 70
     0
  9
$DIMALTD
 70
     3
  9
$DIMALTF
 40
0.03937007874016
  9
$DIMLFAC
 40
1.0
  9
$DIMTOFL
 70
     1
  9
$DIMTVP
 40
0.0
  9
$DIMTIX
 70
     0
  9
$DIMSOXD
 70
     0
  9
$DIMSAH
 70
     0
  9
$DIMBLK1
  1

  9
$DIMBLK2
  1

  9
$DIMSTYLE
  2
SANINDUSA
  9
$DIMCLRD
 70
   256
  9
$DIMCLRE
 70
   256
  9
$DIMCLRT
 70
   256
  9
$DIMTFAC
 40
1.0
  9
$DIMGAP
 40
1.0
  9
$DIMJUST
 70
     0
  9
$DIMSD1
 70
     0
  9
$DIMSD2
 70
     0
  9
$DIMTOLJ
 70
     0
  9
$DIMTZIN
 70
     8
  9
$DIMALTZ
 70
     0
  9
$DIMALTTZ
 70
     0
  9
$DIMUPT
 70
     0
  9
$DIMDEC
 70
     1
  9
$DIMTDEC
 70
     1
  9
$DIMALTU
 70
     2
  9
$DIMALTTD
 70
     3
  9
$DIMTXSTY
  7
SANINDUSA
  9
$DIMAUNIT
 70
     0
  9
$DIMADEC
 70
     1
  9
$DIMALTRND
 40
0.0
  9
$DIMAZIN
 70
     0
  9
$DIMDSEP
 70
    44
  9
$DIMATFIT
 70
     3
  9
$DIMFRAC
 70
     0
  9
$DIMLDRBLK
  1

  9
$DIMLUNIT
 70
     2
  9
$DIMLWD
 70
    -1
  9
$DIMLWE
 70
    -1
  9
$DIMTMOVE
 70
     0
  9
$LUNITS
 70
     2
  9
$LUPREC
 70
     4
  9
$SKETCHINC
 40
1.0
  9
$FILLETRAD
 40
3.0
  9
$AUNITS
 70
     0
  9
$AUPREC
 70
     0
  9
$MENU
  1
.
  9
$ELEVATION
 40
0.0
  9
$PELEVATION
 40
0.0
  9
$THICKNESS
 40
0.0
  9
$LIMCHECK
 70
     0
  9
$CHAMFERA
 40
10.0
  9
$CHAMFERB
 40
10.0
  9
$CHAMFERC
 40
20.0
  9
$CHAMFERD
 40
0.0
  9
$SKPOLY
 70
     0
  9
$TDCREATE
 40
2454316.579787141
  9
$TDUCREATE
 40
2454316.579787141
  9
$TDUPDATE
 40
2454478.652143009
  9
$TDUUPDATE
 40
2454478.652143009
  9
$TDINDWG
 40
0.0069379282
  9
$TDUSRTIMER
 40
0.0069379282
  9
$USRTIMER
 70
     1
  9
$ANGBASE
 50
0.0
  9
$ANGDIR
 70
     0
  9
$PDMODE
 70
     0
  9
$PDSIZE
 40
0.0
  9
$PLINEWID
 40
0.0
  9
$SPLFRAME
 70
     0
  9
$SPLINETYPE
 70
     6
  9
$SPLINESEGS
 70
     8
  9
$HANDSEED
  5
2895
  9
$SURFTAB1
 70
     6
  9
$SURFTAB2
 70
     6
  9
$SURFTYPE
 70
     6
  9
$SURFU
 70
     6
  9
$SURFV
 70
     6
  9
$UCSBASE
  2

  9
$UCSNAME
  2

  9
$UCSORG
 10
0.0
 20
0.0
 30
0.0
  9
$UCSXDIR
 10
1.0
 20
0.0
 30
0.0
  9
$UCSYDIR
 10
0.0
 20
1.0
 30
0.0
  9
$UCSORTHOREF
  2

  9
$UCSORTHOVIEW
 70
     0
  9
$UCSORGTOP
 10
0.0
 20
0.0
 30
0.0
  9
$UCSORGBOTTOM
 10
0.0
 20
0.0
 30
0.0
  9
$UCSORGLEFT
 10
0.0
 20
0.0
 30
0.0
  9
$UCSORGRIGHT
 10
0.0
 20
0.0
 30
0.0
  9
$UCSORGFRONT
 10
0.0
 20
0.0
 30
0.0
  9
$UCSORGBACK
 10
0.0
 20
0.0
 30
0.0
  9
$PUCSBASE
  2

  9
$PUCSNAME
  2

  9
$PUCSORG
 10
0.0
 20
0.0
 30
0.0
  9
$PUCSXDIR
 10
1.0
 20
0.0
 30
0.0
  9
$PUCSYDIR
 10
0.0
 20
1.0
 30
0.0
  9
$PUCSORTHOREF
  2

  9
$PUCSORTHOVIEW
 70
     0
  9
$PUCSORGTOP
 10
0.0
 20
0.0
 30
0.0
  9
$PUCSORGBOTTOM
 10
0.0
 20
0.0
 30
0.0
  9
$PUCSORGLEFT
 10
0.0
 20
0.0
 30
0.0
  9
$PUCSORGRIGHT
 10
0.0
 20
0.0
 30
0.0
  9
$PUCSORGFRONT
 10
0.0
 20
0.0
 30
0.0
  9
$PUCSORGBACK
 10
0.0
 20
0.0
 30
0.0
  9
$USERI1
 70
     0
  9
$USERI2
 70
     0
  9
$USERI3
 70
     0
  9
$USERI4
 70
     0
  9
$USERI5
 70
     0
  9
$USERR1
 40
0.0
  9
$USERR2
 40
0.0
  9
$USERR3
 40
0.0
  9
$USERR4
 40
0.0
  9
$USERR5
 40
0.0
  9
$WORLDVIEW
 70
     1
  9
$SHADEDGE
 70
     3
  9
$SHADEDIF
 70
    70
  9
$TILEMODE
 70
     1
  9
$MAXACTVP
 70
    64
  9
$PINSBASE
 10
0.0
 20
0.0
 30
0.0
  9
$PLIMCHECK
 70
     0
  9
$PEXTMIN
 10
1.000000000000000E+20
 20
1.000000000000000E+20
 30
1.000000000000000E+20
  9
$PEXTMAX
 10
-1.000000000000000E+20
 20
-1.000000000000000E+20
 30
-1.000000000000000E+20
  9
$PLIMMIN
 10
0.0
 20
0.0
  9
$PLIMMAX
 10
420.0
 20
297.0
  9
$UNITMODE
 70
     0
  9
$VISRETAIN
 70
     1
  9
$PLINEGEN
 70
     0
  9
$PSLTSCALE
 70
     1
  9
$TREEDEPTH
 70
  3020
  9
$CMLSTYLE
  2
Standard
  9
$CMLJUST
 70
     0
  9
$CMLSCALE
 40
20.0
  9
$PROXYGRAPHICS
 70
     1
  9
$MEASUREMENT
 70
     1
  9
$CELWEIGHT
370
    -1
  9
$ENDCAPS
280
     0
  9
$JOINSTYLE
280
     0
  9
$LWDISPLAY
290
     0
  9
$INSUNITS
 70
     4
  9
$HYPERLINKBASE
  1

  9
$STYLESHEET
  1
sanindusa.ctb
  9
$XEDIT
290
     1
  9
$CEPSNTYPE
380
     0
  9
$PSTYLEMODE
290
     1
  9
$FINGERPRINTGUID
  2
{70106719-2AB6-4367-ADCF-61BD6AD6D4E1}
  9
$VERSIONGUID
  2
{3205A2AB-8199-4160-9F1B-06A5B10E289B}
  9
$EXTNAMES
290
     1
  9
$PSVPSCALE
 40
0.0
  9
$OLESTARTUP
290
     0
  0
ENDSEC
  0
SECTION
  2
CLASSES
  0
CLASS
  1
ACDBDICTIONARYWDFLT
  2
AcDbDictionaryWithDefault
  3
ObjectDBX Classes
 90
        0
280
     0
281
     0
  0
CLASS
  1
ACDBPLACEHOLDER
  2
AcDbPlaceHolder
  3
ObjectDBX Classes
 90
        0
280
     0
281
     0
  0
CLASS
  1
LAYOUT
  2
AcDbLayout
  3
ObjectDBX Classes
 90
        0
280
     0
281
     0
  0
CLASS
  1
DICTIONARYVAR
  2
AcDbDictionaryVar
  3
ObjectDBX Classes
 90
        0
280
     0
281
     0
  0
CLASS
  1
DIMASSOC
  2
AcDbDimAssoc
  3
"AcDbDimAssoc|Product Desc:     AcDim ARX App For Dimension|Company:          Autodesk, Inc.|WEB Address:      www.autodesk.com"
 90
    32768
280
     0
281
     0
  0
CLASS
  1
TABLESTYLE
  2
AcDbTableStyle
  3
ObjectDBX Classes
 90
     2047
280
     0
281
     0
  0
ENDSEC
  0
SECTION
  2
TABLES
  0
TABLE
  2
VPORT
  5
8
330
0
100
AcDbSymbolTable
 70
     2
  0
VPORT
  5
288D
330
8
100
AcDbSymbolTableRecord
100
AcDbViewportTableRecord
  2
*Active
 70
     0
 10
0.0
 20
0.0
 11
1.0
 21
1.0
 12
5050.153753798508
 22
2539.062570386077
 13
0.0
 23
0.0
 14
10.0
 24
10.0
 15
10.0
 25
10.0
 16
0.0
 26
0.0
 36
1.0
 17
0.0
 27
0.0
 37
0.0
 40
2.253352104842273
 41
1.579579579579579
 42
50.0
 43
0.0
 44
0.0
 50
0.0
 51
0.0
 71
     0
 72
   100
 73
     1
 74
     2
 75
     0
 76
     0
 77
     0
 78
     0
281
     0
 65
     1
110
0.0
120
0.0
130
0.0
111
1.0
121
0.0
131
0.0
112
0.0
122
1.0
132
0.0
 79
     0
146
0.0
  0
ENDTAB
  0
TABLE
  2
LTYPE
  5
5
330
0
100
AcDbSymbolTable
 70
     5
  0
LTYPE
  5
14
330
5
100
AcDbSymbolTableRecord
100
AcDbLinetypeTableRecord
  2
ByBlock
 70
     0
  3

 72
    65
 73
     0
 40
0.0
  0
LTYPE
  5
15
330
5
100
AcDbSymbolTableRecord
100
AcDbLinetypeTableRecord
  2
ByLayer
 70
     0
  3

 72
    65
 73
     0
 40
0.0
  0
LTYPE
  5
16
330
5
100
AcDbSymbolTableRecord
100
AcDbLinetypeTableRecord
  2
Continuous
 70
     0
  3
Solid line
 72
    65
 73
     0
 40
0.0
  0
LTYPE
  5
2D
330
5
100
AcDbSymbolTableRecord
100
AcDbLinetypeTableRecord
  2
DASHDOT
 70
     0
  3
Dash dot __ . __ . __ . __ . __ . __ . __ . __
 72
    65
 73
     4
 40
25.4
 49
12.7
 74
     0
 49
-6.349999999999999
 74
     0
 49
0.0
 74
     0
 49
-6.349999999999999
 74
     0
  0
LTYPE
  5
2E
330
5
100
AcDbSymbolTableRecord
100
AcDbLinetypeTableRecord
  2
HIDDEN
 70
     0
  3
Hidden __ __ __ __ __ __ __ __ __ __ __ __ __ _
 72
    65
 73
     2
 40
9.524999999999998
 49
6.349999999999999
 74
     0
 49
-3.174999999999999
 74
     0
  0
LTYPE
  5
C75
330
5
100
AcDbSymbolTableRecord
100
AcDbLinetypeTableRecord
  2
AM_ISO02W050
 70
     0
  3
__ __ __ __ __ __ __ __ __ __ __ __ __ __ __
 72
    65
 73
     2
 40
7.5
 49
6.0
 74
     0
 49
-1.5
 74
     0
  0
LTYPE
  5
C76
330
5
100
AcDbSymbolTableRecord
100
AcDbLinetypeTableRecord
  2
AM_ISO08W050
 70
     0
  3
____ . ____ . ____ . ____ . ____ . ____ . ____
 72
    65
 73
     4
 40
18.0
 49
12.0
 74
     0
 49
-1.5
 74
     0
 49
3.0
 74
     0
 49
-1.5
 74
     0
  0
ENDTAB
  0
TABLE
  2
LAYER
  5
2
102
{ACAD_XDICTIONARY
360
1051
102
}
330
0
100
AcDbSymbolTable
 70
    16
  0
LAYER
  5
10
330
2
100
AcDbSymbolTableRecord
100
AcDbLayerTableRecord
  2
0
 70
     0
 62
     7
  6
Continuous
370
    -3
390
F
  0
LAYER
  5
2F
330
2
100
AcDbSymbolTableRecord
100
AcDbLayerTableRecord
  2
1
 70
     0
 62
     1
  6
Continuous
370
    -3
390
F
  0
LAYER
  5
30
330
2
100
AcDbSymbolTableRecord
100
AcDbLayerTableRecord
  2
2
 70
     0
 62
     2
  6
Continuous
370
    -3
390
F
  0
LAYER
  5
31
330
2
100
AcDbSymbolTableRecord
100
AcDbLayerTableRecord
  2
3
 70
     0
 62
     3
  6
Continuous
370
    -3
390
F
  0
LAYER
  5
32
330
2
100
AcDbSymbolTableRecord
100
AcDbLayerTableRecord
  2
4
 70
     0
 62
     4
  6
Continuous
370
    -3
390
F
  0
LAYER
  5
33
330
2
100
AcDbSymbolTableRecord
100
AcDbLayerTableRecord
  2
5
 70
     0
 62
     5
  6
Continuous
370
    -3
390
F
  0
LAYER
  5
34
330
2
100
AcDbSymbolTableRecord
100
AcDbLayerTableRecord
  2
6
 70
     0
 62
     6
  6
Continuous
370
    -3
390
F
  0
LAYER
  5
35
330
2
100
AcDbSymbolTableRecord
100
AcDbLayerTableRecord
  2
7
 70
     0
 62
     7
  6
Continuous
370
    -3
390
F
  0
LAYER
  5
36
330
2
100
AcDbSymbolTableRecord
100
AcDbLayerTableRecord
  2
cen
 70
     0
 62
     7
  6
DASHDOT
370
    -3
390
F
  0
LAYER
  5
37
330
2
100
AcDbSymbolTableRecord
100
AcDbLayerTableRecord
  2
hid
 70
     0
 62
     7
  6
HIDDEN
370
    -3
390
F
  0
LAYER
  5
5D6
330
2
100
AcDbSymbolTableRecord
100
AcDbLayerTableRecord
  2
hatch
 70
     0
 62
     9
  6
Continuous
370
    -3
390
F
  0
LAYER
  5
8AF
330
2
100
AcDbSymbolTableRecord
100
AcDbLayerTableRecord
  2
9
 70
     0
 62
     9
  6
Continuous
370
    -3
390
F
  0
LAYER
  5
8F8
330
2
100
AcDbSymbolTableRecord
100
AcDbLayerTableRecord
  2
leg fin
 70
     0
 62
     9
  6
Continuous
370
    -3
390
F
  0
LAYER
  5
91D
330
2
100
AcDbSymbolTableRecord
100
AcDbLayerTableRecord
  2
cotas
 70
     0
 62
     1
  6
Continuous
370
    -3
390
F
  0
LAYER
  5
92F
330
2
100
AcDbSymbolTableRecord
100
AcDbLayerTableRecord
  2
Defpoints
 70
     0
 62
     7
  6
Continuous
290
     0
370
    -3
390
F
  0
LAYER
  5
C7B
330
2
100
AcDbSymbolTableRecord
100
AcDbLayerTableRecord
  2
SANINDUSA
 70
     0
 62
     3
  6
Continuous
370
    -3
390
F
  0
ENDTAB
  0
TABLE
  2
STYLE
  5
3
330
0
100
AcDbSymbolTable
 70
     4
  0
STYLE
  5
11
330
3
100
AcDbSymbolTableRecord
100
AcDbTextStyleTableRecord
  2
Standard
 70
     0
 40
0.0
 41
1.0
 50
0.0
 71
     0
 42
2.5
  3
Avgardn.ttf
  4

1001
ACAD
1000
AvantGarde Bk BT
1071
       34
  0
STYLE
  5
2C
330
3
100
AcDbSymbolTableRecord
100
AcDbTextStyleTableRecord
  2

 70
     1
 40
0.0
 41
1.0
 50
0.0
 71
     0
 42
2.5
  3
ltypeshp.shx
  4

  0
STYLE
  5
91F
330
3
100
AcDbSymbolTableRecord
100
AcDbTextStyleTableRecord
  2
SANINDUSA
 70
     0
 40
0.0
 41
1.0
 50
0.0
 71
     0
 42
2.5
  3
verdana.TTF
  4

1001
ACAD
1000
Verdana
1071
       34
  0
STYLE
  5
C7C
330
3
100
AcDbSymbolTableRecord
100
AcDbTextStyleTableRecord
  2
futura
 70
     0
 40
0.0
 41
1.0
 50
0.0
 71
     0
 42
2.5
  3
ZURCHN.TTF
  4

1001
ACAD
1000
Zurich BT
1071
       34
  0
ENDTAB
  0
TABLE
  2
VIEW
  5
6
330
0
100
AcDbSymbolTable
 70
     0
  0
ENDTAB
  0
TABLE
  2
UCS
  5
7
330
0
100
AcDbSymbolTable
 70
     0
  0
ENDTAB
  0
TABLE
  2
APPID
  5
9
330
0
100
AcDbSymbolTable
 70
    11
  0
APPID
  5
12
330
9
100
AcDbSymbolTableRecord
100
AcDbRegAppTableRecord
  2
ACAD
 70
     0
  0
APPID
  5
3A
330
9
100
AcDbSymbolTableRecord
100
AcDbRegAppTableRecord
  2
DCO15
 70
     0
  0
APPID
  5
EEE
330
9
100
AcDbSymbolTableRecord
100
AcDbRegAppTableRecord
  2
ACAD_DSTYLE_DIMTEXT_FILL
 70
     0
  0
APPID
  5
EEF
330
9
100
AcDbSymbolTableRecord
100
AcDbRegAppTableRecord
  2
ACAD_DSTYLE_DIMEXT_LENGTH
 70
     0
  0
APPID
  5
EF0
330
9
100
AcDbSymbolTableRecord
100
AcDbRegAppTableRecord
  2
ACAD_DSTYLE_DIMEXT_ENABLED
 70
     0
  0
APPID
  5
EF1
330
9
100
AcDbSymbolTableRecord
100
AcDbRegAppTableRecord
  2
ACAD_DSTYLE_DIM_LINETYPE
 70
     0
  0
APPID
  5
EF2
330
9
100
AcDbSymbolTableRecord
100
AcDbRegAppTableRecord
  2
ACAD_DSTYLE_DIM_EXT1_LINETYPE
 70
     0
  0
APPID
  5
EF3
330
9
100
AcDbSymbolTableRecord
100
AcDbRegAppTableRecord
  2
ACAD_DSTYLE_DIM_EXT2_LINETYPE
 70
     0
  0
APPID
  5
FAF
330
9
100
AcDbSymbolTableRecord
100
AcDbRegAppTableRecord
  2
ACAD_DSTYLE_DIMJOGGED_JOGANGLE_SYMBOL
 70
     0
  0
APPID
  5
1013
330
9
100
AcDbSymbolTableRecord
100
AcDbRegAppTableRecord
  2
ACAD_DSTYLE_DIMARC_LENGTH_SYMBOL
 70
     0
  0
APPID
  5
2868
330
9
100
AcDbSymbolTableRecord
100
AcDbRegAppTableRecord
  2
ACAD_EXEMPT_FROM_CAD_STANDARDS
 70
     0
  0
ENDTAB
  0
TABLE
  2
DIMSTYLE
  5
A
330
0
100
AcDbSymbolTable
 70
     3
100
AcDbDimStyleTable
 71
     1
340
921
  0
DIMSTYLE
105
45
330
A
100
AcDbSymbolTableRecord
100
AcDbDimStyleTableRecord
  2
STANDARD
 70
     0
289
     0
340
11
  0
DIMSTYLE
105
921
330
A
100
AcDbSymbolTableRecord
100
AcDbDimStyleTableRecord
  2
SANINDUSA
 70
     0
 41
2.0
 42
1.0
 43
1.0
 44
1.0
 73
     0
 74
     0
 77
     1
 78
     8
140
2.0
141
0.0
143
0.03937007874016
147
1.0
171
     3
172
     1
176
   256
177
   256
178
   256
179
     1
271
     1
272
     1
274
     3
278
    44
283
     0
284
     8
340
91F
371
    -1
372
    -1
1001
ACAD_DSTYLE_DIMEXT_LENGTH
1070
   378
1040
1.0
1001
ACAD_DSTYLE_DIMEXT_ENABLED
1070
   383
1070
     0
1001
ACAD_DSTYLE_DIMARC_LENGTH_SYMBOL
1070
   379
1070
     0
1001
ACAD_DSTYLE_DIMJOGGED_JOGANGLE_SYMBOL
1070
   384
1040
1.570796326794896
  0
DIMSTYLE
105
C7D
330
A
100
AcDbSymbolTableRecord
100
AcDbDimStyleTableRecord
  2
AM_ISO
 70
     0
  4
"
 41
2.5
 42
1.0
 43
10.0
 44
1.0
 47
0.1
 48
0.1
 73
     0
 74
     0
 77
     1
 78
     8
 79
     2
140
3.5
141
0.0
143
0.0393701
146
0.71
147
1.5
172
     1
176
   256
177
   256
178
     2
271
     2
272
     3
274
     4
283
     0
284
     8
340
11
371
    -1
372
    -1
  0
ENDTAB
  0
TABLE
  2
BLOCK_RECORD
  5
1
330
0
100
AcDbSymbolTable
 70
   117
  0
BLOCK_RECORD
  5
1F
330
1
100
AcDbSymbolTableRecord
100
AcDbBlockTableRecord
  2
*Model_Space
340
22
  0
BLOCK_RECORD
  5
1B
330
1
100
AcDbSymbolTableRecord
100
AcDbBlockTableRecord
  2
*Paper_Space
340
1E
  0
BLOCK_RECORD
  5
23
330
1
100
AcDbSymbolTableRecord
100
AcDbBlockTableRecord
  2
*Paper_Space0
340
26
  0
BLOCK_RECORD
  5
919
330
1
100
AcDbSymbolTableRecord
100
AcDbBlockTableRecord
  2
_DotSmall
340
0
  0
BLOCK_RECORD
  5
922
330
1
100
AcDbSymbolTableRecord
100
AcDbBlockTableRecord
  2
base para cotas
340
0
310
2800000020000000200000000100080000000000000400000000000000000000000000000000000000000000000080000080000000808000800000008000800080800000C0C0C000C0DCC000F0CAA6000020400000206000002080000020A0000020C0000020E00000400000004020000040400000406000004080000040A0
310
000040C0000040E00000600000006020000060400000606000006080000060A0000060C0000060E00000800000008020000080400000806000008080000080A0000080C0000080E00000A0000000A0200000A0400000A0600000A0800000A0A00000A0C00000A0E00000C0000000C0200000C0400000C0600000C0800000C0
310
A00000C0C00000C0E00000E0000000E0200000E0400000E0600000E0800000E0A00000E0C00000E0E00040000000400020004000400040006000400080004000A0004000C0004000E00040200000402020004020400040206000402080004020A0004020C0004020E000404000004040200040404000404060004040800040
310
40A0004040C0004040E00040600000406020004060400040606000406080004060A0004060C0004060E00040800000408020004080400040806000408080004080A0004080C0004080E00040A0000040A0200040A0400040A0600040A0800040A0A00040A0C00040A0E00040C0000040C0200040C0400040C0600040C08000
310
40C0A00040C0C00040C0E00040E0000040E0200040E0400040E0600040E0800040E0A00040E0C00040E0E00080000000800020008000400080006000800080008000A0008000C0008000E00080200000802020008020400080206000802080008020A0008020C0008020E00080400000804020008040400080406000804080
310
008040A0008040C0008040E00080600000806020008060400080606000806080008060A0008060C0008060E00080800000808020008080400080806000808080008080A0008080C0008080E00080A0000080A0200080A0400080A0600080A0800080A0A00080A0C00080A0E00080C0000080C0200080C0400080C0600080C0
310
800080C0A00080C0C00080C0E00080E0000080E0200080E0400080E0600080E0800080E0A00080E0C00080E0E000C0000000C0002000C0004000C0006000C0008000C000A000C000C000C000E000C0200000C0202000C0204000C0206000C0208000C020A000C020C000C020E000C0400000C0402000C0404000C0406000C0
310
408000C040A000C040C000C040E000C0600000C0602000C0604000C0606000C0608000C060A000C060C000C060E000C0800000C0802000C0804000C0806000C0808000C080A000C080C000C080E000C0A00000C0A02000C0A04000C0A06000C0A08000C0A0A000C0A0C000C0A0E000C0C00000C0C02000C0C04000C0C06000
310
C0C08000C0C0A000F0FBFF00A4A0A000808080000000FF0000FF000000FFFF00FF000000FF00FF00FFFF0000FFFFFF00A4A4A4A4A4A4A4A4A4A4A4A4A4A4A4A4A4A4A4A4A4A4A4A4A4A4A4A4A4A4A4A4A4A4A4A4A4A4A4A4A4A4A4A4A4A4A4A4A4A4A4A4A4A4A4A4A4A4A4A4A4A4A4A4A4A4A4A4A4A4A4A4A4A4A4A4A4A4A4
310
A4A4A4A4A4A4A4A4A4A4A4A4A4A4A4A4A4A4A4A4A4A4A4A4A4A4A4A4A4A4A4A4A4A4A4A4A4A4A4A4A4A4A4A4A4A4A4A4A4A4A4A4A4A4A4A4A4A4A4A4A4A4A4A4A4A4A4A4A4A4A4A4A4A4A4A4A4A4A4A4A4A4A4A4A4A4A4A4A4A4A4A4A4A4A4A4A4A4A4A4A4A4A4A4A4A4A4A4A4A4A4A4A4A4A4A4A4A4A4A4A4A4A4A4A4A4A4
310
A4A4A4A4A4A4A4A4A4A4A4A4A4A4A4A4A4A4A4A4A4A4A4A4A4A4A4A4A4A4A4A4A4A4A4A4A4A4A4A4A4A4A4A4A4A4A4A4A4A4A4A4A4A4A4A4A4A4A4A4A4A4A4A4A4A4A4A4A4A4A4A4A4A4A4A4A4A4A4A4A4A4A4A4A4A4A4A4A4A4A4A4A4A4A4A4A4A4A4A4A4A4A4A4A4A4A4A4A4A4A4A4A4A4A4A4A4A4A4A4A4A4A4A4A4A4A4
310
A4A4A4A4A4A4A4A4A4A4A4A4A4A4A4A4A4A4A4A4A4A4A4A4A4A4A4A4A4A4A4A4A4A4A4A4A4A4A4A4A4A4A4A4A4A4A4A4A4A4A4A4A4A4A4A4A4A4A4A4A4A4A4A4A4A4A4A4A4A4A4A4A4A4A4A4A4A4A4A4A4A4A4A4A4A4A4A4A4A4A4A4A4A4A4A4A4A4A4A4A4A4A4A4A4A4A4A4A4A4A4A4A4A4A4A4F9F9F9F9F9F9F9F9F9F9F9
310
F9F9F9F9F9F9F9F9F9F9F9F9F9F9F9F9F9F9F9A4A4F9F9F9F9F9F9F9F9F9F9F9F9F9F9F9F9F9F9F9F9F9F9F9F9F9F9F9F9F9F9A4A4F9F9F9F9F9F9F9F9F9F9F9F9F9F9F9F9F9F9F9F9F9F9F9F9F9F9F9F9F9F9A4A4F9A4A4A4A4A4A4A4A4A4A4A4A4A4A4A4A4A4A4A4A4A4A4A4A4A4A4A4A4F9A4A4A4A4A4A4A4A4A4A4A4A4
310
A4A4A4A4A4A4A4A4A4A4A4A4A4A4A4A4A4A4A4A4A4A4A4A4A4A4A4A4A4A4A4A4A4A4A4A4A4A4A4A4A4A4A4A4A4A4A4A4A4A4A4A4A4A4A4A4A4A4A4A4A4A4A4A4A4A4A4A4A4A4A4A4A4A4A4A4A4A4A4A4A4A4A4A4A4A4A4A4A4A4A4A4A4A4A4A4A4A4A4A4A4A4A4A4A4A4A4A4A4A4A4A4A4A4A4A4A4A4A4A4A4A4A4A4A4A4A4
310
A4A4A4A4A4A4A4A4A4A4A4A4A4A4A4A4A4A4A4A4A4A4A4A4A4A4A4A4A4A4A4A4A4A4A4A4A4A4A4A4A4A4A4A4A4A4A4A4A4A4A4A4A4A4A4A4A4A4A4A4A4A4A4A4A4A4A4A4A4A4A4A4A4A4A4A4A4A4A4A4A4A4A4A4A4A4A4A4A4A4A4A4A4A4A4A4A4A4A4A4A4A4A4A4A4A4A4A4A4A4A4A4A4A4A4A4A4A4A4A4A4A4A4A4A4A4A4
310
A4A4A4A4A4A4A4A4A4A4A4A4A4A4A4A4A4A4A4A4A4A4A4A4A4A4A4A4A4A4A4A4A4A4A4A4A4A4A4A4A4A4A4A4A4A4A4A4A4A4A4A4A4A4A4A4A4A4A4A4A4A4A4A4A4A4A4A4A4A4A4A4A4A4A4A4A4A4A4A4A4A4A4A4A4A4A4A4A4A4A4A4A4A4A4A4A4A4A4A4A4A4A4A4A4A4A4A4A4A4A4A4A4A4A4A4A4A4A4A4A4A4A4A4A4A4A4
310
A4A4A4A4A4A4A4A4A4A4A4A4A4A4A4A4A4A4A4A4A4A4A4A4A4A4A4A4A4A4A4A4A4A4A4A4A4A4A4A4A4A4A4A4A4A4A4A4A4A4A4A4A4A4A4A4
1001
ACAD
1000
DesignCenter Data
1002
{
1070
     1
1070
     4
1002
}
  0
BLOCK_RECORD
  5
AA8
330
1
100
AcDbSymbolTableRecord
100
AcDbBlockTableRecord
  2
_CLOSED
340
0
  0
BLOCK_RECORD
  5
B79
330
1
100
AcDbSymbolTableRecord
100
AcDbBlockTableRecord
  2
nota revisoes
340
0
1001
ACAD
1000
DesignCenter Data
1002
{
1070
     1
1070
     4
1002
}
  0
BLOCK_RECORD
  5
B8E
330
1
100
AcDbSymbolTableRecord
100
AcDbBlockTableRecord
  2
a3l
340
0
1001
ACAD
1000
DesignCenter Data
1002
{
1070
     1
1070
     4
1002
}
  0
BLOCK_RECORD
  5
B9E
330
1
100
AcDbSymbolTableRecord
100
AcDbBlockTableRecord
  2
legenda desenvolvimento
340
0
1001
ACAD
1000
DesignCenter Data
1002
{
1070
     1
1070
     4
1002
}
  0
ENDTAB
  0
ENDSEC
  0
SECTION
  2
BLOCKS
  0
BLOCK
  5
20
330
1F
100
AcDbEntity
  8
0
100
AcDbBlockBegin
  2
*Model_Space
 70
     0
 10
0.0
 20
0.0
 30
0.0
  3
*Model_Space
  1

  0
ENDBLK
  5
21
330
1F
100
AcDbEntity
  8
0
100
AcDbBlockEnd
  0
BLOCK
  5
1C
330
1B
100
AcDbEntity
 67
     1
  8
0
100
AcDbBlockBegin
  2
*Paper_Space
 70
     0
 10
0.0
 20
0.0
 30
0.0
  3
*Paper_Space
  1

  0
ENDBLK
  5
1D
330
1B
100
AcDbEntity
 67
     1
  8
0
100
AcDbBlockEnd
  0
BLOCK
  5
24
330
23
100
AcDbEntity
 67
     1
  8
0
100
AcDbBlockBegin
  2
*Paper_Space0
 70
     0
 10
0.0
 20
0.0
 30
0.0
  3
*Paper_Space0
  1

  0
ENDBLK
  5
25
330
23
100
AcDbEntity
 67
     1
  8
0
100
AcDbBlockEnd
  0
BLOCK
  5
91B
330
919
100
AcDbEntity
  8
0
100
AcDbBlockBegin
  2
_DotSmall
 70
     0
 10
0.0
 20
0.0
 30
0.0
  3
_DotSmall
  1

  0
LWPOLYLINE
  5
91A
330
919
100
AcDbEntity
  8
0
  6
ByBlock
 62
     0
100
AcDbPolyline
 90
        2
 70
     1
 43
0.5
 10
-0.0625
 20
0.0
 42
1.0
 10
0.0625
 20
0.0
 42
1.0
  0
ENDBLK
  5
91C
330
919
100
AcDbEntity
  8
0
100
AcDbBlockEnd
  0
BLOCK
  5
92A
330
922
100
AcDbEntity
  8
0
100
AcDbBlockBegin
  2
base para cotas
 70
     0
 10
0.0
 20
0.0
 30
0.0
  3
base para cotas
  1

  0
LINE
  5
B36
330
922
100
AcDbEntity
  8
cotas
100
AcDbLine
 10
0.0
 20
-30.0
 30
0.0
 11
327.1260136525398
 21
-30.0
 31
0.0
  0
LINE
  5
B37
330
922
100
AcDbEntity
  8
cotas
100
AcDbLine
 10
0.0
 20
-25.0
 30
0.0
 11
327.1260136525398
 21
-25.0
 31
0.0
  0
LINE
  5
B38
330
922
100
AcDbEntity
  8
cotas
100
AcDbLine
 10
0.0
 20
-20.0
 30
0.0
 11
327.1260136525398
 21
-20.0
 31
0.0
  0
LINE
  5
B39
330
922
100
AcDbEntity
  8
cotas
100
AcDbLine
 10
0.0
 20
-15.0
 30
0.0
 11
327.1260136525398
 21
-15.0
 31
0.0
  0
LINE
  5
B3A
330
922
100
AcDbEntity
  8
cotas
100
AcDbLine
 10
0.0
 20
-10.0
 30
0.0
 11
327.1260136525398
 21
-10.0
 31
0.0
  0
LINE
  5
B3B
330
922
100
AcDbEntity
  8
cotas
100
AcDbLine
 10
0.0
 20
0.0
 30
0.0
 11
0.0
 21
-30.0
 31
0.0
  0
LINE
  5
B3C
330
922
100
AcDbEntity
  8
cotas
100
AcDbLine
 10
327.1260136525398
 20
-30.0
 30
0.0
 11
327.1260136525398
 21
0.0
 31
0.0
  0
ENDBLK
  5
92B
330
922
100
AcDbEntity
  8
0
100
AcDbBlockEnd
  0
BLOCK
  5
AAD
330
AA8
100
AcDbEntity
  8
0
100
AcDbBlockBegin
  2
_CLOSED
 70
     0
 10
0.0
 20
0.0
 30
0.0
  3
_CLOSED
  1

  0
LINE
  5
AA9
330
AA8
100
AcDbEntity
  8
0
100
AcDbLine
 10
-1.0
 20
0.166667
 30
0.0
 11
0.0
 21
0.0
 31
0.0
  0
LINE
  5
AAA
330
AA8
100
AcDbEntity
  8
0
100
AcDbLine
 10
0.0
 20
0.0
 30
0.0
 11
-1.0
 21
-0.166667
 31
0.0
  0
LINE
  5
AAB
330
AA8
100
AcDbEntity
  8
0
100
AcDbLine
 10
-1.0
 20
0.166667
 30
0.0
 11
-1.0
 21
-0.166667
 31
0.0
  0
LINE
  5
AAC
330
AA8
100
AcDbEntity
  8
0
100
AcDbLine
 10
0.0
 20
0.0
 30
0.0
 11
-1.0
 21
0.0
 31
0.0
  0
ENDBLK
  5
AAE
330
AA8
100
AcDbEntity
  8
0
100
AcDbBlockEnd
  0
BLOCK
  5
B7C
330
B79
100
AcDbEntity
  8
0
100
AcDbBlockBegin
  2
nota revisoes
 70
     0
 10
0.0
 20
0.0
 30
0.0
  3
nota revisoes
  1

  0
CIRCLE
  5
B7A
330
B79
100
AcDbEntity
  8
4
100
AcDbCircle
 10
0.0
 20
0.0
 30
0.0
 40
13.69426055101189
  0
TEXT
  5
B7B
330
B79
100
AcDbEntity
  8
4
100
AcDbText
 10
-5.496248358154345
 20
-5.354545554066362
 30
0.0
 40
12.0
  1
1
  7
SANINDUSA
 72
     1
 11
-0.249774214433728
 21
-5.354545554066362
 31
0.0
100
AcDbText
  0
ENDBLK
  5
B7D
330
B79
100
AcDbEntity
  8
0
100
AcDbBlockEnd
  0
BLOCK
  5
B9C
330
B8E
100
AcDbEntity
  8
0
100
AcDbBlockBegin
  2
a3l
 70
     0
 10
0.0
 20
0.0
 30
0.0
  3
a3l
  1

  0
LINE
  5
B8F
330
B8E
100
AcDbEntity
  8
1
100
AcDbLine
 10
-364.2925296599447
 20
-362.1188951399395
 30
0.0
 11
-364.2925296599447
 21
-65.11889513993946
 31
0.0
  0
LINE
  5
B90
330
B8E
100
AcDbEntity
  8
4
100
AcDbLine
 10
-369.2925296599447
 20
-357.1188951399395
 30
0.0
 11
-369.2925296599447
 21
-70.11889513993946
 31
0.0
  0
LINE
  5
B91
330
B8E
100
AcDbEntity
  8
1
100
AcDbLine
 10
-784.2925296599446
 20
-65.11889513993946
 30
0.0
 11
-784.2925296599446
 21
-362.1188951399395
 31
0.0
  0
LINE
  5
B92
330
B8E
100
AcDbEntity
  8
4
100
AcDbLine
 10
-759.2925296599446
 20
-357.1188951399395
 30
0.0
 11
-759.2925296599446
 21
-70.11889513993946
 31
0.0
  0
LINE
  5
B93
330
B8E
100
AcDbEntity
  8
1
100
AcDbLine
 10
-784.2925296599446
 20
-362.1188951399395
 30
0.0
 11
-364.2925296599447
 21
-362.1188951399395
 31
0.0
  0
LINE
  5
B94
330
B8E
100
AcDbEntity
  8
4
100
AcDbLine
 10
-759.2925296599446
 20
-357.1188951399395
 30
0.0
 11
-369.2925296599447
 21
-357.1188951399395
 31
0.0
  0
LINE
  5
B95
330
B8E
100
AcDbEntity
  8
1
100
AcDbLine
 10
-654.2925296599446
 20
-357.1188951399395
 30
0.0
 11
-654.2925296599446
 21
-362.1188951399395
 31
0.0
  0
LINE
  5
B96
330
B8E
100
AcDbEntity
  8
1
100
AcDbLine
 10
-364.2925296599447
 20
-65.11889513993946
 30
0.0
 11
-784.2925296599446
 21
-65.11889513993946
 31
0.0
  0
LINE
  5
B97
330
B8E
100
AcDbEntity
  8
4
100
AcDbLine
 10
-369.2925296599447
 20
-70.11889513993946
 30
0.0
 11
-759.2925296599446
 21
-70.11889513993946
 31
0.0
  0
LINE
  5
B98
330
B8E
100
AcDbEntity
  8
1
100
AcDbLine
 10
-654.2925296599446
 20
-65.11889513993946
 30
0.0
 11
-654.2925296599446
 21
-70.11889513993946
 31
0.0
  0
LINE
  5
B99
330
B8E
100
AcDbEntity
  8
1
100
AcDbLine
 10
-549.2925296599446
 20
-70.11889513993946
 30
0.0
 11
-549.2925296599446
 21
-65.11889513993946
 31
0.0
  0
LINE
  5
B9A
330
B8E
100
AcDbEntity
  8
1
100
AcDbLine
 10
-369.2925296599447
 20
-65.11889513993946
 30
0.0
 11
-364.2925296599447
 21
-65.11889513993946
 31
0.0
  0
LINE
  5
B9B
330
B8E
100
AcDbEntity
  8
1
100
AcDbLine
 10
-549.2925296599446
 20
-357.1188951399395
 30
0.0
 11
-549.2925296599446
 21
-362.1188951399395
 31
0.0
  0
ENDBLK
  5
B9D
330
B8E
100
AcDbEntity
  8
0
100
AcDbBlockEnd
  0
BLOCK
  5
C13
330
B9E
100
AcDbEntity
  8
0
100
AcDbBlockBegin
  2
legenda desenvolvimento
 70
     2
 10
0.0
 20
0.0
 30
0.0
  3
legenda desenvolvimento
  1

  0
ATTDEF
  5
B9F
330
B9E
100
AcDbEntity
  8
1
100
AcDbText
 10
-108.606245802552
 20
55.5
 30
0.0
 40
4.0
  1
XXXXXXXXXXXXXX
 41
0.8
  7
SANINDUSA
 72
     4
 11
-87.5
 21
57.5
 31
0.0
100
AcDbAttributeDefinition
  3
Nome do Produto:
  2
PRODUTO
 70
     0
  0
ATTDEF
  5
BA0
330
B9E
100
AcDbEntity
  8
1
100
AcDbText
 10
-97.9997966101695
 20
41.25
 30
0.0
 40
3.0
  1
XXXXXXXXX
 41
0.8
  7
futura
 72
     4
 11
-87.5
 21
42.75
 31
0.0
100
AcDbAttributeDefinition
  3
Nome da Peça:
  2
PECA
 70
     0
  0
ATTDEF
  5
BA1
330
B9E
100
AcDbEntity
  8
1
100
AcDbText
 10
-133.4422431161853
 20
21.11745296763252
 30
0.0
 40
2.5
  1
X
 41
0.8
  7
SANINDUSA
 72
     4
 11
-132.5
 21
22.36745296763252
 31
0.0
100
AcDbAttributeDefinition
  3
Cod. TESTE:
  2
TESTE
 70
     0
  0
ATTDEF
  5
BA2
330
B9E
100
AcDbEntity
  8
1
100
AcDbText
 10
-124.3844862323707
 20
21.11745296763252
 30
0.0
 40
2.5
  1
XX
 41
0.8
  7
SANINDUSA
 72
     4
 11
-122.5
 21
22.36745296763252
 31
0.0
100
AcDbAttributeDefinition
  3
Cod. Ano:
  2
ANO
 70
     0
  0
ATTDEF
  5
BA3
330
B9E
100
AcDbEntity
  8
1
100
AcDbText
 10
-112.526889953052
 20
21.11745296763252
 30
0.0
 40
2.5
  1
XXX
 41
0.8
  7
SANINDUSA
 72
     4
 11
-109.700160604496
 21
22.36745296763252
 31
0.0
100
AcDbAttributeDefinition
  3
Cod. Sequência:
  2
SEQUENCIA
 70
     0
  0
ATTDEF
  5
BA4
330
B9E
100
AcDbEntity
  8
1
100
AcDbText
 10
-99.35382430979316
 20
21.11745296763252
 30
0.0
 40
2.5
  1
XX
 41
0.8
  7
SANINDUSA
 72
     4
 11
-97.46933807742244
 21
22.36745296763252
 31
0.0
100
AcDbAttributeDefinition
  3
Cod. Tipo:
  2
TIPO
 70
     0
  0
ATTDEF
  5
BA5
330
B9E
100
AcDbEntity
  8
1
100
AcDbText
 10
-87.42035911468438
 20
21.11745296763252
 30
0.0
 40
2.5
  1
XXX
 41
0.8
  7
SANINDUSA
 72
     4
 11
-84.59362976612828
 21
22.36745296763252
 31
0.0
100
AcDbAttributeDefinition
  3
Cod. Produto:
  2
PRODUTO
 70
     0
  0
ATTDEF
  5
BA6
330
B9E
100
AcDbEntity
  8
1
100
AcDbText
 10
-74.62051971917853
 20
21.11745296763252
 30
0.0
 40
2.5
  1
XXX
 41
0.8
  7
SANINDUSA
 72
     4
 11
-71.79379037062244
 21
22.36745296763252
 31
0.0
100
AcDbAttributeDefinition
  3
Cod. Peça:
  2
PECA
 70
     0
  0
ATTDEF
  5
BA7
330
B9E
100
AcDbEntity
  8
1
100
AcDbText
 10
-61.10603446650329
 20
21.11745296763252
 30
0.0
 40
2.5
  1
XX
 41
0.8
  7
SANINDUSA
 72
     4
 11
-59.22154823413257
 21
22.36745296763252
 31
0.0
100
AcDbAttributeDefinition
  3
Cod. Revisão:
  2
REV
 70
     0
  0
ATTDEF
  5
BA8
330
B9E
100
AcDbEntity
  8
1
100
AcDbText
 10
-48.43615325006194
 20
21.11745296763252
 30
0.0
 40
2.5
  1
XX
 41
0.8
  7
SANINDUSA
 72
     4
 11
-46.55166701769121
 21
22.36745296763252
 31
0.0
100
AcDbAttributeDefinition
  3
Cod. Alteração:
  2
ALT
 70
     0
  0
ATTDEF
  5
BA9
330
B9E
100
AcDbEntity
  8
1
100
AcDbText
 10
-35.19086635325722
 20
23.98875083948959
 30
0.0
 40
3.0
  1
1/XXX
 41
0.8
  7
SANINDUSA
 72
     4
 11
-30.0
 21
25.25
 31
0.0
100
AcDbAttributeDefinition
  3
Escala geral:
  2
ESCALA
 70
     0
  0
ATTDEF
  5
BAA
330
B9E
100
AcDbEntity
  8
1
100
AcDbText
 10
-15.65345869711215
 20
23.75
 30
0.0
 40
3.0
  1
XXXXX
 41
0.8
  7
SANINDUSA
 72
     4
 11
-10.0
 21
25.25
 31
0.0
100
AcDbAttributeDefinition
  3
Folha:
  2
FOLHA
 70
     0
  0
ATTDEF
  5
BAB
330
B9E
100
AcDbEntity
  8
1
100
AcDbText
 10
-178.5146998822042
 20
56.9531347542807
 30
0.0
 40
2.0
  1
xx
 41
0.8
  7
SANINDUSA
 72
     4
 11
-177.2123493113513
 21
57.70330265219877
 31
0.0
100
AcDbAttributeDefinition
  3
revisão
  2
REV.
 70
     0
  0
ATTDEF
  5
BAC
330
B9E
100
AcDbEntity
  8
1
100
AcDbText
 10
-172.7849640077129
 20
56.9531347542807
 30
0.0
 40
2.0
  1
xx
 41
0.8
  7
SANINDUSA
 72
     4
 11
-171.48261343686
 21
57.70330265219877
 31
0.0
100
AcDbAttributeDefinition
  3
alteração
  2
ALT.
 70
     0
  0
ATTDEF
  5
BAD
330
B9E
100
AcDbEntity
  8
1
100
AcDbText
 10
-168.007199951307
 20
56.70330265219877
 30
0.0
 40
2.0
  1
xx/xx/xxxx
 41
0.8
  7
SANINDUSA
 11
-168.007199951307
 21
57.70330265219877
 31
0.0
100
AcDbAttributeDefinition
  3
data
  2
DATA
 70
     0
 74
     2
  0
ATTDEF
  5
BAE
330
B9E
100
AcDbEntity
  8
1
100
AcDbText
 10
-168.5396372253371
 20
13.15916722632639
 30
0.0
 40
2.0
  1
XX/XX/XXXX
 41
0.8
  7
SANINDUSA
 72
     4
 11
-161.5099528734231
 21
14.0
 31
0.0
100
AcDbAttributeDefinition
  3
Data projecto
  2
DATA_PROJ
 70
     0
  0
ATTDEF
  5
BAF
330
B9E
100
AcDbEntity
  8
1
100
AcDbText
 10
-150.8658110728766
 20
13.24983210208193
 30
0.0
 40
2.0
  1
xxxxxxxx
 41
0.8
  7
SANINDUSA
 72
     4
 11
-145.6564087894649
 21
14.0
 31
0.0
100
AcDbAttributeDefinition
  3
nome de quem projectou
  2
NOME
 70
     0
  0
ATTDEF
  5
BB0
330
B9E
100
AcDbEntity
  8
1
100
AcDbText
 10
-168.5396372253371
 20
9.159167226326394
 30
0.0
 40
2.0
  1
XX/XX/XXXX
 41
0.8
  7
SANINDUSA
 72
     4
 11
-161.5099528734231
 21
10.0
 31
0.0
100
AcDbAttributeDefinition
  3
Data desenhou
  2
DATA_DES
 70
     0
  0
ATTDEF
  5
BB1
330
B9E
100
AcDbEntity
  8
1
100
AcDbText
 10
-151.516986358303
 20
9.249832102081933
 30
0.0
 40
2.0
  1
xxxxxxxxx
 41
0.8
  7
SANINDUSA
 72
     4
 11
-145.6564087894649
 21
10.0
 31
0.0
100
AcDbAttributeDefinition
  3
nome
  2
NOME
 70
     0
  0
ATTDEF
  5
BB2
330
B9E
100
AcDbEntity
  8
1
100
AcDbText
 10
-127.2924214135946
 20
14.1979876583216
 30
0.0
 40
2.0
  1
Vitreous China
 41
0.8
  7
SANINDUSA
 72
     4
 11
-119.231709526422
 21
15.22216495852308
 31
0.0
100
AcDbAttributeDefinition
  3
Nome do Material:
  2
MATERIAL
 70
     0
  0
ATTDEF
  5
BB3
330
B9E
100
AcDbEntity
  8
1
100
AcDbText
 10
-103.1563452122093
 20
14.38019043949261
 30
0.0
 40
2.0
  1
Branco
 41
0.8
  7
SANINDUSA
 72
     4
 11
-99.33418268702462
 21
15.35937109765245
 31
0.0
100
AcDbAttributeDefinition
  3
cor da peça
  2
COR
 70
     0
  0
ATTDEF
  5
BB4
330
B9E
100
AcDbEntity
  8
1
100
AcDbText
 10
-116.7235057085292
 20
5.975822699798522
 30
0.0
 40
2.0
  1
Vidrado
 41
0.8
  7
SANINDUSA
 72
     4
 11
-112.5
 21
7.0
 31
0.0
100
AcDbAttributeDefinition
  3
Tipo de acabamento:
  2
ACABAMENTO
 70
     0
  0
ATTDEF
  5
BB5
330
B9E
100
AcDbEntity
  8
1
100
AcDbText
 10
-79.18527869967246
 20
16.65066409850533
 30
0.0
 40
2.0
  1
XXXXXXX
 41
0.8
  7
SANINDUSA
 72
     4
 11
-73.90871724903445
 21
17.65066409850533
 31
0.0
100
AcDbAttributeDefinition
  3
Normas
  2
NORMAS
 70
     0
  0
ATTDEF
  5
BB6
330
B9E
100
AcDbEntity
  8
1
100
AcDbText
 10
-30.55312290127603
 20
14.0
 30
0.0
 40
2.0
  1
XXXXXXXXXXXXXX
 41
0.8
  7
SANINDUSA
 72
     4
 11
-20.0
 21
15.0
 31
0.0
100
AcDbAttributeDefinition
  3
Substitui o desenho:
  2
SUBSTITUI
 70
     0
  0
ATTDEF
  5
BB7
330
B9E
100
AcDbEntity
  8
1
100
AcDbText
 10
-31.30691739422431
 20
6.0
 30
0.0
 40
2.0
  1
XXXXXXXXXXXXXXX
 41
0.8
  7
SANINDUSA
 72
     4
 11
-20.0
 21
7.0
 31
0.0
100
AcDbAttributeDefinition
  3
Substituido por:
  2
SUBSTITUIDO
 70
     0
  0
ATTDEF
  5
BB8
330
B9E
100
AcDbEntity
  8
1
100
AcDbText
 10
-110.0220608548302
 20
1.478208457928303
 30
0.0
 40
2.0
  1
XXXXXXXXXXXXXXXXXXXXXXXXXXXXXXXXXX
 41
0.8
  7
SANINDUSA
 11
-110.0220608548302
 21
2.478208457928303
 31
0.0
100
AcDbAttributeDefinition
  3
Localização do desenho:
  2
LOC-DWG
 70
     0
 74
     2
  0
LINE
  5
BB9
330
B9E
100
AcDbEntity
  8
3
100
AcDbLine
 10
-135.0
 20
4.0
 30
0.0
 11
0.0000000000004547
 21
4.0
 31
0.0
  0
LINE
  5
BBA
330
B9E
100
AcDbEntity
  8
3
100
AcDbLine
 10
-90.00000000000046
 20
12.0
 30
0.0
 11
-135.0
 21
12.0
 31
0.0
  0
LINE
  5
BBB
330
B9E
100
AcDbEntity
  8
3
100
AcDbLine
 10
-135.0
 20
32.5
 30
0.0
 11
-40.0
 21
32.5
 31
0.0
  0
TEXT
  5
BBC
330
B9E
100
AcDbEntity
  8
1
100
AcDbText
 10
-134.0
 20
1.25
 30
0.0
 40
2.0
  1
Localização do des.:
 41
0.8
  7
SANINDUSA
 11
-134.0
 21
2.25
 31
0.0
100
AcDbText
 73
     2
  0
LINE
  5
BBD
330
B9E
100
AcDbEntity
  8
3
100
AcDbLine
 10
-180.0
 20
65.0
 30
0.0
 11
0.0
 21
65.0
 31
0.0
  0
LINE
  5
BBE
330
B9E
100
AcDbEntity
  8
leg fin
100
AcDbLine
 10
-40.0
 20
25.05956924886846
 30
0.0
 11
-135.0
 21
25.05956924886846
 31
0.0
  0
LINE
  5
BBF
330
B9E
100
AcDbEntity
  8
leg fin
100
AcDbLine
 10
-40.0
 20
28.5
 30
0.0
 11
-135.0
 21
28.5
 31
0.0
  0
LINE
  5
BC0
330
B9E
100
AcDbEntity
  8
3
100
AcDbLine
 10
-135.0
 20
50.0
 30
0.0
 11
-40.0
 21
50.0
 31
0.0
  0
TEXT
  5
BC1
330
B9E
100
AcDbEntity
  8
1
100
AcDbText
 10
-134.0
 20
29.75
 30
0.0
 40
2.0
  1
Desenho nº:
 41
0.8
  7
SANINDUSA
 11
-134.0
 21
30.75
 31
0.0
100
AcDbText
 73
     2
  0
TEXT
  5
BC2
330
B9E
100
AcDbEntity
  8
1
100
AcDbText
 10
-134.0
 20
9.25
 30
0.0
 40
2.0
  1
Acabamento:
 41
0.8
  7
SANINDUSA
 11
-134.0
 21
10.25
 31
0.0
100
AcDbText
 73
     2
  0
LINE
  5
BC3
330
B9E
100
AcDbEntity
  8
3
100
AcDbLine
 10
-180.0
 20
20.0
 30
0.0
 11
0.0
 21
20.0
 31
0.0
  0
LINE
  5
BC4
330
B9E
100
AcDbEntity
  8
1
100
AcDbLine
 10
-174.5810776056337
 20
55.5
 30
0.0
 11
-174.5810776056337
 21
65.0
 31
0.0
  0
LINE
  5
BC5
330
B9E
100
AcDbEntity
  8
1
100
AcDbLine
 10
-168.9210461879161
 20
55.5
 30
0.0
 11
-168.9210461879161
 21
65.0
 31
0.0
  0
LINE
  5
BC6
330
B9E
100
AcDbEntity
  8
1
100
AcDbLine
 10
-154.0988595589306
 20
55.5
 30
0.0
 11
-154.0988595589306
 21
65.0
 31
0.0
  0
LINE
  5
BC7
330
B9E
100
AcDbEntity
  8
3
100
AcDbLine
 10
-180.0
 20
65.0
 30
0.0
 11
-180.0
 21
0.0
 31
0.0
  0
LINE
  5
BC8
330
B9E
100
AcDbEntity
  8
3
100
AcDbLine
 10
-135.0
 20
0.0
 30
0.0
 11
-135.0
 21
65.0
 31
0.0
  0
TEXT
  5
BC9
330
B9E
100
AcDbEntity
  8
1
100
AcDbText
 10
-179.0
 20
9.75
 30
0.0
 40
1.5
  1
Des.
 41
0.8
  7
SANINDUSA
 11
-179.0
 21
10.5
 31
0.0
100
AcDbText
 73
     2
  0
LINE
  5
BCA
330
B9E
100
AcDbEntity
  8
1
100
AcDbLine
 10
-168.9210461879161
 20
20.0
 30
0.0
 11
-168.9210461879161
 21
0.0
 31
0.0
  0
LINE
  5
BCB
330
B9E
100
AcDbEntity
  8
1
100
AcDbLine
 10
-154.0988595589306
 20
20.0
 30
0.0
 11
-154.0988595589306
 21
0.0
 31
0.0
  0
LINE
  5
BCC
330
B9E
100
AcDbEntity
  8
1
100
AcDbLine
 10
-180.0
 20
4.0
 30
0.0
 11
-135.0
 21
4.0
 31
0.0
  0
LINE
  5
BCD
330
B9E
100
AcDbEntity
  8
1
100
AcDbLine
 10
-180.0
 20
8.0
 30
0.0
 11
-135.0
 21
8.0
 31
0.0
  0
TEXT
  5
BCE
330
B9E
100
AcDbEntity
  8
1
100
AcDbText
 10
-179.0
 20
1.73257823687436
 30
0.0
 40
1.5
  1
Aprov.
 41
0.8
  7
SANINDUSA
 11
-179.0
 21
2.48257823687436
 31
0.0
100
AcDbText
 73
     2
  0
TEXT
  5
BCF
330
B9E
100
AcDbEntity
  8
1
100
AcDbText
 10
-179.0
 20
5.75
 30
0.0
 40
1.5
  1
Ver.
 41
0.8
  7
SANINDUSA
 11
-179.0
 21
6.5
 31
0.0
100
AcDbText
 73
     2
  0
LINE
  5
BD0
330
B9E
100
AcDbEntity
  8
1
100
AcDbLine
 10
-180.0
 20
16.0
 30
0.0
 11
-135.0
 21
16.0
 31
0.0
  0
LINE
  5
BD1
330
B9E
100
AcDbEntity
  8
1
100
AcDbLine
 10
-180.0
 20
12.0
 30
0.0
 11
-135.0
 21
12.0
 31
0.0
  0
TEXT
  5
BD2
330
B9E
100
AcDbEntity
  8
1
100
AcDbText
 10
-179.0
 20
13.75
 30
0.0
 40
1.5
  1
Proj.
 41
0.8
  7
SANINDUSA
 11
-179.0
 21
14.5
 31
0.0
100
AcDbText
 73
     2
  0
TEXT
  5
BD3
330
B9E
100
AcDbEntity
  8
1
100
AcDbText
 10
-167.9210461879161
 20
17.75
 30
0.0
 40
1.5
  1
Data
 41
0.8
  7
SANINDUSA
 11
-167.9210461879161
 21
18.5
 31
0.0
100
AcDbText
 73
     2
  0
TEXT
  5
BD4
330
B9E
100
AcDbEntity
  8
1
100
AcDbText
 10
-153.0988595589306
 20
17.75
 30
0.0
 40
1.5
  1
Nome
 41
0.8
  7
SANINDUSA
 11
-153.0988595589306
 21
18.5
 31
0.0
100
AcDbText
 73
     2
  0
LINE
  5
BD5
330
B9E
100
AcDbEntity
  8
leg fin
100
AcDbLine
 10
-130.0
 20
20.0
 30
0.0
 11
-130.0
 21
28.5
 31
0.0
  0
TEXT
  5
BD6
330
B9E
100
AcDbEntity
  8
1
100
AcDbText
 10
-134.0
 20
17.25
 30
0.0
 40
2.0
  1
Material:
 41
0.8
  7
SANINDUSA
 11
-134.0
 21
18.25
 31
0.0
100
AcDbText
 73
     2
  0
TEXT
  5
BD7
330
B9E
100
AcDbEntity
  8
1
100
AcDbText
 10
-129.0
 20
26.43288406845113
 30
0.0
 40
1.5
  1
Ano:
 41
0.8
  7
SANINDUSA
 11
-129.0
 21
27.18288406845113
 31
0.0
100
AcDbText
 73
     2
  0
LINE
  5
BD8
330
B9E
100
AcDbEntity
  8
1
100
AcDbLine
 10
-180.0
 20
55.5
 30
0.0
 11
-135.0
 21
55.5
 31
0.0
  0
TEXT
  5
BD9
330
B9E
100
AcDbEntity
  8
1
100
AcDbText
 10
-179.0
 20
52.67772246885193
 30
0.0
 40
1.5
  1
descrição
 41
0.8
  7
SANINDUSA
 11
-179.0
 21
53.42772246885193
 31
0.0
100
AcDbText
 73
     2
  0
TEXT
  5
BDA
330
B9E
100
AcDbEntity
  8
1
100
AcDbText
 10
-134.0
 20
47.25
 30
0.0
 40
2.0
  1
Peça:
 41
0.8
  7
SANINDUSA
 11
-134.0
 21
48.25
 31
0.0
100
AcDbText
 73
     2
  0
LINE
  5
BDB
330
B9E
100
AcDbEntity
  8
1
100
AcDbLine
 10
-180.0
 20
59.5
 30
0.0
 11
-135.0
 21
59.5
 31
0.0
  0
TEXT
  5
BDC
330
B9E
100
AcDbEntity
  8
1
100
AcDbText
 10
-173.5810776056337
 20
62.75
 30
0.0
 40
1.5
  1
Alt.
 41
0.8
  7
SANINDUSA
 11
-173.5810776056337
 21
63.5
 31
0.0
100
AcDbText
 73
     2
  0
TEXT
  5
BDD
330
B9E
100
AcDbEntity
  8
1
100
AcDbText
 10
-179.0
 20
62.75
 30
0.0
 40
1.5
  1
Rev.
 41
0.8
  7
SANINDUSA
 11
-179.0
 21
63.5
 31
0.0
100
AcDbText
 73
     2
  0
TEXT
  5
BDE
330
B9E
100
AcDbEntity
  8
1
100
AcDbText
 10
-167.9210461879161
 20
62.75
 30
0.0
 40
1.5
  1
Data
 41
0.8
  7
SANINDUSA
 11
-167.9210461879161
 21
63.5
 31
0.0
100
AcDbText
 73
     2
  0
TEXT
  5
BDF
330
B9E
100
AcDbEntity
  8
1
100
AcDbText
 10
-153.0988595589306
 20
62.75
 30
0.0
 40
1.5
  1
Nome
 41
0.8
  7
SANINDUSA
 11
-153.0988595589306
 21
63.5
 31
0.0
100
AcDbText
 73
     2
  0
TEXT
  5
BE0
330
B9E
100
AcDbEntity
  8
1
100
AcDbText
 10
-134.0
 20
62.25
 30
0.0
 40
2.0
  1
Produto:
 41
0.8
  7
SANINDUSA
 11
-134.0
 21
63.25
 31
0.0
100
AcDbText
 73
     2
  0
LINE
  5
BE1
330
B9E
100
AcDbEntity
  8
3
100
AcDbLine
 10
-40.0
 20
4.0
 30
0.0
 11
-40.0
 21
65.0
 31
0.0
  0
LWPOLYLINE
  5
BE2
102
{ACAD_REACTORS
330
BEC
102
}
330
B9E
100
AcDbEntity
  8
9
100
AcDbPolyline
 90
       12
 70
     1
 43
0.0
 10
-3.038714600644652
 20
58.90010174665076
 10
-5.726962862472191
 20
58.90010174665076
 10
-5.726962862472191
 20
58.5001017466509
 10
-3.038748516195028
 20
58.5001017466509
 42
-0.4142135623731731
 10
-2.638748516194482
 20
58.1001017466508
 10
-2.638748516194482
 20
57.42799728675596
 10
-5.21497371544865
 20
57.42799728675596
 42
0.4142135623731289
 10
-6.014973715448377
 20
56.627997286756
 10
-6.014973715448377
 20
55.92380871629643
 42
0.4142135623731132
 10
-5.21497371544865
 20
55.12380871629648
 10
-2.23871460064447
 20
55.12380871629648
 10
-2.23871460064447
 20
58.10010174665103
 42
0.4142135623730717
  0
LWPOLYLINE
  5
BE3
102
{ACAD_REACTORS
330
BEC
102
}
330
B9E
100
AcDbEntity
  8
9
100
AcDbPolyline
 90
       20
 70
     1
 43
0.0
 10
-10.01531287095122
 20
57.82799728675581
 10
-10.01531287095122
 20
58.10010174665103
 42
-0.4142135623730744
 10
-9.615312870951584
 20
58.5001017466509
 10
-6.92703069357276
 20
58.5001017466509
 10
-6.92703069357276
 20
58.90010174665076
 10
-9.615346786501959
 20
58.90010174665076
 42
0.4142135623730883
 10
-10.41534678650168
 20
58.1001017466508
 10
-10.41534678650168
 20
57.82796337120567
 42
0.4142135623730717
 10
-9.615346786501959
 20
57.02796337120571
 10
-7.423079531965413
 20
57.02796337120571
 42
-0.4142135623730847
 10
-7.023079531965322
 20
56.62796337120562
 10
-7.023079531965322
 20
55.90786840766487
 42
-0.4142135623730744
 10
-7.423079531965413
 20
55.507868407665
 10
-10.41534678650168
 20
55.507868407665
 10
-10.41534678650168
 20
55.12380871629648
 10
-7.445787917283723
 20
55.12380871629648
 42
0.4114777732064574
 10
-6.645822882998345
 20
55.9163291493976
 10
-6.639238813324936
 20
56.62051771985716
 42
0.4169546541682913
 10
-7.439203847610315
 20
57.42799728675596
 10
-9.615312870951584
 20
57.42799728675596
 42
-0.4142135623731576
  0
LWPOLYLINE
  5
BE4
102
{ACAD_REACTORS
330
BEC
102
}
330
B9E
100
AcDbEntity
  8
9
100
AcDbPolyline
 90
       12
 70
     1
 43
0.0
 10
-14.41561811090378
 20
58.90010174665076
 10
-14.79964388672215
 20
58.90010174665076
 10
-14.79964388672215
 20
55.92380871629643
 42
0.4142135623731133
 10
-13.99964388672242
 20
55.12380871629648
 10
-11.8233508563676
 20
55.12380871629648
 42
0.4142135623730872
 10
-11.02335085636741
 20
55.92380871629643
 10
-11.02335085636741
 20
58.90010174665076
 10
-11.42338477191788
 20
58.90010174665076
 10
-11.42338477191788
 20
55.91567577726095
 42
-0.4131711701795318
 10
-11.82196067063523
 20
55.51567831234956
 10
-14.0141940096214
 20
55.50787335710947
 42
-0.4152567234624407
 10
-14.41561811090378
 20
55.90787082202087
  0
LWPOLYLINE
  5
BE5
102
{ACAD_REACTORS
330
BEC
102
}
330
B9E
100
AcDbEntity
  8
9
100
AcDbPolyline
 90
        6
 70
     1
 43
0.0
 10
-15.80771578768872
 20
55.507868407665
 10
-18.39994912667453
 20
55.507868407665
 42
-0.4142135623731731
 10
-18.79994912667462
 20
55.90786840766487
 10
-18.79994912667462
 20
58.10010174665103
 42
-0.4142135623730744
 10
-18.39994912667453
 20
58.5001017466509
 10
-15.80771578768872
 20
58.5001017466509
  0
LWPOLYLINE
  5
BE6
102
{ACAD_REACTORS
330
BEC
102
}
330
B9E
100
AcDbEntity
  8
9
100
AcDbPolyline
 90
        8
 70
     1
 43
0.0
 10
-15.4236900118708
 20
59.87619128370352
 10
-15.80771578768872
 20
59.87619128370352
 10
-15.80771578768872
 20
58.90010174665076
 10
-18.39176256411201
 20
58.90010174665076
 42
0.4131164467977967
 10
-19.19175694739761
 20
58.1030995310698
 10
-19.1999120763262
 20
55.92680650071542
 42
0.4153115297271718
 10
-18.39991769304061
 20
55.12380871629648
 10
-15.4236900118708
 20
55.12380871629648
  0
LWPOLYLINE
  5
BE7
102
{ACAD_REACTORS
330
BEC
102
}
330
B9E
100
AcDbEntity
  8
9
100
AcDbPolyline
 90
       10
 70
     1
 43
0.0
 10
-20.59201288790928
 20
58.90010174665076
 10
-23.56830591826338
 20
58.90010174665076
 10
-23.56830591826338
 20
55.12380871629648
 10
-23.18424622689509
 20
55.12380871629648
 10
-23.18424622689509
 20
58.5001017466509
 10
-20.59204680345965
 20
58.5001017466509
 42
-0.4142135623730898
 10
-20.19204680345956
 20
58.1001017466508
 10
-20.19204680345956
 20
55.12380871629648
 10
-19.79201288790909
 20
55.12380871629648
 10
-19.79201288790909
 20
58.10010174665103
 42
0.4142135623731132
  0
LWPOLYLINE
  5
BE8
102
{ACAD_REACTORS
330
BEC
102
}
330
B9E
100
AcDbEntity
  8
9
100
AcDbPolyline
 90
        4
 70
     1
 43
0.0
 10
-24.19231812786165
 20
58.90010174665076
 10
-24.57637781922995
 20
58.90010174665076
 10
-24.57637781922995
 20
55.12380871629648
 10
-24.19231812786165
 20
55.12380871629648
  0
LWPOLYLINE
  5
BE9
102
{ACAD_REACTORS
330
BEC
102
}
330
B9E
100
AcDbEntity
  8
9
100
AcDbPolyline
 90
       10
 70
     1
 43
0.0
 10
-28.57661522808212
 20
58.5001017466509
 10
-25.98444972019706
 20
58.5001017466509
 42
-0.4142135623731731
 10
-25.58444972019652
 20
58.1001017466508
 10
-25.58444972019652
 20
55.12380871629648
 10
-25.2004239443786
 20
55.12380871629648
 10
-25.2004239443786
 20
58.10010174665103
 42
0.4142135623730717
 10
-26.00042394437833
 20
58.90010174665076
 10
-28.97664914363259
 20
58.90010174665076
 10
-28.97664914363259
 20
55.12380871629648
 10
-28.57661522808212
 20
55.12380871629648
  0
LWPOLYLINE
  5
BEA
102
{ACAD_REACTORS
330
BEC
102
}
330
B9E
100
AcDbEntity
  8
9
100
AcDbPolyline
 90
       12
 70
     1
 43
0.0
 10
-29.58465321349832
 20
58.10010174665103
 42
0.4142135623730716
 10
-30.3846532134985
 20
58.90010174665076
 10
-33.07296930642724
 20
58.90010174665076
 10
-33.07296930642724
 20
58.5001017466509
 10
-30.38468712904842
 20
58.5001017466509
 42
-0.4142135623730067
 10
-29.98468712904878
 20
58.1001017466508
 10
-29.98468712904878
 20
57.42799728675618
 10
-32.56098015940324
 20
57.42799728675596
 42
0.4142135623731289
 10
-33.36098015940343
 20
56.627997286756
 10
-33.36098015940343
 20
55.92380871629643
 42
0.4142135623731132
 10
-32.56098015940324
 20
55.12380871629648
 10
-29.58465321349832
 20
55.12380871629648
  0
LWPOLYLINE
  5
BEB
102
{ACAD_REACTORS
330
BEC
102
}
330
B9E
100
AcDbEntity
  8
9
100
AcDbPolyline
 90
       20
 70
     1
 43
0.0
 10
-34.7850262845518
 20
57.42799728675596
 10
-36.96125148380543
 20
57.42799728675596
 42
-0.4142135623730898
 10
-37.36125148380552
 20
57.82799728675604
 10
-37.36125148380552
 20
58.10010174665103
 42
-0.4142135623730744
 10
-36.96125148380543
 20
58.5001017466509
 10
-34.27303713752781
 20
58.50010174665067
 10
-34.27303713752781
 20
58.90010174665076
 10
-36.96128539935535
 20
58.90010174665076
 42
0.4142135623731289
 10
-37.76128539935553
 20
58.1001017466508
 10
-37.76128539935553
 20
57.82796337120567
 42
0.4142135623730716
 10
-36.9612853993558
 20
57.02796337120571
 10
-34.76901814481926
 20
57.02796337120571
 42
-0.414213562373168
 10
-34.36901814481962
 20
56.62796337120562
 10
-34.36901814481962
 20
55.90786840766487
 42
-0.4142135623730744
 10
-34.76901814481926
 20
55.507868407665
 10
-37.76128539935553
 20
55.507868407665
 10
-37.76128539935553
 20
55.12380871629648
 10
-34.7850262845518
 20
55.12380871629648
 42
0.4142135623731289
 10
-33.98502628455162
 20
55.92380871629643
 10
-33.98502628455162
 20
56.627997286756
 42
0.4142135623731132
  0
HATCH
  5
BEC
330
B9E
100
AcDbEntity
  8
9
100
AcDbHatch
 10
0.0
 20
0.0
 30
0.0
210
0.0
220
0.0
230
1.0
  2
SOLID
 70
     1
 71
     1
 91
       13
 92
        7
 72
     1
 73
     1
 93
       20
 10
-34.36901814481962
 20
55.90786840766487
 42
-0.414213562372991
 10
-34.76901814481926
 20
55.507868407665
 42
0.0
 10
-37.76128539935553
 20
55.507868407665
 42
0.0
 10
-37.76128539935553
 20
55.12380871629648
 42
0.0
 10
-34.7850262845518
 20
55.12380871629648
 42
0.4142135623731705
 10
-33.98502628455162
 20
55.92380871629666
 42
0.0
 10
-33.98502628455162
 20
56.627997286756
 42
0.4142135623731547
 10
-34.7850262845518
 20
57.42799728675596
 42
0.0
 10
-36.96125148380543
 20
57.42799728675596
 42
-0.4142135623730898
 10
-37.36125148380552
 20
57.82799728675604
 42
0.0
 10
-37.36125148380552
 20
58.1001017466508
 42
-0.4142135623731575
 10
-36.96125148380543
 20
58.5001017466509
 42
0.0
 10
-34.27303713752781
 20
58.50010174665067
 42
0.0
 10
-34.27303713752781
 20
58.90010174665076
 42
0.0
 10
-36.96128539935535
 20
58.90010174665076
 42
0.4142135623731705
 10
-37.76128539935553
 20
58.10010174665058
 42
0.0
 10
-37.76128539935553
 20
57.82796337120544
 42
0.4142135623730299
 10
-36.9612853993558
 20
57.02796337120571
 42
0.0
 10
-34.76901814481926
 20
57.02796337120571
 42
-0.4142135623730015
 10
-34.36901814481962
 20
56.62796337120608
 42
0.0
 97
        1
330
BEB
 92
        7
 72
     1
 73
     1
 93
       12
 10
-33.36098015940343
 20
55.92380871629666
 42
0.4142135623731547
 10
-32.56098015940324
 20
55.12380871629648
 42
0.0
 10
-29.58465321349877
 20
55.12380871629648
 42
0.0
 10
-29.58465321349832
 20
58.10010174665058
 42
0.4142135623731964
 10
-30.3846532134985
 20
58.90010174665076
 42
0.0
 10
-33.07296930642724
 20
58.90010174665076
 42
0.0
 10
-33.07296930642724
 20
58.50010174665067
 42
0.0
 10
-30.38468712904887
 20
58.5001017466509
 42
-0.4142135623732564
 10
-29.98468712904878
 20
58.10010174665103
 42
0.0
 10
-29.98468712904923
 20
57.42799728675596
 42
0.0
 10
-32.56098015940324
 20
57.42799728675596
 42
0.4142135623731705
 10
-33.36098015940343
 20
56.627997286756
 42
0.0
 97
        1
330
BEA
 92
       22
 72
     1
 73
     1
 93
        6
 10
-32.97692046803468
 20
56.62796337120562
 42
-0.4142135623731576
 10
-32.57692046803459
 20
57.02796337120571
 42
0.0
 10
-29.98468712904878
 20
57.02796337120571
 42
0.0
 10
-29.98468712904878
 20
55.507868407665
 42
0.0
 10
-32.57692046803459
 20
55.507868407665
 42
-0.4142135623731731
 10
-32.97692046803468
 20
55.90786840766487
 42
0.0
 97
        1
330
C11
 92
        7
 72
     1
 73
     1
 93
       10
 10
-28.57661522808212
 20
58.5001017466509
 42
0.0
 10
-25.98444972019661
 20
58.5001017466509
 42
-0.4142135623730067
 10
-25.58444972019652
 20
58.10010174665058
 42
0.0
 10
-25.58444972019606
 20
55.12380871629648
 42
0.0
 10
-25.20042394437906
 20
55.12380871629648
 42
0.0
 10
-25.2004239443786
 20
58.1001017466508
 42
0.4142135623731134
 10
-26.00042394437833
 20
58.90010174665076
 42
0.0
 10
-28.97664914363259
 20
58.90010174665076
 42
0.0
 10
-28.97664914363259
 20
55.12380871629648
 42
0.0
 10
-28.57661522808212
 20
55.12380871629648
 42
0.0
 97
        1
330
BE9
 92
        7
 72
     0
 73
     1
 93
        4
 10
-24.57637781922995
 20
55.12380871629648
 10
-24.19231812786165
 20
55.12380871629648
 10
-24.19231812786165
 20
58.90010174665076
 10
-24.57637781922995
 20
58.90010174665076
 97
        1
330
BE8
 92
        7
 72
     0
 73
     1
 93
        4
 10
-24.19231812786165
 20
59.87619128370352
 10
-24.5763778192304
 20
59.87619128370352
 10
-24.5763778192304
 20
59.28412752246913
 10
-24.1923181278612
 20
59.28412752246913
 97
        1
330
C12
 92
        7
 72
     1
 73
     1
 93
       10
 10
-23.18424622689509
 20
58.5001017466509
 42
0.0
 10
-20.59204680345965
 20
58.5001017466509
 42
-0.4142135623730898
 10
-20.19204680345956
 20
58.1001017466508
 42
0.0
 10
-20.19204680345956
 20
55.12380871629648
 42
0.0
 10
-19.79201288790909
 20
55.12380871629648
 42
0.0
 10
-19.79201288790909
 20
58.1001017466508
 42
0.4142135623731547
 10
-20.59201288790928
 20
58.90010174665076
 42
0.0
 10
-23.56830591826338
 20
58.90010174665076
 42
0.0
 10
-23.56830591826338
 20
55.12380871629648
 42
0.0
 10
-23.18424622689463
 20
55.12380871629648
 42
0.0
 97
        1
330
BE7
 92
        7
 72
     1
 73
     1
 93
        8
 10
-19.1999120763262
 20
55.92680650071542
 42
0.4153115297271299
 10
-18.39991769304061
 20
55.12380871629648
 42
0.0
 10
-15.4236900118708
 20
55.12380871629648
 42
0.0
 10
-15.4236900118708
 20
59.87619128370352
 42
0.0
 10
-15.80771578768872
 20
59.87619128370352
 42
0.0
 10
-15.80771578768872
 20
58.90010174665076
 42
0.0
 10
-18.39176256411201
 20
58.90010174665076
 42
0.4131164467977965
 10
-19.19175694739761
 20
58.1030995310698
 42
0.0
 97
        1
330
BE6
 92
       22
 72
     1
 73
     1
 93
        6
 10
-18.79994912667462
 20
58.1001017466508
 42
-0.4142135623731575
 10
-18.39994912667453
 20
58.5001017466509
 42
0.0
 10
-15.80771578768872
 20
58.50010174665067
 42
0.0
 10
-15.80771578768827
 20
55.507868407665
 42
0.0
 10
-18.39994912667453
 20
55.507868407665
 42
-0.4142135623731731
 10
-18.79994912667462
 20
55.90786840766487
 42
0.0
 97
        1
330
BE5
 92
        7
 72
     1
 73
     1
 93
       12
 10
-14.79964388672215
 20
55.92380871629621
 42
0.4142135623729885
 10
-13.99964388672242
 20
55.12380871629648
 42
0.0
 10
-11.8233508563676
 20
55.12380871629648
 42
0.4142135623731289
 10
-11.02335085636741
 20
55.92380871629666
 42
0.0
 10
-11.02335085636741
 20
58.90010174665076
 42
0.0
 10
-11.42338477191788
 20
58.90010174665076
 42
0.0
 10
-11.42338477191788
 20
55.91567577726095
 42
-0.4131711701795319
 10
-11.82196067063523
 20
55.51567831234956
 42
0.0
 10
-14.01419400962095
 20
55.50787335710947
 42
-0.4152567234626918
 10
-14.41561811090378
 20
55.90787082202087
 42
0.0
 10
-14.41561811090378
 20
58.90010174665076
 42
0.0
 10
-14.7996438867226
 20
58.90010174665076
 42
0.0
 97
        1
330
BE4
 92
        7
 72
     1
 73
     1
 93
       20
 10
-7.423079531965413
 20
57.02796337120571
 42
-0.414213562373168
 10
-7.023079531965322
 20
56.62796337120562
 42
0.0
 10
-7.023079531965322
 20
55.90786840766487
 42
-0.4142135623731575
 10
-7.423079531965413
 20
55.507868407665
 42
0.0
 10
-10.41534678650168
 20
55.507868407665
 42
0.0
 10
-10.41534678650168
 20
55.12380871629648
 42
0.0
 10
-7.445787917283723
 20
55.12380871629648
 42
0.4114777732065809
 10
-6.645822882998345
 20
55.91632914939783
 42
0.0
 10
-6.639238813324936
 20
56.62051771985716
 42
0.4169546541682913
 10
-7.439203847610315
 20
57.42799728675596
 42
0.0
 10
-9.615312870951584
 20
57.42799728675596
 42
-0.4142135623729911
 10
-10.01531287095122
 20
57.82799728675581
 42
0.0
 10
-10.01531287095122
 20
58.10010174665103
 42
-0.414213562372991
 10
-9.615312870951584
 20
58.5001017466509
 42
0.0
 10
-6.92703069357276
 20
58.50010174665067
 42
0.0
 10
-6.927030693572305
 20
58.90010174665076
 42
0.0
 10
-9.615346786501959
 20
58.90010174665076
 42
0.4142135623730467
 10
-10.41534678650168
 20
58.10010174665103
 42
0.0
 10
-10.41534678650168
 20
57.82796337120544
 42
0.4142135623730301
 10
-9.615346786501959
 20
57.02796337120571
 42
0.0
 97
        1
330
BE3
 92
        7
 72
     1
 73
     1
 93
       12
 10
-5.21497371544865
 20
57.42799728675596
 42
0.4142135623730871
 10
-6.014973715448377
 20
56.627997286756
 42
0.0
 10
-6.014973715448377
 20
55.92380871629621
 42
0.4142135623730715
 10
-5.21497371544865
 20
55.12380871629648
 42
0.0
 10
-2.23871460064447
 20
55.12380871629648
 42
0.0
 10
-2.23871460064447
 20
58.10010174665058
 42
0.414213562373155
 10
-3.038714600644652
 20
58.90010174665076
 42
0.0
 10
-5.726962862471737
 20
58.90010174665076
 42
0.0
 10
-5.726962862472191
 20
58.5001017466509
 42
0.0
 10
-3.038748516194573
 20
58.5001017466509
 42
-0.4142135623730067
 10
-2.638748516194482
 20
58.10010174665058
 42
0.0
 10
-2.638748516194482
 20
57.42799728675596
 42
0.0
 97
        1
330
BE2
 92
       22
 72
     1
 73
     1
 93
        6
 10
-2.638748516194937
 20
57.02796337120571
 42
0.0
 10
-2.638748516194482
 20
55.50786840766477
 42
0.0
 10
-5.21497371544865
 20
55.507868407665
 42
-0.4142135623731731
 10
-5.614973715448741
 20
55.90786840766509
 42
0.0
 10
-5.614973715448741
 20
56.62796337120562
 42
-0.4142135623731576
 10
-5.21497371544865
 20
57.02796337120571
 42
0.0
 97
        1
330
C0D
 75
     0
 76
     1
 47
0.0407044778999864
 98
       13
 10
-34.18710075113677
 20
56.16907953933765
 10
-33.12851374392494
 20
56.49471602641233
 10
-33.12851374392494
 20
56.49471602641233
 10
-28.77202873835904
 20
57.51232930166111
 10
-24.41554807250941
 20
57.91937341678636
 10
-24.41554807250941
 20
59.384734621186
 10
-23.31624584658039
 20
58.3264175319116
 10
-19.04119127844888
 20
57.75655517324913
 10
-19.04119127844888
 20
57.75655517324913
 10
-14.64399105416578
 20
57.43091868617466
 10
-8.048195057457178
 20
57.22739662861204
 10
-4.017427461911665
 20
57.18669281458665
 10
-4.017427461911665
 20
57.18669281458665
  0
TEXT
  5
BED
330
B9E
100
AcDbEntity
  8
leg fin
100
AcDbText
 10
3.391127401597259
 20
2.107634911895729
 30
0.0
 40
1.5
  1
Este desenho é propriedade da Sanindusa, S.A., e não pode ser copiado nem divulgado sem nossa autorização.
 50
90.0
 41
0.8
  7
SANINDUSA
100
AcDbText
  0
LINE
  5
BEE
330
B9E
100
AcDbEntity
  8
3
100
AcDbLine
 10
-90.0
 20
4.0
 30
0.0
 11
-90.0
 21
12.0
 31
0.0
  0
TEXT
  5
BEF
330
B9E
100
AcDbEntity
  8
1
100
AcDbText
 10
-39.0
 20
9.25
 30
0.0
 40
2.0
  1
Substituido por:
 41
0.8
  7
SANINDUSA
 11
-39.0
 21
10.25
 31
0.0
100
AcDbText
 73
     2
  0
POINT
  5
BF0
330
B9E
100
AcDbEntity
  8
SANINDUSA
100
AcDbPoint
 10
0.0
 20
0.0
 30
0.0
  0
TEXT
  5
BF1
330
B9E
100
AcDbEntity
  8
1
100
AcDbText
 10
-89.0
 20
16.74927010445663
 30
0.0
 40
2.0
  1
Normas:
 41
0.8
  7
SANINDUSA
 11
-89.0
 21
17.74927010445663
 31
0.0
100
AcDbText
 73
     2
  0
LINE
  5
BF2
330
B9E
100
AcDbEntity
  8
3
100
AcDbLine
 10
-90.0
 20
12.0
 30
0.0
 11
-90.0
 21
20.0
 31
0.0
  0
LINE
  5
BF3
330
B9E
100
AcDbEntity
  8
3
100
AcDbLine
 10
-110.546019464768
 20
12.0
 30
0.0
 11
-110.546019464768
 21
20.0
 31
0.0
  0
TEXT
  5
BF4
330
B9E
100
AcDbEntity
  8
1
100
AcDbText
 10
-109.6177520618648
 20
17.25
 30
0.0
 40
2.0
  1
Cor:
 41
0.8
  7
SANINDUSA
 11
-109.6177520618648
 21
18.25
 31
0.0
100
AcDbText
 73
     2
  0
LINE
  5
BF5
330
B9E
100
AcDbEntity
  8
leg fin
100
AcDbLine
 10
-91.42857142857156
 20
20.0
 30
0.0
 11
-91.42857142857156
 21
28.5
 31
0.0
  0
LINE
  5
BF6
330
B9E
100
AcDbEntity
  8
leg fin
100
AcDbLine
 10
-104.2857142857142
 20
20.0
 30
0.0
 11
-104.2857142857142
 21
28.5
 31
0.0
  0
LINE
  5
BF7
330
B9E
100
AcDbEntity
  8
leg fin
100
AcDbLine
 10
-117.1428571428573
 20
20.0
 30
0.0
 11
-117.1428571428573
 21
28.5
 31
0.0
  0
POINT
  5
BF8
330
B9E
100
AcDbEntity
  8
SANINDUSA
100
AcDbPoint
 10
-117.1428571428573
 20
28.5
 30
0.0
  0
POINT
  5
BF9
330
B9E
100
AcDbEntity
  8
SANINDUSA
100
AcDbPoint
 10
-104.2857142857142
 20
28.5
 30
0.0
  0
POINT
  5
BFA
330
B9E
100
AcDbEntity
  8
SANINDUSA
100
AcDbPoint
 10
-91.42857142857156
 20
28.5
 30
0.0
  0
TEXT
  5
BFB
330
B9E
100
AcDbEntity
  8
1
100
AcDbText
 10
-116.200160604496
 20
26.43288406845113
 30
0.0
 40
1.5
  1
Nº Seq.:
 41
0.8
  7
SANINDUSA
 11
-116.200160604496
 21
27.18288406845113
 31
0.0
100
AcDbText
 73
     2
  0
TEXT
  5
BFC
330
B9E
100
AcDbEntity
  8
1
100
AcDbText
 10
-103.2106584078738
 20
26.43288406845113
 30
0.0
 40
1.5
  1
Tipo:
 41
0.8
  7
SANINDUSA
 11
-103.2106584078738
 21
27.18288406845113
 31
0.0
100
AcDbText
 73
     2
  0
TEXT
  5
BFD
330
B9E
100
AcDbEntity
  8
1
100
AcDbText
 10
-90.22114672289353
 20
26.43288406845113
 30
0.0
 40
1.5
  1
Prod.:
 41
0.8
  7
SANINDUSA
 11
-90.22114672289353
 21
27.18288406845113
 31
0.0
100
AcDbText
 73
     2
  0
TEXT
  5
BFE
330
B9E
100
AcDbEntity
  8
1
100
AcDbText
 10
-64.77320576346574
 20
26.43288406845113
 30
0.0
 40
1.5
  1
Rev.:
 41
0.8
  7
SANINDUSA
 11
-64.77320576346574
 21
27.18288406845113
 31
0.0
100
AcDbText
 73
     2
  0
LINE
  5
BFF
330
B9E
100
AcDbEntity
  8
leg fin
100
AcDbLine
 10
-52.85714285714266
 20
20.0
 30
0.0
 11
-52.85714285714266
 21
28.5
 31
0.0
  0
LINE
  5
C00
330
B9E
100
AcDbEntity
  8
leg fin
100
AcDbLine
 10
-65.71428571428578
 20
20.0
 30
0.0
 11
-65.71428571428578
 21
28.5
 31
0.0
  0
LINE
  5
C01
330
B9E
100
AcDbEntity
  8
leg fin
100
AcDbLine
 10
-78.57142857142844
 20
20.0
 30
0.0
 11
-78.57142857142844
 21
28.5
 31
0.0
  0
POINT
  5
C02
330
B9E
100
AcDbEntity
  8
SANINDUSA
100
AcDbPoint
 10
-78.57142857142844
 20
28.5
 30
0.0
  0
POINT
  5
C03
330
B9E
100
AcDbEntity
  8
SANINDUSA
100
AcDbPoint
 10
-65.71428571428578
 20
28.5
 30
0.0
  0
POINT
  5
C04
330
B9E
100
AcDbEntity
  8
SANINDUSA
100
AcDbPoint
 10
-52.85714285714266
 20
28.5
 30
0.0
  0
TEXT
  5
C05
330
B9E
100
AcDbEntity
  8
1
100
AcDbText
 10
-77.61097961686573
 20
26.43288406845113
 30
0.0
 40
1.5
  1
Peça:
 41
0.8
  7
SANINDUSA
 11
-77.61097961686573
 21
27.18288406845113
 31
0.0
100
AcDbText
 73
     2
  0
TEXT
  5
C06
330
B9E
100
AcDbEntity
  8
1
100
AcDbText
 10
-52.06538060077036
 20
26.43288406845113
 30
0.0
 40
1.5
  1
Alt.:
 41
0.8
  7
SANINDUSA
 11
-52.06538060077036
 21
27.18288406845113
 31
0.0
100
AcDbText
 73
     2
  0
LINE
  5
C07
330
B9E
100
AcDbEntity
  8
3
100
AcDbLine
 10
0.0
 20
12.0
 30
0.0
 11
-40.0
 21
12.0
 31
0.0
  0
LINE
  5
C08
330
B9E
100
AcDbEntity
  8
3
100
AcDbLine
 10
-40.0
 20
32.5
 30
0.0
 11
0.0
 21
32.5
 31
0.0
  0
TEXT
  5
C09
330
B9E
100
AcDbEntity
  8
1
100
AcDbText
 10
-19.0
 20
29.75
 30
0.0
 40
2.0
  1
Folha:
 41
0.8
  7
SANINDUSA
 11
-19.0
 21
30.75
 31
0.0
100
AcDbText
 73
     2
  0
LINE
  5
C0A
330
B9E
100
AcDbEntity
  8
3
100
AcDbLine
 10
-20.0
 20
32.5
 30
0.0
 11
-20.0
 21
20.0
 31
0.0
  0
TEXT
  5
C0B
330
B9E
100
AcDbEntity
  8
1
100
AcDbText
 10
-39.0
 20
29.75
 30
0.0
 40
2.0
  1
Escala:
 41
0.8
  7
SANINDUSA
 11
-39.0
 21
30.75
 31
0.0
100
AcDbText
 73
     2
  0
TEXT
  5
C0C
330
B9E
100
AcDbEntity
  8
1
100
AcDbText
 10
-39.0
 20
17.25
 30
0.0
 40
2.0
  1
Substitui:
 41
0.8
  7
SANINDUSA
 11
-39.0
 21
18.25
 31
0.0
100
AcDbText
 73
     2
  0
LWPOLYLINE
  5
C0D
102
{ACAD_REACTORS
330
BEC
102
}
330
B9E
100
AcDbEntity
  8
9
100
AcDbPolyline
 90
        6
 70
     1
 43
0.0
 10
-2.638748516194482
 20
57.02796337120571
 10
-2.638748516194482
 20
55.50786840766477
 10
-5.21497371544865
 20
55.507868407665
 42
-0.4142135623730898
 10
-5.614973715448741
 20
55.90786840766487
 10
-5.614973715448741
 20
56.62796337120562
 42
-0.4142135623731576
 10
-5.21497371544865
 20
57.02796337120571
  0
LINE
  5
C0E
330
B9E
100
AcDbEntity
  8
3
100
AcDbLine
 10
-40.0
 20
50.0
 30
0.0
 11
0.0
 21
50.0
 31
0.0
  0
ATTDEF
  5
C0F
330
B9E
100
AcDbEntity
  8
1
100
AcDbText
 10
-31.30691739422431
 20
40.25
 30
0.0
 40
2.0
  1
XXXXXXXXXXXXXXX
 41
0.8
  7
SANINDUSA
 72
     4
 11
-20.0
 21
41.25
 31
0.0
100
AcDbAttributeDefinition
  3
Observações:
  2
OBS
 70
     0
  0
TEXT
  5
C10
330
B9E
100
AcDbEntity
  8
1
100
AcDbText
 10
-39.0
 20
47.25
 30
0.0
 40
2.0
  1
Observações:
 41
0.8
  7
SANINDUSA
 11
-39.0
 21
48.25
 31
0.0
100
AcDbText
 73
     2
  0
LWPOLYLINE
  5
C11
102
{ACAD_REACTORS
330
BEC
102
}
330
B9E
100
AcDbEntity
  8
9
100
AcDbPolyline
 90
        6
 70
     1
 43
0.0
 10
-29.98468712904878
 20
57.02796337120571
 10
-29.98468712904878
 20
55.507868407665
 10
-32.57692046803459
 20
55.507868407665
 42
-0.4142135623731731
 10
-32.97692046803468
 20
55.90786840766487
 10
-32.97692046803468
 20
56.62796337120562
 42
-0.4142135623731576
 10
-32.57692046803459
 20
57.02796337120571
  0
LWPOLYLINE
  5
C12
102
{ACAD_REACTORS
330
BEC
102
}
330
B9E
100
AcDbEntity
  8
9
100
AcDbPolyline
 90
        4
 70
     1
 43
0.0
 10
-24.19231812786165
 20
59.87619128370352
 10
-24.57637781922995
 20
59.87619128370352
 10
-24.57637781922995
 20
59.28412752246913
 10
-24.19231812786165
 20
59.28412752246913
  0
ENDBLK
  5
C14
330
B9E
100
AcDbEntity
  8
0
100
AcDbBlockEnd
  0
ENDSEC
  0
SECTION
  2
ENTITIES
  0
LINE
  5
1B4E
330
1F
100
AcDbEntity
  8
SANINDUSA
100
AcDbLine
 10
5050.031042943784
 20
2539.094044424285
 30
0.0
 11
5050.032983194181
 21
2538.982887355303
 31
0.0
  0
LINE
  5
1B50
330
1F
100
AcDbEntity
  8
SANINDUSA
100
AcDbLine
 10
5050.027983914205
 20
2538.982887355303
 30
0.0
 11
5050.032983194181
 21
2538.982887355303
 31
0.0
  0
LINE
  5
1B53
330
1F
100
AcDbEntity
  8
SANINDUSA
100
AcDbLine
 10
5049.278793959953
 20
2538.982887355303
 30
0.0
 11
5049.280734213873
 21
2539.094044424285
 31
0.0
  0
LINE
  5
1B54
330
1F
100
AcDbEntity
  8
SANINDUSA
100
AcDbLine
 10
5049.278793959953
 20
2538.982887355303
 30
0.0
 11
5049.283793198486
 21
2538.982887355303
 31
0.0
  0
LINE
  5
1B56
330
1F
100
AcDbEntity
  8
SANINDUSA
100
AcDbLine
 10
5049.283793198486
 20
2538.982887355303
 30
0.0
 11
5050.027983914205
 21
2538.982887355303
 31
0.0
  0
ARC
  5
1B57
330
1F
100
AcDbEntity
  8
SANINDUSA
100
AcDbCircle
 10
5050.022044292385
 20
2539.09388735262
 30
0.0
 40
0.0090000000000001
100
AcDbArc
 50
1.000000009720081
 51
90.0
  0
LINE
  5
1B59
330
1F
100
AcDbEntity
  8
SANINDUSA
100
AcDbLine
 10
5049.289732842781
 20
2539.10288735262
 30
0.0
 11
5050.022044311353
 21
2539.10288735262
 31
0.0
  0
ARC
  5
1B5B
330
1F
100
AcDbEntity
  8
SANINDUSA
100
AcDbCircle
 10
5049.289732843122
 20
2539.09388735262
 30
0.0
 40
0.0090000000000001
100
AcDbArc
 50
90.0
 51
178.9999999902799
  0
ARC
  5
1B5E
330
1F
100
AcDbEntity
  8
SANINDUSA
100
AcDbCircle
 10
5048.385814811767
 20
2539.423701243111
 30
0.0
 40
0.0050010774106118
100
AcDbArc
 50
90.02106659422198
 51
179.978933301548
  0
LINE
  5
1B5F
330
1F
100
AcDbEntity
  8
SANINDUSA
100
AcDbLine
 10
5048.385812972964
 20
2539.428702320183
 30
0.0
 11
5049.12612318463
 21
2539.428702320183
 31
0.0
  0
ARC
  5
1B63
330
1F
100
AcDbEntity
  8
SANINDUSA
100
AcDbCircle
 10
5049.126121382736
 20
2539.423701238297
 30
0.0
 40
0.005001082209979
100
AcDbArc
 50
0.0211217007726873
 51
89.97935628014401
  0
LINE
  5
1B65
330
1F
100
AcDbEntity
  8
SANINDUSA
100
AcDbLine
 10
5049.131122464606
 20
2539.423703081913
 30
0.0
 11
5049.131122464606
 21
2538.683392870247
 31
0.0
  0
LINE
  5
1B67
330
1F
100
AcDbEntity
  8
SANINDUSA
100
AcDbLine
 10
5048.380813734694
 20
2538.683392870247
 30
0.0
 11
5048.380813734694
 21
2539.423703081913
 31
0.0
  0
ELLIPSE
  5
1B74
330
1F
100
AcDbEntity
  8
SANINDUSA
100
AcDbEllipse
 10
5048.43310450358
 20
2539.376411551297
 30
0.0
 11
0.0079343406248555
 21
-0.0079343406248556
 31
0.0
210
0.0
220
0.0
230
0.9999999999999998
 40
0.8911979137515496
 41
2.377814862643721
 42
3.90537044453589
  0
LINE
  5
1B77
330
1F
100
AcDbEntity
  8
SANINDUSA
100
AcDbLine
 10
5049.079671318003
 20
2539.38703269419
 30
0.0
 11
5048.432264836797
 21
2539.38703269419
 31
0.0
  0
ELLIPSE
  5
1B79
330
1F
100
AcDbEntity
  8
SANINDUSA
100
AcDbEllipse
 10
5049.078831673572
 20
2539.376411551297
 30
0.0
 11
0.0079343406248553
 21
0.0079343406248555
 31
0.0
210
0.0
220
0.0
230
1.0
 40
0.8911979137515723
 41
5.51940751623353
 42
7.046963098125666
  0
LINE
  5
1B7B
330
1F
100
AcDbEntity
  8
SANINDUSA
100
AcDbLine
 10
5049.089452797839
 20
2538.729844736874
 30
0.0
 11
5049.089452797839
 21
2539.37725121808
 31
0.0
  0
LINE
  5
1B7C
330
1F
100
AcDbEntity
  8
SANINDUSA
100
AcDbLine
 10
5048.422483360686
 20
2539.37725121808
 30
0.0
 11
5048.422483360686
 21
2538.729844736874
 31
0.0
  0
ELLIPSE
  5
1B7E
330
1F
100
AcDbEntity
  8
SANINDUSA
100
AcDbEllipse
 10
5048.43310450358
 20
2538.730684381305
 30
0.0
 11
0.0079343406248554
 21
0.0079343406248555
 31
0.0
210
0.0
220
0.0
230
1.0
 40
0.8911979137515706
 41
2.377814862643717
 42
3.905370444535863
  0
ELLIPSE
  5
1B81
330
1F
100
AcDbEntity
  8
SANINDUSA
100
AcDbEllipse
 10
5049.078831673572
 20
2538.730684381305
 30
0.0
 11
-0.0079343406248555
 21
0.0079343406248554
 31
0.0
210
0.0
220
0.0
230
1.0
 40
0.8911979137515706
 41
2.377814862643727
 42
3.905370444535872
  0
LINE
  5
1B82
330
1F
100
AcDbEntity
  8
SANINDUSA
100
AcDbLine
 10
5048.432264836797
 20
2538.720063257038
 30
0.0
 11
5049.079671318003
 21
2538.720063257038
 31
0.0
  0
ARC
  5
1B83
330
1F
100
AcDbEntity
  8
SANINDUSA
100
AcDbCircle
 10
5049.126121377923
 20
2538.683394676954
 30
0.0
 40
0.0050010870092444
100
AcDbArc
 50
270.0206988524617
 51
359.9793010693729
  0
LINE
  5
1B85
330
1F
100
AcDbEntity
  8
SANINDUSA
100
AcDbLine
 10
5049.12612318463
 20
2538.678393590271
 30
0.0
 11
5048.385812972964
 21
2538.678393590271
 31
0.0
  0
ARC
  5
1B87
330
1F
100
AcDbEntity
  8
SANINDUSA
100
AcDbCircle
 10
5048.38581481658
 20
2538.683394672141
 30
0.0
 40
0.0050010822099882
100
AcDbArc
 50
180.0206437198653
 51
269.9788782731722
  0
LWPOLYLINE
  5
1BAF
330
1F
100
AcDbEntity
  8
SANINDUSA
100
AcDbPolyline
 90
        9
 70
   128
 43
0.0
 10
5049.05680828757
 20
2538.750507700264
 10
5049.056399757335
 20
2538.776632773697
 10
5049.056167716452
 20
2538.80285011512
 10
5049.056098813483
 20
2538.829110371887
 10
5049.056179398963
 20
2538.855364072143
 10
5049.056490654418
 20
2538.951216745197
 10
5049.056673283049
 20
2539.04706798774
 10
5049.057322854468
 20
2539.238713177859
 10
5049.057714874217
 20
2539.355635876774
  0
LWPOLYLINE
  5
1BB6
330
1F
100
AcDbEntity
  8
SANINDUSA
100
AcDbPolyline
 90
       10
 70
   128
 43
0.0
 10
5048.454221258232
 20
2539.355635928928
 10
5048.45435366995
 20
2539.315642173409
 10
5048.454899268516
 20
2539.155666965067
 10
5048.455262171397
 20
2539.047067957937
 10
5048.455445068249
 20
2538.951216715395
 10
5048.455756770739
 20
2538.855364012539
 10
5048.455837415823
 20
2538.829110312283
 10
5048.455768490502
 20
2538.80285011512
 10
5048.455536486873
 20
2538.776632773697
 10
5048.455127882132
 20
2538.750507700264
  0
LWPOLYLINE
  5
1BBB
330
1F
100
AcDbEntity
  8
SANINDUSA
100
AcDbPolyline
 90
        6
 70
   128
 43
0.0
 10
5049.057714874217
 20
2539.355635876774
 10
5049.012199933001
 20
2539.355652797043
 10
5048.852199996183
 20
2539.355732078671
 10
5048.762568885752
 20
2539.355755428791
 10
5048.570874864527
 20
2539.355686943054
 10
5048.454221258232
 20
2539.355635928928
  0
LWPOLYLINE
  5
1BC0
330
1F
100
AcDbEntity
  8
SANINDUSA
100
AcDbPolyline
 90
       10
 70
   128
 43
0.0
 10
5048.455127882132
 20
2538.750507700264
 10
5048.594929481217
 20
2538.749845731079
 10
5048.637012357184
 20
2538.749365258038
 10
5048.679092997977
 20
2538.748696911156
 10
5048.721173966595
 20
2538.748134302914
 10
5048.763257945249
 20
2538.747971224605
 10
5048.8221539206
 20
2538.748502003967
 10
5048.881045753429
 20
2538.749355900109
 10
5048.939940864512
 20
2538.749990212738
 10
5049.05680828757
 20
2538.750507700264
  0
ARC
  5
2000
330
1F
100
AcDbEntity
  8
SANINDUSA
100
AcDbCircle
 10
5048.956479090276
 20
2538.996029328271
 30
0.0
 40
0.0025905736925842
100
AcDbArc
 50
0.0
 51
89.99523561579643
  0
LWPOLYLINE
  5
2018
330
1F
100
AcDbEntity
  8
SANINDUSA
100
AcDbPolyline
 90
        3
 70
   128
 43
0.0
 10
5048.945479924151
 20
2538.998622464955
 10
5048.953479582736
 20
2538.998620587408
 10
5048.956479305694
 20
2538.998619901955
  0
LWPOLYLINE
  5
201A
330
1F
100
AcDbEntity
  8
SANINDUSA
100
AcDbPolyline
 90
        3
 70
   128
 43
0.0
 10
5048.959069663951
 20
2538.996029633104
 10
5048.95906978316
 20
2538.98803164345
 10
5048.959069842765
 20
2538.985033142387
  0
ARC
  5
202C
330
1F
100
AcDbEntity
  8
SANINDUSA
100
AcDbCircle
 10
5048.945478956505
 20
2538.996033253328
 30
0.0
 40
0.0025892118070807
100
AcDbArc
 50
89.97858728975264
 51
180.0
  0
LWPOLYLINE
  5
2031
330
1F
100
AcDbEntity
  8
SANINDUSA
100
AcDbPolyline
 90
        3
 70
   128
 43
0.0
 10
5048.942889804312
 20
2538.985036986887
 10
5048.942889744708
 20
2538.993034946739
 10
5048.942889744708
 20
2538.996033477604
  0
ARC
  5
2040
330
1F
100
AcDbEntity
  8
SANINDUSA
100
AcDbCircle
 10
5048.956480547455
 20
2538.98503356944
 30
0.0
 40
0.002589295344731
100
AcDbArc
 50
269.9804359516031
 51
359.9905487454966
  0
LWPOLYLINE
  5
2044
330
1F
100
AcDbEntity
  8
SANINDUSA
100
AcDbPolyline
 90
        3
 70
   128
 43
0.0
 10
5048.956479663321
 20
2538.982444274247
 10
5048.948479945131
 20
2538.982446151793
 10
5048.945480043361
 20
2538.982446837246
  0
ARC
  5
205D
330
1F
100
AcDbEntity
  8
SANINDUSA
100
AcDbCircle
 10
5048.945480202473
 20
2538.985037235413
 30
0.0
 40
0.0025903981722391
100
AcDbArc
 50
180.0
 51
269.9964806849964
  0
CIRCLE
  5
213C
330
1F
100
AcDbEntity
  8
SANINDUSA
100
AcDbCircle
 10
5048.755968088576
 20
2538.848547966301
 30
0.0
 40
0.045297545258413
  0
CIRCLE
  5
213D
330
1F
100
AcDbEntity
  8
SANINDUSA
100
AcDbCircle
 10
5048.755968088576
 20
2538.848547966301
 30
0.0
 40
0.0349999999999999
  0
LINE
  5
2141
330
1F
100
AcDbEntity
  8
SANINDUSA
100
AcDbLine
 10
5051.623892461901
 20
2539.016613958914
 30
0.0
 11
5051.643604224567
 21
2539.016129306096
 31
0.0
  0
LINE
  5
2143
330
1F
100
AcDbEntity
  8
SANINDUSA
100
AcDbLine
 10
5051.558912074213
 20
2539.018211624164
 30
0.0
 11
5051.601153349523
 21
2539.017173050482
 31
0.0
  0
LINE
  5
2145
330
1F
100
AcDbEntity
  8
SANINDUSA
100
AcDbLine
 10
5051.493931716327
 20
2539.019809289414
 30
0.0
 11
5051.536172991638
 21
2539.018770708281
 31
0.0
  0
LWPOLYLINE
  5
2147
330
1F
100
AcDbEntity
  8
SANINDUSA
100
AcDbPolyline
 90
        3
 70
   128
 43
0.0
 10
5051.428951358442
 20
2539.021406947214
 10
5051.47108531559
 20
2539.020371011037
 10
5051.471192633752
 20
2539.020368366081
  0
LINE
  5
2148
330
1F
100
AcDbEntity
  8
SANINDUSA
100
AcDbLine
 10
5051.363971000556
 20
2539.023004612464
 30
0.0
 11
5051.406212260966
 21
2539.021966031331
 31
0.0
  0
LINE
  5
2149
330
1F
100
AcDbEntity
  8
SANINDUSA
100
AcDbLine
 10
5051.298563158159
 20
2539.024612783033
 30
0.0
 11
5051.34123190308
 21
2539.023563696581
 31
0.0
  0
LINE
  5
2162
330
1F
100
AcDbEntity
  8
SANINDUSA
100
AcDbLine
 10
5051.643493568544
 20
2539.012130817908
 30
0.0
 11
5051.679480617885
 21
2539.011246083814
 31
0.0
  0
ARC
  5
2163
330
1F
100
AcDbEntity
  8
SANINDUSA
100
AcDbCircle
 10
5051.825825838986
 20
2539.123168496442
 30
0.0
 40
0.1119902768132792
100
AcDbArc
 50
272.0032792937864
 51
285.7768448498985
  0
LINE
  5
2165
330
1F
100
AcDbEntity
  8
SANINDUSA
100
AcDbLine
 10
5051.247293328885
 20
2539.021872139115
 30
0.0
 11
5051.298460913841
 21
2539.02061409368
 31
0.0
  0
LINE
  5
2169
330
1F
100
AcDbEntity
  8
SANINDUSA
100
AcDbLine
 10
5051.363872682695
 20
2539.019005818802
 30
0.0
 11
5051.406113943104
 21
2539.01796724512
 31
0.0
  0
LWPOLYLINE
  5
216D
330
1F
100
AcDbEntity
  8
SANINDUSA
100
AcDbPolyline
 90
        3
 70
   128
 43
0.0
 10
5051.428853040579
 20
2539.017408161003
 10
5051.470977282171
 20
2539.016372455794
 10
5051.471094315891
 20
2539.01636957987
  0
LINE
  5
2171
330
1F
100
AcDbEntity
  8
SANINDUSA
100
AcDbLine
 10
5051.493833398466
 20
2539.015810495752
 30
0.0
 11
5051.536074673776
 21
2539.01477191462
 31
0.0
  0
LINE
  5
2174
330
1F
100
AcDbEntity
  8
SANINDUSA
100
AcDbLine
 10
5051.558813756351
 20
2539.014212830502
 30
0.0
 11
5051.601055031661
 21
2539.01317425682
 31
0.0
  0
LINE
  5
2178
330
1F
100
AcDbEntity
  8
SANINDUSA
100
AcDbLine
 10
5051.623794114236
 20
2539.012615165252
 30
0.0
 11
5051.643493568544
 21
2539.012130817908
 31
0.0
  0
LINE
  5
2179
330
1F
100
AcDbEntity
  8
SANINDUSA
100
AcDbLine
 10
5051.298460913841
 20
2539.02061409368
 30
0.0
 11
5051.341133585219
 21
2539.01956490292
 31
0.0
  0
ARC
  5
217C
330
1F
100
AcDbEntity
  8
SANINDUSA
100
AcDbCircle
 10
5051.891887292195
 20
2539.097259106237
 30
0.0
 40
0.0090000000000001
100
AcDbArc
 50
90.0
 51
168.0000000087166
  0
LINE
  5
217D
330
1F
100
AcDbEntity
  8
SANINDUSA
100
AcDbLine
 10
5051.891887312774
 20
2539.106259106237
 30
0.0
 11
5051.915754979495
 21
2539.106259106237
 31
0.0
  0
ARC
  5
217E
330
1F
100
AcDbEntity
  8
SANINDUSA
100
AcDbCircle
 10
5051.915754960528
 20
2539.097259106237
 30
0.0
 40
0.0090000000000001
100
AcDbArc
 50
1.000000009720081
 51
90.0
  0
LINE
  5
217F
330
1F
100
AcDbEntity
  8
SANINDUSA
100
AcDbLine
 10
5051.924753611927
 20
2539.097416177902
 30
0.0
 11
5051.926693862323
 21
2538.986259108919
 31
0.0
  0
LINE
  5
2180
330
1F
100
AcDbEntity
  8
SANINDUSA
100
AcDbLine
 10
5051.926693862323
 20
2538.986259108919
 30
0.0
 11
5051.922693258171
 21
2538.986259108919
 31
0.0
  0
LINE
  5
2181
330
1F
100
AcDbEntity
  8
SANINDUSA
100
AcDbLine
 10
5051.920754199866
 20
2539.097346367825
 30
0.0
 11
5051.922693258171
 21
2538.986259108919
 31
0.0
  0
ARC
  5
2182
330
1F
100
AcDbEntity
  8
SANINDUSA
100
AcDbCircle
 10
5051.915754960528
 20
2539.097259106237
 30
0.0
 40
0.005
100
AcDbArc
 50
1.000000009720081
 51
90.0
  0
LINE
  5
2183
330
1F
100
AcDbEntity
  8
SANINDUSA
100
AcDbLine
 10
5051.891887312774
 20
2539.102259106047
 30
0.0
 11
5051.915754979495
 21
2539.102259106047
 31
0.0
  0
ARC
  5
2184
330
1F
100
AcDbEntity
  8
SANINDUSA
100
AcDbCircle
 10
5051.891887292195
 20
2539.097259106237
 30
0.0
 40
0.005
100
AcDbArc
 50
90.0
 51
168.0000000087166
  0
LINE
  5
2185
330
1F
100
AcDbEntity
  8
SANINDUSA
100
AcDbLine
 10
5051.886996572856
 20
2539.098298664715
 30
0.0
 11
5051.873223727588
 21
2539.033502718944
 31
0.0
  0
ARC
  5
2186
330
1F
100
AcDbEntity
  8
SANINDUSA
100
AcDbCircle
 10
5051.849748137176
 20
2539.038492624426
 30
0.0
 40
0.0240000521216282
100
AcDbArc
 50
285.7805254656089
 51
347.999965673299
  0
LINE
  5
2187
330
1F
100
AcDbEntity
  8
SANINDUSA
100
AcDbLine
 10
5051.801692252998
 20
2539.010267330843
 30
0.0
 11
5051.829740649108
 21
2539.01124680652
 31
0.0
  0
LINE
  5
2188
330
1F
100
AcDbEntity
  8
SANINDUSA
100
AcDbLine
 10
5051.791338508968
 20
2538.999164311726
 30
0.0
 11
5051.801692252998
 21
2539.010267330843
 31
0.0
  0
LINE
  5
2189
330
1F
100
AcDbEntity
  8
SANINDUSA
100
AcDbLine
 10
5051.717859989051
 20
2538.999164311726
 30
0.0
 11
5051.791338508968
 21
2538.999164311726
 31
0.0
  0
LINE
  5
218A
330
1F
100
AcDbEntity
  8
SANINDUSA
100
AcDbLine
 10
5051.707506245021
 20
2539.010267330843
 30
0.0
 11
5051.717859989051
 21
2538.999164311726
 31
0.0
  0
LINE
  5
218B
330
1F
100
AcDbEntity
  8
SANINDUSA
100
AcDbLine
 10
5051.679480617885
 20
2539.011246009308
 30
0.0
 11
5051.707506245021
 21
2539.010267330843
 31
0.0
  0
ARC
  5
218C
330
1F
100
AcDbEntity
  8
SANINDUSA
100
AcDbCircle
 10
5051.623990730311
 20
2539.020612659078
 30
0.0
 40
0.0079999103355835
100
AcDbArc
 50
217.2734172311255
 51
268.5916835259012
  0
LINE
  5
218D
330
1F
100
AcDbEntity
  8
SANINDUSA
100
AcDbLine
 10
5051.60737187231
 20
2539.016019849617
 30
0.0
 11
5051.617624765281
 21
2539.015767759222
 31
0.0
  0
ARC
  5
218E
330
1F
100
AcDbEntity
  8
SANINDUSA
100
AcDbCircle
 10
5051.601251679717
 20
2539.021171796969
 30
0.0
 40
0.0079999574305729
100
AcDbArc
 50
268.5914626684484
 51
319.9094959901718
  0
ARC
  5
218F
330
1F
100
AcDbEntity
  8
SANINDUSA
100
AcDbCircle
 10
5051.559010336875
 20
2539.022210254759
 30
0.0
 40
0.0079998399136383
100
AcDbArc
 50
217.2731749334742
 51
268.5919258076276
  0
LINE
  5
2190
330
1F
100
AcDbEntity
  8
SANINDUSA
100
AcDbLine
 10
5051.542391514424
 20
2539.017617507417
 30
0.0
 11
5051.552644407395
 21
2539.017365424472
 31
0.0
  0
ARC
  5
2191
330
1F
100
AcDbEntity
  8
SANINDUSA
100
AcDbCircle
 10
5051.536271321833
 20
2539.022769454769
 30
0.0
 40
0.0079999574307542
100
AcDbArc
 50
268.5914626684484
 51
319.9094959702389
  0
ARC
  5
2192
330
1F
100
AcDbEntity
  8
SANINDUSA
100
AcDbCircle
 10
5051.494030066949
 20
2539.023808152318
 30
0.0
 40
0.0080000743145977
100
AcDbArc
 50
217.2739881334712
 51
268.5913368882959
  0
LINE
  5
2193
330
1F
100
AcDbEntity
  8
SANINDUSA
100
AcDbLine
 10
5051.47741115654
 20
2539.019215172667
 30
0.0
 11
5051.487664019708
 21
2539.018963089723
 31
0.0
  0
ARC
  5
2194
330
1F
100
AcDbEntity
  8
SANINDUSA
100
AcDbCircle
 10
5051.471290963946
 20
2539.024367120018
 30
0.0
 40
0.0079999574305521
100
AcDbArc
 50
268.5914626684484
 51
319.9094959901718
  0
ARC
  5
2195
330
1F
100
AcDbEntity
  8
SANINDUSA
100
AcDbCircle
 10
5051.429049681821
 20
2539.025405745614
 30
0.0
 40
0.0080000017124935
100
AcDbArc
 50
217.2738033251647
 51
268.5915193290734
  0
LINE
  5
2196
330
1F
100
AcDbEntity
  8
SANINDUSA
100
AcDbLine
 10
5051.412430798654
 20
2539.020812837917
 30
0.0
 11
5051.422683676724
 21
2539.020560747522
 31
0.0
  0
ARC
  5
2197
330
1F
100
AcDbEntity
  8
SANINDUSA
100
AcDbCircle
 10
5051.40631061577
 20
2539.025964762685
 30
0.0
 40
0.0079999354585399
100
AcDbArc
 50
268.5912824690137
 51
319.9095749480039
  0
ARC
  5
2198
330
1F
100
AcDbEntity
  8
SANINDUSA
100
AcDbCircle
 10
5051.364069351179
 20
2539.027003475368
 30
0.0
 40
0.0080000743146018
100
AcDbArc
 50
217.2739881334712
 51
268.5913368882959
  0
LINE
  5
2199
330
1F
100
AcDbEntity
  8
SANINDUSA
100
AcDbLine
 10
5051.347450440768
 20
2539.022410495717
 30
0.0
 11
5051.357703303938
 21
2539.022158412773
 31
0.0
  0
ARC
  5
219A
330
1F
100
AcDbEntity
  8
SANINDUSA
100
AcDbCircle
 10
5051.341330226414
 20
2539.027562490347
 30
0.0
 40
0.008000004526116
100
AcDbArc
 50
268.5915201111308
 51
319.9093373140219
  0
ARC
  5
219B
330
1F
100
AcDbEntity
  8
SANINDUSA
100
AcDbCircle
 10
5051.247883244507
 20
2539.045864898388
 30
0.0
 40
0.0240000103751721
100
AcDbArc
 50
192.0000166202831
 51
268.59153892876
  0
LINE
  5
219C
330
1F
100
AcDbEntity
  8
SANINDUSA
100
AcDbLine
 10
5051.22440769339
 20
2539.04087500884
 30
0.0
 11
5051.212201917564
 21
2539.098298664715
 31
0.0
  0
ARC
  5
219D
330
1F
100
AcDbEntity
  8
SANINDUSA
100
AcDbCircle
 10
5051.207311179597
 20
2539.097259106237
 30
0.0
 40
0.005
100
AcDbArc
 50
11.9999999912834
 51
90.0
  0
LINE
  5
219E
330
1F
100
AcDbEntity
  8
SANINDUSA
100
AcDbLine
 10
5051.183443510924
 20
2539.102259106047
 30
0.0
 11
5051.207311181371
 21
2539.102259106047
 31
0.0
  0
ARC
  5
219F
330
1F
100
AcDbEntity
  8
SANINDUSA
100
AcDbCircle
 10
5051.183443511264
 20
2539.097259106237
 30
0.0
 40
0.0050000000000001
100
AcDbArc
 50
90.0
 51
178.9999999902799
  0
LINE
  5
21A0
330
1F
100
AcDbEntity
  8
SANINDUSA
100
AcDbLine
 10
5051.176505237371
 20
2538.986259108919
 30
0.0
 11
5051.178444272857
 21
2539.097346367825
 31
0.0
  0
LINE
  5
21A1
330
1F
100
AcDbEntity
  8
SANINDUSA
100
AcDbLine
 10
5051.176505237371
 20
2538.986259108919
 30
0.0
 11
5051.172504628096
 21
2538.986259108919
 31
0.0
  0
LINE
  5
21A2
330
1F
100
AcDbEntity
  8
SANINDUSA
100
AcDbLine
 10
5051.172504628096
 20
2538.986259108919
 30
0.0
 11
5051.174444882015
 21
2539.097416177902
 31
0.0
  0
ARC
  5
21A3
330
1F
100
AcDbEntity
  8
SANINDUSA
100
AcDbCircle
 10
5051.183443511264
 20
2539.097259106237
 30
0.0
 40
0.0090000000000003
100
AcDbArc
 50
90.0
 51
178.9999999902799
  0
LINE
  5
21A4
330
1F
100
AcDbEntity
  8
SANINDUSA
100
AcDbLine
 10
5051.183443510924
 20
2539.106259106237
 30
0.0
 11
5051.207311181371
 21
2539.106259106237
 31
0.0
  0
ARC
  5
21A5
330
1F
100
AcDbEntity
  8
SANINDUSA
100
AcDbCircle
 10
5051.207311179597
 20
2539.097259106237
 30
0.0
 40
0.0090000000000001
100
AcDbArc
 50
11.9999999912834
 51
90.0
  0
LINE
  5
21A6
330
1F
100
AcDbEntity
  8
SANINDUSA
100
AcDbLine
 10
5051.228320283835
 20
2539.041706657547
 30
0.0
 11
5051.216114508007
 21
2539.099130311559
 31
0.0
  0
ARC
  5
21A7
330
1F
100
AcDbEntity
  8
SANINDUSA
100
AcDbCircle
 10
5051.247883223059
 20
2539.045864874702
 30
0.0
 40
0.0199999840251046
100
AcDbArc
 50
191.9999609135525
 51
268.5915946510442
  0
LINE
  5
21A8
330
1F
100
AcDbEntity
  8
SANINDUSA
100
AcDbLine
 10
5051.247391646747
 20
2539.025870932776
 30
0.0
 11
5051.298563158159
 21
2539.024612783033
 31
0.0
  0
ARC
  5
21A9
330
1F
100
AcDbEntity
  8
SANINDUSA
100
AcDbCircle
 10
5051.341330233855
 20
2539.027562463424
 30
0.0
 40
0.0039999756507723
100
AcDbArc
 50
268.5913649317686
 51
323.7417440191901
  0
ARC
  5
21AA
330
1F
100
AcDbEntity
  8
SANINDUSA
100
AcDbCircle
 10
5051.346974727767
 20
2539.023422500671
 30
0.0
 40
0.0029999960005068
100
AcDbArc
 50
88.59153981436584
 51
143.7417772361267
  0
LINE
  5
21AB
330
1F
100
AcDbEntity
  8
SANINDUSA
100
AcDbLine
 10
5051.347048467044
 20
2539.026421590287
 30
0.0
 11
5051.358301913385
 21
2539.026144905526
 31
0.0
  0
ARC
  5
21AC
330
1F
100
AcDbEntity
  8
SANINDUSA
100
AcDbCircle
 10
5051.358228197743
 20
2539.023145866629
 30
0.0
 40
0.0029999447162639
100
AcDbArc
 50
33.44082318552506
 51
88.59196729979764
  0
ARC
  5
21AD
330
1F
100
AcDbEntity
  8
SANINDUSA
100
AcDbCircle
 10
5051.364069337455
 20
2539.027003447762
 30
0.0
 40
0.0040000442356033
100
AcDbArc
 50
213.4418397668192
 51
268.5913013380969
  0
ARC
  5
21AE
330
1F
100
AcDbEntity
  8
SANINDUSA
100
AcDbCircle
 10
5051.406310588475
 20
2539.025964823456
 30
0.0
 40
0.0040000008450164
100
AcDbArc
 50
268.5914205505043
 51
323.741691937208
  0
ARC
  5
21AF
330
1F
100
AcDbEntity
  8
SANINDUSA
100
AcDbCircle
 10
5051.411955102265
 20
2539.021824821145
 30
0.0
 40
0.0030000102304039
100
AcDbArc
 50
88.59157922211684
 51
143.7414619721844
  0
LINE
  5
21B0
330
1F
100
AcDbEntity
  8
SANINDUSA
100
AcDbLine
 10
5051.41202883983
 20
2539.024823925037
 30
0.0
 11
5051.42328227127
 21
2539.024547240276
 31
0.0
  0
ARC
  5
21B1
330
1F
100
AcDbEntity
  8
SANINDUSA
100
AcDbCircle
 10
5051.423208593632
 20
2539.021548260834
 30
0.0
 40
0.0029998843454802
100
AcDbArc
 50
33.4403943532957
 51
88.59266500559927
  0
ARC
  5
21B2
330
1F
100
AcDbEntity
  8
SANINDUSA
100
AcDbCircle
 10
5051.429049733345
 20
2539.02540584197
 30
0.0
 40
0.0040001046102127
100
AcDbArc
 50
213.4421613729411
 51
268.5907780460423
  0
ARC
  5
21B3
330
1F
100
AcDbEntity
  8
SANINDUSA
100
AcDbCircle
 10
5051.471290939456
 20
2539.024367143726
 30
0.0
 40
0.0039999858335732
100
AcDbArc
 50
268.5917277289046
 51
323.7417914731594
  0
ARC
  5
21B4
330
1F
100
AcDbEntity
  8
SANINDUSA
100
AcDbCircle
 10
5051.476935443537
 20
2539.020227177621
 30
0.0
 40
0.0029999960004107
100
AcDbArc
 50
88.59153981436584
 51
143.7417772361267
  0
LINE
  5
21B5
330
1F
100
AcDbEntity
  8
SANINDUSA
100
AcDbLine
 10
5051.477009182815
 20
2539.023226267237
 30
0.0
 11
5051.488262629156
 21
2539.022949582476
 31
0.0
  0
ARC
  5
21B6
330
1F
100
AcDbEntity
  8
SANINDUSA
100
AcDbCircle
 10
5051.488188962466
 20
2539.019950631952
 30
0.0
 40
0.0029998551673724
100
AcDbArc
 50
33.43992995966752
 51
88.59286047767803
  0
ARC
  5
21B7
330
1F
100
AcDbEntity
  8
SANINDUSA
100
AcDbCircle
 10
5051.494030102182
 20
2539.023808213093
 30
0.0
 40
0.0040001337935037
100
AcDbArc
 50
213.4425096446766
 51
268.5906314673899
  0
ARC
  5
21B8
330
1F
100
AcDbEntity
  8
SANINDUSA
100
AcDbCircle
 10
5051.536271317257
 20
2539.022769515046
 30
0.0
 40
0.0040000154348903
100
AcDbArc
 50
268.5914528161904
 51
323.7414528001979
  0
ARC
  5
21B9
330
1F
100
AcDbEntity
  8
SANINDUSA
100
AcDbCircle
 10
5051.541915831226
 20
2539.018629512371
 30
0.0
 40
0.0029999960003742
100
AcDbArc
 50
88.59153981436584
 51
143.7417772361267
  0
LINE
  5
21BA
330
1F
100
AcDbEntity
  8
SANINDUSA
100
AcDbLine
 10
5051.541989570503
 20
2539.021628601986
 30
0.0
 11
5051.553242987041
 21
2539.021351917225
 31
0.0
  0
ARC
  5
21BB
330
1F
100
AcDbEntity
  8
SANINDUSA
100
AcDbCircle
 10
5051.553169254032
 20
2539.01835279154
 30
0.0
 40
0.0030000319049285
100
AcDbArc
 50
33.44170986415071
 51
88.59167638447665
  0
ARC
  5
21BC
330
1F
100
AcDbEntity
  8
SANINDUSA
100
AcDbCircle
 10
5051.559010393741
 20
2539.022210372673
 30
0.0
 40
0.0039999570458164
100
AcDbArc
 50
213.4411747452351
 51
268.5915194853568
  0
ARC
  5
21BD
330
1F
100
AcDbEntity
  8
SANINDUSA
100
AcDbCircle
 10
5051.601251675142
 20
2539.021171857247
 30
0.0
 40
0.0040000154353592
100
AcDbArc
 50
268.5914528161904
 51
323.7414528001979
  0
ARC
  5
21BE
330
1F
100
AcDbEntity
  8
SANINDUSA
100
AcDbCircle
 10
5051.60689618911
 20
2539.017031854571
 30
0.0
 40
0.0029999960006781
100
AcDbArc
 50
88.59153981436584
 51
143.7417772361267
  0
LINE
  5
21BF
330
1F
100
AcDbEntity
  8
SANINDUSA
100
AcDbLine
 10
5051.606969928388
 20
2539.020030944187
 30
0.0
 11
5051.618223344926
 21
2539.019754251975
 31
0.0
  0
ARC
  5
21C0
330
1F
100
AcDbEntity
  8
SANINDUSA
100
AcDbCircle
 10
5051.618149600965
 20
2539.016755097368
 30
0.0
 40
0.0030000610869628
100
AcDbArc
 50
33.44217423603728
 51
88.59148091239804
  0
ARC
  5
21C1
330
1F
100
AcDbEntity
  8
SANINDUSA
100
AcDbCircle
 10
5051.623990738892
 20
2539.020612676913
 30
0.0
 40
0.0039999255007979
100
AcDbArc
 50
213.4408215667671
 51
268.5921178916448
  0
LINE
  5
21C2
330
1F
100
AcDbEntity
  8
SANINDUSA
100
AcDbLine
 10
5051.643604224567
 20
2539.016129306096
 30
0.0
 11
5051.679599231128
 21
2539.015244378287
 31
0.0
  0
LINE
  5
21C3
330
1F
100
AcDbEntity
  8
SANINDUSA
100
AcDbLine
 10
5051.679599231128
 20
2539.015244303781
 30
0.0
 11
5051.709301715735
 21
2539.014207071203
 31
0.0
  0
LINE
  5
21C4
330
1F
100
AcDbEntity
  8
SANINDUSA
100
AcDbLine
 10
5051.709301715735
 20
2539.014207071203
 30
0.0
 11
5051.719599252585
 21
2539.003164312381
 31
0.0
  0
LINE
  5
21C5
330
1F
100
AcDbEntity
  8
SANINDUSA
100
AcDbLine
 10
5051.719599252585
 20
2539.003164312381
 30
0.0
 11
5051.789599245434
 21
2539.003164312381
 31
0.0
  0
LINE
  5
21C6
330
1F
100
AcDbEntity
  8
SANINDUSA
100
AcDbLine
 10
5051.789599245434
 20
2539.003164312381
 30
0.0
 11
5051.799896782283
 21
2539.014207071203
 31
0.0
  0
LINE
  5
21C7
330
1F
100
AcDbEntity
  8
SANINDUSA
100
AcDbLine
 10
5051.799896782283
 20
2539.014207071203
 30
0.0
 11
5051.829599207287
 21
2539.015244303781
 31
0.0
  0
ARC
  5
21C8
330
1F
100
AcDbEntity
  8
SANINDUSA
100
AcDbCircle
 10
5051.825825658314
 20
2539.12316922566
 30
0.0
 40
0.1079910155532781
100
AcDbArc
 50
272.0025357483105
 51
285.776679909967
  0
ARC
  5
21C9
330
1F
100
AcDbEntity
  8
SANINDUSA
100
AcDbCircle
 10
5051.849748155408
 20
2539.038492651845
 30
0.0
 40
0.0200000614086643
100
AcDbArc
 50
285.7803694086312
 51
347.9998898326052
  0
LINE
  5
21CA
330
1F
100
AcDbEntity
  8
SANINDUSA
100
AcDbLine
 10
5051.88308394516
 20
2539.099130311559
 30
0.0
 11
5051.869311159496
 21
2539.034334367651
 31
0.0
  0
LINE
  5
21CD
330
1F
100
AcDbEntity
  8
SANINDUSA
100
AcDbLine
 10
5051.799896782283
 20
2539.014207071203
 30
0.0
 11
5051.709301715735
 21
2539.014207071203
 31
0.0
  0
LINE
  5
22B9
330
1F
100
AcDbEntity
  8
SANINDUSA
100
AcDbLine
 10
5051.207311181371
 20
2539.106259106237
 30
0.0
 11
5051.225895984117
 21
2539.106259106237
 31
0.0
  0
LINE
  5
22BB
330
1F
100
AcDbEntity
  8
SANINDUSA
100
AcDbLine
 10
5051.873302465324
 20
2539.106259106237
 30
0.0
 11
5051.891887312774
 21
2539.106259106237
 31
0.0
  0
LINE
  5
22BC
330
1F
100
AcDbEntity
  8
SANINDUSA
100
AcDbLine
 10
5051.225895984117
 20
2539.106259106237
 30
0.0
 11
5051.873302465324
 21
2539.106259106237
 31
0.0
  0
LINE
  5
22C2
330
1F
100
AcDbEntity
  8
SANINDUSA
100
AcDbLine
 10
5051.922693258171
 20
2538.986259108919
 30
0.0
 11
5051.921693390255
 21
2538.986259108919
 31
0.0
  0
LINE
  5
22C4
330
1F
100
AcDbEntity
  8
SANINDUSA
100
AcDbLine
 10
5051.177505085031
 20
2538.986259108919
 30
0.0
 11
5051.176505237371
 21
2538.986259108919
 31
0.0
  0
LINE
  5
22C5
330
1F
100
AcDbEntity
  8
SANINDUSA
100
AcDbLine
 10
5051.921693390255
 20
2538.986259108919
 30
0.0
 11
5051.177505085031
 21
2538.986259108919
 31
0.0
  0
LINE
  5
2738
330
1F
100
AcDbEntity
  8
SANINDUSA
100
AcDbLine
 10
5050.95950186477
 20
2539.094044424285
 30
0.0
 11
5050.961442115167
 21
2538.982887355303
 31
0.0
  0
LINE
  5
273A
330
1F
100
AcDbEntity
  8
SANINDUSA
100
AcDbLine
 10
5050.956442835191
 20
2538.982887355303
 30
0.0
 11
5050.961442115167
 21
2538.982887355303
 31
0.0
  0
LINE
  5
273D
330
1F
100
AcDbEntity
  8
SANINDUSA
100
AcDbLine
 10
5050.207252880941
 20
2538.982887355303
 30
0.0
 11
5050.209193134858
 21
2539.094044424285
 31
0.0
  0
LINE
  5
273E
330
1F
100
AcDbEntity
  8
SANINDUSA
100
AcDbLine
 10
5050.207252880941
 20
2538.982887355303
 30
0.0
 11
5050.212252119472
 21
2538.982887355303
 31
0.0
  0
LINE
  5
2740
330
1F
100
AcDbEntity
  8
SANINDUSA
100
AcDbLine
 10
5050.212252119472
 20
2538.982887355303
 30
0.0
 11
5050.956442835191
 21
2538.982887355303
 31
0.0
  0
ARC
  5
2741
330
1F
100
AcDbEntity
  8
SANINDUSA
100
AcDbCircle
 10
5050.950503213372
 20
2539.09388735262
 30
0.0
 40
0.0090000000000001
100
AcDbArc
 50
1.000000009720081
 51
90.0
  0
LINE
  5
2743
330
1F
100
AcDbEntity
  8
SANINDUSA
100
AcDbLine
 10
5050.218191763768
 20
2539.10288735262
 30
0.0
 11
5050.950503232339
 21
2539.10288735262
 31
0.0
  0
ARC
  5
2745
330
1F
100
AcDbEntity
  8
SANINDUSA
100
AcDbCircle
 10
5050.218191764108
 20
2539.09388735262
 30
0.0
 40
0.0090000000000001
100
AcDbArc
 50
90.0
 51
178.9999999902799
  0
ARC
  5
2746
330
1F
100
AcDbEntity
  8
SANINDUSA
100
AcDbCircle
 10
5048.891479107561
 20
2538.996046136781
 30
0.0
 40
0.0025905736925842
100
AcDbArc
 50
0.0
 51
89.99523561579643
  0
LWPOLYLINE
  5
2747
330
1F
100
AcDbEntity
  8
SANINDUSA
100
AcDbPolyline
 90
        3
 70
   128
 43
0.0
 10
5048.880479941437
 20
2538.998639273464
 10
5048.888479600021
 20
2538.998637395918
 10
5048.891479322978
 20
2538.998636710465
  0
LWPOLYLINE
  5
2748
330
1F
100
AcDbEntity
  8
SANINDUSA
100
AcDbPolyline
 90
        3
 70
   128
 43
0.0
 10
5048.894069681236
 20
2538.996046441614
 10
5048.894069800446
 20
2538.98804845196
 10
5048.89406986005
 20
2538.985049950897
  0
ARC
  5
2749
330
1F
100
AcDbEntity
  8
SANINDUSA
100
AcDbCircle
 10
5048.88047897379
 20
2538.996050061838
 30
0.0
 40
0.0025892118070807
100
AcDbArc
 50
89.97858728975264
 51
180.0
  0
LWPOLYLINE
  5
274A
330
1F
100
AcDbEntity
  8
SANINDUSA
100
AcDbPolyline
 90
        3
 70
   128
 43
0.0
 10
5048.877889821597
 20
2538.985053795397
 10
5048.877889761993
 20
2538.993051755249
 10
5048.877889761993
 20
2538.996050286114
  0
ARC
  5
274B
330
1F
100
AcDbEntity
  8
SANINDUSA
100
AcDbCircle
 10
5048.891480564741
 20
2538.98505037795
 30
0.0
 40
0.002589295344731
100
AcDbArc
 50
269.9804359516031
 51
359.9905487454966
  0
LWPOLYLINE
  5
274C
330
1F
100
AcDbEntity
  8
SANINDUSA
100
AcDbPolyline
 90
        3
 70
   128
 43
0.0
 10
5048.891479680606
 20
2538.982461082756
 10
5048.883479962417
 20
2538.982462960302
 10
5048.880480060645
 20
2538.982463645756
  0
ARC
  5
274D
330
1F
100
AcDbEntity
  8
SANINDUSA
100
AcDbCircle
 10
5048.880480219758
 20
2538.985054043923
 30
0.0
 40
0.0025903981722391
100
AcDbArc
 50
180.0
 51
269.9964806849964
  0
ARC
  5
274E
330
1F
100
AcDbEntity
  8
SANINDUSA
100
AcDbCircle
 10
5048.826478946033
 20
2538.996065284773
 30
0.0
 40
0.0025905736925842
100
AcDbArc
 50
0.0
 51
89.99523561579643
  0
LWPOLYLINE
  5
274F
330
1F
100
AcDbEntity
  8
SANINDUSA
100
AcDbPolyline
 90
        3
 70
   128
 43
0.0
 10
5048.815479779908
 20
2538.998658421456
 10
5048.823479438492
 20
2538.99865654391
 10
5048.82647916145
 20
2538.998655858457
  0
LWPOLYLINE
  5
2750
330
1F
100
AcDbEntity
  8
SANINDUSA
100
AcDbPolyline
 90
        3
 70
   128
 43
0.0
 10
5048.829069519707
 20
2538.996065589606
 10
5048.829069638917
 20
2538.988067599952
 10
5048.829069698522
 20
2538.985069098889
  0
ARC
  5
2751
330
1F
100
AcDbEntity
  8
SANINDUSA
100
AcDbCircle
 10
5048.815478812262
 20
2538.99606920983
 30
0.0
 40
0.0025892118070807
100
AcDbArc
 50
89.97858728975264
 51
180.0
  0
LWPOLYLINE
  5
2752
330
1F
100
AcDbEntity
  8
SANINDUSA
100
AcDbPolyline
 90
        3
 70
   128
 43
0.0
 10
5048.812889660069
 20
2538.985072943389
 10
5048.812889600465
 20
2538.993070903241
 10
5048.812889600465
 20
2538.996069434106
  0
ARC
  5
2753
330
1F
100
AcDbEntity
  8
SANINDUSA
100
AcDbCircle
 10
5048.826480403211
 20
2538.985069525942
 30
0.0
 40
0.002589295344731
100
AcDbArc
 50
269.9804359516031
 51
359.9905487454966
  0
LWPOLYLINE
  5
2754
330
1F
100
AcDbEntity
  8
SANINDUSA
100
AcDbPolyline
 90
        3
 70
   128
 43
0.0
 10
5048.826479519078
 20
2538.982480230748
 10
5048.818479800889
 20
2538.982482108294
 10
5048.815479899118
 20
2538.982482793748
  0
ARC
  5
2755
330
1F
100
AcDbEntity
  8
SANINDUSA
100
AcDbCircle
 10
5048.81548005823
 20
2538.985073191915
 30
0.0
 40
0.0025903981722391
100
AcDbArc
 50
180.0
 51
269.9964806849964
  0
ARC
  5
2756
330
1F
100
AcDbEntity
  8
SANINDUSA
100
AcDbCircle
 10
5048.761479276243
 20
2538.996075536772
 30
0.0
 40
0.0025905736925842
100
AcDbArc
 50
0.0
 51
89.99523561579643
  0
LWPOLYLINE
  5
2757
330
1F
100
AcDbEntity
  8
SANINDUSA
100
AcDbPolyline
 90
        3
 70
   128
 43
0.0
 10
5048.750480110118
 20
2538.998668673456
 10
5048.758479768702
 20
2538.998666795909
 10
5048.76147949166
 20
2538.998666110455
  0
LWPOLYLINE
  5
2758
330
1F
100
AcDbEntity
  8
SANINDUSA
100
AcDbPolyline
 90
        3
 70
   128
 43
0.0
 10
5048.764069849917
 20
2538.996075841605
 10
5048.764069969127
 20
2538.98807785195
 10
5048.764070028731
 20
2538.985079350888
  0
ARC
  5
2759
330
1F
100
AcDbEntity
  8
SANINDUSA
100
AcDbCircle
 10
5048.750479142472
 20
2538.996079461829
 30
0.0
 40
0.0025892118070807
100
AcDbArc
 50
89.97858728975264
 51
180.0
  0
LWPOLYLINE
  5
275A
330
1F
100
AcDbEntity
  8
SANINDUSA
100
AcDbPolyline
 90
        3
 70
   128
 43
0.0
 10
5048.747889990279
 20
2538.985083195388
 10
5048.747889930674
 20
2538.99308115524
 10
5048.747889930674
 20
2538.996079686105
  0
ARC
  5
275B
330
1F
100
AcDbEntity
  8
SANINDUSA
100
AcDbCircle
 10
5048.761480733421
 20
2538.985079777941
 30
0.0
 40
0.002589295344731
100
AcDbArc
 50
269.9804359516031
 51
359.9905487454966
  0
LWPOLYLINE
  5
275C
330
1F
100
AcDbEntity
  8
SANINDUSA
100
AcDbPolyline
 90
        3
 70
   128
 43
0.0
 10
5048.761479849288
 20
2538.982490482747
 10
5048.753480131098
 20
2538.982492360294
 10
5048.750480229327
 20
2538.982493045747
  0
ARC
  5
275D
330
1F
100
AcDbEntity
  8
SANINDUSA
100
AcDbCircle
 10
5048.75048038844
 20
2538.985083443914
 30
0.0
 40
0.0025903981722391
100
AcDbArc
 50
180.0
 51
269.9964806849964
  0
ARC
  5
275E
330
1F
100
AcDbEntity
  8
SANINDUSA
100
AcDbCircle
 10
5048.696479606451
 20
2538.996065359278
 30
0.0
 40
0.0025905736925842
100
AcDbArc
 50
0.0
 51
89.99523561579643
  0
LWPOLYLINE
  5
275F
330
1F
100
AcDbEntity
  8
SANINDUSA
100
AcDbPolyline
 90
        3
 70
   128
 43
0.0
 10
5048.685480440327
 20
2538.998658495962
 10
5048.693480098911
 20
2538.998656618416
 10
5048.69647982187
 20
2538.998655932962
  0
LWPOLYLINE
  5
2760
330
1F
100
AcDbEntity
  8
SANINDUSA
100
AcDbPolyline
 90
        3
 70
   128
 43
0.0
 10
5048.699070180127
 20
2538.996065664112
 10
5048.699070299336
 20
2538.988067674458
 10
5048.699070358941
 20
2538.985069173395
  0
ARC
  5
2761
330
1F
100
AcDbEntity
  8
SANINDUSA
100
AcDbCircle
 10
5048.685479472681
 20
2538.996069284336
 30
0.0
 40
0.0025892118070807
100
AcDbArc
 50
89.97858728975264
 51
180.0
  0
LWPOLYLINE
  5
2762
330
1F
100
AcDbEntity
  8
SANINDUSA
100
AcDbPolyline
 90
        3
 70
   128
 43
0.0
 10
5048.682890320488
 20
2538.985073017895
 10
5048.682890260884
 20
2538.993070977747
 10
5048.682890260884
 20
2538.996069508612
  0
ARC
  5
2763
330
1F
100
AcDbEntity
  8
SANINDUSA
100
AcDbCircle
 10
5048.696481063631
 20
2538.985069600448
 30
0.0
 40
0.002589295344731
100
AcDbArc
 50
269.9804359516031
 51
359.9905487454966
  0
LWPOLYLINE
  5
2764
330
1F
100
AcDbEntity
  8
SANINDUSA
100
AcDbPolyline
 90
        3
 70
   128
 43
0.0
 10
5048.696480179497
 20
2538.982480305254
 10
5048.688480461308
 20
2538.9824821828
 10
5048.685480559537
 20
2538.982482868254
  0
ARC
  5
2765
330
1F
100
AcDbEntity
  8
SANINDUSA
100
AcDbCircle
 10
5048.685480718649
 20
2538.985073266421
 30
0.0
 40
0.0025903981722391
100
AcDbArc
 50
180.0
 51
269.9964806849964
  0
ARC
  5
276E
330
1F
100
AcDbEntity
  8
SANINDUSA
100
AcDbCircle
 10
5048.631479430023
 20
2538.996029328271
 30
0.0
 40
0.0025905736925842
100
AcDbArc
 50
0.0
 51
89.99523561579643
  0
LWPOLYLINE
  5
276F
330
1F
100
AcDbEntity
  8
SANINDUSA
100
AcDbPolyline
 90
        3
 70
   128
 43
0.0
 10
5048.620480263898
 20
2538.998622464955
 10
5048.628479922482
 20
2538.998620587408
 10
5048.63147964544
 20
2538.998619901955
  0
LWPOLYLINE
  5
2770
330
1F
100
AcDbEntity
  8
SANINDUSA
100
AcDbPolyline
 90
        3
 70
   128
 43
0.0
 10
5048.634070003697
 20
2538.996029633104
 10
5048.634070122907
 20
2538.98803164345
 10
5048.634070182512
 20
2538.985033142387
  0
ARC
  5
2771
330
1F
100
AcDbEntity
  8
SANINDUSA
100
AcDbCircle
 10
5048.620479296252
 20
2538.996033253328
 30
0.0
 40
0.0025892118070807
100
AcDbArc
 50
89.97858728975264
 51
180.0
  0
LWPOLYLINE
  5
2772
330
1F
100
AcDbEntity
  8
SANINDUSA
100
AcDbPolyline
 90
        3
 70
   128
 43
0.0
 10
5048.617890144059
 20
2538.985036986887
 10
5048.617890084454
 20
2538.993034946739
 10
5048.617890084454
 20
2538.996033477604
  0
ARC
  5
2773
330
1F
100
AcDbEntity
  8
SANINDUSA
100
AcDbCircle
 10
5048.631480887201
 20
2538.98503356944
 30
0.0
 40
0.002589295344731
100
AcDbArc
 50
269.9804359516031
 51
359.9905487454966
  0
LWPOLYLINE
  5
2774
330
1F
100
AcDbEntity
  8
SANINDUSA
100
AcDbPolyline
 90
        3
 70
   128
 43
0.0
 10
5048.631480003067
 20
2538.982444274247
 10
5048.623480284878
 20
2538.982446151793
 10
5048.620480383107
 20
2538.982446837246
  0
ARC
  5
2775
330
1F
100
AcDbEntity
  8
SANINDUSA
100
AcDbCircle
 10
5048.620480542219
 20
2538.985037235413
 30
0.0
 40
0.0025903981722391
100
AcDbArc
 50
180.0
 51
269.9964806849964
  0
ARC
  5
2776
330
1F
100
AcDbEntity
  8
SANINDUSA
100
AcDbCircle
 10
5048.566479469659
 20
2538.996029328271
 30
0.0
 40
0.0025905736925842
100
AcDbArc
 50
0.0
 51
89.99523561579643
  0
LWPOLYLINE
  5
2777
330
1F
100
AcDbEntity
  8
SANINDUSA
100
AcDbPolyline
 90
        3
 70
   128
 43
0.0
 10
5048.555480303535
 20
2538.998622464955
 10
5048.563479962119
 20
2538.998620587408
 10
5048.566479685077
 20
2538.998619901955
  0
LWPOLYLINE
  5
2778
330
1F
100
AcDbEntity
  8
SANINDUSA
100
AcDbPolyline
 90
        3
 70
   128
 43
0.0
 10
5048.569070043335
 20
2538.996029633104
 10
5048.569070162543
 20
2538.98803164345
 10
5048.569070222148
 20
2538.985033142387
  0
ARC
  5
2779
330
1F
100
AcDbEntity
  8
SANINDUSA
100
AcDbCircle
 10
5048.555479335888
 20
2538.996033253328
 30
0.0
 40
0.0025892118070807
100
AcDbArc
 50
89.97858728975264
 51
180.0
  0
LWPOLYLINE
  5
277A
330
1F
100
AcDbEntity
  8
SANINDUSA
100
AcDbPolyline
 90
        3
 70
   128
 43
0.0
 10
5048.552890183696
 20
2538.985036986887
 10
5048.552890124091
 20
2538.993034946739
 10
5048.552890124091
 20
2538.996033477604
  0
ARC
  5
277B
330
1F
100
AcDbEntity
  8
SANINDUSA
100
AcDbCircle
 10
5048.566480926838
 20
2538.98503356944
 30
0.0
 40
0.002589295344731
100
AcDbArc
 50
269.9804359516031
 51
359.9905487454966
  0
LWPOLYLINE
  5
277C
330
1F
100
AcDbEntity
  8
SANINDUSA
100
AcDbPolyline
 90
        3
 70
   128
 43
0.0
 10
5048.566480042705
 20
2538.982444274247
 10
5048.558480324516
 20
2538.982446151793
 10
5048.555480422744
 20
2538.982446837246
  0
ARC
  5
277D
330
1F
100
AcDbEntity
  8
SANINDUSA
100
AcDbCircle
 10
5048.555480581857
 20
2538.985037235413
 30
0.0
 40
0.0025903981722391
100
AcDbArc
 50
180.0
 51
269.9964806849964
  0
ARC
  5
277E
330
1F
100
AcDbEntity
  8
SANINDUSA
100
AcDbCircle
 10
5048.56647959632
 20
2539.061016197964
 30
0.0
 40
0.0025905736925842
100
AcDbArc
 50
0.0
 51
89.99523561579643
  0
LWPOLYLINE
  5
277F
330
1F
100
AcDbEntity
  8
SANINDUSA
100
AcDbPolyline
 90
        3
 70
   128
 43
0.0
 10
5048.555480430195
 20
2539.063609334647
 10
5048.563480088779
 20
2539.063607457101
 10
5048.566479811737
 20
2539.063606771648
  0
LWPOLYLINE
  5
2780
330
1F
100
AcDbEntity
  8
SANINDUSA
100
AcDbPolyline
 90
        3
 70
   128
 43
0.0
 10
5048.569070169994
 20
2539.061016502797
 10
5048.569070289204
 20
2539.053018513143
 10
5048.569070348808
 20
2539.05002001208
  0
ARC
  5
2781
330
1F
100
AcDbEntity
  8
SANINDUSA
100
AcDbCircle
 10
5048.555479462549
 20
2539.061020123021
 30
0.0
 40
0.0025892118070807
100
AcDbArc
 50
89.97858728975264
 51
180.0
  0
LWPOLYLINE
  5
2782
330
1F
100
AcDbEntity
  8
SANINDUSA
100
AcDbPolyline
 90
        3
 70
   128
 43
0.0
 10
5048.552890310356
 20
2539.05002385658
 10
5048.552890250751
 20
2539.058021816432
 10
5048.552890250751
 20
2539.061020347297
  0
ARC
  5
2783
330
1F
100
AcDbEntity
  8
SANINDUSA
100
AcDbCircle
 10
5048.566481053498
 20
2539.050020439133
 30
0.0
 40
0.002589295344731
100
AcDbArc
 50
269.9804359516031
 51
359.9905487454966
  0
LWPOLYLINE
  5
2784
330
1F
100
AcDbEntity
  8
SANINDUSA
100
AcDbPolyline
 90
        3
 70
   128
 43
0.0
 10
5048.566480169364
 20
2539.047431143939
 10
5048.558480451175
 20
2539.047433021485
 10
5048.555480549404
 20
2539.047433706939
  0
ARC
  5
2785
330
1F
100
AcDbEntity
  8
SANINDUSA
100
AcDbCircle
 10
5048.555480708516
 20
2539.050024105106
 30
0.0
 40
0.0025903981722391
100
AcDbArc
 50
180.0
 51
269.9964806849964
  0
ARC
  5
2786
330
1F
100
AcDbEntity
  8
SANINDUSA
100
AcDbCircle
 10
5048.631479780199
 20
2539.061031605764
 30
0.0
 40
0.0025905736925842
100
AcDbArc
 50
0.0
 51
89.99523561579643
  0
LWPOLYLINE
  5
2787
330
1F
100
AcDbEntity
  8
SANINDUSA
100
AcDbPolyline
 90
        3
 70
   128
 43
0.0
 10
5048.620480614075
 20
2539.063624742448
 10
5048.628480272659
 20
2539.063622864901
 10
5048.631479995617
 20
2539.063622179448
  0
LWPOLYLINE
  5
2788
330
1F
100
AcDbEntity
  8
SANINDUSA
100
AcDbPolyline
 90
        3
 70
   128
 43
0.0
 10
5048.634070353874
 20
2539.061031910598
 10
5048.634070473084
 20
2539.053033920943
 10
5048.634070532688
 20
2539.050035419881
  0
ARC
  5
2789
330
1F
100
AcDbEntity
  8
SANINDUSA
100
AcDbCircle
 10
5048.620479646429
 20
2539.061035530821
 30
0.0
 40
0.0025892118070807
100
AcDbArc
 50
89.97858728975264
 51
180.0
  0
LWPOLYLINE
  5
278A
330
1F
100
AcDbEntity
  8
SANINDUSA
100
AcDbPolyline
 90
        3
 70
   128
 43
0.0
 10
5048.617890494236
 20
2539.050039264381
 10
5048.617890434631
 20
2539.058037224233
 10
5048.617890434631
 20
2539.061035755097
  0
ARC
  5
278B
330
1F
100
AcDbEntity
  8
SANINDUSA
100
AcDbCircle
 10
5048.631481237379
 20
2539.050035846934
 30
0.0
 40
0.002589295344731
100
AcDbArc
 50
269.9804359516031
 51
359.9905487454966
  0
LWPOLYLINE
  5
278C
330
1F
100
AcDbEntity
  8
SANINDUSA
100
AcDbPolyline
 90
        3
 70
   128
 43
0.0
 10
5048.631480353245
 20
2539.04744655174
 10
5048.623480635056
 20
2539.047448429286
 10
5048.620480733284
 20
2539.04744911474
  0
ARC
  5
278D
330
1F
100
AcDbEntity
  8
SANINDUSA
100
AcDbCircle
 10
5048.620480892396
 20
2539.050039512907
 30
0.0
 40
0.0025903981722391
100
AcDbArc
 50
180.0
 51
269.9964806849964
  0
ARC
  5
278E
330
1F
100
AcDbEntity
  8
SANINDUSA
100
AcDbCircle
 10
5048.696479874673
 20
2539.061048086449
 30
0.0
 40
0.0025905736925842
100
AcDbArc
 50
0.0
 51
89.99523561579643
  0
LWPOLYLINE
  5
278F
330
1F
100
AcDbEntity
  8
SANINDUSA
100
AcDbPolyline
 90
        3
 70
   128
 43
0.0
 10
5048.685480708549
 20
2539.063641223132
 10
5048.693480367133
 20
2539.063639345586
 10
5048.69648009009
 20
2539.063638660132
  0
LWPOLYLINE
  5
2790
330
1F
100
AcDbEntity
  8
SANINDUSA
100
AcDbPolyline
 90
        3
 70
   128
 43
0.0
 10
5048.699070448348
 20
2539.061048391282
 10
5048.699070567558
 20
2539.053050401628
 10
5048.699070627161
 20
2539.050051900565
  0
ARC
  5
2791
330
1F
100
AcDbEntity
  8
SANINDUSA
100
AcDbCircle
 10
5048.685479740902
 20
2539.061052011506
 30
0.0
 40
0.0025892118070807
100
AcDbArc
 50
89.97858728975264
 51
180.0
  0
LWPOLYLINE
  5
2792
330
1F
100
AcDbEntity
  8
SANINDUSA
100
AcDbPolyline
 90
        3
 70
   128
 43
0.0
 10
5048.682890588709
 20
2539.050055745065
 10
5048.682890529105
 20
2539.058053704917
 10
5048.682890529105
 20
2539.061052235782
  0
ARC
  5
2793
330
1F
100
AcDbEntity
  8
SANINDUSA
100
AcDbCircle
 10
5048.696481331852
 20
2539.050052327618
 30
0.0
 40
0.002589295344731
100
AcDbArc
 50
269.9804359516031
 51
359.9905487454966
  0
LWPOLYLINE
  5
2794
330
1F
100
AcDbEntity
  8
SANINDUSA
100
AcDbPolyline
 90
        3
 70
   128
 43
0.0
 10
5048.696480447718
 20
2539.047463032424
 10
5048.688480729529
 20
2539.04746490997
 10
5048.685480827757
 20
2539.047465595424
  0
ARC
  5
2795
330
1F
100
AcDbEntity
  8
SANINDUSA
100
AcDbCircle
 10
5048.68548098687
 20
2539.050055993591
 30
0.0
 40
0.0025903981722391
100
AcDbArc
 50
180.0
 51
269.9964806849964
  0
ARC
  5
2796
330
1F
100
AcDbEntity
  8
SANINDUSA
100
AcDbCircle
 10
5048.761479261341
 20
2539.061055909558
 30
0.0
 40
0.0025905736925842
100
AcDbArc
 50
0.0
 51
89.99523561579643
  0
LWPOLYLINE
  5
2797
330
1F
100
AcDbEntity
  8
SANINDUSA
100
AcDbPolyline
 90
        3
 70
   128
 43
0.0
 10
5048.750480095216
 20
2539.063649046242
 10
5048.758479753801
 20
2539.063647168696
 10
5048.761479476759
 20
2539.063646483242
  0
LWPOLYLINE
  5
2798
330
1F
100
AcDbEntity
  8
SANINDUSA
100
AcDbPolyline
 90
        3
 70
   128
 43
0.0
 10
5048.764069835016
 20
2539.061056214392
 10
5048.764069954225
 20
2539.053058224737
 10
5048.76407001383
 20
2539.050059723675
  0
ARC
  5
2799
330
1F
100
AcDbEntity
  8
SANINDUSA
100
AcDbCircle
 10
5048.75047912757
 20
2539.061059834616
 30
0.0
 40
0.0025892118070807
100
AcDbArc
 50
89.97858728975264
 51
180.0
  0
LWPOLYLINE
  5
279A
330
1F
100
AcDbEntity
  8
SANINDUSA
100
AcDbPolyline
 90
        3
 70
   128
 43
0.0
 10
5048.747889975378
 20
2539.050063568174
 10
5048.747889915773
 20
2539.058061528026
 10
5048.747889915773
 20
2539.061060058891
  0
ARC
  5
279B
330
1F
100
AcDbEntity
  8
SANINDUSA
100
AcDbCircle
 10
5048.76148071852
 20
2539.050060150727
 30
0.0
 40
0.002589295344731
100
AcDbArc
 50
269.9804359516031
 51
359.9905487454966
  0
LWPOLYLINE
  5
279C
330
1F
100
AcDbEntity
  8
SANINDUSA
100
AcDbPolyline
 90
        3
 70
   128
 43
0.0
 10
5048.761479834387
 20
2539.047470855534
 10
5048.753480116197
 20
2539.04747273308
 10
5048.750480214426
 20
2539.047473418533
  0
ARC
  5
279D
330
1F
100
AcDbEntity
  8
SANINDUSA
100
AcDbCircle
 10
5048.750480373538
 20
2539.050063816701
 30
0.0
 40
0.0025903981722391
100
AcDbArc
 50
180.0
 51
269.9964806849964
  0
ARC
  5
279E
330
1F
100
AcDbEntity
  8
SANINDUSA
100
AcDbCircle
 10
5048.826478677812
 20
2539.061048026844
 30
0.0
 40
0.0025905736925842
100
AcDbArc
 50
0.0
 51
89.99523561579643
  0
LWPOLYLINE
  5
279F
330
1F
100
AcDbEntity
  8
SANINDUSA
100
AcDbPolyline
 90
        3
 70
   128
 43
0.0
 10
5048.815479511687
 20
2539.063641163528
 10
5048.823479170271
 20
2539.063639285981
 10
5048.826478893229
 20
2539.063638600528
  0
LWPOLYLINE
  5
27A0
330
1F
100
AcDbEntity
  8
SANINDUSA
100
AcDbPolyline
 90
        3
 70
   128
 43
0.0
 10
5048.829069251486
 20
2539.061048331678
 10
5048.829069370696
 20
2539.053050342023
 10
5048.829069430301
 20
2539.05005184096
  0
ARC
  5
27A1
330
1F
100
AcDbEntity
  8
SANINDUSA
100
AcDbCircle
 10
5048.815478544042
 20
2539.061051951901
 30
0.0
 40
0.0025892118070807
100
AcDbArc
 50
89.97858728975264
 51
180.0
  0
LWPOLYLINE
  5
27A2
330
1F
100
AcDbEntity
  8
SANINDUSA
100
AcDbPolyline
 90
        3
 70
   128
 43
0.0
 10
5048.812889391848
 20
2539.05005568546
 10
5048.812889332244
 20
2539.058053645312
 10
5048.812889332244
 20
2539.061052176177
  0
ARC
  5
27A3
330
1F
100
AcDbEntity
  8
SANINDUSA
100
AcDbCircle
 10
5048.826480134991
 20
2539.050052268013
 30
0.0
 40
0.002589295344731
100
AcDbArc
 50
269.9804359516031
 51
359.9905487454966
  0
LWPOLYLINE
  5
27A4
330
1F
100
AcDbEntity
  8
SANINDUSA
100
AcDbPolyline
 90
        3
 70
   128
 43
0.0
 10
5048.826479250857
 20
2539.047462972819
 10
5048.818479532668
 20
2539.047464850366
 10
5048.815479630896
 20
2539.047465535819
  0
ARC
  5
27A5
330
1F
100
AcDbEntity
  8
SANINDUSA
100
AcDbCircle
 10
5048.815479790008
 20
2539.050055933986
 30
0.0
 40
0.0025903981722391
100
AcDbArc
 50
180.0
 51
269.9964806849964
  0
ARC
  5
27A6
330
1F
100
AcDbEntity
  8
SANINDUSA
100
AcDbCircle
 10
5048.891478779736
 20
2539.061031486555
 30
0.0
 40
0.0025905736925842
100
AcDbArc
 50
0.0
 51
89.99523561579643
  0
LWPOLYLINE
  5
27A7
330
1F
100
AcDbEntity
  8
SANINDUSA
100
AcDbPolyline
 90
        3
 70
   128
 43
0.0
 10
5048.880479613611
 20
2539.063624623239
 10
5048.888479272195
 20
2539.063622745692
 10
5048.891478995154
 20
2539.063622060239
  0
LWPOLYLINE
  5
27A8
330
1F
100
AcDbEntity
  8
SANINDUSA
100
AcDbPolyline
 90
        3
 70
   128
 43
0.0
 10
5048.89406935341
 20
2539.061031791388
 10
5048.89406947262
 20
2539.053033801734
 10
5048.894069532224
 20
2539.050035300672
  0
ARC
  5
27A9
330
1F
100
AcDbEntity
  8
SANINDUSA
100
AcDbCircle
 10
5048.880478645966
 20
2539.061035411612
 30
0.0
 40
0.0025892118070807
100
AcDbArc
 50
89.97858728975264
 51
180.0
  0
LWPOLYLINE
  5
27AA
330
1F
100
AcDbEntity
  8
SANINDUSA
100
AcDbPolyline
 90
        3
 70
   128
 43
0.0
 10
5048.877889493772
 20
2539.050039145171
 10
5048.877889434168
 20
2539.058037105024
 10
5048.877889434168
 20
2539.061035635888
  0
ARC
  5
27AB
330
1F
100
AcDbEntity
  8
SANINDUSA
100
AcDbCircle
 10
5048.891480236914
 20
2539.050035727724
 30
0.0
 40
0.002589295344731
100
AcDbArc
 50
269.9804359516031
 51
359.9905487454966
  0
LWPOLYLINE
  5
27AC
330
1F
100
AcDbEntity
  8
SANINDUSA
100
AcDbPolyline
 90
        3
 70
   128
 43
0.0
 10
5048.891479352781
 20
2539.04744643253
 10
5048.883479634592
 20
2539.047448310077
 10
5048.880479732821
 20
2539.04744899553
  0
ARC
  5
27AD
330
1F
100
AcDbEntity
  8
SANINDUSA
100
AcDbCircle
 10
5048.880479891932
 20
2539.050039393698
 30
0.0
 40
0.0025903981722391
100
AcDbArc
 50
180.0
 51
269.9964806849964
  0
ARC
  5
27AE
330
1F
100
AcDbEntity
  8
SANINDUSA
100
AcDbCircle
 10
5048.956478971067
 20
2539.061016093655
 30
0.0
 40
0.0025905736925842
100
AcDbArc
 50
0.0
 51
89.99523561579643
  0
LWPOLYLINE
  5
27AF
330
1F
100
AcDbEntity
  8
SANINDUSA
100
AcDbPolyline
 90
        3
 70
   128
 43
0.0
 10
5048.945479804942
 20
2539.063609230339
 10
5048.953479463527
 20
2539.063607352793
 10
5048.956479186484
 20
2539.063606667339
  0
LWPOLYLINE
  5
27B0
330
1F
100
AcDbEntity
  8
SANINDUSA
100
AcDbPolyline
 90
        3
 70
   128
 43
0.0
 10
5048.959069544742
 20
2539.061016398489
 10
5048.959069663951
 20
2539.053018408834
 10
5048.959069723555
 20
2539.050019907772
  0
ARC
  5
27B1
330
1F
100
AcDbEntity
  8
SANINDUSA
100
AcDbCircle
 10
5048.945478837296
 20
2539.061020018713
 30
0.0
 40
0.0025892118070807
100
AcDbArc
 50
89.97858728975264
 51
180.0
  0
LWPOLYLINE
  5
27B2
330
1F
100
AcDbEntity
  8
SANINDUSA
100
AcDbPolyline
 90
        3
 70
   128
 43
0.0
 10
5048.942889685103
 20
2539.050023752272
 10
5048.942889625498
 20
2539.058021712124
 10
5048.942889625498
 20
2539.061020242988
  0
ARC
  5
27B3
330
1F
100
AcDbEntity
  8
SANINDUSA
100
AcDbCircle
 10
5048.956480428245
 20
2539.050020334825
 30
0.0
 40
0.002589295344731
100
AcDbArc
 50
269.9804359516031
 51
359.9905487454966
  0
LWPOLYLINE
  5
27B4
330
1F
100
AcDbEntity
  8
SANINDUSA
100
AcDbPolyline
 90
        3
 70
   128
 43
0.0
 10
5048.956479544112
 20
2539.047431039631
 10
5048.948479825923
 20
2539.047432917177
 10
5048.945479924151
 20
2539.047433602631
  0
ARC
  5
27B5
330
1F
100
AcDbEntity
  8
SANINDUSA
100
AcDbCircle
 10
5048.945480083264
 20
2539.050024000798
 30
0.0
 40
0.0025903981722391
100
AcDbArc
 50
180.0
 51
269.9964806849964
  0
ARC
  5
27B6
330
1F
100
AcDbEntity
  8
SANINDUSA
100
AcDbCircle
 10
5048.956478851858
 20
2539.126005556151
 30
0.0
 40
0.0025905736925842
100
AcDbArc
 50
0.0
 51
89.99523561579643
  0
LWPOLYLINE
  5
27B7
330
1F
100
AcDbEntity
  8
SANINDUSA
100
AcDbPolyline
 90
        3
 70
   128
 43
0.0
 10
5048.945479685733
 20
2539.128598692834
 10
5048.953479344317
 20
2539.128596815288
 10
5048.956479067275
 20
2539.128596129834
  0
LWPOLYLINE
  5
27B8
330
1F
100
AcDbEntity
  8
SANINDUSA
100
AcDbPolyline
 90
        3
 70
   128
 43
0.0
 10
5048.959069425531
 20
2539.126005860984
 10
5048.959069544742
 20
2539.118007871329
 10
5048.959069604347
 20
2539.115009370267
  0
ARC
  5
27B9
330
1F
100
AcDbEntity
  8
SANINDUSA
100
AcDbCircle
 10
5048.945478718087
 20
2539.126009481208
 30
0.0
 40
0.0025892118070807
100
AcDbArc
 50
89.97858728975264
 51
180.0
  0
LWPOLYLINE
  5
27BA
330
1F
100
AcDbEntity
  8
SANINDUSA
100
AcDbPolyline
 90
        3
 70
   128
 43
0.0
 10
5048.942889565894
 20
2539.115013214767
 10
5048.942889506289
 20
2539.123011174619
 10
5048.942889506289
 20
2539.126009705483
  0
ARC
  5
27BB
330
1F
100
AcDbEntity
  8
SANINDUSA
100
AcDbCircle
 10
5048.956480309036
 20
2539.11500979732
 30
0.0
 40
0.002589295344731
100
AcDbArc
 50
269.9804359516031
 51
359.9905487454966
  0
LWPOLYLINE
  5
27BC
330
1F
100
AcDbEntity
  8
SANINDUSA
100
AcDbPolyline
 90
        3
 70
   128
 43
0.0
 10
5048.956479424902
 20
2539.112420502126
 10
5048.948479706713
 20
2539.112422379672
 10
5048.945479804942
 20
2539.112423065125
  0
ARC
  5
27BD
330
1F
100
AcDbEntity
  8
SANINDUSA
100
AcDbCircle
 10
5048.945479964054
 20
2539.115013463293
 30
0.0
 40
0.0025903981722391
100
AcDbArc
 50
180.0
 51
269.9964806849964
  0
ARC
  5
27BE
330
1F
100
AcDbEntity
  8
SANINDUSA
100
AcDbCircle
 10
5048.891478630724
 20
2539.126018237038
 30
0.0
 40
0.0025905736925842
100
AcDbArc
 50
0.0
 51
89.99523561579643
  0
LWPOLYLINE
  5
27BF
330
1F
100
AcDbEntity
  8
SANINDUSA
100
AcDbPolyline
 90
        3
 70
   128
 43
0.0
 10
5048.8804794646
 20
2539.128611373722
 10
5048.888479123184
 20
2539.128609496176
 10
5048.891478846141
 20
2539.128608810722
  0
LWPOLYLINE
  5
27C0
330
1F
100
AcDbEntity
  8
SANINDUSA
100
AcDbPolyline
 90
        3
 70
   128
 43
0.0
 10
5048.894069204399
 20
2539.126018541872
 10
5048.894069323608
 20
2539.118020552218
 10
5048.894069383212
 20
2539.115022051155
  0
ARC
  5
27C1
330
1F
100
AcDbEntity
  8
SANINDUSA
100
AcDbCircle
 10
5048.880478496954
 20
2539.126022162096
 30
0.0
 40
0.0025892118070807
100
AcDbArc
 50
89.97858728975264
 51
180.0
  0
LWPOLYLINE
  5
27C2
330
1F
100
AcDbEntity
  8
SANINDUSA
100
AcDbPolyline
 90
        3
 70
   128
 43
0.0
 10
5048.877889344761
 20
2539.115025895655
 10
5048.877889285156
 20
2539.123023855507
 10
5048.877889285156
 20
2539.126022386371
  0
ARC
  5
27C3
330
1F
100
AcDbEntity
  8
SANINDUSA
100
AcDbCircle
 10
5048.891480087903
 20
2539.115022478208
 30
0.0
 40
0.002589295344731
100
AcDbArc
 50
269.9804359516031
 51
359.9905487454966
  0
LWPOLYLINE
  5
27C4
330
1F
100
AcDbEntity
  8
SANINDUSA
100
AcDbPolyline
 90
        3
 70
   128
 43
0.0
 10
5048.89147920377
 20
2539.112433183014
 10
5048.883479485581
 20
2539.11243506056
 10
5048.880479583808
 20
2539.112435746014
  0
ARC
  5
27C5
330
1F
100
AcDbEntity
  8
SANINDUSA
100
AcDbCircle
 10
5048.880479742921
 20
2539.115026144181
 30
0.0
 40
0.0025903981722391
100
AcDbArc
 50
180.0
 51
269.9964806849964
  0
ARC
  5
27C6
330
1F
100
AcDbEntity
  8
SANINDUSA
100
AcDbCircle
 10
5048.826478692713
 20
2539.126030768915
 30
0.0
 40
0.0025905736925842
100
AcDbArc
 50
0.0
 51
89.99523561579643
  0
LWPOLYLINE
  5
27C7
330
1F
100
AcDbEntity
  8
SANINDUSA
100
AcDbPolyline
 90
        3
 70
   128
 43
0.0
 10
5048.815479526588
 20
2539.128623905599
 10
5048.823479185173
 20
2539.128622028052
 10
5048.82647890813
 20
2539.128621342599
  0
LWPOLYLINE
  5
27C8
330
1F
100
AcDbEntity
  8
SANINDUSA
100
AcDbPolyline
 90
        3
 70
   128
 43
0.0
 10
5048.829069266388
 20
2539.126031073749
 10
5048.829069385597
 20
2539.118033084094
 10
5048.829069445202
 20
2539.115034583032
  0
ARC
  5
27C9
330
1F
100
AcDbEntity
  8
SANINDUSA
100
AcDbCircle
 10
5048.815478558942
 20
2539.126034693972
 30
0.0
 40
0.0025892118070807
100
AcDbArc
 50
89.97858728975264
 51
180.0
  0
LWPOLYLINE
  5
27CA
330
1F
100
AcDbEntity
  8
SANINDUSA
100
AcDbPolyline
 90
        3
 70
   128
 43
0.0
 10
5048.812889406749
 20
2539.115038427531
 10
5048.812889347145
 20
2539.123036387384
 10
5048.812889347145
 20
2539.126034918248
  0
ARC
  5
27CB
330
1F
100
AcDbEntity
  8
SANINDUSA
100
AcDbCircle
 10
5048.826480149892
 20
2539.115035010084
 30
0.0
 40
0.002589295344731
100
AcDbArc
 50
269.9804359516031
 51
359.9905487454966
  0
LWPOLYLINE
  5
27CC
330
1F
100
AcDbEntity
  8
SANINDUSA
100
AcDbPolyline
 90
        3
 70
   128
 43
0.0
 10
5048.826479265758
 20
2539.112445714891
 10
5048.818479547569
 20
2539.112447592437
 10
5048.815479645798
 20
2539.112448277891
  0
ARC
  5
27CD
330
1F
100
AcDbEntity
  8
SANINDUSA
100
AcDbCircle
 10
5048.81547980491
 20
2539.115038676058
 30
0.0
 40
0.0025903981722391
100
AcDbArc
 50
180.0
 51
269.9964806849964
  0
ARC
  5
27D6
330
1F
100
AcDbEntity
  8
SANINDUSA
100
AcDbCircle
 10
5048.761479261341
 20
2539.126036297246
 30
0.0
 40
0.0025905736925842
100
AcDbArc
 50
0.0
 51
89.99523561579643
  0
LWPOLYLINE
  5
27D7
330
1F
100
AcDbEntity
  8
SANINDUSA
100
AcDbPolyline
 90
        3
 70
   128
 43
0.0
 10
5048.750480095216
 20
2539.12862943393
 10
5048.758479753801
 20
2539.128627556383
 10
5048.761479476759
 20
2539.12862687093
  0
LWPOLYLINE
  5
27D8
330
1F
100
AcDbEntity
  8
SANINDUSA
100
AcDbPolyline
 90
        3
 70
   128
 43
0.0
 10
5048.764069835016
 20
2539.126036602079
 10
5048.764069954225
 20
2539.118038612425
 10
5048.76407001383
 20
2539.115040111362
  0
ARC
  5
27D9
330
1F
100
AcDbEntity
  8
SANINDUSA
100
AcDbCircle
 10
5048.75047912757
 20
2539.126040222303
 30
0.0
 40
0.0025892118070807
100
AcDbArc
 50
89.97858728975264
 51
180.0
  0
LWPOLYLINE
  5
27DA
330
1F
100
AcDbEntity
  8
SANINDUSA
100
AcDbPolyline
 90
        3
 70
   128
 43
0.0
 10
5048.747889975378
 20
2539.115043955862
 10
5048.747889915773
 20
2539.123041915714
 10
5048.747889915773
 20
2539.126040446579
  0
ARC
  5
27DB
330
1F
100
AcDbEntity
  8
SANINDUSA
100
AcDbCircle
 10
5048.76148071852
 20
2539.115040538415
 30
0.0
 40
0.002589295344731
100
AcDbArc
 50
269.9804359516031
 51
359.9905487454966
  0
LWPOLYLINE
  5
27DC
330
1F
100
AcDbEntity
  8
SANINDUSA
100
AcDbPolyline
 90
        3
 70
   128
 43
0.0
 10
5048.761479834387
 20
2539.112451243222
 10
5048.753480116197
 20
2539.112453120768
 10
5048.750480214426
 20
2539.112453806221
  0
ARC
  5
27DD
330
1F
100
AcDbEntity
  8
SANINDUSA
100
AcDbCircle
 10
5048.750480373538
 20
2539.115044204388
 30
0.0
 40
0.0025903981722391
100
AcDbArc
 50
180.0
 51
269.9964806849964
  0
ARC
  5
27DE
330
1F
100
AcDbEntity
  8
SANINDUSA
100
AcDbCircle
 10
5048.696479859771
 20
2539.126030813619
 30
0.0
 40
0.0025905736925842
100
AcDbArc
 50
0.0
 51
89.99523561579643
  0
LWPOLYLINE
  5
27DF
330
1F
100
AcDbEntity
  8
SANINDUSA
100
AcDbPolyline
 90
        3
 70
   128
 43
0.0
 10
5048.685480693647
 20
2539.128623950302
 10
5048.693480352231
 20
2539.128622072756
 10
5048.696480075189
 20
2539.128621387302
  0
LWPOLYLINE
  5
27E0
330
1F
100
AcDbEntity
  8
SANINDUSA
100
AcDbPolyline
 90
        3
 70
   128
 43
0.0
 10
5048.699070433446
 20
2539.126031118452
 10
5048.699070552656
 20
2539.118033128798
 10
5048.69907061226
 20
2539.115034627735
  0
ARC
  5
27E1
330
1F
100
AcDbEntity
  8
SANINDUSA
100
AcDbCircle
 10
5048.685479726001
 20
2539.126034738675
 30
0.0
 40
0.0025892118070807
100
AcDbArc
 50
89.97858728975264
 51
180.0
  0
LWPOLYLINE
  5
27E2
330
1F
100
AcDbEntity
  8
SANINDUSA
100
AcDbPolyline
 90
        3
 70
   128
 43
0.0
 10
5048.682890573808
 20
2539.115038472235
 10
5048.682890514204
 20
2539.123036432087
 10
5048.682890514204
 20
2539.126034962952
  0
ARC
  5
27E3
330
1F
100
AcDbEntity
  8
SANINDUSA
100
AcDbCircle
 10
5048.696481316951
 20
2539.115035054788
 30
0.0
 40
0.002589295344731
100
AcDbArc
 50
269.9804359516031
 51
359.9905487454966
  0
LWPOLYLINE
  5
27E4
330
1F
100
AcDbEntity
  8
SANINDUSA
100
AcDbPolyline
 90
        3
 70
   128
 43
0.0
 10
5048.696480432817
 20
2539.112445759594
 10
5048.688480714628
 20
2539.11244763714
 10
5048.685480812856
 20
2539.112448322594
  0
ARC
  5
27E5
330
1F
100
AcDbEntity
  8
SANINDUSA
100
AcDbCircle
 10
5048.685480971968
 20
2539.115038720761
 30
0.0
 40
0.0025903981722391
100
AcDbArc
 50
180.0
 51
269.9964806849964
  0
ARC
  5
27E6
330
1F
100
AcDbEntity
  8
SANINDUSA
100
AcDbCircle
 10
5048.63147991431
 20
2539.126018341347
 30
0.0
 40
0.0025905736925842
100
AcDbArc
 50
0.0
 51
89.99523561579643
  0
LWPOLYLINE
  5
27E7
330
1F
100
AcDbEntity
  8
SANINDUSA
100
AcDbPolyline
 90
        3
 70
   128
 43
0.0
 10
5048.620480748185
 20
2539.12861147803
 10
5048.62848040677
 20
2539.128609600484
 10
5048.631480129728
 20
2539.12860891503
  0
LWPOLYLINE
  5
27E8
330
1F
100
AcDbEntity
  8
SANINDUSA
100
AcDbPolyline
 90
        3
 70
   128
 43
0.0
 10
5048.634070487985
 20
2539.12601864618
 10
5048.634070607194
 20
2539.118020656526
 10
5048.634070666799
 20
2539.115022155463
  0
ARC
  5
27E9
330
1F
100
AcDbEntity
  8
SANINDUSA
100
AcDbCircle
 10
5048.620479780539
 20
2539.126022266404
 30
0.0
 40
0.0025892118070807
100
AcDbArc
 50
89.97858728975264
 51
180.0
  0
LWPOLYLINE
  5
27EA
330
1F
100
AcDbEntity
  8
SANINDUSA
100
AcDbPolyline
 90
        3
 70
   128
 43
0.0
 10
5048.617890628347
 20
2539.115025999963
 10
5048.617890568742
 20
2539.123023959815
 10
5048.617890568742
 20
2539.12602249068
  0
ARC
  5
27EB
330
1F
100
AcDbEntity
  8
SANINDUSA
100
AcDbCircle
 10
5048.631481371489
 20
2539.115022582516
 30
0.0
 40
0.002589295344731
100
AcDbArc
 50
269.9804359516031
 51
359.9905487454966
  0
LWPOLYLINE
  5
27EC
330
1F
100
AcDbEntity
  8
SANINDUSA
100
AcDbPolyline
 90
        3
 70
   128
 43
0.0
 10
5048.631480487355
 20
2539.112433287322
 10
5048.623480769166
 20
2539.112435164868
 10
5048.620480867395
 20
2539.112435850322
  0
ARC
  5
27ED
330
1F
100
AcDbEntity
  8
SANINDUSA
100
AcDbCircle
 10
5048.620481026507
 20
2539.115026248489
 30
0.0
 40
0.0025903981722391
100
AcDbArc
 50
180.0
 51
269.9964806849964
  0
ARC
  5
27EE
330
1F
100
AcDbEntity
  8
SANINDUSA
100
AcDbCircle
 10
5048.566479685726
 20
2539.126005660458
 30
0.0
 40
0.0025905736925842
100
AcDbArc
 50
0.0
 51
89.99523561579643
  0
LWPOLYLINE
  5
27EF
330
1F
100
AcDbEntity
  8
SANINDUSA
100
AcDbPolyline
 90
        3
 70
   128
 43
0.0
 10
5048.555480519602
 20
2539.128598797142
 10
5048.563480178186
 20
2539.128596919596
 10
5048.566479901143
 20
2539.128596234142
  0
LWPOLYLINE
  5
27F0
330
1F
100
AcDbEntity
  8
SANINDUSA
100
AcDbPolyline
 90
        3
 70
   128
 43
0.0
 10
5048.569070259401
 20
2539.126005965292
 10
5048.569070378611
 20
2539.118007975638
 10
5048.569070438215
 20
2539.115009474575
  0
ARC
  5
27F1
330
1F
100
AcDbEntity
  8
SANINDUSA
100
AcDbCircle
 10
5048.555479551955
 20
2539.126009585516
 30
0.0
 40
0.0025892118070807
100
AcDbArc
 50
89.97858728975264
 51
180.0
  0
LWPOLYLINE
  5
27F2
330
1F
100
AcDbEntity
  8
SANINDUSA
100
AcDbPolyline
 90
        3
 70
   128
 43
0.0
 10
5048.552890399763
 20
2539.115013319074
 10
5048.552890340158
 20
2539.123011278927
 10
5048.552890340158
 20
2539.126009809792
  0
ARC
  5
27F3
330
1F
100
AcDbEntity
  8
SANINDUSA
100
AcDbCircle
 10
5048.566481142906
 20
2539.115009901628
 30
0.0
 40
0.002589295344731
100
AcDbArc
 50
269.9804359516031
 51
359.9905487454966
  0
LWPOLYLINE
  5
27F4
330
1F
100
AcDbEntity
  8
SANINDUSA
100
AcDbPolyline
 90
        3
 70
   128
 43
0.0
 10
5048.566480258772
 20
2539.112420606434
 10
5048.558480540583
 20
2539.11242248398
 10
5048.55548063881
 20
2539.112423169433
  0
ARC
  5
27F5
330
1F
100
AcDbEntity
  8
SANINDUSA
100
AcDbCircle
 10
5048.555480797923
 20
2539.115013567601
 30
0.0
 40
0.0025903981722391
100
AcDbArc
 50
180.0
 51
269.9964806849964
  0
ARC
  5
27F6
330
1F
100
AcDbEntity
  8
SANINDUSA
100
AcDbCircle
 10
5048.566479745331
 20
2539.190995257064
 30
0.0
 40
0.0025905736925842
100
AcDbArc
 50
0.0
 51
89.99523561579643
  0
LWPOLYLINE
  5
27F7
330
1F
100
AcDbEntity
  8
SANINDUSA
100
AcDbPolyline
 90
        3
 70
   128
 43
0.0
 10
5048.555480579206
 20
2539.193588393747
 10
5048.563480237791
 20
2539.193586516201
 10
5048.566479960748
 20
2539.193585830748
  0
LWPOLYLINE
  5
27F8
330
1F
100
AcDbEntity
  8
SANINDUSA
100
AcDbPolyline
 90
        3
 70
   128
 43
0.0
 10
5048.569070319006
 20
2539.190995561897
 10
5048.569070438215
 20
2539.182997572243
 10
5048.569070497819
 20
2539.17999907118
  0
ARC
  5
27F9
330
1F
100
AcDbEntity
  8
SANINDUSA
100
AcDbCircle
 10
5048.55547961156
 20
2539.190999182121
 30
0.0
 40
0.0025892118070807
100
AcDbArc
 50
89.97858728975264
 51
180.0
  0
LWPOLYLINE
  5
27FA
330
1F
100
AcDbEntity
  8
SANINDUSA
100
AcDbPolyline
 90
        3
 70
   128
 43
0.0
 10
5048.552890459368
 20
2539.18000291568
 10
5048.552890399763
 20
2539.188000875532
 10
5048.552890399763
 20
2539.190999406397
  0
ARC
  5
27FB
330
1F
100
AcDbEntity
  8
SANINDUSA
100
AcDbCircle
 10
5048.566481202509
 20
2539.179999498233
 30
0.0
 40
0.002589295344731
100
AcDbArc
 50
269.9804359516031
 51
359.9905487454966
  0
LWPOLYLINE
  5
27FC
330
1F
100
AcDbEntity
  8
SANINDUSA
100
AcDbPolyline
 90
        3
 70
   128
 43
0.0
 10
5048.566480318377
 20
2539.177410203039
 10
5048.558480600187
 20
2539.177412080585
 10
5048.555480698415
 20
2539.177412766039
  0
ARC
  5
27FD
330
1F
100
AcDbEntity
  8
SANINDUSA
100
AcDbCircle
 10
5048.555480857528
 20
2539.180003164206
 30
0.0
 40
0.0025903981722391
100
AcDbArc
 50
180.0
 51
269.9964806849964
  0
ARC
  5
27FE
330
1F
100
AcDbEntity
  8
SANINDUSA
100
AcDbCircle
 10
5048.631479891959
 20
2539.191004607542
 30
0.0
 40
0.0025905736925842
100
AcDbArc
 50
0.0
 51
89.99523561579643
  0
LWPOLYLINE
  5
27FF
330
1F
100
AcDbEntity
  8
SANINDUSA
100
AcDbPolyline
 90
        3
 70
   128
 43
0.0
 10
5048.620480725833
 20
2539.193597744226
 10
5048.628480384419
 20
2539.19359586668
 10
5048.631480107376
 20
2539.193595181226
  0
LWPOLYLINE
  5
2800
330
1F
100
AcDbEntity
  8
SANINDUSA
100
AcDbPolyline
 90
        3
 70
   128
 43
0.0
 10
5048.634070465634
 20
2539.191004912376
 10
5048.634070584842
 20
2539.183006922721
 10
5048.634070644447
 20
2539.180008421659
  0
ARC
  5
2801
330
1F
100
AcDbEntity
  8
SANINDUSA
100
AcDbCircle
 10
5048.620479758188
 20
2539.1910085326
 30
0.0
 40
0.0025892118070807
100
AcDbArc
 50
89.97858728975264
 51
180.0
  0
LWPOLYLINE
  5
2802
330
1F
100
AcDbEntity
  8
SANINDUSA
100
AcDbPolyline
 90
        3
 70
   128
 43
0.0
 10
5048.617890605995
 20
2539.180012266159
 10
5048.61789054639
 20
2539.188010226011
 10
5048.61789054639
 20
2539.191008756875
  0
ARC
  5
2803
330
1F
100
AcDbEntity
  8
SANINDUSA
100
AcDbCircle
 10
5048.631481349137
 20
2539.180008848712
 30
0.0
 40
0.002589295344731
100
AcDbArc
 50
269.9804359516031
 51
359.9905487454966
  0
LWPOLYLINE
  5
2804
330
1F
100
AcDbEntity
  8
SANINDUSA
100
AcDbPolyline
 90
        3
 70
   128
 43
0.0
 10
5048.631480465004
 20
2539.177419553518
 10
5048.623480746814
 20
2539.177421431064
 10
5048.620480845043
 20
2539.177422116518
  0
ARC
  5
2805
330
1F
100
AcDbEntity
  8
SANINDUSA
100
AcDbCircle
 10
5048.620481004156
 20
2539.180012514685
 30
0.0
 40
0.0025903981722391
100
AcDbArc
 50
180.0
 51
269.9964806849964
  0
ARC
  5
2806
330
1F
100
AcDbEntity
  8
SANINDUSA
100
AcDbCircle
 10
5048.696479740563
 20
2539.191013138457
 30
0.0
 40
0.0025905736925842
100
AcDbArc
 50
0.0
 51
89.99523561579643
  0
LWPOLYLINE
  5
2807
330
1F
100
AcDbEntity
  8
SANINDUSA
100
AcDbPolyline
 90
        3
 70
   128
 43
0.0
 10
5048.685480574437
 20
2539.193606275141
 10
5048.693480233023
 20
2539.193604397594
 10
5048.69647995598
 20
2539.193603712141
  0
LWPOLYLINE
  5
2808
330
1F
100
AcDbEntity
  8
SANINDUSA
100
AcDbPolyline
 90
        3
 70
   128
 43
0.0
 10
5048.699070314238
 20
2539.191013443291
 10
5048.699070433446
 20
2539.183015453636
 10
5048.699070493051
 20
2539.180016952574
  0
ARC
  5
2809
330
1F
100
AcDbEntity
  8
SANINDUSA
100
AcDbCircle
 10
5048.685479606792
 20
2539.191017063514
 30
0.0
 40
0.0025892118070807
100
AcDbArc
 50
89.97858728975264
 51
180.0
  0
LWPOLYLINE
  5
280A
330
1F
100
AcDbEntity
  8
SANINDUSA
100
AcDbPolyline
 90
        3
 70
   128
 43
0.0
 10
5048.6828904546
 20
2539.180020797073
 10
5048.682890394995
 20
2539.188018756926
 10
5048.682890394995
 20
2539.19101728779
  0
ARC
  5
280B
330
1F
100
AcDbEntity
  8
SANINDUSA
100
AcDbCircle
 10
5048.696481197741
 20
2539.180017379627
 30
0.0
 40
0.002589295344731
100
AcDbArc
 50
269.9804359516031
 51
359.9905487454966
  0
LWPOLYLINE
  5
280C
330
1F
100
AcDbEntity
  8
SANINDUSA
100
AcDbPolyline
 90
        3
 70
   128
 43
0.0
 10
5048.696480313608
 20
2539.177428084432
 10
5048.688480595419
 20
2539.177429961979
 10
5048.685480693647
 20
2539.177430647432
  0
ARC
  5
280D
330
1F
100
AcDbEntity
  8
SANINDUSA
100
AcDbCircle
 10
5048.68548085276
 20
2539.180021045599
 30
0.0
 40
0.0025903981722391
100
AcDbArc
 50
180.0
 51
269.9964806849964
  0
ARC
  5
280E
330
1F
100
AcDbEntity
  8
SANINDUSA
100
AcDbCircle
 10
5048.761479276243
 20
2539.191016684934
 30
0.0
 40
0.0025905736925842
100
AcDbArc
 50
0.0
 51
89.99523561579643
  0
LWPOLYLINE
  5
280F
330
1F
100
AcDbEntity
  8
SANINDUSA
100
AcDbPolyline
 90
        3
 70
   128
 43
0.0
 10
5048.750480110118
 20
2539.193609821617
 10
5048.758479768702
 20
2539.193607944071
 10
5048.76147949166
 20
2539.193607258618
  0
LWPOLYLINE
  5
2810
330
1F
100
AcDbEntity
  8
SANINDUSA
100
AcDbPolyline
 90
        3
 70
   128
 43
0.0
 10
5048.764069849917
 20
2539.191016989767
 10
5048.764069969127
 20
2539.183019000113
 10
5048.764070028731
 20
2539.18002049905
  0
ARC
  5
2811
330
1F
100
AcDbEntity
  8
SANINDUSA
100
AcDbCircle
 10
5048.750479142472
 20
2539.191020609991
 30
0.0
 40
0.0025892118070807
100
AcDbArc
 50
89.97858728975264
 51
180.0
  0
LWPOLYLINE
  5
2812
330
1F
100
AcDbEntity
  8
SANINDUSA
100
AcDbPolyline
 90
        3
 70
   128
 43
0.0
 10
5048.747889990279
 20
2539.18002434355
 10
5048.747889930674
 20
2539.188022303402
 10
5048.747889930674
 20
2539.191020834266
  0
ARC
  5
2813
330
1F
100
AcDbEntity
  8
SANINDUSA
100
AcDbCircle
 10
5048.761480733421
 20
2539.180020926103
 30
0.0
 40
0.002589295344731
100
AcDbArc
 50
269.9804359516031
 51
359.9905487454966
  0
LWPOLYLINE
  5
2814
330
1F
100
AcDbEntity
  8
SANINDUSA
100
AcDbPolyline
 90
        3
 70
   128
 43
0.0
 10
5048.761479849288
 20
2539.177431630909
 10
5048.753480131098
 20
2539.177433508455
 10
5048.750480229327
 20
2539.177434193909
  0
ARC
  5
2815
330
1F
100
AcDbEntity
  8
SANINDUSA
100
AcDbCircle
 10
5048.75048038844
 20
2539.180024592076
 30
0.0
 40
0.0025903981722391
100
AcDbArc
 50
180.0
 51
269.9964806849964
  0
ARC
  5
2816
330
1F
100
AcDbEntity
  8
SANINDUSA
100
AcDbCircle
 10
5048.826478811922
 20
2539.191013086303
 30
0.0
 40
0.0025905736925842
100
AcDbArc
 50
0.0
 51
89.99523561579643
  0
LWPOLYLINE
  5
2817
330
1F
100
AcDbEntity
  8
SANINDUSA
100
AcDbPolyline
 90
        3
 70
   128
 43
0.0
 10
5048.815479645798
 20
2539.193606222987
 10
5048.823479304382
 20
2539.19360434544
 10
5048.82647902734
 20
2539.193603659987
  0
LWPOLYLINE
  5
2818
330
1F
100
AcDbEntity
  8
SANINDUSA
100
AcDbPolyline
 90
        3
 70
   128
 43
0.0
 10
5048.829069385597
 20
2539.191013391137
 10
5048.829069504806
 20
2539.183015401482
 10
5048.829069564411
 20
2539.18001690042
  0
ARC
  5
2819
330
1F
100
AcDbEntity
  8
SANINDUSA
100
AcDbCircle
 10
5048.815478678151
 20
2539.19101701136
 30
0.0
 40
0.0025892118070807
100
AcDbArc
 50
89.97858728975264
 51
180.0
  0
LWPOLYLINE
  5
281A
330
1F
100
AcDbEntity
  8
SANINDUSA
100
AcDbPolyline
 90
        3
 70
   128
 43
0.0
 10
5048.812889525959
 20
2539.180020744919
 10
5048.812889466354
 20
2539.188018704772
 10
5048.812889466354
 20
2539.191017235636
  0
ARC
  5
281B
330
1F
100
AcDbEntity
  8
SANINDUSA
100
AcDbCircle
 10
5048.826480269101
 20
2539.180017327473
 30
0.0
 40
0.002589295344731
100
AcDbArc
 50
269.9804359516031
 51
359.9905487454966
  0
LWPOLYLINE
  5
281C
330
1F
100
AcDbEntity
  8
SANINDUSA
100
AcDbPolyline
 90
        3
 70
   128
 43
0.0
 10
5048.826479384968
 20
2539.177428032278
 10
5048.818479666778
 20
2539.177429909825
 10
5048.815479765007
 20
2539.177430595279
  0
ARC
  5
281D
330
1F
100
AcDbEntity
  8
SANINDUSA
100
AcDbCircle
 10
5048.815479924119
 20
2539.180020993446
 30
0.0
 40
0.0025903981722391
100
AcDbArc
 50
180.0
 51
269.9964806849964
  0
ARC
  5
281E
330
1F
100
AcDbEntity
  8
SANINDUSA
100
AcDbCircle
 10
5048.891478675428
 20
2539.191004533037
 30
0.0
 40
0.0025905736925842
100
AcDbArc
 50
0.0
 51
89.99523561579643
  0
LWPOLYLINE
  5
281F
330
1F
100
AcDbEntity
  8
SANINDUSA
100
AcDbPolyline
 90
        3
 70
   128
 43
0.0
 10
5048.880479509303
 20
2539.19359766972
 10
5048.888479167888
 20
2539.193595792174
 10
5048.891478890845
 20
2539.19359510672
  0
LWPOLYLINE
  5
2820
330
1F
100
AcDbEntity
  8
SANINDUSA
100
AcDbPolyline
 90
        3
 70
   128
 43
0.0
 10
5048.894069249103
 20
2539.19100483787
 10
5048.894069368312
 20
2539.183006848216
 10
5048.894069427916
 20
2539.180008347153
  0
ARC
  5
2821
330
1F
100
AcDbEntity
  8
SANINDUSA
100
AcDbCircle
 10
5048.880478541657
 20
2539.191008458093
 30
0.0
 40
0.0025892118070807
100
AcDbArc
 50
89.97858728975264
 51
180.0
  0
LWPOLYLINE
  5
2822
330
1F
100
AcDbEntity
  8
SANINDUSA
100
AcDbPolyline
 90
        3
 70
   128
 43
0.0
 10
5048.877889389464
 20
2539.180012191653
 10
5048.877889329859
 20
2539.188010151505
 10
5048.877889329859
 20
2539.19100868237
  0
ARC
  5
2823
330
1F
100
AcDbEntity
  8
SANINDUSA
100
AcDbCircle
 10
5048.891480132606
 20
2539.180008774206
 30
0.0
 40
0.002589295344731
100
AcDbArc
 50
269.9804359516031
 51
359.9905487454966
  0
LWPOLYLINE
  5
2824
330
1F
100
AcDbEntity
  8
SANINDUSA
100
AcDbPolyline
 90
        3
 70
   128
 43
0.0
 10
5048.891479248473
 20
2539.177419479012
 10
5048.883479530283
 20
2539.177421356558
 10
5048.880479628512
 20
2539.177422042012
  0
ARC
  5
2825
330
1F
100
AcDbEntity
  8
SANINDUSA
100
AcDbCircle
 10
5048.880479787625
 20
2539.180012440179
 30
0.0
 40
0.0025903981722391
100
AcDbArc
 50
180.0
 51
269.9964806849964
  0
ARC
  5
2826
330
1F
100
AcDbEntity
  8
SANINDUSA
100
AcDbCircle
 10
5048.956479090276
 20
2539.190995182558
 30
0.0
 40
0.0025905736925842
100
AcDbArc
 50
0.0
 51
89.99523561579643
  0
LWPOLYLINE
  5
2827
330
1F
100
AcDbEntity
  8
SANINDUSA
100
AcDbPolyline
 90
        3
 70
   128
 43
0.0
 10
5048.945479924151
 20
2539.193588319241
 10
5048.953479582736
 20
2539.193586441695
 10
5048.956479305694
 20
2539.193585756242
  0
LWPOLYLINE
  5
2828
330
1F
100
AcDbEntity
  8
SANINDUSA
100
AcDbPolyline
 90
        3
 70
   128
 43
0.0
 10
5048.959069663951
 20
2539.190995487392
 10
5048.95906978316
 20
2539.182997497737
 10
5048.959069842765
 20
2539.179998996675
  0
ARC
  5
2829
330
1F
100
AcDbEntity
  8
SANINDUSA
100
AcDbCircle
 10
5048.945478956505
 20
2539.190999107615
 30
0.0
 40
0.0025892118070807
100
AcDbArc
 50
89.97858728975264
 51
180.0
  0
LWPOLYLINE
  5
282A
330
1F
100
AcDbEntity
  8
SANINDUSA
100
AcDbPolyline
 90
        3
 70
   128
 43
0.0
 10
5048.942889804312
 20
2539.180002841174
 10
5048.942889744708
 20
2539.188000801026
 10
5048.942889744708
 20
2539.190999331891
  0
ARC
  5
282B
330
1F
100
AcDbEntity
  8
SANINDUSA
100
AcDbCircle
 10
5048.956480547455
 20
2539.179999423727
 30
0.0
 40
0.002589295344731
100
AcDbArc
 50
269.9804359516031
 51
359.9905487454966
  0
LWPOLYLINE
  5
282C
330
1F
100
AcDbEntity
  8
SANINDUSA
100
AcDbPolyline
 90
        3
 70
   128
 43
0.0
 10
5048.956479663321
 20
2539.177410128533
 10
5048.948479945131
 20
2539.177412006079
 10
5048.945480043361
 20
2539.177412691533
  0
ARC
  5
282D
330
1F
100
AcDbEntity
  8
SANINDUSA
100
AcDbCircle
 10
5048.945480202473
 20
2539.1800030897
 30
0.0
 40
0.0025903981722391
100
AcDbArc
 50
180.0
 51
269.9964806849964
  0
ARC
  5
282E
330
1F
100
AcDbEntity
  8
SANINDUSA
100
AcDbCircle
 10
5048.956478792252
 20
2539.255983959599
 30
0.0
 40
0.0025905736925842
100
AcDbArc
 50
0.0
 51
89.99523561579643
  0
LWPOLYLINE
  5
282F
330
1F
100
AcDbEntity
  8
SANINDUSA
100
AcDbPolyline
 90
        3
 70
   128
 43
0.0
 10
5048.945479626127
 20
2539.258577096283
 10
5048.953479284712
 20
2539.258575218737
 10
5048.956479007671
 20
2539.258574533283
  0
LWPOLYLINE
  5
2830
330
1F
100
AcDbEntity
  8
SANINDUSA
100
AcDbPolyline
 90
        3
 70
   128
 43
0.0
 10
5048.959069365928
 20
2539.255984264433
 10
5048.959069485136
 20
2539.247986274779
 10
5048.959069544742
 20
2539.244987773716
  0
ARC
  5
2831
330
1F
100
AcDbEntity
  8
SANINDUSA
100
AcDbCircle
 10
5048.945478658482
 20
2539.255987884657
 30
0.0
 40
0.0025892118070807
100
AcDbArc
 50
89.97858728975264
 51
180.0
  0
LWPOLYLINE
  5
2832
330
1F
100
AcDbEntity
  8
SANINDUSA
100
AcDbPolyline
 90
        3
 70
   128
 43
0.0
 10
5048.942889506289
 20
2539.244991618216
 10
5048.942889446685
 20
2539.252989578068
 10
5048.942889446685
 20
2539.255988108932
  0
ARC
  5
2833
330
1F
100
AcDbEntity
  8
SANINDUSA
100
AcDbCircle
 10
5048.956480249431
 20
2539.244988200769
 30
0.0
 40
0.002589295344731
100
AcDbArc
 50
269.9804359516031
 51
359.9905487454966
  0
LWPOLYLINE
  5
2834
330
1F
100
AcDbEntity
  8
SANINDUSA
100
AcDbPolyline
 90
        3
 70
   128
 43
0.0
 10
5048.956479365298
 20
2539.242398905575
 10
5048.948479647108
 20
2539.242400783121
 10
5048.945479745338
 20
2539.242401468575
  0
ARC
  5
2835
330
1F
100
AcDbEntity
  8
SANINDUSA
100
AcDbCircle
 10
5048.94547990445
 20
2539.244991866742
 30
0.0
 40
0.0025903981722391
100
AcDbArc
 50
180.0
 51
269.9964806849964
  0
ARC
  5
2836
330
1F
100
AcDbEntity
  8
SANINDUSA
100
AcDbCircle
 10
5048.891478749933
 20
2539.25598986791
 30
0.0
 40
0.0025905736925842
100
AcDbArc
 50
0.0
 51
89.99523561579643
  0
LWPOLYLINE
  5
2837
330
1F
100
AcDbEntity
  8
SANINDUSA
100
AcDbPolyline
 90
        3
 70
   128
 43
0.0
 10
5048.880479583808
 20
2539.258583004593
 10
5048.888479242393
 20
2539.258581127047
 10
5048.891478965351
 20
2539.258580441594
  0
LWPOLYLINE
  5
2838
330
1F
100
AcDbEntity
  8
SANINDUSA
100
AcDbPolyline
 90
        3
 70
   128
 43
0.0
 10
5048.894069323608
 20
2539.255990172743
 10
5048.894069442817
 20
2539.247992183089
 10
5048.894069502422
 20
2539.244993682026
  0
ARC
  5
2839
330
1F
100
AcDbEntity
  8
SANINDUSA
100
AcDbCircle
 10
5048.880478616163
 20
2539.255993792967
 30
0.0
 40
0.0025892118070807
100
AcDbArc
 50
89.97858728975264
 51
180.0
  0
LWPOLYLINE
  5
283A
330
1F
100
AcDbEntity
  8
SANINDUSA
100
AcDbPolyline
 90
        3
 70
   128
 43
0.0
 10
5048.87788946397
 20
2539.244997526526
 10
5048.877889404366
 20
2539.252995486378
 10
5048.877889404366
 20
2539.255994017243
  0
ARC
  5
283B
330
1F
100
AcDbEntity
  8
SANINDUSA
100
AcDbCircle
 10
5048.891480207112
 20
2539.24499410908
 30
0.0
 40
0.002589295344731
100
AcDbArc
 50
269.9804359516031
 51
359.9905487454966
  0
LWPOLYLINE
  5
283C
330
1F
100
AcDbEntity
  8
SANINDUSA
100
AcDbPolyline
 90
        3
 70
   128
 43
0.0
 10
5048.891479322978
 20
2539.242404813885
 10
5048.883479604789
 20
2539.242406691432
 10
5048.880479703019
 20
2539.242407376885
  0
ARC
  5
283D
330
1F
100
AcDbEntity
  8
SANINDUSA
100
AcDbCircle
 10
5048.88047986213
 20
2539.244997775052
 30
0.0
 40
0.0025903981722391
100
AcDbArc
 50
180.0
 51
269.9964806849964
  0
ARC
  5
283E
330
1F
100
AcDbEntity
  8
SANINDUSA
100
AcDbCircle
 10
5048.826478901329
 20
2539.255994979008
 30
0.0
 40
0.0025905736925842
100
AcDbArc
 50
0.0
 51
89.99523561579643
  0
LWPOLYLINE
  5
283F
330
1F
100
AcDbEntity
  8
SANINDUSA
100
AcDbPolyline
 90
        3
 70
   128
 43
0.0
 10
5048.815479735204
 20
2539.258588115691
 10
5048.823479393789
 20
2539.258586238145
 10
5048.826479116747
 20
2539.258585552692
  0
LWPOLYLINE
  5
2840
330
1F
100
AcDbEntity
  8
SANINDUSA
100
AcDbPolyline
 90
        3
 70
   128
 43
0.0
 10
5048.829069475004
 20
2539.255995283842
 10
5048.829069594213
 20
2539.247997294187
 10
5048.829069653818
 20
2539.244998793125
  0
ARC
  5
2841
330
1F
100
AcDbEntity
  8
SANINDUSA
100
AcDbCircle
 10
5048.815478767558
 20
2539.255998904065
 30
0.0
 40
0.0025892118070807
100
AcDbArc
 50
89.97858728975264
 51
180.0
  0
LWPOLYLINE
  5
2842
330
1F
100
AcDbEntity
  8
SANINDUSA
100
AcDbPolyline
 90
        3
 70
   128
 43
0.0
 10
5048.812889615366
 20
2539.245002637624
 10
5048.812889555762
 20
2539.253000597476
 10
5048.812889555762
 20
2539.255999128341
  0
ARC
  5
2843
330
1F
100
AcDbEntity
  8
SANINDUSA
100
AcDbCircle
 10
5048.826480358508
 20
2539.244999220177
 30
0.0
 40
0.002589295344731
100
AcDbArc
 50
269.9804359516031
 51
359.9905487454966
  0
LWPOLYLINE
  5
2844
330
1F
100
AcDbEntity
  8
SANINDUSA
100
AcDbPolyline
 90
        3
 70
   128
 43
0.0
 10
5048.826479474374
 20
2539.242409924983
 10
5048.818479756185
 20
2539.24241180253
 10
5048.815479854414
 20
2539.242412487983
  0
ARC
  5
2845
330
1F
100
AcDbEntity
  8
SANINDUSA
100
AcDbCircle
 10
5048.815480013526
 20
2539.245002886151
 30
0.0
 40
0.0025903981722391
100
AcDbArc
 50
180.0
 51
269.9964806849964
  0
ARC
  5
2846
330
1F
100
AcDbEntity
  8
SANINDUSA
100
AcDbCircle
 10
5048.761479276243
 20
2539.25599705772
 30
0.0
 40
0.0025905736925842
100
AcDbArc
 50
0.0
 51
89.99523561579643
  0
LWPOLYLINE
  5
2847
330
1F
100
AcDbEntity
  8
SANINDUSA
100
AcDbPolyline
 90
        3
 70
   128
 43
0.0
 10
5048.750480110118
 20
2539.258590194404
 10
5048.758479768702
 20
2539.258588316857
 10
5048.76147949166
 20
2539.258587631404
  0
LWPOLYLINE
  5
2848
330
1F
100
AcDbEntity
  8
SANINDUSA
100
AcDbPolyline
 90
        3
 70
   128
 43
0.0
 10
5048.764069849917
 20
2539.255997362554
 10
5048.764069969127
 20
2539.247999372899
 10
5048.764070028731
 20
2539.245000871837
  0
ARC
  5
2849
330
1F
100
AcDbEntity
  8
SANINDUSA
100
AcDbCircle
 10
5048.750479142472
 20
2539.256000982777
 30
0.0
 40
0.0025892118070807
100
AcDbArc
 50
89.97858728975264
 51
180.0
  0
LWPOLYLINE
  5
284A
330
1F
100
AcDbEntity
  8
SANINDUSA
100
AcDbPolyline
 90
        3
 70
   128
 43
0.0
 10
5048.747889990279
 20
2539.245004716336
 10
5048.747889930674
 20
2539.253002676189
 10
5048.747889930674
 20
2539.256001207053
  0
ARC
  5
284B
330
1F
100
AcDbEntity
  8
SANINDUSA
100
AcDbCircle
 10
5048.761480733421
 20
2539.245001298889
 30
0.0
 40
0.002589295344731
100
AcDbArc
 50
269.9804359516031
 51
359.9905487454966
  0
LWPOLYLINE
  5
284C
330
1F
100
AcDbEntity
  8
SANINDUSA
100
AcDbPolyline
 90
        3
 70
   128
 43
0.0
 10
5048.761479849288
 20
2539.242412003695
 10
5048.753480131098
 20
2539.242413881242
 10
5048.750480229327
 20
2539.242414566695
  0
ARC
  5
284D
330
1F
100
AcDbEntity
  8
SANINDUSA
100
AcDbCircle
 10
5048.75048038844
 20
2539.245004964862
 30
0.0
 40
0.0025903981722391
100
AcDbArc
 50
180.0
 51
269.9964806849964
  0
ARC
  5
284E
330
1F
100
AcDbEntity
  8
SANINDUSA
100
AcDbCircle
 10
5048.696479651155
 20
2539.25599500881
 30
0.0
 40
0.0025905736925842
100
AcDbArc
 50
0.0
 51
89.99523561579643
  0
LWPOLYLINE
  5
284F
330
1F
100
AcDbEntity
  8
SANINDUSA
100
AcDbPolyline
 90
        3
 70
   128
 43
0.0
 10
5048.685480485031
 20
2539.258588145494
 10
5048.693480143615
 20
2539.258586267948
 10
5048.696479866573
 20
2539.258585582494
  0
LWPOLYLINE
  5
2850
330
1F
100
AcDbEntity
  8
SANINDUSA
100
AcDbPolyline
 90
        3
 70
   128
 43
0.0
 10
5048.699070224831
 20
2539.255995313644
 10
5048.699070344039
 20
2539.24799732399
 10
5048.699070403644
 20
2539.244998822927
  0
ARC
  5
2851
330
1F
100
AcDbEntity
  8
SANINDUSA
100
AcDbCircle
 10
5048.685479517384
 20
2539.255998933868
 30
0.0
 40
0.0025892118070807
100
AcDbArc
 50
89.97858728975264
 51
180.0
  0
LWPOLYLINE
  5
2852
330
1F
100
AcDbEntity
  8
SANINDUSA
100
AcDbPolyline
 90
        3
 70
   128
 43
0.0
 10
5048.682890365192
 20
2539.245002667426
 10
5048.682890305588
 20
2539.253000627279
 10
5048.682890305588
 20
2539.255999158144
  0
ARC
  5
2853
330
1F
100
AcDbEntity
  8
SANINDUSA
100
AcDbCircle
 10
5048.696481108335
 20
2539.24499924998
 30
0.0
 40
0.002589295344731
100
AcDbArc
 50
269.9804359516031
 51
359.9905487454966
  0
LWPOLYLINE
  5
2854
330
1F
100
AcDbEntity
  8
SANINDUSA
100
AcDbPolyline
 90
        3
 70
   128
 43
0.0
 10
5048.696480224201
 20
2539.242409954786
 10
5048.688480506012
 20
2539.242411832332
 10
5048.68548060424
 20
2539.242412517785
  0
ARC
  5
2855
330
1F
100
AcDbEntity
  8
SANINDUSA
100
AcDbCircle
 10
5048.685480763353
 20
2539.245002915953
 30
0.0
 40
0.0025903981722391
100
AcDbArc
 50
180.0
 51
269.9964806849964
  0
ARC
  5
2856
330
1F
100
AcDbEntity
  8
SANINDUSA
100
AcDbCircle
 10
5048.631479817452
 20
2539.255989912613
 30
0.0
 40
0.0025905736925842
100
AcDbArc
 50
0.0
 51
89.99523561579643
  0
LWPOLYLINE
  5
2857
330
1F
100
AcDbEntity
  8
SANINDUSA
100
AcDbPolyline
 90
        3
 70
   128
 43
0.0
 10
5048.620480651328
 20
2539.258583049297
 10
5048.628480309912
 20
2539.258581171751
 10
5048.63148003287
 20
2539.258580486297
  0
LWPOLYLINE
  5
2858
330
1F
100
AcDbEntity
  8
SANINDUSA
100
AcDbPolyline
 90
        3
 70
   128
 43
0.0
 10
5048.634070391127
 20
2539.255990217447
 10
5048.634070510336
 20
2539.247992227792
 10
5048.634070569941
 20
2539.24499372673
  0
ARC
  5
2859
330
1F
100
AcDbEntity
  8
SANINDUSA
100
AcDbCircle
 10
5048.620479683682
 20
2539.255993837671
 30
0.0
 40
0.0025892118070807
100
AcDbArc
 50
89.97858728975264
 51
180.0
  0
LWPOLYLINE
  5
285A
330
1F
100
AcDbEntity
  8
SANINDUSA
100
AcDbPolyline
 90
        3
 70
   128
 43
0.0
 10
5048.617890531489
 20
2539.244997571229
 10
5048.617890471884
 20
2539.252995531082
 10
5048.617890471884
 20
2539.255994061946
  0
ARC
  5
285B
330
1F
100
AcDbEntity
  8
SANINDUSA
100
AcDbCircle
 10
5048.631481274632
 20
2539.244994153783
 30
0.0
 40
0.002589295344731
100
AcDbArc
 50
269.9804359516031
 51
359.9905487454966
  0
LWPOLYLINE
  5
285C
330
1F
100
AcDbEntity
  8
SANINDUSA
100
AcDbPolyline
 90
        3
 70
   128
 43
0.0
 10
5048.631480390498
 20
2539.242404858589
 10
5048.623480672309
 20
2539.242406736135
 10
5048.620480770537
 20
2539.242407421588
  0
ARC
  5
285D
330
1F
100
AcDbEntity
  8
SANINDUSA
100
AcDbCircle
 10
5048.620480929649
 20
2539.244997819756
 30
0.0
 40
0.0025903981722391
100
AcDbArc
 50
180.0
 51
269.9964806849964
  0
ARC
  5
285E
330
1F
100
AcDbEntity
  8
SANINDUSA
100
AcDbCircle
 10
5048.566479767682
 20
2539.255983996853
 30
0.0
 40
0.0025905736925842
100
AcDbArc
 50
0.0
 51
89.99523561579643
  0
LWPOLYLINE
  5
285F
330
1F
100
AcDbEntity
  8
SANINDUSA
100
AcDbPolyline
 90
        3
 70
   128
 43
0.0
 10
5048.555480601558
 20
2539.258577133536
 10
5048.563480260142
 20
2539.25857525599
 10
5048.5664799831
 20
2539.258574570536
  0
LWPOLYLINE
  5
2860
330
1F
100
AcDbEntity
  8
SANINDUSA
100
AcDbPolyline
 90
        3
 70
   128
 43
0.0
 10
5048.569070341358
 20
2539.255984301686
 10
5048.569070460566
 20
2539.247986312031
 10
5048.569070520171
 20
2539.244987810969
  0
ARC
  5
2861
330
1F
100
AcDbEntity
  8
SANINDUSA
100
AcDbCircle
 10
5048.555479633912
 20
2539.255987921909
 30
0.0
 40
0.0025892118070807
100
AcDbArc
 50
89.97858728975264
 51
180.0
  0
LWPOLYLINE
  5
2862
330
1F
100
AcDbEntity
  8
SANINDUSA
100
AcDbPolyline
 90
        3
 70
   128
 43
0.0
 10
5048.552890481719
 20
2539.244991655468
 10
5048.552890422115
 20
2539.252989615321
 10
5048.552890422115
 20
2539.255988146186
  0
ARC
  5
2863
330
1F
100
AcDbEntity
  8
SANINDUSA
100
AcDbCircle
 10
5048.566481224861
 20
2539.244988238022
 30
0.0
 40
0.002589295344731
100
AcDbArc
 50
269.9804359516031
 51
359.9905487454966
  0
LWPOLYLINE
  5
2864
330
1F
100
AcDbEntity
  8
SANINDUSA
100
AcDbPolyline
 90
        3
 70
   128
 43
0.0
 10
5048.566480340728
 20
2539.242398942828
 10
5048.558480622538
 20
2539.242400820374
 10
5048.555480720768
 20
2539.242401505827
  0
ARC
  5
2865
330
1F
100
AcDbEntity
  8
SANINDUSA
100
AcDbCircle
 10
5048.55548087988
 20
2539.244991903995
 30
0.0
 40
0.0025903981722391
100
AcDbArc
 50
180.0
 51
269.9964806849964
  0
ENDSEC
  0
SECTION
  2
OBJECTS
  0
DICTIONARY
  5
C
330
0
100
AcDbDictionary
281
     1
  3
ACAD_COLOR
350
EE6
  3
ACAD_GROUP
350
D
  3
ACAD_LAYOUT
350
1A
  3
ACAD_MATERIAL
350
EE5
  3
ACAD_MLINESTYLE
350
17
  3
ACAD_PLOTSETTINGS
350
19
  3
ACAD_PLOTSTYLENAME
350
E
  3
ACAD_TABLESTYLE
350
EE7
  3
ACDBHEADERROUNDTRIPXREC
350
288E
  3
AcDbVariableDictionary
350
3D
  3
ASE_INDEX_DICTIONARY
350
E77
  0
DICTIONARY
  5
1051
330
2
100
AcDbDictionary
280
     1
281
     1
  3
ACAD_LAYERFILTERS
360
1057
  3
ACLYDICTIONARY
360
1056
  0
DICTIONARY
  5
EE6
102
{ACAD_REACTORS
330
C
102
}
330
C
100
AcDbDictionary
281
     1
  0
DICTIONARY
  5
D
102
{ACAD_REACTORS
330
C
102
}
330
C
100
AcDbDictionary
281
     1
  0
DICTIONARY
  5
1A
102
{ACAD_REACTORS
330
C
102
}
330
C
100
AcDbDictionary
281
     1
  3
Layout1
350
1E
  3
Layout2
350
26
  3
Model
350
22
  0
DICTIONARY
  5
EE5
102
{ACAD_REACTORS
330
C
102
}
330
C
100
AcDbDictionary
281
     1
  0
DICTIONARY
  5
17
102
{ACAD_REACTORS
330
C
102
}
330
C
100
AcDbDictionary
281
     1
  3
Standard
350
18
  0
DICTIONARY
  5
19
102
{ACAD_REACTORS
330
C
102
}
330
C
100
AcDbDictionary
281
     1
  0
ACDBDICTIONARYWDFLT
  5
E
102
{ACAD_REACTORS
330
C
102
}
330
C
100
AcDbDictionary
281
     1
  3
Normal
350
F
100
AcDbDictionaryWithDefault
340
F
  0
DICTIONARY
  5
EE7
102
{ACAD_REACTORS
330
C
102
}
330
C
100
AcDbDictionary
281
     1
  3
Standard
350
EE8
  0
DICTIONARY
  5
288E
102
{ACAD_REACTORS
330
C
102
}
330
C
100
AcDbDictionary
281
     1
  0
DICTIONARY
  5
3D
102
{ACAD_REACTORS
330
C
102
}
330
C
100
AcDbDictionary
281
     1
  3
CTABLESTYLE
350
1049
  3
DIMASSOC
350
3F
  3
HIDETEXT
350
3E
  3
PROJECTNAME
350
2886
  0
DICTIONARY
  5
E77
102
{ACAD_REACTORS
330
C
102
}
330
C
100
AcDbDictionary
281
     1
  3
ASEBlockHierarchyIndexRecord
350
E78
1001
DCO15
1040
1552647238.734
  0
DICTIONARY
  5
1057
102
{ACAD_REACTORS
330
1051
102
}
330
1051
100
AcDbDictionary
281
     1
  0
DICTIONARY
  5
1056
102
{ACAD_REACTORS
330
1051
102
}
330
1051
100
AcDbDictionary
281
     1
1001
ACAD
1000
<All
  0
LAYOUT
  5
1E
102
{ACAD_XDICTIONARY
360
288F
102
}
102
{ACAD_REACTORS
330
1A
102
}
330
1A
100
AcDbPlotSettings
  1

  2
Ploter HP500
  4

  6

 40
0.0
 41
0.0
 42
0.0
 43
0.0
 44
0.0
 45
0.0
 46
0.0
 47
0.0
 48
0.0
 49
0.0
140
0.0
141
0.0
142
1.0
143
1.0
 70
   688
 72
     0
 73
     0
 74
     5
  7
sanindusa.ctb
 75
    16
147
1.0
148
0.0
149
0.0
100
AcDbLayout
  1
Layout1
 70
     1
 71
     1
 10
0.0
 20
0.0
 11
420.0
 21
297.0
 12
0.0
 22
0.0
 32
0.0
 14
1.000000000000000E+20
 24
1.000000000000000E+20
 34
1.000000000000000E+20
 15
-1.000000000000000E+20
 25
-1.000000000000000E+20
 35
-1.000000000000000E+20
146
0.0
 13
0.0
 23
0.0
 33
0.0
 16
1.0
 26
0.0
 36
0.0
 17
0.0
 27
1.0
 37
0.0
 76
     0
330
1B
  0
LAYOUT
  5
26
102
{ACAD_XDICTIONARY
360
2893
102
}
102
{ACAD_REACTORS
330
1A
102
}
330
1A
100
AcDbPlotSettings
  1

  2
Ploter HP500
  4

  6

 40
0.0
 41
0.0
 42
0.0
 43
0.0
 44
0.0
 45
0.0
 46
0.0
 47
0.0
 48
0.0
 49
0.0
140
0.0
141
0.0
142
1.0
143
1.0
 70
   688
 72
     0
 73
     0
 74
     5
  7
sanindusa.ctb
 75
    16
147
1.0
148
0.0
149
0.0
100
AcDbLayout
  1
Layout2
 70
     1
 71
     2
 10
0.0
 20
0.0
 11
12.0
 21
9.0
 12
0.0
 22
0.0
 32
0.0
 14
0.0
 24
0.0
 34
0.0
 15
0.0
 25
0.0
 35
0.0
146
0.0
 13
0.0
 23
0.0
 33
0.0
 16
1.0
 26
0.0
 36
0.0
 17
0.0
 27
1.0
 37
0.0
 76
     0
330
23
  0
LAYOUT
  5
22
102
{ACAD_XDICTIONARY
360
2891
102
}
102
{ACAD_REACTORS
330
1A
102
}
330
1A
100
AcDbPlotSettings
  1

  2
Ploter HP500
  4
User268
  6

 40
4.995333194732666
 41
16.97565841674804
 42
4.995330810546875
 43
16.97567749023437
 44
209.9733276367187
 45
296.9259948730469
 46
0.0
 47
0.0
 48
0.0
 49
0.0
140
0.0
141
0.0
142
1.0
143
1.0
 70
 11952
 72
     1
 73
     1
 74
     0
  7
sanindusa.ctb
 75
     0
147
1.0
148
-427.5957866592534
149
7.362384574453926
100
AcDbLayout
  1
Model
 70
     1
 71
     0
 10
0.0
 20
0.0
 11
12.0
 21
9.0
 12
0.0
 22
0.0
 32
0.0
 14
0.0
 24
0.0
 34
0.0
 15
0.0
 25
0.0
 35
0.0
146
0.0
 13
0.0
 23
0.0
 33
0.0
 16
1.0
 26
0.0
 36
0.0
 17
0.0
 27
1.0
 37
0.0
 76
     0
330
1F
  0
MLINESTYLE
  5
18
102
{ACAD_REACTORS
330
17
102
}
330
17
100
AcDbMlineStyle
  2
STANDARD
 70
     0
  3

 62
   256
 51
90.0
 52
90.0
 71
     2
 49
0.5
 62
   256
  6
BYLAYER
 49
-0.5
 62
   256
  6
BYLAYER
  0
ACDBPLACEHOLDER
  5
F
102
{ACAD_REACTORS
330
E
102
}
330
E
  0
TABLESTYLE
  5
EE8
102
{ACAD_REACTORS
330
EE7
102
}
330
EE7
100
AcDbTableStyle
  3
Standard
 70
     0
 71
     0
 40
1.5
 41
1.5
280
     0
281
     0
  7
Standard
140
4.5
170
     2
 62
     0
 63
     7
283
     0
274
    -2
284
     1
 64
     0
275
    -2
285
     1
 65
     0
276
    -2
286
     1
 66
     0
277
    -2
287
     1
 67
     0
278
    -2
288
     1
 68
     0
279
    -2
289
     1
 69
     0
  7
Standard
140
6.0
170
     5
 62
     0
 63
     7
283
     0
274
    -2
284
     1
 64
     0
275
    -2
285
     1
 65
     0
276
    -2
286
     1
 66
     0
277
    -2
287
     1
 67
     0
278
    -2
288
     1
 68
     0
279
    -2
289
     1
 69
     0
  7
Standard
140
4.5
170
     5
 62
     0
 63
     7
283
     0
274
    -2
284
     1
 64
     0
275
    -2
285
     1
 65
     0
276
    -2
286
     1
 66
     0
277
    -2
287
     1
 67
     0
278
    -2
288
     1
 68
     0
279
    -2
289
     1
 69
     0
  0
DICTIONARYVAR
  5
1049
102
{ACAD_REACTORS
330
3D
102
}
330
3D
100
DictionaryVariables
280
     0
  1
STANDARD
  0
DICTIONARYVAR
  5
3F
102
{ACAD_REACTORS
330
3D
102
}
330
3D
100
DictionaryVariables
280
     0
  1
2
  0
DICTIONARYVAR
  5
3E
102
{ACAD_REACTORS
330
3D
102
}
330
3D
100
DictionaryVariables
280
     0
  1
1
  0
DICTIONARYVAR
  5
2886
102
{ACAD_REACTORS
330
3D
102
}
330
3D
100
DictionaryVariables
280
     0
  1

  0
XRECORD
  5
E78
102
{ACAD_REACTORS
330
E77
102
}
330
E77
100
AcDbXrecord
280
     1
330
0
330
0
  0
DICTIONARY
  5
288F
330
1E
100
AcDbDictionary
280
     1
281
     1
  3
ACAD_XREC_ROUNDTRIP
360
2890
  0
DICTIONARY
  5
2893
330
26
100
AcDbDictionary
280
     1
281
     1
  3
ACAD_XREC_ROUNDTRIP
360
2894
  0
DICTIONARY
  5
2891
330
22
100
AcDbDictionary
280
     1
281
     1
  3
ACAD_XREC_ROUNDTRIP
360
2892
  0
XRECORD
  5
2890
102
{ACAD_REACTORS
330
288F
102
}
330
288F
100
AcDbXrecord
280
     1
102
SHADEPLOT
 70
     0
102
SHADEPLOTRESLEVEL
 70
     2
102
SHADEPLOTCUSTOMDPI
 70
   300
  0
XRECORD
  5
2894
102
{ACAD_REACTORS
330
2893
102
}
330
2893
100
AcDbXrecord
280
     1
102
SHADEPLOT
 70
     0
102
SHADEPLOTRESLEVEL
 70
     2
102
SHADEPLOTCUSTOMDPI
 70
   300
  0
XRECORD
  5
2892
102
{ACAD_REACTORS
330
2891
102
}
330
2891
100
AcDbXrecord
280
     1
102
SHADEPLOT
 70
     0
102
SHADEPLOTRESLEVEL
 70
     2
102
SHADEPLOTCUSTOMDPI
 70
   300
  0
ENDSEC
  0
EOF
