  0
SECTION
  2
HEADER
  9
$ACADVER
  1
AC1015
  9
$ACADMAINTVER
 70
    20
  9
$DWGCODEPAGE
  3
ANSI_1252
  9
$INSBASE
 10
0.0
 20
0.0
 30
0.0
  9
$EXTMIN
 10
5061.251279134713
 20
2542.483688814029
 30
0.0
  9
$EXTMAX
 10
5064.726641151897
 20
2543.18399753202
 30
0.0
  9
$LIMMIN
 10
0.0
 20
0.0
  9
$LIMMAX
 10
420.0
 20
297.0
  9
$ORTHOMODE
 70
     1
  9
$REGENMODE
 70
     1
  9
$FILLMODE
 70
     1
  9
$QTEXTMODE
 70
     0
  9
$MIRRTEXT
 70
     1
  9
$LTSCALE
 40
1.0
  9
$ATTMODE
 70
     1
  9
$TEXTSIZE
 40
2.5
  9
$TRACEWID
 40
1.0
  9
$TEXTSTYLE
  7
SANINDUSA
  9
$CLAYER
  8
0
  9
$CELTYPE
  6
ByLayer
  9
$CECOLOR
 62
   256
  9
$CELTSCALE
 40
1.0
  9
$DISPSILH
 70
     0
  9
$DIMSCALE
 40
1.0
  9
$DIMASZ
 40
2.0
  9
$DIMEXO
 40
1.0
  9
$DIMDLI
 40
1.0
  9
$DIMRND
 40
0.0
  9
$DIMDLE
 40
0.0
  9
$DIMEXE
 40
1.0
  9
$DIMTP
 40
0.0
  9
$DIMTM
 40
0.0
  9
$DIMTXT
 40
2.0
  9
$DIMCEN
 40
0.0
  9
$DIMTSZ
 40
0.0
  9
$DIMTOL
 70
     0
  9
$DIMLIM
 70
     0
  9
$DIMTIH
 70
     0
  9
$DIMTOH
 70
     0
  9
$DIMSE1
 70
     0
  9
$DIMSE2
 70
     0
  9
$DIMTAD
 70
     1
  9
$DIMZIN
 70
     8
  9
$DIMBLK
  1

  9
$DIMASO
 70
     1
  9
$DIMSHO
 70
     1
  9
$DIMPOST
  1

  9
$DIMAPOST
  1

  9
$DIMALT
 70
     0
  9
$DIMALTD
 70
     3
  9
$DIMALTF
 40
0.03937007874016
  9
$DIMLFAC
 40
1.0
  9
$DIMTOFL
 70
     1
  9
$DIMTVP
 40
0.0
  9
$DIMTIX
 70
     0
  9
$DIMSOXD
 70
     0
  9
$DIMSAH
 70
     0
  9
$DIMBLK1
  1

  9
$DIMBLK2
  1

  9
$DIMSTYLE
  2
SANINDUSA
  9
$DIMCLRD
 70
   256
  9
$DIMCLRE
 70
   256
  9
$DIMCLRT
 70
   256
  9
$DIMTFAC
 40
1.0
  9
$DIMGAP
 40
1.0
  9
$DIMJUST
 70
     0
  9
$DIMSD1
 70
     0
  9
$DIMSD2
 70
     0
  9
$DIMTOLJ
 70
     0
  9
$DIMTZIN
 70
     8
  9
$DIMALTZ
 70
     0
  9
$DIMALTTZ
 70
     0
  9
$DIMUPT
 70
     0
  9
$DIMDEC
 70
     1
  9
$DIMTDEC
 70
     1
  9
$DIMALTU
 70
     2
  9
$DIMALTTD
 70
     3
  9
$DIMTXSTY
  7
SANINDUSA
  9
$DIMAUNIT
 70
     0
  9
$DIMADEC
 70
     1
  9
$DIMALTRND
 40
0.0
  9
$DIMAZIN
 70
     0
  9
$DIMDSEP
 70
    44
  9
$DIMATFIT
 70
     3
  9
$DIMFRAC
 70
     0
  9
$DIMLDRBLK
  1

  9
$DIMLUNIT
 70
     2
  9
$DIMLWD
 70
    -1
  9
$DIMLWE
 70
    -1
  9
$DIMTMOVE
 70
     0
  9
$LUNITS
 70
     2
  9
$LUPREC
 70
     4
  9
$SKETCHINC
 40
1.0
  9
$FILLETRAD
 40
3.0
  9
$AUNITS
 70
     0
  9
$AUPREC
 70
     0
  9
$MENU
  1
.
  9
$ELEVATION
 40
0.0
  9
$PELEVATION
 40
0.0
  9
$THICKNESS
 40
0.0
  9
$LIMCHECK
 70
     0
  9
$CHAMFERA
 40
10.0
  9
$CHAMFERB
 40
10.0
  9
$CHAMFERC
 40
20.0
  9
$CHAMFERD
 40
0.0
  9
$SKPOLY
 70
     0
  9
$TDCREATE
 40
2454314.648311088
  9
$TDUCREATE
 40
2454314.648311088
  9
$TDUPDATE
 40
2454478.650857928
  9
$TDUUPDATE
 40
2454478.650857928
  9
$TDINDWG
 40
0.0055812384
  9
$TDUSRTIMER
 40
0.0055812384
  9
$USRTIMER
 70
     1
  9
$ANGBASE
 50
0.0
  9
$ANGDIR
 70
     0
  9
$PDMODE
 70
     0
  9
$PDSIZE
 40
0.0
  9
$PLINEWID
 40
0.0
  9
$SPLFRAME
 70
     0
  9
$SPLINETYPE
 70
     6
  9
$SPLINESEGS
 70
     8
  9
$HANDSEED
  5
28F0
  9
$SURFTAB1
 70
     6
  9
$SURFTAB2
 70
     6
  9
$SURFTYPE
 70
     6
  9
$SURFU
 70
     6
  9
$SURFV
 70
     6
  9
$UCSBASE
  2

  9
$UCSNAME
  2

  9
$UCSORG
 10
0.0
 20
0.0
 30
0.0
  9
$UCSXDIR
 10
1.0
 20
0.0
 30
0.0
  9
$UCSYDIR
 10
0.0
 20
1.0
 30
0.0
  9
$UCSORTHOREF
  2

  9
$UCSORTHOVIEW
 70
     0
  9
$UCSORGTOP
 10
0.0
 20
0.0
 30
0.0
  9
$UCSORGBOTTOM
 10
0.0
 20
0.0
 30
0.0
  9
$UCSORGLEFT
 10
0.0
 20
0.0
 30
0.0
  9
$UCSORGRIGHT
 10
0.0
 20
0.0
 30
0.0
  9
$UCSORGFRONT
 10
0.0
 20
0.0
 30
0.0
  9
$UCSORGBACK
 10
0.0
 20
0.0
 30
0.0
  9
$PUCSBASE
  2

  9
$PUCSNAME
  2

  9
$PUCSORG
 10
0.0
 20
0.0
 30
0.0
  9
$PUCSXDIR
 10
1.0
 20
0.0
 30
0.0
  9
$PUCSYDIR
 10
0.0
 20
1.0
 30
0.0
  9
$PUCSORTHOREF
  2

  9
$PUCSORTHOVIEW
 70
     0
  9
$PUCSORGTOP
 10
0.0
 20
0.0
 30
0.0
  9
$PUCSORGBOTTOM
 10
0.0
 20
0.0
 30
0.0
  9
$PUCSORGLEFT
 10
0.0
 20
0.0
 30
0.0
  9
$PUCSORGRIGHT
 10
0.0
 20
0.0
 30
0.0
  9
$PUCSORGFRONT
 10
0.0
 20
0.0
 30
0.0
  9
$PUCSORGBACK
 10
0.0
 20
0.0
 30
0.0
  9
$USERI1
 70
     0
  9
$USERI2
 70
     0
  9
$USERI3
 70
     0
  9
$USERI4
 70
     0
  9
$USERI5
 70
     0
  9
$USERR1
 40
0.0
  9
$USERR2
 40
0.0
  9
$USERR3
 40
0.0
  9
$USERR4
 40
0.0
  9
$USERR5
 40
0.0
  9
$WORLDVIEW
 70
     1
  9
$SHADEDGE
 70
     3
  9
$SHADEDIF
 70
    70
  9
$TILEMODE
 70
     1
  9
$MAXACTVP
 70
    64
  9
$PINSBASE
 10
0.0
 20
0.0
 30
0.0
  9
$PLIMCHECK
 70
     0
  9
$PEXTMIN
 10
1.000000000000000E+20
 20
1.000000000000000E+20
 30
1.000000000000000E+20
  9
$PEXTMAX
 10
-1.000000000000000E+20
 20
-1.000000000000000E+20
 30
-1.000000000000000E+20
  9
$PLIMMIN
 10
0.0
 20
0.0
  9
$PLIMMAX
 10
420.0
 20
297.0
  9
$UNITMODE
 70
     0
  9
$VISRETAIN
 70
     1
  9
$PLINEGEN
 70
     0
  9
$PSLTSCALE
 70
     1
  9
$TREEDEPTH
 70
  3020
  9
$CMLSTYLE
  2
Standard
  9
$CMLJUST
 70
     0
  9
$CMLSCALE
 40
20.0
  9
$PROXYGRAPHICS
 70
     1
  9
$MEASUREMENT
 70
     1
  9
$CELWEIGHT
370
    -1
  9
$ENDCAPS
280
     0
  9
$JOINSTYLE
280
     0
  9
$LWDISPLAY
290
     0
  9
$INSUNITS
 70
     4
  9
$HYPERLINKBASE
  1

  9
$STYLESHEET
  1
sanindusa.ctb
  9
$XEDIT
290
     1
  9
$CEPSNTYPE
380
     0
  9
$PSTYLEMODE
290
     1
  9
$FINGERPRINTGUID
  2
{88B05F36-5482-40A2-81F4-899C9BBD9072}
  9
$VERSIONGUID
  2
{6596B9C0-635C-43F3-8AF0-013D9BD4E3B8}
  9
$EXTNAMES
290
     1
  9
$PSVPSCALE
 40
0.0
  9
$OLESTARTUP
290
     0
  0
ENDSEC
  0
SECTION
  2
CLASSES
  0
CLASS
  1
ACDBDICTIONARYWDFLT
  2
AcDbDictionaryWithDefault
  3
ObjectDBX Classes
 90
        0
280
     0
281
     0
  0
CLASS
  1
ACDBPLACEHOLDER
  2
AcDbPlaceHolder
  3
ObjectDBX Classes
 90
        0
280
     0
281
     0
  0
CLASS
  1
LAYOUT
  2
AcDbLayout
  3
ObjectDBX Classes
 90
        0
280
     0
281
     0
  0
CLASS
  1
DICTIONARYVAR
  2
AcDbDictionaryVar
  3
ObjectDBX Classes
 90
        0
280
     0
281
     0
  0
CLASS
  1
DIMASSOC
  2
AcDbDimAssoc
  3
"AcDbDimAssoc|Product Desc:     AcDim ARX App For Dimension|Company:          Autodesk, Inc.|WEB Address:      www.autodesk.com"
 90
    32768
280
     0
281
     0
  0
CLASS
  1
TABLESTYLE
  2
AcDbTableStyle
  3
ObjectDBX Classes
 90
     2047
280
     0
281
     0
  0
ENDSEC
  0
SECTION
  2
TABLES
  0
TABLE
  2
VPORT
  5
8
330
0
100
AcDbSymbolTable
 70
     2
  0
VPORT
  5
28E8
330
8
100
AcDbSymbolTableRecord
100
AcDbViewportTableRecord
  2
*Active
 70
     0
 10
0.0
 20
0.0
 11
1.0
 21
1.0
 12
5062.988960143305
 22
2542.842686171758
 13
0.0
 23
0.0
 14
10.0
 24
10.0
 15
10.0
 25
10.0
 16
0.0
 26
0.0
 36
1.0
 17
0.0
 27
0.0
 37
0.0
 40
2.208538933814109
 41
1.579579579579579
 42
50.0
 43
0.0
 44
0.0
 50
0.0
 51
0.0
 71
     0
 72
   100
 73
     1
 74
     2
 75
     0
 76
     0
 77
     0
 78
     0
281
     0
 65
     1
110
0.0
120
0.0
130
0.0
111
1.0
121
0.0
131
0.0
112
0.0
122
1.0
132
0.0
 79
     0
146
0.0
  0
ENDTAB
  0
TABLE
  2
LTYPE
  5
5
330
0
100
AcDbSymbolTable
 70
     5
  0
LTYPE
  5
14
330
5
100
AcDbSymbolTableRecord
100
AcDbLinetypeTableRecord
  2
ByBlock
 70
     0
  3

 72
    65
 73
     0
 40
0.0
  0
LTYPE
  5
15
330
5
100
AcDbSymbolTableRecord
100
AcDbLinetypeTableRecord
  2
ByLayer
 70
     0
  3

 72
    65
 73
     0
 40
0.0
  0
LTYPE
  5
16
330
5
100
AcDbSymbolTableRecord
100
AcDbLinetypeTableRecord
  2
Continuous
 70
     0
  3
Solid line
 72
    65
 73
     0
 40
0.0
  0
LTYPE
  5
2D
330
5
100
AcDbSymbolTableRecord
100
AcDbLinetypeTableRecord
  2
DASHDOT
 70
     0
  3
Dash dot __ . __ . __ . __ . __ . __ . __ . __
 72
    65
 73
     4
 40
25.4
 49
12.7
 74
     0
 49
-6.349999999999999
 74
     0
 49
0.0
 74
     0
 49
-6.349999999999999
 74
     0
  0
LTYPE
  5
2E
330
5
100
AcDbSymbolTableRecord
100
AcDbLinetypeTableRecord
  2
HIDDEN
 70
     0
  3
Hidden __ __ __ __ __ __ __ __ __ __ __ __ __ _
 72
    65
 73
     2
 40
9.524999999999998
 49
6.349999999999999
 74
     0
 49
-3.174999999999999
 74
     0
  0
LTYPE
  5
C75
330
5
100
AcDbSymbolTableRecord
100
AcDbLinetypeTableRecord
  2
AM_ISO02W050
 70
     0
  3
__ __ __ __ __ __ __ __ __ __ __ __ __ __ __
 72
    65
 73
     2
 40
7.5
 49
6.0
 74
     0
 49
-1.5
 74
     0
  0
LTYPE
  5
C76
330
5
100
AcDbSymbolTableRecord
100
AcDbLinetypeTableRecord
  2
AM_ISO08W050
 70
     0
  3
____ . ____ . ____ . ____ . ____ . ____ . ____
 72
    65
 73
     4
 40
18.0
 49
12.0
 74
     0
 49
-1.5
 74
     0
 49
3.0
 74
     0
 49
-1.5
 74
     0
  0
ENDTAB
  0
TABLE
  2
LAYER
  5
2
102
{ACAD_XDICTIONARY
360
1051
102
}
330
0
100
AcDbSymbolTable
 70
    16
  0
LAYER
  5
10
330
2
100
AcDbSymbolTableRecord
100
AcDbLayerTableRecord
  2
0
 70
     0
 62
     7
  6
Continuous
370
    -3
390
F
  0
LAYER
  5
2F
330
2
100
AcDbSymbolTableRecord
100
AcDbLayerTableRecord
  2
1
 70
     0
 62
     1
  6
Continuous
370
    -3
390
F
  0
LAYER
  5
30
330
2
100
AcDbSymbolTableRecord
100
AcDbLayerTableRecord
  2
2
 70
     0
 62
     2
  6
Continuous
370
    -3
390
F
  0
LAYER
  5
31
330
2
100
AcDbSymbolTableRecord
100
AcDbLayerTableRecord
  2
3
 70
     0
 62
     3
  6
Continuous
370
    -3
390
F
  0
LAYER
  5
32
330
2
100
AcDbSymbolTableRecord
100
AcDbLayerTableRecord
  2
4
 70
     0
 62
     4
  6
Continuous
370
    -3
390
F
  0
LAYER
  5
33
330
2
100
AcDbSymbolTableRecord
100
AcDbLayerTableRecord
  2
5
 70
     0
 62
     5
  6
Continuous
370
    -3
390
F
  0
LAYER
  5
34
330
2
100
AcDbSymbolTableRecord
100
AcDbLayerTableRecord
  2
6
 70
     0
 62
     6
  6
Continuous
370
    -3
390
F
  0
LAYER
  5
35
330
2
100
AcDbSymbolTableRecord
100
AcDbLayerTableRecord
  2
7
 70
     0
 62
     7
  6
Continuous
370
    -3
390
F
  0
LAYER
  5
36
330
2
100
AcDbSymbolTableRecord
100
AcDbLayerTableRecord
  2
cen
 70
     0
 62
     7
  6
DASHDOT
370
    -3
390
F
  0
LAYER
  5
37
330
2
100
AcDbSymbolTableRecord
100
AcDbLayerTableRecord
  2
hid
 70
     0
 62
     7
  6
HIDDEN
370
    -3
390
F
  0
LAYER
  5
5D6
330
2
100
AcDbSymbolTableRecord
100
AcDbLayerTableRecord
  2
hatch
 70
     0
 62
     9
  6
Continuous
370
    -3
390
F
  0
LAYER
  5
8AF
330
2
100
AcDbSymbolTableRecord
100
AcDbLayerTableRecord
  2
9
 70
     0
 62
     9
  6
Continuous
370
    -3
390
F
  0
LAYER
  5
8F8
330
2
100
AcDbSymbolTableRecord
100
AcDbLayerTableRecord
  2
leg fin
 70
     0
 62
     9
  6
Continuous
370
    -3
390
F
  0
LAYER
  5
91D
330
2
100
AcDbSymbolTableRecord
100
AcDbLayerTableRecord
  2
cotas
 70
     0
 62
     1
  6
Continuous
370
    -3
390
F
  0
LAYER
  5
92F
330
2
100
AcDbSymbolTableRecord
100
AcDbLayerTableRecord
  2
Defpoints
 70
     0
 62
     7
  6
Continuous
290
     0
370
    -3
390
F
  0
LAYER
  5
C7B
330
2
100
AcDbSymbolTableRecord
100
AcDbLayerTableRecord
  2
SANINDUSA
 70
     0
 62
     3
  6
Continuous
370
    -3
390
F
  0
ENDTAB
  0
TABLE
  2
STYLE
  5
3
330
0
100
AcDbSymbolTable
 70
     4
  0
STYLE
  5
11
330
3
100
AcDbSymbolTableRecord
100
AcDbTextStyleTableRecord
  2
Standard
 70
     0
 40
0.0
 41
1.0
 50
0.0
 71
     0
 42
2.5
  3
Avgardn.ttf
  4

1001
ACAD
1000
AvantGarde Bk BT
1071
       34
  0
STYLE
  5
2C
330
3
100
AcDbSymbolTableRecord
100
AcDbTextStyleTableRecord
  2

 70
     1
 40
0.0
 41
1.0
 50
0.0
 71
     0
 42
2.5
  3
ltypeshp.shx
  4

  0
STYLE
  5
91F
330
3
100
AcDbSymbolTableRecord
100
AcDbTextStyleTableRecord
  2
SANINDUSA
 70
     0
 40
0.0
 41
1.0
 50
0.0
 71
     0
 42
2.5
  3
verdana.TTF
  4

1001
ACAD
1000
Verdana
1071
       34
  0
STYLE
  5
C7C
330
3
100
AcDbSymbolTableRecord
100
AcDbTextStyleTableRecord
  2
futura
 70
     0
 40
0.0
 41
1.0
 50
0.0
 71
     0
 42
2.5
  3
ZURCHN.TTF
  4

1001
ACAD
1000
Zurich BT
1071
       34
  0
ENDTAB
  0
TABLE
  2
VIEW
  5
6
330
0
100
AcDbSymbolTable
 70
     0
  0
ENDTAB
  0
TABLE
  2
UCS
  5
7
330
0
100
AcDbSymbolTable
 70
     0
  0
ENDTAB
  0
TABLE
  2
APPID
  5
9
330
0
100
AcDbSymbolTable
 70
    10
  0
APPID
  5
12
330
9
100
AcDbSymbolTableRecord
100
AcDbRegAppTableRecord
  2
ACAD
 70
     0
  0
APPID
  5
3A
330
9
100
AcDbSymbolTableRecord
100
AcDbRegAppTableRecord
  2
DCO15
 70
     0
  0
APPID
  5
EEE
330
9
100
AcDbSymbolTableRecord
100
AcDbRegAppTableRecord
  2
ACAD_DSTYLE_DIMTEXT_FILL
 70
     0
  0
APPID
  5
EEF
330
9
100
AcDbSymbolTableRecord
100
AcDbRegAppTableRecord
  2
ACAD_DSTYLE_DIMEXT_LENGTH
 70
     0
  0
APPID
  5
EF0
330
9
100
AcDbSymbolTableRecord
100
AcDbRegAppTableRecord
  2
ACAD_DSTYLE_DIMEXT_ENABLED
 70
     0
  0
APPID
  5
EF1
330
9
100
AcDbSymbolTableRecord
100
AcDbRegAppTableRecord
  2
ACAD_DSTYLE_DIM_LINETYPE
 70
     0
  0
APPID
  5
EF2
330
9
100
AcDbSymbolTableRecord
100
AcDbRegAppTableRecord
  2
ACAD_DSTYLE_DIM_EXT1_LINETYPE
 70
     0
  0
APPID
  5
EF3
330
9
100
AcDbSymbolTableRecord
100
AcDbRegAppTableRecord
  2
ACAD_DSTYLE_DIM_EXT2_LINETYPE
 70
     0
  0
APPID
  5
FAF
330
9
100
AcDbSymbolTableRecord
100
AcDbRegAppTableRecord
  2
ACAD_DSTYLE_DIMJOGGED_JOGANGLE_SYMBOL
 70
     0
  0
APPID
  5
1013
330
9
100
AcDbSymbolTableRecord
100
AcDbRegAppTableRecord
  2
ACAD_DSTYLE_DIMARC_LENGTH_SYMBOL
 70
     0
  0
ENDTAB
  0
TABLE
  2
DIMSTYLE
  5
A
330
0
100
AcDbSymbolTable
 70
     3
100
AcDbDimStyleTable
 71
     1
340
921
  0
DIMSTYLE
105
45
330
A
100
AcDbSymbolTableRecord
100
AcDbDimStyleTableRecord
  2
STANDARD
 70
     0
289
     0
340
11
  0
DIMSTYLE
105
921
330
A
100
AcDbSymbolTableRecord
100
AcDbDimStyleTableRecord
  2
SANINDUSA
 70
     0
 41
2.0
 42
1.0
 43
1.0
 44
1.0
 73
     0
 74
     0
 77
     1
 78
     8
140
2.0
141
0.0
143
0.03937007874016
147
1.0
171
     3
172
     1
176
   256
177
   256
178
   256
179
     1
271
     1
272
     1
274
     3
278
    44
283
     0
284
     8
340
91F
371
    -1
372
    -1
1001
ACAD_DSTYLE_DIMEXT_LENGTH
1070
   378
1040
1.0
1001
ACAD_DSTYLE_DIMEXT_ENABLED
1070
   383
1070
     0
1001
ACAD_DSTYLE_DIMARC_LENGTH_SYMBOL
1070
   379
1070
     0
1001
ACAD_DSTYLE_DIMJOGGED_JOGANGLE_SYMBOL
1070
   384
1040
1.570796326794896
  0
DIMSTYLE
105
C7D
330
A
100
AcDbSymbolTableRecord
100
AcDbDimStyleTableRecord
  2
AM_ISO
 70
     0
  4
"
 41
2.5
 42
1.0
 43
10.0
 44
1.0
 47
0.1
 48
0.1
 73
     0
 74
     0
 77
     1
 78
     8
 79
     2
140
3.5
141
0.0
143
0.0393701
146
0.71
147
1.5
172
     1
176
   256
177
   256
178
     2
271
     2
272
     3
274
     4
283
     0
284
     8
340
11
371
    -1
372
    -1
  0
ENDTAB
  0
TABLE
  2
BLOCK_RECORD
  5
1
330
0
100
AcDbSymbolTable
 70
   123
  0
BLOCK_RECORD
  5
1F
330
1
100
AcDbSymbolTableRecord
100
AcDbBlockTableRecord
  2
*Model_Space
340
22
  0
BLOCK_RECORD
  5
1B
330
1
100
AcDbSymbolTableRecord
100
AcDbBlockTableRecord
  2
*Paper_Space
340
1E
  0
BLOCK_RECORD
  5
23
330
1
100
AcDbSymbolTableRecord
100
AcDbBlockTableRecord
  2
*Paper_Space0
340
26
  0
BLOCK_RECORD
  5
919
330
1
100
AcDbSymbolTableRecord
100
AcDbBlockTableRecord
  2
_DotSmall
340
0
  0
BLOCK_RECORD
  5
922
330
1
100
AcDbSymbolTableRecord
100
AcDbBlockTableRecord
  2
base para cotas
340
0
310
2800000020000000200000000100080000000000000400000000000000000000000000000000000000000000000080000080000000808000800000008000800080800000C0C0C000C0DCC000F0CAA6000020400000206000002080000020A0000020C0000020E00000400000004020000040400000406000004080000040A0
310
000040C0000040E00000600000006020000060400000606000006080000060A0000060C0000060E00000800000008020000080400000806000008080000080A0000080C0000080E00000A0000000A0200000A0400000A0600000A0800000A0A00000A0C00000A0E00000C0000000C0200000C0400000C0600000C0800000C0
310
A00000C0C00000C0E00000E0000000E0200000E0400000E0600000E0800000E0A00000E0C00000E0E00040000000400020004000400040006000400080004000A0004000C0004000E00040200000402020004020400040206000402080004020A0004020C0004020E000404000004040200040404000404060004040800040
310
40A0004040C0004040E00040600000406020004060400040606000406080004060A0004060C0004060E00040800000408020004080400040806000408080004080A0004080C0004080E00040A0000040A0200040A0400040A0600040A0800040A0A00040A0C00040A0E00040C0000040C0200040C0400040C0600040C08000
310
40C0A00040C0C00040C0E00040E0000040E0200040E0400040E0600040E0800040E0A00040E0C00040E0E00080000000800020008000400080006000800080008000A0008000C0008000E00080200000802020008020400080206000802080008020A0008020C0008020E00080400000804020008040400080406000804080
310
008040A0008040C0008040E00080600000806020008060400080606000806080008060A0008060C0008060E00080800000808020008080400080806000808080008080A0008080C0008080E00080A0000080A0200080A0400080A0600080A0800080A0A00080A0C00080A0E00080C0000080C0200080C0400080C0600080C0
310
800080C0A00080C0C00080C0E00080E0000080E0200080E0400080E0600080E0800080E0A00080E0C00080E0E000C0000000C0002000C0004000C0006000C0008000C000A000C000C000C000E000C0200000C0202000C0204000C0206000C0208000C020A000C020C000C020E000C0400000C0402000C0404000C0406000C0
310
408000C040A000C040C000C040E000C0600000C0602000C0604000C0606000C0608000C060A000C060C000C060E000C0800000C0802000C0804000C0806000C0808000C080A000C080C000C080E000C0A00000C0A02000C0A04000C0A06000C0A08000C0A0A000C0A0C000C0A0E000C0C00000C0C02000C0C04000C0C06000
310
C0C08000C0C0A000F0FBFF00A4A0A000808080000000FF0000FF000000FFFF00FF000000FF00FF00FFFF0000FFFFFF00A4A4A4A4A4A4A4A4A4A4A4A4A4A4A4A4A4A4A4A4A4A4A4A4A4A4A4A4A4A4A4A4A4A4A4A4A4A4A4A4A4A4A4A4A4A4A4A4A4A4A4A4A4A4A4A4A4A4A4A4A4A4A4A4A4A4A4A4A4A4A4A4A4A4A4A4A4A4A4
310
A4A4A4A4A4A4A4A4A4A4A4A4A4A4A4A4A4A4A4A4A4A4A4A4A4A4A4A4A4A4A4A4A4A4A4A4A4A4A4A4A4A4A4A4A4A4A4A4A4A4A4A4A4A4A4A4A4A4A4A4A4A4A4A4A4A4A4A4A4A4A4A4A4A4A4A4A4A4A4A4A4A4A4A4A4A4A4A4A4A4A4A4A4A4A4A4A4A4A4A4A4A4A4A4A4A4A4A4A4A4A4A4A4A4A4A4A4A4A4A4A4A4A4A4A4A4A4
310
A4A4A4A4A4A4A4A4A4A4A4A4A4A4A4A4A4A4A4A4A4A4A4A4A4A4A4A4A4A4A4A4A4A4A4A4A4A4A4A4A4A4A4A4A4A4A4A4A4A4A4A4A4A4A4A4A4A4A4A4A4A4A4A4A4A4A4A4A4A4A4A4A4A4A4A4A4A4A4A4A4A4A4A4A4A4A4A4A4A4A4A4A4A4A4A4A4A4A4A4A4A4A4A4A4A4A4A4A4A4A4A4A4A4A4A4A4A4A4A4A4A4A4A4A4A4A4
310
A4A4A4A4A4A4A4A4A4A4A4A4A4A4A4A4A4A4A4A4A4A4A4A4A4A4A4A4A4A4A4A4A4A4A4A4A4A4A4A4A4A4A4A4A4A4A4A4A4A4A4A4A4A4A4A4A4A4A4A4A4A4A4A4A4A4A4A4A4A4A4A4A4A4A4A4A4A4A4A4A4A4A4A4A4A4A4A4A4A4A4A4A4A4A4A4A4A4A4A4A4A4A4A4A4A4A4A4A4A4A4A4A4A4A4A4F9F9F9F9F9F9F9F9F9F9F9
310
F9F9F9F9F9F9F9F9F9F9F9F9F9F9F9F9F9F9F9A4A4F9F9F9F9F9F9F9F9F9F9F9F9F9F9F9F9F9F9F9F9F9F9F9F9F9F9F9F9F9F9A4A4F9F9F9F9F9F9F9F9F9F9F9F9F9F9F9F9F9F9F9F9F9F9F9F9F9F9F9F9F9F9A4A4F9A4A4A4A4A4A4A4A4A4A4A4A4A4A4A4A4A4A4A4A4A4A4A4A4A4A4A4A4F9A4A4A4A4A4A4A4A4A4A4A4A4
310
A4A4A4A4A4A4A4A4A4A4A4A4A4A4A4A4A4A4A4A4A4A4A4A4A4A4A4A4A4A4A4A4A4A4A4A4A4A4A4A4A4A4A4A4A4A4A4A4A4A4A4A4A4A4A4A4A4A4A4A4A4A4A4A4A4A4A4A4A4A4A4A4A4A4A4A4A4A4A4A4A4A4A4A4A4A4A4A4A4A4A4A4A4A4A4A4A4A4A4A4A4A4A4A4A4A4A4A4A4A4A4A4A4A4A4A4A4A4A4A4A4A4A4A4A4A4A4
310
A4A4A4A4A4A4A4A4A4A4A4A4A4A4A4A4A4A4A4A4A4A4A4A4A4A4A4A4A4A4A4A4A4A4A4A4A4A4A4A4A4A4A4A4A4A4A4A4A4A4A4A4A4A4A4A4A4A4A4A4A4A4A4A4A4A4A4A4A4A4A4A4A4A4A4A4A4A4A4A4A4A4A4A4A4A4A4A4A4A4A4A4A4A4A4A4A4A4A4A4A4A4A4A4A4A4A4A4A4A4A4A4A4A4A4A4A4A4A4A4A4A4A4A4A4A4A4
310
A4A4A4A4A4A4A4A4A4A4A4A4A4A4A4A4A4A4A4A4A4A4A4A4A4A4A4A4A4A4A4A4A4A4A4A4A4A4A4A4A4A4A4A4A4A4A4A4A4A4A4A4A4A4A4A4A4A4A4A4A4A4A4A4A4A4A4A4A4A4A4A4A4A4A4A4A4A4A4A4A4A4A4A4A4A4A4A4A4A4A4A4A4A4A4A4A4A4A4A4A4A4A4A4A4A4A4A4A4A4A4A4A4A4A4A4A4A4A4A4A4A4A4A4A4A4A4
310
A4A4A4A4A4A4A4A4A4A4A4A4A4A4A4A4A4A4A4A4A4A4A4A4A4A4A4A4A4A4A4A4A4A4A4A4A4A4A4A4A4A4A4A4A4A4A4A4A4A4A4A4A4A4A4A4
1001
ACAD
1000
DesignCenter Data
1002
{
1070
     1
1070
     4
1002
}
  0
BLOCK_RECORD
  5
AA8
330
1
100
AcDbSymbolTableRecord
100
AcDbBlockTableRecord
  2
_CLOSED
340
0
  0
BLOCK_RECORD
  5
B79
330
1
100
AcDbSymbolTableRecord
100
AcDbBlockTableRecord
  2
nota revisoes
340
0
1001
ACAD
1000
DesignCenter Data
1002
{
1070
     1
1070
     4
1002
}
  0
BLOCK_RECORD
  5
B8E
330
1
100
AcDbSymbolTableRecord
100
AcDbBlockTableRecord
  2
a3l
340
0
1001
ACAD
1000
DesignCenter Data
1002
{
1070
     1
1070
     4
1002
}
  0
BLOCK_RECORD
  5
B9E
330
1
100
AcDbSymbolTableRecord
100
AcDbBlockTableRecord
  2
legenda desenvolvimento
340
0
1001
ACAD
1000
DesignCenter Data
1002
{
1070
     1
1070
     4
1002
}
  0
ENDTAB
  0
ENDSEC
  0
SECTION
  2
BLOCKS
  0
BLOCK
  5
20
330
1F
100
AcDbEntity
  8
0
100
AcDbBlockBegin
  2
*Model_Space
 70
     0
 10
0.0
 20
0.0
 30
0.0
  3
*Model_Space
  1

  0
ENDBLK
  5
21
330
1F
100
AcDbEntity
  8
0
100
AcDbBlockEnd
  0
BLOCK
  5
1C
330
1B
100
AcDbEntity
 67
     1
  8
0
100
AcDbBlockBegin
  2
*Paper_Space
 70
     0
 10
0.0
 20
0.0
 30
0.0
  3
*Paper_Space
  1

  0
ENDBLK
  5
1D
330
1B
100
AcDbEntity
 67
     1
  8
0
100
AcDbBlockEnd
  0
BLOCK
  5
24
330
23
100
AcDbEntity
 67
     1
  8
0
100
AcDbBlockBegin
  2
*Paper_Space0
 70
     0
 10
0.0
 20
0.0
 30
0.0
  3
*Paper_Space0
  1

  0
ENDBLK
  5
25
330
23
100
AcDbEntity
 67
     1
  8
0
100
AcDbBlockEnd
  0
BLOCK
  5
91B
330
919
100
AcDbEntity
  8
0
100
AcDbBlockBegin
  2
_DotSmall
 70
     0
 10
0.0
 20
0.0
 30
0.0
  3
_DotSmall
  1

  0
LWPOLYLINE
  5
91A
330
919
100
AcDbEntity
  8
0
  6
ByBlock
 62
     0
100
AcDbPolyline
 90
        2
 70
     1
 43
0.5
 10
-0.0625
 20
0.0
 42
1.0
 10
0.0625
 20
0.0
 42
1.0
  0
ENDBLK
  5
91C
330
919
100
AcDbEntity
  8
0
100
AcDbBlockEnd
  0
BLOCK
  5
92A
330
922
100
AcDbEntity
  8
0
100
AcDbBlockBegin
  2
base para cotas
 70
     0
 10
0.0
 20
0.0
 30
0.0
  3
base para cotas
  1

  0
LINE
  5
B36
330
922
100
AcDbEntity
  8
cotas
100
AcDbLine
 10
0.0
 20
-30.0
 30
0.0
 11
327.1260136525398
 21
-30.0
 31
0.0
  0
LINE
  5
B37
330
922
100
AcDbEntity
  8
cotas
100
AcDbLine
 10
0.0
 20
-25.0
 30
0.0
 11
327.1260136525398
 21
-25.0
 31
0.0
  0
LINE
  5
B38
330
922
100
AcDbEntity
  8
cotas
100
AcDbLine
 10
0.0
 20
-20.0
 30
0.0
 11
327.1260136525398
 21
-20.0
 31
0.0
  0
LINE
  5
B39
330
922
100
AcDbEntity
  8
cotas
100
AcDbLine
 10
0.0
 20
-15.0
 30
0.0
 11
327.1260136525398
 21
-15.0
 31
0.0
  0
LINE
  5
B3A
330
922
100
AcDbEntity
  8
cotas
100
AcDbLine
 10
0.0
 20
-10.0
 30
0.0
 11
327.1260136525398
 21
-10.0
 31
0.0
  0
LINE
  5
B3B
330
922
100
AcDbEntity
  8
cotas
100
AcDbLine
 10
0.0
 20
0.0
 30
0.0
 11
0.0
 21
-30.0
 31
0.0
  0
LINE
  5
B3C
330
922
100
AcDbEntity
  8
cotas
100
AcDbLine
 10
327.1260136525398
 20
-30.0
 30
0.0
 11
327.1260136525398
 21
0.0
 31
0.0
  0
ENDBLK
  5
92B
330
922
100
AcDbEntity
  8
0
100
AcDbBlockEnd
  0
BLOCK
  5
AAD
330
AA8
100
AcDbEntity
  8
0
100
AcDbBlockBegin
  2
_CLOSED
 70
     0
 10
0.0
 20
0.0
 30
0.0
  3
_CLOSED
  1

  0
LINE
  5
AA9
330
AA8
100
AcDbEntity
  8
0
100
AcDbLine
 10
-1.0
 20
0.166667
 30
0.0
 11
0.0
 21
0.0
 31
0.0
  0
LINE
  5
AAA
330
AA8
100
AcDbEntity
  8
0
100
AcDbLine
 10
0.0
 20
0.0
 30
0.0
 11
-1.0
 21
-0.166667
 31
0.0
  0
LINE
  5
AAB
330
AA8
100
AcDbEntity
  8
0
100
AcDbLine
 10
-1.0
 20
0.166667
 30
0.0
 11
-1.0
 21
-0.166667
 31
0.0
  0
LINE
  5
AAC
330
AA8
100
AcDbEntity
  8
0
100
AcDbLine
 10
0.0
 20
0.0
 30
0.0
 11
-1.0
 21
0.0
 31
0.0
  0
ENDBLK
  5
AAE
330
AA8
100
AcDbEntity
  8
0
100
AcDbBlockEnd
  0
BLOCK
  5
B7C
330
B79
100
AcDbEntity
  8
0
100
AcDbBlockBegin
  2
nota revisoes
 70
     0
 10
0.0
 20
0.0
 30
0.0
  3
nota revisoes
  1

  0
CIRCLE
  5
B7A
330
B79
100
AcDbEntity
  8
4
100
AcDbCircle
 10
0.0
 20
0.0
 30
0.0
 40
13.69426055101189
  0
TEXT
  5
B7B
330
B79
100
AcDbEntity
  8
4
100
AcDbText
 10
-5.496248358154345
 20
-5.354545554066362
 30
0.0
 40
12.0
  1
1
  7
SANINDUSA
 72
     1
 11
-0.249774214433728
 21
-5.354545554066362
 31
0.0
100
AcDbText
  0
ENDBLK
  5
B7D
330
B79
100
AcDbEntity
  8
0
100
AcDbBlockEnd
  0
BLOCK
  5
B9C
330
B8E
100
AcDbEntity
  8
0
100
AcDbBlockBegin
  2
a3l
 70
     0
 10
0.0
 20
0.0
 30
0.0
  3
a3l
  1

  0
LINE
  5
B8F
330
B8E
100
AcDbEntity
  8
1
100
AcDbLine
 10
-364.2925296599447
 20
-362.1188951399395
 30
0.0
 11
-364.2925296599447
 21
-65.11889513993946
 31
0.0
  0
LINE
  5
B90
330
B8E
100
AcDbEntity
  8
4
100
AcDbLine
 10
-369.2925296599447
 20
-357.1188951399395
 30
0.0
 11
-369.2925296599447
 21
-70.11889513993946
 31
0.0
  0
LINE
  5
B91
330
B8E
100
AcDbEntity
  8
1
100
AcDbLine
 10
-784.2925296599446
 20
-65.11889513993946
 30
0.0
 11
-784.2925296599446
 21
-362.1188951399395
 31
0.0
  0
LINE
  5
B92
330
B8E
100
AcDbEntity
  8
4
100
AcDbLine
 10
-759.2925296599446
 20
-357.1188951399395
 30
0.0
 11
-759.2925296599446
 21
-70.11889513993946
 31
0.0
  0
LINE
  5
B93
330
B8E
100
AcDbEntity
  8
1
100
AcDbLine
 10
-784.2925296599446
 20
-362.1188951399395
 30
0.0
 11
-364.2925296599447
 21
-362.1188951399395
 31
0.0
  0
LINE
  5
B94
330
B8E
100
AcDbEntity
  8
4
100
AcDbLine
 10
-759.2925296599446
 20
-357.1188951399395
 30
0.0
 11
-369.2925296599447
 21
-357.1188951399395
 31
0.0
  0
LINE
  5
B95
330
B8E
100
AcDbEntity
  8
1
100
AcDbLine
 10
-654.2925296599446
 20
-357.1188951399395
 30
0.0
 11
-654.2925296599446
 21
-362.1188951399395
 31
0.0
  0
LINE
  5
B96
330
B8E
100
AcDbEntity
  8
1
100
AcDbLine
 10
-364.2925296599447
 20
-65.11889513993946
 30
0.0
 11
-784.2925296599446
 21
-65.11889513993946
 31
0.0
  0
LINE
  5
B97
330
B8E
100
AcDbEntity
  8
4
100
AcDbLine
 10
-369.2925296599447
 20
-70.11889513993946
 30
0.0
 11
-759.2925296599446
 21
-70.11889513993946
 31
0.0
  0
LINE
  5
B98
330
B8E
100
AcDbEntity
  8
1
100
AcDbLine
 10
-654.2925296599446
 20
-65.11889513993946
 30
0.0
 11
-654.2925296599446
 21
-70.11889513993946
 31
0.0
  0
LINE
  5
B99
330
B8E
100
AcDbEntity
  8
1
100
AcDbLine
 10
-549.2925296599446
 20
-70.11889513993946
 30
0.0
 11
-549.2925296599446
 21
-65.11889513993946
 31
0.0
  0
LINE
  5
B9A
330
B8E
100
AcDbEntity
  8
1
100
AcDbLine
 10
-369.2925296599447
 20
-65.11889513993946
 30
0.0
 11
-364.2925296599447
 21
-65.11889513993946
 31
0.0
  0
LINE
  5
B9B
330
B8E
100
AcDbEntity
  8
1
100
AcDbLine
 10
-549.2925296599446
 20
-357.1188951399395
 30
0.0
 11
-549.2925296599446
 21
-362.1188951399395
 31
0.0
  0
ENDBLK
  5
B9D
330
B8E
100
AcDbEntity
  8
0
100
AcDbBlockEnd
  0
BLOCK
  5
C13
330
B9E
100
AcDbEntity
  8
0
100
AcDbBlockBegin
  2
legenda desenvolvimento
 70
     2
 10
0.0
 20
0.0
 30
0.0
  3
legenda desenvolvimento
  1

  0
ATTDEF
  5
B9F
330
B9E
100
AcDbEntity
  8
1
100
AcDbText
 10
-108.606245802552
 20
55.5
 30
0.0
 40
4.0
  1
XXXXXXXXXXXXXX
 41
0.8
  7
SANINDUSA
 72
     4
 11
-87.5
 21
57.5
 31
0.0
100
AcDbAttributeDefinition
  3
Nome do Produto:
  2
PRODUTO
 70
     0
  0
ATTDEF
  5
BA0
330
B9E
100
AcDbEntity
  8
1
100
AcDbText
 10
-97.9997966101695
 20
41.25
 30
0.0
 40
3.0
  1
XXXXXXXXX
 41
0.8
  7
futura
 72
     4
 11
-87.5
 21
42.75
 31
0.0
100
AcDbAttributeDefinition
  3
Nome da Peça:
  2
PECA
 70
     0
  0
ATTDEF
  5
BA1
330
B9E
100
AcDbEntity
  8
1
100
AcDbText
 10
-133.4422431161853
 20
21.11745296763252
 30
0.0
 40
2.5
  1
X
 41
0.8
  7
SANINDUSA
 72
     4
 11
-132.5
 21
22.36745296763252
 31
0.0
100
AcDbAttributeDefinition
  3
Cod. TESTE:
  2
TESTE
 70
     0
  0
ATTDEF
  5
BA2
330
B9E
100
AcDbEntity
  8
1
100
AcDbText
 10
-124.3844862323707
 20
21.11745296763252
 30
0.0
 40
2.5
  1
XX
 41
0.8
  7
SANINDUSA
 72
     4
 11
-122.5
 21
22.36745296763252
 31
0.0
100
AcDbAttributeDefinition
  3
Cod. Ano:
  2
ANO
 70
     0
  0
ATTDEF
  5
BA3
330
B9E
100
AcDbEntity
  8
1
100
AcDbText
 10
-112.526889953052
 20
21.11745296763252
 30
0.0
 40
2.5
  1
XXX
 41
0.8
  7
SANINDUSA
 72
     4
 11
-109.700160604496
 21
22.36745296763252
 31
0.0
100
AcDbAttributeDefinition
  3
Cod. Sequência:
  2
SEQUENCIA
 70
     0
  0
ATTDEF
  5
BA4
330
B9E
100
AcDbEntity
  8
1
100
AcDbText
 10
-99.35382430979316
 20
21.11745296763252
 30
0.0
 40
2.5
  1
XX
 41
0.8
  7
SANINDUSA
 72
     4
 11
-97.46933807742244
 21
22.36745296763252
 31
0.0
100
AcDbAttributeDefinition
  3
Cod. Tipo:
  2
TIPO
 70
     0
  0
ATTDEF
  5
BA5
330
B9E
100
AcDbEntity
  8
1
100
AcDbText
 10
-87.42035911468438
 20
21.11745296763252
 30
0.0
 40
2.5
  1
XXX
 41
0.8
  7
SANINDUSA
 72
     4
 11
-84.59362976612828
 21
22.36745296763252
 31
0.0
100
AcDbAttributeDefinition
  3
Cod. Produto:
  2
PRODUTO
 70
     0
  0
ATTDEF
  5
BA6
330
B9E
100
AcDbEntity
  8
1
100
AcDbText
 10
-74.62051971917853
 20
21.11745296763252
 30
0.0
 40
2.5
  1
XXX
 41
0.8
  7
SANINDUSA
 72
     4
 11
-71.79379037062244
 21
22.36745296763252
 31
0.0
100
AcDbAttributeDefinition
  3
Cod. Peça:
  2
PECA
 70
     0
  0
ATTDEF
  5
BA7
330
B9E
100
AcDbEntity
  8
1
100
AcDbText
 10
-61.10603446650329
 20
21.11745296763252
 30
0.0
 40
2.5
  1
XX
 41
0.8
  7
SANINDUSA
 72
     4
 11
-59.22154823413257
 21
22.36745296763252
 31
0.0
100
AcDbAttributeDefinition
  3
Cod. Revisão:
  2
REV
 70
     0
  0
ATTDEF
  5
BA8
330
B9E
100
AcDbEntity
  8
1
100
AcDbText
 10
-48.43615325006194
 20
21.11745296763252
 30
0.0
 40
2.5
  1
XX
 41
0.8
  7
SANINDUSA
 72
     4
 11
-46.55166701769121
 21
22.36745296763252
 31
0.0
100
AcDbAttributeDefinition
  3
Cod. Alteração:
  2
ALT
 70
     0
  0
ATTDEF
  5
BA9
330
B9E
100
AcDbEntity
  8
1
100
AcDbText
 10
-35.19086635325722
 20
23.98875083948959
 30
0.0
 40
3.0
  1
1/XXX
 41
0.8
  7
SANINDUSA
 72
     4
 11
-30.0
 21
25.25
 31
0.0
100
AcDbAttributeDefinition
  3
Escala geral:
  2
ESCALA
 70
     0
  0
ATTDEF
  5
BAA
330
B9E
100
AcDbEntity
  8
1
100
AcDbText
 10
-15.65345869711215
 20
23.75
 30
0.0
 40
3.0
  1
XXXXX
 41
0.8
  7
SANINDUSA
 72
     4
 11
-10.0
 21
25.25
 31
0.0
100
AcDbAttributeDefinition
  3
Folha:
  2
FOLHA
 70
     0
  0
ATTDEF
  5
BAB
330
B9E
100
AcDbEntity
  8
1
100
AcDbText
 10
-178.5146998822042
 20
56.9531347542807
 30
0.0
 40
2.0
  1
xx
 41
0.8
  7
SANINDUSA
 72
     4
 11
-177.2123493113513
 21
57.70330265219877
 31
0.0
100
AcDbAttributeDefinition
  3
revisão
  2
REV.
 70
     0
  0
ATTDEF
  5
BAC
330
B9E
100
AcDbEntity
  8
1
100
AcDbText
 10
-172.7849640077129
 20
56.9531347542807
 30
0.0
 40
2.0
  1
xx
 41
0.8
  7
SANINDUSA
 72
     4
 11
-171.48261343686
 21
57.70330265219877
 31
0.0
100
AcDbAttributeDefinition
  3
alteração
  2
ALT.
 70
     0
  0
ATTDEF
  5
BAD
330
B9E
100
AcDbEntity
  8
1
100
AcDbText
 10
-168.007199951307
 20
56.70330265219877
 30
0.0
 40
2.0
  1
xx/xx/xxxx
 41
0.8
  7
SANINDUSA
 11
-168.007199951307
 21
57.70330265219877
 31
0.0
100
AcDbAttributeDefinition
  3
data
  2
DATA
 70
     0
 74
     2
  0
ATTDEF
  5
BAE
330
B9E
100
AcDbEntity
  8
1
100
AcDbText
 10
-168.5396372253371
 20
13.15916722632639
 30
0.0
 40
2.0
  1
XX/XX/XXXX
 41
0.8
  7
SANINDUSA
 72
     4
 11
-161.5099528734231
 21
14.0
 31
0.0
100
AcDbAttributeDefinition
  3
Data projecto
  2
DATA_PROJ
 70
     0
  0
ATTDEF
  5
BAF
330
B9E
100
AcDbEntity
  8
1
100
AcDbText
 10
-150.8658110728766
 20
13.24983210208193
 30
0.0
 40
2.0
  1
xxxxxxxx
 41
0.8
  7
SANINDUSA
 72
     4
 11
-145.6564087894649
 21
14.0
 31
0.0
100
AcDbAttributeDefinition
  3
nome de quem projectou
  2
NOME
 70
     0
  0
ATTDEF
  5
BB0
330
B9E
100
AcDbEntity
  8
1
100
AcDbText
 10
-168.5396372253371
 20
9.159167226326394
 30
0.0
 40
2.0
  1
XX/XX/XXXX
 41
0.8
  7
SANINDUSA
 72
     4
 11
-161.5099528734231
 21
10.0
 31
0.0
100
AcDbAttributeDefinition
  3
Data desenhou
  2
DATA_DES
 70
     0
  0
ATTDEF
  5
BB1
330
B9E
100
AcDbEntity
  8
1
100
AcDbText
 10
-151.516986358303
 20
9.249832102081933
 30
0.0
 40
2.0
  1
xxxxxxxxx
 41
0.8
  7
SANINDUSA
 72
     4
 11
-145.6564087894649
 21
10.0
 31
0.0
100
AcDbAttributeDefinition
  3
nome
  2
NOME
 70
     0
  0
ATTDEF
  5
BB2
330
B9E
100
AcDbEntity
  8
1
100
AcDbText
 10
-127.2924214135946
 20
14.1979876583216
 30
0.0
 40
2.0
  1
Vitreous China
 41
0.8
  7
SANINDUSA
 72
     4
 11
-119.231709526422
 21
15.22216495852308
 31
0.0
100
AcDbAttributeDefinition
  3
Nome do Material:
  2
MATERIAL
 70
     0
  0
ATTDEF
  5
BB3
330
B9E
100
AcDbEntity
  8
1
100
AcDbText
 10
-103.1563452122093
 20
14.38019043949261
 30
0.0
 40
2.0
  1
Branco
 41
0.8
  7
SANINDUSA
 72
     4
 11
-99.33418268702462
 21
15.35937109765245
 31
0.0
100
AcDbAttributeDefinition
  3
cor da peça
  2
COR
 70
     0
  0
ATTDEF
  5
BB4
330
B9E
100
AcDbEntity
  8
1
100
AcDbText
 10
-116.7235057085292
 20
5.975822699798522
 30
0.0
 40
2.0
  1
Vidrado
 41
0.8
  7
SANINDUSA
 72
     4
 11
-112.5
 21
7.0
 31
0.0
100
AcDbAttributeDefinition
  3
Tipo de acabamento:
  2
ACABAMENTO
 70
     0
  0
ATTDEF
  5
BB5
330
B9E
100
AcDbEntity
  8
1
100
AcDbText
 10
-79.18527869967246
 20
16.65066409850533
 30
0.0
 40
2.0
  1
XXXXXXX
 41
0.8
  7
SANINDUSA
 72
     4
 11
-73.90871724903445
 21
17.65066409850533
 31
0.0
100
AcDbAttributeDefinition
  3
Normas
  2
NORMAS
 70
     0
  0
ATTDEF
  5
BB6
330
B9E
100
AcDbEntity
  8
1
100
AcDbText
 10
-30.55312290127603
 20
14.0
 30
0.0
 40
2.0
  1
XXXXXXXXXXXXXX
 41
0.8
  7
SANINDUSA
 72
     4
 11
-20.0
 21
15.0
 31
0.0
100
AcDbAttributeDefinition
  3
Substitui o desenho:
  2
SUBSTITUI
 70
     0
  0
ATTDEF
  5
BB7
330
B9E
100
AcDbEntity
  8
1
100
AcDbText
 10
-31.30691739422431
 20
6.0
 30
0.0
 40
2.0
  1
XXXXXXXXXXXXXXX
 41
0.8
  7
SANINDUSA
 72
     4
 11
-20.0
 21
7.0
 31
0.0
100
AcDbAttributeDefinition
  3
Substituido por:
  2
SUBSTITUIDO
 70
     0
  0
ATTDEF
  5
BB8
330
B9E
100
AcDbEntity
  8
1
100
AcDbText
 10
-110.0220608548302
 20
1.478208457928303
 30
0.0
 40
2.0
  1
XXXXXXXXXXXXXXXXXXXXXXXXXXXXXXXXXX
 41
0.8
  7
SANINDUSA
 11
-110.0220608548302
 21
2.478208457928303
 31
0.0
100
AcDbAttributeDefinition
  3
Localização do desenho:
  2
LOC-DWG
 70
     0
 74
     2
  0
LINE
  5
BB9
330
B9E
100
AcDbEntity
  8
3
100
AcDbLine
 10
-135.0
 20
4.0
 30
0.0
 11
0.0000000000004547
 21
4.0
 31
0.0
  0
LINE
  5
BBA
330
B9E
100
AcDbEntity
  8
3
100
AcDbLine
 10
-90.00000000000046
 20
12.0
 30
0.0
 11
-135.0
 21
12.0
 31
0.0
  0
LINE
  5
BBB
330
B9E
100
AcDbEntity
  8
3
100
AcDbLine
 10
-135.0
 20
32.5
 30
0.0
 11
-40.0
 21
32.5
 31
0.0
  0
TEXT
  5
BBC
330
B9E
100
AcDbEntity
  8
1
100
AcDbText
 10
-134.0
 20
1.25
 30
0.0
 40
2.0
  1
Localização do des.:
 41
0.8
  7
SANINDUSA
 11
-134.0
 21
2.25
 31
0.0
100
AcDbText
 73
     2
  0
LINE
  5
BBD
330
B9E
100
AcDbEntity
  8
3
100
AcDbLine
 10
-180.0
 20
65.0
 30
0.0
 11
0.0
 21
65.0
 31
0.0
  0
LINE
  5
BBE
330
B9E
100
AcDbEntity
  8
leg fin
100
AcDbLine
 10
-40.0
 20
25.05956924886846
 30
0.0
 11
-135.0
 21
25.05956924886846
 31
0.0
  0
LINE
  5
BBF
330
B9E
100
AcDbEntity
  8
leg fin
100
AcDbLine
 10
-40.0
 20
28.5
 30
0.0
 11
-135.0
 21
28.5
 31
0.0
  0
LINE
  5
BC0
330
B9E
100
AcDbEntity
  8
3
100
AcDbLine
 10
-135.0
 20
50.0
 30
0.0
 11
-40.0
 21
50.0
 31
0.0
  0
TEXT
  5
BC1
330
B9E
100
AcDbEntity
  8
1
100
AcDbText
 10
-134.0
 20
29.75
 30
0.0
 40
2.0
  1
Desenho nº:
 41
0.8
  7
SANINDUSA
 11
-134.0
 21
30.75
 31
0.0
100
AcDbText
 73
     2
  0
TEXT
  5
BC2
330
B9E
100
AcDbEntity
  8
1
100
AcDbText
 10
-134.0
 20
9.25
 30
0.0
 40
2.0
  1
Acabamento:
 41
0.8
  7
SANINDUSA
 11
-134.0
 21
10.25
 31
0.0
100
AcDbText
 73
     2
  0
LINE
  5
BC3
330
B9E
100
AcDbEntity
  8
3
100
AcDbLine
 10
-180.0
 20
20.0
 30
0.0
 11
0.0
 21
20.0
 31
0.0
  0
LINE
  5
BC4
330
B9E
100
AcDbEntity
  8
1
100
AcDbLine
 10
-174.5810776056337
 20
55.5
 30
0.0
 11
-174.5810776056337
 21
65.0
 31
0.0
  0
LINE
  5
BC5
330
B9E
100
AcDbEntity
  8
1
100
AcDbLine
 10
-168.9210461879161
 20
55.5
 30
0.0
 11
-168.9210461879161
 21
65.0
 31
0.0
  0
LINE
  5
BC6
330
B9E
100
AcDbEntity
  8
1
100
AcDbLine
 10
-154.0988595589306
 20
55.5
 30
0.0
 11
-154.0988595589306
 21
65.0
 31
0.0
  0
LINE
  5
BC7
330
B9E
100
AcDbEntity
  8
3
100
AcDbLine
 10
-180.0
 20
65.0
 30
0.0
 11
-180.0
 21
0.0
 31
0.0
  0
LINE
  5
BC8
330
B9E
100
AcDbEntity
  8
3
100
AcDbLine
 10
-135.0
 20
0.0
 30
0.0
 11
-135.0
 21
65.0
 31
0.0
  0
TEXT
  5
BC9
330
B9E
100
AcDbEntity
  8
1
100
AcDbText
 10
-179.0
 20
9.75
 30
0.0
 40
1.5
  1
Des.
 41
0.8
  7
SANINDUSA
 11
-179.0
 21
10.5
 31
0.0
100
AcDbText
 73
     2
  0
LINE
  5
BCA
330
B9E
100
AcDbEntity
  8
1
100
AcDbLine
 10
-168.9210461879161
 20
20.0
 30
0.0
 11
-168.9210461879161
 21
0.0
 31
0.0
  0
LINE
  5
BCB
330
B9E
100
AcDbEntity
  8
1
100
AcDbLine
 10
-154.0988595589306
 20
20.0
 30
0.0
 11
-154.0988595589306
 21
0.0
 31
0.0
  0
LINE
  5
BCC
330
B9E
100
AcDbEntity
  8
1
100
AcDbLine
 10
-180.0
 20
4.0
 30
0.0
 11
-135.0
 21
4.0
 31
0.0
  0
LINE
  5
BCD
330
B9E
100
AcDbEntity
  8
1
100
AcDbLine
 10
-180.0
 20
8.0
 30
0.0
 11
-135.0
 21
8.0
 31
0.0
  0
TEXT
  5
BCE
330
B9E
100
AcDbEntity
  8
1
100
AcDbText
 10
-179.0
 20
1.73257823687436
 30
0.0
 40
1.5
  1
Aprov.
 41
0.8
  7
SANINDUSA
 11
-179.0
 21
2.48257823687436
 31
0.0
100
AcDbText
 73
     2
  0
TEXT
  5
BCF
330
B9E
100
AcDbEntity
  8
1
100
AcDbText
 10
-179.0
 20
5.75
 30
0.0
 40
1.5
  1
Ver.
 41
0.8
  7
SANINDUSA
 11
-179.0
 21
6.5
 31
0.0
100
AcDbText
 73
     2
  0
LINE
  5
BD0
330
B9E
100
AcDbEntity
  8
1
100
AcDbLine
 10
-180.0
 20
16.0
 30
0.0
 11
-135.0
 21
16.0
 31
0.0
  0
LINE
  5
BD1
330
B9E
100
AcDbEntity
  8
1
100
AcDbLine
 10
-180.0
 20
12.0
 30
0.0
 11
-135.0
 21
12.0
 31
0.0
  0
TEXT
  5
BD2
330
B9E
100
AcDbEntity
  8
1
100
AcDbText
 10
-179.0
 20
13.75
 30
0.0
 40
1.5
  1
Proj.
 41
0.8
  7
SANINDUSA
 11
-179.0
 21
14.5
 31
0.0
100
AcDbText
 73
     2
  0
TEXT
  5
BD3
330
B9E
100
AcDbEntity
  8
1
100
AcDbText
 10
-167.9210461879161
 20
17.75
 30
0.0
 40
1.5
  1
Data
 41
0.8
  7
SANINDUSA
 11
-167.9210461879161
 21
18.5
 31
0.0
100
AcDbText
 73
     2
  0
TEXT
  5
BD4
330
B9E
100
AcDbEntity
  8
1
100
AcDbText
 10
-153.0988595589306
 20
17.75
 30
0.0
 40
1.5
  1
Nome
 41
0.8
  7
SANINDUSA
 11
-153.0988595589306
 21
18.5
 31
0.0
100
AcDbText
 73
     2
  0
LINE
  5
BD5
330
B9E
100
AcDbEntity
  8
leg fin
100
AcDbLine
 10
-130.0
 20
20.0
 30
0.0
 11
-130.0
 21
28.5
 31
0.0
  0
TEXT
  5
BD6
330
B9E
100
AcDbEntity
  8
1
100
AcDbText
 10
-134.0
 20
17.25
 30
0.0
 40
2.0
  1
Material:
 41
0.8
  7
SANINDUSA
 11
-134.0
 21
18.25
 31
0.0
100
AcDbText
 73
     2
  0
TEXT
  5
BD7
330
B9E
100
AcDbEntity
  8
1
100
AcDbText
 10
-129.0
 20
26.43288406845113
 30
0.0
 40
1.5
  1
Ano:
 41
0.8
  7
SANINDUSA
 11
-129.0
 21
27.18288406845113
 31
0.0
100
AcDbText
 73
     2
  0
LINE
  5
BD8
330
B9E
100
AcDbEntity
  8
1
100
AcDbLine
 10
-180.0
 20
55.5
 30
0.0
 11
-135.0
 21
55.5
 31
0.0
  0
TEXT
  5
BD9
330
B9E
100
AcDbEntity
  8
1
100
AcDbText
 10
-179.0
 20
52.67772246885193
 30
0.0
 40
1.5
  1
descrição
 41
0.8
  7
SANINDUSA
 11
-179.0
 21
53.42772246885193
 31
0.0
100
AcDbText
 73
     2
  0
TEXT
  5
BDA
330
B9E
100
AcDbEntity
  8
1
100
AcDbText
 10
-134.0
 20
47.25
 30
0.0
 40
2.0
  1
Peça:
 41
0.8
  7
SANINDUSA
 11
-134.0
 21
48.25
 31
0.0
100
AcDbText
 73
     2
  0
LINE
  5
BDB
330
B9E
100
AcDbEntity
  8
1
100
AcDbLine
 10
-180.0
 20
59.5
 30
0.0
 11
-135.0
 21
59.5
 31
0.0
  0
TEXT
  5
BDC
330
B9E
100
AcDbEntity
  8
1
100
AcDbText
 10
-173.5810776056337
 20
62.75
 30
0.0
 40
1.5
  1
Alt.
 41
0.8
  7
SANINDUSA
 11
-173.5810776056337
 21
63.5
 31
0.0
100
AcDbText
 73
     2
  0
TEXT
  5
BDD
330
B9E
100
AcDbEntity
  8
1
100
AcDbText
 10
-179.0
 20
62.75
 30
0.0
 40
1.5
  1
Rev.
 41
0.8
  7
SANINDUSA
 11
-179.0
 21
63.5
 31
0.0
100
AcDbText
 73
     2
  0
TEXT
  5
BDE
330
B9E
100
AcDbEntity
  8
1
100
AcDbText
 10
-167.9210461879161
 20
62.75
 30
0.0
 40
1.5
  1
Data
 41
0.8
  7
SANINDUSA
 11
-167.9210461879161
 21
63.5
 31
0.0
100
AcDbText
 73
     2
  0
TEXT
  5
BDF
330
B9E
100
AcDbEntity
  8
1
100
AcDbText
 10
-153.0988595589306
 20
62.75
 30
0.0
 40
1.5
  1
Nome
 41
0.8
  7
SANINDUSA
 11
-153.0988595589306
 21
63.5
 31
0.0
100
AcDbText
 73
     2
  0
TEXT
  5
BE0
330
B9E
100
AcDbEntity
  8
1
100
AcDbText
 10
-134.0
 20
62.25
 30
0.0
 40
2.0
  1
Produto:
 41
0.8
  7
SANINDUSA
 11
-134.0
 21
63.25
 31
0.0
100
AcDbText
 73
     2
  0
LINE
  5
BE1
330
B9E
100
AcDbEntity
  8
3
100
AcDbLine
 10
-40.0
 20
4.0
 30
0.0
 11
-40.0
 21
65.0
 31
0.0
  0
LWPOLYLINE
  5
BE2
102
{ACAD_REACTORS
330
BEC
102
}
330
B9E
100
AcDbEntity
  8
9
100
AcDbPolyline
 90
       12
 70
     1
 43
0.0
 10
-3.038714600644652
 20
58.90010174665076
 10
-5.726962862472191
 20
58.90010174665076
 10
-5.726962862472191
 20
58.5001017466509
 10
-3.038748516195028
 20
58.5001017466509
 42
-0.4142135623731731
 10
-2.638748516194482
 20
58.1001017466508
 10
-2.638748516194482
 20
57.42799728675596
 10
-5.21497371544865
 20
57.42799728675596
 42
0.4142135623731289
 10
-6.014973715448377
 20
56.627997286756
 10
-6.014973715448377
 20
55.92380871629643
 42
0.4142135623731132
 10
-5.21497371544865
 20
55.12380871629648
 10
-2.23871460064447
 20
55.12380871629648
 10
-2.23871460064447
 20
58.10010174665103
 42
0.4142135623730717
  0
LWPOLYLINE
  5
BE3
102
{ACAD_REACTORS
330
BEC
102
}
330
B9E
100
AcDbEntity
  8
9
100
AcDbPolyline
 90
       20
 70
     1
 43
0.0
 10
-10.01531287095122
 20
57.82799728675581
 10
-10.01531287095122
 20
58.10010174665103
 42
-0.4142135623730744
 10
-9.615312870951584
 20
58.5001017466509
 10
-6.92703069357276
 20
58.5001017466509
 10
-6.92703069357276
 20
58.90010174665076
 10
-9.615346786501959
 20
58.90010174665076
 42
0.4142135623730883
 10
-10.41534678650168
 20
58.1001017466508
 10
-10.41534678650168
 20
57.82796337120567
 42
0.4142135623730717
 10
-9.615346786501959
 20
57.02796337120571
 10
-7.423079531965413
 20
57.02796337120571
 42
-0.4142135623730847
 10
-7.023079531965322
 20
56.62796337120562
 10
-7.023079531965322
 20
55.90786840766487
 42
-0.4142135623730744
 10
-7.423079531965413
 20
55.507868407665
 10
-10.41534678650168
 20
55.507868407665
 10
-10.41534678650168
 20
55.12380871629648
 10
-7.445787917283723
 20
55.12380871629648
 42
0.4114777732064574
 10
-6.645822882998345
 20
55.9163291493976
 10
-6.639238813324936
 20
56.62051771985716
 42
0.4169546541682913
 10
-7.439203847610315
 20
57.42799728675596
 10
-9.615312870951584
 20
57.42799728675596
 42
-0.4142135623731576
  0
LWPOLYLINE
  5
BE4
102
{ACAD_REACTORS
330
BEC
102
}
330
B9E
100
AcDbEntity
  8
9
100
AcDbPolyline
 90
       12
 70
     1
 43
0.0
 10
-14.41561811090378
 20
58.90010174665076
 10
-14.79964388672215
 20
58.90010174665076
 10
-14.79964388672215
 20
55.92380871629643
 42
0.4142135623731133
 10
-13.99964388672242
 20
55.12380871629648
 10
-11.8233508563676
 20
55.12380871629648
 42
0.4142135623730872
 10
-11.02335085636741
 20
55.92380871629643
 10
-11.02335085636741
 20
58.90010174665076
 10
-11.42338477191788
 20
58.90010174665076
 10
-11.42338477191788
 20
55.91567577726095
 42
-0.4131711701795318
 10
-11.82196067063523
 20
55.51567831234956
 10
-14.0141940096214
 20
55.50787335710947
 42
-0.4152567234624407
 10
-14.41561811090378
 20
55.90787082202087
  0
LWPOLYLINE
  5
BE5
102
{ACAD_REACTORS
330
BEC
102
}
330
B9E
100
AcDbEntity
  8
9
100
AcDbPolyline
 90
        6
 70
     1
 43
0.0
 10
-15.80771578768872
 20
55.507868407665
 10
-18.39994912667453
 20
55.507868407665
 42
-0.4142135623731731
 10
-18.79994912667462
 20
55.90786840766487
 10
-18.79994912667462
 20
58.10010174665103
 42
-0.4142135623730744
 10
-18.39994912667453
 20
58.5001017466509
 10
-15.80771578768872
 20
58.5001017466509
  0
LWPOLYLINE
  5
BE6
102
{ACAD_REACTORS
330
BEC
102
}
330
B9E
100
AcDbEntity
  8
9
100
AcDbPolyline
 90
        8
 70
     1
 43
0.0
 10
-15.4236900118708
 20
59.87619128370352
 10
-15.80771578768872
 20
59.87619128370352
 10
-15.80771578768872
 20
58.90010174665076
 10
-18.39176256411201
 20
58.90010174665076
 42
0.4131164467977967
 10
-19.19175694739761
 20
58.1030995310698
 10
-19.1999120763262
 20
55.92680650071542
 42
0.4153115297271718
 10
-18.39991769304061
 20
55.12380871629648
 10
-15.4236900118708
 20
55.12380871629648
  0
LWPOLYLINE
  5
BE7
102
{ACAD_REACTORS
330
BEC
102
}
330
B9E
100
AcDbEntity
  8
9
100
AcDbPolyline
 90
       10
 70
     1
 43
0.0
 10
-20.59201288790928
 20
58.90010174665076
 10
-23.56830591826338
 20
58.90010174665076
 10
-23.56830591826338
 20
55.12380871629648
 10
-23.18424622689509
 20
55.12380871629648
 10
-23.18424622689509
 20
58.5001017466509
 10
-20.59204680345965
 20
58.5001017466509
 42
-0.4142135623730898
 10
-20.19204680345956
 20
58.1001017466508
 10
-20.19204680345956
 20
55.12380871629648
 10
-19.79201288790909
 20
55.12380871629648
 10
-19.79201288790909
 20
58.10010174665103
 42
0.4142135623731132
  0
LWPOLYLINE
  5
BE8
102
{ACAD_REACTORS
330
BEC
102
}
330
B9E
100
AcDbEntity
  8
9
100
AcDbPolyline
 90
        4
 70
     1
 43
0.0
 10
-24.19231812786165
 20
58.90010174665076
 10
-24.57637781922995
 20
58.90010174665076
 10
-24.57637781922995
 20
55.12380871629648
 10
-24.19231812786165
 20
55.12380871629648
  0
LWPOLYLINE
  5
BE9
102
{ACAD_REACTORS
330
BEC
102
}
330
B9E
100
AcDbEntity
  8
9
100
AcDbPolyline
 90
       10
 70
     1
 43
0.0
 10
-28.57661522808212
 20
58.5001017466509
 10
-25.98444972019706
 20
58.5001017466509
 42
-0.4142135623731731
 10
-25.58444972019652
 20
58.1001017466508
 10
-25.58444972019652
 20
55.12380871629648
 10
-25.2004239443786
 20
55.12380871629648
 10
-25.2004239443786
 20
58.10010174665103
 42
0.4142135623730717
 10
-26.00042394437833
 20
58.90010174665076
 10
-28.97664914363259
 20
58.90010174665076
 10
-28.97664914363259
 20
55.12380871629648
 10
-28.57661522808212
 20
55.12380871629648
  0
LWPOLYLINE
  5
BEA
102
{ACAD_REACTORS
330
BEC
102
}
330
B9E
100
AcDbEntity
  8
9
100
AcDbPolyline
 90
       12
 70
     1
 43
0.0
 10
-29.58465321349832
 20
58.10010174665103
 42
0.4142135623730716
 10
-30.3846532134985
 20
58.90010174665076
 10
-33.07296930642724
 20
58.90010174665076
 10
-33.07296930642724
 20
58.5001017466509
 10
-30.38468712904842
 20
58.5001017466509
 42
-0.4142135623730067
 10
-29.98468712904878
 20
58.1001017466508
 10
-29.98468712904878
 20
57.42799728675618
 10
-32.56098015940324
 20
57.42799728675596
 42
0.4142135623731289
 10
-33.36098015940343
 20
56.627997286756
 10
-33.36098015940343
 20
55.92380871629643
 42
0.4142135623731132
 10
-32.56098015940324
 20
55.12380871629648
 10
-29.58465321349832
 20
55.12380871629648
  0
LWPOLYLINE
  5
BEB
102
{ACAD_REACTORS
330
BEC
102
}
330
B9E
100
AcDbEntity
  8
9
100
AcDbPolyline
 90
       20
 70
     1
 43
0.0
 10
-34.7850262845518
 20
57.42799728675596
 10
-36.96125148380543
 20
57.42799728675596
 42
-0.4142135623730898
 10
-37.36125148380552
 20
57.82799728675604
 10
-37.36125148380552
 20
58.10010174665103
 42
-0.4142135623730744
 10
-36.96125148380543
 20
58.5001017466509
 10
-34.27303713752781
 20
58.50010174665067
 10
-34.27303713752781
 20
58.90010174665076
 10
-36.96128539935535
 20
58.90010174665076
 42
0.4142135623731289
 10
-37.76128539935553
 20
58.1001017466508
 10
-37.76128539935553
 20
57.82796337120567
 42
0.4142135623730716
 10
-36.9612853993558
 20
57.02796337120571
 10
-34.76901814481926
 20
57.02796337120571
 42
-0.414213562373168
 10
-34.36901814481962
 20
56.62796337120562
 10
-34.36901814481962
 20
55.90786840766487
 42
-0.4142135623730744
 10
-34.76901814481926
 20
55.507868407665
 10
-37.76128539935553
 20
55.507868407665
 10
-37.76128539935553
 20
55.12380871629648
 10
-34.7850262845518
 20
55.12380871629648
 42
0.4142135623731289
 10
-33.98502628455162
 20
55.92380871629643
 10
-33.98502628455162
 20
56.627997286756
 42
0.4142135623731132
  0
HATCH
  5
BEC
330
B9E
100
AcDbEntity
  8
9
100
AcDbHatch
 10
0.0
 20
0.0
 30
0.0
210
0.0
220
0.0
230
1.0
  2
SOLID
 70
     1
 71
     1
 91
       13
 92
        7
 72
     1
 73
     1
 93
       20
 10
-34.36901814481962
 20
55.90786840766487
 42
-0.414213562372991
 10
-34.76901814481926
 20
55.507868407665
 42
0.0
 10
-37.76128539935553
 20
55.507868407665
 42
0.0
 10
-37.76128539935553
 20
55.12380871629648
 42
0.0
 10
-34.7850262845518
 20
55.12380871629648
 42
0.4142135623731705
 10
-33.98502628455162
 20
55.92380871629666
 42
0.0
 10
-33.98502628455162
 20
56.627997286756
 42
0.4142135623731547
 10
-34.7850262845518
 20
57.42799728675596
 42
0.0
 10
-36.96125148380543
 20
57.42799728675596
 42
-0.4142135623730898
 10
-37.36125148380552
 20
57.82799728675604
 42
0.0
 10
-37.36125148380552
 20
58.1001017466508
 42
-0.4142135623731575
 10
-36.96125148380543
 20
58.5001017466509
 42
0.0
 10
-34.27303713752781
 20
58.50010174665067
 42
0.0
 10
-34.27303713752781
 20
58.90010174665076
 42
0.0
 10
-36.96128539935535
 20
58.90010174665076
 42
0.4142135623731705
 10
-37.76128539935553
 20
58.10010174665058
 42
0.0
 10
-37.76128539935553
 20
57.82796337120544
 42
0.4142135623730299
 10
-36.9612853993558
 20
57.02796337120571
 42
0.0
 10
-34.76901814481926
 20
57.02796337120571
 42
-0.4142135623730015
 10
-34.36901814481962
 20
56.62796337120608
 42
0.0
 97
        1
330
BEB
 92
        7
 72
     1
 73
     1
 93
       12
 10
-33.36098015940343
 20
55.92380871629666
 42
0.4142135623731547
 10
-32.56098015940324
 20
55.12380871629648
 42
0.0
 10
-29.58465321349877
 20
55.12380871629648
 42
0.0
 10
-29.58465321349832
 20
58.10010174665058
 42
0.4142135623731964
 10
-30.3846532134985
 20
58.90010174665076
 42
0.0
 10
-33.07296930642724
 20
58.90010174665076
 42
0.0
 10
-33.07296930642724
 20
58.50010174665067
 42
0.0
 10
-30.38468712904887
 20
58.5001017466509
 42
-0.4142135623732564
 10
-29.98468712904878
 20
58.10010174665103
 42
0.0
 10
-29.98468712904923
 20
57.42799728675596
 42
0.0
 10
-32.56098015940324
 20
57.42799728675596
 42
0.4142135623731705
 10
-33.36098015940343
 20
56.627997286756
 42
0.0
 97
        1
330
BEA
 92
       22
 72
     1
 73
     1
 93
        6
 10
-32.97692046803468
 20
56.62796337120562
 42
-0.4142135623731576
 10
-32.57692046803459
 20
57.02796337120571
 42
0.0
 10
-29.98468712904878
 20
57.02796337120571
 42
0.0
 10
-29.98468712904878
 20
55.507868407665
 42
0.0
 10
-32.57692046803459
 20
55.507868407665
 42
-0.4142135623731731
 10
-32.97692046803468
 20
55.90786840766487
 42
0.0
 97
        1
330
C11
 92
        7
 72
     1
 73
     1
 93
       10
 10
-28.57661522808212
 20
58.5001017466509
 42
0.0
 10
-25.98444972019661
 20
58.5001017466509
 42
-0.4142135623730067
 10
-25.58444972019652
 20
58.10010174665058
 42
0.0
 10
-25.58444972019606
 20
55.12380871629648
 42
0.0
 10
-25.20042394437906
 20
55.12380871629648
 42
0.0
 10
-25.2004239443786
 20
58.1001017466508
 42
0.4142135623731134
 10
-26.00042394437833
 20
58.90010174665076
 42
0.0
 10
-28.97664914363259
 20
58.90010174665076
 42
0.0
 10
-28.97664914363259
 20
55.12380871629648
 42
0.0
 10
-28.57661522808212
 20
55.12380871629648
 42
0.0
 97
        1
330
BE9
 92
        7
 72
     0
 73
     1
 93
        4
 10
-24.57637781922995
 20
55.12380871629648
 10
-24.19231812786165
 20
55.12380871629648
 10
-24.19231812786165
 20
58.90010174665076
 10
-24.57637781922995
 20
58.90010174665076
 97
        1
330
BE8
 92
        7
 72
     0
 73
     1
 93
        4
 10
-24.19231812786165
 20
59.87619128370352
 10
-24.5763778192304
 20
59.87619128370352
 10
-24.5763778192304
 20
59.28412752246913
 10
-24.1923181278612
 20
59.28412752246913
 97
        1
330
C12
 92
        7
 72
     1
 73
     1
 93
       10
 10
-23.18424622689509
 20
58.5001017466509
 42
0.0
 10
-20.59204680345965
 20
58.5001017466509
 42
-0.4142135623730898
 10
-20.19204680345956
 20
58.1001017466508
 42
0.0
 10
-20.19204680345956
 20
55.12380871629648
 42
0.0
 10
-19.79201288790909
 20
55.12380871629648
 42
0.0
 10
-19.79201288790909
 20
58.1001017466508
 42
0.4142135623731547
 10
-20.59201288790928
 20
58.90010174665076
 42
0.0
 10
-23.56830591826338
 20
58.90010174665076
 42
0.0
 10
-23.56830591826338
 20
55.12380871629648
 42
0.0
 10
-23.18424622689463
 20
55.12380871629648
 42
0.0
 97
        1
330
BE7
 92
        7
 72
     1
 73
     1
 93
        8
 10
-19.1999120763262
 20
55.92680650071542
 42
0.4153115297271299
 10
-18.39991769304061
 20
55.12380871629648
 42
0.0
 10
-15.4236900118708
 20
55.12380871629648
 42
0.0
 10
-15.4236900118708
 20
59.87619128370352
 42
0.0
 10
-15.80771578768872
 20
59.87619128370352
 42
0.0
 10
-15.80771578768872
 20
58.90010174665076
 42
0.0
 10
-18.39176256411201
 20
58.90010174665076
 42
0.4131164467977965
 10
-19.19175694739761
 20
58.1030995310698
 42
0.0
 97
        1
330
BE6
 92
       22
 72
     1
 73
     1
 93
        6
 10
-18.79994912667462
 20
58.1001017466508
 42
-0.4142135623731575
 10
-18.39994912667453
 20
58.5001017466509
 42
0.0
 10
-15.80771578768872
 20
58.50010174665067
 42
0.0
 10
-15.80771578768827
 20
55.507868407665
 42
0.0
 10
-18.39994912667453
 20
55.507868407665
 42
-0.4142135623731731
 10
-18.79994912667462
 20
55.90786840766487
 42
0.0
 97
        1
330
BE5
 92
        7
 72
     1
 73
     1
 93
       12
 10
-14.79964388672215
 20
55.92380871629621
 42
0.4142135623729885
 10
-13.99964388672242
 20
55.12380871629648
 42
0.0
 10
-11.8233508563676
 20
55.12380871629648
 42
0.4142135623731289
 10
-11.02335085636741
 20
55.92380871629666
 42
0.0
 10
-11.02335085636741
 20
58.90010174665076
 42
0.0
 10
-11.42338477191788
 20
58.90010174665076
 42
0.0
 10
-11.42338477191788
 20
55.91567577726095
 42
-0.4131711701795319
 10
-11.82196067063523
 20
55.51567831234956
 42
0.0
 10
-14.01419400962095
 20
55.50787335710947
 42
-0.4152567234626918
 10
-14.41561811090378
 20
55.90787082202087
 42
0.0
 10
-14.41561811090378
 20
58.90010174665076
 42
0.0
 10
-14.7996438867226
 20
58.90010174665076
 42
0.0
 97
        1
330
BE4
 92
        7
 72
     1
 73
     1
 93
       20
 10
-7.423079531965413
 20
57.02796337120571
 42
-0.414213562373168
 10
-7.023079531965322
 20
56.62796337120562
 42
0.0
 10
-7.023079531965322
 20
55.90786840766487
 42
-0.4142135623731575
 10
-7.423079531965413
 20
55.507868407665
 42
0.0
 10
-10.41534678650168
 20
55.507868407665
 42
0.0
 10
-10.41534678650168
 20
55.12380871629648
 42
0.0
 10
-7.445787917283723
 20
55.12380871629648
 42
0.4114777732065809
 10
-6.645822882998345
 20
55.91632914939783
 42
0.0
 10
-6.639238813324936
 20
56.62051771985716
 42
0.4169546541682913
 10
-7.439203847610315
 20
57.42799728675596
 42
0.0
 10
-9.615312870951584
 20
57.42799728675596
 42
-0.4142135623729911
 10
-10.01531287095122
 20
57.82799728675581
 42
0.0
 10
-10.01531287095122
 20
58.10010174665103
 42
-0.414213562372991
 10
-9.615312870951584
 20
58.5001017466509
 42
0.0
 10
-6.92703069357276
 20
58.50010174665067
 42
0.0
 10
-6.927030693572305
 20
58.90010174665076
 42
0.0
 10
-9.615346786501959
 20
58.90010174665076
 42
0.4142135623730467
 10
-10.41534678650168
 20
58.10010174665103
 42
0.0
 10
-10.41534678650168
 20
57.82796337120544
 42
0.4142135623730301
 10
-9.615346786501959
 20
57.02796337120571
 42
0.0
 97
        1
330
BE3
 92
        7
 72
     1
 73
     1
 93
       12
 10
-5.21497371544865
 20
57.42799728675596
 42
0.4142135623730871
 10
-6.014973715448377
 20
56.627997286756
 42
0.0
 10
-6.014973715448377
 20
55.92380871629621
 42
0.4142135623730715
 10
-5.21497371544865
 20
55.12380871629648
 42
0.0
 10
-2.23871460064447
 20
55.12380871629648
 42
0.0
 10
-2.23871460064447
 20
58.10010174665058
 42
0.414213562373155
 10
-3.038714600644652
 20
58.90010174665076
 42
0.0
 10
-5.726962862471737
 20
58.90010174665076
 42
0.0
 10
-5.726962862472191
 20
58.5001017466509
 42
0.0
 10
-3.038748516194573
 20
58.5001017466509
 42
-0.4142135623730067
 10
-2.638748516194482
 20
58.10010174665058
 42
0.0
 10
-2.638748516194482
 20
57.42799728675596
 42
0.0
 97
        1
330
BE2
 92
       22
 72
     1
 73
     1
 93
        6
 10
-2.638748516194937
 20
57.02796337120571
 42
0.0
 10
-2.638748516194482
 20
55.50786840766477
 42
0.0
 10
-5.21497371544865
 20
55.507868407665
 42
-0.4142135623731731
 10
-5.614973715448741
 20
55.90786840766509
 42
0.0
 10
-5.614973715448741
 20
56.62796337120562
 42
-0.4142135623731576
 10
-5.21497371544865
 20
57.02796337120571
 42
0.0
 97
        1
330
C0D
 75
     0
 76
     1
 47
0.0407044778999864
 98
       13
 10
-34.18710075113677
 20
56.16907953933765
 10
-33.12851374392494
 20
56.49471602641233
 10
-33.12851374392494
 20
56.49471602641233
 10
-28.77202873835904
 20
57.51232930166111
 10
-24.41554807250941
 20
57.91937341678636
 10
-24.41554807250941
 20
59.384734621186
 10
-23.31624584658039
 20
58.3264175319116
 10
-19.04119127844888
 20
57.75655517324913
 10
-19.04119127844888
 20
57.75655517324913
 10
-14.64399105416578
 20
57.43091868617466
 10
-8.048195057457178
 20
57.22739662861204
 10
-4.017427461911665
 20
57.18669281458665
 10
-4.017427461911665
 20
57.18669281458665
  0
TEXT
  5
BED
330
B9E
100
AcDbEntity
  8
leg fin
100
AcDbText
 10
3.391127401597259
 20
2.107634911895729
 30
0.0
 40
1.5
  1
Este desenho é propriedade da Sanindusa, S.A., e não pode ser copiado nem divulgado sem nossa autorização.
 50
90.0
 41
0.8
  7
SANINDUSA
100
AcDbText
  0
LINE
  5
BEE
330
B9E
100
AcDbEntity
  8
3
100
AcDbLine
 10
-90.0
 20
4.0
 30
0.0
 11
-90.0
 21
12.0
 31
0.0
  0
TEXT
  5
BEF
330
B9E
100
AcDbEntity
  8
1
100
AcDbText
 10
-39.0
 20
9.25
 30
0.0
 40
2.0
  1
Substituido por:
 41
0.8
  7
SANINDUSA
 11
-39.0
 21
10.25
 31
0.0
100
AcDbText
 73
     2
  0
POINT
  5
BF0
330
B9E
100
AcDbEntity
  8
SANINDUSA
100
AcDbPoint
 10
0.0
 20
0.0
 30
0.0
  0
TEXT
  5
BF1
330
B9E
100
AcDbEntity
  8
1
100
AcDbText
 10
-89.0
 20
16.74927010445663
 30
0.0
 40
2.0
  1
Normas:
 41
0.8
  7
SANINDUSA
 11
-89.0
 21
17.74927010445663
 31
0.0
100
AcDbText
 73
     2
  0
LINE
  5
BF2
330
B9E
100
AcDbEntity
  8
3
100
AcDbLine
 10
-90.0
 20
12.0
 30
0.0
 11
-90.0
 21
20.0
 31
0.0
  0
LINE
  5
BF3
330
B9E
100
AcDbEntity
  8
3
100
AcDbLine
 10
-110.546019464768
 20
12.0
 30
0.0
 11
-110.546019464768
 21
20.0
 31
0.0
  0
TEXT
  5
BF4
330
B9E
100
AcDbEntity
  8
1
100
AcDbText
 10
-109.6177520618648
 20
17.25
 30
0.0
 40
2.0
  1
Cor:
 41
0.8
  7
SANINDUSA
 11
-109.6177520618648
 21
18.25
 31
0.0
100
AcDbText
 73
     2
  0
LINE
  5
BF5
330
B9E
100
AcDbEntity
  8
leg fin
100
AcDbLine
 10
-91.42857142857156
 20
20.0
 30
0.0
 11
-91.42857142857156
 21
28.5
 31
0.0
  0
LINE
  5
BF6
330
B9E
100
AcDbEntity
  8
leg fin
100
AcDbLine
 10
-104.2857142857142
 20
20.0
 30
0.0
 11
-104.2857142857142
 21
28.5
 31
0.0
  0
LINE
  5
BF7
330
B9E
100
AcDbEntity
  8
leg fin
100
AcDbLine
 10
-117.1428571428573
 20
20.0
 30
0.0
 11
-117.1428571428573
 21
28.5
 31
0.0
  0
POINT
  5
BF8
330
B9E
100
AcDbEntity
  8
SANINDUSA
100
AcDbPoint
 10
-117.1428571428573
 20
28.5
 30
0.0
  0
POINT
  5
BF9
330
B9E
100
AcDbEntity
  8
SANINDUSA
100
AcDbPoint
 10
-104.2857142857142
 20
28.5
 30
0.0
  0
POINT
  5
BFA
330
B9E
100
AcDbEntity
  8
SANINDUSA
100
AcDbPoint
 10
-91.42857142857156
 20
28.5
 30
0.0
  0
TEXT
  5
BFB
330
B9E
100
AcDbEntity
  8
1
100
AcDbText
 10
-116.200160604496
 20
26.43288406845113
 30
0.0
 40
1.5
  1
Nº Seq.:
 41
0.8
  7
SANINDUSA
 11
-116.200160604496
 21
27.18288406845113
 31
0.0
100
AcDbText
 73
     2
  0
TEXT
  5
BFC
330
B9E
100
AcDbEntity
  8
1
100
AcDbText
 10
-103.2106584078738
 20
26.43288406845113
 30
0.0
 40
1.5
  1
Tipo:
 41
0.8
  7
SANINDUSA
 11
-103.2106584078738
 21
27.18288406845113
 31
0.0
100
AcDbText
 73
     2
  0
TEXT
  5
BFD
330
B9E
100
AcDbEntity
  8
1
100
AcDbText
 10
-90.22114672289353
 20
26.43288406845113
 30
0.0
 40
1.5
  1
Prod.:
 41
0.8
  7
SANINDUSA
 11
-90.22114672289353
 21
27.18288406845113
 31
0.0
100
AcDbText
 73
     2
  0
TEXT
  5
BFE
330
B9E
100
AcDbEntity
  8
1
100
AcDbText
 10
-64.77320576346574
 20
26.43288406845113
 30
0.0
 40
1.5
  1
Rev.:
 41
0.8
  7
SANINDUSA
 11
-64.77320576346574
 21
27.18288406845113
 31
0.0
100
AcDbText
 73
     2
  0
LINE
  5
BFF
330
B9E
100
AcDbEntity
  8
leg fin
100
AcDbLine
 10
-52.85714285714266
 20
20.0
 30
0.0
 11
-52.85714285714266
 21
28.5
 31
0.0
  0
LINE
  5
C00
330
B9E
100
AcDbEntity
  8
leg fin
100
AcDbLine
 10
-65.71428571428578
 20
20.0
 30
0.0
 11
-65.71428571428578
 21
28.5
 31
0.0
  0
LINE
  5
C01
330
B9E
100
AcDbEntity
  8
leg fin
100
AcDbLine
 10
-78.57142857142844
 20
20.0
 30
0.0
 11
-78.57142857142844
 21
28.5
 31
0.0
  0
POINT
  5
C02
330
B9E
100
AcDbEntity
  8
SANINDUSA
100
AcDbPoint
 10
-78.57142857142844
 20
28.5
 30
0.0
  0
POINT
  5
C03
330
B9E
100
AcDbEntity
  8
SANINDUSA
100
AcDbPoint
 10
-65.71428571428578
 20
28.5
 30
0.0
  0
POINT
  5
C04
330
B9E
100
AcDbEntity
  8
SANINDUSA
100
AcDbPoint
 10
-52.85714285714266
 20
28.5
 30
0.0
  0
TEXT
  5
C05
330
B9E
100
AcDbEntity
  8
1
100
AcDbText
 10
-77.61097961686573
 20
26.43288406845113
 30
0.0
 40
1.5
  1
Peça:
 41
0.8
  7
SANINDUSA
 11
-77.61097961686573
 21
27.18288406845113
 31
0.0
100
AcDbText
 73
     2
  0
TEXT
  5
C06
330
B9E
100
AcDbEntity
  8
1
100
AcDbText
 10
-52.06538060077036
 20
26.43288406845113
 30
0.0
 40
1.5
  1
Alt.:
 41
0.8
  7
SANINDUSA
 11
-52.06538060077036
 21
27.18288406845113
 31
0.0
100
AcDbText
 73
     2
  0
LINE
  5
C07
330
B9E
100
AcDbEntity
  8
3
100
AcDbLine
 10
0.0
 20
12.0
 30
0.0
 11
-40.0
 21
12.0
 31
0.0
  0
LINE
  5
C08
330
B9E
100
AcDbEntity
  8
3
100
AcDbLine
 10
-40.0
 20
32.5
 30
0.0
 11
0.0
 21
32.5
 31
0.0
  0
TEXT
  5
C09
330
B9E
100
AcDbEntity
  8
1
100
AcDbText
 10
-19.0
 20
29.75
 30
0.0
 40
2.0
  1
Folha:
 41
0.8
  7
SANINDUSA
 11
-19.0
 21
30.75
 31
0.0
100
AcDbText
 73
     2
  0
LINE
  5
C0A
330
B9E
100
AcDbEntity
  8
3
100
AcDbLine
 10
-20.0
 20
32.5
 30
0.0
 11
-20.0
 21
20.0
 31
0.0
  0
TEXT
  5
C0B
330
B9E
100
AcDbEntity
  8
1
100
AcDbText
 10
-39.0
 20
29.75
 30
0.0
 40
2.0
  1
Escala:
 41
0.8
  7
SANINDUSA
 11
-39.0
 21
30.75
 31
0.0
100
AcDbText
 73
     2
  0
TEXT
  5
C0C
330
B9E
100
AcDbEntity
  8
1
100
AcDbText
 10
-39.0
 20
17.25
 30
0.0
 40
2.0
  1
Substitui:
 41
0.8
  7
SANINDUSA
 11
-39.0
 21
18.25
 31
0.0
100
AcDbText
 73
     2
  0
LWPOLYLINE
  5
C0D
102
{ACAD_REACTORS
330
BEC
102
}
330
B9E
100
AcDbEntity
  8
9
100
AcDbPolyline
 90
        6
 70
     1
 43
0.0
 10
-2.638748516194482
 20
57.02796337120571
 10
-2.638748516194482
 20
55.50786840766477
 10
-5.21497371544865
 20
55.507868407665
 42
-0.4142135623730898
 10
-5.614973715448741
 20
55.90786840766487
 10
-5.614973715448741
 20
56.62796337120562
 42
-0.4142135623731576
 10
-5.21497371544865
 20
57.02796337120571
  0
LINE
  5
C0E
330
B9E
100
AcDbEntity
  8
3
100
AcDbLine
 10
-40.0
 20
50.0
 30
0.0
 11
0.0
 21
50.0
 31
0.0
  0
ATTDEF
  5
C0F
330
B9E
100
AcDbEntity
  8
1
100
AcDbText
 10
-31.30691739422431
 20
40.25
 30
0.0
 40
2.0
  1
XXXXXXXXXXXXXXX
 41
0.8
  7
SANINDUSA
 72
     4
 11
-20.0
 21
41.25
 31
0.0
100
AcDbAttributeDefinition
  3
Observações:
  2
OBS
 70
     0
  0
TEXT
  5
C10
330
B9E
100
AcDbEntity
  8
1
100
AcDbText
 10
-39.0
 20
47.25
 30
0.0
 40
2.0
  1
Observações:
 41
0.8
  7
SANINDUSA
 11
-39.0
 21
48.25
 31
0.0
100
AcDbText
 73
     2
  0
LWPOLYLINE
  5
C11
102
{ACAD_REACTORS
330
BEC
102
}
330
B9E
100
AcDbEntity
  8
9
100
AcDbPolyline
 90
        6
 70
     1
 43
0.0
 10
-29.98468712904878
 20
57.02796337120571
 10
-29.98468712904878
 20
55.507868407665
 10
-32.57692046803459
 20
55.507868407665
 42
-0.4142135623731731
 10
-32.97692046803468
 20
55.90786840766487
 10
-32.97692046803468
 20
56.62796337120562
 42
-0.4142135623731576
 10
-32.57692046803459
 20
57.02796337120571
  0
LWPOLYLINE
  5
C12
102
{ACAD_REACTORS
330
BEC
102
}
330
B9E
100
AcDbEntity
  8
9
100
AcDbPolyline
 90
        4
 70
     1
 43
0.0
 10
-24.19231812786165
 20
59.87619128370352
 10
-24.57637781922995
 20
59.87619128370352
 10
-24.57637781922995
 20
59.28412752246913
 10
-24.19231812786165
 20
59.28412752246913
  0
ENDBLK
  5
C14
330
B9E
100
AcDbEntity
  8
0
100
AcDbBlockEnd
  0
ENDSEC
  0
SECTION
  2
ENTITIES
  0
ARC
  5
1B72
330
1F
100
AcDbEntity
  8
SANINDUSA
100
AcDbCircle
 10
5061.256280211786
 20
2543.178996454947
 30
0.0
 40
0.0050010774106191
100
AcDbArc
 50
90.02106659422198
 51
179.9789334057684
  0
LINE
  5
1B73
330
1F
100
AcDbEntity
  8
SANINDUSA
100
AcDbLine
 10
5061.256278372983
 20
2543.18399753202
 30
0.0
 11
5061.946588632333
 21
2543.18399753202
 31
0.0
  0
ARC
  5
1B77
330
1F
100
AcDbEntity
  8
SANINDUSA
100
AcDbCircle
 10
5061.946586770798
 20
2543.178996450119
 30
0.0
 40
0.0050010822472825
100
AcDbArc
 50
0.0211218831584025
 51
89.97867295893819
  0
LINE
  5
1B79
330
1F
100
AcDbEntity
  8
SANINDUSA
100
AcDbLine
 10
5061.951587852704
 20
2543.17899829375
 30
0.0
 11
5061.951587852704
 21
2542.4886880344
 31
0.0
  0
LINE
  5
1B7B
330
1F
100
AcDbEntity
  8
SANINDUSA
100
AcDbLine
 10
5061.251279134713
 20
2542.4886880344
 30
0.0
 11
5061.251279134713
 21
2543.17899829375
 31
0.0
  0
ELLIPSE
  5
1B87
330
1F
100
AcDbEntity
  8
SANINDUSA
100
AcDbEllipse
 10
5061.899297073591
 20
2543.131706763134
 30
0.0
 11
0.0079343406248555
 21
0.0079343406248555
 31
0.0
210
0.0
220
0.0
230
1.0
 40
0.8911979137515642
 41
5.519407516233534
 42
7.046963098125666
  0
LINE
  5
1B8A
330
1F
100
AcDbEntity
  8
SANINDUSA
100
AcDbLine
 10
5061.900136765706
 20
2543.142327906027
 30
0.0
 11
5061.302730236817
 21
2543.142327906027
 31
0.0
  0
ELLIPSE
  5
1B8C
330
1F
100
AcDbEntity
  8
SANINDUSA
100
AcDbEllipse
 10
5061.303569903599
 20
2543.131706763134
 30
0.0
 11
0.0079343406248555
 21
-0.0079343406248555
 31
0.0
210
0.0
220
0.0
230
1.0
 40
0.8911979137515597
 41
2.377814862643725
 42
3.905370444535889
  0
LINE
  5
1B8E
330
1F
100
AcDbEntity
  8
SANINDUSA
100
AcDbLine
 10
5061.292948760706
 20
2543.132546429917
 30
0.0
 11
5061.292948760706
 21
2542.535139901027
 31
0.0
  0
LINE
  5
1B90
330
1F
100
AcDbEntity
  8
SANINDUSA
100
AcDbLine
 10
5061.909918245542
 20
2542.535139901027
 30
0.0
 11
5061.909918245542
 21
2543.132546429917
 31
0.0
  0
ELLIPSE
  5
1B92
330
1F
100
AcDbEntity
  8
SANINDUSA
100
AcDbEllipse
 10
5061.303569903599
 20
2542.535979593142
 30
0.0
 11
0.0079343406248555
 21
0.0079343406248555
 31
0.0
210
0.0
220
0.0
230
0.9999999999999998
 40
0.8911979137515533
 41
2.377814862643709
 42
3.905370444535897
  0
ELLIPSE
  5
1B95
330
1F
100
AcDbEntity
  8
SANINDUSA
100
AcDbEllipse
 10
5061.899297073591
 20
2542.535979593142
 30
0.0
 11
-0.0079343406248553
 21
0.0079343406248554
 31
0.0
210
0.0
220
0.0
230
0.9999999999999998
 40
0.8911979137515787
 41
2.377814862643728
 42
3.905370444535875
  0
LINE
  5
1B96
330
1F
100
AcDbEntity
  8
SANINDUSA
100
AcDbLine
 10
5061.302730236817
 20
2542.525358421191
 30
0.0
 11
5061.900136765706
 21
2542.525358421191
 31
0.0
  0
LINE
  5
1B98
330
1F
100
AcDbEntity
  8
SANINDUSA
100
AcDbLine
 10
5061.946588632333
 20
2542.483688814029
 30
0.0
 11
5061.256278372983
 21
2542.483688814029
 31
0.0
  0
ARC
  5
1B9A
330
1F
100
AcDbEntity
  8
SANINDUSA
100
AcDbCircle
 10
5061.946586765969
 20
2542.488689900765
 30
0.0
 40
0.0050010870840302
100
AcDbArc
 50
270.0213823299983
 51
359.9786176960568
  0
ARC
  5
1B9B
330
1F
100
AcDbEntity
  8
SANINDUSA
100
AcDbCircle
 10
5061.256280216615
 20
2542.488689895936
 30
0.0
 40
0.0050010822472946
100
AcDbArc
 50
180.0213270671072
 51
269.9788781168416
  0
ARC
  5
1BA3
330
1F
100
AcDbEntity
  8
SANINDUSA
100
AcDbCircle
 10
5061.87822337791
 20
2542.557053288824
 30
0.0
 40
0.0103220700601642
100
AcDbArc
 50
272.9272239588936
 51
357.0727760150853
  0
LWPOLYLINE
  5
1BA9
330
1F
100
AcDbEntity
  8
SANINDUSA
100
AcDbPolyline
 90
        5
 70
   128
 43
0.0
 10
5061.323413592446
 20
2543.121646029338
 10
5061.462581497299
 20
2543.121635494216
 10
5061.601433482636
 20
2543.12161680071
 10
5061.74044343518
 20
2543.121635524019
 10
5061.879453357923
 20
2543.121646029338
  0
LWPOLYLINE
  5
1BAB
330
1F
100
AcDbEntity
  8
SANINDUSA
100
AcDbPolyline
 90
       11
 70
   128
 43
0.0
 10
5061.889271852243
 20
2543.111900044068
 10
5061.888789352643
 20
2542.972659957989
 10
5061.888312992323
 20
2542.833826763019
 10
5061.888025936354
 20
2542.764530522212
 10
5061.887706276643
 20
2542.695237380847
 10
5061.887612637747
 20
2542.672094029769
 10
5061.887567397821
 20
2542.648926002368
 10
5061.887603637445
 20
2542.62575916706
 10
5061.887754437196
 20
2542.602619630679
 10
5061.888052818048
 20
2542.579533321246
 10
5061.888531979787
 20
2542.556526166781
  0
LWPOLYLINE
  5
1BAC
330
1F
100
AcDbEntity
  8
SANINDUSA
100
AcDbPolyline
 90
       11
 70
   128
 43
0.0
 10
5061.314335022736
 20
2542.556526166781
 10
5061.31481284337
 20
2542.579453570231
 10
5061.315111105013
 20
2542.602459771022
 10
5061.315262530612
 20
2542.625519019946
 10
5061.315299828219
 20
2542.648605448588
 10
5061.315255720782
 20
2542.671693128928
 10
5061.315162923801
 20
2542.694756252154
 10
5061.314842213559
 20
2542.764289957866
 10
5061.314553965497
 20
2542.833826763019
 10
5061.314077620077
 20
2542.972659957989
 10
5061.313595146555
 20
2543.111900044068
  0
LWPOLYLINE
  5
1BAE
330
1F
100
AcDbEntity
  8
SANINDUSA
100
AcDbPolyline
 90
       10
 70
   128
 43
0.0
 10
5061.878481027353
 20
2542.546961051807
 10
5061.818939384687
 20
2542.547112626418
 10
5061.763390895593
 20
2542.54727755247
 10
5061.707839426267
 20
2542.547463042124
 10
5061.652288046349
 20
2542.547606331691
 10
5061.596739676463
 20
2542.547644538268
 10
5061.541197326648
 20
2542.547515017375
 10
5061.471777406204
 20
2542.54729680477
 10
5061.402352017033
 20
2542.547153634413
 10
5061.324385930467
 20
2542.546961051807
  0
ARC
  5
1BC0
330
1F
100
AcDbEntity
  8
SANINDUSA
100
AcDbCircle
 10
5061.324002438651
 20
2543.111314531591
 30
0.0
 40
0.0103482648572038
100
AcDbArc
 50
93.26205759323084
 51
176.937181511228
  0
ARC
  5
1BC1
330
1F
100
AcDbEntity
  8
SANINDUSA
100
AcDbCircle
 10
5061.878864563927
 20
2543.111314575744
 30
0.0
 40
0.0103482178042501
100
AcDbArc
 50
3.062587599409183
 51
86.73821710798767
  0
ARC
  5
1BC2
330
1F
100
AcDbEntity
  8
SANINDUSA
100
AcDbCircle
 10
5061.325293662696
 20
2542.55737734983
 30
0.0
 40
0.010455775547878
100
AcDbArc
 50
184.1528819796616
 51
265.0195199854353
  0
ARC
  5
1FDB
330
1F
100
AcDbEntity
  8
SANINDUSA
100
AcDbCircle
 10
5061.801941705716
 20
2542.774327008602
 30
0.0
 40
0.0025897462316302
100
AcDbArc
 50
0.0
 51
90.00431003530019
  0
LWPOLYLINE
  5
1FE7
330
1F
100
AcDbEntity
  8
SANINDUSA
100
AcDbPolyline
 90
        3
 70
   128
 43
0.0
 10
5061.790945586431
 20
2542.77691961585
 10
5061.79894530462
 20
2542.776917470082
 10
5061.801941510903
 20
2542.776916754827
  0
LWPOLYLINE
  5
1FEA
330
1F
100
AcDbEntity
  8
SANINDUSA
100
AcDbPolyline
 90
        3
 70
   128
 43
0.0
 10
5061.804531451929
 20
2542.774327320441
 10
5061.804532107579
 20
2542.766330761298
 10
5061.804532345998
 20
2542.763335925921
  0
ARC
  5
1FF1
330
1F
100
AcDbEntity
  8
SANINDUSA
100
AcDbCircle
 10
5061.790944502747
 20
2542.774331473932
 30
0.0
 40
0.0025881421443697
100
AcDbArc
 50
89.97600960600825
 51
179.9877074102974
  0
LWPOLYLINE
  5
1FF4
330
1F
100
AcDbEntity
  8
SANINDUSA
100
AcDbPolyline
 90
        3
 70
   128
 43
0.0
 10
5061.788356837499
 20
2542.763341141327
 10
5061.788356479872
 20
2542.771337283238
 10
5061.788356360661
 20
2542.774332029208
  0
ARC
  5
1FFD
330
1F
100
AcDbEntity
  8
SANINDUSA
100
AcDbCircle
 10
5061.801944270854
 20
2542.76333680182
 30
0.0
 40
0.0025880752919674
100
AcDbArc
 50
269.9784856748446
 51
359.9806090356752
  0
LWPOLYLINE
  5
2001
330
1F
100
AcDbEntity
  8
SANINDUSA
100
AcDbPolyline
 90
        3
 70
   128
 43
0.0
 10
5061.801943299043
 20
2542.76074872671
 10
5061.793943580854
 20
2542.760751051292
 10
5061.790946838129
 20
2542.760751975163
  0
ARC
  5
2008
330
1F
100
AcDbEntity
  8
SANINDUSA
100
AcDbCircle
 10
5061.790946667375
 20
2542.763341805119
 30
0.0
 40
0.0025898299609932
100
AcDbArc
 50
180.0146854123408
 51
270.0037776253037
  0
CIRCLE
  5
213D
330
1F
100
AcDbEntity
  8
SANINDUSA
100
AcDbCircle
 10
5061.601433488596
 20
2542.653843178138
 30
0.0
 40
0.045297545258413
  0
CIRCLE
  5
213E
330
1F
100
AcDbEntity
  8
SANINDUSA
100
AcDbCircle
 10
5061.601433488596
 20
2542.653843178138
 30
0.0
 40
0.0349999999999999
  0
LINE
  5
21C7
330
1F
100
AcDbEntity
  8
SANINDUSA
100
AcDbLine
 10
5062.872788492728
 20
2542.948367954597
 30
0.0
 11
5062.875426951933
 21
2542.797210886508
 31
0.0
  0
LINE
  5
21C9
330
1F
100
AcDbEntity
  8
SANINDUSA
100
AcDbLine
 10
5062.870427671957
 20
2542.797210886508
 30
0.0
 11
5062.875426951933
 21
2542.797210886508
 31
0.0
  0
LINE
  5
21CC
330
1F
100
AcDbEntity
  8
SANINDUSA
100
AcDbLine
 10
5062.169841318296
 20
2542.797210886508
 30
0.0
 11
5062.172479774737
 21
2542.948367954597
 31
0.0
  0
LINE
  5
21CD
330
1F
100
AcDbEntity
  8
SANINDUSA
100
AcDbLine
 10
5062.169841318296
 20
2542.797210886508
 30
0.0
 11
5062.174840556595
 21
2542.797210886508
 31
0.0
  0
LINE
  5
21CF
330
1F
100
AcDbEntity
  8
SANINDUSA
100
AcDbLine
 10
5062.174840556595
 20
2542.797210886508
 30
0.0
 11
5062.870427671957
 21
2542.797210886508
 31
0.0
  0
LINE
  5
21D0
330
1F
100
AcDbEntity
  8
SANINDUSA
100
AcDbLine
 10
5062.181478403646
 20
2542.957210882932
 30
0.0
 11
5062.863789860297
 21
2542.957210882932
 31
0.0
  0
ARC
  5
21D3
330
1F
100
AcDbEntity
  8
SANINDUSA
100
AcDbCircle
 10
5062.863789853251
 20
2542.948210882931
 30
0.0
 40
0.0090000000000001
100
AcDbArc
 50
1.000000009720081
 51
90.0
  0
ARC
  5
21D4
330
1F
100
AcDbEntity
  8
SANINDUSA
100
AcDbCircle
 10
5062.181478403987
 20
2542.948210882931
 30
0.0
 40
0.0090000000000001
100
AcDbArc
 50
90.0
 51
178.9999999902799
  0
LWPOLYLINE
  5
21E6
330
1F
100
AcDbEntity
  8
SANINDUSA
100
AcDbPolyline
 90
        3
 70
   128
 43
0.0
 10
5064.628848347656
 20
2542.827279373437
 10
5064.637290689937
 20
2542.82806323412
 10
5064.645695660106
 20
2542.829838483959
  0
LINE
  5
21E8
330
1F
100
AcDbEntity
  8
SANINDUSA
100
AcDbLine
 10
5064.4501110351
 20
2542.82801318112
 30
0.0
 11
5064.478848341695
 21
2542.827280729443
 31
0.0
  0
LWPOLYLINE
  5
21E9
330
1F
100
AcDbEntity
  8
SANINDUSA
100
AcDbPolyline
 90
        3
 70
   128
 43
0.0
 10
5064.385131958715
 20
2542.829669579297
 10
5064.392350528232
 20
2542.829485520154
 10
5064.427372220746
 20
2542.828592746884
  0
LINE
  5
21EA
330
1F
100
AcDbEntity
  8
SANINDUSA
100
AcDbLine
 10
5064.320153061143
 20
2542.831326364904
 30
0.0
 11
5064.362393412582
 21
2542.830249621898
 31
0.0
  0
LINE
  5
21EB
330
1F
100
AcDbEntity
  8
SANINDUSA
100
AcDbLine
 10
5064.255174178473
 20
2542.832982994049
 30
0.0
 11
5064.297414544813
 21
2542.8319063479
 31
0.0
  0
LINE
  5
21EC
330
1F
100
AcDbEntity
  8
SANINDUSA
100
AcDbLine
 10
5064.190195355407
 20
2542.834639921218
 30
0.0
 11
5064.232435617438
 21
2542.833562962144
 31
0.0
  0
LINE
  5
21ED
330
1F
100
AcDbEntity
  8
SANINDUSA
100
AcDbLine
 10
5064.105127874604
 20
2542.836808822483
 30
0.0
 11
5064.167456764571
 21
2542.835219516784
 31
0.0
  0
LINE
  5
220D
330
1F
100
AcDbEntity
  8
SANINDUSA
100
AcDbLine
 10
5064.190093431465
 20
2542.830641224414
 30
0.0
 11
5064.232333633891
 21
2542.829564272791
 31
0.0
  0
LINE
  5
2211
330
1F
100
AcDbEntity
  8
SANINDUSA
100
AcDbLine
 10
5064.255072194925
 20
2542.828984304696
 30
0.0
 11
5064.297312591068
 21
2542.827907651096
 31
0.0
  0
LINE
  5
2215
330
1F
100
AcDbEntity
  8
SANINDUSA
100
AcDbLine
 10
5064.320051017991
 20
2542.827327668101
 30
0.0
 11
5064.362291458837
 21
2542.826250910192
 31
0.0
  0
LWPOLYLINE
  5
2219
330
1F
100
AcDbEntity
  8
SANINDUSA
100
AcDbPolyline
 90
        3
 70
   128
 43
0.0
 10
5064.385029975167
 20
2542.825670882493
 10
5064.408424798242
 20
2542.825074612528
 10
5064.427270147792
 20
2542.82459405008
  0
LINE
  5
221D
330
1F
100
AcDbEntity
  8
SANINDUSA
100
AcDbLine
 10
5064.450009319774
 20
2542.824014469415
 30
0.0
 11
5064.478728357546
 21
2542.823282494575
 31
0.0
  0
LWPOLYLINE
  5
221E
330
1F
100
AcDbEntity
  8
SANINDUSA
100
AcDbPolyline
 90
        3
 70
   128
 43
0.0
 10
5064.62899354457
 20
2542.823282002836
 10
5064.637890968314
 20
2542.824108525544
 10
5064.646748993388
 20
2542.825979679256
  0
LINE
  5
221F
330
1F
100
AcDbEntity
  8
SANINDUSA
100
AcDbLine
 10
5064.105025920859
 20
2542.832810118228
 30
0.0
 11
5064.167354840628
 21
2542.83122081998
 31
0.0
  0
ARC
  5
2221
330
1F
100
AcDbEntity
  8
SANINDUSA
100
AcDbCircle
 10
5064.691136384881
 20
2542.948210882931
 30
0.0
 40
0.0090000000000001
100
AcDbArc
 50
90.0
 51
168.0000000087166
  0
LINE
  5
2222
330
1F
100
AcDbEntity
  8
SANINDUSA
100
AcDbLine
 10
5064.691136393538
 20
2542.957210882932
 30
0.0
 11
5064.715004060261
 21
2542.957210882932
 31
0.0
  0
ARC
  5
2223
330
1F
100
AcDbEntity
  8
SANINDUSA
100
AcDbCircle
 10
5064.715004053215
 20
2542.948210882931
 30
0.0
 40
0.0090000000000001
100
AcDbArc
 50
1.000000009720081
 51
90.0
  0
LINE
  5
2224
330
1F
100
AcDbEntity
  8
SANINDUSA
100
AcDbLine
 10
5064.724002692691
 20
2542.948367954597
 30
0.0
 11
5064.726641151897
 21
2542.797210886508
 31
0.0
  0
LINE
  5
2225
330
1F
100
AcDbEntity
  8
SANINDUSA
100
AcDbLine
 10
5064.726641151897
 20
2542.797210886508
 30
0.0
 11
5064.722640547744
 21
2542.797210886508
 31
0.0
  0
LINE
  5
2226
330
1F
100
AcDbEntity
  8
SANINDUSA
100
AcDbLine
 10
5064.720003280632
 20
2542.948298144519
 30
0.0
 11
5064.722640547744
 21
2542.797210886508
 31
0.0
  0
ARC
  5
2227
330
1F
100
AcDbEntity
  8
SANINDUSA
100
AcDbCircle
 10
5064.715004053215
 20
2542.948210882931
 30
0.0
 40
0.005
100
AcDbArc
 50
1.000000009720081
 51
90.0
  0
LINE
  5
2228
330
1F
100
AcDbEntity
  8
SANINDUSA
100
AcDbLine
 10
5064.691136393538
 20
2542.953210882742
 30
0.0
 11
5064.715004060261
 21
2542.953210882742
 31
0.0
  0
ARC
  5
2229
330
1F
100
AcDbEntity
  8
SANINDUSA
100
AcDbCircle
 10
5064.691136384881
 20
2542.948210882931
 30
0.0
 40
0.005
100
AcDbArc
 50
90.0
 51
168.0000000087166
  0
LINE
  5
222A
330
1F
100
AcDbEntity
  8
SANINDUSA
100
AcDbLine
 10
5064.686245653621
 20
2542.949250441409
 30
0.0
 11
5064.663904283039
 21
2542.84414263758
 31
0.0
  0
ARC
  5
222B
330
1F
100
AcDbEntity
  8
SANINDUSA
100
AcDbCircle
 10
5064.640428760469
 20
2542.849132511957
 30
0.0
 40
0.0239999792960801
100
AcDbArc
 50
285.2685326017486
 51
348.0000046382527
  0
LINE
  5
222C
330
1F
100
AcDbEntity
  8
SANINDUSA
100
AcDbLine
 10
5064.600941333762
 20
2542.822303324371
 30
0.0
 11
5064.62899354457
 21
2542.823282926708
 31
0.0
  0
LINE
  5
222D
330
1F
100
AcDbEntity
  8
SANINDUSA
100
AcDbLine
 10
5064.590587589733
 20
2542.811200305253
 30
0.0
 11
5064.600941333762
 21
2542.822303324371
 31
0.0
  0
LINE
  5
222E
330
1F
100
AcDbEntity
  8
SANINDUSA
100
AcDbLine
 10
5064.517109069816
 20
2542.811200305253
 30
0.0
 11
5064.590587589733
 21
2542.811200305253
 31
0.0
  0
LINE
  5
222F
330
1F
100
AcDbEntity
  8
SANINDUSA
100
AcDbLine
 10
5064.506755325786
 20
2542.822303324371
 30
0.0
 11
5064.517109069816
 21
2542.811200305253
 31
0.0
  0
LINE
  5
2230
330
1F
100
AcDbEntity
  8
SANINDUSA
100
AcDbLine
 10
5064.478728297941
 20
2542.82328204754
 30
0.0
 11
5064.506755325786
 21
2542.822303324371
 31
0.0
  0
ARC
  5
2231
330
1F
100
AcDbEntity
  8
SANINDUSA
100
AcDbCircle
 10
5064.450212788899
 20
2542.83201193417
 30
0.0
 40
0.008000052636912
100
AcDbArc
 50
217.2250536133366
 51
268.5426121522166
  0
LINE
  5
2232
330
1F
100
AcDbEntity
  8
SANINDUSA
100
AcDbLine
 10
5064.433589640848
 20
2542.827433719665
 30
0.0
 11
5064.443842623226
 21
2542.827172323495
 31
0.0
  0
ARC
  5
2233
330
1F
100
AcDbEntity
  8
SANINDUSA
100
AcDbCircle
 10
5064.427474279059
 20
2542.832591407203
 30
0.0
 40
0.0079999619089887
100
AcDbArc
 50
268.5378518505546
 51
319.8557635261679
  0
ARC
  5
2234
330
1F
100
AcDbEntity
  8
SANINDUSA
100
AcDbCircle
 10
5064.385233911596
 20
2542.833668199561
 30
0.0
 40
0.0079999168964565
100
AcDbArc
 50
217.2207111353156
 51
268.5392395282308
  0
LINE
  5
2235
330
1F
100
AcDbEntity
  8
SANINDUSA
100
AcDbLine
 10
5064.368610862485
 20
2542.829090713888
 30
0.0
 11
5064.378863487235
 21
2542.828829153806
 31
0.0
  0
ARC
  5
2236
330
1F
100
AcDbEntity
  8
SANINDUSA
100
AcDbCircle
 10
5064.362495327997
 20
2542.834248414482
 30
0.0
 40
0.0080001023429054
100
AcDbArc
 50
268.5397552738334
 51
319.8564895023007
  0
ARC
  5
2237
330
1F
100
AcDbEntity
  8
SANINDUSA
100
AcDbCircle
 10
5064.320255044409
 20
2542.835324994982
 30
0.0
 40
0.0079999290008838
100
AcDbArc
 50
217.2204654829879
 51
268.5385970087626
  0
LINE
  5
2238
330
1F
100
AcDbEntity
  8
SANINDUSA
100
AcDbLine
 10
5064.303631994715
 20
2542.830747484595
 30
0.0
 11
5064.313884589664
 21
2542.830485969215
 31
0.0
  0
ARC
  5
2239
330
1F
100
AcDbEntity
  8
SANINDUSA
100
AcDbCircle
 10
5064.297516471718
 20
2542.835905075689
 30
0.0
 40
0.0080000229642687
100
AcDbArc
 50
268.5396584741901
 51
319.8570359241261
  0
ARC
  5
223A
330
1F
100
AcDbEntity
  8
SANINDUSA
100
AcDbCircle
 10
5064.25527615426
 20
2542.836981682096
 30
0.0
 40
0.0079999777926947
100
AcDbArc
 50
217.2211904955463
 51
268.5390865348437
  0
LINE
  5
223B
330
1F
100
AcDbEntity
  8
SANINDUSA
100
AcDbLine
 10
5064.238653082243
 20
2542.832404061585
 30
0.0
 11
5064.248905721894
 21
2542.832142546207
 31
0.0
  0
ARC
  5
223C
330
1F
100
AcDbEntity
  8
SANINDUSA
100
AcDbCircle
 10
5064.232537622797
 20
2542.837561633942
 30
0.0
 40
0.0079999623029369
100
AcDbArc
 50
268.5388718231691
 51
319.8568450675399
  0
ARC
  5
223D
330
1F
100
AcDbEntity
  8
SANINDUSA
100
AcDbCircle
 10
5064.190297268118
 20
2542.838638619497
 30
0.0
 40
0.0079999923434535
100
AcDbArc
 50
217.2220745306331
 51
268.5399681088219
  0
LINE
  5
223E
330
1F
100
AcDbEntity
  8
SANINDUSA
100
AcDbLine
 10
5064.173674259177
 20
2542.834060705632
 30
0.0
 11
5064.183926898829
 21
2542.833799376517
 31
0.0
  0
ARC
  5
223F
330
1F
100
AcDbEntity
  8
SANINDUSA
100
AcDbCircle
 10
5064.167558734574
 20
2542.839218152356
 30
0.0
 40
0.0079999311176223
100
AcDbArc
 50
268.5395464526838
 51
319.8578337190065
  0
ARC
  5
2240
330
1F
100
AcDbEntity
  8
SANINDUSA
100
AcDbCircle
 10
5064.105637640939
 20
2542.856802322122
 30
0.0
 40
0.0240000010244643
100
AcDbArc
 50
191.9999933381567
 51
268.5394677927911
  0
LINE
  5
2241
330
1F
100
AcDbEntity
  8
SANINDUSA
100
AcDbLine
 10
5064.082162096939
 20
2542.851812444061
 30
0.0
 11
5064.061451010249
 21
2542.949250441409
 31
0.0
  0
ARC
  5
2242
330
1F
100
AcDbEntity
  8
SANINDUSA
100
AcDbCircle
 10
5064.056560272284
 20
2542.948210882931
 30
0.0
 40
0.0050000000000001
100
AcDbArc
 50
11.9999999912834
 51
90.0
  0
LINE
  5
2243
330
1F
100
AcDbEntity
  8
SANINDUSA
100
AcDbLine
 10
5064.03269260361
 20
2542.953210882742
 30
0.0
 11
5064.056560274057
 21
2542.953210882742
 31
0.0
  0
ARC
  5
2244
330
1F
100
AcDbEntity
  8
SANINDUSA
100
AcDbCircle
 10
5064.03269260395
 20
2542.948210882931
 30
0.0
 40
0.005
100
AcDbArc
 50
90.0
 51
178.9999999902799
  0
LINE
  5
2245
330
1F
100
AcDbEntity
  8
SANINDUSA
100
AcDbLine
 10
5064.025056127534
 20
2542.797210886508
 30
0.0
 11
5064.027693365543
 21
2542.948298144519
 31
0.0
  0
LINE
  5
2246
330
1F
100
AcDbEntity
  8
SANINDUSA
100
AcDbLine
 10
5064.025056127534
 20
2542.797210886508
 30
0.0
 11
5064.021055518259
 21
2542.797210886508
 31
0.0
  0
LINE
  5
2247
330
1F
100
AcDbEntity
  8
SANINDUSA
100
AcDbLine
 10
5064.021055518259
 20
2542.797210886508
 30
0.0
 11
5064.0236939747
 21
2542.948367954597
 31
0.0
  0
ARC
  5
2248
330
1F
100
AcDbEntity
  8
SANINDUSA
100
AcDbCircle
 10
5064.03269260395
 20
2542.948210882931
 30
0.0
 40
0.0090000000000001
100
AcDbArc
 50
90.0
 51
178.9999999902799
  0
LINE
  5
2249
330
1F
100
AcDbEntity
  8
SANINDUSA
100
AcDbLine
 10
5064.03269260361
 20
2542.957210882932
 30
0.0
 11
5064.056560274057
 21
2542.957210882932
 31
0.0
  0
ARC
  5
224A
330
1F
100
AcDbEntity
  8
SANINDUSA
100
AcDbCircle
 10
5064.056560272284
 20
2542.948210882931
 30
0.0
 40
0.0090000000000003
100
AcDbArc
 50
11.9999999912834
 51
90.0
  0
LINE
  5
224B
330
1F
100
AcDbEntity
  8
SANINDUSA
100
AcDbLine
 10
5064.086074687383
 20
2542.852644085318
 30
0.0
 11
5064.065363600693
 21
2542.950082088254
 31
0.0
  0
ARC
  5
224C
330
1F
100
AcDbEntity
  8
SANINDUSA
100
AcDbCircle
 10
5064.10563763217
 20
2542.856802317748
 30
0.0
 40
0.0199999926424776
100
AcDbArc
 50
192.0000004207238
 51
268.5394934392865
  0
ARC
  5
224D
330
1F
100
AcDbEntity
  8
SANINDUSA
100
AcDbCircle
 10
5064.167558681207
 20
2542.839218237936
 30
0.0
 40
0.004000019731701
100
AcDbArc
 50
268.5400008967452
 51
323.6897970454813
  0
ARC
  5
224E
330
1F
100
AcDbEntity
  8
SANINDUSA
100
AcDbCircle
 10
5064.173199447975
 20
2542.835073154356
 30
0.0
 40
0.0029999779546781
100
AcDbArc
 50
88.53958210772972
 51
143.690077859976
  0
LINE
  5
224F
330
1F
100
AcDbEntity
  8
SANINDUSA
100
AcDbLine
 10
5064.173275906435
 20
2542.83807215783
 30
0.0
 11
5064.184529099456
 21
2542.837785325378
 31
0.0
  0
ARC
  5
2252
330
1F
100
AcDbEntity
  8
SANINDUSA
100
AcDbCircle
 10
5064.232537581815
 20
2542.837561680336
 30
0.0
 40
0.0040000179887021
100
AcDbArc
 50
268.539316259344
 51
323.6890366694322
  0
ARC
  5
2253
330
1F
100
AcDbEntity
  8
SANINDUSA
100
AcDbCircle
 10
5064.238178312032
 20
2542.833416473065
 30
0.0
 40
0.0030000234902976
100
AcDbArc
 50
88.53896398385421
 51
143.6887746779773
  0
LINE
  5
2254
330
1F
100
AcDbEntity
  8
SANINDUSA
100
AcDbLine
 10
5064.238254804006
 20
2542.836415521234
 30
0.0
 11
5064.249507982126
 21
2542.836128495067
 31
0.0
  0
ARC
  5
2255
330
1F
100
AcDbEntity
  8
SANINDUSA
100
AcDbCircle
 10
5064.249431445688
 20
2542.833129401112
 30
0.0
 40
0.0030000703951563
100
AcDbArc
 50
33.3895275186764
 51
88.53813735138871
  0
ARC
  5
2256
330
1F
100
AcDbEntity
  8
SANINDUSA
100
AcDbCircle
 10
5064.255276169583
 20
2542.836981688641
 30
0.0
 40
0.0039999950781089
100
AcDbArc
 50
213.3887474702086
 51
268.5389248365664
  0
ARC
  5
2257
330
1F
100
AcDbEntity
  8
SANINDUSA
100
AcDbCircle
 10
5064.297516447563
 20
2542.835905070927
 30
0.0
 40
0.0040000212510913
100
AcDbArc
 50
268.5402004399782
 51
323.6893824162566
  0
ARC
  5
2258
330
1F
100
AcDbEntity
  8
SANINDUSA
100
AcDbCircle
 10
5064.303157209216
 20
2542.831759888121
 30
0.0
 40
0.003000031070821
100
AcDbArc
 50
88.53924494925218
 51
143.6890457265687
  0
LINE
  5
2259
330
1F
100
AcDbEntity
  8
SANINDUSA
100
AcDbLine
 10
5064.303233686677
 20
2542.834758944243
 30
0.0
 11
5064.314486864797
 21
2542.834471895724
 31
0.0
  0
ARC
  5
225A
330
1F
100
AcDbEntity
  8
SANINDUSA
100
AcDbCircle
 10
5064.314410432633
 20
2542.831473035541
 30
0.0
 40
0.0029998340405396
100
AcDbArc
 50
33.38681455124956
 51
88.54001445029483
  0
ARC
  5
225B
330
1F
100
AcDbEntity
  8
SANINDUSA
100
AcDbCircle
 10
5064.320255072757
 20
2542.835325105868
 30
0.0
 40
0.0040000419578241
100
AcDbArc
 50
213.3888447819562
 51
268.5386481454736
  0
ARC
  5
225C
330
1F
100
AcDbEntity
  8
SANINDUSA
100
AcDbCircle
 10
5064.362495363596
 20
2542.834248337881
 30
0.0
 40
0.0040000154402165
100
AcDbArc
 50
268.5395067837991
 51
323.6890491345667
  0
ARC
  5
225D
330
1F
100
AcDbEntity
  8
SANINDUSA
100
AcDbCircle
 10
5064.368136074358
 20
2542.830103169365
 30
0.0
 40
0.0029999874125427
100
AcDbArc
 50
88.53860415019038
 51
143.6891345161548
  0
LINE
  5
225E
330
1F
100
AcDbEntity
  8
SANINDUSA
100
AcDbLine
 10
5064.368212584248
 20
2542.833102180987
 30
0.0
 11
5064.379465762368
 21
2542.832815087765
 31
0.0
  0
ARC
  5
225F
330
1F
100
AcDbEntity
  8
SANINDUSA
100
AcDbCircle
 10
5064.3793892101
 20
2542.829815992986
 30
0.0
 40
0.0030000716227391
100
AcDbArc
 50
33.38953090057835
 51
88.53783558682611
  0
ARC
  5
2260
330
1F
100
AcDbEntity
  8
SANINDUSA
100
AcDbCircle
 10
5064.385233893911
 20
2542.83366819173
 30
0.0
 40
0.0039999115206389
100
AcDbArc
 50
213.3879990444986
 51
268.5396954843252
  0
ARC
  5
2261
330
1F
100
AcDbEntity
  8
SANINDUSA
100
AcDbCircle
 10
5064.427474270999
 20
2542.83259142762
 30
0.0
 40
0.003999982736019
100
AcDbArc
 50
268.5380728701651
 51
323.6880069957128
  0
ARC
  5
2262
330
1F
100
AcDbEntity
  8
SANINDUSA
100
AcDbCircle
 10
5064.433114861511
 20
2542.828446215711
 30
0.0
 40
0.0029999489137638
100
AcDbArc
 50
88.53704518243231
 51
143.6884961774723
  0
LINE
  5
2263
330
1F
100
AcDbEntity
  8
SANINDUSA
100
AcDbLine
 10
5064.433191452017
 20
2542.831445186763
 30
0.0
 11
5064.44444465994
 21
2542.831158294707
 31
0.0
  0
ARC
  5
2264
330
1F
100
AcDbEntity
  8
SANINDUSA
100
AcDbCircle
 10
5064.444368355761
 20
2542.828159326212
 30
0.0
 40
0.0029999390601371
100
AcDbArc
 50
33.39223088130734
 51
88.54251076504409
  0
ARC
  5
2265
330
1F
100
AcDbEntity
  8
SANINDUSA
100
AcDbCircle
 10
5064.45021278634
 20
2542.832011957431
 30
0.0
 40
0.0040000706617426
100
AcDbArc
 50
213.3931425599163
 51
268.5423893607713
  0
LINE
  5
2266
330
1F
100
AcDbEntity
  8
SANINDUSA
100
AcDbLine
 10
5064.478848341695
 20
2542.827280297309
 30
0.0
 11
5064.5085507965
 21
2542.826243072182
 31
0.0
  0
LINE
  5
2267
330
1F
100
AcDbEntity
  8
SANINDUSA
100
AcDbLine
 10
5064.5085507965
 20
2542.826243072182
 30
0.0
 11
5064.51884833335
 21
2542.815200298458
 31
0.0
  0
LINE
  5
2268
330
1F
100
AcDbEntity
  8
SANINDUSA
100
AcDbLine
 10
5064.51884833335
 20
2542.815200298458
 30
0.0
 11
5064.588848326198
 21
2542.815200298458
 31
0.0
  0
LINE
  5
2269
330
1F
100
AcDbEntity
  8
SANINDUSA
100
AcDbLine
 10
5064.588848326198
 20
2542.815200298458
 30
0.0
 11
5064.599145863048
 21
2542.826243072182
 31
0.0
  0
LINE
  5
226A
330
1F
100
AcDbEntity
  8
SANINDUSA
100
AcDbLine
 10
5064.599145863048
 20
2542.826243072182
 30
0.0
 11
5064.628848347656
 21
2542.827280297309
 31
0.0
  0
ARC
  5
226B
330
1F
100
AcDbEntity
  8
SANINDUSA
100
AcDbCircle
 10
5064.640428703699
 20
2542.84913257484
 30
0.0
 40
0.0200000693174538
100
AcDbArc
 50
285.2687488852591
 51
347.9998818911572
  0
LINE
  5
226C
330
1F
100
AcDbEntity
  8
SANINDUSA
100
AcDbLine
 10
5064.682333085528
 20
2542.950082088254
 30
0.0
 11
5064.659991714946
 21
2542.844974286288
 31
0.0
  0
LINE
  5
226D
330
1F
100
AcDbEntity
  8
SANINDUSA
100
AcDbLine
 10
5064.599145863048
 20
2542.826243072182
 30
0.0
 11
5064.5085507965
 21
2542.826243072182
 31
0.0
  0
LINE
  5
2364
330
1F
100
AcDbEntity
  8
SANINDUSA
100
AcDbLine
 10
5064.056560274057
 20
2542.957210882932
 30
0.0
 11
5064.075145076802
 21
2542.957210882932
 31
0.0
  0
LINE
  5
2366
330
1F
100
AcDbEntity
  8
SANINDUSA
100
AcDbLine
 10
5064.672551605693
 20
2542.957210882932
 30
0.0
 11
5064.691136393538
 21
2542.957210882932
 31
0.0
  0
LINE
  5
2367
330
1F
100
AcDbEntity
  8
SANINDUSA
100
AcDbLine
 10
5064.075145076802
 20
2542.957210882932
 30
0.0
 11
5064.672551605693
 21
2542.957210882932
 31
0.0
  0
LINE
  5
236D
330
1F
100
AcDbEntity
  8
SANINDUSA
100
AcDbLine
 10
5064.026055975194
 20
2542.797210886508
 30
0.0
 11
5064.025056127534
 21
2542.797210886508
 31
0.0
  0
LINE
  5
2370
330
1F
100
AcDbEntity
  8
SANINDUSA
100
AcDbLine
 10
5064.721640679827
 20
2542.797210886508
 30
0.0
 11
5064.026055975194
 21
2542.797210886508
 31
0.0
  0
LINE
  5
2798
330
1F
100
AcDbEntity
  8
SANINDUSA
100
AcDbLine
 10
5063.794951602734
 20
2542.948367954597
 30
0.0
 11
5063.797590061938
 21
2542.797210886508
 31
0.0
  0
LINE
  5
279A
330
1F
100
AcDbEntity
  8
SANINDUSA
100
AcDbLine
 10
5063.792590781963
 20
2542.797210886508
 30
0.0
 11
5063.797590061938
 21
2542.797210886508
 31
0.0
  0
LINE
  5
279D
330
1F
100
AcDbEntity
  8
SANINDUSA
100
AcDbLine
 10
5063.092004428302
 20
2542.797210886508
 30
0.0
 11
5063.094642884742
 21
2542.948367954597
 31
0.0
  0
LINE
  5
279E
330
1F
100
AcDbEntity
  8
SANINDUSA
100
AcDbLine
 10
5063.092004428302
 20
2542.797210886508
 30
0.0
 11
5063.097003666601
 21
2542.797210886508
 31
0.0
  0
LINE
  5
27A0
330
1F
100
AcDbEntity
  8
SANINDUSA
100
AcDbLine
 10
5063.097003666601
 20
2542.797210886508
 30
0.0
 11
5063.792590781963
 21
2542.797210886508
 31
0.0
  0
LINE
  5
27A1
330
1F
100
AcDbEntity
  8
SANINDUSA
100
AcDbLine
 10
5063.103641513651
 20
2542.957210882932
 30
0.0
 11
5063.785952970302
 21
2542.957210882932
 31
0.0
  0
ARC
  5
27A4
330
1F
100
AcDbEntity
  8
SANINDUSA
100
AcDbCircle
 10
5063.785952963256
 20
2542.948210882931
 30
0.0
 40
0.0090000000000001
100
AcDbArc
 50
1.000000009720081
 51
90.0
  0
ARC
  5
27A5
330
1F
100
AcDbEntity
  8
SANINDUSA
100
AcDbCircle
 10
5063.103641513992
 20
2542.948210882931
 30
0.0
 40
0.0090000000000001
100
AcDbArc
 50
90.0
 51
178.9999999902799
  0
ARC
  5
27A6
330
1F
100
AcDbEntity
  8
SANINDUSA
100
AcDbCircle
 10
5061.73693978585
 20
2542.774327008602
 30
0.0
 40
0.0025897462316302
100
AcDbArc
 50
0.0
 51
90.00431003530019
  0
LWPOLYLINE
  5
27A7
330
1F
100
AcDbEntity
  8
SANINDUSA
100
AcDbPolyline
 90
        3
 70
   128
 43
0.0
 10
5061.725943666566
 20
2542.77691961585
 10
5061.733943384755
 20
2542.776917470082
 10
5061.736939591038
 20
2542.776916754827
  0
LWPOLYLINE
  5
27A8
330
1F
100
AcDbEntity
  8
SANINDUSA
100
AcDbPolyline
 90
        3
 70
   128
 43
0.0
 10
5061.739529532063
 20
2542.774327320441
 10
5061.739530187714
 20
2542.766330761298
 10
5061.739530426133
 20
2542.763335925921
  0
ARC
  5
27A9
330
1F
100
AcDbEntity
  8
SANINDUSA
100
AcDbCircle
 10
5061.725942582881
 20
2542.774331473932
 30
0.0
 40
0.0025881421443697
100
AcDbArc
 50
89.97600960600825
 51
179.9877074102974
  0
LWPOLYLINE
  5
27AA
330
1F
100
AcDbEntity
  8
SANINDUSA
100
AcDbPolyline
 90
        3
 70
   128
 43
0.0
 10
5061.723354917633
 20
2542.763341141327
 10
5061.723354560005
 20
2542.771337283238
 10
5061.723354440797
 20
2542.774332029208
  0
ARC
  5
27AB
330
1F
100
AcDbEntity
  8
SANINDUSA
100
AcDbCircle
 10
5061.736942350989
 20
2542.76333680182
 30
0.0
 40
0.0025880752919674
100
AcDbArc
 50
269.9784856748446
 51
359.9806090356752
  0
LWPOLYLINE
  5
27AC
330
1F
100
AcDbEntity
  8
SANINDUSA
100
AcDbPolyline
 90
        3
 70
   128
 43
0.0
 10
5061.736941379177
 20
2542.76074872671
 10
5061.728941660988
 20
2542.760751051292
 10
5061.725944918263
 20
2542.760751975163
  0
ARC
  5
27AD
330
1F
100
AcDbEntity
  8
SANINDUSA
100
AcDbCircle
 10
5061.72594474751
 20
2542.763341805119
 30
0.0
 40
0.0025898299609932
100
AcDbArc
 50
180.0146854123408
 51
270.0037776253037
  0
ARC
  5
27AE
330
1F
100
AcDbEntity
  8
SANINDUSA
100
AcDbCircle
 10
5061.671937821281
 20
2542.774327008602
 30
0.0
 40
0.0025897462316302
100
AcDbArc
 50
0.0
 51
90.00431003530019
  0
LWPOLYLINE
  5
27AF
330
1F
100
AcDbEntity
  8
SANINDUSA
100
AcDbPolyline
 90
        3
 70
   128
 43
0.0
 10
5061.660941701997
 20
2542.77691961585
 10
5061.668941420186
 20
2542.776917470082
 10
5061.671937626469
 20
2542.776916754827
  0
LWPOLYLINE
  5
27B0
330
1F
100
AcDbEntity
  8
SANINDUSA
100
AcDbPolyline
 90
        3
 70
   128
 43
0.0
 10
5061.674527567493
 20
2542.774327320441
 10
5061.674528223145
 20
2542.766330761298
 10
5061.674528461564
 20
2542.763335925921
  0
ARC
  5
27B1
330
1F
100
AcDbEntity
  8
SANINDUSA
100
AcDbCircle
 10
5061.660940618312
 20
2542.774331473932
 30
0.0
 40
0.0025881421443697
100
AcDbArc
 50
89.97600960600825
 51
179.9877074102974
  0
LWPOLYLINE
  5
27B2
330
1F
100
AcDbEntity
  8
SANINDUSA
100
AcDbPolyline
 90
        3
 70
   128
 43
0.0
 10
5061.658352953064
 20
2542.763341141327
 10
5061.658352595436
 20
2542.771337283238
 10
5061.658352476228
 20
2542.774332029208
  0
ARC
  5
27B3
330
1F
100
AcDbEntity
  8
SANINDUSA
100
AcDbCircle
 10
5061.67194038642
 20
2542.76333680182
 30
0.0
 40
0.0025880752919674
100
AcDbArc
 50
269.9784856748446
 51
359.9806090356752
  0
LWPOLYLINE
  5
27B4
330
1F
100
AcDbEntity
  8
SANINDUSA
100
AcDbPolyline
 90
        3
 70
   128
 43
0.0
 10
5061.671939414608
 20
2542.76074872671
 10
5061.663939696419
 20
2542.760751051292
 10
5061.660942953693
 20
2542.760751975163
  0
ARC
  5
27B5
330
1F
100
AcDbEntity
  8
SANINDUSA
100
AcDbCircle
 10
5061.660942782941
 20
2542.763341805119
 30
0.0
 40
0.0025898299609932
100
AcDbArc
 50
180.0146854123408
 51
270.0037776253037
  0
ARC
  5
27B6
330
1F
100
AcDbEntity
  8
SANINDUSA
100
AcDbCircle
 10
5061.60693724252
 20
2542.774403809187
 30
0.0
 40
0.0025897462316302
100
AcDbArc
 50
0.0
 51
90.00431003530019
  0
LWPOLYLINE
  5
27B7
330
1F
100
AcDbEntity
  8
SANINDUSA
100
AcDbPolyline
 90
        3
 70
   128
 43
0.0
 10
5061.595941123235
 20
2542.776996416434
 10
5061.603940841425
 20
2542.776994270667
 10
5061.606937047708
 20
2542.776993555411
  0
LWPOLYLINE
  5
27B8
330
1F
100
AcDbEntity
  8
SANINDUSA
100
AcDbPolyline
 90
        3
 70
   128
 43
0.0
 10
5061.609526988733
 20
2542.774404121026
 10
5061.609527644384
 20
2542.766407561883
 10
5061.609527882803
 20
2542.763412726506
  0
ARC
  5
27B9
330
1F
100
AcDbEntity
  8
SANINDUSA
100
AcDbCircle
 10
5061.595940039552
 20
2542.774408274517
 30
0.0
 40
0.0025881421443697
100
AcDbArc
 50
89.97600960600825
 51
179.9877074102974
  0
LWPOLYLINE
  5
27BA
330
1F
100
AcDbEntity
  8
SANINDUSA
100
AcDbPolyline
 90
        3
 70
   128
 43
0.0
 10
5061.593352374303
 20
2542.763417941913
 10
5061.593352016675
 20
2542.771414083823
 10
5061.593351897466
 20
2542.774408829793
  0
ARC
  5
27BB
330
1F
100
AcDbEntity
  8
SANINDUSA
100
AcDbCircle
 10
5061.606939807659
 20
2542.763413602405
 30
0.0
 40
0.0025880752919674
100
AcDbArc
 50
269.9784856748446
 51
359.9806090356752
  0
LWPOLYLINE
  5
27BC
330
1F
100
AcDbEntity
  8
SANINDUSA
100
AcDbPolyline
 90
        3
 70
   128
 43
0.0
 10
5061.606938835847
 20
2542.760825527295
 10
5061.598939117658
 20
2542.760827851876
 10
5061.595942374933
 20
2542.760828775748
  0
ARC
  5
27BD
330
1F
100
AcDbEntity
  8
SANINDUSA
100
AcDbCircle
 10
5061.59594220418
 20
2542.763418605704
 30
0.0
 40
0.0025898299609932
100
AcDbArc
 50
180.0146854123408
 51
270.0037776253037
  0
ARC
  5
27BE
330
1F
100
AcDbEntity
  8
SANINDUSA
100
AcDbCircle
 10
5061.541938183677
 20
2542.774385465858
 30
0.0
 40
0.0025897462316302
100
AcDbArc
 50
0.0
 51
90.00431003530019
  0
LWPOLYLINE
  5
27BF
330
1F
100
AcDbEntity
  8
SANINDUSA
100
AcDbPolyline
 90
        3
 70
   128
 43
0.0
 10
5061.530942064393
 20
2542.776978073105
 10
5061.538941782582
 20
2542.776975927337
 10
5061.541937988866
 20
2542.776975212082
  0
LWPOLYLINE
  5
27C0
330
1F
100
AcDbEntity
  8
SANINDUSA
100
AcDbPolyline
 90
        3
 70
   128
 43
0.0
 10
5061.54452792989
 20
2542.774385777696
 10
5061.544528585542
 20
2542.766389218554
 10
5061.54452882396
 20
2542.763394383177
  0
ARC
  5
27C1
330
1F
100
AcDbEntity
  8
SANINDUSA
100
AcDbCircle
 10
5061.530940980709
 20
2542.774389931187
 30
0.0
 40
0.0025881421443697
100
AcDbArc
 50
89.97600960600825
 51
179.9877074102974
  0
LWPOLYLINE
  5
27C2
330
1F
100
AcDbEntity
  8
SANINDUSA
100
AcDbPolyline
 90
        3
 70
   128
 43
0.0
 10
5061.528353315461
 20
2542.763399598583
 10
5061.528352957832
 20
2542.771395740494
 10
5061.528352838624
 20
2542.774390486464
  0
ARC
  5
27C3
330
1F
100
AcDbEntity
  8
SANINDUSA
100
AcDbCircle
 10
5061.541940748816
 20
2542.763395259075
 30
0.0
 40
0.0025880752919674
100
AcDbArc
 50
269.9784856748446
 51
359.9806090356752
  0
LWPOLYLINE
  5
27C4
330
1F
100
AcDbEntity
  8
SANINDUSA
100
AcDbPolyline
 90
        3
 70
   128
 43
0.0
 10
5061.541939777004
 20
2542.760807183965
 10
5061.533940058815
 20
2542.760809508547
 10
5061.53094331609
 20
2542.760810432419
  0
ARC
  5
27C5
330
1F
100
AcDbEntity
  8
SANINDUSA
100
AcDbCircle
 10
5061.530943145337
 20
2542.763400262374
 30
0.0
 40
0.0025898299609932
100
AcDbArc
 50
180.0146854123408
 51
270.0037776253037
  0
ARC
  5
27C6
330
1F
100
AcDbEntity
  8
SANINDUSA
100
AcDbCircle
 10
5061.476940316928
 20
2542.774349151728
 30
0.0
 40
0.0025897462316302
100
AcDbArc
 50
0.0
 51
90.00431003530019
  0
LWPOLYLINE
  5
27C7
330
1F
100
AcDbEntity
  8
SANINDUSA
100
AcDbPolyline
 90
        3
 70
   128
 43
0.0
 10
5061.465944197642
 20
2542.776941758975
 10
5061.473943915832
 20
2542.776939613208
 10
5061.476940122116
 20
2542.776938897952
  0
LWPOLYLINE
  5
27C8
330
1F
100
AcDbEntity
  8
SANINDUSA
100
AcDbPolyline
 90
        3
 70
   128
 43
0.0
 10
5061.479530063141
 20
2542.774349463567
 10
5061.479530718791
 20
2542.766352904424
 10
5061.47953095721
 20
2542.763358069047
  0
ARC
  5
27C9
330
1F
100
AcDbEntity
  8
SANINDUSA
100
AcDbCircle
 10
5061.465943113959
 20
2542.774353617057
 30
0.0
 40
0.0025881421443697
100
AcDbArc
 50
89.97600960600825
 51
179.9877074102974
  0
LWPOLYLINE
  5
27CA
330
1F
100
AcDbEntity
  8
SANINDUSA
100
AcDbPolyline
 90
        3
 70
   128
 43
0.0
 10
5061.463355448712
 20
2542.763363284453
 10
5061.463355091083
 20
2542.771359426364
 10
5061.463354971873
 20
2542.774354172334
  0
ARC
  5
27CB
330
1F
100
AcDbEntity
  8
SANINDUSA
100
AcDbCircle
 10
5061.476942882066
 20
2542.763358944946
 30
0.0
 40
0.0025880752919674
100
AcDbArc
 50
269.9784856748446
 51
359.9806090356752
  0
LWPOLYLINE
  5
27CC
330
1F
100
AcDbEntity
  8
SANINDUSA
100
AcDbPolyline
 90
        3
 70
   128
 43
0.0
 10
5061.476941910255
 20
2542.760770869836
 10
5061.468942192066
 20
2542.760773194417
 10
5061.465945449341
 20
2542.760774118289
  0
ARC
  5
27CD
330
1F
100
AcDbEntity
  8
SANINDUSA
100
AcDbCircle
 10
5061.465945278587
 20
2542.763363948245
 30
0.0
 40
0.0025898299609932
100
AcDbArc
 50
180.0146854123408
 51
270.0037776253037
  0
ARC
  5
27CE
330
1F
100
AcDbEntity
  8
SANINDUSA
100
AcDbCircle
 10
5061.41194183178
 20
2542.774327008602
 30
0.0
 40
0.0025897462316302
100
AcDbArc
 50
0.0
 51
90.00431003530019
  0
LWPOLYLINE
  5
27CF
330
1F
100
AcDbEntity
  8
SANINDUSA
100
AcDbPolyline
 90
        3
 70
   128
 43
0.0
 10
5061.400945712495
 20
2542.77691961585
 10
5061.408945430684
 20
2542.776917470082
 10
5061.411941636968
 20
2542.776916754827
  0
LWPOLYLINE
  5
27D0
330
1F
100
AcDbEntity
  8
SANINDUSA
100
AcDbPolyline
 90
        3
 70
   128
 43
0.0
 10
5061.414531577992
 20
2542.774327320441
 10
5061.414532233643
 20
2542.766330761298
 10
5061.414532472062
 20
2542.763335925921
  0
ARC
  5
27D1
330
1F
100
AcDbEntity
  8
SANINDUSA
100
AcDbCircle
 10
5061.400944628811
 20
2542.774331473932
 30
0.0
 40
0.0025881421443697
100
AcDbArc
 50
89.97600960600825
 51
179.9877074102974
  0
LWPOLYLINE
  5
27D2
330
1F
100
AcDbEntity
  8
SANINDUSA
100
AcDbPolyline
 90
        3
 70
   128
 43
0.0
 10
5061.398356963563
 20
2542.763341141327
 10
5061.398356605935
 20
2542.771337283238
 10
5061.398356486726
 20
2542.774332029208
  0
ARC
  5
27D3
330
1F
100
AcDbEntity
  8
SANINDUSA
100
AcDbCircle
 10
5061.411944396919
 20
2542.76333680182
 30
0.0
 40
0.0025880752919674
100
AcDbArc
 50
269.9784856748446
 51
359.9806090356752
  0
LWPOLYLINE
  5
27D4
330
1F
100
AcDbEntity
  8
SANINDUSA
100
AcDbPolyline
 90
        3
 70
   128
 43
0.0
 10
5061.411943425107
 20
2542.76074872671
 10
5061.403943706918
 20
2542.760751051292
 10
5061.400946964193
 20
2542.760751975163
  0
ARC
  5
27D5
330
1F
100
AcDbEntity
  8
SANINDUSA
100
AcDbCircle
 10
5061.400946793439
 20
2542.763341805119
 30
0.0
 40
0.0025898299609932
100
AcDbArc
 50
180.0146854123408
 51
270.0037776253037
  0
ARC
  5
27D6
330
1F
100
AcDbEntity
  8
SANINDUSA
100
AcDbCircle
 10
5061.411941943538
 20
2542.839307426092
 30
0.0
 40
0.0025897462316302
100
AcDbArc
 50
0.0
 51
90.00431003530019
  0
LWPOLYLINE
  5
27D7
330
1F
100
AcDbEntity
  8
SANINDUSA
100
AcDbPolyline
 90
        3
 70
   128
 43
0.0
 10
5061.400945824253
 20
2542.841900033339
 10
5061.408945542442
 20
2542.841897887572
 10
5061.411941748726
 20
2542.841897172317
  0
LWPOLYLINE
  5
27D8
330
1F
100
AcDbEntity
  8
SANINDUSA
100
AcDbPolyline
 90
        3
 70
   128
 43
0.0
 10
5061.414531689751
 20
2542.839307737931
 10
5061.414532345402
 20
2542.831311178788
 10
5061.414532583821
 20
2542.828316343411
  0
ARC
  5
27D9
330
1F
100
AcDbEntity
  8
SANINDUSA
100
AcDbCircle
 10
5061.40094474057
 20
2542.839311891422
 30
0.0
 40
0.0025881421443697
100
AcDbArc
 50
89.97600960600825
 51
179.9877074102974
  0
LWPOLYLINE
  5
27DA
330
1F
100
AcDbEntity
  8
SANINDUSA
100
AcDbPolyline
 90
        3
 70
   128
 43
0.0
 10
5061.398357075322
 20
2542.828321558818
 10
5061.398356717694
 20
2542.836317700728
 10
5061.398356598484
 20
2542.839312446698
  0
ARC
  5
27DB
330
1F
100
AcDbEntity
  8
SANINDUSA
100
AcDbCircle
 10
5061.411944508677
 20
2542.82831721931
 30
0.0
 40
0.0025880752919674
100
AcDbArc
 50
269.9784856748446
 51
359.9806090356752
  0
LWPOLYLINE
  5
27DC
330
1F
100
AcDbEntity
  8
SANINDUSA
100
AcDbPolyline
 90
        3
 70
   128
 43
0.0
 10
5061.411943536866
 20
2542.8257291442
 10
5061.403943818676
 20
2542.825731468781
 10
5061.400947075951
 20
2542.825732392654
  0
ARC
  5
27DD
330
1F
100
AcDbEntity
  8
SANINDUSA
100
AcDbCircle
 10
5061.400946905198
 20
2542.828322222609
 30
0.0
 40
0.0025898299609932
100
AcDbArc
 50
180.0146854123408
 51
270.0037776253037
  0
ARC
  5
27DE
330
1F
100
AcDbEntity
  8
SANINDUSA
100
AcDbCircle
 10
5061.476940458488
 20
2542.839327781079
 30
0.0
 40
0.0025897462316302
100
AcDbArc
 50
0.0
 51
90.00431003530019
  0
LWPOLYLINE
  5
27DF
330
1F
100
AcDbEntity
  8
SANINDUSA
100
AcDbPolyline
 90
        3
 70
   128
 43
0.0
 10
5061.465944339204
 20
2542.841920388326
 10
5061.473944057393
 20
2542.841918242559
 10
5061.476940263677
 20
2542.841917527303
  0
LWPOLYLINE
  5
27E0
330
1F
100
AcDbEntity
  8
SANINDUSA
100
AcDbPolyline
 90
        3
 70
   128
 43
0.0
 10
5061.479530204701
 20
2542.839328092917
 10
5061.479530860353
 20
2542.831331533774
 10
5061.479531098771
 20
2542.828336698398
  0
ARC
  5
27E1
330
1F
100
AcDbEntity
  8
SANINDUSA
100
AcDbCircle
 10
5061.46594325552
 20
2542.839332246408
 30
0.0
 40
0.0025881421443697
100
AcDbArc
 50
89.97600960600825
 51
179.9877074102974
  0
LWPOLYLINE
  5
27E2
330
1F
100
AcDbEntity
  8
SANINDUSA
100
AcDbPolyline
 90
        3
 70
   128
 43
0.0
 10
5061.463355590272
 20
2542.828341913804
 10
5061.463355232644
 20
2542.836338055714
 10
5061.463355113435
 20
2542.839332801684
  0
ARC
  5
27E3
330
1F
100
AcDbEntity
  8
SANINDUSA
100
AcDbCircle
 10
5061.476943023627
 20
2542.828337574296
 30
0.0
 40
0.0025880752919674
100
AcDbArc
 50
269.9784856748446
 51
359.9806090356752
  0
LWPOLYLINE
  5
27E4
330
1F
100
AcDbEntity
  8
SANINDUSA
100
AcDbPolyline
 90
        3
 70
   128
 43
0.0
 10
5061.476942051815
 20
2542.825749499187
 10
5061.468942333626
 20
2542.825751823768
 10
5061.465945590901
 20
2542.825752747639
  0
ARC
  5
27E5
330
1F
100
AcDbEntity
  8
SANINDUSA
100
AcDbCircle
 10
5061.465945420149
 20
2542.828342577595
 30
0.0
 40
0.0025898299609932
100
AcDbArc
 50
180.0146854123408
 51
270.0037776253037
  0
ARC
  5
27E6
330
1F
100
AcDbEntity
  8
SANINDUSA
100
AcDbCircle
 10
5061.541938451899
 20
2542.839361889836
 30
0.0
 40
0.0025897462316302
100
AcDbArc
 50
0.0
 51
90.00431003530019
  0
LWPOLYLINE
  5
27E7
330
1F
100
AcDbEntity
  8
SANINDUSA
100
AcDbPolyline
 90
        3
 70
   128
 43
0.0
 10
5061.530942332614
 20
2542.841954497084
 10
5061.538942050803
 20
2542.841952351317
 10
5061.541938257086
 20
2542.841951636061
  0
LWPOLYLINE
  5
27E8
330
1F
100
AcDbEntity
  8
SANINDUSA
100
AcDbPolyline
 90
        3
 70
   128
 43
0.0
 10
5061.544528198111
 20
2542.839362201676
 10
5061.544528853762
 20
2542.831365642532
 10
5061.544529092181
 20
2542.828370807156
  0
ARC
  5
27E9
330
1F
100
AcDbEntity
  8
SANINDUSA
100
AcDbCircle
 10
5061.530941248929
 20
2542.839366355166
 30
0.0
 40
0.0025881421443697
100
AcDbArc
 50
89.97600960600825
 51
179.9877074102974
  0
LWPOLYLINE
  5
27EA
330
1F
100
AcDbEntity
  8
SANINDUSA
100
AcDbPolyline
 90
        3
 70
   128
 43
0.0
 10
5061.528353583682
 20
2542.828376022562
 10
5061.528353226054
 20
2542.836372164473
 10
5061.528353106844
 20
2542.839366910442
  0
ARC
  5
27EB
330
1F
100
AcDbEntity
  8
SANINDUSA
100
AcDbCircle
 10
5061.541941017037
 20
2542.828371683054
 30
0.0
 40
0.0025880752919674
100
AcDbArc
 50
269.9784856748446
 51
359.9806090356752
  0
LWPOLYLINE
  5
27EC
330
1F
100
AcDbEntity
  8
SANINDUSA
100
AcDbPolyline
 90
        3
 70
   128
 43
0.0
 10
5061.541940045225
 20
2542.825783607944
 10
5061.533940327036
 20
2542.825785932525
 10
5061.530943584311
 20
2542.825786856397
  0
ARC
  5
27ED
330
1F
100
AcDbEntity
  8
SANINDUSA
100
AcDbCircle
 10
5061.530943413558
 20
2542.828376686353
 30
0.0
 40
0.0025898299609932
100
AcDbArc
 50
180.0146854123408
 51
270.0037776253037
  0
ARC
  5
27EE
330
1F
100
AcDbEntity
  8
SANINDUSA
100
AcDbCircle
 10
5061.606936944497
 20
2542.839382378933
 30
0.0
 40
0.0025897462316302
100
AcDbArc
 50
0.0
 51
90.00431003530019
  0
LWPOLYLINE
  5
27EF
330
1F
100
AcDbEntity
  8
SANINDUSA
100
AcDbPolyline
 90
        3
 70
   128
 43
0.0
 10
5061.595940825212
 20
2542.84197498618
 10
5061.603940543402
 20
2542.841972840413
 10
5061.606936749685
 20
2542.841972125157
  0
LWPOLYLINE
  5
27F0
330
1F
100
AcDbEntity
  8
SANINDUSA
100
AcDbPolyline
 90
        3
 70
   128
 43
0.0
 10
5061.609526690709
 20
2542.839382690772
 10
5061.609527346361
 20
2542.831386131629
 10
5061.609527584779
 20
2542.828391296252
  0
ARC
  5
27F1
330
1F
100
AcDbEntity
  8
SANINDUSA
100
AcDbCircle
 10
5061.595939741528
 20
2542.839386844263
 30
0.0
 40
0.0025881421443697
100
AcDbArc
 50
89.97600960600825
 51
179.9877074102974
  0
LWPOLYLINE
  5
27F2
330
1F
100
AcDbEntity
  8
SANINDUSA
100
AcDbPolyline
 90
        3
 70
   128
 43
0.0
 10
5061.59335207628
 20
2542.828396511659
 10
5061.593351718652
 20
2542.836392653569
 10
5061.593351599443
 20
2542.839387399539
  0
ARC
  5
27F3
330
1F
100
AcDbEntity
  8
SANINDUSA
100
AcDbCircle
 10
5061.606939509636
 20
2542.828392172151
 30
0.0
 40
0.0025880752919674
100
AcDbArc
 50
269.9784856748446
 51
359.9806090356752
  0
LWPOLYLINE
  5
27F4
330
1F
100
AcDbEntity
  8
SANINDUSA
100
AcDbPolyline
 90
        3
 70
   128
 43
0.0
 10
5061.606938537824
 20
2542.825804097041
 10
5061.598938819635
 20
2542.825806421622
 10
5061.595942076909
 20
2542.825807345494
  0
ARC
  5
27F5
330
1F
100
AcDbEntity
  8
SANINDUSA
100
AcDbCircle
 10
5061.595941906157
 20
2542.82839717545
 30
0.0
 40
0.0025898299609932
100
AcDbArc
 50
180.0146854123408
 51
270.0037776253037
  0
ARC
  5
27F6
330
1F
100
AcDbEntity
  8
SANINDUSA
100
AcDbCircle
 10
5061.671938044799
 20
2542.839368729469
 30
0.0
 40
0.0025897462316302
100
AcDbArc
 50
0.0
 51
90.00431003530019
  0
LWPOLYLINE
  5
27F7
330
1F
100
AcDbEntity
  8
SANINDUSA
100
AcDbPolyline
 90
        3
 70
   128
 43
0.0
 10
5061.660941925514
 20
2542.841961336717
 10
5061.668941643703
 20
2542.841959190949
 10
5061.671937849986
 20
2542.841958475694
  0
LWPOLYLINE
  5
27F8
330
1F
100
AcDbEntity
  8
SANINDUSA
100
AcDbPolyline
 90
        3
 70
   128
 43
0.0
 10
5061.674527791011
 20
2542.839369041308
 10
5061.674528446662
 20
2542.831372482166
 10
5061.674528685081
 20
2542.828377646789
  0
ARC
  5
27F9
330
1F
100
AcDbEntity
  8
SANINDUSA
100
AcDbCircle
 10
5061.66094084183
 20
2542.839373194799
 30
0.0
 40
0.0025881421443697
100
AcDbArc
 50
89.97600960600825
 51
179.9877074102974
  0
LWPOLYLINE
  5
27FA
330
1F
100
AcDbEntity
  8
SANINDUSA
100
AcDbPolyline
 90
        3
 70
   128
 43
0.0
 10
5061.658353176582
 20
2542.828382862195
 10
5061.658352818954
 20
2542.836379004106
 10
5061.658352699744
 20
2542.839373750075
  0
ARC
  5
27FB
330
1F
100
AcDbEntity
  8
SANINDUSA
100
AcDbCircle
 10
5061.671940609937
 20
2542.828378522687
 30
0.0
 40
0.0025880752919674
100
AcDbArc
 50
269.9784856748446
 51
359.9806090356752
  0
LWPOLYLINE
  5
27FC
330
1F
100
AcDbEntity
  8
SANINDUSA
100
AcDbPolyline
 90
        3
 70
   128
 43
0.0
 10
5061.671939638126
 20
2542.825790447577
 10
5061.663939919936
 20
2542.825792772159
 10
5061.660943177211
 20
2542.82579369603
  0
ARC
  5
27FD
330
1F
100
AcDbEntity
  8
SANINDUSA
100
AcDbCircle
 10
5061.660943006458
 20
2542.828383525986
 30
0.0
 40
0.0025898299609932
100
AcDbArc
 50
180.0146854123408
 51
270.0037776253037
  0
ARC
  5
27FE
330
1F
100
AcDbEntity
  8
SANINDUSA
100
AcDbCircle
 10
5061.736939979565
 20
2542.839335678694
 30
0.0
 40
0.0025897462316302
100
AcDbArc
 50
0.0
 51
90.00431003530019
  0
LWPOLYLINE
  5
27FF
330
1F
100
AcDbEntity
  8
SANINDUSA
100
AcDbPolyline
 90
        3
 70
   128
 43
0.0
 10
5061.725943860281
 20
2542.841928285941
 10
5061.73394357847
 20
2542.841926140174
 10
5061.736939784753
 20
2542.841925424918
  0
LWPOLYLINE
  5
2800
330
1F
100
AcDbEntity
  8
SANINDUSA
100
AcDbPolyline
 90
        3
 70
   128
 43
0.0
 10
5061.739529725778
 20
2542.839335990533
 10
5061.739530381429
 20
2542.83133943139
 10
5061.739530619848
 20
2542.828344596013
  0
ARC
  5
2801
330
1F
100
AcDbEntity
  8
SANINDUSA
100
AcDbCircle
 10
5061.725942776597
 20
2542.839340144024
 30
0.0
 40
0.0025881421443697
100
AcDbArc
 50
89.97600960600825
 51
179.9877074102974
  0
LWPOLYLINE
  5
2802
330
1F
100
AcDbEntity
  8
SANINDUSA
100
AcDbPolyline
 90
        3
 70
   128
 43
0.0
 10
5061.723355111348
 20
2542.828349811419
 10
5061.723354753721
 20
2542.83634595333
 10
5061.723354634512
 20
2542.8393406993
  0
ARC
  5
2803
330
1F
100
AcDbEntity
  8
SANINDUSA
100
AcDbCircle
 10
5061.736942544705
 20
2542.828345471912
 30
0.0
 40
0.0025880752919674
100
AcDbArc
 50
269.9784856748446
 51
359.9806090356752
  0
LWPOLYLINE
  5
2804
330
1F
100
AcDbEntity
  8
SANINDUSA
100
AcDbPolyline
 90
        3
 70
   128
 43
0.0
 10
5061.736941572893
 20
2542.825757396802
 10
5061.728941854704
 20
2542.825759721383
 10
5061.725945111978
 20
2542.825760645255
  0
ARC
  5
2805
330
1F
100
AcDbEntity
  8
SANINDUSA
100
AcDbCircle
 10
5061.725944941225
 20
2542.82835047521
 30
0.0
 40
0.0025898299609932
100
AcDbArc
 50
180.0146854123408
 51
270.0037776253037
  0
ARC
  5
2806
330
1F
100
AcDbEntity
  8
SANINDUSA
100
AcDbCircle
 10
5061.801941735518
 20
2542.83930995929
 30
0.0
 40
0.0025897462316302
100
AcDbArc
 50
0.0
 51
90.00431003530019
  0
LWPOLYLINE
  5
2807
330
1F
100
AcDbEntity
  8
SANINDUSA
100
AcDbPolyline
 90
        3
 70
   128
 43
0.0
 10
5061.790945616234
 20
2542.841902566537
 10
5061.798945334423
 20
2542.84190042077
 10
5061.801941540706
 20
2542.841899705514
  0
LWPOLYLINE
  5
2808
330
1F
100
AcDbEntity
  8
SANINDUSA
100
AcDbPolyline
 90
        3
 70
   128
 43
0.0
 10
5061.804531481731
 20
2542.839310271129
 10
5061.804532137382
 20
2542.831313711986
 10
5061.8045323758
 20
2542.828318876609
  0
ARC
  5
2809
330
1F
100
AcDbEntity
  8
SANINDUSA
100
AcDbCircle
 10
5061.79094453255
 20
2542.839314424619
 30
0.0
 40
0.0025881421443697
100
AcDbArc
 50
89.97600960600825
 51
179.9877074102974
  0
LWPOLYLINE
  5
280A
330
1F
100
AcDbEntity
  8
SANINDUSA
100
AcDbPolyline
 90
        3
 70
   128
 43
0.0
 10
5061.788356867301
 20
2542.828324092015
 10
5061.788356509674
 20
2542.836320233926
 10
5061.788356390464
 20
2542.839314979895
  0
ARC
  5
280B
330
1F
100
AcDbEntity
  8
SANINDUSA
100
AcDbCircle
 10
5061.801944300658
 20
2542.828319752507
 30
0.0
 40
0.0025880752919674
100
AcDbArc
 50
269.9784856748446
 51
359.9806090356752
  0
LWPOLYLINE
  5
280C
330
1F
100
AcDbEntity
  8
SANINDUSA
100
AcDbPolyline
 90
        3
 70
   128
 43
0.0
 10
5061.801943328845
 20
2542.825731677398
 10
5061.793943610656
 20
2542.825734001979
 10
5061.79094686793
 20
2542.82573492585
  0
ARC
  5
280D
330
1F
100
AcDbEntity
  8
SANINDUSA
100
AcDbCircle
 10
5061.790946697178
 20
2542.828324755806
 30
0.0
 40
0.0025898299609932
100
AcDbArc
 50
180.0146854123408
 51
270.0037776253037
  0
ARC
  5
280E
330
1F
100
AcDbEntity
  8
SANINDUSA
100
AcDbCircle
 10
5061.801941228878
 20
2542.904306246516
 30
0.0
 40
0.0025897462316302
100
AcDbArc
 50
0.0
 51
90.00431003530019
  0
LWPOLYLINE
  5
280F
330
1F
100
AcDbEntity
  8
SANINDUSA
100
AcDbPolyline
 90
        3
 70
   128
 43
0.0
 10
5061.790945109594
 20
2542.906898853763
 10
5061.798944827783
 20
2542.906896707996
 10
5061.801941034066
 20
2542.906895992741
  0
LWPOLYLINE
  5
2810
330
1F
100
AcDbEntity
  8
SANINDUSA
100
AcDbPolyline
 90
        3
 70
   128
 43
0.0
 10
5061.804530975091
 20
2542.904306558356
 10
5061.804531630742
 20
2542.896309999212
 10
5061.804531869161
 20
2542.893315163836
  0
ARC
  5
2811
330
1F
100
AcDbEntity
  8
SANINDUSA
100
AcDbCircle
 10
5061.79094402591
 20
2542.904310711846
 30
0.0
 40
0.0025881421443697
100
AcDbArc
 50
89.97600960600825
 51
179.9877074102974
  0
LWPOLYLINE
  5
2812
330
1F
100
AcDbEntity
  8
SANINDUSA
100
AcDbPolyline
 90
        3
 70
   128
 43
0.0
 10
5061.788356360661
 20
2542.893320379242
 10
5061.788356003035
 20
2542.901316521152
 10
5061.788355883825
 20
2542.904311267122
  0
ARC
  5
2813
330
1F
100
AcDbEntity
  8
SANINDUSA
100
AcDbCircle
 10
5061.801943794018
 20
2542.893316039734
 30
0.0
 40
0.0025880752919674
100
AcDbArc
 50
269.9784856748446
 51
359.9806090356752
  0
LWPOLYLINE
  5
2814
330
1F
100
AcDbEntity
  8
SANINDUSA
100
AcDbPolyline
 90
        3
 70
   128
 43
0.0
 10
5061.801942822206
 20
2542.890727964624
 10
5061.793943104017
 20
2542.890730289205
 10
5061.790946361291
 20
2542.890731213077
  0
ARC
  5
2815
330
1F
100
AcDbEntity
  8
SANINDUSA
100
AcDbCircle
 10
5061.790946190538
 20
2542.893321043033
 30
0.0
 40
0.0025898299609932
100
AcDbArc
 50
180.0146854123408
 51
270.0037776253037
  0
ARC
  5
2816
330
1F
100
AcDbEntity
  8
SANINDUSA
100
AcDbCircle
 10
5061.736939919961
 20
2542.904327018735
 30
0.0
 40
0.0025897462316302
100
AcDbArc
 50
0.0
 51
90.00431003530019
  0
LWPOLYLINE
  5
2817
330
1F
100
AcDbEntity
  8
SANINDUSA
100
AcDbPolyline
 90
        3
 70
   128
 43
0.0
 10
5061.725943800676
 20
2542.906919625982
 10
5061.733943518865
 20
2542.906917480215
 10
5061.736939725149
 20
2542.906916764959
  0
LWPOLYLINE
  5
2818
330
1F
100
AcDbEntity
  8
SANINDUSA
100
AcDbPolyline
 90
        3
 70
   128
 43
0.0
 10
5061.739529666173
 20
2542.904327330574
 10
5061.739530321824
 20
2542.896330771431
 10
5061.739530560243
 20
2542.893335936054
  0
ARC
  5
2819
330
1F
100
AcDbEntity
  8
SANINDUSA
100
AcDbCircle
 10
5061.725942716992
 20
2542.904331484065
 30
0.0
 40
0.0025881421443697
100
AcDbArc
 50
89.97600960600825
 51
179.9877074102974
  0
LWPOLYLINE
  5
281A
330
1F
100
AcDbEntity
  8
SANINDUSA
100
AcDbPolyline
 90
        3
 70
   128
 43
0.0
 10
5061.723355051744
 20
2542.893341151461
 10
5061.723354694116
 20
2542.901337293371
 10
5061.723354574906
 20
2542.904332039341
  0
ARC
  5
281B
330
1F
100
AcDbEntity
  8
SANINDUSA
100
AcDbCircle
 10
5061.7369424851
 20
2542.893336811952
 30
0.0
 40
0.0025880752919674
100
AcDbArc
 50
269.9784856748446
 51
359.9806090356752
  0
LWPOLYLINE
  5
281C
330
1F
100
AcDbEntity
  8
SANINDUSA
100
AcDbPolyline
 90
        3
 70
   128
 43
0.0
 10
5061.736941513288
 20
2542.890748736843
 10
5061.728941795099
 20
2542.890751061424
 10
5061.725945052373
 20
2542.890751985296
  0
ARC
  5
281D
330
1F
100
AcDbEntity
  8
SANINDUSA
100
AcDbCircle
 10
5061.72594488162
 20
2542.893341815251
 30
0.0
 40
0.0025898299609932
100
AcDbArc
 50
180.0146854123408
 51
270.0037776253037
  0
ARC
  5
281E
330
1F
100
AcDbEntity
  8
SANINDUSA
100
AcDbCircle
 10
5061.671938536537
 20
2542.904351888773
 30
0.0
 40
0.0025897462316302
100
AcDbArc
 50
0.0
 51
90.00431003530019
  0
LWPOLYLINE
  5
281F
330
1F
100
AcDbEntity
  8
SANINDUSA
100
AcDbPolyline
 90
        3
 70
   128
 43
0.0
 10
5061.660942417252
 20
2542.90694449602
 10
5061.668942135441
 20
2542.906942350253
 10
5061.671938341724
 20
2542.906941634997
  0
LWPOLYLINE
  5
2820
330
1F
100
AcDbEntity
  8
SANINDUSA
100
AcDbPolyline
 90
        3
 70
   128
 43
0.0
 10
5061.674528282749
 20
2542.904352200612
 10
5061.6745289384
 20
2542.896355641469
 10
5061.674529176819
 20
2542.893360806092
  0
ARC
  5
2821
330
1F
100
AcDbEntity
  8
SANINDUSA
100
AcDbCircle
 10
5061.660941333568
 20
2542.904356354103
 30
0.0
 40
0.0025881421443697
100
AcDbArc
 50
89.97600960600825
 51
179.9877074102974
  0
LWPOLYLINE
  5
2822
330
1F
100
AcDbEntity
  8
SANINDUSA
100
AcDbPolyline
 90
        3
 70
   128
 43
0.0
 10
5061.65835366832
 20
2542.893366021499
 10
5061.658353310693
 20
2542.901362163409
 10
5061.658353191483
 20
2542.904356909379
  0
ARC
  5
2823
330
1F
100
AcDbEntity
  8
SANINDUSA
100
AcDbCircle
 10
5061.671941101676
 20
2542.89336168199
 30
0.0
 40
0.0025880752919674
100
AcDbArc
 50
269.9784856748446
 51
359.9806090356752
  0
LWPOLYLINE
  5
2824
330
1F
100
AcDbEntity
  8
SANINDUSA
100
AcDbPolyline
 90
        3
 70
   128
 43
0.0
 10
5061.671940129865
 20
2542.890773606881
 10
5061.663940411675
 20
2542.890775931462
 10
5061.660943668949
 20
2542.890776855334
  0
ARC
  5
2825
330
1F
100
AcDbEntity
  8
SANINDUSA
100
AcDbCircle
 10
5061.660943498196
 20
2542.893366685289
 30
0.0
 40
0.0025898299609932
100
AcDbArc
 50
180.0146854123408
 51
270.0037776253037
  0
ARC
  5
2826
330
1F
100
AcDbEntity
  8
SANINDUSA
100
AcDbCircle
 10
5061.606937674653
 20
2542.904361157295
 30
0.0
 40
0.0025897462316302
100
AcDbArc
 50
0.0
 51
90.00431003530019
  0
LWPOLYLINE
  5
2827
330
1F
100
AcDbEntity
  8
SANINDUSA
100
AcDbPolyline
 90
        3
 70
   128
 43
0.0
 10
5061.595941555369
 20
2542.906953764543
 10
5061.603941273558
 20
2542.906951618775
 10
5061.606937479842
 20
2542.90695090352
  0
LWPOLYLINE
  5
2828
330
1F
100
AcDbEntity
  8
SANINDUSA
100
AcDbPolyline
 90
        3
 70
   128
 43
0.0
 10
5061.609527420866
 20
2542.904361469134
 10
5061.609528076518
 20
2542.896364909991
 10
5061.609528314936
 20
2542.893370074614
  0
ARC
  5
2829
330
1F
100
AcDbEntity
  8
SANINDUSA
100
AcDbCircle
 10
5061.595940471685
 20
2542.904365622625
 30
0.0
 40
0.0025881421443697
100
AcDbArc
 50
89.97600960600825
 51
179.9877074102974
  0
LWPOLYLINE
  5
282A
330
1F
100
AcDbEntity
  8
SANINDUSA
100
AcDbPolyline
 90
        3
 70
   128
 43
0.0
 10
5061.593352806437
 20
2542.893375290021
 10
5061.593352448809
 20
2542.901371431931
 10
5061.5933523296
 20
2542.904366177901
  0
ARC
  5
282B
330
1F
100
AcDbEntity
  8
SANINDUSA
100
AcDbCircle
 10
5061.606940239792
 20
2542.893370950513
 30
0.0
 40
0.0025880752919674
100
AcDbArc
 50
269.9784856748446
 51
359.9806090356752
  0
LWPOLYLINE
  5
282C
330
1F
100
AcDbEntity
  8
SANINDUSA
100
AcDbPolyline
 90
        3
 70
   128
 43
0.0
 10
5061.606939267981
 20
2542.890782875403
 10
5061.598939549792
 20
2542.890785199984
 10
5061.595942807066
 20
2542.890786123856
  0
ARC
  5
282D
330
1F
100
AcDbEntity
  8
SANINDUSA
100
AcDbCircle
 10
5061.595942636313
 20
2542.893375953812
 30
0.0
 40
0.0025898299609932
100
AcDbArc
 50
180.0146854123408
 51
270.0037776253037
  0
ARC
  5
282E
330
1F
100
AcDbEntity
  8
SANINDUSA
100
AcDbCircle
 10
5061.541938824428
 20
2542.904345332262
 30
0.0
 40
0.0025897462316302
100
AcDbArc
 50
0.0
 51
90.00431003530019
  0
LWPOLYLINE
  5
282F
330
1F
100
AcDbEntity
  8
SANINDUSA
100
AcDbPolyline
 90
        3
 70
   128
 43
0.0
 10
5061.530942705143
 20
2542.906937939509
 10
5061.538942423332
 20
2542.906935793742
 10
5061.541938629615
 20
2542.906935078486
  0
LWPOLYLINE
  5
2830
330
1F
100
AcDbEntity
  8
SANINDUSA
100
AcDbPolyline
 90
        3
 70
   128
 43
0.0
 10
5061.54452857064
 20
2542.904345644101
 10
5061.544529226291
 20
2542.896349084958
 10
5061.544529464709
 20
2542.893354249581
  0
ARC
  5
2831
330
1F
100
AcDbEntity
  8
SANINDUSA
100
AcDbCircle
 10
5061.530941621459
 20
2542.904349797592
 30
0.0
 40
0.0025881421443697
100
AcDbArc
 50
89.97600960600825
 51
179.9877074102974
  0
LWPOLYLINE
  5
2832
330
1F
100
AcDbEntity
  8
SANINDUSA
100
AcDbPolyline
 90
        3
 70
   128
 43
0.0
 10
5061.528353956211
 20
2542.893359464988
 10
5061.528353598583
 20
2542.901355606898
 10
5061.528353479373
 20
2542.904350352868
  0
ARC
  5
2833
330
1F
100
AcDbEntity
  8
SANINDUSA
100
AcDbCircle
 10
5061.541941389567
 20
2542.89335512548
 30
0.0
 40
0.0025880752919674
100
AcDbArc
 50
269.9784856748446
 51
359.9806090356752
  0
LWPOLYLINE
  5
2834
330
1F
100
AcDbEntity
  8
SANINDUSA
100
AcDbPolyline
 90
        3
 70
   128
 43
0.0
 10
5061.541940417754
 20
2542.89076705037
 10
5061.533940699565
 20
2542.890769374951
 10
5061.53094395684
 20
2542.890770298823
  0
ARC
  5
2835
330
1F
100
AcDbEntity
  8
SANINDUSA
100
AcDbCircle
 10
5061.530943786087
 20
2542.893360128779
 30
0.0
 40
0.0025898299609932
100
AcDbArc
 50
180.0146854123408
 51
270.0037776253037
  0
ARC
  5
2836
330
1F
100
AcDbEntity
  8
SANINDUSA
100
AcDbCircle
 10
5061.476940249872
 20
2542.904319836376
 30
0.0
 40
0.0025897462316302
100
AcDbArc
 50
0.0
 51
90.00431003530019
  0
LWPOLYLINE
  5
2837
330
1F
100
AcDbEntity
  8
SANINDUSA
100
AcDbPolyline
 90
        3
 70
   128
 43
0.0
 10
5061.465944130588
 20
2542.906912443623
 10
5061.473943848777
 20
2542.906910297855
 10
5061.476940055061
 20
2542.9069095826
  0
LWPOLYLINE
  5
2838
330
1F
100
AcDbEntity
  8
SANINDUSA
100
AcDbPolyline
 90
        3
 70
   128
 43
0.0
 10
5061.479529996085
 20
2542.904320148214
 10
5061.479530651737
 20
2542.896323589071
 10
5061.479530890155
 20
2542.893328753694
  0
ARC
  5
2839
330
1F
100
AcDbEntity
  8
SANINDUSA
100
AcDbCircle
 10
5061.465943046904
 20
2542.904324301705
 30
0.0
 40
0.0025881421443697
100
AcDbArc
 50
89.97600960600825
 51
179.9877074102974
  0
LWPOLYLINE
  5
283A
330
1F
100
AcDbEntity
  8
SANINDUSA
100
AcDbPolyline
 90
        3
 70
   128
 43
0.0
 10
5061.463355381656
 20
2542.893333969101
 10
5061.463355024027
 20
2542.901330111011
 10
5061.463354904819
 20
2542.904324856981
  0
ARC
  5
283B
330
1F
100
AcDbEntity
  8
SANINDUSA
100
AcDbCircle
 10
5061.476942815011
 20
2542.893329629593
 30
0.0
 40
0.0025880752919674
100
AcDbArc
 50
269.9784856748446
 51
359.9806090356752
  0
LWPOLYLINE
  5
283C
330
1F
100
AcDbEntity
  8
SANINDUSA
100
AcDbPolyline
 90
        3
 70
   128
 43
0.0
 10
5061.476941843199
 20
2542.890741554483
 10
5061.46894212501
 20
2542.890743879065
 10
5061.465945382285
 20
2542.890744802936
  0
ARC
  5
283D
330
1F
100
AcDbEntity
  8
SANINDUSA
100
AcDbCircle
 10
5061.465945211532
 20
2542.893334632892
 30
0.0
 40
0.0025898299609932
100
AcDbArc
 50
180.0146854123408
 51
270.0037776253037
  0
ARC
  5
283E
330
1F
100
AcDbEntity
  8
SANINDUSA
100
AcDbCircle
 10
5061.411941399646
 20
2542.904304041144
 30
0.0
 40
0.0025897462316302
100
AcDbArc
 50
0.0
 51
90.00431003530019
  0
LWPOLYLINE
  5
283F
330
1F
100
AcDbEntity
  8
SANINDUSA
100
AcDbPolyline
 90
        3
 70
   128
 43
0.0
 10
5061.400945280361
 20
2542.906896648391
 10
5061.40894499855
 20
2542.906894502625
 10
5061.411941204834
 20
2542.906893787369
  0
LWPOLYLINE
  5
2840
330
1F
100
AcDbEntity
  8
SANINDUSA
100
AcDbPolyline
 90
        3
 70
   128
 43
0.0
 10
5061.414531145858
 20
2542.904304352984
 10
5061.41453180151
 20
2542.89630779384
 10
5061.414532039929
 20
2542.893312958464
  0
ARC
  5
2841
330
1F
100
AcDbEntity
  8
SANINDUSA
100
AcDbCircle
 10
5061.400944196677
 20
2542.904308506474
 30
0.0
 40
0.0025881421443697
100
AcDbArc
 50
89.97600960600825
 51
179.9877074102974
  0
LWPOLYLINE
  5
2842
330
1F
100
AcDbEntity
  8
SANINDUSA
100
AcDbPolyline
 90
        3
 70
   128
 43
0.0
 10
5061.398356531429
 20
2542.89331817387
 10
5061.398356173802
 20
2542.901314315781
 10
5061.398356054592
 20
2542.90430906175
  0
ARC
  5
2843
330
1F
100
AcDbEntity
  8
SANINDUSA
100
AcDbCircle
 10
5061.411943964785
 20
2542.893313834362
 30
0.0
 40
0.0025880752919674
100
AcDbArc
 50
269.9784856748446
 51
359.9806090356752
  0
LWPOLYLINE
  5
2844
330
1F
100
AcDbEntity
  8
SANINDUSA
100
AcDbPolyline
 90
        3
 70
   128
 43
0.0
 10
5061.411942992974
 20
2542.890725759253
 10
5061.403943274784
 20
2542.890728083833
 10
5061.400946532058
 20
2542.890729007706
  0
ARC
  5
2845
330
1F
100
AcDbEntity
  8
SANINDUSA
100
AcDbCircle
 10
5061.400946361306
 20
2542.893318837661
 30
0.0
 40
0.0025898299609932
100
AcDbArc
 50
180.0146854123408
 51
270.0037776253037
  0
ARC
  5
2846
330
1F
100
AcDbEntity
  8
SANINDUSA
100
AcDbCircle
 10
5061.411940788698
 20
2542.96930224317
 30
0.0
 40
0.0025897462316302
100
AcDbArc
 50
0.0
 51
90.00431003530019
  0
LWPOLYLINE
  5
2847
330
1F
100
AcDbEntity
  8
SANINDUSA
100
AcDbPolyline
 90
        3
 70
   128
 43
0.0
 10
5061.400944669413
 20
2542.971894850417
 10
5061.408944387602
 20
2542.97189270465
 10
5061.411940593886
 20
2542.971891989394
  0
LWPOLYLINE
  5
2848
330
1F
100
AcDbEntity
  8
SANINDUSA
100
AcDbPolyline
 90
        3
 70
   128
 43
0.0
 10
5061.414530534911
 20
2542.969302555009
 10
5061.414531190562
 20
2542.961305995866
 10
5061.41453142898
 20
2542.95831116049
  0
ARC
  5
2849
330
1F
100
AcDbEntity
  8
SANINDUSA
100
AcDbCircle
 10
5061.40094358573
 20
2542.9693067085
 30
0.0
 40
0.0025881421443697
100
AcDbArc
 50
89.97600960600825
 51
179.9877074102974
  0
LWPOLYLINE
  5
284A
330
1F
100
AcDbEntity
  8
SANINDUSA
100
AcDbPolyline
 90
        3
 70
   128
 43
0.0
 10
5061.398355920482
 20
2542.958316375896
 10
5061.398355562854
 20
2542.966312517807
 10
5061.398355443644
 20
2542.969307263776
  0
ARC
  5
284B
330
1F
100
AcDbEntity
  8
SANINDUSA
100
AcDbCircle
 10
5061.411943353837
 20
2542.958312036388
 30
0.0
 40
0.0025880752919674
100
AcDbArc
 50
269.9784856748446
 51
359.9806090356752
  0
LWPOLYLINE
  5
284C
330
1F
100
AcDbEntity
  8
SANINDUSA
100
AcDbPolyline
 90
        3
 70
   128
 43
0.0
 10
5061.411942382026
 20
2542.955723961279
 10
5061.403942663837
 20
2542.955726285859
 10
5061.400945921111
 20
2542.955727209732
  0
ARC
  5
284D
330
1F
100
AcDbEntity
  8
SANINDUSA
100
AcDbCircle
 10
5061.400945750358
 20
2542.958317039687
 30
0.0
 40
0.0025898299609932
100
AcDbArc
 50
180.0146854123408
 51
270.0037776253037
  0
ARC
  5
284E
330
1F
100
AcDbEntity
  8
SANINDUSA
100
AcDbCircle
 10
5061.476940018905
 20
2542.969313582954
 30
0.0
 40
0.0025897462316302
100
AcDbArc
 50
0.0
 51
90.00431003530019
  0
LWPOLYLINE
  5
284F
330
1F
100
AcDbEntity
  8
SANINDUSA
100
AcDbPolyline
 90
        3
 70
   128
 43
0.0
 10
5061.465943899619
 20
2542.971906190201
 10
5061.473943617809
 20
2542.971904044434
 10
5061.476939824093
 20
2542.971903329178
  0
LWPOLYLINE
  5
2850
330
1F
100
AcDbEntity
  8
SANINDUSA
100
AcDbPolyline
 90
        3
 70
   128
 43
0.0
 10
5061.479529765117
 20
2542.969313894793
 10
5061.479530420768
 20
2542.96131733565
 10
5061.479530659187
 20
2542.958322500273
  0
ARC
  5
2851
330
1F
100
AcDbEntity
  8
SANINDUSA
100
AcDbCircle
 10
5061.465942815935
 20
2542.969318048284
 30
0.0
 40
0.0025881421443697
100
AcDbArc
 50
89.97600960600825
 51
179.9877074102974
  0
LWPOLYLINE
  5
2852
330
1F
100
AcDbEntity
  8
SANINDUSA
100
AcDbPolyline
 90
        3
 70
   128
 43
0.0
 10
5061.463355150688
 20
2542.958327715679
 10
5061.46335479306
 20
2542.96632385759
 10
5061.463354673851
 20
2542.96931860356
  0
ARC
  5
2853
330
1F
100
AcDbEntity
  8
SANINDUSA
100
AcDbCircle
 10
5061.476942584043
 20
2542.958323376172
 30
0.0
 40
0.0025880752919674
100
AcDbArc
 50
269.9784856748446
 51
359.9806090356752
  0
LWPOLYLINE
  5
2854
330
1F
100
AcDbEntity
  8
SANINDUSA
100
AcDbPolyline
 90
        3
 70
   128
 43
0.0
 10
5061.476941612232
 20
2542.955735301062
 10
5061.468941894043
 20
2542.955737625643
 10
5061.465945151317
 20
2542.955738549515
  0
ARC
  5
2855
330
1F
100
AcDbEntity
  8
SANINDUSA
100
AcDbCircle
 10
5061.465944980565
 20
2542.958328379471
 30
0.0
 40
0.0025898299609932
100
AcDbArc
 50
180.0146854123408
 51
270.0037776253037
  0
ARC
  5
2856
330
1F
100
AcDbEntity
  8
SANINDUSA
100
AcDbCircle
 10
5061.541939152252
 20
2542.969330160496
 30
0.0
 40
0.0025897462316302
100
AcDbArc
 50
0.0
 51
90.00431003530019
  0
LWPOLYLINE
  5
2857
330
1F
100
AcDbEntity
  8
SANINDUSA
100
AcDbPolyline
 90
        3
 70
   128
 43
0.0
 10
5061.530943032968
 20
2542.971922767743
 10
5061.538942751157
 20
2542.971920621976
 10
5061.541938957441
 20
2542.97191990672
  0
LWPOLYLINE
  5
2858
330
1F
100
AcDbEntity
  8
SANINDUSA
100
AcDbPolyline
 90
        3
 70
   128
 43
0.0
 10
5061.544528898465
 20
2542.969330472335
 10
5061.544529554117
 20
2542.961333913192
 10
5061.544529792535
 20
2542.958339077815
  0
ARC
  5
2859
330
1F
100
AcDbEntity
  8
SANINDUSA
100
AcDbCircle
 10
5061.530941949285
 20
2542.969334625825
 30
0.0
 40
0.0025881421443697
100
AcDbArc
 50
89.97600960600825
 51
179.9877074102974
  0
LWPOLYLINE
  5
285A
330
1F
100
AcDbEntity
  8
SANINDUSA
100
AcDbPolyline
 90
        3
 70
   128
 43
0.0
 10
5061.528354284035
 20
2542.958344293221
 10
5061.528353926409
 20
2542.966340435132
 10
5061.528353807199
 20
2542.969335181102
  0
ARC
  5
285B
330
1F
100
AcDbEntity
  8
SANINDUSA
100
AcDbCircle
 10
5061.541941717392
 20
2542.958339953714
 30
0.0
 40
0.0025880752919674
100
AcDbArc
 50
269.9784856748446
 51
359.9806090356752
  0
LWPOLYLINE
  5
285C
330
1F
100
AcDbEntity
  8
SANINDUSA
100
AcDbPolyline
 90
        3
 70
   128
 43
0.0
 10
5061.541940745581
 20
2542.955751878604
 10
5061.533941027391
 20
2542.955754203185
 10
5061.530944284665
 20
2542.955755127057
  0
ARC
  5
285D
330
1F
100
AcDbEntity
  8
SANINDUSA
100
AcDbCircle
 10
5061.530944113912
 20
2542.958344957013
 30
0.0
 40
0.0025898299609932
100
AcDbArc
 50
180.0146854123408
 51
270.0037776253037
  0
ARC
  5
285E
330
1F
100
AcDbEntity
  8
SANINDUSA
100
AcDbCircle
 10
5061.60693852402
 20
2542.969340121922
 30
0.0
 40
0.0025897462316302
100
AcDbArc
 50
0.0
 51
90.00431003530019
  0
LWPOLYLINE
  5
285F
330
1F
100
AcDbEntity
  8
SANINDUSA
100
AcDbPolyline
 90
        3
 70
   128
 43
0.0
 10
5061.595942404736
 20
2542.971932729169
 10
5061.603942122925
 20
2542.971930583402
 10
5061.606938329208
 20
2542.971929868147
  0
LWPOLYLINE
  5
2860
330
1F
100
AcDbEntity
  8
SANINDUSA
100
AcDbPolyline
 90
        3
 70
   128
 43
0.0
 10
5061.609528270232
 20
2542.969340433761
 10
5061.609528925884
 20
2542.961343874618
 10
5061.609529164303
 20
2542.958349039241
  0
ARC
  5
2861
330
1F
100
AcDbEntity
  8
SANINDUSA
100
AcDbCircle
 10
5061.595941321051
 20
2542.969344587252
 30
0.0
 40
0.0025881421443697
100
AcDbArc
 50
89.97600960600825
 51
179.9877074102974
  0
LWPOLYLINE
  5
2862
330
1F
100
AcDbEntity
  8
SANINDUSA
100
AcDbPolyline
 90
        3
 70
   128
 43
0.0
 10
5061.593353655803
 20
2542.958354254647
 10
5061.593353298175
 20
2542.966350396558
 10
5061.593353178967
 20
2542.969345142528
  0
ARC
  5
2863
330
1F
100
AcDbEntity
  8
SANINDUSA
100
AcDbCircle
 10
5061.606941089159
 20
2542.95834991514
 30
0.0
 40
0.0025880752919674
100
AcDbArc
 50
269.9784856748446
 51
359.9806090356752
  0
LWPOLYLINE
  5
2864
330
1F
100
AcDbEntity
  8
SANINDUSA
100
AcDbPolyline
 90
        3
 70
   128
 43
0.0
 10
5061.606940117347
 20
2542.95576184003
 10
5061.598940399158
 20
2542.955764164612
 10
5061.595943656432
 20
2542.955765088483
  0
ARC
  5
2865
330
1F
100
AcDbEntity
  8
SANINDUSA
100
AcDbCircle
 10
5061.59594348568
 20
2542.958354918439
 30
0.0
 40
0.0025898299609932
100
AcDbArc
 50
180.0146854123408
 51
270.0037776253037
  0
ARC
  5
2866
330
1F
100
AcDbEntity
  8
SANINDUSA
100
AcDbCircle
 10
5061.671938983572
 20
2542.969334854362
 30
0.0
 40
0.0025897462316302
100
AcDbArc
 50
0.0
 51
90.00431003530019
  0
LWPOLYLINE
  5
2867
330
1F
100
AcDbEntity
  8
SANINDUSA
100
AcDbPolyline
 90
        3
 70
   128
 43
0.0
 10
5061.660942864286
 20
2542.971927461609
 10
5061.668942582476
 20
2542.971925315841
 10
5061.67193878876
 20
2542.971924600586
  0
LWPOLYLINE
  5
2868
330
1F
100
AcDbEntity
  8
SANINDUSA
100
AcDbPolyline
 90
        3
 70
   128
 43
0.0
 10
5061.674528729785
 20
2542.9693351662
 10
5061.674529385435
 20
2542.961338607057
 10
5061.674529623854
 20
2542.958343771681
  0
ARC
  5
2869
330
1F
100
AcDbEntity
  8
SANINDUSA
100
AcDbCircle
 10
5061.660941780603
 20
2542.969339319692
 30
0.0
 40
0.0025881421443697
100
AcDbArc
 50
89.97600960600825
 51
179.9877074102974
  0
LWPOLYLINE
  5
286A
330
1F
100
AcDbEntity
  8
SANINDUSA
100
AcDbPolyline
 90
        3
 70
   128
 43
0.0
 10
5061.658354115355
 20
2542.958348987087
 10
5061.658353757727
 20
2542.966345128998
 10
5061.658353638518
 20
2542.969339874967
  0
ARC
  5
286B
330
1F
100
AcDbEntity
  8
SANINDUSA
100
AcDbCircle
 10
5061.67194154871
 20
2542.958344647579
 30
0.0
 40
0.0025880752919674
100
AcDbArc
 50
269.9784856748446
 51
359.9806090356752
  0
LWPOLYLINE
  5
286C
330
1F
100
AcDbEntity
  8
SANINDUSA
100
AcDbPolyline
 90
        3
 70
   128
 43
0.0
 10
5061.671940576899
 20
2542.95575657247
 10
5061.66394085871
 20
2542.955758897051
 10
5061.660944115985
 20
2542.955759820923
  0
ARC
  5
286D
330
1F
100
AcDbEntity
  8
SANINDUSA
100
AcDbCircle
 10
5061.660943945231
 20
2542.958349650878
 30
0.0
 40
0.0025898299609932
100
AcDbArc
 50
180.0146854123408
 51
270.0037776253037
  0
ARC
  5
286E
330
1F
100
AcDbEntity
  8
SANINDUSA
100
AcDbCircle
 10
5061.736939815652
 20
2542.96931905168
 30
0.0
 40
0.0025897462316302
100
AcDbArc
 50
0.0
 51
90.00431003530019
  0
LWPOLYLINE
  5
286F
330
1F
100
AcDbEntity
  8
SANINDUSA
100
AcDbPolyline
 90
        3
 70
   128
 43
0.0
 10
5061.725943696368
 20
2542.971911658927
 10
5061.733943414557
 20
2542.97190951316
 10
5061.73693962084
 20
2542.971908797904
  0
LWPOLYLINE
  5
2870
330
1F
100
AcDbEntity
  8
SANINDUSA
100
AcDbPolyline
 90
        3
 70
   128
 43
0.0
 10
5061.739529561865
 20
2542.969319363519
 10
5061.739530217517
 20
2542.961322804376
 10
5061.739530455935
 20
2542.958327969
  0
ARC
  5
2871
330
1F
100
AcDbEntity
  8
SANINDUSA
100
AcDbCircle
 10
5061.725942612684
 20
2542.96932351701
 30
0.0
 40
0.0025881421443697
100
AcDbArc
 50
89.97600960600825
 51
179.9877074102974
  0
LWPOLYLINE
  5
2872
330
1F
100
AcDbEntity
  8
SANINDUSA
100
AcDbPolyline
 90
        3
 70
   128
 43
0.0
 10
5061.723354947435
 20
2542.958333184406
 10
5061.723354589808
 20
2542.966329326316
 10
5061.723354470599
 20
2542.969324072286
  0
ARC
  5
2873
330
1F
100
AcDbEntity
  8
SANINDUSA
100
AcDbCircle
 10
5061.736942380791
 20
2542.958328844898
 30
0.0
 40
0.0025880752919674
100
AcDbArc
 50
269.9784856748446
 51
359.9806090356752
  0
LWPOLYLINE
  5
2874
330
1F
100
AcDbEntity
  8
SANINDUSA
100
AcDbPolyline
 90
        3
 70
   128
 43
0.0
 10
5061.73694140898
 20
2542.955740769788
 10
5061.728941690791
 20
2542.955743094369
 10
5061.725944948065
 20
2542.955744018241
  0
ARC
  5
2875
330
1F
100
AcDbEntity
  8
SANINDUSA
100
AcDbCircle
 10
5061.725944777312
 20
2542.958333848197
 30
0.0
 40
0.0025898299609932
100
AcDbArc
 50
180.0146854123408
 51
270.0037776253037
  0
ARC
  5
2876
330
1F
100
AcDbEntity
  8
SANINDUSA
100
AcDbCircle
 10
5061.801940662634
 20
2542.969304411289
 30
0.0
 40
0.0025897462316302
100
AcDbArc
 50
0.0
 51
90.00431003530019
  0
LWPOLYLINE
  5
2877
330
1F
100
AcDbEntity
  8
SANINDUSA
100
AcDbPolyline
 90
        3
 70
   128
 43
0.0
 10
5061.79094454335
 20
2542.971897018536
 10
5061.798944261539
 20
2542.971894872769
 10
5061.801940467823
 20
2542.971894157514
  0
LWPOLYLINE
  5
2878
330
1F
100
AcDbEntity
  8
SANINDUSA
100
AcDbPolyline
 90
        3
 70
   128
 43
0.0
 10
5061.804530408847
 20
2542.969304723128
 10
5061.804531064499
 20
2542.961308163985
 10
5061.804531302917
 20
2542.958313328608
  0
ARC
  5
2879
330
1F
100
AcDbEntity
  8
SANINDUSA
100
AcDbCircle
 10
5061.790943459666
 20
2542.969308876619
 30
0.0
 40
0.0025881421443697
100
AcDbArc
 50
89.97600960600825
 51
179.9877074102974
  0
LWPOLYLINE
  5
287A
330
1F
100
AcDbEntity
  8
SANINDUSA
100
AcDbPolyline
 90
        3
 70
   128
 43
0.0
 10
5061.788355794418
 20
2542.958318544015
 10
5061.78835543679
 20
2542.966314685925
 10
5061.788355317581
 20
2542.969309431895
  0
ARC
  5
287B
330
1F
100
AcDbEntity
  8
SANINDUSA
100
AcDbCircle
 10
5061.801943227774
 20
2542.958314204507
 30
0.0
 40
0.0025880752919674
100
AcDbArc
 50
269.9784856748446
 51
359.9806090356752
  0
LWPOLYLINE
  5
287C
330
1F
100
AcDbEntity
  8
SANINDUSA
100
AcDbPolyline
 90
        3
 70
   128
 43
0.0
 10
5061.801942255962
 20
2542.955726129398
 10
5061.793942537772
 20
2542.955728453978
 10
5061.790945795047
 20
2542.955729377851
  0
ARC
  5
287D
330
1F
100
AcDbEntity
  8
SANINDUSA
100
AcDbCircle
 10
5061.790945624294
 20
2542.958319207806
 30
0.0
 40
0.0025898299609932
100
AcDbArc
 50
180.0146854123408
 51
270.0037776253037
  0
ARC
  5
287E
330
1F
100
AcDbEntity
  8
SANINDUSA
100
AcDbCircle
 10
5061.801940185797
 20
2543.034300288734
 30
0.0
 40
0.0025897462316302
100
AcDbArc
 50
0.0
 51
90.00431003530019
  0
LWPOLYLINE
  5
287F
330
1F
100
AcDbEntity
  8
SANINDUSA
100
AcDbPolyline
 90
        3
 70
   128
 43
0.0
 10
5061.790944066513
 20
2543.036892895981
 10
5061.798943784702
 20
2543.036890750214
 10
5061.801939990985
 20
2543.036890034958
  0
LWPOLYLINE
  5
2880
330
1F
100
AcDbEntity
  8
SANINDUSA
100
AcDbPolyline
 90
        3
 70
   128
 43
0.0
 10
5061.80452993201
 20
2543.034300600573
 10
5061.804530587661
 20
2543.02630404143
 10
5061.80453082608
 20
2543.023309206053
  0
ARC
  5
2881
330
1F
100
AcDbEntity
  8
SANINDUSA
100
AcDbCircle
 10
5061.790942982828
 20
2543.034304754064
 30
0.0
 40
0.0025881421443697
100
AcDbArc
 50
89.97600960600825
 51
179.9877074102974
  0
LWPOLYLINE
  5
2882
330
1F
100
AcDbEntity
  8
SANINDUSA
100
AcDbPolyline
 90
        3
 70
   128
 43
0.0
 10
5061.788355317581
 20
2543.023314421459
 10
5061.788354959952
 20
2543.03131056337
 10
5061.788354840743
 20
2543.03430530934
  0
ARC
  5
2883
330
1F
100
AcDbEntity
  8
SANINDUSA
100
AcDbCircle
 10
5061.801942750935
 20
2543.023310081951
 30
0.0
 40
0.0025880752919674
100
AcDbArc
 50
269.9784856748446
 51
359.9806090356752
  0
LWPOLYLINE
  5
2884
330
1F
100
AcDbEntity
  8
SANINDUSA
100
AcDbPolyline
 90
        3
 70
   128
 43
0.0
 10
5061.801941779124
 20
2543.020722006842
 10
5061.793942060935
 20
2543.020724331424
 10
5061.79094531821
 20
2543.020725255295
  0
ARC
  5
2885
330
1F
100
AcDbEntity
  8
SANINDUSA
100
AcDbCircle
 10
5061.790945147457
 20
2543.023315085251
 30
0.0
 40
0.0025898299609932
100
AcDbArc
 50
180.0146854123408
 51
270.0037776253037
  0
ARC
  5
2886
330
1F
100
AcDbEntity
  8
SANINDUSA
100
AcDbCircle
 10
5061.736939770948
 20
2543.034308648286
 30
0.0
 40
0.0025897462316302
100
AcDbArc
 50
0.0
 51
90.00431003530019
  0
LWPOLYLINE
  5
2887
330
1F
100
AcDbEntity
  8
SANINDUSA
100
AcDbPolyline
 90
        3
 70
   128
 43
0.0
 10
5061.725943651664
 20
2543.036901255533
 10
5061.733943369853
 20
2543.036899109765
 10
5061.736939576137
 20
2543.03689839451
  0
LWPOLYLINE
  5
2888
330
1F
100
AcDbEntity
  8
SANINDUSA
100
AcDbPolyline
 90
        3
 70
   128
 43
0.0
 10
5061.739529517161
 20
2543.034308960125
 10
5061.739530172813
 20
2543.026312400981
 10
5061.739530411231
 20
2543.023317565605
  0
ARC
  5
2889
330
1F
100
AcDbEntity
  8
SANINDUSA
100
AcDbCircle
 10
5061.725942567981
 20
2543.034313113615
 30
0.0
 40
0.0025881421443697
100
AcDbArc
 50
89.97600960600825
 51
179.9877074102974
  0
LWPOLYLINE
  5
288A
330
1F
100
AcDbEntity
  8
SANINDUSA
100
AcDbPolyline
 90
        3
 70
   128
 43
0.0
 10
5061.723354902732
 20
2543.023322781011
 10
5061.723354545105
 20
2543.031318922921
 10
5061.723354425895
 20
2543.034313668891
  0
ARC
  5
288B
330
1F
100
AcDbEntity
  8
SANINDUSA
100
AcDbCircle
 10
5061.736942336088
 20
2543.023318441503
 30
0.0
 40
0.0025880752919674
100
AcDbArc
 50
269.9784856748446
 51
359.9806090356752
  0
LWPOLYLINE
  5
288C
330
1F
100
AcDbEntity
  8
SANINDUSA
100
AcDbPolyline
 90
        3
 70
   128
 43
0.0
 10
5061.736941364276
 20
2543.020730366393
 10
5061.728941646087
 20
2543.020732690975
 10
5061.725944903361
 20
2543.020733614847
  0
ARC
  5
288D
330
1F
100
AcDbEntity
  8
SANINDUSA
100
AcDbCircle
 10
5061.725944732609
 20
2543.023323444802
 30
0.0
 40
0.0025898299609932
100
AcDbArc
 50
180.0146854123408
 51
270.0037776253037
  0
ARC
  5
288E
330
1F
100
AcDbEntity
  8
SANINDUSA
100
AcDbCircle
 10
5061.6719393561
 20
2543.03431678432
 30
0.0
 40
0.0025897462316302
100
AcDbArc
 50
0.0
 51
90.00431003530019
  0
LWPOLYLINE
  5
288F
330
1F
100
AcDbEntity
  8
SANINDUSA
100
AcDbPolyline
 90
        3
 70
   128
 43
0.0
 10
5061.660943236816
 20
2543.036909391567
 10
5061.668942955005
 20
2543.036907245799
 10
5061.671939161289
 20
2543.036906530544
  0
LWPOLYLINE
  5
2890
330
1F
100
AcDbEntity
  8
SANINDUSA
100
AcDbPolyline
 90
        3
 70
   128
 43
0.0
 10
5061.674529102313
 20
2543.034317096158
 10
5061.674529757965
 20
2543.026320537015
 10
5061.674529996383
 20
2543.023325701639
  0
ARC
  5
2891
330
1F
100
AcDbEntity
  8
SANINDUSA
100
AcDbCircle
 10
5061.660942153132
 20
2543.03432124965
 30
0.0
 40
0.0025881421443697
100
AcDbArc
 50
89.97600960600825
 51
179.9877074102974
  0
LWPOLYLINE
  5
2892
330
1F
100
AcDbEntity
  8
SANINDUSA
100
AcDbPolyline
 90
        3
 70
   128
 43
0.0
 10
5061.658354487884
 20
2543.023330917045
 10
5061.658354130256
 20
2543.031327058955
 10
5061.658354011047
 20
2543.034321804925
  0
ARC
  5
2893
330
1F
100
AcDbEntity
  8
SANINDUSA
100
AcDbCircle
 10
5061.67194192124
 20
2543.023326577537
 30
0.0
 40
0.0025880752919674
100
AcDbArc
 50
269.9784856748446
 51
359.9806090356752
  0
LWPOLYLINE
  5
2894
330
1F
100
AcDbEntity
  8
SANINDUSA
100
AcDbPolyline
 90
        3
 70
   128
 43
0.0
 10
5061.671940949428
 20
2543.020738502427
 10
5061.663941231238
 20
2543.020740827009
 10
5061.660944488513
 20
2543.02074175088
  0
ARC
  5
2895
330
1F
100
AcDbEntity
  8
SANINDUSA
100
AcDbCircle
 10
5061.66094431776
 20
2543.023331580836
 30
0.0
 40
0.0025898299609932
100
AcDbArc
 50
180.0146854123408
 51
270.0037776253037
  0
ARC
  5
2896
330
1F
100
AcDbEntity
  8
SANINDUSA
100
AcDbCircle
 10
5061.60693916477
 20
2543.03431910145
 30
0.0
 40
0.0025897462316302
100
AcDbArc
 50
0.0
 51
90.00431003530019
  0
LWPOLYLINE
  5
2897
330
1F
100
AcDbEntity
  8
SANINDUSA
100
AcDbPolyline
 90
        3
 70
   128
 43
0.0
 10
5061.595943045485
 20
2543.036911708697
 10
5061.603942763674
 20
2543.03690956293
 10
5061.606938969958
 20
2543.036908847674
  0
LWPOLYLINE
  5
2898
330
1F
100
AcDbEntity
  8
SANINDUSA
100
AcDbPolyline
 90
        3
 70
   128
 43
0.0
 10
5061.609528910983
 20
2543.034319413289
 10
5061.609529566634
 20
2543.026322854146
 10
5061.609529805052
 20
2543.023328018769
  0
ARC
  5
2899
330
1F
100
AcDbEntity
  8
SANINDUSA
100
AcDbCircle
 10
5061.595941961801
 20
2543.03432356678
 30
0.0
 40
0.0025881421443697
100
AcDbArc
 50
89.97600960600825
 51
179.9877074102974
  0
LWPOLYLINE
  5
289A
330
1F
100
AcDbEntity
  8
SANINDUSA
100
AcDbPolyline
 90
        3
 70
   128
 43
0.0
 10
5061.593354296554
 20
2543.023333234176
 10
5061.593353938925
 20
2543.031329376086
 10
5061.593353819716
 20
2543.034324122056
  0
ARC
  5
289B
330
1F
100
AcDbEntity
  8
SANINDUSA
100
AcDbCircle
 10
5061.606941729909
 20
2543.023328894668
 30
0.0
 40
0.0025880752919674
100
AcDbArc
 50
269.9784856748446
 51
359.9806090356752
  0
LWPOLYLINE
  5
289C
330
1F
100
AcDbEntity
  8
SANINDUSA
100
AcDbPolyline
 90
        3
 70
   128
 43
0.0
 10
5061.606940758097
 20
2543.020740819558
 10
5061.598941039908
 20
2543.020743144139
 10
5061.595944297183
 20
2543.020744068011
  0
ARC
  5
289D
330
1F
100
AcDbEntity
  8
SANINDUSA
100
AcDbCircle
 10
5061.595944126429
 20
2543.023333897967
 30
0.0
 40
0.0025898299609932
100
AcDbArc
 50
180.0146854123408
 51
270.0037776253037
  0
ARC
  5
289E
330
1F
100
AcDbEntity
  8
SANINDUSA
100
AcDbCircle
 10
5061.541939435375
 20
2543.034313826439
 30
0.0
 40
0.0025897462316302
100
AcDbArc
 50
0.0
 51
90.00431003530019
  0
LWPOLYLINE
  5
289F
330
1F
100
AcDbEntity
  8
SANINDUSA
100
AcDbPolyline
 90
        3
 70
   128
 43
0.0
 10
5061.53094331609
 20
2543.036906433686
 10
5061.538943034279
 20
2543.036904287919
 10
5061.541939240562
 20
2543.036903572663
  0
LWPOLYLINE
  5
28A0
330
1F
100
AcDbEntity
  8
SANINDUSA
100
AcDbPolyline
 90
        3
 70
   128
 43
0.0
 10
5061.544529181588
 20
2543.034314138278
 10
5061.544529837238
 20
2543.026317579135
 10
5061.544530075657
 20
2543.023322743758
  0
ARC
  5
28A1
330
1F
100
AcDbEntity
  8
SANINDUSA
100
AcDbCircle
 10
5061.530942232406
 20
2543.034318291768
 30
0.0
 40
0.0025881421443697
100
AcDbArc
 50
89.97600960600825
 51
179.9877074102974
  0
LWPOLYLINE
  5
28A2
330
1F
100
AcDbEntity
  8
SANINDUSA
100
AcDbPolyline
 90
        3
 70
   128
 43
0.0
 10
5061.528354567158
 20
2543.023327959164
 10
5061.528354209531
 20
2543.031324101075
 10
5061.528354090321
 20
2543.034318847045
  0
ARC
  5
28A3
330
1F
100
AcDbEntity
  8
SANINDUSA
100
AcDbCircle
 10
5061.541942000514
 20
2543.023323619657
 30
0.0
 40
0.0025880752919674
100
AcDbArc
 50
269.9784856748446
 51
359.9806090356752
  0
LWPOLYLINE
  5
28A4
330
1F
100
AcDbEntity
  8
SANINDUSA
100
AcDbPolyline
 90
        3
 70
   128
 43
0.0
 10
5061.541941028703
 20
2543.020735544547
 10
5061.533941310513
 20
2543.020737869128
 10
5061.530944567788
 20
2543.020738793
  0
ARC
  5
28A5
330
1F
100
AcDbEntity
  8
SANINDUSA
100
AcDbCircle
 10
5061.530944397034
 20
2543.023328622956
 30
0.0
 40
0.0025898299609932
100
AcDbArc
 50
180.0146854123408
 51
270.0037776253037
  0
ARC
  5
28A6
330
1F
100
AcDbEntity
  8
SANINDUSA
100
AcDbCircle
 10
5061.476939869892
 20
2543.034304915545
 30
0.0
 40
0.0025897462316302
100
AcDbArc
 50
0.0
 51
90.00431003530019
  0
LWPOLYLINE
  5
28A7
330
1F
100
AcDbEntity
  8
SANINDUSA
100
AcDbPolyline
 90
        3
 70
   128
 43
0.0
 10
5061.465943750608
 20
2543.036897522792
 10
5061.473943468797
 20
2543.036895377025
 10
5061.476939675081
 20
2543.036894661769
  0
LWPOLYLINE
  5
28A8
330
1F
100
AcDbEntity
  8
SANINDUSA
100
AcDbPolyline
 90
        3
 70
   128
 43
0.0
 10
5061.479529616105
 20
2543.034305227383
 10
5061.479530271757
 20
2543.02630866824
 10
5061.479530510175
 20
2543.023313832863
  0
ARC
  5
28A9
330
1F
100
AcDbEntity
  8
SANINDUSA
100
AcDbCircle
 10
5061.465942666924
 20
2543.034309380875
 30
0.0
 40
0.0025881421443697
100
AcDbArc
 50
89.97600960600825
 51
179.9877074102974
  0
LWPOLYLINE
  5
28AA
330
1F
100
AcDbEntity
  8
SANINDUSA
100
AcDbPolyline
 90
        3
 70
   128
 43
0.0
 10
5061.463355001676
 20
2543.02331904827
 10
5061.463354644048
 20
2543.031315190181
 10
5061.463354524839
 20
2543.03430993615
  0
ARC
  5
28AB
330
1F
100
AcDbEntity
  8
SANINDUSA
100
AcDbCircle
 10
5061.476942435032
 20
2543.023314708762
 30
0.0
 40
0.0025880752919674
100
AcDbArc
 50
269.9784856748446
 51
359.9806090356752
  0
LWPOLYLINE
  5
28AC
330
1F
100
AcDbEntity
  8
SANINDUSA
100
AcDbPolyline
 90
        3
 70
   128
 43
0.0
 10
5061.47694146322
 20
2543.020726633653
 10
5061.46894174503
 20
2543.020728958234
 10
5061.465945002305
 20
2543.020729882106
  0
ARC
  5
28AD
330
1F
100
AcDbEntity
  8
SANINDUSA
100
AcDbCircle
 10
5061.465944831553
 20
2543.023319712061
 30
0.0
 40
0.0025898299609932
100
AcDbArc
 50
180.0146854123408
 51
270.0037776253037
  0
ARC
  5
28AE
330
1F
100
AcDbEntity
  8
SANINDUSA
100
AcDbCircle
 10
5061.411940282059
 20
2543.034298373935
 30
0.0
 40
0.0025897462316302
100
AcDbArc
 50
0.0
 51
90.00431003530019
  0
LWPOLYLINE
  5
28AF
330
1F
100
AcDbEntity
  8
SANINDUSA
100
AcDbPolyline
 90
        3
 70
   128
 43
0.0
 10
5061.400944162774
 20
2543.036890981182
 10
5061.408943880963
 20
2543.036888835415
 10
5061.411940087246
 20
2543.036888120159
  0
LWPOLYLINE
  5
28B0
330
1F
100
AcDbEntity
  8
SANINDUSA
100
AcDbPolyline
 90
        3
 70
   128
 43
0.0
 10
5061.414530028272
 20
2543.034298685774
 10
5061.414530683922
 20
2543.026302126631
 10
5061.414530922341
 20
2543.023307291254
  0
ARC
  5
28B1
330
1F
100
AcDbEntity
  8
SANINDUSA
100
AcDbCircle
 10
5061.40094307909
 20
2543.034302839265
 30
0.0
 40
0.0025881421443697
100
AcDbArc
 50
89.97600960600825
 51
179.9877074102974
  0
LWPOLYLINE
  5
28B2
330
1F
100
AcDbEntity
  8
SANINDUSA
100
AcDbPolyline
 90
        3
 70
   128
 43
0.0
 10
5061.398355413842
 20
2543.02331250666
 10
5061.398355056215
 20
2543.031308648571
 10
5061.398354937005
 20
2543.034303394541
  0
ARC
  5
28B3
330
1F
100
AcDbEntity
  8
SANINDUSA
100
AcDbCircle
 10
5061.411942847198
 20
2543.023308167152
 30
0.0
 40
0.0025880752919674
100
AcDbArc
 50
269.9784856748446
 51
359.9806090356752
  0
LWPOLYLINE
  5
28B4
330
1F
100
AcDbEntity
  8
SANINDUSA
100
AcDbPolyline
 90
        3
 70
   128
 43
0.0
 10
5061.411941875387
 20
2543.020720092043
 10
5061.403942157197
 20
2543.020722416624
 10
5061.400945414471
 20
2543.020723340496
  0
ARC
  5
28B5
330
1F
100
AcDbEntity
  8
SANINDUSA
100
AcDbCircle
 10
5061.400945243718
 20
2543.023313170451
 30
0.0
 40
0.0025898299609932
100
AcDbArc
 50
180.0146854123408
 51
270.0037776253037
  0
ARC
  5
28CD
330
1F
100
AcDbEntity
  8
SANINDUSA
100
AcDbCircle
 10
5064.184452563017
 20
2542.834786231424
 30
0.0
 40
0.0030000703951563
100
AcDbArc
 50
33.3895275186764
 51
88.53813735138871
  0
ARC
  5
28CE
330
1F
100
AcDbEntity
  8
SANINDUSA
100
AcDbCircle
 10
5064.190297286913
 20
2542.838638518952
 30
0.0
 40
0.0039999950781089
100
AcDbArc
 50
213.3887474702086
 51
268.5389248365664
  0
ENDSEC
  0
SECTION
  2
OBJECTS
  0
DICTIONARY
  5
C
330
0
100
AcDbDictionary
281
     1
  3
ACAD_COLOR
350
EE6
  3
ACAD_GROUP
350
D
  3
ACAD_LAYOUT
350
1A
  3
ACAD_MATERIAL
350
EE5
  3
ACAD_MLINESTYLE
350
17
  3
ACAD_PLOTSETTINGS
350
19
  3
ACAD_PLOTSTYLENAME
350
E
  3
ACAD_TABLESTYLE
350
EE7
  3
ACDBHEADERROUNDTRIPXREC
350
28E9
  3
AcDbVariableDictionary
350
3D
  3
ASE_INDEX_DICTIONARY
350
E77
  0
DICTIONARY
  5
1051
330
2
100
AcDbDictionary
280
     1
281
     1
  3
ACAD_LAYERFILTERS
360
1057
  3
ACLYDICTIONARY
360
1056
  0
DICTIONARY
  5
EE6
102
{ACAD_REACTORS
330
C
102
}
330
C
100
AcDbDictionary
281
     1
  0
DICTIONARY
  5
D
102
{ACAD_REACTORS
330
C
102
}
330
C
100
AcDbDictionary
281
     1
  0
DICTIONARY
  5
1A
102
{ACAD_REACTORS
330
C
102
}
330
C
100
AcDbDictionary
281
     1
  3
Layout1
350
1E
  3
Layout2
350
26
  3
Model
350
22
  0
DICTIONARY
  5
EE5
102
{ACAD_REACTORS
330
C
102
}
330
C
100
AcDbDictionary
281
     1
  0
DICTIONARY
  5
17
102
{ACAD_REACTORS
330
C
102
}
330
C
100
AcDbDictionary
281
     1
  3
Standard
350
18
  0
DICTIONARY
  5
19
102
{ACAD_REACTORS
330
C
102
}
330
C
100
AcDbDictionary
281
     1
  0
ACDBDICTIONARYWDFLT
  5
E
102
{ACAD_REACTORS
330
C
102
}
330
C
100
AcDbDictionary
281
     1
  3
Normal
350
F
100
AcDbDictionaryWithDefault
340
F
  0
DICTIONARY
  5
EE7
102
{ACAD_REACTORS
330
C
102
}
330
C
100
AcDbDictionary
281
     1
  3
Standard
350
EE8
  0
DICTIONARY
  5
28E9
102
{ACAD_REACTORS
330
C
102
}
330
C
100
AcDbDictionary
281
     1
  0
DICTIONARY
  5
3D
102
{ACAD_REACTORS
330
C
102
}
330
C
100
AcDbDictionary
281
     1
  3
CTABLESTYLE
350
1049
  3
DIMASSOC
350
3F
  3
HIDETEXT
350
3E
  3
PROJECTNAME
350
28E1
  0
DICTIONARY
  5
E77
102
{ACAD_REACTORS
330
C
102
}
330
C
100
AcDbDictionary
281
     1
  3
ASEBlockHierarchyIndexRecord
350
E78
1001
DCO15
1040
1552647238.734
  0
DICTIONARY
  5
1057
102
{ACAD_REACTORS
330
1051
102
}
330
1051
100
AcDbDictionary
281
     1
  0
DICTIONARY
  5
1056
102
{ACAD_REACTORS
330
1051
102
}
330
1051
100
AcDbDictionary
281
     1
1001
ACAD
1000
<All
  0
LAYOUT
  5
1E
102
{ACAD_XDICTIONARY
360
28EA
102
}
102
{ACAD_REACTORS
330
1A
102
}
330
1A
100
AcDbPlotSettings
  1

  2
Ploter HP500
  4

  6

 40
0.0
 41
0.0
 42
0.0
 43
0.0
 44
0.0
 45
0.0
 46
0.0
 47
0.0
 48
0.0
 49
0.0
140
0.0
141
0.0
142
1.0
143
1.0
 70
   688
 72
     0
 73
     0
 74
     5
  7
sanindusa.ctb
 75
    16
147
1.0
148
0.0
149
0.0
100
AcDbLayout
  1
Layout1
 70
     1
 71
     1
 10
0.0
 20
0.0
 11
420.0
 21
297.0
 12
0.0
 22
0.0
 32
0.0
 14
1.000000000000000E+20
 24
1.000000000000000E+20
 34
1.000000000000000E+20
 15
-1.000000000000000E+20
 25
-1.000000000000000E+20
 35
-1.000000000000000E+20
146
0.0
 13
0.0
 23
0.0
 33
0.0
 16
1.0
 26
0.0
 36
0.0
 17
0.0
 27
1.0
 37
0.0
 76
     0
330
1B
  0
LAYOUT
  5
26
102
{ACAD_XDICTIONARY
360
28EE
102
}
102
{ACAD_REACTORS
330
1A
102
}
330
1A
100
AcDbPlotSettings
  1

  2
Ploter HP500
  4

  6

 40
0.0
 41
0.0
 42
0.0
 43
0.0
 44
0.0
 45
0.0
 46
0.0
 47
0.0
 48
0.0
 49
0.0
140
0.0
141
0.0
142
1.0
143
1.0
 70
   688
 72
     0
 73
     0
 74
     5
  7
sanindusa.ctb
 75
    16
147
1.0
148
0.0
149
0.0
100
AcDbLayout
  1
Layout2
 70
     1
 71
     2
 10
0.0
 20
0.0
 11
12.0
 21
9.0
 12
0.0
 22
0.0
 32
0.0
 14
0.0
 24
0.0
 34
0.0
 15
0.0
 25
0.0
 35
0.0
146
0.0
 13
0.0
 23
0.0
 33
0.0
 16
1.0
 26
0.0
 36
0.0
 17
0.0
 27
1.0
 37
0.0
 76
     0
330
23
  0
LAYOUT
  5
22
102
{ACAD_XDICTIONARY
360
28EC
102
}
102
{ACAD_REACTORS
330
1A
102
}
330
1A
100
AcDbPlotSettings
  1

  2
Ploter HP500
  4
User268
  6

 40
4.995333194732666
 41
16.97565841674804
 42
4.995330810546875
 43
16.97567749023437
 44
209.9733276367187
 45
296.9259948730469
 46
0.0
 47
0.0
 48
0.0
 49
0.0
140
0.0
141
0.0
142
1.0
143
1.0
 70
 11952
 72
     1
 73
     1
 74
     0
  7
sanindusa.ctb
 75
     0
147
1.0
148
-427.5957866592534
149
7.362384574453926
100
AcDbLayout
  1
Model
 70
     1
 71
     0
 10
0.0
 20
0.0
 11
12.0
 21
9.0
 12
0.0
 22
0.0
 32
0.0
 14
0.0
 24
0.0
 34
0.0
 15
0.0
 25
0.0
 35
0.0
146
0.0
 13
0.0
 23
0.0
 33
0.0
 16
1.0
 26
0.0
 36
0.0
 17
0.0
 27
1.0
 37
0.0
 76
     0
330
1F
  0
MLINESTYLE
  5
18
102
{ACAD_REACTORS
330
17
102
}
330
17
100
AcDbMlineStyle
  2
STANDARD
 70
     0
  3

 62
   256
 51
90.0
 52
90.0
 71
     2
 49
0.5
 62
   256
  6
BYLAYER
 49
-0.5
 62
   256
  6
BYLAYER
  0
ACDBPLACEHOLDER
  5
F
102
{ACAD_REACTORS
330
E
102
}
330
E
  0
TABLESTYLE
  5
EE8
102
{ACAD_REACTORS
330
EE7
102
}
330
EE7
100
AcDbTableStyle
  3
Standard
 70
     0
 71
     0
 40
1.5
 41
1.5
280
     0
281
     0
  7
Standard
140
4.5
170
     2
 62
     0
 63
     7
283
     0
274
    -2
284
     1
 64
     0
275
    -2
285
     1
 65
     0
276
    -2
286
     1
 66
     0
277
    -2
287
     1
 67
     0
278
    -2
288
     1
 68
     0
279
    -2
289
     1
 69
     0
  7
Standard
140
6.0
170
     5
 62
     0
 63
     7
283
     0
274
    -2
284
     1
 64
     0
275
    -2
285
     1
 65
     0
276
    -2
286
     1
 66
     0
277
    -2
287
     1
 67
     0
278
    -2
288
     1
 68
     0
279
    -2
289
     1
 69
     0
  7
Standard
140
4.5
170
     5
 62
     0
 63
     7
283
     0
274
    -2
284
     1
 64
     0
275
    -2
285
     1
 65
     0
276
    -2
286
     1
 66
     0
277
    -2
287
     1
 67
     0
278
    -2
288
     1
 68
     0
279
    -2
289
     1
 69
     0
  0
DICTIONARYVAR
  5
1049
102
{ACAD_REACTORS
330
3D
102
}
330
3D
100
DictionaryVariables
280
     0
  1
STANDARD
  0
DICTIONARYVAR
  5
3F
102
{ACAD_REACTORS
330
3D
102
}
330
3D
100
DictionaryVariables
280
     0
  1
2
  0
DICTIONARYVAR
  5
3E
102
{ACAD_REACTORS
330
3D
102
}
330
3D
100
DictionaryVariables
280
     0
  1
1
  0
DICTIONARYVAR
  5
28E1
102
{ACAD_REACTORS
330
3D
102
}
330
3D
100
DictionaryVariables
280
     0
  1

  0
XRECORD
  5
E78
102
{ACAD_REACTORS
330
E77
102
}
330
E77
100
AcDbXrecord
280
     1
330
0
330
0
  0
DICTIONARY
  5
28EA
330
1E
100
AcDbDictionary
280
     1
281
     1
  3
ACAD_XREC_ROUNDTRIP
360
28EB
  0
DICTIONARY
  5
28EE
330
26
100
AcDbDictionary
280
     1
281
     1
  3
ACAD_XREC_ROUNDTRIP
360
28EF
  0
DICTIONARY
  5
28EC
330
22
100
AcDbDictionary
280
     1
281
     1
  3
ACAD_XREC_ROUNDTRIP
360
28ED
  0
XRECORD
  5
28EB
102
{ACAD_REACTORS
330
28EA
102
}
330
28EA
100
AcDbXrecord
280
     1
102
SHADEPLOT
 70
     0
102
SHADEPLOTRESLEVEL
 70
     2
102
SHADEPLOTCUSTOMDPI
 70
   300
  0
XRECORD
  5
28EF
102
{ACAD_REACTORS
330
28EE
102
}
330
28EE
100
AcDbXrecord
280
     1
102
SHADEPLOT
 70
     0
102
SHADEPLOTRESLEVEL
 70
     2
102
SHADEPLOTCUSTOMDPI
 70
   300
  0
XRECORD
  5
28ED
102
{ACAD_REACTORS
330
28EC
102
}
330
28EC
100
AcDbXrecord
280
     1
102
SHADEPLOT
 70
     0
102
SHADEPLOTRESLEVEL
 70
     2
102
SHADEPLOTCUSTOMDPI
 70
   300
  0
ENDSEC
  0
EOF
