  0
SECTION
  2
HEADER
  9
$ACADVER
  1
AC1015
  9
$ACADMAINTVER
 70
    20
  9
$DWGCODEPAGE
  3
ANSI_1252
  9
$INSBASE
 10
0.0
 20
0.0
 30
0.0
  9
$EXTMIN
 10
8242.629131135254
 20
2227.086186760843
 30
0.0
  9
$EXTMAX
 10
8248.298366233562
 20
2228.787583166038
 30
0.0
  9
$LIMMIN
 10
0.0
 20
0.0
  9
$LIMMAX
 10
420.0
 20
297.0
  9
$ORTHOMODE
 70
     0
  9
$REGENMODE
 70
     1
  9
$FILLMODE
 70
     1
  9
$QTEXTMODE
 70
     0
  9
$MIRRTEXT
 70
     1
  9
$LTSCALE
 40
1.0
  9
$ATTMODE
 70
     1
  9
$TEXTSIZE
 40
2.5
  9
$TRACEWID
 40
1.0
  9
$TEXTSTYLE
  7
SANINDUSA
  9
$CLAYER
  8
0
  9
$CELTYPE
  6
ByLayer
  9
$CECOLOR
 62
   256
  9
$CELTSCALE
 40
1.0
  9
$DISPSILH
 70
     0
  9
$DIMSCALE
 40
1.0
  9
$DIMASZ
 40
2.0
  9
$DIMEXO
 40
1.0
  9
$DIMDLI
 40
1.0
  9
$DIMRND
 40
0.0
  9
$DIMDLE
 40
0.0
  9
$DIMEXE
 40
1.0
  9
$DIMTP
 40
0.0
  9
$DIMTM
 40
0.0
  9
$DIMTXT
 40
2.0
  9
$DIMCEN
 40
0.0
  9
$DIMTSZ
 40
0.0
  9
$DIMTOL
 70
     0
  9
$DIMLIM
 70
     0
  9
$DIMTIH
 70
     0
  9
$DIMTOH
 70
     0
  9
$DIMSE1
 70
     0
  9
$DIMSE2
 70
     0
  9
$DIMTAD
 70
     1
  9
$DIMZIN
 70
     8
  9
$DIMBLK
  1

  9
$DIMASO
 70
     1
  9
$DIMSHO
 70
     1
  9
$DIMPOST
  1

  9
$DIMAPOST
  1

  9
$DIMALT
 70
     0
  9
$DIMALTD
 70
     3
  9
$DIMALTF
 40
0.03937007874016
  9
$DIMLFAC
 40
1.0
  9
$DIMTOFL
 70
     1
  9
$DIMTVP
 40
0.0
  9
$DIMTIX
 70
     0
  9
$DIMSOXD
 70
     0
  9
$DIMSAH
 70
     0
  9
$DIMBLK1
  1

  9
$DIMBLK2
  1

  9
$DIMSTYLE
  2
SANINDUSA
  9
$DIMCLRD
 70
   256
  9
$DIMCLRE
 70
   256
  9
$DIMCLRT
 70
   256
  9
$DIMTFAC
 40
1.0
  9
$DIMGAP
 40
1.0
  9
$DIMJUST
 70
     0
  9
$DIMSD1
 70
     0
  9
$DIMSD2
 70
     0
  9
$DIMTOLJ
 70
     0
  9
$DIMTZIN
 70
     8
  9
$DIMALTZ
 70
     0
  9
$DIMALTTZ
 70
     0
  9
$DIMUPT
 70
     0
  9
$DIMDEC
 70
     1
  9
$DIMTDEC
 70
     1
  9
$DIMALTU
 70
     2
  9
$DIMALTTD
 70
     3
  9
$DIMTXSTY
  7
SANINDUSA
  9
$DIMAUNIT
 70
     0
  9
$DIMADEC
 70
     1
  9
$DIMALTRND
 40
0.0
  9
$DIMAZIN
 70
     0
  9
$DIMDSEP
 70
    44
  9
$DIMATFIT
 70
     3
  9
$DIMFRAC
 70
     0
  9
$DIMLDRBLK
  1

  9
$DIMLUNIT
 70
     2
  9
$DIMLWD
 70
    -1
  9
$DIMLWE
 70
    -1
  9
$DIMTMOVE
 70
     0
  9
$LUNITS
 70
     2
  9
$LUPREC
 70
     4
  9
$SKETCHINC
 40
1.0
  9
$FILLETRAD
 40
3.0
  9
$AUNITS
 70
     0
  9
$AUPREC
 70
     0
  9
$MENU
  1
.
  9
$ELEVATION
 40
0.0
  9
$PELEVATION
 40
0.0
  9
$THICKNESS
 40
0.0
  9
$LIMCHECK
 70
     0
  9
$CHAMFERA
 40
10.0
  9
$CHAMFERB
 40
10.0
  9
$CHAMFERC
 40
20.0
  9
$CHAMFERD
 40
0.0
  9
$SKPOLY
 70
     0
  9
$TDCREATE
 40
2454202.458040174
  9
$TDUCREATE
 40
2454202.416373507
  9
$TDUPDATE
 40
2454645.400421910
  9
$TDUUPDATE
 40
2454645.358755243
  9
$TDINDWG
 40
0.0073811921
  9
$TDUSRTIMER
 40
0.0073811921
  9
$USRTIMER
 70
     1
  9
$ANGBASE
 50
0.0
  9
$ANGDIR
 70
     0
  9
$PDMODE
 70
     0
  9
$PDSIZE
 40
0.0
  9
$PLINEWID
 40
0.0
  9
$SPLFRAME
 70
     0
  9
$SPLINETYPE
 70
     6
  9
$SPLINESEGS
 70
     8
  9
$HANDSEED
  5
2AD8
  9
$SURFTAB1
 70
     6
  9
$SURFTAB2
 70
     6
  9
$SURFTYPE
 70
     6
  9
$SURFU
 70
     6
  9
$SURFV
 70
     6
  9
$UCSBASE
  2

  9
$UCSNAME
  2

  9
$UCSORG
 10
0.0
 20
0.0
 30
0.0
  9
$UCSXDIR
 10
1.0
 20
0.0
 30
0.0
  9
$UCSYDIR
 10
0.0
 20
1.0
 30
0.0
  9
$UCSORTHOREF
  2

  9
$UCSORTHOVIEW
 70
     0
  9
$UCSORGTOP
 10
0.0
 20
0.0
 30
0.0
  9
$UCSORGBOTTOM
 10
0.0
 20
0.0
 30
0.0
  9
$UCSORGLEFT
 10
0.0
 20
0.0
 30
0.0
  9
$UCSORGRIGHT
 10
0.0
 20
0.0
 30
0.0
  9
$UCSORGFRONT
 10
0.0
 20
0.0
 30
0.0
  9
$UCSORGBACK
 10
0.0
 20
0.0
 30
0.0
  9
$PUCSBASE
  2

  9
$PUCSNAME
  2

  9
$PUCSORG
 10
0.0
 20
0.0
 30
0.0
  9
$PUCSXDIR
 10
1.0
 20
0.0
 30
0.0
  9
$PUCSYDIR
 10
0.0
 20
1.0
 30
0.0
  9
$PUCSORTHOREF
  2

  9
$PUCSORTHOVIEW
 70
     0
  9
$PUCSORGTOP
 10
0.0
 20
0.0
 30
0.0
  9
$PUCSORGBOTTOM
 10
0.0
 20
0.0
 30
0.0
  9
$PUCSORGLEFT
 10
0.0
 20
0.0
 30
0.0
  9
$PUCSORGRIGHT
 10
0.0
 20
0.0
 30
0.0
  9
$PUCSORGFRONT
 10
0.0
 20
0.0
 30
0.0
  9
$PUCSORGBACK
 10
0.0
 20
0.0
 30
0.0
  9
$USERI1
 70
     0
  9
$USERI2
 70
     0
  9
$USERI3
 70
     0
  9
$USERI4
 70
     0
  9
$USERI5
 70
     0
  9
$USERR1
 40
0.0
  9
$USERR2
 40
0.0
  9
$USERR3
 40
0.0
  9
$USERR4
 40
0.0
  9
$USERR5
 40
0.0
  9
$WORLDVIEW
 70
     1
  9
$SHADEDGE
 70
     3
  9
$SHADEDIF
 70
    70
  9
$TILEMODE
 70
     1
  9
$MAXACTVP
 70
    64
  9
$PINSBASE
 10
0.0
 20
0.0
 30
0.0
  9
$PLIMCHECK
 70
     0
  9
$PEXTMIN
 10
1.000000000000000E+20
 20
1.000000000000000E+20
 30
1.000000000000000E+20
  9
$PEXTMAX
 10
-1.000000000000000E+20
 20
-1.000000000000000E+20
 30
-1.000000000000000E+20
  9
$PLIMMIN
 10
0.0
 20
0.0
  9
$PLIMMAX
 10
420.0
 20
297.0
  9
$UNITMODE
 70
     0
  9
$VISRETAIN
 70
     1
  9
$PLINEGEN
 70
     0
  9
$PSLTSCALE
 70
     1
  9
$TREEDEPTH
 70
  3020
  9
$CMLSTYLE
  2
Standard
  9
$CMLJUST
 70
     0
  9
$CMLSCALE
 40
20.0
  9
$PROXYGRAPHICS
 70
     1
  9
$MEASUREMENT
 70
     1
  9
$CELWEIGHT
370
    -1
  9
$ENDCAPS
280
     0
  9
$JOINSTYLE
280
     0
  9
$LWDISPLAY
290
     0
  9
$INSUNITS
 70
     4
  9
$HYPERLINKBASE
  1

  9
$STYLESHEET
  1
sanindusa.ctb
  9
$XEDIT
290
     1
  9
$CEPSNTYPE
380
     0
  9
$PSTYLEMODE
290
     1
  9
$FINGERPRINTGUID
  2
{9F062243-DC39-4A72-8970-86E08D27E7CC}
  9
$VERSIONGUID
  2
{86C3E0FE-D3EC-423A-B709-7F87E86DCA46}
  9
$EXTNAMES
290
     1
  9
$PSVPSCALE
 40
0.0
  9
$OLESTARTUP
290
     0
  0
ENDSEC
  0
SECTION
  2
CLASSES
  0
CLASS
  1
ACDBDICTIONARYWDFLT
  2
AcDbDictionaryWithDefault
  3
ObjectDBX Classes
 90
        0
280
     0
281
     0
  0
CLASS
  1
ACDBPLACEHOLDER
  2
AcDbPlaceHolder
  3
ObjectDBX Classes
 90
        0
280
     0
281
     0
  0
CLASS
  1
LAYOUT
  2
AcDbLayout
  3
ObjectDBX Classes
 90
        0
280
     0
281
     0
  0
CLASS
  1
DICTIONARYVAR
  2
AcDbDictionaryVar
  3
ObjectDBX Classes
 90
        0
280
     0
281
     0
  0
CLASS
  1
DIMASSOC
  2
AcDbDimAssoc
  3
"AcDbDimAssoc|Product Desc:     AcDim ARX App For Dimension|Company:          Autodesk, Inc.|WEB Address:      www.autodesk.com"
 90
    32768
280
     0
281
     0
  0
CLASS
  1
TABLESTYLE
  2
AcDbTableStyle
  3
ObjectDBX Classes
 90
     2047
280
     0
281
     0
  0
CLASS
  1
SORTENTSTABLE
  2
AcDbSortentsTable
  3
ObjectDBX Classes
 90
    32768
280
     0
281
     0
  0
ENDSEC
  0
SECTION
  2
TABLES
  0
TABLE
  2
VPORT
  5
8
330
0
100
AcDbSymbolTable
 70
     2
  0
VPORT
  5
2AD0
330
8
100
AcDbSymbolTableRecord
100
AcDbViewportTableRecord
  2
*Active
 70
     0
 10
0.0
 20
0.0
 11
1.0
 21
1.0
 12
8245.463748684407
 22
2227.947703916663
 13
0.0
 23
0.0
 14
10.0
 24
10.0
 15
10.0
 25
10.0
 16
0.0
 26
0.0
 36
1.0
 17
0.0
 27
0.0
 37
0.0
 40
3.595498787862076
 41
1.582748244734202
 42
50.0
 43
0.0
 44
0.0
 50
0.0
 51
0.0
 71
     0
 72
   100
 73
     1
 74
     2
 75
     0
 76
     0
 77
     0
 78
     0
281
     0
 65
     1
110
0.0
120
0.0
130
0.0
111
1.0
121
0.0
131
0.0
112
0.0
122
1.0
132
0.0
 79
     0
146
0.0
  0
ENDTAB
  0
TABLE
  2
LTYPE
  5
5
330
0
100
AcDbSymbolTable
 70
     6
  0
LTYPE
  5
14
330
5
100
AcDbSymbolTableRecord
100
AcDbLinetypeTableRecord
  2
ByBlock
 70
     0
  3

 72
    65
 73
     0
 40
0.0
  0
LTYPE
  5
15
330
5
100
AcDbSymbolTableRecord
100
AcDbLinetypeTableRecord
  2
ByLayer
 70
     0
  3

 72
    65
 73
     0
 40
0.0
  0
LTYPE
  5
16
330
5
100
AcDbSymbolTableRecord
100
AcDbLinetypeTableRecord
  2
Continuous
 70
     0
  3
Solid line
 72
    65
 73
     0
 40
0.0
  0
LTYPE
  5
2D
330
5
100
AcDbSymbolTableRecord
100
AcDbLinetypeTableRecord
  2
DASHDOT
 70
     0
  3
Dash dot __ . __ . __ . __ . __ . __ . __ . __
 72
    65
 73
     4
 40
25.4
 49
12.7
 74
     0
 49
-6.349999999999999
 74
     0
 49
0.0
 74
     0
 49
-6.349999999999999
 74
     0
  0
LTYPE
  5
2E
330
5
100
AcDbSymbolTableRecord
100
AcDbLinetypeTableRecord
  2
HIDDEN
 70
     0
  3
Hidden __ __ __ __ __ __ __ __ __ __ __ __ __ _
 72
    65
 73
     2
 40
9.524999999999998
 49
6.349999999999999
 74
     0
 49
-3.174999999999999
 74
     0
  0
LTYPE
  5
C75
330
5
100
AcDbSymbolTableRecord
100
AcDbLinetypeTableRecord
  2
AM_ISO02W050
 70
     0
  3
__ __ __ __ __ __ __ __ __ __ __ __ __ __ __
 72
    65
 73
     2
 40
7.5
 49
6.0
 74
     0
 49
-1.5
 74
     0
  0
LTYPE
  5
C76
330
5
100
AcDbSymbolTableRecord
100
AcDbLinetypeTableRecord
  2
AM_ISO08W050
 70
     0
  3
____ . ____ . ____ . ____ . ____ . ____ . ____
 72
    65
 73
     4
 40
18.0
 49
12.0
 74
     0
 49
-1.5
 74
     0
 49
3.0
 74
     0
 49
-1.5
 74
     0
  0
LTYPE
  5
12E9
330
5
100
AcDbSymbolTableRecord
100
AcDbLinetypeTableRecord
  2
HIDDEN2
 70
     0
  3
Hidden (.5x) _ _ _ _ _ _ _ _ _ _ _ _ _ _ _ _ _
 72
    65
 73
     2
 40
4.762499999999999
 49
3.174999999999999
 74
     0
 49
-1.587499999999999
 74
     0
  0
ENDTAB
  0
TABLE
  2
LAYER
  5
2
102
{ACAD_XDICTIONARY
360
1051
102
}
330
0
100
AcDbSymbolTable
 70
    16
  0
LAYER
  5
10
330
2
100
AcDbSymbolTableRecord
100
AcDbLayerTableRecord
  2
0
 70
     0
 62
     7
  6
Continuous
370
    -3
390
F
  0
LAYER
  5
2F
330
2
100
AcDbSymbolTableRecord
100
AcDbLayerTableRecord
  2
1
 70
     0
 62
     1
  6
Continuous
370
    -3
390
F
  0
LAYER
  5
30
330
2
100
AcDbSymbolTableRecord
100
AcDbLayerTableRecord
  2
2
 70
     0
 62
     2
  6
Continuous
370
    -3
390
F
  0
LAYER
  5
31
330
2
100
AcDbSymbolTableRecord
100
AcDbLayerTableRecord
  2
3
 70
     0
 62
     3
  6
Continuous
370
    -3
390
F
  0
LAYER
  5
32
330
2
100
AcDbSymbolTableRecord
100
AcDbLayerTableRecord
  2
4
 70
     0
 62
     4
  6
Continuous
370
    -3
390
F
  0
LAYER
  5
33
330
2
100
AcDbSymbolTableRecord
100
AcDbLayerTableRecord
  2
5
 70
     0
 62
     5
  6
Continuous
370
    -3
390
F
  0
LAYER
  5
34
330
2
100
AcDbSymbolTableRecord
100
AcDbLayerTableRecord
  2
6
 70
     0
 62
     6
  6
Continuous
370
    -3
390
F
  0
LAYER
  5
35
330
2
100
AcDbSymbolTableRecord
100
AcDbLayerTableRecord
  2
7
 70
     0
 62
     7
  6
Continuous
370
    -3
390
F
  0
LAYER
  5
36
330
2
100
AcDbSymbolTableRecord
100
AcDbLayerTableRecord
  2
cen
 70
     0
 62
     7
  6
DASHDOT
370
    -3
390
F
  0
LAYER
  5
37
330
2
100
AcDbSymbolTableRecord
100
AcDbLayerTableRecord
  2
hid
 70
     0
 62
     7
  6
HIDDEN
370
    -3
390
F
  0
LAYER
  5
5D6
330
2
100
AcDbSymbolTableRecord
100
AcDbLayerTableRecord
  2
hatch
 70
     0
 62
     9
  6
Continuous
370
    -3
390
F
  0
LAYER
  5
8AF
330
2
100
AcDbSymbolTableRecord
100
AcDbLayerTableRecord
  2
9
 70
     0
 62
     9
  6
Continuous
370
    -3
390
F
  0
LAYER
  5
8F8
330
2
100
AcDbSymbolTableRecord
100
AcDbLayerTableRecord
  2
leg fin
 70
     0
 62
     9
  6
Continuous
370
    -3
390
F
  0
LAYER
  5
91D
330
2
100
AcDbSymbolTableRecord
100
AcDbLayerTableRecord
  2
cotas
 70
     0
 62
     1
  6
Continuous
370
    -3
390
F
  0
LAYER
  5
92F
330
2
100
AcDbSymbolTableRecord
100
AcDbLayerTableRecord
  2
Defpoints
 70
     0
 62
     7
  6
Continuous
290
     0
370
    -3
390
F
  0
LAYER
  5
C7B
330
2
100
AcDbSymbolTableRecord
100
AcDbLayerTableRecord
  2
SANINDUSA
 70
     0
 62
     3
  6
Continuous
370
    -3
390
F
  0
ENDTAB
  0
TABLE
  2
STYLE
  5
3
330
0
100
AcDbSymbolTable
 70
     4
  0
STYLE
  5
11
330
3
100
AcDbSymbolTableRecord
100
AcDbTextStyleTableRecord
  2
Standard
 70
     0
 40
0.0
 41
1.0
 50
0.0
 71
     0
 42
2.5
  3
Avgardn.ttf
  4

1001
ACAD
1000
AvantGarde Bk BT
1071
       34
  0
STYLE
  5
2C
330
3
100
AcDbSymbolTableRecord
100
AcDbTextStyleTableRecord
  2

 70
     1
 40
0.0
 41
1.0
 50
0.0
 71
     0
 42
2.5
  3
ltypeshp.shx
  4

  0
STYLE
  5
91F
330
3
100
AcDbSymbolTableRecord
100
AcDbTextStyleTableRecord
  2
SANINDUSA
 70
     0
 40
0.0
 41
1.0
 50
0.0
 71
     0
 42
2.5
  3
verdana.TTF
  4

1001
ACAD
1000
Verdana
1071
       34
  0
STYLE
  5
C7C
330
3
100
AcDbSymbolTableRecord
100
AcDbTextStyleTableRecord
  2
futura
 70
     0
 40
0.0
 41
1.0
 50
0.0
 71
     0
 42
2.5
  3
ZURCHN.TTF
  4

1001
ACAD
1000
Zurich BT
1071
       34
  0
ENDTAB
  0
TABLE
  2
VIEW
  5
6
330
0
100
AcDbSymbolTable
 70
     0
  0
ENDTAB
  0
TABLE
  2
UCS
  5
7
330
0
100
AcDbSymbolTable
 70
     0
  0
ENDTAB
  0
TABLE
  2
APPID
  5
9
330
0
100
AcDbSymbolTable
 70
    11
  0
APPID
  5
12
330
9
100
AcDbSymbolTableRecord
100
AcDbRegAppTableRecord
  2
ACAD
 70
     0
  0
APPID
  5
3A
330
9
100
AcDbSymbolTableRecord
100
AcDbRegAppTableRecord
  2
DCO15
 70
     0
  0
APPID
  5
EEE
330
9
100
AcDbSymbolTableRecord
100
AcDbRegAppTableRecord
  2
ACAD_DSTYLE_DIMTEXT_FILL
 70
     0
  0
APPID
  5
EEF
330
9
100
AcDbSymbolTableRecord
100
AcDbRegAppTableRecord
  2
ACAD_DSTYLE_DIMEXT_LENGTH
 70
     0
  0
APPID
  5
EF0
330
9
100
AcDbSymbolTableRecord
100
AcDbRegAppTableRecord
  2
ACAD_DSTYLE_DIMEXT_ENABLED
 70
     0
  0
APPID
  5
EF1
330
9
100
AcDbSymbolTableRecord
100
AcDbRegAppTableRecord
  2
ACAD_DSTYLE_DIM_LINETYPE
 70
     0
  0
APPID
  5
EF2
330
9
100
AcDbSymbolTableRecord
100
AcDbRegAppTableRecord
  2
ACAD_DSTYLE_DIM_EXT1_LINETYPE
 70
     0
  0
APPID
  5
EF3
330
9
100
AcDbSymbolTableRecord
100
AcDbRegAppTableRecord
  2
ACAD_DSTYLE_DIM_EXT2_LINETYPE
 70
     0
  0
APPID
  5
FAF
330
9
100
AcDbSymbolTableRecord
100
AcDbRegAppTableRecord
  2
ACAD_DSTYLE_DIMJOGGED_JOGANGLE_SYMBOL
 70
     0
  0
APPID
  5
1013
330
9
100
AcDbSymbolTableRecord
100
AcDbRegAppTableRecord
  2
ACAD_DSTYLE_DIMARC_LENGTH_SYMBOL
 70
     0
  0
APPID
  5
2AB9
330
9
100
AcDbSymbolTableRecord
100
AcDbRegAppTableRecord
  2
ACAD_EXEMPT_FROM_CAD_STANDARDS
 70
     0
  0
ENDTAB
  0
TABLE
  2
DIMSTYLE
  5
A
330
0
100
AcDbSymbolTable
 70
     3
100
AcDbDimStyleTable
 71
     1
340
921
  0
DIMSTYLE
105
45
330
A
100
AcDbSymbolTableRecord
100
AcDbDimStyleTableRecord
  2
STANDARD
 70
     0
289
     0
340
11
  0
DIMSTYLE
105
921
330
A
100
AcDbSymbolTableRecord
100
AcDbDimStyleTableRecord
  2
SANINDUSA
 70
     0
 41
2.0
 42
1.0
 43
1.0
 44
1.0
 73
     0
 74
     0
 77
     1
 78
     8
140
2.0
141
0.0
143
0.03937007874016
147
1.0
171
     3
172
     1
176
   256
177
   256
178
   256
179
     1
271
     1
272
     1
274
     3
278
    44
283
     0
284
     8
340
91F
371
    -1
372
    -1
1001
ACAD_DSTYLE_DIMEXT_LENGTH
1070
   378
1040
1.0
1001
ACAD_DSTYLE_DIMEXT_ENABLED
1070
   383
1070
     0
1001
ACAD_DSTYLE_DIMARC_LENGTH_SYMBOL
1070
   379
1070
     0
1001
ACAD_DSTYLE_DIMJOGGED_JOGANGLE_SYMBOL
1070
   384
1040
1.570796326794896
  0
DIMSTYLE
105
C7D
330
A
100
AcDbSymbolTableRecord
100
AcDbDimStyleTableRecord
  2
AM_ISO
 70
     0
  4
"
 41
2.5
 42
1.0
 43
10.0
 44
1.0
 47
0.1
 48
0.1
 73
     0
 74
     0
 77
     1
 78
     8
 79
     2
140
3.5
141
0.0
143
0.0393701
146
0.71
147
1.5
172
     1
176
   256
177
   256
178
     2
271
     2
272
     3
274
     4
283
     0
284
     8
340
11
371
    -1
372
    -1
  0
ENDTAB
  0
TABLE
  2
BLOCK_RECORD
  5
1
330
0
100
AcDbSymbolTable
 70
    55
  0
BLOCK_RECORD
  5
1F
330
1
100
AcDbSymbolTableRecord
100
AcDbBlockTableRecord
  2
*Model_Space
340
22
  0
BLOCK_RECORD
  5
1B
330
1
100
AcDbSymbolTableRecord
100
AcDbBlockTableRecord
  2
*Paper_Space
340
1E
  0
BLOCK_RECORD
  5
23
330
1
100
AcDbSymbolTableRecord
100
AcDbBlockTableRecord
  2
*Paper_Space0
340
26
  0
BLOCK_RECORD
  5
919
330
1
100
AcDbSymbolTableRecord
100
AcDbBlockTableRecord
  2
_DotSmall
340
0
  0
BLOCK_RECORD
  5
922
330
1
100
AcDbSymbolTableRecord
100
AcDbBlockTableRecord
  2
base para cotas
340
0
310
2800000020000000200000000100080000000000000400000000000000000000000000000000000000000000000080000080000000808000800000008000800080800000C0C0C000C0DCC000F0CAA6000020400000206000002080000020A0000020C0000020E00000400000004020000040400000406000004080000040A0
310
000040C0000040E00000600000006020000060400000606000006080000060A0000060C0000060E00000800000008020000080400000806000008080000080A0000080C0000080E00000A0000000A0200000A0400000A0600000A0800000A0A00000A0C00000A0E00000C0000000C0200000C0400000C0600000C0800000C0
310
A00000C0C00000C0E00000E0000000E0200000E0400000E0600000E0800000E0A00000E0C00000E0E00040000000400020004000400040006000400080004000A0004000C0004000E00040200000402020004020400040206000402080004020A0004020C0004020E000404000004040200040404000404060004040800040
310
40A0004040C0004040E00040600000406020004060400040606000406080004060A0004060C0004060E00040800000408020004080400040806000408080004080A0004080C0004080E00040A0000040A0200040A0400040A0600040A0800040A0A00040A0C00040A0E00040C0000040C0200040C0400040C0600040C08000
310
40C0A00040C0C00040C0E00040E0000040E0200040E0400040E0600040E0800040E0A00040E0C00040E0E00080000000800020008000400080006000800080008000A0008000C0008000E00080200000802020008020400080206000802080008020A0008020C0008020E00080400000804020008040400080406000804080
310
008040A0008040C0008040E00080600000806020008060400080606000806080008060A0008060C0008060E00080800000808020008080400080806000808080008080A0008080C0008080E00080A0000080A0200080A0400080A0600080A0800080A0A00080A0C00080A0E00080C0000080C0200080C0400080C0600080C0
310
800080C0A00080C0C00080C0E00080E0000080E0200080E0400080E0600080E0800080E0A00080E0C00080E0E000C0000000C0002000C0004000C0006000C0008000C000A000C000C000C000E000C0200000C0202000C0204000C0206000C0208000C020A000C020C000C020E000C0400000C0402000C0404000C0406000C0
310
408000C040A000C040C000C040E000C0600000C0602000C0604000C0606000C0608000C060A000C060C000C060E000C0800000C0802000C0804000C0806000C0808000C080A000C080C000C080E000C0A00000C0A02000C0A04000C0A06000C0A08000C0A0A000C0A0C000C0A0E000C0C00000C0C02000C0C04000C0C06000
310
C0C08000C0C0A000F0FBFF00A4A0A000808080000000FF0000FF000000FFFF00FF000000FF00FF00FFFF0000FFFFFF00A4A4A4A4A4A4A4A4A4A4A4A4A4A4A4A4A4A4A4A4A4A4A4A4A4A4A4A4A4A4A4A4A4A4A4A4A4A4A4A4A4A4A4A4A4A4A4A4A4A4A4A4A4A4A4A4A4A4A4A4A4A4A4A4A4A4A4A4A4A4A4A4A4A4A4A4A4A4A4
310
A4A4A4A4A4A4A4A4A4A4A4A4A4A4A4A4A4A4A4A4A4A4A4A4A4A4A4A4A4A4A4A4A4A4A4A4A4A4A4A4A4A4A4A4A4A4A4A4A4A4A4A4A4A4A4A4A4A4A4A4A4A4A4A4A4A4A4A4A4A4A4A4A4A4A4A4A4A4A4A4A4A4A4A4A4A4A4A4A4A4A4A4A4A4A4A4A4A4A4A4A4A4A4A4A4A4A4A4A4A4A4A4A4A4A4A4A4A4A4A4A4A4A4A4A4A4A4
310
A4A4A4A4A4A4A4A4A4A4A4A4A4A4A4A4A4A4A4A4A4A4A4A4A4A4A4A4A4A4A4A4A4A4A4A4A4A4A4A4A4A4A4A4A4A4A4A4A4A4A4A4A4A4A4A4A4A4A4A4A4A4A4A4A4A4A4A4A4A4A4A4A4A4A4A4A4A4A4A4A4A4A4A4A4A4A4A4A4A4A4A4A4A4A4A4A4A4A4A4A4A4A4A4A4A4A4A4A4A4A4A4A4A4A4A4A4A4A4A4A4A4A4A4A4A4A4
310
A4A4A4A4A4A4A4A4A4A4A4A4A4A4A4A4A4A4A4A4A4A4A4A4A4A4A4A4A4A4A4A4A4A4A4A4A4A4A4A4A4A4A4A4A4A4A4A4A4A4A4A4A4A4A4A4A4A4A4A4A4A4A4A4A4A4A4A4A4A4A4A4A4A4A4A4A4A4A4A4A4A4A4A4A4A4A4A4A4A4A4A4A4A4A4A4A4A4A4A4A4A4A4A4A4A4A4A4A4A4A4A4A4A4A4A4F9F9F9F9F9F9F9F9F9F9F9
310
F9F9F9F9F9F9F9F9F9F9F9F9F9F9F9F9F9F9F9A4A4F9F9F9F9F9F9F9F9F9F9F9F9F9F9F9F9F9F9F9F9F9F9F9F9F9F9F9F9F9F9A4A4F9F9F9F9F9F9F9F9F9F9F9F9F9F9F9F9F9F9F9F9F9F9F9F9F9F9F9F9F9F9A4A4F9A4A4A4A4A4A4A4A4A4A4A4A4A4A4A4A4A4A4A4A4A4A4A4A4A4A4A4A4F9A4A4A4A4A4A4A4A4A4A4A4A4
310
A4A4A4A4A4A4A4A4A4A4A4A4A4A4A4A4A4A4A4A4A4A4A4A4A4A4A4A4A4A4A4A4A4A4A4A4A4A4A4A4A4A4A4A4A4A4A4A4A4A4A4A4A4A4A4A4A4A4A4A4A4A4A4A4A4A4A4A4A4A4A4A4A4A4A4A4A4A4A4A4A4A4A4A4A4A4A4A4A4A4A4A4A4A4A4A4A4A4A4A4A4A4A4A4A4A4A4A4A4A4A4A4A4A4A4A4A4A4A4A4A4A4A4A4A4A4A4
310
A4A4A4A4A4A4A4A4A4A4A4A4A4A4A4A4A4A4A4A4A4A4A4A4A4A4A4A4A4A4A4A4A4A4A4A4A4A4A4A4A4A4A4A4A4A4A4A4A4A4A4A4A4A4A4A4A4A4A4A4A4A4A4A4A4A4A4A4A4A4A4A4A4A4A4A4A4A4A4A4A4A4A4A4A4A4A4A4A4A4A4A4A4A4A4A4A4A4A4A4A4A4A4A4A4A4A4A4A4A4A4A4A4A4A4A4A4A4A4A4A4A4A4A4A4A4A4
310
A4A4A4A4A4A4A4A4A4A4A4A4A4A4A4A4A4A4A4A4A4A4A4A4A4A4A4A4A4A4A4A4A4A4A4A4A4A4A4A4A4A4A4A4A4A4A4A4A4A4A4A4A4A4A4A4A4A4A4A4A4A4A4A4A4A4A4A4A4A4A4A4A4A4A4A4A4A4A4A4A4A4A4A4A4A4A4A4A4A4A4A4A4A4A4A4A4A4A4A4A4A4A4A4A4A4A4A4A4A4A4A4A4A4A4A4A4A4A4A4A4A4A4A4A4A4A4
310
A4A4A4A4A4A4A4A4A4A4A4A4A4A4A4A4A4A4A4A4A4A4A4A4A4A4A4A4A4A4A4A4A4A4A4A4A4A4A4A4A4A4A4A4A4A4A4A4A4A4A4A4A4A4A4A4
1001
ACAD
1000
DesignCenter Data
1002
{
1070
     1
1070
     4
1002
}
  0
BLOCK_RECORD
  5
AA8
330
1
100
AcDbSymbolTableRecord
100
AcDbBlockTableRecord
  2
_CLOSED
340
0
  0
BLOCK_RECORD
  5
B79
330
1
100
AcDbSymbolTableRecord
100
AcDbBlockTableRecord
  2
nota revisoes
340
0
1001
ACAD
1000
DesignCenter Data
1002
{
1070
     1
1070
     4
1002
}
  0
BLOCK_RECORD
  5
B8E
330
1
100
AcDbSymbolTableRecord
100
AcDbBlockTableRecord
  2
a3l
340
0
1001
ACAD
1000
DesignCenter Data
1002
{
1070
     1
1070
     4
1002
}
  0
BLOCK_RECORD
  5
B9E
330
1
100
AcDbSymbolTableRecord
100
AcDbBlockTableRecord
  2
legenda desenvolvimento
340
0
1001
ACAD
1000
DesignCenter Data
1002
{
1070
     1
1070
     4
1002
}
  0
ENDTAB
  0
ENDSEC
  0
SECTION
  2
BLOCKS
  0
BLOCK
  5
20
330
1F
100
AcDbEntity
  8
0
100
AcDbBlockBegin
  2
*Model_Space
 70
     0
 10
0.0
 20
0.0
 30
0.0
  3
*Model_Space
  1

  0
ENDBLK
  5
21
330
1F
100
AcDbEntity
  8
0
100
AcDbBlockEnd
  0
BLOCK
  5
1C
330
1B
100
AcDbEntity
 67
     1
  8
0
100
AcDbBlockBegin
  2
*Paper_Space
 70
     0
 10
0.0
 20
0.0
 30
0.0
  3
*Paper_Space
  1

  0
ENDBLK
  5
1D
330
1B
100
AcDbEntity
 67
     1
  8
0
100
AcDbBlockEnd
  0
BLOCK
  5
24
330
23
100
AcDbEntity
 67
     1
  8
0
100
AcDbBlockBegin
  2
*Paper_Space0
 70
     0
 10
0.0
 20
0.0
 30
0.0
  3
*Paper_Space0
  1

  0
ENDBLK
  5
25
330
23
100
AcDbEntity
 67
     1
  8
0
100
AcDbBlockEnd
  0
BLOCK
  5
91B
330
919
100
AcDbEntity
  8
0
100
AcDbBlockBegin
  2
_DotSmall
 70
     0
 10
0.0
 20
0.0
 30
0.0
  3
_DotSmall
  1

  0
LWPOLYLINE
  5
91A
330
919
100
AcDbEntity
  8
0
  6
ByBlock
 62
     0
100
AcDbPolyline
 90
        2
 70
     1
 43
0.5
 10
-0.0625
 20
0.0
 42
1.0
 10
0.0625
 20
0.0
 42
1.0
  0
ENDBLK
  5
91C
330
919
100
AcDbEntity
  8
0
100
AcDbBlockEnd
  0
BLOCK
  5
92A
330
922
100
AcDbEntity
  8
0
100
AcDbBlockBegin
  2
base para cotas
 70
     0
 10
0.0
 20
0.0
 30
0.0
  3
base para cotas
  1

  0
LINE
  5
B36
330
922
100
AcDbEntity
  8
cotas
100
AcDbLine
 10
0.0
 20
-30.0
 30
0.0
 11
327.1260136525398
 21
-30.0
 31
0.0
  0
LINE
  5
B37
330
922
100
AcDbEntity
  8
cotas
100
AcDbLine
 10
0.0
 20
-25.0
 30
0.0
 11
327.1260136525398
 21
-25.0
 31
0.0
  0
LINE
  5
B38
330
922
100
AcDbEntity
  8
cotas
100
AcDbLine
 10
0.0
 20
-20.0
 30
0.0
 11
327.1260136525398
 21
-20.0
 31
0.0
  0
LINE
  5
B39
330
922
100
AcDbEntity
  8
cotas
100
AcDbLine
 10
0.0
 20
-15.0
 30
0.0
 11
327.1260136525398
 21
-15.0
 31
0.0
  0
LINE
  5
B3A
330
922
100
AcDbEntity
  8
cotas
100
AcDbLine
 10
0.0
 20
-10.0
 30
0.0
 11
327.1260136525398
 21
-10.0
 31
0.0
  0
LINE
  5
B3B
330
922
100
AcDbEntity
  8
cotas
100
AcDbLine
 10
0.0
 20
0.0
 30
0.0
 11
0.0
 21
-30.0
 31
0.0
  0
LINE
  5
B3C
330
922
100
AcDbEntity
  8
cotas
100
AcDbLine
 10
327.1260136525398
 20
-30.0
 30
0.0
 11
327.1260136525398
 21
0.0
 31
0.0
  0
ENDBLK
  5
92B
330
922
100
AcDbEntity
  8
0
100
AcDbBlockEnd
  0
BLOCK
  5
AAD
330
AA8
100
AcDbEntity
  8
0
100
AcDbBlockBegin
  2
_CLOSED
 70
     0
 10
0.0
 20
0.0
 30
0.0
  3
_CLOSED
  1

  0
LINE
  5
AA9
330
AA8
100
AcDbEntity
  8
0
100
AcDbLine
 10
-1.0
 20
0.166667
 30
0.0
 11
0.0
 21
0.0
 31
0.0
  0
LINE
  5
AAA
330
AA8
100
AcDbEntity
  8
0
100
AcDbLine
 10
0.0
 20
0.0
 30
0.0
 11
-1.0
 21
-0.166667
 31
0.0
  0
LINE
  5
AAB
330
AA8
100
AcDbEntity
  8
0
100
AcDbLine
 10
-1.0
 20
0.166667
 30
0.0
 11
-1.0
 21
-0.166667
 31
0.0
  0
LINE
  5
AAC
330
AA8
100
AcDbEntity
  8
0
100
AcDbLine
 10
0.0
 20
0.0
 30
0.0
 11
-1.0
 21
0.0
 31
0.0
  0
ENDBLK
  5
AAE
330
AA8
100
AcDbEntity
  8
0
100
AcDbBlockEnd
  0
BLOCK
  5
B7C
330
B79
100
AcDbEntity
  8
0
100
AcDbBlockBegin
  2
nota revisoes
 70
     0
 10
0.0
 20
0.0
 30
0.0
  3
nota revisoes
  1

  0
CIRCLE
  5
B7A
330
B79
100
AcDbEntity
  8
4
100
AcDbCircle
 10
0.0
 20
0.0
 30
0.0
 40
13.69426055101189
  0
TEXT
  5
B7B
330
B79
100
AcDbEntity
  8
4
100
AcDbText
 10
-5.496248358154345
 20
-5.354545554066362
 30
0.0
 40
12.0
  1
1
  7
SANINDUSA
 72
     1
 11
-0.249774214433728
 21
-5.354545554066362
 31
0.0
100
AcDbText
  0
ENDBLK
  5
B7D
330
B79
100
AcDbEntity
  8
0
100
AcDbBlockEnd
  0
BLOCK
  5
B9C
330
B8E
100
AcDbEntity
  8
0
100
AcDbBlockBegin
  2
a3l
 70
     0
 10
0.0
 20
0.0
 30
0.0
  3
a3l
  1

  0
LINE
  5
B8F
330
B8E
100
AcDbEntity
  8
1
100
AcDbLine
 10
-364.2925296599447
 20
-362.1188951399395
 30
0.0
 11
-364.2925296599447
 21
-65.11889513993946
 31
0.0
  0
LINE
  5
B90
330
B8E
100
AcDbEntity
  8
4
100
AcDbLine
 10
-369.2925296599447
 20
-357.1188951399395
 30
0.0
 11
-369.2925296599447
 21
-70.11889513993946
 31
0.0
  0
LINE
  5
B91
330
B8E
100
AcDbEntity
  8
1
100
AcDbLine
 10
-784.2925296599446
 20
-65.11889513993946
 30
0.0
 11
-784.2925296599446
 21
-362.1188951399395
 31
0.0
  0
LINE
  5
B92
330
B8E
100
AcDbEntity
  8
4
100
AcDbLine
 10
-759.2925296599446
 20
-357.1188951399395
 30
0.0
 11
-759.2925296599446
 21
-70.11889513993946
 31
0.0
  0
LINE
  5
B93
330
B8E
100
AcDbEntity
  8
1
100
AcDbLine
 10
-784.2925296599446
 20
-362.1188951399395
 30
0.0
 11
-364.2925296599447
 21
-362.1188951399395
 31
0.0
  0
LINE
  5
B94
330
B8E
100
AcDbEntity
  8
4
100
AcDbLine
 10
-759.2925296599446
 20
-357.1188951399395
 30
0.0
 11
-369.2925296599447
 21
-357.1188951399395
 31
0.0
  0
LINE
  5
B95
330
B8E
100
AcDbEntity
  8
1
100
AcDbLine
 10
-654.2925296599446
 20
-357.1188951399395
 30
0.0
 11
-654.2925296599446
 21
-362.1188951399395
 31
0.0
  0
LINE
  5
B96
330
B8E
100
AcDbEntity
  8
1
100
AcDbLine
 10
-364.2925296599447
 20
-65.11889513993946
 30
0.0
 11
-784.2925296599446
 21
-65.11889513993946
 31
0.0
  0
LINE
  5
B97
330
B8E
100
AcDbEntity
  8
4
100
AcDbLine
 10
-369.2925296599447
 20
-70.11889513993946
 30
0.0
 11
-759.2925296599446
 21
-70.11889513993946
 31
0.0
  0
LINE
  5
B98
330
B8E
100
AcDbEntity
  8
1
100
AcDbLine
 10
-654.2925296599446
 20
-65.11889513993946
 30
0.0
 11
-654.2925296599446
 21
-70.11889513993946
 31
0.0
  0
LINE
  5
B99
330
B8E
100
AcDbEntity
  8
1
100
AcDbLine
 10
-549.2925296599446
 20
-70.11889513993946
 30
0.0
 11
-549.2925296599446
 21
-65.11889513993946
 31
0.0
  0
LINE
  5
B9A
330
B8E
100
AcDbEntity
  8
1
100
AcDbLine
 10
-369.2925296599447
 20
-65.11889513993946
 30
0.0
 11
-364.2925296599447
 21
-65.11889513993946
 31
0.0
  0
LINE
  5
B9B
330
B8E
100
AcDbEntity
  8
1
100
AcDbLine
 10
-549.2925296599446
 20
-357.1188951399395
 30
0.0
 11
-549.2925296599446
 21
-362.1188951399395
 31
0.0
  0
ENDBLK
  5
B9D
330
B8E
100
AcDbEntity
  8
0
100
AcDbBlockEnd
  0
BLOCK
  5
C13
330
B9E
100
AcDbEntity
  8
0
100
AcDbBlockBegin
  2
legenda desenvolvimento
 70
     2
 10
0.0
 20
0.0
 30
0.0
  3
legenda desenvolvimento
  1

  0
ATTDEF
  5
B9F
330
B9E
100
AcDbEntity
  8
1
100
AcDbText
 10
-108.606245802552
 20
55.5
 30
0.0
 40
4.0
  1
XXXXXXXXXXXXXX
 41
0.8
  7
SANINDUSA
 72
     4
 11
-87.5
 21
57.5
 31
0.0
100
AcDbAttributeDefinition
  3
Nome do Produto:
  2
PRODUTO
 70
     0
  0
ATTDEF
  5
BA0
330
B9E
100
AcDbEntity
  8
1
100
AcDbText
 10
-97.9997966101695
 20
41.25
 30
0.0
 40
3.0
  1
XXXXXXXXX
 41
0.8
  7
futura
 72
     4
 11
-87.5
 21
42.75
 31
0.0
100
AcDbAttributeDefinition
  3
Nome da Peça:
  2
PECA
 70
     0
  0
ATTDEF
  5
BA1
330
B9E
100
AcDbEntity
  8
1
100
AcDbText
 10
-133.4422431161853
 20
21.11745296763252
 30
0.0
 40
2.5
  1
X
 41
0.8
  7
SANINDUSA
 72
     4
 11
-132.5
 21
22.36745296763252
 31
0.0
100
AcDbAttributeDefinition
  3
Cod. TESTE:
  2
TESTE
 70
     0
  0
ATTDEF
  5
BA2
330
B9E
100
AcDbEntity
  8
1
100
AcDbText
 10
-124.3844862323707
 20
21.11745296763252
 30
0.0
 40
2.5
  1
XX
 41
0.8
  7
SANINDUSA
 72
     4
 11
-122.5
 21
22.36745296763252
 31
0.0
100
AcDbAttributeDefinition
  3
Cod. Ano:
  2
ANO
 70
     0
  0
ATTDEF
  5
BA3
330
B9E
100
AcDbEntity
  8
1
100
AcDbText
 10
-112.526889953052
 20
21.11745296763252
 30
0.0
 40
2.5
  1
XXX
 41
0.8
  7
SANINDUSA
 72
     4
 11
-109.700160604496
 21
22.36745296763252
 31
0.0
100
AcDbAttributeDefinition
  3
Cod. Sequência:
  2
SEQUENCIA
 70
     0
  0
ATTDEF
  5
BA4
330
B9E
100
AcDbEntity
  8
1
100
AcDbText
 10
-99.35382430979316
 20
21.11745296763252
 30
0.0
 40
2.5
  1
XX
 41
0.8
  7
SANINDUSA
 72
     4
 11
-97.46933807742244
 21
22.36745296763252
 31
0.0
100
AcDbAttributeDefinition
  3
Cod. Tipo:
  2
TIPO
 70
     0
  0
ATTDEF
  5
BA5
330
B9E
100
AcDbEntity
  8
1
100
AcDbText
 10
-87.42035911468438
 20
21.11745296763252
 30
0.0
 40
2.5
  1
XXX
 41
0.8
  7
SANINDUSA
 72
     4
 11
-84.59362976612828
 21
22.36745296763252
 31
0.0
100
AcDbAttributeDefinition
  3
Cod. Produto:
  2
PRODUTO
 70
     0
  0
ATTDEF
  5
BA6
330
B9E
100
AcDbEntity
  8
1
100
AcDbText
 10
-74.62051971917853
 20
21.11745296763252
 30
0.0
 40
2.5
  1
XXX
 41
0.8
  7
SANINDUSA
 72
     4
 11
-71.79379037062244
 21
22.36745296763252
 31
0.0
100
AcDbAttributeDefinition
  3
Cod. Peça:
  2
PECA
 70
     0
  0
ATTDEF
  5
BA7
330
B9E
100
AcDbEntity
  8
1
100
AcDbText
 10
-61.10603446650329
 20
21.11745296763252
 30
0.0
 40
2.5
  1
XX
 41
0.8
  7
SANINDUSA
 72
     4
 11
-59.22154823413257
 21
22.36745296763252
 31
0.0
100
AcDbAttributeDefinition
  3
Cod. Revisão:
  2
REV
 70
     0
  0
ATTDEF
  5
BA8
330
B9E
100
AcDbEntity
  8
1
100
AcDbText
 10
-48.43615325006194
 20
21.11745296763252
 30
0.0
 40
2.5
  1
XX
 41
0.8
  7
SANINDUSA
 72
     4
 11
-46.55166701769121
 21
22.36745296763252
 31
0.0
100
AcDbAttributeDefinition
  3
Cod. Alteração:
  2
ALT
 70
     0
  0
ATTDEF
  5
BA9
330
B9E
100
AcDbEntity
  8
1
100
AcDbText
 10
-35.19086635325722
 20
23.98875083948959
 30
0.0
 40
3.0
  1
1/XXX
 41
0.8
  7
SANINDUSA
 72
     4
 11
-30.0
 21
25.25
 31
0.0
100
AcDbAttributeDefinition
  3
Escala geral:
  2
ESCALA
 70
     0
  0
ATTDEF
  5
BAA
330
B9E
100
AcDbEntity
  8
1
100
AcDbText
 10
-15.65345869711215
 20
23.75
 30
0.0
 40
3.0
  1
XXXXX
 41
0.8
  7
SANINDUSA
 72
     4
 11
-10.0
 21
25.25
 31
0.0
100
AcDbAttributeDefinition
  3
Folha:
  2
FOLHA
 70
     0
  0
ATTDEF
  5
BAB
330
B9E
100
AcDbEntity
  8
1
100
AcDbText
 10
-178.5146998822042
 20
56.9531347542807
 30
0.0
 40
2.0
  1
xx
 41
0.8
  7
SANINDUSA
 72
     4
 11
-177.2123493113513
 21
57.70330265219877
 31
0.0
100
AcDbAttributeDefinition
  3
revisão
  2
REV.
 70
     0
  0
ATTDEF
  5
BAC
330
B9E
100
AcDbEntity
  8
1
100
AcDbText
 10
-172.7849640077129
 20
56.9531347542807
 30
0.0
 40
2.0
  1
xx
 41
0.8
  7
SANINDUSA
 72
     4
 11
-171.48261343686
 21
57.70330265219877
 31
0.0
100
AcDbAttributeDefinition
  3
alteração
  2
ALT.
 70
     0
  0
ATTDEF
  5
BAD
330
B9E
100
AcDbEntity
  8
1
100
AcDbText
 10
-168.007199951307
 20
56.70330265219877
 30
0.0
 40
2.0
  1
xx/xx/xxxx
 41
0.8
  7
SANINDUSA
 11
-168.007199951307
 21
57.70330265219877
 31
0.0
100
AcDbAttributeDefinition
  3
data
  2
DATA
 70
     0
 74
     2
  0
ATTDEF
  5
BAE
330
B9E
100
AcDbEntity
  8
1
100
AcDbText
 10
-168.5396372253371
 20
13.15916722632639
 30
0.0
 40
2.0
  1
XX/XX/XXXX
 41
0.8
  7
SANINDUSA
 72
     4
 11
-161.5099528734231
 21
14.0
 31
0.0
100
AcDbAttributeDefinition
  3
Data projecto
  2
DATA_PROJ
 70
     0
  0
ATTDEF
  5
BAF
330
B9E
100
AcDbEntity
  8
1
100
AcDbText
 10
-150.8658110728766
 20
13.24983210208193
 30
0.0
 40
2.0
  1
xxxxxxxx
 41
0.8
  7
SANINDUSA
 72
     4
 11
-145.6564087894649
 21
14.0
 31
0.0
100
AcDbAttributeDefinition
  3
nome de quem projectou
  2
NOME
 70
     0
  0
ATTDEF
  5
BB0
330
B9E
100
AcDbEntity
  8
1
100
AcDbText
 10
-168.5396372253371
 20
9.159167226326394
 30
0.0
 40
2.0
  1
XX/XX/XXXX
 41
0.8
  7
SANINDUSA
 72
     4
 11
-161.5099528734231
 21
10.0
 31
0.0
100
AcDbAttributeDefinition
  3
Data desenhou
  2
DATA_DES
 70
     0
  0
ATTDEF
  5
BB1
330
B9E
100
AcDbEntity
  8
1
100
AcDbText
 10
-151.516986358303
 20
9.249832102081933
 30
0.0
 40
2.0
  1
xxxxxxxxx
 41
0.8
  7
SANINDUSA
 72
     4
 11
-145.6564087894649
 21
10.0
 31
0.0
100
AcDbAttributeDefinition
  3
nome
  2
NOME
 70
     0
  0
ATTDEF
  5
BB2
330
B9E
100
AcDbEntity
  8
1
100
AcDbText
 10
-127.2924214135946
 20
14.1979876583216
 30
0.0
 40
2.0
  1
Vitreous China
 41
0.8
  7
SANINDUSA
 72
     4
 11
-119.231709526422
 21
15.22216495852308
 31
0.0
100
AcDbAttributeDefinition
  3
Nome do Material:
  2
MATERIAL
 70
     0
  0
ATTDEF
  5
BB3
330
B9E
100
AcDbEntity
  8
1
100
AcDbText
 10
-103.1563452122093
 20
14.38019043949261
 30
0.0
 40
2.0
  1
Branco
 41
0.8
  7
SANINDUSA
 72
     4
 11
-99.33418268702462
 21
15.35937109765245
 31
0.0
100
AcDbAttributeDefinition
  3
cor da peça
  2
COR
 70
     0
  0
ATTDEF
  5
BB4
330
B9E
100
AcDbEntity
  8
1
100
AcDbText
 10
-116.7235057085292
 20
5.975822699798522
 30
0.0
 40
2.0
  1
Vidrado
 41
0.8
  7
SANINDUSA
 72
     4
 11
-112.5
 21
7.0
 31
0.0
100
AcDbAttributeDefinition
  3
Tipo de acabamento:
  2
ACABAMENTO
 70
     0
  0
ATTDEF
  5
BB5
330
B9E
100
AcDbEntity
  8
1
100
AcDbText
 10
-79.18527869967246
 20
16.65066409850533
 30
0.0
 40
2.0
  1
XXXXXXX
 41
0.8
  7
SANINDUSA
 72
     4
 11
-73.90871724903445
 21
17.65066409850533
 31
0.0
100
AcDbAttributeDefinition
  3
Normas
  2
NORMAS
 70
     0
  0
ATTDEF
  5
BB6
330
B9E
100
AcDbEntity
  8
1
100
AcDbText
 10
-30.55312290127603
 20
14.0
 30
0.0
 40
2.0
  1
XXXXXXXXXXXXXX
 41
0.8
  7
SANINDUSA
 72
     4
 11
-20.0
 21
15.0
 31
0.0
100
AcDbAttributeDefinition
  3
Substitui o desenho:
  2
SUBSTITUI
 70
     0
  0
ATTDEF
  5
BB7
330
B9E
100
AcDbEntity
  8
1
100
AcDbText
 10
-31.30691739422431
 20
6.0
 30
0.0
 40
2.0
  1
XXXXXXXXXXXXXXX
 41
0.8
  7
SANINDUSA
 72
     4
 11
-20.0
 21
7.0
 31
0.0
100
AcDbAttributeDefinition
  3
Substituido por:
  2
SUBSTITUIDO
 70
     0
  0
ATTDEF
  5
BB8
330
B9E
100
AcDbEntity
  8
1
100
AcDbText
 10
-110.0220608548302
 20
1.478208457928303
 30
0.0
 40
2.0
  1
XXXXXXXXXXXXXXXXXXXXXXXXXXXXXXXXXX
 41
0.8
  7
SANINDUSA
 11
-110.0220608548302
 21
2.478208457928303
 31
0.0
100
AcDbAttributeDefinition
  3
Localização do desenho:
  2
LOC-DWG
 70
     0
 74
     2
  0
LINE
  5
BB9
330
B9E
100
AcDbEntity
  8
3
100
AcDbLine
 10
-135.0
 20
4.0
 30
0.0
 11
0.0000000000004547
 21
4.0
 31
0.0
  0
LINE
  5
BBA
330
B9E
100
AcDbEntity
  8
3
100
AcDbLine
 10
-90.00000000000046
 20
12.0
 30
0.0
 11
-135.0
 21
12.0
 31
0.0
  0
LINE
  5
BBB
330
B9E
100
AcDbEntity
  8
3
100
AcDbLine
 10
-135.0
 20
32.5
 30
0.0
 11
-40.0
 21
32.5
 31
0.0
  0
TEXT
  5
BBC
330
B9E
100
AcDbEntity
  8
1
100
AcDbText
 10
-134.0
 20
1.25
 30
0.0
 40
2.0
  1
Localização do des.:
 41
0.8
  7
SANINDUSA
 11
-134.0
 21
2.25
 31
0.0
100
AcDbText
 73
     2
  0
LINE
  5
BBD
330
B9E
100
AcDbEntity
  8
3
100
AcDbLine
 10
-180.0
 20
65.0
 30
0.0
 11
0.0
 21
65.0
 31
0.0
  0
LINE
  5
BBE
330
B9E
100
AcDbEntity
  8
leg fin
100
AcDbLine
 10
-40.0
 20
25.05956924886846
 30
0.0
 11
-135.0
 21
25.05956924886846
 31
0.0
  0
LINE
  5
BBF
330
B9E
100
AcDbEntity
  8
leg fin
100
AcDbLine
 10
-40.0
 20
28.5
 30
0.0
 11
-135.0
 21
28.5
 31
0.0
  0
LINE
  5
BC0
330
B9E
100
AcDbEntity
  8
3
100
AcDbLine
 10
-135.0
 20
50.0
 30
0.0
 11
-40.0
 21
50.0
 31
0.0
  0
TEXT
  5
BC1
330
B9E
100
AcDbEntity
  8
1
100
AcDbText
 10
-134.0
 20
29.75
 30
0.0
 40
2.0
  1
Desenho nº:
 41
0.8
  7
SANINDUSA
 11
-134.0
 21
30.75
 31
0.0
100
AcDbText
 73
     2
  0
TEXT
  5
BC2
330
B9E
100
AcDbEntity
  8
1
100
AcDbText
 10
-134.0
 20
9.25
 30
0.0
 40
2.0
  1
Acabamento:
 41
0.8
  7
SANINDUSA
 11
-134.0
 21
10.25
 31
0.0
100
AcDbText
 73
     2
  0
LINE
  5
BC3
330
B9E
100
AcDbEntity
  8
3
100
AcDbLine
 10
-180.0
 20
20.0
 30
0.0
 11
0.0
 21
20.0
 31
0.0
  0
LINE
  5
BC4
330
B9E
100
AcDbEntity
  8
1
100
AcDbLine
 10
-174.5810776056337
 20
55.5
 30
0.0
 11
-174.5810776056337
 21
65.0
 31
0.0
  0
LINE
  5
BC5
330
B9E
100
AcDbEntity
  8
1
100
AcDbLine
 10
-168.9210461879161
 20
55.5
 30
0.0
 11
-168.9210461879161
 21
65.0
 31
0.0
  0
LINE
  5
BC6
330
B9E
100
AcDbEntity
  8
1
100
AcDbLine
 10
-154.0988595589306
 20
55.5
 30
0.0
 11
-154.0988595589306
 21
65.0
 31
0.0
  0
LINE
  5
BC7
330
B9E
100
AcDbEntity
  8
3
100
AcDbLine
 10
-180.0
 20
65.0
 30
0.0
 11
-180.0
 21
0.0
 31
0.0
  0
LINE
  5
BC8
330
B9E
100
AcDbEntity
  8
3
100
AcDbLine
 10
-135.0
 20
0.0
 30
0.0
 11
-135.0
 21
65.0
 31
0.0
  0
TEXT
  5
BC9
330
B9E
100
AcDbEntity
  8
1
100
AcDbText
 10
-179.0
 20
9.75
 30
0.0
 40
1.5
  1
Des.
 41
0.8
  7
SANINDUSA
 11
-179.0
 21
10.5
 31
0.0
100
AcDbText
 73
     2
  0
LINE
  5
BCA
330
B9E
100
AcDbEntity
  8
1
100
AcDbLine
 10
-168.9210461879161
 20
20.0
 30
0.0
 11
-168.9210461879161
 21
0.0
 31
0.0
  0
LINE
  5
BCB
330
B9E
100
AcDbEntity
  8
1
100
AcDbLine
 10
-154.0988595589306
 20
20.0
 30
0.0
 11
-154.0988595589306
 21
0.0
 31
0.0
  0
LINE
  5
BCC
330
B9E
100
AcDbEntity
  8
1
100
AcDbLine
 10
-180.0
 20
4.0
 30
0.0
 11
-135.0
 21
4.0
 31
0.0
  0
LINE
  5
BCD
330
B9E
100
AcDbEntity
  8
1
100
AcDbLine
 10
-180.0
 20
8.0
 30
0.0
 11
-135.0
 21
8.0
 31
0.0
  0
TEXT
  5
BCE
330
B9E
100
AcDbEntity
  8
1
100
AcDbText
 10
-179.0
 20
1.73257823687436
 30
0.0
 40
1.5
  1
Aprov.
 41
0.8
  7
SANINDUSA
 11
-179.0
 21
2.48257823687436
 31
0.0
100
AcDbText
 73
     2
  0
TEXT
  5
BCF
330
B9E
100
AcDbEntity
  8
1
100
AcDbText
 10
-179.0
 20
5.75
 30
0.0
 40
1.5
  1
Ver.
 41
0.8
  7
SANINDUSA
 11
-179.0
 21
6.5
 31
0.0
100
AcDbText
 73
     2
  0
LINE
  5
BD0
330
B9E
100
AcDbEntity
  8
1
100
AcDbLine
 10
-180.0
 20
16.0
 30
0.0
 11
-135.0
 21
16.0
 31
0.0
  0
LINE
  5
BD1
330
B9E
100
AcDbEntity
  8
1
100
AcDbLine
 10
-180.0
 20
12.0
 30
0.0
 11
-135.0
 21
12.0
 31
0.0
  0
TEXT
  5
BD2
330
B9E
100
AcDbEntity
  8
1
100
AcDbText
 10
-179.0
 20
13.75
 30
0.0
 40
1.5
  1
Proj.
 41
0.8
  7
SANINDUSA
 11
-179.0
 21
14.5
 31
0.0
100
AcDbText
 73
     2
  0
TEXT
  5
BD3
330
B9E
100
AcDbEntity
  8
1
100
AcDbText
 10
-167.9210461879161
 20
17.75
 30
0.0
 40
1.5
  1
Data
 41
0.8
  7
SANINDUSA
 11
-167.9210461879161
 21
18.5
 31
0.0
100
AcDbText
 73
     2
  0
TEXT
  5
BD4
330
B9E
100
AcDbEntity
  8
1
100
AcDbText
 10
-153.0988595589306
 20
17.75
 30
0.0
 40
1.5
  1
Nome
 41
0.8
  7
SANINDUSA
 11
-153.0988595589306
 21
18.5
 31
0.0
100
AcDbText
 73
     2
  0
LINE
  5
BD5
330
B9E
100
AcDbEntity
  8
leg fin
100
AcDbLine
 10
-130.0
 20
20.0
 30
0.0
 11
-130.0
 21
28.5
 31
0.0
  0
TEXT
  5
BD6
330
B9E
100
AcDbEntity
  8
1
100
AcDbText
 10
-134.0
 20
17.25
 30
0.0
 40
2.0
  1
Material:
 41
0.8
  7
SANINDUSA
 11
-134.0
 21
18.25
 31
0.0
100
AcDbText
 73
     2
  0
TEXT
  5
BD7
330
B9E
100
AcDbEntity
  8
1
100
AcDbText
 10
-129.0
 20
26.43288406845113
 30
0.0
 40
1.5
  1
Ano:
 41
0.8
  7
SANINDUSA
 11
-129.0
 21
27.18288406845113
 31
0.0
100
AcDbText
 73
     2
  0
LINE
  5
BD8
330
B9E
100
AcDbEntity
  8
1
100
AcDbLine
 10
-180.0
 20
55.5
 30
0.0
 11
-135.0
 21
55.5
 31
0.0
  0
TEXT
  5
BD9
330
B9E
100
AcDbEntity
  8
1
100
AcDbText
 10
-179.0
 20
52.67772246885193
 30
0.0
 40
1.5
  1
descrição
 41
0.8
  7
SANINDUSA
 11
-179.0
 21
53.42772246885193
 31
0.0
100
AcDbText
 73
     2
  0
TEXT
  5
BDA
330
B9E
100
AcDbEntity
  8
1
100
AcDbText
 10
-134.0
 20
47.25
 30
0.0
 40
2.0
  1
Peça:
 41
0.8
  7
SANINDUSA
 11
-134.0
 21
48.25
 31
0.0
100
AcDbText
 73
     2
  0
LINE
  5
BDB
330
B9E
100
AcDbEntity
  8
1
100
AcDbLine
 10
-180.0
 20
59.5
 30
0.0
 11
-135.0
 21
59.5
 31
0.0
  0
TEXT
  5
BDC
330
B9E
100
AcDbEntity
  8
1
100
AcDbText
 10
-173.5810776056337
 20
62.75
 30
0.0
 40
1.5
  1
Alt.
 41
0.8
  7
SANINDUSA
 11
-173.5810776056337
 21
63.5
 31
0.0
100
AcDbText
 73
     2
  0
TEXT
  5
BDD
330
B9E
100
AcDbEntity
  8
1
100
AcDbText
 10
-179.0
 20
62.75
 30
0.0
 40
1.5
  1
Rev.
 41
0.8
  7
SANINDUSA
 11
-179.0
 21
63.5
 31
0.0
100
AcDbText
 73
     2
  0
TEXT
  5
BDE
330
B9E
100
AcDbEntity
  8
1
100
AcDbText
 10
-167.9210461879161
 20
62.75
 30
0.0
 40
1.5
  1
Data
 41
0.8
  7
SANINDUSA
 11
-167.9210461879161
 21
63.5
 31
0.0
100
AcDbText
 73
     2
  0
TEXT
  5
BDF
330
B9E
100
AcDbEntity
  8
1
100
AcDbText
 10
-153.0988595589306
 20
62.75
 30
0.0
 40
1.5
  1
Nome
 41
0.8
  7
SANINDUSA
 11
-153.0988595589306
 21
63.5
 31
0.0
100
AcDbText
 73
     2
  0
TEXT
  5
BE0
330
B9E
100
AcDbEntity
  8
1
100
AcDbText
 10
-134.0
 20
62.25
 30
0.0
 40
2.0
  1
Produto:
 41
0.8
  7
SANINDUSA
 11
-134.0
 21
63.25
 31
0.0
100
AcDbText
 73
     2
  0
LINE
  5
BE1
330
B9E
100
AcDbEntity
  8
3
100
AcDbLine
 10
-40.0
 20
4.0
 30
0.0
 11
-40.0
 21
65.0
 31
0.0
  0
LWPOLYLINE
  5
BE2
102
{ACAD_REACTORS
330
BEC
102
}
330
B9E
100
AcDbEntity
  8
9
100
AcDbPolyline
 90
       12
 70
     1
 43
0.0
 10
-3.038714600644652
 20
58.90010174665076
 10
-5.726962862472191
 20
58.90010174665076
 10
-5.726962862472191
 20
58.5001017466509
 10
-3.038748516195028
 20
58.5001017466509
 42
-0.4142135623731731
 10
-2.638748516194482
 20
58.1001017466508
 10
-2.638748516194482
 20
57.42799728675596
 10
-5.21497371544865
 20
57.42799728675596
 42
0.4142135623731289
 10
-6.014973715448377
 20
56.627997286756
 10
-6.014973715448377
 20
55.92380871629643
 42
0.4142135623731132
 10
-5.21497371544865
 20
55.12380871629648
 10
-2.23871460064447
 20
55.12380871629648
 10
-2.23871460064447
 20
58.10010174665103
 42
0.4142135623730717
  0
LWPOLYLINE
  5
BE3
102
{ACAD_REACTORS
330
BEC
102
}
330
B9E
100
AcDbEntity
  8
9
100
AcDbPolyline
 90
       20
 70
     1
 43
0.0
 10
-10.01531287095122
 20
57.82799728675581
 10
-10.01531287095122
 20
58.10010174665103
 42
-0.4142135623730744
 10
-9.615312870951584
 20
58.5001017466509
 10
-6.92703069357276
 20
58.5001017466509
 10
-6.92703069357276
 20
58.90010174665076
 10
-9.615346786501959
 20
58.90010174665076
 42
0.4142135623730883
 10
-10.41534678650168
 20
58.1001017466508
 10
-10.41534678650168
 20
57.82796337120567
 42
0.4142135623730717
 10
-9.615346786501959
 20
57.02796337120571
 10
-7.423079531965413
 20
57.02796337120571
 42
-0.4142135623730847
 10
-7.023079531965322
 20
56.62796337120562
 10
-7.023079531965322
 20
55.90786840766487
 42
-0.4142135623730744
 10
-7.423079531965413
 20
55.507868407665
 10
-10.41534678650168
 20
55.507868407665
 10
-10.41534678650168
 20
55.12380871629648
 10
-7.445787917283723
 20
55.12380871629648
 42
0.4114777732064574
 10
-6.645822882998345
 20
55.9163291493976
 10
-6.639238813324936
 20
56.62051771985716
 42
0.4169546541682913
 10
-7.439203847610315
 20
57.42799728675596
 10
-9.615312870951584
 20
57.42799728675596
 42
-0.4142135623731576
  0
LWPOLYLINE
  5
BE4
102
{ACAD_REACTORS
330
BEC
102
}
330
B9E
100
AcDbEntity
  8
9
100
AcDbPolyline
 90
       12
 70
     1
 43
0.0
 10
-14.41561811090378
 20
58.90010174665076
 10
-14.79964388672215
 20
58.90010174665076
 10
-14.79964388672215
 20
55.92380871629643
 42
0.4142135623731133
 10
-13.99964388672242
 20
55.12380871629648
 10
-11.8233508563676
 20
55.12380871629648
 42
0.4142135623730872
 10
-11.02335085636741
 20
55.92380871629643
 10
-11.02335085636741
 20
58.90010174665076
 10
-11.42338477191788
 20
58.90010174665076
 10
-11.42338477191788
 20
55.91567577726095
 42
-0.4131711701795318
 10
-11.82196067063523
 20
55.51567831234956
 10
-14.0141940096214
 20
55.50787335710947
 42
-0.4152567234624407
 10
-14.41561811090378
 20
55.90787082202087
  0
LWPOLYLINE
  5
BE5
102
{ACAD_REACTORS
330
BEC
102
}
330
B9E
100
AcDbEntity
  8
9
100
AcDbPolyline
 90
        6
 70
     1
 43
0.0
 10
-15.80771578768872
 20
55.507868407665
 10
-18.39994912667453
 20
55.507868407665
 42
-0.4142135623731731
 10
-18.79994912667462
 20
55.90786840766487
 10
-18.79994912667462
 20
58.10010174665103
 42
-0.4142135623730744
 10
-18.39994912667453
 20
58.5001017466509
 10
-15.80771578768872
 20
58.5001017466509
  0
LWPOLYLINE
  5
BE6
102
{ACAD_REACTORS
330
BEC
102
}
330
B9E
100
AcDbEntity
  8
9
100
AcDbPolyline
 90
        8
 70
     1
 43
0.0
 10
-15.4236900118708
 20
59.87619128370352
 10
-15.80771578768872
 20
59.87619128370352
 10
-15.80771578768872
 20
58.90010174665076
 10
-18.39176256411201
 20
58.90010174665076
 42
0.4131164467977967
 10
-19.19175694739761
 20
58.1030995310698
 10
-19.1999120763262
 20
55.92680650071542
 42
0.4153115297271718
 10
-18.39991769304061
 20
55.12380871629648
 10
-15.4236900118708
 20
55.12380871629648
  0
LWPOLYLINE
  5
BE7
102
{ACAD_REACTORS
330
BEC
102
}
330
B9E
100
AcDbEntity
  8
9
100
AcDbPolyline
 90
       10
 70
     1
 43
0.0
 10
-20.59201288790928
 20
58.90010174665076
 10
-23.56830591826338
 20
58.90010174665076
 10
-23.56830591826338
 20
55.12380871629648
 10
-23.18424622689509
 20
55.12380871629648
 10
-23.18424622689509
 20
58.5001017466509
 10
-20.59204680345965
 20
58.5001017466509
 42
-0.4142135623730898
 10
-20.19204680345956
 20
58.1001017466508
 10
-20.19204680345956
 20
55.12380871629648
 10
-19.79201288790909
 20
55.12380871629648
 10
-19.79201288790909
 20
58.10010174665103
 42
0.4142135623731132
  0
LWPOLYLINE
  5
BE8
102
{ACAD_REACTORS
330
BEC
102
}
330
B9E
100
AcDbEntity
  8
9
100
AcDbPolyline
 90
        4
 70
     1
 43
0.0
 10
-24.19231812786165
 20
58.90010174665076
 10
-24.57637781922995
 20
58.90010174665076
 10
-24.57637781922995
 20
55.12380871629648
 10
-24.19231812786165
 20
55.12380871629648
  0
LWPOLYLINE
  5
BE9
102
{ACAD_REACTORS
330
BEC
102
}
330
B9E
100
AcDbEntity
  8
9
100
AcDbPolyline
 90
       10
 70
     1
 43
0.0
 10
-28.57661522808212
 20
58.5001017466509
 10
-25.98444972019706
 20
58.5001017466509
 42
-0.4142135623731731
 10
-25.58444972019652
 20
58.1001017466508
 10
-25.58444972019652
 20
55.12380871629648
 10
-25.2004239443786
 20
55.12380871629648
 10
-25.2004239443786
 20
58.10010174665103
 42
0.4142135623730717
 10
-26.00042394437833
 20
58.90010174665076
 10
-28.97664914363259
 20
58.90010174665076
 10
-28.97664914363259
 20
55.12380871629648
 10
-28.57661522808212
 20
55.12380871629648
  0
LWPOLYLINE
  5
BEA
102
{ACAD_REACTORS
330
BEC
102
}
330
B9E
100
AcDbEntity
  8
9
100
AcDbPolyline
 90
       12
 70
     1
 43
0.0
 10
-29.58465321349832
 20
58.10010174665103
 42
0.4142135623730716
 10
-30.3846532134985
 20
58.90010174665076
 10
-33.07296930642724
 20
58.90010174665076
 10
-33.07296930642724
 20
58.5001017466509
 10
-30.38468712904842
 20
58.5001017466509
 42
-0.4142135623730067
 10
-29.98468712904878
 20
58.1001017466508
 10
-29.98468712904878
 20
57.42799728675618
 10
-32.56098015940324
 20
57.42799728675596
 42
0.4142135623731289
 10
-33.36098015940343
 20
56.627997286756
 10
-33.36098015940343
 20
55.92380871629643
 42
0.4142135623731132
 10
-32.56098015940324
 20
55.12380871629648
 10
-29.58465321349832
 20
55.12380871629648
  0
LWPOLYLINE
  5
BEB
102
{ACAD_REACTORS
330
BEC
102
}
330
B9E
100
AcDbEntity
  8
9
100
AcDbPolyline
 90
       20
 70
     1
 43
0.0
 10
-34.7850262845518
 20
57.42799728675596
 10
-36.96125148380543
 20
57.42799728675596
 42
-0.4142135623730898
 10
-37.36125148380552
 20
57.82799728675604
 10
-37.36125148380552
 20
58.10010174665103
 42
-0.4142135623730744
 10
-36.96125148380543
 20
58.5001017466509
 10
-34.27303713752781
 20
58.50010174665067
 10
-34.27303713752781
 20
58.90010174665076
 10
-36.96128539935535
 20
58.90010174665076
 42
0.4142135623731289
 10
-37.76128539935553
 20
58.1001017466508
 10
-37.76128539935553
 20
57.82796337120567
 42
0.4142135623730716
 10
-36.9612853993558
 20
57.02796337120571
 10
-34.76901814481926
 20
57.02796337120571
 42
-0.414213562373168
 10
-34.36901814481962
 20
56.62796337120562
 10
-34.36901814481962
 20
55.90786840766487
 42
-0.4142135623730744
 10
-34.76901814481926
 20
55.507868407665
 10
-37.76128539935553
 20
55.507868407665
 10
-37.76128539935553
 20
55.12380871629648
 10
-34.7850262845518
 20
55.12380871629648
 42
0.4142135623731289
 10
-33.98502628455162
 20
55.92380871629643
 10
-33.98502628455162
 20
56.627997286756
 42
0.4142135623731132
  0
HATCH
  5
BEC
330
B9E
100
AcDbEntity
  8
9
100
AcDbHatch
 10
0.0
 20
0.0
 30
0.0
210
0.0
220
0.0
230
1.0
  2
SOLID
 70
     1
 71
     1
 91
       13
 92
        7
 72
     1
 73
     1
 93
       20
 10
-34.36901814481962
 20
55.90786840766487
 42
-0.414213562372991
 10
-34.76901814481926
 20
55.507868407665
 42
0.0
 10
-37.76128539935553
 20
55.507868407665
 42
0.0
 10
-37.76128539935553
 20
55.12380871629648
 42
0.0
 10
-34.7850262845518
 20
55.12380871629648
 42
0.4142135623731705
 10
-33.98502628455162
 20
55.92380871629666
 42
0.0
 10
-33.98502628455162
 20
56.627997286756
 42
0.4142135623731547
 10
-34.7850262845518
 20
57.42799728675596
 42
0.0
 10
-36.96125148380543
 20
57.42799728675596
 42
-0.4142135623730898
 10
-37.36125148380552
 20
57.82799728675604
 42
0.0
 10
-37.36125148380552
 20
58.1001017466508
 42
-0.4142135623731575
 10
-36.96125148380543
 20
58.5001017466509
 42
0.0
 10
-34.27303713752781
 20
58.50010174665067
 42
0.0
 10
-34.27303713752781
 20
58.90010174665076
 42
0.0
 10
-36.96128539935535
 20
58.90010174665076
 42
0.4142135623731705
 10
-37.76128539935553
 20
58.10010174665058
 42
0.0
 10
-37.76128539935553
 20
57.82796337120544
 42
0.4142135623730299
 10
-36.9612853993558
 20
57.02796337120571
 42
0.0
 10
-34.76901814481926
 20
57.02796337120571
 42
-0.4142135623730015
 10
-34.36901814481962
 20
56.62796337120608
 42
0.0
 97
        1
330
BEB
 92
        7
 72
     1
 73
     1
 93
       12
 10
-33.36098015940343
 20
55.92380871629666
 42
0.4142135623731547
 10
-32.56098015940324
 20
55.12380871629648
 42
0.0
 10
-29.58465321349877
 20
55.12380871629648
 42
0.0
 10
-29.58465321349832
 20
58.10010174665058
 42
0.4142135623731964
 10
-30.3846532134985
 20
58.90010174665076
 42
0.0
 10
-33.07296930642724
 20
58.90010174665076
 42
0.0
 10
-33.07296930642724
 20
58.50010174665067
 42
0.0
 10
-30.38468712904887
 20
58.5001017466509
 42
-0.4142135623732564
 10
-29.98468712904878
 20
58.10010174665103
 42
0.0
 10
-29.98468712904923
 20
57.42799728675596
 42
0.0
 10
-32.56098015940324
 20
57.42799728675596
 42
0.4142135623731705
 10
-33.36098015940343
 20
56.627997286756
 42
0.0
 97
        1
330
BEA
 92
       22
 72
     1
 73
     1
 93
        6
 10
-32.97692046803468
 20
56.62796337120562
 42
-0.4142135623731576
 10
-32.57692046803459
 20
57.02796337120571
 42
0.0
 10
-29.98468712904878
 20
57.02796337120571
 42
0.0
 10
-29.98468712904878
 20
55.507868407665
 42
0.0
 10
-32.57692046803459
 20
55.507868407665
 42
-0.4142135623731731
 10
-32.97692046803468
 20
55.90786840766487
 42
0.0
 97
        1
330
C11
 92
        7
 72
     1
 73
     1
 93
       10
 10
-28.57661522808212
 20
58.5001017466509
 42
0.0
 10
-25.98444972019661
 20
58.5001017466509
 42
-0.4142135623730067
 10
-25.58444972019652
 20
58.10010174665058
 42
0.0
 10
-25.58444972019606
 20
55.12380871629648
 42
0.0
 10
-25.20042394437906
 20
55.12380871629648
 42
0.0
 10
-25.2004239443786
 20
58.1001017466508
 42
0.4142135623731134
 10
-26.00042394437833
 20
58.90010174665076
 42
0.0
 10
-28.97664914363259
 20
58.90010174665076
 42
0.0
 10
-28.97664914363259
 20
55.12380871629648
 42
0.0
 10
-28.57661522808212
 20
55.12380871629648
 42
0.0
 97
        1
330
BE9
 92
        7
 72
     0
 73
     1
 93
        4
 10
-24.57637781922995
 20
55.12380871629648
 10
-24.19231812786165
 20
55.12380871629648
 10
-24.19231812786165
 20
58.90010174665076
 10
-24.57637781922995
 20
58.90010174665076
 97
        1
330
BE8
 92
        7
 72
     0
 73
     1
 93
        4
 10
-24.19231812786165
 20
59.87619128370352
 10
-24.5763778192304
 20
59.87619128370352
 10
-24.5763778192304
 20
59.28412752246913
 10
-24.1923181278612
 20
59.28412752246913
 97
        1
330
C12
 92
        7
 72
     1
 73
     1
 93
       10
 10
-23.18424622689509
 20
58.5001017466509
 42
0.0
 10
-20.59204680345965
 20
58.5001017466509
 42
-0.4142135623730898
 10
-20.19204680345956
 20
58.1001017466508
 42
0.0
 10
-20.19204680345956
 20
55.12380871629648
 42
0.0
 10
-19.79201288790909
 20
55.12380871629648
 42
0.0
 10
-19.79201288790909
 20
58.1001017466508
 42
0.4142135623731547
 10
-20.59201288790928
 20
58.90010174665076
 42
0.0
 10
-23.56830591826338
 20
58.90010174665076
 42
0.0
 10
-23.56830591826338
 20
55.12380871629648
 42
0.0
 10
-23.18424622689463
 20
55.12380871629648
 42
0.0
 97
        1
330
BE7
 92
        7
 72
     1
 73
     1
 93
        8
 10
-19.1999120763262
 20
55.92680650071542
 42
0.4153115297271299
 10
-18.39991769304061
 20
55.12380871629648
 42
0.0
 10
-15.4236900118708
 20
55.12380871629648
 42
0.0
 10
-15.4236900118708
 20
59.87619128370352
 42
0.0
 10
-15.80771578768872
 20
59.87619128370352
 42
0.0
 10
-15.80771578768872
 20
58.90010174665076
 42
0.0
 10
-18.39176256411201
 20
58.90010174665076
 42
0.4131164467977965
 10
-19.19175694739761
 20
58.1030995310698
 42
0.0
 97
        1
330
BE6
 92
       22
 72
     1
 73
     1
 93
        6
 10
-18.79994912667462
 20
58.1001017466508
 42
-0.4142135623731575
 10
-18.39994912667453
 20
58.5001017466509
 42
0.0
 10
-15.80771578768872
 20
58.50010174665067
 42
0.0
 10
-15.80771578768827
 20
55.507868407665
 42
0.0
 10
-18.39994912667453
 20
55.507868407665
 42
-0.4142135623731731
 10
-18.79994912667462
 20
55.90786840766487
 42
0.0
 97
        1
330
BE5
 92
        7
 72
     1
 73
     1
 93
       12
 10
-14.79964388672215
 20
55.92380871629621
 42
0.4142135623729885
 10
-13.99964388672242
 20
55.12380871629648
 42
0.0
 10
-11.8233508563676
 20
55.12380871629648
 42
0.4142135623731289
 10
-11.02335085636741
 20
55.92380871629666
 42
0.0
 10
-11.02335085636741
 20
58.90010174665076
 42
0.0
 10
-11.42338477191788
 20
58.90010174665076
 42
0.0
 10
-11.42338477191788
 20
55.91567577726095
 42
-0.4131711701795319
 10
-11.82196067063523
 20
55.51567831234956
 42
0.0
 10
-14.01419400962095
 20
55.50787335710947
 42
-0.4152567234626918
 10
-14.41561811090378
 20
55.90787082202087
 42
0.0
 10
-14.41561811090378
 20
58.90010174665076
 42
0.0
 10
-14.7996438867226
 20
58.90010174665076
 42
0.0
 97
        1
330
BE4
 92
        7
 72
     1
 73
     1
 93
       20
 10
-7.423079531965413
 20
57.02796337120571
 42
-0.414213562373168
 10
-7.023079531965322
 20
56.62796337120562
 42
0.0
 10
-7.023079531965322
 20
55.90786840766487
 42
-0.4142135623731575
 10
-7.423079531965413
 20
55.507868407665
 42
0.0
 10
-10.41534678650168
 20
55.507868407665
 42
0.0
 10
-10.41534678650168
 20
55.12380871629648
 42
0.0
 10
-7.445787917283723
 20
55.12380871629648
 42
0.4114777732065809
 10
-6.645822882998345
 20
55.91632914939783
 42
0.0
 10
-6.639238813324936
 20
56.62051771985716
 42
0.4169546541682913
 10
-7.439203847610315
 20
57.42799728675596
 42
0.0
 10
-9.615312870951584
 20
57.42799728675596
 42
-0.4142135623729911
 10
-10.01531287095122
 20
57.82799728675581
 42
0.0
 10
-10.01531287095122
 20
58.10010174665103
 42
-0.414213562372991
 10
-9.615312870951584
 20
58.5001017466509
 42
0.0
 10
-6.92703069357276
 20
58.50010174665067
 42
0.0
 10
-6.927030693572305
 20
58.90010174665076
 42
0.0
 10
-9.615346786501959
 20
58.90010174665076
 42
0.4142135623730467
 10
-10.41534678650168
 20
58.10010174665103
 42
0.0
 10
-10.41534678650168
 20
57.82796337120544
 42
0.4142135623730301
 10
-9.615346786501959
 20
57.02796337120571
 42
0.0
 97
        1
330
BE3
 92
        7
 72
     1
 73
     1
 93
       12
 10
-5.21497371544865
 20
57.42799728675596
 42
0.4142135623730871
 10
-6.014973715448377
 20
56.627997286756
 42
0.0
 10
-6.014973715448377
 20
55.92380871629621
 42
0.4142135623730715
 10
-5.21497371544865
 20
55.12380871629648
 42
0.0
 10
-2.23871460064447
 20
55.12380871629648
 42
0.0
 10
-2.23871460064447
 20
58.10010174665058
 42
0.414213562373155
 10
-3.038714600644652
 20
58.90010174665076
 42
0.0
 10
-5.726962862471737
 20
58.90010174665076
 42
0.0
 10
-5.726962862472191
 20
58.5001017466509
 42
0.0
 10
-3.038748516194573
 20
58.5001017466509
 42
-0.4142135623730067
 10
-2.638748516194482
 20
58.10010174665058
 42
0.0
 10
-2.638748516194482
 20
57.42799728675596
 42
0.0
 97
        1
330
BE2
 92
       22
 72
     1
 73
     1
 93
        6
 10
-2.638748516194937
 20
57.02796337120571
 42
0.0
 10
-2.638748516194482
 20
55.50786840766477
 42
0.0
 10
-5.21497371544865
 20
55.507868407665
 42
-0.4142135623731731
 10
-5.614973715448741
 20
55.90786840766509
 42
0.0
 10
-5.614973715448741
 20
56.62796337120562
 42
-0.4142135623731576
 10
-5.21497371544865
 20
57.02796337120571
 42
0.0
 97
        1
330
C0D
 75
     0
 76
     1
 47
0.0407044778999864
 98
       13
 10
-34.18710075113677
 20
56.16907953933765
 10
-33.12851374392494
 20
56.49471602641233
 10
-33.12851374392494
 20
56.49471602641233
 10
-28.77202873835904
 20
57.51232930166111
 10
-24.41554807250941
 20
57.91937341678636
 10
-24.41554807250941
 20
59.384734621186
 10
-23.31624584658039
 20
58.3264175319116
 10
-19.04119127844888
 20
57.75655517324913
 10
-19.04119127844888
 20
57.75655517324913
 10
-14.64399105416578
 20
57.43091868617466
 10
-8.048195057457178
 20
57.22739662861204
 10
-4.017427461911665
 20
57.18669281458665
 10
-4.017427461911665
 20
57.18669281458665
  0
TEXT
  5
BED
330
B9E
100
AcDbEntity
  8
leg fin
100
AcDbText
 10
3.391127401597259
 20
2.107634911895729
 30
0.0
 40
1.5
  1
Este desenho é propriedade da Sanindusa, S.A., e não pode ser copiado nem divulgado sem nossa autorização.
 50
90.0
 41
0.8
  7
SANINDUSA
100
AcDbText
  0
LINE
  5
BEE
330
B9E
100
AcDbEntity
  8
3
100
AcDbLine
 10
-90.0
 20
4.0
 30
0.0
 11
-90.0
 21
12.0
 31
0.0
  0
TEXT
  5
BEF
330
B9E
100
AcDbEntity
  8
1
100
AcDbText
 10
-39.0
 20
9.25
 30
0.0
 40
2.0
  1
Substituido por:
 41
0.8
  7
SANINDUSA
 11
-39.0
 21
10.25
 31
0.0
100
AcDbText
 73
     2
  0
POINT
  5
BF0
330
B9E
100
AcDbEntity
  8
SANINDUSA
100
AcDbPoint
 10
0.0
 20
0.0
 30
0.0
  0
TEXT
  5
BF1
330
B9E
100
AcDbEntity
  8
1
100
AcDbText
 10
-89.0
 20
16.74927010445663
 30
0.0
 40
2.0
  1
Normas:
 41
0.8
  7
SANINDUSA
 11
-89.0
 21
17.74927010445663
 31
0.0
100
AcDbText
 73
     2
  0
LINE
  5
BF2
330
B9E
100
AcDbEntity
  8
3
100
AcDbLine
 10
-90.0
 20
12.0
 30
0.0
 11
-90.0
 21
20.0
 31
0.0
  0
LINE
  5
BF3
330
B9E
100
AcDbEntity
  8
3
100
AcDbLine
 10
-110.546019464768
 20
12.0
 30
0.0
 11
-110.546019464768
 21
20.0
 31
0.0
  0
TEXT
  5
BF4
330
B9E
100
AcDbEntity
  8
1
100
AcDbText
 10
-109.6177520618648
 20
17.25
 30
0.0
 40
2.0
  1
Cor:
 41
0.8
  7
SANINDUSA
 11
-109.6177520618648
 21
18.25
 31
0.0
100
AcDbText
 73
     2
  0
LINE
  5
BF5
330
B9E
100
AcDbEntity
  8
leg fin
100
AcDbLine
 10
-91.42857142857156
 20
20.0
 30
0.0
 11
-91.42857142857156
 21
28.5
 31
0.0
  0
LINE
  5
BF6
330
B9E
100
AcDbEntity
  8
leg fin
100
AcDbLine
 10
-104.2857142857142
 20
20.0
 30
0.0
 11
-104.2857142857142
 21
28.5
 31
0.0
  0
LINE
  5
BF7
330
B9E
100
AcDbEntity
  8
leg fin
100
AcDbLine
 10
-117.1428571428573
 20
20.0
 30
0.0
 11
-117.1428571428573
 21
28.5
 31
0.0
  0
POINT
  5
BF8
330
B9E
100
AcDbEntity
  8
SANINDUSA
100
AcDbPoint
 10
-117.1428571428573
 20
28.5
 30
0.0
  0
POINT
  5
BF9
330
B9E
100
AcDbEntity
  8
SANINDUSA
100
AcDbPoint
 10
-104.2857142857142
 20
28.5
 30
0.0
  0
POINT
  5
BFA
330
B9E
100
AcDbEntity
  8
SANINDUSA
100
AcDbPoint
 10
-91.42857142857156
 20
28.5
 30
0.0
  0
TEXT
  5
BFB
330
B9E
100
AcDbEntity
  8
1
100
AcDbText
 10
-116.200160604496
 20
26.43288406845113
 30
0.0
 40
1.5
  1
Nº Seq.:
 41
0.8
  7
SANINDUSA
 11
-116.200160604496
 21
27.18288406845113
 31
0.0
100
AcDbText
 73
     2
  0
TEXT
  5
BFC
330
B9E
100
AcDbEntity
  8
1
100
AcDbText
 10
-103.2106584078738
 20
26.43288406845113
 30
0.0
 40
1.5
  1
Tipo:
 41
0.8
  7
SANINDUSA
 11
-103.2106584078738
 21
27.18288406845113
 31
0.0
100
AcDbText
 73
     2
  0
TEXT
  5
BFD
330
B9E
100
AcDbEntity
  8
1
100
AcDbText
 10
-90.22114672289353
 20
26.43288406845113
 30
0.0
 40
1.5
  1
Prod.:
 41
0.8
  7
SANINDUSA
 11
-90.22114672289353
 21
27.18288406845113
 31
0.0
100
AcDbText
 73
     2
  0
TEXT
  5
BFE
330
B9E
100
AcDbEntity
  8
1
100
AcDbText
 10
-64.77320576346574
 20
26.43288406845113
 30
0.0
 40
1.5
  1
Rev.:
 41
0.8
  7
SANINDUSA
 11
-64.77320576346574
 21
27.18288406845113
 31
0.0
100
AcDbText
 73
     2
  0
LINE
  5
BFF
330
B9E
100
AcDbEntity
  8
leg fin
100
AcDbLine
 10
-52.85714285714266
 20
20.0
 30
0.0
 11
-52.85714285714266
 21
28.5
 31
0.0
  0
LINE
  5
C00
330
B9E
100
AcDbEntity
  8
leg fin
100
AcDbLine
 10
-65.71428571428578
 20
20.0
 30
0.0
 11
-65.71428571428578
 21
28.5
 31
0.0
  0
LINE
  5
C01
330
B9E
100
AcDbEntity
  8
leg fin
100
AcDbLine
 10
-78.57142857142844
 20
20.0
 30
0.0
 11
-78.57142857142844
 21
28.5
 31
0.0
  0
POINT
  5
C02
330
B9E
100
AcDbEntity
  8
SANINDUSA
100
AcDbPoint
 10
-78.57142857142844
 20
28.5
 30
0.0
  0
POINT
  5
C03
330
B9E
100
AcDbEntity
  8
SANINDUSA
100
AcDbPoint
 10
-65.71428571428578
 20
28.5
 30
0.0
  0
POINT
  5
C04
330
B9E
100
AcDbEntity
  8
SANINDUSA
100
AcDbPoint
 10
-52.85714285714266
 20
28.5
 30
0.0
  0
TEXT
  5
C05
330
B9E
100
AcDbEntity
  8
1
100
AcDbText
 10
-77.61097961686573
 20
26.43288406845113
 30
0.0
 40
1.5
  1
Peça:
 41
0.8
  7
SANINDUSA
 11
-77.61097961686573
 21
27.18288406845113
 31
0.0
100
AcDbText
 73
     2
  0
TEXT
  5
C06
330
B9E
100
AcDbEntity
  8
1
100
AcDbText
 10
-52.06538060077036
 20
26.43288406845113
 30
0.0
 40
1.5
  1
Alt.:
 41
0.8
  7
SANINDUSA
 11
-52.06538060077036
 21
27.18288406845113
 31
0.0
100
AcDbText
 73
     2
  0
LINE
  5
C07
330
B9E
100
AcDbEntity
  8
3
100
AcDbLine
 10
0.0
 20
12.0
 30
0.0
 11
-40.0
 21
12.0
 31
0.0
  0
LINE
  5
C08
330
B9E
100
AcDbEntity
  8
3
100
AcDbLine
 10
-40.0
 20
32.5
 30
0.0
 11
0.0
 21
32.5
 31
0.0
  0
TEXT
  5
C09
330
B9E
100
AcDbEntity
  8
1
100
AcDbText
 10
-19.0
 20
29.75
 30
0.0
 40
2.0
  1
Folha:
 41
0.8
  7
SANINDUSA
 11
-19.0
 21
30.75
 31
0.0
100
AcDbText
 73
     2
  0
LINE
  5
C0A
330
B9E
100
AcDbEntity
  8
3
100
AcDbLine
 10
-20.0
 20
32.5
 30
0.0
 11
-20.0
 21
20.0
 31
0.0
  0
TEXT
  5
C0B
330
B9E
100
AcDbEntity
  8
1
100
AcDbText
 10
-39.0
 20
29.75
 30
0.0
 40
2.0
  1
Escala:
 41
0.8
  7
SANINDUSA
 11
-39.0
 21
30.75
 31
0.0
100
AcDbText
 73
     2
  0
TEXT
  5
C0C
330
B9E
100
AcDbEntity
  8
1
100
AcDbText
 10
-39.0
 20
17.25
 30
0.0
 40
2.0
  1
Substitui:
 41
0.8
  7
SANINDUSA
 11
-39.0
 21
18.25
 31
0.0
100
AcDbText
 73
     2
  0
LWPOLYLINE
  5
C0D
102
{ACAD_REACTORS
330
BEC
102
}
330
B9E
100
AcDbEntity
  8
9
100
AcDbPolyline
 90
        6
 70
     1
 43
0.0
 10
-2.638748516194482
 20
57.02796337120571
 10
-2.638748516194482
 20
55.50786840766477
 10
-5.21497371544865
 20
55.507868407665
 42
-0.4142135623730898
 10
-5.614973715448741
 20
55.90786840766487
 10
-5.614973715448741
 20
56.62796337120562
 42
-0.4142135623731576
 10
-5.21497371544865
 20
57.02796337120571
  0
LINE
  5
C0E
330
B9E
100
AcDbEntity
  8
3
100
AcDbLine
 10
-40.0
 20
50.0
 30
0.0
 11
0.0
 21
50.0
 31
0.0
  0
ATTDEF
  5
C0F
330
B9E
100
AcDbEntity
  8
1
100
AcDbText
 10
-31.30691739422431
 20
40.25
 30
0.0
 40
2.0
  1
XXXXXXXXXXXXXXX
 41
0.8
  7
SANINDUSA
 72
     4
 11
-20.0
 21
41.25
 31
0.0
100
AcDbAttributeDefinition
  3
Observações:
  2
OBS
 70
     0
  0
TEXT
  5
C10
330
B9E
100
AcDbEntity
  8
1
100
AcDbText
 10
-39.0
 20
47.25
 30
0.0
 40
2.0
  1
Observações:
 41
0.8
  7
SANINDUSA
 11
-39.0
 21
48.25
 31
0.0
100
AcDbText
 73
     2
  0
LWPOLYLINE
  5
C11
102
{ACAD_REACTORS
330
BEC
102
}
330
B9E
100
AcDbEntity
  8
9
100
AcDbPolyline
 90
        6
 70
     1
 43
0.0
 10
-29.98468712904878
 20
57.02796337120571
 10
-29.98468712904878
 20
55.507868407665
 10
-32.57692046803459
 20
55.507868407665
 42
-0.4142135623731731
 10
-32.97692046803468
 20
55.90786840766487
 10
-32.97692046803468
 20
56.62796337120562
 42
-0.4142135623731576
 10
-32.57692046803459
 20
57.02796337120571
  0
LWPOLYLINE
  5
C12
102
{ACAD_REACTORS
330
BEC
102
}
330
B9E
100
AcDbEntity
  8
9
100
AcDbPolyline
 90
        4
 70
     1
 43
0.0
 10
-24.19231812786165
 20
59.87619128370352
 10
-24.57637781922995
 20
59.87619128370352
 10
-24.57637781922995
 20
59.28412752246913
 10
-24.19231812786165
 20
59.28412752246913
  0
ENDBLK
  5
C14
330
B9E
100
AcDbEntity
  8
0
100
AcDbBlockEnd
  0
ENDSEC
  0
SECTION
  2
ENTITIES
  0
LINE
  5
175D
330
1F
100
AcDbEntity
  8
SANINDUSA
100
AcDbLine
 10
8243.685179318424
 20
2227.859864903682
 30
0.0
 11
8244.421421556742
 21
2227.859864903682
 31
0.0
  0
LINE
  5
175E
330
1F
100
AcDbEntity
  8
SANINDUSA
100
AcDbLine
 10
8243.682601473462
 20
2227.819864903682
 30
0.0
 11
8244.423999401703
 21
2227.819864903682
 31
0.0
  0
LWPOLYLINE
  5
1760
330
1F
100
AcDbEntity
  8
SANINDUSA
100
AcDbPolyline
 90
       17
 70
   128
 43
0.0
 10
8244.129402259696
 20
2227.74718729565
 10
8244.136369706586
 20
2227.747269124952
 10
8244.147427668776
 20
2227.747394007797
 10
8244.159338989758
 20
2227.747526686588
 10
8244.172103734989
 20
2227.747668174572
 10
8244.185722565596
 20
2227.747820850884
 10
8244.199884630809
 20
2227.747986729761
 10
8244.214010127548
 20
2227.748165046429
 10
8244.235882876781
 20
2227.748472250467
 10
8244.25763341634
 20
2227.748816436831
 10
8244.279262661324
 20
2227.74920112999
 10
8244.290049103023
 20
2227.749407853798
 10
8244.300857131657
 20
2227.749623753594
 10
8244.31168707302
 20
2227.749845887137
 10
8244.322537681002
 20
2227.750067649518
 10
8244.333407096252
 20
2227.750275991525
 10
8244.34039641091
 20
2227.750386096308
  0
ARC
  5
1762
330
1F
100
AcDbEntity
  8
SANINDUSA
100
AcDbCircle
 10
8243.685179318424
 20
2227.852864903681
 30
0.0
 40
0.007
100
AcDbArc
 50
90.0
 51
178.9999999893705
  0
LINE
  5
1763
330
1F
100
AcDbEntity
  8
SANINDUSA
100
AcDbLine
 10
8243.677602234987
 20
2227.819864903682
 30
0.0
 11
8243.678180384559
 21
2227.852987070527
 31
0.0
  0
LINE
  5
1765
330
1F
100
AcDbEntity
  8
SANINDUSA
100
AcDbLine
 10
8243.677602234987
 20
2227.819864903682
 30
0.0
 11
8243.682601473462
 21
2227.819864903682
 31
0.0
  0
LINE
  5
1768
330
1F
100
AcDbEntity
  8
SANINDUSA
100
AcDbLine
 10
8243.74579489114
 20
2227.819864903682
 30
0.0
 11
8243.747472946493
 21
2227.771811685598
 31
0.0
  0
ARC
  5
176B
330
1F
100
AcDbEntity
  8
SANINDUSA
100
AcDbCircle
 10
8243.76647220289
 20
2227.76929607469
 30
0.0
 40
0.0188998892829486
100
AcDbArc
 50
182.2023076096484
 51
269.2606166077442
  0
LINE
  5
176F
330
1F
100
AcDbEntity
  8
SANINDUSA
100
AcDbLine
 10
8243.747472946493
 20
2227.771811685598
 30
0.0
 11
8243.74758565086
 21
2227.768584254766
 31
0.0
  0
LWPOLYLINE
  5
1771
330
1F
100
AcDbEntity
  8
SANINDUSA
100
AcDbPolyline
 90
       40
 70
   128
 43
0.0
 10
8243.977137973388
 20
2227.74716388444
 10
8243.977158540264
 20
2227.747165775203
 10
8243.977728254627
 20
2227.747169807507
 10
8243.978819225786
 20
2227.747174606432
 10
8243.980479989904
 20
2227.747180281585
 10
8243.982672691144
 20
2227.747186603202
 10
8243.985284445445
 20
2227.747193218645
 10
8243.988360564928
 20
2227.747200295217
 10
8243.991989154652
 20
2227.747207963892
 10
8243.996061231049
 20
2227.747215582335
 10
8244.000377957613
 20
2227.747222377843
 10
8244.00505098654
 20
2227.747228028516
 10
8244.010197399763
 20
2227.74723189672
 10
8244.015651677996
 20
2227.747232974264
 10
8244.021473307068
 20
2227.747230273283
 10
8244.027530339833
 20
2227.747222526499
 10
8244.033981014405
 20
2227.747207596424
 10
8244.040582575623
 20
2227.747186198695
 10
8244.04678645642
 20
2227.747165556678
 10
8244.05303146127
 20
2227.747155447845
 10
8244.059441411236
 20
2227.747164421999
 10
8244.065810578289
 20
2227.747185379852
 10
8244.071944051418
 20
2227.747205581032
 10
8244.077952269019
 20
2227.747220315885
 10
8244.083960366838
 20
2227.747228947522
 10
8244.089748201572
 20
2227.747232454401
 10
8244.089930720216
 20
2227.747232497039
 10
8244.095362059614
 20
2227.747232052951
 10
8244.100501239744
 20
2227.747228789797
 10
8244.10544804537
 20
2227.747223352623
 10
8244.110012302646
 20
2227.747216650947
 10
8244.114052071056
 20
2227.747209628335
 10
8244.117671312244
 20
2227.747202546643
 10
8244.120929094718
 20
2227.747195365057
 10
8244.123691346493
 20
2227.747188354983
 10
8244.125879803233
 20
2227.747181906071
 10
8244.127566555496
 20
2227.747175986755
 10
8244.128764624276
 20
2227.747170631469
 10
8244.129410759567
 20
2227.747166179332
 10
8244.129474728646
 20
2227.747163885662
  0
LWPOLYLINE
  5
1772
330
1F
100
AcDbEntity
  8
SANINDUSA
100
AcDbPolyline
 90
       43
 70
   128
 43
0.0
 10
8244.128441666028
 20
2227.747177414452
 10
8244.129087565728
 20
2227.747178403963
 10
8244.129554638528
 20
2227.747180831827
 10
8244.129466317389
 20
2227.747184249446
 10
8244.128845306086
 20
2227.747188555888
 10
8244.127702423439
 20
2227.747193716417
 10
8244.125987771395
 20
2227.74719976596
 10
8244.123741071888
 20
2227.747206377642
 10
8244.121061665801
 20
2227.747213164916
 10
8244.117913436452
 20
2227.747220115053
 10
8244.114205252584
 20
2227.747227371362
 10
8244.110050633596
 20
2227.747234563154
 10
8244.105618772866
 20
2227.747241052118
 10
8244.100824762796
 20
2227.747246374055
 10
8244.095545104697
 20
2227.747249816534
 10
8244.089954717059
 20
2227.747250313434
 10
8244.084292556323
 20
2227.747247082774
 10
8244.078416926521
 20
2227.747239025697
 10
8244.072186326224
 20
2227.747224158974
 10
8244.065819029648
 20
2227.747203391098
 10
8244.059609271925
 20
2227.747182969937
 10
8244.053359594611
 20
2227.747173494677
 10
8244.046945598622
 20
2227.747183104575
 10
8244.040573988767
 20
2227.747204207536
 10
8244.034170747115
 20
2227.747224980335
 10
8244.02790777078
 20
2227.747239696503
 10
8244.021642806556
 20
2227.747247936929
 10
8244.015627019248
 20
2227.747250788635
 10
8244.010316309855
 20
2227.74724979211
 10
8244.005295754375
 20
2227.747246150121
 10
8244.000471055187
 20
2227.747240439853
 10
8243.996022470208
 20
2227.747233500009
 10
8243.992054973107
 20
2227.747226131215
 10
8243.988506134966
 20
2227.747218697244
 10
8243.985318836712
 20
2227.747211422937
 10
8243.98262266548
 20
2227.747204630841
 10
8243.980482522891
 20
2227.747198494572
 10
8243.978844830236
 20
2227.747192962338
 10
8243.977697801176
 20
2227.747188000496
 10
8243.977102927106
 20
2227.74718384587
 10
8243.977060064231
 20
2227.747180633437
 10
8243.977544040985
 20
2227.74717820868
 10
8243.978242877426
 20
2227.74717705252
  0
LINE
  5
1773
330
1F
100
AcDbEntity
  8
SANINDUSA
100
AcDbLine
 10
8244.104996205845
 20
2227.725825224591
 30
0.0
 11
8244.116170706703
 21
2227.737808409663
 31
0.0
  0
LINE
  5
1774
330
1F
100
AcDbEntity
  8
SANINDUSA
100
AcDbLine
 10
8244.001604669319
 20
2227.725825224591
 30
0.0
 11
8244.053300437583
 21
2227.725825224591
 31
0.0
  0
LINE
  5
1776
330
1F
100
AcDbEntity
  8
SANINDUSA
100
AcDbLine
 10
8243.990430168461
 20
2227.737808409663
 30
0.0
 11
8244.001604669319
 21
2227.725825224591
 31
0.0
  0
LINE
  5
1777
330
1F
100
AcDbEntity
  8
SANINDUSA
100
AcDbLine
 10
8243.977115336388
 20
2227.747131555451
 30
0.0
 11
8243.990430168461
 21
2227.737808409663
 31
0.0
  0
LINE
  5
1778
330
1F
100
AcDbEntity
  8
SANINDUSA
100
AcDbLine
 10
8244.053300437583
 20
2227.725825224591
 30
0.0
 11
8244.104996205845
 21
2227.725825224591
 31
0.0
  0
LINE
  5
1779
330
1F
100
AcDbEntity
  8
SANINDUSA
100
AcDbLine
 10
8244.116170706703
 20
2227.737808409663
 30
0.0
 11
8244.1294934753
 21
2227.747137112663
 31
0.0
  0
LWPOLYLINE
  5
177E
330
1F
100
AcDbEntity
  8
SANINDUSA
100
AcDbPolyline
 90
        6
 70
   128
 43
0.0
 10
8242.742504040228
 20
2228.134091987573
 10
8242.908004906297
 20
2228.134018971872
 10
8242.962001661526
 20
2228.133995539549
 10
8243.070001661369
 20
2228.134010204569
 10
8243.178001548065
 20
2228.134070700951
 10
8243.267154635475
 20
2228.134094132271
  0
LWPOLYLINE
  5
1781
330
1F
100
AcDbEntity
  8
SANINDUSA
100
AcDbPolyline
 90
        6
 70
   128
 43
0.0
 10
8243.267154635475
 20
2228.683647137948
 10
8243.253154635478
 20
2228.683647209844
 10
8243.197154635522
 20
2228.683647784059
 10
8242.973154635693
 20
2228.683650021301
 10
8242.943154635902
 20
2228.683649787869
 10
8242.742504040228
 20
2228.683647183958
  0
LINE
  5
1783
330
1F
100
AcDbEntity
  8
SANINDUSA
100
AcDbLine
 10
8243.375528301973
 20
2228.787583166037
 30
0.0
 11
8242.63413037373
 21
2228.787583166037
 31
0.0
  0
LINE
  5
1784
330
1F
100
AcDbEntity
  8
SANINDUSA
100
AcDbLine
 10
8242.63413037373
 20
2227.086186760844
 30
0.0
 11
8243.375528301973
 21
2227.086186760844
 31
0.0
  0
LINE
  5
1787
330
1F
100
AcDbEntity
  8
SANINDUSA
100
AcDbLine
 10
8243.289605606944
 20
2228.716649049074
 30
0.0
 11
8242.720053068756
 21
2228.716649049074
 31
0.0
  0
LINE
  5
1788
330
1F
100
AcDbEntity
  8
SANINDUSA
100
AcDbLine
 10
8242.720053068756
 20
2227.157120877944
 30
0.0
 11
8243.289605606944
 21
2227.157120877944
 31
0.0
  0
CIRCLE
  5
178F
330
1F
100
AcDbEntity
  8
SANINDUSA
100
AcDbCircle
 10
8242.804794063939
 20
2227.764595040104
 30
0.0
 40
0.0138686240970205
  0
LINE
  5
1790
330
1F
100
AcDbEntity
  8
SANINDUSA
100
AcDbLine
 10
8242.629131135254
 20
2228.782583927561
 30
0.0
 11
8242.629131135254
 21
2227.09118599932
 31
0.0
  0
LINE
  5
1794
330
1F
100
AcDbEntity
  8
SANINDUSA
100
AcDbLine
 10
8242.700065252217
 20
2228.696661232534
 30
0.0
 11
8242.700065252217
 21
2227.177108694485
 31
0.0
  0
LWPOLYLINE
  5
1796
330
1F
100
AcDbEntity
  8
SANINDUSA
100
AcDbPolyline
 90
        5
 70
   128
 43
0.0
 10
8242.73267937915
 20
2228.67382436355
 10
8242.732679401772
 20
2228.65982649409
 10
8242.732679528339
 20
2228.603835013497
 10
8242.732680761491
 20
2228.379869035836
 10
8242.732683747432
 20
2228.143904753517
  0
ELLIPSE
  5
179E
330
1F
100
AcDbEntity
  8
SANINDUSA
100
AcDbEllipse
 10
8242.634131896895
 20
2228.782582404397
 30
0.0
 11
0.0035366109458495
 21
-0.0035366109458464
 31
0.0
210
0.0
220
0.0
230
1.0
 40
0.9996954598818692
 41
2.356346783439493
 42
3.926838523739224
  0
ELLIPSE
  5
17A6
330
1F
100
AcDbEntity
  8
SANINDUSA
100
AcDbEllipse
 10
8242.720085974125
 20
2228.696628327167
 30
0.0
 11
0.0141714282369868
 21
-0.014171428236986
 31
0.0
210
0.0
220
0.0
230
1.0
 40
0.9979329808707012
 41
2.356803477777944
 42
3.926381829401599
  0
ARC
  5
17AE
330
1F
100
AcDbEntity
  8
SANINDUSA
100
AcDbCircle
 10
8242.74250300559
 20
2228.673823557538
 30
0.0
 40
0.0098236264729958
100
AcDbArc
 50
90.0
 51
179.9952989296991
  0
ARC
  5
17B3
330
1F
100
AcDbEntity
  8
SANINDUSA
100
AcDbCircle
 10
8242.742499944096
 20
2228.14390818398
 30
0.0
 40
0.0098161972623669
100
AcDbArc
 50
180.0200231393527
 51
270.0239085809605
  0
CIRCLE
  5
17BB
330
1F
100
AcDbEntity
  8
SANINDUSA
100
AcDbCircle
 10
8242.804799435882
 20
2228.004547887687
 30
0.0
 40
0.0138706117389156
  0
CIRCLE
  5
17BE
330
1F
100
AcDbEntity
  8
SANINDUSA
100
AcDbCircle
 10
8242.804796280193
 20
2227.844575513916
 30
0.0
 40
0.0138695636776544
  0
CIRCLE
  5
17C0
330
1F
100
AcDbEntity
  8
SANINDUSA
100
AcDbCircle
 10
8242.804797884522
 20
2227.924560300577
 30
0.0
 40
0.0138702300595801
  0
CIRCLE
  5
17C4
330
1F
100
AcDbEntity
  8
SANINDUSA
100
AcDbCircle
 10
8242.804790761045
 20
2227.684620161206
 30
0.0
 40
0.013867465399867
  0
CIRCLE
  5
17C8
330
1F
100
AcDbEntity
  8
SANINDUSA
100
AcDbCircle
 10
8242.804786314785
 20
2227.604651217547
 30
0.0
 40
0.0138664245696051
  0
CIRCLE
  5
17CB
330
1F
100
AcDbEntity
  8
SANINDUSA
100
AcDbCircle
 10
8242.804781406935
 20
2227.524685276987
 30
0.0
 40
0.0138664235802044
  0
CIRCLE
  5
17CF
330
1F
100
AcDbEntity
  8
SANINDUSA
100
AcDbCircle
 10
8242.804776673557
 20
2227.444711748627
 30
0.0
 40
0.0138695856740036
  0
ELLIPSE
  5
17D2
330
1F
100
AcDbEntity
  8
SANINDUSA
100
AcDbEllipse
 10
8242.634131896895
 20
2227.091187522483
 30
0.0
 11
-0.0035366109458495
 21
-0.0035366109458464
 31
0.0
210
0.0
220
0.0
230
1.0
 40
0.9996954598818412
 41
5.497939437030122
 42
7.06843117732993
  0
ELLIPSE
  5
17D9
330
1F
100
AcDbEntity
  8
SANINDUSA
100
AcDbEllipse
 10
8242.720085974125
 20
2227.177141599852
 30
0.0
 11
0.0141714282369868
 21
0.0141714282369862
 31
0.0
210
0.0
220
0.0
230
1.0
 40
0.997932980870679
 41
2.356803477777979
 42
3.926381829401668
  0
CIRCLE
  5
17EA
330
1F
100
AcDbEntity
  8
SANINDUSA
100
AcDbCircle
 10
8243.124906151923
 20
2227.764620352826
 30
0.0
 40
0.0138698821116611
  0
CIRCLE
  5
17EB
330
1F
100
AcDbEntity
  8
SANINDUSA
100
AcDbCircle
 10
8243.044880675096
 20
2227.76465202508
 30
0.0
 40
0.0138705561403942
  0
CIRCLE
  5
17EC
330
1F
100
AcDbEntity
  8
SANINDUSA
100
AcDbCircle
 10
8242.9647898332
 20
2227.764652056182
 30
0.0
 40
0.0138697519193652
  0
CIRCLE
  5
17ED
330
1F
100
AcDbEntity
  8
SANINDUSA
100
AcDbCircle
 10
8242.884754438078
 20
2227.764621513776
 30
0.0
 40
0.0138685531320944
  0
CIRCLE
  5
17EE
330
1F
100
AcDbEntity
  8
SANINDUSA
100
AcDbCircle
 10
8243.204859154294
 20
2227.764593735241
 30
0.0
 40
0.0138692461436716
  0
LINE
  5
17EF
330
1F
100
AcDbEntity
  8
SANINDUSA
100
AcDbLine
 10
8243.380527540448
 20
2227.09118599932
 30
0.0
 11
8243.380527540448
 21
2228.782583927561
 31
0.0
  0
LINE
  5
17F3
330
1F
100
AcDbEntity
  8
SANINDUSA
100
AcDbLine
 10
8243.309593423486
 20
2227.177108694485
 30
0.0
 11
8243.309593423486
 21
2228.696661232534
 31
0.0
  0
LWPOLYLINE
  5
17F9
330
1F
100
AcDbEntity
  8
SANINDUSA
100
AcDbPolyline
 90
        6
 70
   128
 43
0.0
 10
8243.27697418176
 20
2228.143904697268
 10
8243.27697442318
 20
2228.157902583136
 10
8243.276975346924
 20
2228.213894123584
 10
8243.27697803265
 20
2228.437860210634
 10
8243.276979079743
 20
2228.61983257153
 10
8243.276979248818
 20
2228.673824359903
  0
ELLIPSE
  5
1807
330
1F
100
AcDbEntity
  8
SANINDUSA
100
AcDbEllipse
 10
8243.289572701579
 20
2228.696628327167
 30
0.0
 11
-0.0141714282369868
 21
-0.014171428236986
 31
0.0
210
0.0
220
0.0
230
0.9999999999999998
 40
0.997932980870693
 41
2.356803477777984
 42
3.926381829401682
  0
ARC
  5
180D
330
1F
100
AcDbEntity
  8
SANINDUSA
100
AcDbCircle
 10
8243.267155210986
 20
2228.673823100054
 30
0.0
 40
0.0098240379117209
100
AcDbArc
 50
0.0073477477750245
 51
90.0
  0
LINE
  5
1812
330
1F
100
AcDbEntity
  8
SANINDUSA
100
AcDbLine
 10
8244.359127887022
 20
2227.771810492877
 30
0.0
 11
8244.360805984026
 21
2227.819864903682
 31
0.0
  0
ARC
  5
1815
330
1F
100
AcDbEntity
  8
SANINDUSA
100
AcDbCircle
 10
8244.340128649001
 20
2227.769295922509
 30
0.0
 40
0.0188999072954309
100
AcDbArc
 50
270.829995500879
 51
357.7950836759095
  0
LINE
  5
1818
330
1F
100
AcDbEntity
  8
SANINDUSA
100
AcDbLine
 10
8244.340396613305
 20
2227.750367588919
 30
0.0
 11
8244.340405006317
 21
2227.750355649364
 31
0.0
  0
LINE
  5
181A
330
1F
100
AcDbEntity
  8
SANINDUSA
100
AcDbLine
 10
8244.359015200734
 20
2227.768583579734
 30
0.0
 11
8244.359127887022
 21
2227.771810492877
 31
0.0
  0
ARC
  5
181B
330
1F
100
AcDbEntity
  8
SANINDUSA
100
AcDbCircle
 10
8244.421421556742
 20
2227.852864903681
 30
0.0
 40
0.007
100
AcDbArc
 50
1.000000010629529
 51
90.0
  0
LINE
  5
181E
330
1F
100
AcDbEntity
  8
SANINDUSA
100
AcDbLine
 10
8244.428420490606
 20
2227.852987070527
 30
0.0
 11
8244.428998640179
 21
2227.819864903682
 31
0.0
  0
LINE
  5
181F
330
1F
100
AcDbEntity
  8
SANINDUSA
100
AcDbLine
 10
8244.423999401703
 20
2227.819864903682
 30
0.0
 11
8244.428998640179
 21
2227.819864903682
 31
0.0
  0
ELLIPSE
  5
1821
330
1F
100
AcDbEntity
  8
SANINDUSA
100
AcDbEllipse
 10
8243.375526778807
 20
2228.782582404397
 30
0.0
 11
-0.0035366109458496
 21
-0.0035366109458464
 31
0.0
210
0.0
220
0.0
230
1.0
 40
0.9996954598818533
 41
2.356346783440379
 42
3.926838523740143
  0
ARC
  5
1834
330
1F
100
AcDbEntity
  8
SANINDUSA
100
AcDbCircle
 10
8243.267160904391
 20
2228.143907408014
 30
0.0
 40
0.0098132777457709
100
AcDbArc
 50
269.963398334638
 51
359.984173087455
  0
CIRCLE
  5
183B
330
1F
100
AcDbEntity
  8
SANINDUSA
100
AcDbCircle
 10
8242.964799797587
 20
2228.004601090803
 30
0.0
 40
0.0138699155784477
  0
CIRCLE
  5
183C
330
1F
100
AcDbEntity
  8
SANINDUSA
100
AcDbCircle
 10
8242.884769679658
 20
2228.004572079765
 30
0.0
 40
0.0138700031925659
  0
CIRCLE
  5
1841
330
1F
100
AcDbEntity
  8
SANINDUSA
100
AcDbCircle
 10
8243.044868332296
 20
2228.00460116023
 30
0.0
 40
0.0138708549187571
  0
CIRCLE
  5
1846
330
1F
100
AcDbEntity
  8
SANINDUSA
100
AcDbCircle
 10
8242.964794929553
 20
2227.924617598727
 30
0.0
 40
0.0138698711875061
  0
CIRCLE
  5
1847
330
1F
100
AcDbEntity
  8
SANINDUSA
100
AcDbCircle
 10
8242.964791123409
 20
2227.844634472578
 30
0.0
 40
0.0138698157373682
  0
CIRCLE
  5
1848
330
1F
100
AcDbEntity
  8
SANINDUSA
100
AcDbCircle
 10
8242.884756800537
 20
2227.844601936171
 30
0.0
 40
0.0138692179227494
  0
CIRCLE
  5
184A
330
1F
100
AcDbEntity
  8
SANINDUSA
100
AcDbCircle
 10
8242.884762317862
 20
2227.924585920266
 30
0.0
 40
0.0138697136438631
  0
CIRCLE
  5
184E
330
1F
100
AcDbEntity
  8
SANINDUSA
100
AcDbCircle
 10
8243.044878965353
 20
2227.844634533494
 30
0.0
 40
0.013870800357366
  0
CIRCLE
  5
184F
330
1F
100
AcDbEntity
  8
SANINDUSA
100
AcDbCircle
 10
8243.04487428281
 20
2227.924617681955
 30
0.0
 40
0.0138708792960551
  0
CIRCLE
  5
1854
330
1F
100
AcDbEntity
  8
SANINDUSA
100
AcDbCircle
 10
8243.124890426152
 20
2228.004571429796
 30
0.0
 40
0.0138714768963577
  0
CIRCLE
  5
1857
330
1F
100
AcDbEntity
  8
SANINDUSA
100
AcDbCircle
 10
8243.204854471049
 20
2228.004546457523
 30
0.0
 40
0.0138711280284347
  0
CIRCLE
  5
185C
330
1F
100
AcDbEntity
  8
SANINDUSA
100
AcDbCircle
 10
8243.124903295624
 20
2227.844600984898
 30
0.0
 40
0.0138707010035579
  0
CIRCLE
  5
185D
330
1F
100
AcDbEntity
  8
SANINDUSA
100
AcDbCircle
 10
8243.204856671164
 20
2227.844573982735
 30
0.0
 40
0.0138701028319771
  0
CIRCLE
  5
1860
330
1F
100
AcDbEntity
  8
SANINDUSA
100
AcDbCircle
 10
8243.124897674865
 20
2227.924585137909
 30
0.0
 40
0.0138712375023978
  0
CIRCLE
  5
1863
330
1F
100
AcDbEntity
  8
SANINDUSA
100
AcDbCircle
 10
8243.204855367578
 20
2227.924558754341
 30
0.0
 40
0.0138707418392813
  0
CIRCLE
  5
186C
330
1F
100
AcDbEntity
  8
SANINDUSA
100
AcDbCircle
 10
8242.964793224434
 20
2227.684670826075
 30
0.0
 40
0.0138696937019122
  0
CIRCLE
  5
186D
330
1F
100
AcDbEntity
  8
SANINDUSA
100
AcDbCircle
 10
8242.964803713897
 20
2227.604691295384
 30
0.0
 40
0.0138696773216411
  0
CIRCLE
  5
186E
330
1F
100
AcDbEntity
  8
SANINDUSA
100
AcDbCircle
 10
8242.884756327441
 20
2227.684645760223
 30
0.0
 40
0.0138677843002951
  0
CIRCLE
  5
1872
330
1F
100
AcDbEntity
  8
SANINDUSA
100
AcDbCircle
 10
8242.88476269505
 20
2227.604674585833
 30
0.0
 40
0.0138673016383955
  0
CIRCLE
  5
1874
330
1F
100
AcDbEntity
  8
SANINDUSA
100
AcDbCircle
 10
8243.044877154863
 20
2227.684670585133
 30
0.0
 40
0.0138700836157266
  0
CIRCLE
  5
1877
330
1F
100
AcDbEntity
  8
SANINDUSA
100
AcDbCircle
 10
8243.044865990526
 20
2227.604690706863
 30
0.0
 40
0.0138693751182354
  0
CIRCLE
  5
187E
330
1F
100
AcDbEntity
  8
SANINDUSA
100
AcDbCircle
 10
8242.964822061354
 20
2227.524713156148
 30
0.0
 40
0.0138699568774743
  0
CIRCLE
  5
187F
330
1F
100
AcDbEntity
  8
SANINDUSA
100
AcDbCircle
 10
8242.964838956563
 20
2227.444732299977
 30
0.0
 40
0.0138712982128036
  0
CIRCLE
  5
1881
330
1F
100
AcDbEntity
  8
SANINDUSA
100
AcDbCircle
 10
8242.884772370443
 20
2227.52470409401
 30
0.0
 40
0.0138679940103254
  0
CIRCLE
  5
1884
330
1F
100
AcDbEntity
  8
SANINDUSA
100
AcDbCircle
 10
8242.884784451737
 20
2227.444724245004
 30
0.0
 40
0.0138711732703447
  0
CIRCLE
  5
1887
330
1F
100
AcDbEntity
  8
SANINDUSA
100
AcDbCircle
 10
8243.044847040852
 20
2227.524712234592
 30
0.0
 40
0.0138688499101941
  0
CIRCLE
  5
188B
330
1F
100
AcDbEntity
  8
SANINDUSA
100
AcDbCircle
 10
8243.044830264729
 20
2227.444731811771
 30
0.0
 40
0.0138702966864129
  0
CIRCLE
  5
188C
330
1F
100
AcDbEntity
  8
SANINDUSA
100
AcDbCircle
 10
8243.124905260113
 20
2227.684644366233
 30
0.0
 40
0.0138688459305004
  0
CIRCLE
  5
188D
330
1F
100
AcDbEntity
  8
SANINDUSA
100
AcDbCircle
 10
8243.204863629205
 20
2227.684619361737
 30
0.0
 40
0.0138682362758926
  0
CIRCLE
  5
1894
330
1F
100
AcDbEntity
  8
SANINDUSA
100
AcDbCircle
 10
8243.124900010556
 20
2227.604672993968
 30
0.0
 40
0.0138679977058158
  0
CIRCLE
  5
1897
330
1F
100
AcDbEntity
  8
SANINDUSA
100
AcDbCircle
 10
8243.204870526994
 20
2227.604651198841
 30
0.0
 40
0.0138674061921257
  0
CIRCLE
  5
1899
330
1F
100
AcDbEntity
  8
SANINDUSA
100
AcDbCircle
 10
8243.12488992806
 20
2227.524702502726
 30
0.0
 40
0.013868206429659
  0
CIRCLE
  5
189C
330
1F
100
AcDbEntity
  8
SANINDUSA
100
AcDbCircle
 10
8243.204878990054
 20
2227.524686107035
 30
0.0
 40
0.0138676233435045
  0
CIRCLE
  5
18A0
330
1F
100
AcDbEntity
  8
SANINDUSA
100
AcDbCircle
 10
8243.124873577983
 20
2227.444723128823
 30
0.0
 40
0.0138706694367978
  0
CIRCLE
  5
18A3
330
1F
100
AcDbEntity
  8
SANINDUSA
100
AcDbCircle
 10
8243.204885713454
 20
2227.444713174355
 30
0.0
 40
0.0138708456124008
  0
LWPOLYLINE
  5
18A6
330
1F
100
AcDbEntity
  8
SANINDUSA
100
AcDbPolyline
 90
       76
 70
   128
 43
0.0
 10
8243.004829351034
 20
2227.190672812719
 10
8242.998485195725
 20
2227.190950020357
 10
8242.992141041563
 20
2227.19178406022
 10
8242.985783938234
 20
2227.193174577024
 10
8242.979521711232
 20
2227.195107732778
 10
8242.973311263421
 20
2227.197622924927
 10
8242.967297574159
 20
2227.200691599535
 10
8242.962016577136
 20
2227.203973518514
 10
8242.956935840414
 20
2227.207739142861
 10
8242.952182612841
 20
2227.21191049426
 10
8242.947717712956
 20
2227.216543693925
 10
8242.943753767416
 20
2227.221410489956
 10
8242.940145678698
 20
2227.226682147961
 10
8242.936991932117
 20
2227.232237555101
 10
8242.934272200043
 20
2227.238145044156
 10
8242.932123234435
 20
2227.244085017841
 10
8242.930450186559
 20
2227.250294072106
 10
8242.92930693605
 20
2227.256622135272
 10
8242.9286971606
 20
2227.263142011192
 10
8242.928643162121
 20
2227.269467620454
 10
8242.929120455597
 20
2227.27581990338
 10
8242.930155789336
 20
2227.282247096855
 10
8242.931750580453
 20
2227.288608589928
 10
8242.933802394249
 20
2227.294593033184
 10
8242.936363285414
 20
2227.300426262365
 10
8242.939474206123
 20
2227.306144789945
 10
8242.943089997821
 20
2227.311615999364
 10
8242.947004933407
 20
2227.31657380686
 10
8242.951347992923
 20
2227.321221424563
 10
8242.956170119605
 20
2227.325579252705
 10
8242.961385669664
 20
2227.329537412208
 10
8242.966720108748
 20
2227.332916457954
 10
8242.972419665496
 20
2227.33588919469
 10
8242.97834965731
 20
2227.338370568807
 10
8242.984581962719
 20
2227.340372565115
 10
8242.992053906318
 20
2227.342022888561
 10
8242.999653126499
 20
2227.342922178769
 10
8243.004829353777
 20
2227.343100241979
 10
8243.010068451495
 20
2227.342917972759
 10
8243.0153455328
 20
2227.342371025599
 10
8243.020572385084
 20
2227.341461968081
 10
8243.025785766251
 20
2227.340174803956
 10
8243.031761219729
 20
2227.338202472434
 10
8243.037654493752
 20
2227.335693512801
 10
8243.043315982278
 20
2227.332697985219
 10
8243.048800249841
 20
2227.329168961291
 10
8243.05381578937
 20
2227.325306315268
 10
8243.05852467112
 20
2227.321009237257
 10
8243.062948477328
 20
2227.316227290308
 10
8243.066976072345
 20
2227.311046067673
 10
8243.070418302584
 20
2227.305749857213
 10
8243.073459291714
 20
2227.300084806648
 10
8243.076012893654
 20
2227.294184007218
 10
8243.078091870692
 20
2227.28797606681
 10
8243.079584313077
 20
2227.281841806785
 10
8243.080575286334
 20
2227.27549196942
 10
8243.08102730531
 20
2227.2690811961
 10
8243.080928669799
 20
2227.262537620898
 10
8243.080298939087
 20
2227.25624739137
 10
8243.079138594319
 20
2227.249988057903
 10
8243.077415903421
 20
2227.243714605793
 10
8243.075144641935
 20
2227.237566819702
 10
8243.072462938245
 20
2227.231848339641
 10
8243.069255236463
 20
2227.226276144927
 10
8243.065589538627
 20
2227.220993974659
 10
8243.061411918301
 20
2227.215953108919
 10
8243.056994256964
 20
2227.211454930281
 10
8243.052132723152
 20
2227.207267300055
 10
8243.046938184871
 20
2227.203500599415
 10
8243.04134598656
 20
2227.200125746693
 10
8243.035716420836
 20
2227.197337922115
 10
8243.029777323455
 20
2227.194980991055
 10
8243.023664771303
 20
2227.193119430678
 10
8243.017310580166
 20
2227.191748027422
 10
8243.01109264455
 20
2227.190944919352
 10
8243.004829351034
 20
2227.190672812719
  0
CIRCLE
  5
18A7
330
1F
100
AcDbEntity
  8
SANINDUSA
100
AcDbCircle
 10
8243.004829337852
 20
2227.266884963441
 30
0.0
 40
0.0500000000000005
  0
ELLIPSE
  5
18AC
330
1F
100
AcDbEntity
  8
SANINDUSA
100
AcDbEllipse
 10
8243.289572701579
 20
2227.177141599852
 30
0.0
 11
0.0141714282369857
 21
-0.0141714282369876
 31
0.0
210
0.0
220
0.0
230
0.9999999999999998
 40
0.997932980870669
 41
5.498396131367825
 42
7.067974482991504
  0
ELLIPSE
  5
18B7
330
1F
100
AcDbEntity
  8
SANINDUSA
100
AcDbEllipse
 10
8243.375526778807
 20
2227.091187522483
 30
0.0
 11
0.0035366109458496
 21
-0.0035366109458464
 31
0.0
210
0.0
220
0.0
230
1.0
 40
0.9996954598818852
 41
5.497939437029279
 42
7.068431177329044
  0
LWPOLYLINE
  5
18E1
330
1F
100
AcDbEntity
  8
SANINDUSA
100
AcDbPolyline
 90
       17
 70
   128
 43
0.0
 10
8243.977198615468
 20
2227.74718729565
 10
8243.97023116858
 20
2227.747269124952
 10
8243.959173206389
 20
2227.747394007797
 10
8243.947261885407
 20
2227.747526686588
 10
8243.934497140175
 20
2227.747668174572
 10
8243.920878309568
 20
2227.747820850884
 10
8243.906716244358
 20
2227.747986729761
 10
8243.892590747618
 20
2227.748165046429
 10
8243.870717998383
 20
2227.748472250467
 10
8243.848967458824
 20
2227.748816436831
 10
8243.827338213838
 20
2227.74920112999
 10
8243.816551772141
 20
2227.749407853798
 10
8243.805743743507
 20
2227.749623753594
 10
8243.794913802144
 20
2227.749845887137
 10
8243.784063194162
 20
2227.750067649518
 10
8243.773193778912
 20
2227.750275991525
 10
8243.766204464256
 20
2227.750386096308
  0
ARC
  5
24C2
330
1F
100
AcDbEntity
  8
SANINDUSA
100
AcDbCircle
 10
8246.308986354813
 20
2227.825971073457
 30
0.0
 40
0.0788045463935601
100
AcDbArc
 50
270.8185744711213
 51
284.6371082270639
  0
ARC
  5
24C4
330
1F
100
AcDbEntity
  8
SANINDUSA
100
AcDbCircle
 10
8246.323715346134
 20
2227.76994986487
 30
0.0
 40
0.0209000072239714
100
AcDbArc
 50
284.4060536702009
 51
357.9994342556574
  0
ARC
  5
24C5
330
1F
100
AcDbEntity
  8
SANINDUSA
100
AcDbCircle
 10
8245.38383027302
 20
2227.784307745643
 30
0.0
 40
0.0208999092143772
100
AcDbArc
 50
236.4834599087557
 51
268.8018710710201
  0
LINE
  5
24D5
330
1F
100
AcDbEntity
  8
SANINDUSA
100
AcDbLine
 10
8246.15759572673
 20
2227.747188677185
 30
0.0
 11
8246.170995327714
 21
2227.737808411115
 31
0.0
  0
LINE
  5
24D6
330
1F
100
AcDbEntity
  8
SANINDUSA
100
AcDbLine
 10
8246.296735855819
 20
2227.737808411115
 30
0.0
 11
8246.310112182882
 21
2227.747174569451
 31
0.0
  0
LINE
  5
24D7
330
1F
100
AcDbEntity
  8
SANINDUSA
100
AcDbLine
 10
8246.170995327714
 20
2227.737808411115
 30
0.0
 11
8246.182169887307
 21
2227.725825217658
 31
0.0
  0
LINE
  5
24D8
330
1F
100
AcDbEntity
  8
SANINDUSA
100
AcDbLine
 10
8246.285561415437
 20
2227.725825217658
 30
0.0
 11
8246.296735855819
 21
2227.737808411115
 31
0.0
  0
LINE
  5
24F6
330
1F
100
AcDbEntity
  8
SANINDUSA
100
AcDbLine
 10
8244.71316740826
 20
2227.819864903682
 30
0.0
 11
8244.718166646617
 21
2227.819864903682
 31
0.0
  0
LINE
  5
24F7
330
1F
100
AcDbEntity
  8
SANINDUSA
100
AcDbLine
 10
8244.71316740826
 20
2227.819864903682
 30
0.0
 11
8244.713745557815
 21
2227.852987069741
 31
0.0
  0
LINE
  5
24FA
330
1F
100
AcDbEntity
  8
SANINDUSA
100
AcDbLine
 10
8244.718166646617
 20
2227.819864903682
 30
0.0
 11
8246.409564587358
 21
2227.819864903682
 31
0.0
  0
LINE
  5
24FC
330
1F
100
AcDbEntity
  8
SANINDUSA
100
AcDbLine
 10
8246.413985702279
 20
2227.852987069741
 30
0.0
 11
8246.414563867332
 21
2227.819864903682
 31
0.0
  0
LINE
  5
24FD
330
1F
100
AcDbEntity
  8
SANINDUSA
100
AcDbLine
 10
8246.409564587358
 20
2227.819864903682
 30
0.0
 11
8246.414563867332
 21
2227.819864903682
 31
0.0
  0
ARC
  5
24FF
330
1F
100
AcDbEntity
  8
SANINDUSA
100
AcDbCircle
 10
8244.720744491679
 20
2227.852864902787
 30
0.0
 40
0.0070000000000002
100
AcDbArc
 50
90.0
 51
178.9999999893705
  0
LINE
  5
2500
330
1F
100
AcDbEntity
  8
SANINDUSA
100
AcDbLine
 10
8244.720744491624
 20
2227.859864902788
 30
0.0
 11
8246.406986686471
 21
2227.859864902788
 31
0.0
  0
ARC
  5
2502
330
1F
100
AcDbEntity
  8
SANINDUSA
100
AcDbCircle
 10
8246.406986729997
 20
2227.852864902787
 30
0.0
 40
0.0070000000000002
100
AcDbArc
 50
1.000000010629529
 51
90.0
  0
LWPOLYLINE
  5
2542
330
1F
100
AcDbEntity
  8
SANINDUSA
100
AcDbPolyline
 90
       38
 70
   128
 43
0.0
 10
8246.310112182882
 20
2227.747174569451
 10
8246.309887978318
 20
2227.747183104151
 10
8246.309113594772
 20
2227.747204204195
 10
8246.307774397614
 20
2227.747224976414
 10
8246.305885049585
 20
2227.747239698761
 10
8246.303371044877
 20
2227.747247939103
 10
8246.3003082006
 20
2227.747250785225
 10
8246.297000381233
 20
2227.747249794298
 10
8246.293266746285
 20
2227.747246150964
 10
8246.289008709672
 20
2227.747240436368
 10
8246.284358951333
 20
2227.747233499878
 10
8246.27944788623
 20
2227.747226131254
 10
8246.274226400139
 20
2227.747218695574
 10
8246.268567415954
 20
2227.747211423808
 10
8246.262658688308
 20
2227.747204628878
 10
8246.256682488205
 20
2227.74719849705
 10
8246.250549408676
 20
2227.747192961269
 10
8246.244118901969
 20
2227.747187999182
 10
8246.237614008668
 20
2227.747183841758
 10
8246.23126074958
 20
2227.747180630558
 10
8246.224925848725
 20
2227.747178209119
 10
8246.218472215415
 20
2227.747176473134
 10
8246.212131354097
 20
2227.7471753928
 10
8246.206123801949
 20
2227.747174804204
 10
8246.200308176758
 20
2227.747174535983
 10
8246.194566699745
 20
2227.747174476379
 10
8246.189113232377
 20
2227.747174409323
 10
8246.184136959794
 20
2227.747174200707
 10
8246.179504009964
 20
2227.747173947387
 10
8246.175129505875
 20
2227.747173805826
 10
8246.171183797599
 20
2227.747174059146
 10
8246.16778931308
 20
2227.747174886161
 10
8246.164849850419
 20
2227.747176480585
 10
8246.162322971107
 20
2227.747179125541
 10
8246.160317155602
 20
2227.747182828479
 10
8246.158269378426
 20
2227.74718925088
 10
8246.15774354625
 20
2227.747189742618
 10
8246.15759572673
 20
2227.747188677185
  0
ARC
  5
2543
330
1F
100
AcDbEntity
  8
SANINDUSA
100
AcDbCircle
 10
8245.343121385124
 20
2227.75108243719
 30
0.0
 40
0.0261055392872859
100
AcDbArc
 50
58.38025908301278
 51
88.99892958734048
  0
LINE
  5
2547
330
1F
100
AcDbEntity
  8
SANINDUSA
100
AcDbLine
 10
8244.781360062839
 20
2227.819864903682
 30
0.0
 11
8244.781816343845
 21
2227.80679876461
 31
0.0
  0
LINE
  5
2548
330
1F
100
AcDbEntity
  8
SANINDUSA
100
AcDbLine
 10
8246.34477016616
 20
2227.774019424909
 30
0.0
 11
8246.34637114692
 21
2227.819864903682
 31
0.0
  0
ARC
  5
254A
330
1F
100
AcDbEntity
  8
SANINDUSA
100
AcDbCircle
 10
8245.387381656861
 20
2227.825076929813
 30
0.0
 40
0.0601190859093595
100
AcDbArc
 50
239.4325775442073
 51
255.4613784747927
  0
ARC
  5
254D
330
1F
100
AcDbEntity
  8
SANINDUSA
100
AcDbCircle
 10
8244.802703612313
 20
2227.807528163191
 30
0.0
 40
0.0209
100
AcDbArc
 50
182.000000001935
 51
268.9999999902799
  0
LINE
  5
254F
330
1F
100
AcDbEntity
  8
SANINDUSA
100
AcDbLine
 10
8244.802338851286
 20
2227.786631346462
 30
0.0
 11
8245.343577477219
 21
2227.777183991962
 31
0.0
  0
LWPOLYLINE
  5
2550
330
1F
100
AcDbEntity
  8
SANINDUSA
100
AcDbPolyline
 90
        7
 70
   128
 43
0.0
 10
8246.344605657341
 20
2227.769307603233
 10
8246.34460422683
 20
2227.769265067869
 10
8246.344640347244
 20
2227.77030016213
 10
8246.34469136882
 20
2227.771761772328
 10
8246.344730469466
 20
2227.772882384353
 10
8246.344755026582
 20
2227.773583305173
 10
8246.344756814719
 20
2227.773636532121
  0
LINE
  5
2552
330
1F
100
AcDbEntity
  8
SANINDUSA
100
AcDbLine
 10
8246.182169887307
 20
2227.725825217658
 30
0.0
 11
8246.285561415437
 21
2227.725825217658
 31
0.0
  0
LWPOLYLINE
  5
260F
330
1F
100
AcDbEntity
  8
SANINDUSA
100
AcDbPolyline
 90
        3
 70
   128
 43
0.0
 10
8248.041371151662
 20
2227.74718912422
 10
8247.89843408749
 20
2227.750183132582
 10
8247.26719485209
 20
2227.763405752473
  0
LWPOLYLINE
  5
2610
330
1F
100
AcDbEntity
  8
SANINDUSA
100
AcDbPolyline
 90
        3
 70
   128
 43
0.0
 10
8248.212742730832
 20
2227.749713522487
 10
8248.203484460567
 20
2227.747894940072
 10
8248.193942949033
 20
2227.747173492902
  0
ARC
  5
2614
330
1F
100
AcDbEntity
  8
SANINDUSA
100
AcDbCircle
 10
8248.041369096487
 20
2227.747089146281
 30
0.0
 40
0.0001000000006004
100
AcDbArc
 50
55.00000022232399
 51
88.80240177324072
  0
ARC
  5
2615
330
1F
100
AcDbEntity
  8
SANINDUSA
100
AcDbCircle
 10
8248.193944520554
 20
2227.747073505677
 30
0.0
 40
0.0001000000000002
100
AcDbArc
 50
90.92239823515795
 51
125.0000000380883
  0
LINE
  5
2616
330
1F
100
AcDbEntity
  8
SANINDUSA
100
AcDbLine
 10
8248.041426464771
 20
2227.747171064013
 30
0.0
 11
8248.054797693944
 21
2227.737808411115
 31
0.0
  0
LINE
  5
2617
330
1F
100
AcDbEntity
  8
SANINDUSA
100
AcDbLine
 10
8248.180538222049
 20
2227.737808411115
 30
0.0
 11
8248.193887159084
 21
2227.747155417793
 31
0.0
  0
LWPOLYLINE
  5
2618
330
1F
100
AcDbEntity
  8
SANINDUSA
100
AcDbPolyline
 90
        3
 70
   128
 43
0.0
 10
8248.041452690815
 20
2227.751088273817
 10
8248.042771741605
 20
2227.750835162693
 10
8248.04366342709
 20
2227.750365753763
  0
LWPOLYLINE
  5
2619
330
1F
100
AcDbEntity
  8
SANINDUSA
100
AcDbPolyline
 90
       16
 70
   128
 43
0.0
 10
8248.041452690815
 20
2227.751088273817
 10
8248.041452690815
 20
2227.751088273817
 10
8248.041634842611
 20
2227.751088795357
 10
8248.042176410413
 20
2227.751088214212
 10
8248.043093845105
 20
2227.751085196727
 10
8248.044378086781
 20
2227.751081665152
 10
8248.046358629919
 20
2227.751078237885
 10
8248.048829361653
 20
2227.751075779193
 10
8248.051867410397
 20
2227.751074281626
 10
8248.05538396523
 20
2227.751073633426
 10
8248.059261247373
 20
2227.751073618525
 10
8248.063543721888
 20
2227.751073983603
 10
8248.06834439919
 20
2227.751074467891
 10
8248.073506876684
 20
2227.751074847871
 10
8248.078822180486
 20
2227.751075041585
 10
8248.117606897531
 20
2227.751075993311
  0
ARC
  5
261A
330
1F
100
AcDbEntity
  8
SANINDUSA
100
AcDbCircle
 10
8248.159728411694
 20
2205.777720963383
 30
0.0
 40
21.97339540201339
100
AcDbArc
 50
89.91268764533272
 51
90.109832231369
  0
LWPOLYLINE
  5
261C
330
1F
100
AcDbEntity
  8
SANINDUSA
100
AcDbPolyline
 90
        3
 70
   128
 43
0.0
 10
8248.191650196766
 20
2227.750350114995
 10
8248.192721053815
 20
2227.750881803327
 10
8248.193880125738
 20
2227.751072985225
  0
LINE
  5
261D
330
1F
100
AcDbEntity
  8
SANINDUSA
100
AcDbLine
 10
8248.04366342709
 20
2227.750365753763
 30
0.0
 11
8248.057370468831
 21
2227.740767990344
 31
0.0
  0
LINE
  5
261E
330
1F
100
AcDbEntity
  8
SANINDUSA
100
AcDbLine
 10
8248.177965566373
 20
2227.740767990344
 30
0.0
 11
8248.191650196766
 21
2227.750350114995
 31
0.0
  0
LINE
  5
2620
330
1F
100
AcDbEntity
  8
SANINDUSA
100
AcDbLine
 10
8248.297788068509
 20
2227.852987069741
 30
0.0
 11
8248.298366233562
 21
2227.819864903682
 31
0.0
  0
LINE
  5
2621
330
1F
100
AcDbEntity
  8
SANINDUSA
100
AcDbLine
 10
8248.298366233562
 20
2227.819864903682
 30
0.0
 11
8248.294465586399
 21
2227.819864903682
 31
0.0
  0
LINE
  5
2622
330
1F
100
AcDbEntity
  8
SANINDUSA
100
AcDbLine
 10
8248.293888613437
 20
2227.852919005428
 30
0.0
 11
8248.294465586399
 21
2227.819864903682
 31
0.0
  0
ARC
  5
2623
330
1F
100
AcDbEntity
  8
SANINDUSA
100
AcDbCircle
 10
8248.290789096227
 20
2227.852864902787
 30
0.0
 40
0.0031
100
AcDbArc
 50
1.000000010629531
 51
90.0
  0
LINE
  5
2624
330
1F
100
AcDbEntity
  8
SANINDUSA
100
AcDbLine
 10
8248.234427854276
 20
2227.855964902893
 30
0.0
 11
8248.290789052701
 21
2227.855964902893
 31
0.0
  0
ARC
  5
2625
330
1F
100
AcDbEntity
  8
SANINDUSA
100
AcDbCircle
 10
8248.234427798355
 20
2227.852864902787
 30
0.0
 40
0.0031000000000007
100
AcDbArc
 50
90.0
 51
177.999999998065
  0
LINE
  5
2626
330
1F
100
AcDbEntity
  8
SANINDUSA
100
AcDbLine
 10
8248.22840492413
 20
2227.769220468693
 30
0.0
 11
8248.231329724049
 21
2227.852973091056
 31
0.0
  0
ARC
  5
2627
330
1F
100
AcDbEntity
  8
SANINDUSA
100
AcDbCircle
 10
8248.207517617714
 20
2227.769949870712
 30
0.0
 40
0.0209000381943286
100
AcDbArc
 50
284.4778054483395
 51
357.9999966838081
  0
LINE
  5
2628
330
1F
100
AcDbEntity
  8
SANINDUSA
100
AcDbLine
 10
8248.169363781666
 20
2227.725825217658
 30
0.0
 11
8248.180538222049
 21
2227.737808411115
 31
0.0
  0
LINE
  5
2629
330
1F
100
AcDbEntity
  8
SANINDUSA
100
AcDbLine
 10
8248.065972253536
 20
2227.725825217658
 30
0.0
 11
8248.169363781666
 21
2227.725825217658
 31
0.0
  0
LINE
  5
262A
330
1F
100
AcDbEntity
  8
SANINDUSA
100
AcDbLine
 10
8248.054797693944
 20
2227.737808411115
 30
0.0
 11
8248.065972253536
 21
2227.725825217658
 31
0.0
  0
ARC
  5
262B
330
1F
100
AcDbEntity
  8
SANINDUSA
100
AcDbCircle
 10
8247.267637934333
 20
2227.784306528948
 30
0.0
 40
0.0209054724680243
100
AcDbArc
 50
181.2079187384611
 51
268.7855503929287
  0
ARC
  5
262C
330
1F
100
AcDbEntity
  8
SANINDUSA
100
AcDbCircle
 10
8247.243637826269
 20
2227.783801304797
 30
0.0
 40
0.0030999528188969
100
AcDbArc
 50
1.192675398161082
 51
89.00040140383939
  0
LINE
  5
262D
330
1F
100
AcDbEntity
  8
SANINDUSA
100
AcDbLine
 10
8247.24369190619
 20
2227.786900785857
 30
0.0
 11
8246.706248089529
 21
2227.796281901293
 31
0.0
  0
ARC
  5
262E
330
1F
100
AcDbEntity
  8
SANINDUSA
100
AcDbCircle
 10
8246.706193990002
 20
2227.79318237508
 30
0.0
 40
0.0030999999999999
100
AcDbArc
 50
88.99999999027992
 51
154.684260810848
  0
ARC
  5
262F
330
1F
100
AcDbEntity
  8
SANINDUSA
100
AcDbCircle
 10
8246.690826582957
 20
2227.800451680463
 30
0.0
 40
0.0138999999999999
100
AcDbArc
 50
268.9999999902799
 51
334.684260810848
  0
LINE
  5
2630
330
1F
100
AcDbEntity
  8
SANINDUSA
100
AcDbLine
 10
8246.690583996331
 20
2227.786553797417
 30
0.0
 11
8246.686141222573
 21
2227.78663134306
 31
0.0
  0
ARC
  5
2631
330
1F
100
AcDbEntity
  8
SANINDUSA
100
AcDbCircle
 10
8246.686505978543
 20
2227.807528163191
 30
0.0
 40
0.0209
100
AcDbArc
 50
182.000000001935
 51
268.9999999902799
  0
LINE
  5
2632
330
1F
100
AcDbEntity
  8
SANINDUSA
100
AcDbLine
 10
8246.664006270325
 20
2227.852973091056
 30
0.0
 11
8246.665618710077
 21
2227.80679876461
 31
0.0
  0
ARC
  5
2633
330
1F
100
AcDbEntity
  8
SANINDUSA
100
AcDbCircle
 10
8246.660908155647
 20
2227.852864902787
 30
0.0
 40
0.0031
100
AcDbArc
 50
2.000000001934984
 51
90.0
  0
LINE
  5
2634
330
1F
100
AcDbEntity
  8
SANINDUSA
100
AcDbLine
 10
8246.604546857854
 20
2227.855964902893
 30
0.0
 11
8246.660908155
 21
2227.855964902893
 31
0.0
  0
ARC
  5
2635
330
1F
100
AcDbEntity
  8
SANINDUSA
100
AcDbCircle
 10
8246.604546857911
 20
2227.852864902787
 30
0.0
 40
0.0031000000000004
100
AcDbArc
 50
90.0
 51
178.9999999893705
  0
LINE
  5
2636
330
1F
100
AcDbEntity
  8
SANINDUSA
100
AcDbLine
 10
8246.600870368625
 20
2227.819864903682
 30
0.0
 11
8246.601447329945
 21
2227.852919005428
 31
0.0
  0
LINE
  5
2637
330
1F
100
AcDbEntity
  8
SANINDUSA
100
AcDbLine
 10
8246.600870368625
 20
2227.819864903682
 30
0.0
 11
8246.59696977449
 21
2227.819864903682
 31
0.0
  0
LINE
  5
2638
330
1F
100
AcDbEntity
  8
SANINDUSA
100
AcDbLine
 10
8246.59696977449
 20
2227.819864903682
 30
0.0
 11
8246.597547924045
 21
2227.852987069741
 31
0.0
  0
ARC
  5
2639
330
1F
100
AcDbEntity
  8
SANINDUSA
100
AcDbCircle
 10
8246.604546857911
 20
2227.852864902787
 30
0.0
 40
0.0070000000000001
100
AcDbArc
 50
90.0
 51
178.9999999893705
  0
LINE
  5
263A
330
1F
100
AcDbEntity
  8
SANINDUSA
100
AcDbLine
 10
8246.604546857854
 20
2227.859864902788
 30
0.0
 11
8246.660908155
 21
2227.859864902788
 31
0.0
  0
ARC
  5
263B
330
1F
100
AcDbEntity
  8
SANINDUSA
100
AcDbCircle
 10
8246.660908155647
 20
2227.852864902787
 30
0.0
 40
0.0070000000000001
100
AcDbArc
 50
2.000000001934984
 51
90.0
  0
LINE
  5
263C
330
1F
100
AcDbEntity
  8
SANINDUSA
100
AcDbLine
 10
8246.667903892552
 20
2227.853109199193
 30
0.0
 11
8246.669516332303
 21
2227.806934871816
 31
0.0
  0
ARC
  5
263D
330
1F
100
AcDbEntity
  8
SANINDUSA
100
AcDbCircle
 10
8246.686505978543
 20
2227.807528163191
 30
0.0
 40
0.017
100
AcDbArc
 50
182.000000001935
 51
268.9999999902799
  0
LINE
  5
263E
330
1F
100
AcDbEntity
  8
SANINDUSA
100
AcDbLine
 10
8246.690652058893
 20
2227.790453203512
 30
0.0
 11
8246.686209291075
 21
2227.790530753427
 31
0.0
  0
ARC
  5
263F
330
1F
100
AcDbEntity
  8
SANINDUSA
100
AcDbCircle
 10
8246.690826582957
 20
2227.800451680463
 30
0.0
 40
0.0100000000000001
100
AcDbArc
 50
268.9999999902799
 51
334.684260810848
  0
ARC
  5
2640
330
1F
100
AcDbEntity
  8
SANINDUSA
100
AcDbCircle
 10
8246.706193990002
 20
2227.79318237508
 30
0.0
 40
0.007
100
AcDbArc
 50
88.99999999027992
 51
154.684260810848
  0
LINE
  5
2641
330
1F
100
AcDbEntity
  8
SANINDUSA
100
AcDbLine
 10
8247.24375991509
 20
2227.790800196224
 30
0.0
 11
8246.70631615803
 21
2227.800181307935
 31
0.0
  0
ARC
  5
2642
330
1F
100
AcDbEntity
  8
SANINDUSA
100
AcDbCircle
 10
8247.243637774587
 20
2227.78380125318
 30
0.0
 40
0.0070000087168621
100
AcDbArc
 50
1.193552682904193
 51
89.00021690586795
  0
ARC
  5
2643
330
1F
100
AcDbEntity
  8
SANINDUSA
100
AcDbCircle
 10
8247.267636989072
 20
2227.78430557892
 30
0.0
 40
0.0170045043607427
100
AcDbArc
 50
181.2080907147801
 51
268.7854961861882
  0
LWPOLYLINE
  5
2644
330
1F
100
AcDbEntity
  8
SANINDUSA
100
AcDbPolyline
 90
        3
 70
   128
 43
0.0
 10
8248.041452690815
 20
2227.751088273817
 10
8247.880515739177
 20
2227.754459363513
 10
8247.267276570058
 20
2227.767304894619
  0
LINE
  5
2645
330
1F
100
AcDbEntity
  8
SANINDUSA
100
AcDbLine
 10
8248.057370468831
 20
2227.740767990344
 30
0.0
 11
8248.067668005679
 21
2227.729725224071
 31
0.0
  0
LINE
  5
2646
330
1F
100
AcDbEntity
  8
SANINDUSA
100
AcDbLine
 10
8248.067668005679
 20
2227.729725224071
 30
0.0
 11
8248.167668029521
 21
2227.729725224071
 31
0.0
  0
LINE
  5
2647
330
1F
100
AcDbEntity
  8
SANINDUSA
100
AcDbLine
 10
8248.167668029521
 20
2227.729725224071
 30
0.0
 11
8248.177965566373
 21
2227.740767990344
 31
0.0
  0
LWPOLYLINE
  5
2648
330
1F
100
AcDbEntity
  8
SANINDUSA
100
AcDbPolyline
 90
        3
 70
   128
 43
0.0
 10
8248.211767718052
 20
2227.75348968535
 10
8248.202958747601
 20
2227.751759340161
 10
8248.193880125738
 20
2227.751072985225
  0
ARC
  5
2649
330
1F
100
AcDbEntity
  8
SANINDUSA
100
AcDbCircle
 10
8248.207517820347
 20
2227.769949797642
 30
0.0
 40
0.0169999096223483
100
AcDbArc
 50
284.4772347488668
 51
358.0002244165659
  0
LINE
  5
264A
330
1F
100
AcDbEntity
  8
SANINDUSA
100
AcDbLine
 10
8248.224507376407
 20
2227.769356575899
 30
0.0
 11
8248.227432057118
 21
2227.853109199193
 31
0.0
  0
ARC
  5
264B
330
1F
100
AcDbEntity
  8
SANINDUSA
100
AcDbCircle
 10
8248.234427798355
 20
2227.852864902787
 30
0.0
 40
0.0070000000000001
100
AcDbArc
 50
90.0
 51
177.999999998065
  0
LINE
  5
264C
330
1F
100
AcDbEntity
  8
SANINDUSA
100
AcDbLine
 10
8248.234427854276
 20
2227.859864902788
 30
0.0
 11
8248.290789052701
 21
2227.859864902788
 31
0.0
  0
ARC
  5
264D
330
1F
100
AcDbEntity
  8
SANINDUSA
100
AcDbCircle
 10
8248.290789096227
 20
2227.852864902787
 30
0.0
 40
0.0069999999999999
100
AcDbArc
 50
1.000000010629531
 51
90.0
  0
LWPOLYLINE
  5
26DE
330
1F
100
AcDbEntity
  8
SANINDUSA
100
AcDbPolyline
 90
       16
 70
   128
 43
0.0
 10
8246.690583996331
 20
2227.786553797417
 10
8246.690693542218
 20
2227.786551882618
 10
8246.691020972884
 20
2227.786546168022
 10
8246.691562712049
 20
2227.786536713236
 10
8246.692312821602
 20
2227.786523622566
 10
8246.693263076101
 20
2227.786507037573
 10
8246.694403074538
 20
2227.786487137072
 10
8246.695720314836
 20
2227.786464144581
 10
8246.69720037267
 20
2227.786438305967
 10
8246.698827035581
 20
2227.786409911805
 10
8246.700582474327
 20
2227.786379275017
 10
8246.702447451507
 20
2227.786346723431
 10
8246.704401552532
 20
2227.786312614673
 10
8246.706423349534
 20
2227.786277321273
 10
8246.708490699386
 20
2227.78624123811
 10
8246.710580944871
 20
2227.786204752618
  0
ARC
  5
26E3
330
1F
100
AcDbEntity
  8
SANINDUSA
100
AcDbCircle
 10
8247.266809306418
 20
2227.815479655661
 30
0.0
 40
0.0496357061891643
100
AcDbArc
 50
238.1474675412169
 51
257.394426255936
  0
LINE
  5
26F2
330
1F
100
AcDbEntity
  8
SANINDUSA
100
AcDbLine
 10
8246.710580944871
 20
2227.786204752618
 30
0.0
 11
8247.227408513284
 21
2227.777183492773
 31
0.0
  0
ARC
  5
26F3
330
1F
100
AcDbEntity
  8
SANINDUSA
100
AcDbCircle
 10
8247.226938530449
 20
2227.751082009718
 30
0.0
 40
0.0261057103404329
100
AcDbArc
 50
58.40705596713227
 51
88.99932245430877
  0
LINE
  5
26FB
330
1F
100
AcDbEntity
  8
SANINDUSA
100
AcDbLine
 10
8246.660908155
 20
2227.859864902788
 30
0.0
 11
8246.687891706681
 21
2227.859864902788
 31
0.0
  0
LINE
  5
26FD
330
1F
100
AcDbEntity
  8
SANINDUSA
100
AcDbLine
 10
8248.207444235537
 20
2227.859864902788
 30
0.0
 11
8248.234427854276
 21
2227.859864902788
 31
0.0
  0
LINE
  5
26FE
330
1F
100
AcDbEntity
  8
SANINDUSA
100
AcDbLine
 10
8246.687891706681
 20
2227.859864902788
 30
0.0
 11
8248.207444235537
 21
2227.859864902788
 31
0.0
  0
LINE
  5
2704
330
1F
100
AcDbEntity
  8
SANINDUSA
100
AcDbLine
 10
8246.601970201215
 20
2227.819864903682
 30
0.0
 11
8246.600870368625
 21
2227.819864903682
 31
0.0
  0
LINE
  5
2706
330
1F
100
AcDbEntity
  8
SANINDUSA
100
AcDbLine
 10
8248.294465586399
 20
2227.819864903682
 30
0.0
 11
8248.293365761494
 21
2227.819864903682
 31
0.0
  0
LINE
  5
2707
330
1F
100
AcDbEntity
  8
SANINDUSA
100
AcDbLine
 10
8248.293365761494
 20
2227.819864903682
 30
0.0
 11
8248.23017351315
 21
2227.819864903682
 31
0.0
  0
LINE
  5
2708
330
1F
100
AcDbEntity
  8
SANINDUSA
100
AcDbLine
 10
8246.665162429071
 20
2227.819864903682
 30
0.0
 11
8246.601970201215
 21
2227.819864903682
 31
0.0
  0
ARC
  5
27BE
330
1F
100
AcDbEntity
  8
SANINDUSA
100
AcDbCircle
 10
8247.561145571848
 20
2313.205847069932
 30
0.0
 40
85.47018337675408
100
AcDbArc
 50
268.5399643040201
 51
269.0590742408275
  0
ENDSEC
  0
SECTION
  2
OBJECTS
  0
DICTIONARY
  5
C
330
0
100
AcDbDictionary
281
     1
  3
ACAD_COLOR
350
EE6
  3
ACAD_GROUP
350
D
  3
ACAD_LAYOUT
350
1A
  3
ACAD_MATERIAL
350
EE5
  3
ACAD_MLINESTYLE
350
17
  3
ACAD_PLOTSETTINGS
350
19
  3
ACAD_PLOTSTYLENAME
350
E
  3
ACAD_TABLESTYLE
350
EE7
  3
ACDBHEADERROUNDTRIPXREC
350
2AD1
  3
AcDbVariableDictionary
350
3D
  3
ASE_INDEX_DICTIONARY
350
203A
  0
DICTIONARY
  5
1051
330
2
100
AcDbDictionary
280
     1
281
     1
  3
ACAD_LAYERFILTERS
360
1057
  3
ACLYDICTIONARY
360
1056
  0
DICTIONARY
  5
EE6
102
{ACAD_REACTORS
330
C
102
}
330
C
100
AcDbDictionary
281
     1
  0
DICTIONARY
  5
D
102
{ACAD_REACTORS
330
C
102
}
330
C
100
AcDbDictionary
281
     1
  0
DICTIONARY
  5
1A
102
{ACAD_REACTORS
330
C
102
}
330
C
100
AcDbDictionary
281
     1
  3
Layout1
350
1E
  3
Layout2
350
26
  3
Model
350
22
  0
DICTIONARY
  5
EE5
102
{ACAD_REACTORS
330
C
102
}
330
C
100
AcDbDictionary
281
     1
  0
DICTIONARY
  5
17
102
{ACAD_REACTORS
330
C
102
}
330
C
100
AcDbDictionary
281
     1
  3
Standard
350
18
  0
DICTIONARY
  5
19
102
{ACAD_REACTORS
330
C
102
}
330
C
100
AcDbDictionary
281
     1
  0
ACDBDICTIONARYWDFLT
  5
E
102
{ACAD_REACTORS
330
C
102
}
330
C
100
AcDbDictionary
281
     1
  3
Normal
350
F
100
AcDbDictionaryWithDefault
340
F
  0
DICTIONARY
  5
EE7
102
{ACAD_REACTORS
330
C
102
}
330
C
100
AcDbDictionary
281
     1
  3
Standard
350
EE8
  0
DICTIONARY
  5
2AD1
102
{ACAD_REACTORS
330
C
102
}
330
C
100
AcDbDictionary
281
     1
  0
DICTIONARY
  5
3D
102
{ACAD_REACTORS
330
C
102
}
330
C
100
AcDbDictionary
281
     1
  3
CTABLESTYLE
350
1049
  3
DIMASSOC
350
3F
  3
HIDETEXT
350
3E
  3
PROJECTNAME
350
2033
  0
DICTIONARY
  5
203A
102
{ACAD_REACTORS
330
C
102
}
330
C
100
AcDbDictionary
281
     1
  3
ASEBlockHierarchyIndexRecord
350
203B
1001
DCO15
1040
1598621159.187
  0
DICTIONARY
  5
1057
102
{ACAD_REACTORS
330
1051
102
}
330
1051
100
AcDbDictionary
281
     1
  0
DICTIONARY
  5
1056
102
{ACAD_REACTORS
330
1051
102
}
330
1051
100
AcDbDictionary
281
     1
1001
ACAD
1000
<All
  0
LAYOUT
  5
1E
102
{ACAD_XDICTIONARY
360
2AD2
102
}
102
{ACAD_REACTORS
330
1A
102
}
330
1A
100
AcDbPlotSettings
  1

  2
Ploter HP500
  4

  6

 40
0.0
 41
0.0
 42
0.0
 43
0.0
 44
0.0
 45
0.0
 46
0.0
 47
0.0
 48
0.0
 49
0.0
140
0.0
141
0.0
142
1.0
143
1.0
 70
   688
 72
     0
 73
     0
 74
     5
  7
sanindusa.ctb
 75
    16
147
1.0
148
0.0
149
0.0
100
AcDbLayout
  1
Layout1
 70
     1
 71
     1
 10
0.0
 20
0.0
 11
420.0
 21
297.0
 12
0.0
 22
0.0
 32
0.0
 14
1.000000000000000E+20
 24
1.000000000000000E+20
 34
1.000000000000000E+20
 15
-1.000000000000000E+20
 25
-1.000000000000000E+20
 35
-1.000000000000000E+20
146
0.0
 13
0.0
 23
0.0
 33
0.0
 16
1.0
 26
0.0
 36
0.0
 17
0.0
 27
1.0
 37
0.0
 76
     0
330
1B
  0
LAYOUT
  5
26
102
{ACAD_XDICTIONARY
360
2AD6
102
}
102
{ACAD_REACTORS
330
1A
102
}
330
1A
100
AcDbPlotSettings
  1

  2
Ploter HP500
  4

  6

 40
0.0
 41
0.0
 42
0.0
 43
0.0
 44
0.0
 45
0.0
 46
0.0
 47
0.0
 48
0.0
 49
0.0
140
0.0
141
0.0
142
1.0
143
1.0
 70
   688
 72
     0
 73
     0
 74
     5
  7
sanindusa.ctb
 75
    16
147
1.0
148
0.0
149
0.0
100
AcDbLayout
  1
Layout2
 70
     1
 71
     2
 10
0.0
 20
0.0
 11
12.0
 21
9.0
 12
0.0
 22
0.0
 32
0.0
 14
0.0
 24
0.0
 34
0.0
 15
0.0
 25
0.0
 35
0.0
146
0.0
 13
0.0
 23
0.0
 33
0.0
 16
1.0
 26
0.0
 36
0.0
 17
0.0
 27
1.0
 37
0.0
 76
     0
330
23
  0
LAYOUT
  5
22
102
{ACAD_XDICTIONARY
360
2AD4
102
}
102
{ACAD_REACTORS
330
1A
102
}
330
1A
100
AcDbPlotSettings
  1

  2
Ploter HP500
  4
User268
  6

 40
4.995333194732666
 41
16.97565841674804
 42
4.995330810546875
 43
16.97567749023437
 44
209.9733276367187
 45
296.9259948730469
 46
0.0
 47
0.0
 48
0.0
 49
0.0
140
0.0
141
0.0
142
1.0
143
1.0
 70
 11952
 72
     1
 73
     1
 74
     0
  7
sanindusa.ctb
 75
     0
147
1.0
148
-427.5957866592534
149
7.362384574453926
100
AcDbLayout
  1
Model
 70
     1
 71
     0
 10
0.0
 20
0.0
 11
12.0
 21
9.0
 12
0.0
 22
0.0
 32
0.0
 14
0.0
 24
0.0
 34
0.0
 15
0.0
 25
0.0
 35
0.0
146
0.0
 13
0.0
 23
0.0
 33
0.0
 16
1.0
 26
0.0
 36
0.0
 17
0.0
 27
1.0
 37
0.0
 76
     0
330
1F
  0
MLINESTYLE
  5
18
102
{ACAD_REACTORS
330
17
102
}
330
17
100
AcDbMlineStyle
  2
STANDARD
 70
     0
  3

 62
   256
 51
90.0
 52
90.0
 71
     2
 49
0.5
 62
   256
  6
BYLAYER
 49
-0.5
 62
   256
  6
BYLAYER
  0
ACDBPLACEHOLDER
  5
F
102
{ACAD_REACTORS
330
E
102
}
330
E
  0
TABLESTYLE
  5
EE8
102
{ACAD_REACTORS
330
EE7
102
}
330
EE7
100
AcDbTableStyle
  3
Standard
 70
     0
 71
     0
 40
1.5
 41
1.5
280
     0
281
     0
  7
Standard
140
4.5
170
     2
 62
     0
 63
     7
283
     0
274
    -2
284
     1
 64
     0
275
    -2
285
     1
 65
     0
276
    -2
286
     1
 66
     0
277
    -2
287
     1
 67
     0
278
    -2
288
     1
 68
     0
279
    -2
289
     1
 69
     0
  7
Standard
140
6.0
170
     5
 62
     0
 63
     7
283
     0
274
    -2
284
     1
 64
     0
275
    -2
285
     1
 65
     0
276
    -2
286
     1
 66
     0
277
    -2
287
     1
 67
     0
278
    -2
288
     1
 68
     0
279
    -2
289
     1
 69
     0
  7
Standard
140
4.5
170
     5
 62
     0
 63
     7
283
     0
274
    -2
284
     1
 64
     0
275
    -2
285
     1
 65
     0
276
    -2
286
     1
 66
     0
277
    -2
287
     1
 67
     0
278
    -2
288
     1
 68
     0
279
    -2
289
     1
 69
     0
  0
DICTIONARYVAR
  5
1049
102
{ACAD_REACTORS
330
3D
102
}
330
3D
100
DictionaryVariables
280
     0
  1
STANDARD
  0
DICTIONARYVAR
  5
3F
102
{ACAD_REACTORS
330
3D
102
}
330
3D
100
DictionaryVariables
280
     0
  1
2
  0
DICTIONARYVAR
  5
3E
102
{ACAD_REACTORS
330
3D
102
}
330
3D
100
DictionaryVariables
280
     0
  1
1
  0
DICTIONARYVAR
  5
2033
102
{ACAD_REACTORS
330
3D
102
}
330
3D
100
DictionaryVariables
280
     0
  1

  0
XRECORD
  5
203B
102
{ACAD_REACTORS
330
203A
102
}
330
203A
100
AcDbXrecord
280
     1
  0
DICTIONARY
  5
2AD2
330
1E
100
AcDbDictionary
280
     1
281
     1
  3
ACAD_XREC_ROUNDTRIP
360
2AD3
  0
DICTIONARY
  5
2AD6
330
26
100
AcDbDictionary
280
     1
281
     1
  3
ACAD_XREC_ROUNDTRIP
360
2AD7
  0
DICTIONARY
  5
2AD4
330
22
100
AcDbDictionary
280
     1
281
     1
  3
ACAD_XREC_ROUNDTRIP
360
2AD5
  0
XRECORD
  5
2AD3
102
{ACAD_REACTORS
330
2AD2
102
}
330
2AD2
100
AcDbXrecord
280
     1
102
SHADEPLOT
 70
     0
102
SHADEPLOTRESLEVEL
 70
     2
102
SHADEPLOTCUSTOMDPI
 70
   300
  0
XRECORD
  5
2AD7
102
{ACAD_REACTORS
330
2AD6
102
}
330
2AD6
100
AcDbXrecord
280
     1
102
SHADEPLOT
 70
     0
102
SHADEPLOTRESLEVEL
 70
     2
102
SHADEPLOTCUSTOMDPI
 70
   300
  0
XRECORD
  5
2AD5
102
{ACAD_REACTORS
330
2AD4
102
}
330
2AD4
100
AcDbXrecord
280
     1
102
SHADEPLOT
 70
     0
102
SHADEPLOTRESLEVEL
 70
     2
102
SHADEPLOTCUSTOMDPI
 70
   300
  0
ENDSEC
  0
EOF
