  0
SECTION
  2
HEADER
  9
$ACADVER
  1
AC1015
  9
$ACADMAINTVER
 70
    20
  9
$DWGCODEPAGE
  3
ANSI_1252
  9
$INSBASE
 10
0.0
 20
0.0
 30
0.0
  9
$EXTMIN
 10
5286.735062345723
 20
3471.465552809743
 30
0.0
  9
$EXTMAX
 10
5292.051453488092
 20
3472.866949214937
 30
0.0
  9
$LIMMIN
 10
0.0
 20
0.0
  9
$LIMMAX
 10
420.0
 20
297.0
  9
$ORTHOMODE
 70
     0
  9
$REGENMODE
 70
     1
  9
$FILLMODE
 70
     1
  9
$QTEXTMODE
 70
     0
  9
$MIRRTEXT
 70
     1
  9
$LTSCALE
 40
1.0
  9
$ATTMODE
 70
     1
  9
$TEXTSIZE
 40
2.5
  9
$TRACEWID
 40
1.0
  9
$TEXTSTYLE
  7
SANINDUSA
  9
$CLAYER
  8
0
  9
$CELTYPE
  6
ByLayer
  9
$CECOLOR
 62
   256
  9
$CELTSCALE
 40
1.0
  9
$DISPSILH
 70
     0
  9
$DIMSCALE
 40
1.0
  9
$DIMASZ
 40
2.0
  9
$DIMEXO
 40
1.0
  9
$DIMDLI
 40
1.0
  9
$DIMRND
 40
0.0
  9
$DIMDLE
 40
0.0
  9
$DIMEXE
 40
1.0
  9
$DIMTP
 40
0.0
  9
$DIMTM
 40
0.0
  9
$DIMTXT
 40
2.0
  9
$DIMCEN
 40
0.0
  9
$DIMTSZ
 40
0.0
  9
$DIMTOL
 70
     0
  9
$DIMLIM
 70
     0
  9
$DIMTIH
 70
     0
  9
$DIMTOH
 70
     0
  9
$DIMSE1
 70
     0
  9
$DIMSE2
 70
     0
  9
$DIMTAD
 70
     1
  9
$DIMZIN
 70
     8
  9
$DIMBLK
  1

  9
$DIMASO
 70
     1
  9
$DIMSHO
 70
     1
  9
$DIMPOST
  1

  9
$DIMAPOST
  1

  9
$DIMALT
 70
     0
  9
$DIMALTD
 70
     3
  9
$DIMALTF
 40
0.03937007874016
  9
$DIMLFAC
 40
1.0
  9
$DIMTOFL
 70
     1
  9
$DIMTVP
 40
0.0
  9
$DIMTIX
 70
     0
  9
$DIMSOXD
 70
     0
  9
$DIMSAH
 70
     0
  9
$DIMBLK1
  1

  9
$DIMBLK2
  1

  9
$DIMSTYLE
  2
SANINDUSA
  9
$DIMCLRD
 70
   256
  9
$DIMCLRE
 70
   256
  9
$DIMCLRT
 70
   256
  9
$DIMTFAC
 40
1.0
  9
$DIMGAP
 40
1.0
  9
$DIMJUST
 70
     0
  9
$DIMSD1
 70
     0
  9
$DIMSD2
 70
     0
  9
$DIMTOLJ
 70
     0
  9
$DIMTZIN
 70
     8
  9
$DIMALTZ
 70
     0
  9
$DIMALTTZ
 70
     0
  9
$DIMUPT
 70
     0
  9
$DIMDEC
 70
     1
  9
$DIMTDEC
 70
     1
  9
$DIMALTU
 70
     2
  9
$DIMALTTD
 70
     3
  9
$DIMTXSTY
  7
SANINDUSA
  9
$DIMAUNIT
 70
     0
  9
$DIMADEC
 70
     1
  9
$DIMALTRND
 40
0.0
  9
$DIMAZIN
 70
     0
  9
$DIMDSEP
 70
    44
  9
$DIMATFIT
 70
     3
  9
$DIMFRAC
 70
     0
  9
$DIMLDRBLK
  1

  9
$DIMLUNIT
 70
     2
  9
$DIMLWD
 70
    -1
  9
$DIMLWE
 70
    -1
  9
$DIMTMOVE
 70
     0
  9
$LUNITS
 70
     2
  9
$LUPREC
 70
     4
  9
$SKETCHINC
 40
1.0
  9
$FILLETRAD
 40
3.0
  9
$AUNITS
 70
     0
  9
$AUPREC
 70
     0
  9
$MENU
  1
.
  9
$ELEVATION
 40
0.0
  9
$PELEVATION
 40
0.0
  9
$THICKNESS
 40
0.0
  9
$LIMCHECK
 70
     0
  9
$CHAMFERA
 40
10.0
  9
$CHAMFERB
 40
10.0
  9
$CHAMFERC
 40
20.0
  9
$CHAMFERD
 40
0.0
  9
$SKPOLY
 70
     0
  9
$TDCREATE
 40
2454202.437922083
  9
$TDUCREATE
 40
2454202.396255417
  9
$TDUPDATE
 40
2454645.387921181
  9
$TDUUPDATE
 40
2454645.346254514
  9
$TDINDWG
 40
0.0229609606
  9
$TDUSRTIMER
 40
0.0229609606
  9
$USRTIMER
 70
     1
  9
$ANGBASE
 50
0.0
  9
$ANGDIR
 70
     0
  9
$PDMODE
 70
     0
  9
$PDSIZE
 40
0.0
  9
$PLINEWID
 40
0.0
  9
$SPLFRAME
 70
     0
  9
$SPLINETYPE
 70
     6
  9
$SPLINESEGS
 70
     8
  9
$HANDSEED
  5
260C
  9
$SURFTAB1
 70
     6
  9
$SURFTAB2
 70
     6
  9
$SURFTYPE
 70
     6
  9
$SURFU
 70
     6
  9
$SURFV
 70
     6
  9
$UCSBASE
  2

  9
$UCSNAME
  2

  9
$UCSORG
 10
0.0
 20
0.0
 30
0.0
  9
$UCSXDIR
 10
1.0
 20
0.0
 30
0.0
  9
$UCSYDIR
 10
0.0
 20
1.0
 30
0.0
  9
$UCSORTHOREF
  2

  9
$UCSORTHOVIEW
 70
     0
  9
$UCSORGTOP
 10
0.0
 20
0.0
 30
0.0
  9
$UCSORGBOTTOM
 10
0.0
 20
0.0
 30
0.0
  9
$UCSORGLEFT
 10
0.0
 20
0.0
 30
0.0
  9
$UCSORGRIGHT
 10
0.0
 20
0.0
 30
0.0
  9
$UCSORGFRONT
 10
0.0
 20
0.0
 30
0.0
  9
$UCSORGBACK
 10
0.0
 20
0.0
 30
0.0
  9
$PUCSBASE
  2

  9
$PUCSNAME
  2

  9
$PUCSORG
 10
0.0
 20
0.0
 30
0.0
  9
$PUCSXDIR
 10
1.0
 20
0.0
 30
0.0
  9
$PUCSYDIR
 10
0.0
 20
1.0
 30
0.0
  9
$PUCSORTHOREF
  2

  9
$PUCSORTHOVIEW
 70
     0
  9
$PUCSORGTOP
 10
0.0
 20
0.0
 30
0.0
  9
$PUCSORGBOTTOM
 10
0.0
 20
0.0
 30
0.0
  9
$PUCSORGLEFT
 10
0.0
 20
0.0
 30
0.0
  9
$PUCSORGRIGHT
 10
0.0
 20
0.0
 30
0.0
  9
$PUCSORGFRONT
 10
0.0
 20
0.0
 30
0.0
  9
$PUCSORGBACK
 10
0.0
 20
0.0
 30
0.0
  9
$USERI1
 70
     0
  9
$USERI2
 70
     0
  9
$USERI3
 70
     0
  9
$USERI4
 70
     0
  9
$USERI5
 70
     0
  9
$USERR1
 40
0.0
  9
$USERR2
 40
0.0
  9
$USERR3
 40
0.0
  9
$USERR4
 40
0.0
  9
$USERR5
 40
0.0
  9
$WORLDVIEW
 70
     1
  9
$SHADEDGE
 70
     3
  9
$SHADEDIF
 70
    70
  9
$TILEMODE
 70
     1
  9
$MAXACTVP
 70
    64
  9
$PINSBASE
 10
0.0
 20
0.0
 30
0.0
  9
$PLIMCHECK
 70
     0
  9
$PEXTMIN
 10
1.000000000000000E+20
 20
1.000000000000000E+20
 30
1.000000000000000E+20
  9
$PEXTMAX
 10
-1.000000000000000E+20
 20
-1.000000000000000E+20
 30
-1.000000000000000E+20
  9
$PLIMMIN
 10
0.0
 20
0.0
  9
$PLIMMAX
 10
420.0
 20
297.0
  9
$UNITMODE
 70
     0
  9
$VISRETAIN
 70
     1
  9
$PLINEGEN
 70
     0
  9
$PSLTSCALE
 70
     1
  9
$TREEDEPTH
 70
  3020
  9
$CMLSTYLE
  2
Standard
  9
$CMLJUST
 70
     0
  9
$CMLSCALE
 40
20.0
  9
$PROXYGRAPHICS
 70
     1
  9
$MEASUREMENT
 70
     1
  9
$CELWEIGHT
370
    -1
  9
$ENDCAPS
280
     0
  9
$JOINSTYLE
280
     0
  9
$LWDISPLAY
290
     0
  9
$INSUNITS
 70
     4
  9
$HYPERLINKBASE
  1

  9
$STYLESHEET
  1
sanindusa.ctb
  9
$XEDIT
290
     1
  9
$CEPSNTYPE
380
     0
  9
$PSTYLEMODE
290
     1
  9
$FINGERPRINTGUID
  2
{7FD9B617-44F2-4FAD-B9D5-CFF60CFF1169}
  9
$VERSIONGUID
  2
{9837C861-0662-4B12-BB92-E6F0C4E73754}
  9
$EXTNAMES
290
     1
  9
$PSVPSCALE
 40
0.0
  9
$OLESTARTUP
290
     0
  0
ENDSEC
  0
SECTION
  2
CLASSES
  0
CLASS
  1
ACDBDICTIONARYWDFLT
  2
AcDbDictionaryWithDefault
  3
ObjectDBX Classes
 90
        0
280
     0
281
     0
  0
CLASS
  1
ACDBPLACEHOLDER
  2
AcDbPlaceHolder
  3
ObjectDBX Classes
 90
        0
280
     0
281
     0
  0
CLASS
  1
LAYOUT
  2
AcDbLayout
  3
ObjectDBX Classes
 90
        0
280
     0
281
     0
  0
CLASS
  1
DICTIONARYVAR
  2
AcDbDictionaryVar
  3
ObjectDBX Classes
 90
        0
280
     0
281
     0
  0
CLASS
  1
DIMASSOC
  2
AcDbDimAssoc
  3
"AcDbDimAssoc|Product Desc:     AcDim ARX App For Dimension|Company:          Autodesk, Inc.|WEB Address:      www.autodesk.com"
 90
    32768
280
     0
281
     0
  0
CLASS
  1
TABLESTYLE
  2
AcDbTableStyle
  3
ObjectDBX Classes
 90
     2047
280
     0
281
     0
  0
CLASS
  1
SORTENTSTABLE
  2
AcDbSortentsTable
  3
ObjectDBX Classes
 90
    32768
280
     0
281
     0
  0
ENDSEC
  0
SECTION
  2
TABLES
  0
TABLE
  2
VPORT
  5
8
330
0
100
AcDbSymbolTable
 70
     2
  0
VPORT
  5
2604
330
8
100
AcDbSymbolTableRecord
100
AcDbViewportTableRecord
  2
*Active
 70
     0
 10
0.0
 20
0.0
 11
1.0
 21
1.0
 12
5289.393257916906
 22
3472.176396611541
 13
0.0
 23
0.0
 14
10.0
 24
10.0
 15
10.0
 25
10.0
 16
0.0
 26
0.0
 36
1.0
 17
0.0
 27
0.0
 37
0.0
 40
3.371720801258285
 41
1.582748244734202
 42
50.0
 43
0.0
 44
0.0
 50
0.0
 51
0.0
 71
     0
 72
   100
 73
     1
 74
     2
 75
     0
 76
     0
 77
     0
 78
     0
281
     0
 65
     1
110
0.0
120
0.0
130
0.0
111
1.0
121
0.0
131
0.0
112
0.0
122
1.0
132
0.0
 79
     0
146
0.0
  0
ENDTAB
  0
TABLE
  2
LTYPE
  5
5
330
0
100
AcDbSymbolTable
 70
     6
  0
LTYPE
  5
14
330
5
100
AcDbSymbolTableRecord
100
AcDbLinetypeTableRecord
  2
ByBlock
 70
     0
  3

 72
    65
 73
     0
 40
0.0
  0
LTYPE
  5
15
330
5
100
AcDbSymbolTableRecord
100
AcDbLinetypeTableRecord
  2
ByLayer
 70
     0
  3

 72
    65
 73
     0
 40
0.0
  0
LTYPE
  5
16
330
5
100
AcDbSymbolTableRecord
100
AcDbLinetypeTableRecord
  2
Continuous
 70
     0
  3
Solid line
 72
    65
 73
     0
 40
0.0
  0
LTYPE
  5
2D
330
5
100
AcDbSymbolTableRecord
100
AcDbLinetypeTableRecord
  2
DASHDOT
 70
     0
  3
Dash dot __ . __ . __ . __ . __ . __ . __ . __
 72
    65
 73
     4
 40
25.4
 49
12.7
 74
     0
 49
-6.349999999999999
 74
     0
 49
0.0
 74
     0
 49
-6.349999999999999
 74
     0
  0
LTYPE
  5
2E
330
5
100
AcDbSymbolTableRecord
100
AcDbLinetypeTableRecord
  2
HIDDEN
 70
     0
  3
Hidden __ __ __ __ __ __ __ __ __ __ __ __ __ _
 72
    65
 73
     2
 40
9.524999999999998
 49
6.349999999999999
 74
     0
 49
-3.174999999999999
 74
     0
  0
LTYPE
  5
C75
330
5
100
AcDbSymbolTableRecord
100
AcDbLinetypeTableRecord
  2
AM_ISO02W050
 70
     0
  3
__ __ __ __ __ __ __ __ __ __ __ __ __ __ __
 72
    65
 73
     2
 40
7.5
 49
6.0
 74
     0
 49
-1.5
 74
     0
  0
LTYPE
  5
C76
330
5
100
AcDbSymbolTableRecord
100
AcDbLinetypeTableRecord
  2
AM_ISO08W050
 70
     0
  3
____ . ____ . ____ . ____ . ____ . ____ . ____
 72
    65
 73
     4
 40
18.0
 49
12.0
 74
     0
 49
-1.5
 74
     0
 49
3.0
 74
     0
 49
-1.5
 74
     0
  0
LTYPE
  5
129F
330
5
100
AcDbSymbolTableRecord
100
AcDbLinetypeTableRecord
  2
HIDDEN2
 70
     0
  3
Hidden (.5x) _ _ _ _ _ _ _ _ _ _ _ _ _ _ _ _ _
 72
    65
 73
     2
 40
4.762499999999999
 49
3.174999999999999
 74
     0
 49
-1.587499999999999
 74
     0
  0
ENDTAB
  0
TABLE
  2
LAYER
  5
2
102
{ACAD_XDICTIONARY
360
1051
102
}
330
0
100
AcDbSymbolTable
 70
    16
  0
LAYER
  5
10
330
2
100
AcDbSymbolTableRecord
100
AcDbLayerTableRecord
  2
0
 70
     0
 62
     7
  6
Continuous
370
    -3
390
F
  0
LAYER
  5
2F
330
2
100
AcDbSymbolTableRecord
100
AcDbLayerTableRecord
  2
1
 70
     0
 62
     1
  6
Continuous
370
    -3
390
F
  0
LAYER
  5
30
330
2
100
AcDbSymbolTableRecord
100
AcDbLayerTableRecord
  2
2
 70
     0
 62
     2
  6
Continuous
370
    -3
390
F
  0
LAYER
  5
31
330
2
100
AcDbSymbolTableRecord
100
AcDbLayerTableRecord
  2
3
 70
     0
 62
     3
  6
Continuous
370
    -3
390
F
  0
LAYER
  5
32
330
2
100
AcDbSymbolTableRecord
100
AcDbLayerTableRecord
  2
4
 70
     0
 62
     4
  6
Continuous
370
    -3
390
F
  0
LAYER
  5
33
330
2
100
AcDbSymbolTableRecord
100
AcDbLayerTableRecord
  2
5
 70
     0
 62
     5
  6
Continuous
370
    -3
390
F
  0
LAYER
  5
34
330
2
100
AcDbSymbolTableRecord
100
AcDbLayerTableRecord
  2
6
 70
     0
 62
     6
  6
Continuous
370
    -3
390
F
  0
LAYER
  5
35
330
2
100
AcDbSymbolTableRecord
100
AcDbLayerTableRecord
  2
7
 70
     0
 62
     7
  6
Continuous
370
    -3
390
F
  0
LAYER
  5
36
330
2
100
AcDbSymbolTableRecord
100
AcDbLayerTableRecord
  2
cen
 70
     0
 62
     7
  6
DASHDOT
370
    -3
390
F
  0
LAYER
  5
37
330
2
100
AcDbSymbolTableRecord
100
AcDbLayerTableRecord
  2
hid
 70
     0
 62
     7
  6
HIDDEN
370
    -3
390
F
  0
LAYER
  5
5D6
330
2
100
AcDbSymbolTableRecord
100
AcDbLayerTableRecord
  2
hatch
 70
     0
 62
     9
  6
Continuous
370
    -3
390
F
  0
LAYER
  5
8AF
330
2
100
AcDbSymbolTableRecord
100
AcDbLayerTableRecord
  2
9
 70
     0
 62
     9
  6
Continuous
370
    -3
390
F
  0
LAYER
  5
8F8
330
2
100
AcDbSymbolTableRecord
100
AcDbLayerTableRecord
  2
leg fin
 70
     0
 62
     9
  6
Continuous
370
    -3
390
F
  0
LAYER
  5
91D
330
2
100
AcDbSymbolTableRecord
100
AcDbLayerTableRecord
  2
cotas
 70
     0
 62
     1
  6
Continuous
370
    -3
390
F
  0
LAYER
  5
92F
330
2
100
AcDbSymbolTableRecord
100
AcDbLayerTableRecord
  2
Defpoints
 70
     0
 62
     7
  6
Continuous
290
     0
370
    -3
390
F
  0
LAYER
  5
C7B
330
2
100
AcDbSymbolTableRecord
100
AcDbLayerTableRecord
  2
SANINDUSA
 70
     0
 62
     3
  6
Continuous
370
    -3
390
F
  0
ENDTAB
  0
TABLE
  2
STYLE
  5
3
330
0
100
AcDbSymbolTable
 70
     4
  0
STYLE
  5
11
330
3
100
AcDbSymbolTableRecord
100
AcDbTextStyleTableRecord
  2
Standard
 70
     0
 40
0.0
 41
1.0
 50
0.0
 71
     0
 42
2.5
  3
Avgardn.ttf
  4

1001
ACAD
1000
AvantGarde Bk BT
1071
       34
  0
STYLE
  5
2C
330
3
100
AcDbSymbolTableRecord
100
AcDbTextStyleTableRecord
  2

 70
     1
 40
0.0
 41
1.0
 50
0.0
 71
     0
 42
2.5
  3
ltypeshp.shx
  4

  0
STYLE
  5
91F
330
3
100
AcDbSymbolTableRecord
100
AcDbTextStyleTableRecord
  2
SANINDUSA
 70
     0
 40
0.0
 41
1.0
 50
0.0
 71
     0
 42
2.5
  3
verdana.TTF
  4

1001
ACAD
1000
Verdana
1071
       34
  0
STYLE
  5
C7C
330
3
100
AcDbSymbolTableRecord
100
AcDbTextStyleTableRecord
  2
futura
 70
     0
 40
0.0
 41
1.0
 50
0.0
 71
     0
 42
2.5
  3
ZURCHN.TTF
  4

1001
ACAD
1000
Zurich BT
1071
       34
  0
ENDTAB
  0
TABLE
  2
VIEW
  5
6
330
0
100
AcDbSymbolTable
 70
     0
  0
ENDTAB
  0
TABLE
  2
UCS
  5
7
330
0
100
AcDbSymbolTable
 70
     0
  0
ENDTAB
  0
TABLE
  2
APPID
  5
9
330
0
100
AcDbSymbolTable
 70
    11
  0
APPID
  5
12
330
9
100
AcDbSymbolTableRecord
100
AcDbRegAppTableRecord
  2
ACAD
 70
     0
  0
APPID
  5
3A
330
9
100
AcDbSymbolTableRecord
100
AcDbRegAppTableRecord
  2
DCO15
 70
     0
  0
APPID
  5
EEE
330
9
100
AcDbSymbolTableRecord
100
AcDbRegAppTableRecord
  2
ACAD_DSTYLE_DIMTEXT_FILL
 70
     0
  0
APPID
  5
EEF
330
9
100
AcDbSymbolTableRecord
100
AcDbRegAppTableRecord
  2
ACAD_DSTYLE_DIMEXT_LENGTH
 70
     0
  0
APPID
  5
EF0
330
9
100
AcDbSymbolTableRecord
100
AcDbRegAppTableRecord
  2
ACAD_DSTYLE_DIMEXT_ENABLED
 70
     0
  0
APPID
  5
EF1
330
9
100
AcDbSymbolTableRecord
100
AcDbRegAppTableRecord
  2
ACAD_DSTYLE_DIM_LINETYPE
 70
     0
  0
APPID
  5
EF2
330
9
100
AcDbSymbolTableRecord
100
AcDbRegAppTableRecord
  2
ACAD_DSTYLE_DIM_EXT1_LINETYPE
 70
     0
  0
APPID
  5
EF3
330
9
100
AcDbSymbolTableRecord
100
AcDbRegAppTableRecord
  2
ACAD_DSTYLE_DIM_EXT2_LINETYPE
 70
     0
  0
APPID
  5
FAF
330
9
100
AcDbSymbolTableRecord
100
AcDbRegAppTableRecord
  2
ACAD_DSTYLE_DIMJOGGED_JOGANGLE_SYMBOL
 70
     0
  0
APPID
  5
1013
330
9
100
AcDbSymbolTableRecord
100
AcDbRegAppTableRecord
  2
ACAD_DSTYLE_DIMARC_LENGTH_SYMBOL
 70
     0
  0
APPID
  5
1E0D
330
9
100
AcDbSymbolTableRecord
100
AcDbRegAppTableRecord
  2
ACAD_EXEMPT_FROM_CAD_STANDARDS
 70
     0
  0
ENDTAB
  0
TABLE
  2
DIMSTYLE
  5
A
330
0
100
AcDbSymbolTable
 70
     3
100
AcDbDimStyleTable
 71
     1
340
921
  0
DIMSTYLE
105
45
330
A
100
AcDbSymbolTableRecord
100
AcDbDimStyleTableRecord
  2
STANDARD
 70
     0
289
     0
340
11
  0
DIMSTYLE
105
921
330
A
100
AcDbSymbolTableRecord
100
AcDbDimStyleTableRecord
  2
SANINDUSA
 70
     0
 41
2.0
 42
1.0
 43
1.0
 44
1.0
 73
     0
 74
     0
 77
     1
 78
     8
140
2.0
141
0.0
143
0.03937007874016
147
1.0
171
     3
172
     1
176
   256
177
   256
178
   256
179
     1
271
     1
272
     1
274
     3
278
    44
283
     0
284
     8
340
91F
371
    -1
372
    -1
1001
ACAD_DSTYLE_DIMEXT_LENGTH
1070
   378
1040
1.0
1001
ACAD_DSTYLE_DIMEXT_ENABLED
1070
   383
1070
     0
1001
ACAD_DSTYLE_DIMARC_LENGTH_SYMBOL
1070
   379
1070
     0
1001
ACAD_DSTYLE_DIMJOGGED_JOGANGLE_SYMBOL
1070
   384
1040
1.570796326794896
  0
DIMSTYLE
105
C7D
330
A
100
AcDbSymbolTableRecord
100
AcDbDimStyleTableRecord
  2
AM_ISO
 70
     0
  4
"
 41
2.5
 42
1.0
 43
10.0
 44
1.0
 47
0.1
 48
0.1
 73
     0
 74
     0
 77
     1
 78
     8
 79
     2
140
3.5
141
0.0
143
0.0393701
146
0.71
147
1.5
172
     1
176
   256
177
   256
178
     2
271
     2
272
     3
274
     4
283
     0
284
     8
340
11
371
    -1
372
    -1
  0
ENDTAB
  0
TABLE
  2
BLOCK_RECORD
  5
1
330
0
100
AcDbSymbolTable
 70
    58
  0
BLOCK_RECORD
  5
1F
330
1
100
AcDbSymbolTableRecord
100
AcDbBlockTableRecord
  2
*Model_Space
340
22
  0
BLOCK_RECORD
  5
1B
330
1
100
AcDbSymbolTableRecord
100
AcDbBlockTableRecord
  2
*Paper_Space
340
1E
  0
BLOCK_RECORD
  5
23
330
1
100
AcDbSymbolTableRecord
100
AcDbBlockTableRecord
  2
*Paper_Space0
340
26
  0
BLOCK_RECORD
  5
919
330
1
100
AcDbSymbolTableRecord
100
AcDbBlockTableRecord
  2
_DotSmall
340
0
  0
BLOCK_RECORD
  5
922
330
1
100
AcDbSymbolTableRecord
100
AcDbBlockTableRecord
  2
base para cotas
340
0
310
2800000020000000200000000100080000000000000400000000000000000000000000000000000000000000000080000080000000808000800000008000800080800000C0C0C000C0DCC000F0CAA6000020400000206000002080000020A0000020C0000020E00000400000004020000040400000406000004080000040A0
310
000040C0000040E00000600000006020000060400000606000006080000060A0000060C0000060E00000800000008020000080400000806000008080000080A0000080C0000080E00000A0000000A0200000A0400000A0600000A0800000A0A00000A0C00000A0E00000C0000000C0200000C0400000C0600000C0800000C0
310
A00000C0C00000C0E00000E0000000E0200000E0400000E0600000E0800000E0A00000E0C00000E0E00040000000400020004000400040006000400080004000A0004000C0004000E00040200000402020004020400040206000402080004020A0004020C0004020E000404000004040200040404000404060004040800040
310
40A0004040C0004040E00040600000406020004060400040606000406080004060A0004060C0004060E00040800000408020004080400040806000408080004080A0004080C0004080E00040A0000040A0200040A0400040A0600040A0800040A0A00040A0C00040A0E00040C0000040C0200040C0400040C0600040C08000
310
40C0A00040C0C00040C0E00040E0000040E0200040E0400040E0600040E0800040E0A00040E0C00040E0E00080000000800020008000400080006000800080008000A0008000C0008000E00080200000802020008020400080206000802080008020A0008020C0008020E00080400000804020008040400080406000804080
310
008040A0008040C0008040E00080600000806020008060400080606000806080008060A0008060C0008060E00080800000808020008080400080806000808080008080A0008080C0008080E00080A0000080A0200080A0400080A0600080A0800080A0A00080A0C00080A0E00080C0000080C0200080C0400080C0600080C0
310
800080C0A00080C0C00080C0E00080E0000080E0200080E0400080E0600080E0800080E0A00080E0C00080E0E000C0000000C0002000C0004000C0006000C0008000C000A000C000C000C000E000C0200000C0202000C0204000C0206000C0208000C020A000C020C000C020E000C0400000C0402000C0404000C0406000C0
310
408000C040A000C040C000C040E000C0600000C0602000C0604000C0606000C0608000C060A000C060C000C060E000C0800000C0802000C0804000C0806000C0808000C080A000C080C000C080E000C0A00000C0A02000C0A04000C0A06000C0A08000C0A0A000C0A0C000C0A0E000C0C00000C0C02000C0C04000C0C06000
310
C0C08000C0C0A000F0FBFF00A4A0A000808080000000FF0000FF000000FFFF00FF000000FF00FF00FFFF0000FFFFFF00A4A4A4A4A4A4A4A4A4A4A4A4A4A4A4A4A4A4A4A4A4A4A4A4A4A4A4A4A4A4A4A4A4A4A4A4A4A4A4A4A4A4A4A4A4A4A4A4A4A4A4A4A4A4A4A4A4A4A4A4A4A4A4A4A4A4A4A4A4A4A4A4A4A4A4A4A4A4A4
310
A4A4A4A4A4A4A4A4A4A4A4A4A4A4A4A4A4A4A4A4A4A4A4A4A4A4A4A4A4A4A4A4A4A4A4A4A4A4A4A4A4A4A4A4A4A4A4A4A4A4A4A4A4A4A4A4A4A4A4A4A4A4A4A4A4A4A4A4A4A4A4A4A4A4A4A4A4A4A4A4A4A4A4A4A4A4A4A4A4A4A4A4A4A4A4A4A4A4A4A4A4A4A4A4A4A4A4A4A4A4A4A4A4A4A4A4A4A4A4A4A4A4A4A4A4A4A4
310
A4A4A4A4A4A4A4A4A4A4A4A4A4A4A4A4A4A4A4A4A4A4A4A4A4A4A4A4A4A4A4A4A4A4A4A4A4A4A4A4A4A4A4A4A4A4A4A4A4A4A4A4A4A4A4A4A4A4A4A4A4A4A4A4A4A4A4A4A4A4A4A4A4A4A4A4A4A4A4A4A4A4A4A4A4A4A4A4A4A4A4A4A4A4A4A4A4A4A4A4A4A4A4A4A4A4A4A4A4A4A4A4A4A4A4A4A4A4A4A4A4A4A4A4A4A4A4
310
A4A4A4A4A4A4A4A4A4A4A4A4A4A4A4A4A4A4A4A4A4A4A4A4A4A4A4A4A4A4A4A4A4A4A4A4A4A4A4A4A4A4A4A4A4A4A4A4A4A4A4A4A4A4A4A4A4A4A4A4A4A4A4A4A4A4A4A4A4A4A4A4A4A4A4A4A4A4A4A4A4A4A4A4A4A4A4A4A4A4A4A4A4A4A4A4A4A4A4A4A4A4A4A4A4A4A4A4A4A4A4A4A4A4A4A4F9F9F9F9F9F9F9F9F9F9F9
310
F9F9F9F9F9F9F9F9F9F9F9F9F9F9F9F9F9F9F9A4A4F9F9F9F9F9F9F9F9F9F9F9F9F9F9F9F9F9F9F9F9F9F9F9F9F9F9F9F9F9F9A4A4F9F9F9F9F9F9F9F9F9F9F9F9F9F9F9F9F9F9F9F9F9F9F9F9F9F9F9F9F9F9A4A4F9A4A4A4A4A4A4A4A4A4A4A4A4A4A4A4A4A4A4A4A4A4A4A4A4A4A4A4A4F9A4A4A4A4A4A4A4A4A4A4A4A4
310
A4A4A4A4A4A4A4A4A4A4A4A4A4A4A4A4A4A4A4A4A4A4A4A4A4A4A4A4A4A4A4A4A4A4A4A4A4A4A4A4A4A4A4A4A4A4A4A4A4A4A4A4A4A4A4A4A4A4A4A4A4A4A4A4A4A4A4A4A4A4A4A4A4A4A4A4A4A4A4A4A4A4A4A4A4A4A4A4A4A4A4A4A4A4A4A4A4A4A4A4A4A4A4A4A4A4A4A4A4A4A4A4A4A4A4A4A4A4A4A4A4A4A4A4A4A4A4
310
A4A4A4A4A4A4A4A4A4A4A4A4A4A4A4A4A4A4A4A4A4A4A4A4A4A4A4A4A4A4A4A4A4A4A4A4A4A4A4A4A4A4A4A4A4A4A4A4A4A4A4A4A4A4A4A4A4A4A4A4A4A4A4A4A4A4A4A4A4A4A4A4A4A4A4A4A4A4A4A4A4A4A4A4A4A4A4A4A4A4A4A4A4A4A4A4A4A4A4A4A4A4A4A4A4A4A4A4A4A4A4A4A4A4A4A4A4A4A4A4A4A4A4A4A4A4A4
310
A4A4A4A4A4A4A4A4A4A4A4A4A4A4A4A4A4A4A4A4A4A4A4A4A4A4A4A4A4A4A4A4A4A4A4A4A4A4A4A4A4A4A4A4A4A4A4A4A4A4A4A4A4A4A4A4A4A4A4A4A4A4A4A4A4A4A4A4A4A4A4A4A4A4A4A4A4A4A4A4A4A4A4A4A4A4A4A4A4A4A4A4A4A4A4A4A4A4A4A4A4A4A4A4A4A4A4A4A4A4A4A4A4A4A4A4A4A4A4A4A4A4A4A4A4A4A4
310
A4A4A4A4A4A4A4A4A4A4A4A4A4A4A4A4A4A4A4A4A4A4A4A4A4A4A4A4A4A4A4A4A4A4A4A4A4A4A4A4A4A4A4A4A4A4A4A4A4A4A4A4A4A4A4A4
1001
ACAD
1000
DesignCenter Data
1002
{
1070
     1
1070
     4
1002
}
  0
BLOCK_RECORD
  5
AA8
330
1
100
AcDbSymbolTableRecord
100
AcDbBlockTableRecord
  2
_CLOSED
340
0
  0
BLOCK_RECORD
  5
B79
330
1
100
AcDbSymbolTableRecord
100
AcDbBlockTableRecord
  2
nota revisoes
340
0
1001
ACAD
1000
DesignCenter Data
1002
{
1070
     1
1070
     4
1002
}
  0
BLOCK_RECORD
  5
B8E
330
1
100
AcDbSymbolTableRecord
100
AcDbBlockTableRecord
  2
a3l
340
0
1001
ACAD
1000
DesignCenter Data
1002
{
1070
     1
1070
     4
1002
}
  0
BLOCK_RECORD
  5
B9E
330
1
100
AcDbSymbolTableRecord
100
AcDbBlockTableRecord
  2
legenda desenvolvimento
340
0
1001
ACAD
1000
DesignCenter Data
1002
{
1070
     1
1070
     4
1002
}
  0
BLOCK_RECORD
  5
1060
330
1
100
AcDbSymbolTableRecord
100
AcDbBlockTableRecord
  2
SW_CENTERMARKSYMBOL_10
340
0
  0
ENDTAB
  0
ENDSEC
  0
SECTION
  2
BLOCKS
  0
BLOCK
  5
20
330
1F
100
AcDbEntity
  8
0
100
AcDbBlockBegin
  2
*Model_Space
 70
     0
 10
0.0
 20
0.0
 30
0.0
  3
*Model_Space
  1

  0
ENDBLK
  5
21
330
1F
100
AcDbEntity
  8
0
100
AcDbBlockEnd
  0
BLOCK
  5
1C
330
1B
100
AcDbEntity
 67
     1
  8
0
100
AcDbBlockBegin
  2
*Paper_Space
 70
     0
 10
0.0
 20
0.0
 30
0.0
  3
*Paper_Space
  1

  0
ENDBLK
  5
1D
330
1B
100
AcDbEntity
 67
     1
  8
0
100
AcDbBlockEnd
  0
BLOCK
  5
24
330
23
100
AcDbEntity
 67
     1
  8
0
100
AcDbBlockBegin
  2
*Paper_Space0
 70
     0
 10
0.0
 20
0.0
 30
0.0
  3
*Paper_Space0
  1

  0
ENDBLK
  5
25
330
23
100
AcDbEntity
 67
     1
  8
0
100
AcDbBlockEnd
  0
BLOCK
  5
91B
330
919
100
AcDbEntity
  8
0
100
AcDbBlockBegin
  2
_DotSmall
 70
     0
 10
0.0
 20
0.0
 30
0.0
  3
_DotSmall
  1

  0
LWPOLYLINE
  5
91A
330
919
100
AcDbEntity
  8
0
  6
ByBlock
 62
     0
100
AcDbPolyline
 90
        2
 70
     1
 43
0.5
 10
-0.0625
 20
0.0
 42
1.0
 10
0.0625
 20
0.0
 42
1.0
  0
ENDBLK
  5
91C
330
919
100
AcDbEntity
  8
0
100
AcDbBlockEnd
  0
BLOCK
  5
92A
330
922
100
AcDbEntity
  8
0
100
AcDbBlockBegin
  2
base para cotas
 70
     0
 10
0.0
 20
0.0
 30
0.0
  3
base para cotas
  1

  0
LINE
  5
B36
330
922
100
AcDbEntity
  8
cotas
100
AcDbLine
 10
0.0
 20
-30.0
 30
0.0
 11
327.1260136525398
 21
-30.0
 31
0.0
  0
LINE
  5
B37
330
922
100
AcDbEntity
  8
cotas
100
AcDbLine
 10
0.0
 20
-25.0
 30
0.0
 11
327.1260136525398
 21
-25.0
 31
0.0
  0
LINE
  5
B38
330
922
100
AcDbEntity
  8
cotas
100
AcDbLine
 10
0.0
 20
-20.0
 30
0.0
 11
327.1260136525398
 21
-20.0
 31
0.0
  0
LINE
  5
B39
330
922
100
AcDbEntity
  8
cotas
100
AcDbLine
 10
0.0
 20
-15.0
 30
0.0
 11
327.1260136525398
 21
-15.0
 31
0.0
  0
LINE
  5
B3A
330
922
100
AcDbEntity
  8
cotas
100
AcDbLine
 10
0.0
 20
-10.0
 30
0.0
 11
327.1260136525398
 21
-10.0
 31
0.0
  0
LINE
  5
B3B
330
922
100
AcDbEntity
  8
cotas
100
AcDbLine
 10
0.0
 20
0.0
 30
0.0
 11
0.0
 21
-30.0
 31
0.0
  0
LINE
  5
B3C
330
922
100
AcDbEntity
  8
cotas
100
AcDbLine
 10
327.1260136525398
 20
-30.0
 30
0.0
 11
327.1260136525398
 21
0.0
 31
0.0
  0
ENDBLK
  5
92B
330
922
100
AcDbEntity
  8
0
100
AcDbBlockEnd
  0
BLOCK
  5
AAD
330
AA8
100
AcDbEntity
  8
0
100
AcDbBlockBegin
  2
_CLOSED
 70
     0
 10
0.0
 20
0.0
 30
0.0
  3
_CLOSED
  1

  0
LINE
  5
AA9
330
AA8
100
AcDbEntity
  8
0
100
AcDbLine
 10
-1.0
 20
0.166667
 30
0.0
 11
0.0
 21
0.0
 31
0.0
  0
LINE
  5
AAA
330
AA8
100
AcDbEntity
  8
0
100
AcDbLine
 10
0.0
 20
0.0
 30
0.0
 11
-1.0
 21
-0.166667
 31
0.0
  0
LINE
  5
AAB
330
AA8
100
AcDbEntity
  8
0
100
AcDbLine
 10
-1.0
 20
0.166667
 30
0.0
 11
-1.0
 21
-0.166667
 31
0.0
  0
LINE
  5
AAC
330
AA8
100
AcDbEntity
  8
0
100
AcDbLine
 10
0.0
 20
0.0
 30
0.0
 11
-1.0
 21
0.0
 31
0.0
  0
ENDBLK
  5
AAE
330
AA8
100
AcDbEntity
  8
0
100
AcDbBlockEnd
  0
BLOCK
  5
B7C
330
B79
100
AcDbEntity
  8
0
100
AcDbBlockBegin
  2
nota revisoes
 70
     0
 10
0.0
 20
0.0
 30
0.0
  3
nota revisoes
  1

  0
CIRCLE
  5
B7A
330
B79
100
AcDbEntity
  8
4
100
AcDbCircle
 10
0.0
 20
0.0
 30
0.0
 40
13.69426055101189
  0
TEXT
  5
B7B
330
B79
100
AcDbEntity
  8
4
100
AcDbText
 10
-5.496248358154345
 20
-5.354545554066362
 30
0.0
 40
12.0
  1
1
  7
SANINDUSA
 72
     1
 11
-0.249774214433728
 21
-5.354545554066362
 31
0.0
100
AcDbText
  0
ENDBLK
  5
B7D
330
B79
100
AcDbEntity
  8
0
100
AcDbBlockEnd
  0
BLOCK
  5
B9C
330
B8E
100
AcDbEntity
  8
0
100
AcDbBlockBegin
  2
a3l
 70
     0
 10
0.0
 20
0.0
 30
0.0
  3
a3l
  1

  0
LINE
  5
B8F
330
B8E
100
AcDbEntity
  8
1
100
AcDbLine
 10
-364.2925296599447
 20
-362.1188951399395
 30
0.0
 11
-364.2925296599447
 21
-65.11889513993946
 31
0.0
  0
LINE
  5
B90
330
B8E
100
AcDbEntity
  8
4
100
AcDbLine
 10
-369.2925296599447
 20
-357.1188951399395
 30
0.0
 11
-369.2925296599447
 21
-70.11889513993946
 31
0.0
  0
LINE
  5
B91
330
B8E
100
AcDbEntity
  8
1
100
AcDbLine
 10
-784.2925296599446
 20
-65.11889513993946
 30
0.0
 11
-784.2925296599446
 21
-362.1188951399395
 31
0.0
  0
LINE
  5
B92
330
B8E
100
AcDbEntity
  8
4
100
AcDbLine
 10
-759.2925296599446
 20
-357.1188951399395
 30
0.0
 11
-759.2925296599446
 21
-70.11889513993946
 31
0.0
  0
LINE
  5
B93
330
B8E
100
AcDbEntity
  8
1
100
AcDbLine
 10
-784.2925296599446
 20
-362.1188951399395
 30
0.0
 11
-364.2925296599447
 21
-362.1188951399395
 31
0.0
  0
LINE
  5
B94
330
B8E
100
AcDbEntity
  8
4
100
AcDbLine
 10
-759.2925296599446
 20
-357.1188951399395
 30
0.0
 11
-369.2925296599447
 21
-357.1188951399395
 31
0.0
  0
LINE
  5
B95
330
B8E
100
AcDbEntity
  8
1
100
AcDbLine
 10
-654.2925296599446
 20
-357.1188951399395
 30
0.0
 11
-654.2925296599446
 21
-362.1188951399395
 31
0.0
  0
LINE
  5
B96
330
B8E
100
AcDbEntity
  8
1
100
AcDbLine
 10
-364.2925296599447
 20
-65.11889513993946
 30
0.0
 11
-784.2925296599446
 21
-65.11889513993946
 31
0.0
  0
LINE
  5
B97
330
B8E
100
AcDbEntity
  8
4
100
AcDbLine
 10
-369.2925296599447
 20
-70.11889513993946
 30
0.0
 11
-759.2925296599446
 21
-70.11889513993946
 31
0.0
  0
LINE
  5
B98
330
B8E
100
AcDbEntity
  8
1
100
AcDbLine
 10
-654.2925296599446
 20
-65.11889513993946
 30
0.0
 11
-654.2925296599446
 21
-70.11889513993946
 31
0.0
  0
LINE
  5
B99
330
B8E
100
AcDbEntity
  8
1
100
AcDbLine
 10
-549.2925296599446
 20
-70.11889513993946
 30
0.0
 11
-549.2925296599446
 21
-65.11889513993946
 31
0.0
  0
LINE
  5
B9A
330
B8E
100
AcDbEntity
  8
1
100
AcDbLine
 10
-369.2925296599447
 20
-65.11889513993946
 30
0.0
 11
-364.2925296599447
 21
-65.11889513993946
 31
0.0
  0
LINE
  5
B9B
330
B8E
100
AcDbEntity
  8
1
100
AcDbLine
 10
-549.2925296599446
 20
-357.1188951399395
 30
0.0
 11
-549.2925296599446
 21
-362.1188951399395
 31
0.0
  0
ENDBLK
  5
B9D
330
B8E
100
AcDbEntity
  8
0
100
AcDbBlockEnd
  0
BLOCK
  5
C13
330
B9E
100
AcDbEntity
  8
0
100
AcDbBlockBegin
  2
legenda desenvolvimento
 70
     2
 10
0.0
 20
0.0
 30
0.0
  3
legenda desenvolvimento
  1

  0
ATTDEF
  5
B9F
330
B9E
100
AcDbEntity
  8
1
100
AcDbText
 10
-108.606245802552
 20
55.5
 30
0.0
 40
4.0
  1
XXXXXXXXXXXXXX
 41
0.8
  7
SANINDUSA
 72
     4
 11
-87.5
 21
57.5
 31
0.0
100
AcDbAttributeDefinition
  3
Nome do Produto:
  2
PRODUTO
 70
     0
  0
ATTDEF
  5
BA0
330
B9E
100
AcDbEntity
  8
1
100
AcDbText
 10
-97.9997966101695
 20
41.25
 30
0.0
 40
3.0
  1
XXXXXXXXX
 41
0.8
  7
futura
 72
     4
 11
-87.5
 21
42.75
 31
0.0
100
AcDbAttributeDefinition
  3
Nome da Peça:
  2
PECA
 70
     0
  0
ATTDEF
  5
BA1
330
B9E
100
AcDbEntity
  8
1
100
AcDbText
 10
-133.4422431161853
 20
21.11745296763252
 30
0.0
 40
2.5
  1
X
 41
0.8
  7
SANINDUSA
 72
     4
 11
-132.5
 21
22.36745296763252
 31
0.0
100
AcDbAttributeDefinition
  3
Cod. TESTE:
  2
TESTE
 70
     0
  0
ATTDEF
  5
BA2
330
B9E
100
AcDbEntity
  8
1
100
AcDbText
 10
-124.3844862323707
 20
21.11745296763252
 30
0.0
 40
2.5
  1
XX
 41
0.8
  7
SANINDUSA
 72
     4
 11
-122.5
 21
22.36745296763252
 31
0.0
100
AcDbAttributeDefinition
  3
Cod. Ano:
  2
ANO
 70
     0
  0
ATTDEF
  5
BA3
330
B9E
100
AcDbEntity
  8
1
100
AcDbText
 10
-112.526889953052
 20
21.11745296763252
 30
0.0
 40
2.5
  1
XXX
 41
0.8
  7
SANINDUSA
 72
     4
 11
-109.700160604496
 21
22.36745296763252
 31
0.0
100
AcDbAttributeDefinition
  3
Cod. Sequência:
  2
SEQUENCIA
 70
     0
  0
ATTDEF
  5
BA4
330
B9E
100
AcDbEntity
  8
1
100
AcDbText
 10
-99.35382430979316
 20
21.11745296763252
 30
0.0
 40
2.5
  1
XX
 41
0.8
  7
SANINDUSA
 72
     4
 11
-97.46933807742244
 21
22.36745296763252
 31
0.0
100
AcDbAttributeDefinition
  3
Cod. Tipo:
  2
TIPO
 70
     0
  0
ATTDEF
  5
BA5
330
B9E
100
AcDbEntity
  8
1
100
AcDbText
 10
-87.42035911468438
 20
21.11745296763252
 30
0.0
 40
2.5
  1
XXX
 41
0.8
  7
SANINDUSA
 72
     4
 11
-84.59362976612828
 21
22.36745296763252
 31
0.0
100
AcDbAttributeDefinition
  3
Cod. Produto:
  2
PRODUTO
 70
     0
  0
ATTDEF
  5
BA6
330
B9E
100
AcDbEntity
  8
1
100
AcDbText
 10
-74.62051971917853
 20
21.11745296763252
 30
0.0
 40
2.5
  1
XXX
 41
0.8
  7
SANINDUSA
 72
     4
 11
-71.79379037062244
 21
22.36745296763252
 31
0.0
100
AcDbAttributeDefinition
  3
Cod. Peça:
  2
PECA
 70
     0
  0
ATTDEF
  5
BA7
330
B9E
100
AcDbEntity
  8
1
100
AcDbText
 10
-61.10603446650329
 20
21.11745296763252
 30
0.0
 40
2.5
  1
XX
 41
0.8
  7
SANINDUSA
 72
     4
 11
-59.22154823413257
 21
22.36745296763252
 31
0.0
100
AcDbAttributeDefinition
  3
Cod. Revisão:
  2
REV
 70
     0
  0
ATTDEF
  5
BA8
330
B9E
100
AcDbEntity
  8
1
100
AcDbText
 10
-48.43615325006194
 20
21.11745296763252
 30
0.0
 40
2.5
  1
XX
 41
0.8
  7
SANINDUSA
 72
     4
 11
-46.55166701769121
 21
22.36745296763252
 31
0.0
100
AcDbAttributeDefinition
  3
Cod. Alteração:
  2
ALT
 70
     0
  0
ATTDEF
  5
BA9
330
B9E
100
AcDbEntity
  8
1
100
AcDbText
 10
-35.19086635325722
 20
23.98875083948959
 30
0.0
 40
3.0
  1
1/XXX
 41
0.8
  7
SANINDUSA
 72
     4
 11
-30.0
 21
25.25
 31
0.0
100
AcDbAttributeDefinition
  3
Escala geral:
  2
ESCALA
 70
     0
  0
ATTDEF
  5
BAA
330
B9E
100
AcDbEntity
  8
1
100
AcDbText
 10
-15.65345869711215
 20
23.75
 30
0.0
 40
3.0
  1
XXXXX
 41
0.8
  7
SANINDUSA
 72
     4
 11
-10.0
 21
25.25
 31
0.0
100
AcDbAttributeDefinition
  3
Folha:
  2
FOLHA
 70
     0
  0
ATTDEF
  5
BAB
330
B9E
100
AcDbEntity
  8
1
100
AcDbText
 10
-178.5146998822042
 20
56.9531347542807
 30
0.0
 40
2.0
  1
xx
 41
0.8
  7
SANINDUSA
 72
     4
 11
-177.2123493113513
 21
57.70330265219877
 31
0.0
100
AcDbAttributeDefinition
  3
revisão
  2
REV.
 70
     0
  0
ATTDEF
  5
BAC
330
B9E
100
AcDbEntity
  8
1
100
AcDbText
 10
-172.7849640077129
 20
56.9531347542807
 30
0.0
 40
2.0
  1
xx
 41
0.8
  7
SANINDUSA
 72
     4
 11
-171.48261343686
 21
57.70330265219877
 31
0.0
100
AcDbAttributeDefinition
  3
alteração
  2
ALT.
 70
     0
  0
ATTDEF
  5
BAD
330
B9E
100
AcDbEntity
  8
1
100
AcDbText
 10
-168.007199951307
 20
56.70330265219877
 30
0.0
 40
2.0
  1
xx/xx/xxxx
 41
0.8
  7
SANINDUSA
 11
-168.007199951307
 21
57.70330265219877
 31
0.0
100
AcDbAttributeDefinition
  3
data
  2
DATA
 70
     0
 74
     2
  0
ATTDEF
  5
BAE
330
B9E
100
AcDbEntity
  8
1
100
AcDbText
 10
-168.5396372253371
 20
13.15916722632639
 30
0.0
 40
2.0
  1
XX/XX/XXXX
 41
0.8
  7
SANINDUSA
 72
     4
 11
-161.5099528734231
 21
14.0
 31
0.0
100
AcDbAttributeDefinition
  3
Data projecto
  2
DATA_PROJ
 70
     0
  0
ATTDEF
  5
BAF
330
B9E
100
AcDbEntity
  8
1
100
AcDbText
 10
-150.8658110728766
 20
13.24983210208193
 30
0.0
 40
2.0
  1
xxxxxxxx
 41
0.8
  7
SANINDUSA
 72
     4
 11
-145.6564087894649
 21
14.0
 31
0.0
100
AcDbAttributeDefinition
  3
nome de quem projectou
  2
NOME
 70
     0
  0
ATTDEF
  5
BB0
330
B9E
100
AcDbEntity
  8
1
100
AcDbText
 10
-168.5396372253371
 20
9.159167226326394
 30
0.0
 40
2.0
  1
XX/XX/XXXX
 41
0.8
  7
SANINDUSA
 72
     4
 11
-161.5099528734231
 21
10.0
 31
0.0
100
AcDbAttributeDefinition
  3
Data desenhou
  2
DATA_DES
 70
     0
  0
ATTDEF
  5
BB1
330
B9E
100
AcDbEntity
  8
1
100
AcDbText
 10
-151.516986358303
 20
9.249832102081933
 30
0.0
 40
2.0
  1
xxxxxxxxx
 41
0.8
  7
SANINDUSA
 72
     4
 11
-145.6564087894649
 21
10.0
 31
0.0
100
AcDbAttributeDefinition
  3
nome
  2
NOME
 70
     0
  0
ATTDEF
  5
BB2
330
B9E
100
AcDbEntity
  8
1
100
AcDbText
 10
-127.2924214135946
 20
14.1979876583216
 30
0.0
 40
2.0
  1
Vitreous China
 41
0.8
  7
SANINDUSA
 72
     4
 11
-119.231709526422
 21
15.22216495852308
 31
0.0
100
AcDbAttributeDefinition
  3
Nome do Material:
  2
MATERIAL
 70
     0
  0
ATTDEF
  5
BB3
330
B9E
100
AcDbEntity
  8
1
100
AcDbText
 10
-103.1563452122093
 20
14.38019043949261
 30
0.0
 40
2.0
  1
Branco
 41
0.8
  7
SANINDUSA
 72
     4
 11
-99.33418268702462
 21
15.35937109765245
 31
0.0
100
AcDbAttributeDefinition
  3
cor da peça
  2
COR
 70
     0
  0
ATTDEF
  5
BB4
330
B9E
100
AcDbEntity
  8
1
100
AcDbText
 10
-116.7235057085292
 20
5.975822699798522
 30
0.0
 40
2.0
  1
Vidrado
 41
0.8
  7
SANINDUSA
 72
     4
 11
-112.5
 21
7.0
 31
0.0
100
AcDbAttributeDefinition
  3
Tipo de acabamento:
  2
ACABAMENTO
 70
     0
  0
ATTDEF
  5
BB5
330
B9E
100
AcDbEntity
  8
1
100
AcDbText
 10
-79.18527869967246
 20
16.65066409850533
 30
0.0
 40
2.0
  1
XXXXXXX
 41
0.8
  7
SANINDUSA
 72
     4
 11
-73.90871724903445
 21
17.65066409850533
 31
0.0
100
AcDbAttributeDefinition
  3
Normas
  2
NORMAS
 70
     0
  0
ATTDEF
  5
BB6
330
B9E
100
AcDbEntity
  8
1
100
AcDbText
 10
-30.55312290127603
 20
14.0
 30
0.0
 40
2.0
  1
XXXXXXXXXXXXXX
 41
0.8
  7
SANINDUSA
 72
     4
 11
-20.0
 21
15.0
 31
0.0
100
AcDbAttributeDefinition
  3
Substitui o desenho:
  2
SUBSTITUI
 70
     0
  0
ATTDEF
  5
BB7
330
B9E
100
AcDbEntity
  8
1
100
AcDbText
 10
-31.30691739422431
 20
6.0
 30
0.0
 40
2.0
  1
XXXXXXXXXXXXXXX
 41
0.8
  7
SANINDUSA
 72
     4
 11
-20.0
 21
7.0
 31
0.0
100
AcDbAttributeDefinition
  3
Substituido por:
  2
SUBSTITUIDO
 70
     0
  0
ATTDEF
  5
BB8
330
B9E
100
AcDbEntity
  8
1
100
AcDbText
 10
-110.0220608548302
 20
1.478208457928303
 30
0.0
 40
2.0
  1
XXXXXXXXXXXXXXXXXXXXXXXXXXXXXXXXXX
 41
0.8
  7
SANINDUSA
 11
-110.0220608548302
 21
2.478208457928303
 31
0.0
100
AcDbAttributeDefinition
  3
Localização do desenho:
  2
LOC-DWG
 70
     0
 74
     2
  0
LINE
  5
BB9
330
B9E
100
AcDbEntity
  8
3
100
AcDbLine
 10
-135.0
 20
4.0
 30
0.0
 11
0.0000000000004547
 21
4.0
 31
0.0
  0
LINE
  5
BBA
330
B9E
100
AcDbEntity
  8
3
100
AcDbLine
 10
-90.00000000000046
 20
12.0
 30
0.0
 11
-135.0
 21
12.0
 31
0.0
  0
LINE
  5
BBB
330
B9E
100
AcDbEntity
  8
3
100
AcDbLine
 10
-135.0
 20
32.5
 30
0.0
 11
-40.0
 21
32.5
 31
0.0
  0
TEXT
  5
BBC
330
B9E
100
AcDbEntity
  8
1
100
AcDbText
 10
-134.0
 20
1.25
 30
0.0
 40
2.0
  1
Localização do des.:
 41
0.8
  7
SANINDUSA
 11
-134.0
 21
2.25
 31
0.0
100
AcDbText
 73
     2
  0
LINE
  5
BBD
330
B9E
100
AcDbEntity
  8
3
100
AcDbLine
 10
-180.0
 20
65.0
 30
0.0
 11
0.0
 21
65.0
 31
0.0
  0
LINE
  5
BBE
330
B9E
100
AcDbEntity
  8
leg fin
100
AcDbLine
 10
-40.0
 20
25.05956924886846
 30
0.0
 11
-135.0
 21
25.05956924886846
 31
0.0
  0
LINE
  5
BBF
330
B9E
100
AcDbEntity
  8
leg fin
100
AcDbLine
 10
-40.0
 20
28.5
 30
0.0
 11
-135.0
 21
28.5
 31
0.0
  0
LINE
  5
BC0
330
B9E
100
AcDbEntity
  8
3
100
AcDbLine
 10
-135.0
 20
50.0
 30
0.0
 11
-40.0
 21
50.0
 31
0.0
  0
TEXT
  5
BC1
330
B9E
100
AcDbEntity
  8
1
100
AcDbText
 10
-134.0
 20
29.75
 30
0.0
 40
2.0
  1
Desenho nº:
 41
0.8
  7
SANINDUSA
 11
-134.0
 21
30.75
 31
0.0
100
AcDbText
 73
     2
  0
TEXT
  5
BC2
330
B9E
100
AcDbEntity
  8
1
100
AcDbText
 10
-134.0
 20
9.25
 30
0.0
 40
2.0
  1
Acabamento:
 41
0.8
  7
SANINDUSA
 11
-134.0
 21
10.25
 31
0.0
100
AcDbText
 73
     2
  0
LINE
  5
BC3
330
B9E
100
AcDbEntity
  8
3
100
AcDbLine
 10
-180.0
 20
20.0
 30
0.0
 11
0.0
 21
20.0
 31
0.0
  0
LINE
  5
BC4
330
B9E
100
AcDbEntity
  8
1
100
AcDbLine
 10
-174.5810776056337
 20
55.5
 30
0.0
 11
-174.5810776056337
 21
65.0
 31
0.0
  0
LINE
  5
BC5
330
B9E
100
AcDbEntity
  8
1
100
AcDbLine
 10
-168.9210461879161
 20
55.5
 30
0.0
 11
-168.9210461879161
 21
65.0
 31
0.0
  0
LINE
  5
BC6
330
B9E
100
AcDbEntity
  8
1
100
AcDbLine
 10
-154.0988595589306
 20
55.5
 30
0.0
 11
-154.0988595589306
 21
65.0
 31
0.0
  0
LINE
  5
BC7
330
B9E
100
AcDbEntity
  8
3
100
AcDbLine
 10
-180.0
 20
65.0
 30
0.0
 11
-180.0
 21
0.0
 31
0.0
  0
LINE
  5
BC8
330
B9E
100
AcDbEntity
  8
3
100
AcDbLine
 10
-135.0
 20
0.0
 30
0.0
 11
-135.0
 21
65.0
 31
0.0
  0
TEXT
  5
BC9
330
B9E
100
AcDbEntity
  8
1
100
AcDbText
 10
-179.0
 20
9.75
 30
0.0
 40
1.5
  1
Des.
 41
0.8
  7
SANINDUSA
 11
-179.0
 21
10.5
 31
0.0
100
AcDbText
 73
     2
  0
LINE
  5
BCA
330
B9E
100
AcDbEntity
  8
1
100
AcDbLine
 10
-168.9210461879161
 20
20.0
 30
0.0
 11
-168.9210461879161
 21
0.0
 31
0.0
  0
LINE
  5
BCB
330
B9E
100
AcDbEntity
  8
1
100
AcDbLine
 10
-154.0988595589306
 20
20.0
 30
0.0
 11
-154.0988595589306
 21
0.0
 31
0.0
  0
LINE
  5
BCC
330
B9E
100
AcDbEntity
  8
1
100
AcDbLine
 10
-180.0
 20
4.0
 30
0.0
 11
-135.0
 21
4.0
 31
0.0
  0
LINE
  5
BCD
330
B9E
100
AcDbEntity
  8
1
100
AcDbLine
 10
-180.0
 20
8.0
 30
0.0
 11
-135.0
 21
8.0
 31
0.0
  0
TEXT
  5
BCE
330
B9E
100
AcDbEntity
  8
1
100
AcDbText
 10
-179.0
 20
1.73257823687436
 30
0.0
 40
1.5
  1
Aprov.
 41
0.8
  7
SANINDUSA
 11
-179.0
 21
2.48257823687436
 31
0.0
100
AcDbText
 73
     2
  0
TEXT
  5
BCF
330
B9E
100
AcDbEntity
  8
1
100
AcDbText
 10
-179.0
 20
5.75
 30
0.0
 40
1.5
  1
Ver.
 41
0.8
  7
SANINDUSA
 11
-179.0
 21
6.5
 31
0.0
100
AcDbText
 73
     2
  0
LINE
  5
BD0
330
B9E
100
AcDbEntity
  8
1
100
AcDbLine
 10
-180.0
 20
16.0
 30
0.0
 11
-135.0
 21
16.0
 31
0.0
  0
LINE
  5
BD1
330
B9E
100
AcDbEntity
  8
1
100
AcDbLine
 10
-180.0
 20
12.0
 30
0.0
 11
-135.0
 21
12.0
 31
0.0
  0
TEXT
  5
BD2
330
B9E
100
AcDbEntity
  8
1
100
AcDbText
 10
-179.0
 20
13.75
 30
0.0
 40
1.5
  1
Proj.
 41
0.8
  7
SANINDUSA
 11
-179.0
 21
14.5
 31
0.0
100
AcDbText
 73
     2
  0
TEXT
  5
BD3
330
B9E
100
AcDbEntity
  8
1
100
AcDbText
 10
-167.9210461879161
 20
17.75
 30
0.0
 40
1.5
  1
Data
 41
0.8
  7
SANINDUSA
 11
-167.9210461879161
 21
18.5
 31
0.0
100
AcDbText
 73
     2
  0
TEXT
  5
BD4
330
B9E
100
AcDbEntity
  8
1
100
AcDbText
 10
-153.0988595589306
 20
17.75
 30
0.0
 40
1.5
  1
Nome
 41
0.8
  7
SANINDUSA
 11
-153.0988595589306
 21
18.5
 31
0.0
100
AcDbText
 73
     2
  0
LINE
  5
BD5
330
B9E
100
AcDbEntity
  8
leg fin
100
AcDbLine
 10
-130.0
 20
20.0
 30
0.0
 11
-130.0
 21
28.5
 31
0.0
  0
TEXT
  5
BD6
330
B9E
100
AcDbEntity
  8
1
100
AcDbText
 10
-134.0
 20
17.25
 30
0.0
 40
2.0
  1
Material:
 41
0.8
  7
SANINDUSA
 11
-134.0
 21
18.25
 31
0.0
100
AcDbText
 73
     2
  0
TEXT
  5
BD7
330
B9E
100
AcDbEntity
  8
1
100
AcDbText
 10
-129.0
 20
26.43288406845113
 30
0.0
 40
1.5
  1
Ano:
 41
0.8
  7
SANINDUSA
 11
-129.0
 21
27.18288406845113
 31
0.0
100
AcDbText
 73
     2
  0
LINE
  5
BD8
330
B9E
100
AcDbEntity
  8
1
100
AcDbLine
 10
-180.0
 20
55.5
 30
0.0
 11
-135.0
 21
55.5
 31
0.0
  0
TEXT
  5
BD9
330
B9E
100
AcDbEntity
  8
1
100
AcDbText
 10
-179.0
 20
52.67772246885193
 30
0.0
 40
1.5
  1
descrição
 41
0.8
  7
SANINDUSA
 11
-179.0
 21
53.42772246885193
 31
0.0
100
AcDbText
 73
     2
  0
TEXT
  5
BDA
330
B9E
100
AcDbEntity
  8
1
100
AcDbText
 10
-134.0
 20
47.25
 30
0.0
 40
2.0
  1
Peça:
 41
0.8
  7
SANINDUSA
 11
-134.0
 21
48.25
 31
0.0
100
AcDbText
 73
     2
  0
LINE
  5
BDB
330
B9E
100
AcDbEntity
  8
1
100
AcDbLine
 10
-180.0
 20
59.5
 30
0.0
 11
-135.0
 21
59.5
 31
0.0
  0
TEXT
  5
BDC
330
B9E
100
AcDbEntity
  8
1
100
AcDbText
 10
-173.5810776056337
 20
62.75
 30
0.0
 40
1.5
  1
Alt.
 41
0.8
  7
SANINDUSA
 11
-173.5810776056337
 21
63.5
 31
0.0
100
AcDbText
 73
     2
  0
TEXT
  5
BDD
330
B9E
100
AcDbEntity
  8
1
100
AcDbText
 10
-179.0
 20
62.75
 30
0.0
 40
1.5
  1
Rev.
 41
0.8
  7
SANINDUSA
 11
-179.0
 21
63.5
 31
0.0
100
AcDbText
 73
     2
  0
TEXT
  5
BDE
330
B9E
100
AcDbEntity
  8
1
100
AcDbText
 10
-167.9210461879161
 20
62.75
 30
0.0
 40
1.5
  1
Data
 41
0.8
  7
SANINDUSA
 11
-167.9210461879161
 21
63.5
 31
0.0
100
AcDbText
 73
     2
  0
TEXT
  5
BDF
330
B9E
100
AcDbEntity
  8
1
100
AcDbText
 10
-153.0988595589306
 20
62.75
 30
0.0
 40
1.5
  1
Nome
 41
0.8
  7
SANINDUSA
 11
-153.0988595589306
 21
63.5
 31
0.0
100
AcDbText
 73
     2
  0
TEXT
  5
BE0
330
B9E
100
AcDbEntity
  8
1
100
AcDbText
 10
-134.0
 20
62.25
 30
0.0
 40
2.0
  1
Produto:
 41
0.8
  7
SANINDUSA
 11
-134.0
 21
63.25
 31
0.0
100
AcDbText
 73
     2
  0
LINE
  5
BE1
330
B9E
100
AcDbEntity
  8
3
100
AcDbLine
 10
-40.0
 20
4.0
 30
0.0
 11
-40.0
 21
65.0
 31
0.0
  0
LWPOLYLINE
  5
BE2
102
{ACAD_REACTORS
330
BEC
102
}
330
B9E
100
AcDbEntity
  8
9
100
AcDbPolyline
 90
       12
 70
     1
 43
0.0
 10
-3.038714600644652
 20
58.90010174665076
 10
-5.726962862472191
 20
58.90010174665076
 10
-5.726962862472191
 20
58.5001017466509
 10
-3.038748516195028
 20
58.5001017466509
 42
-0.4142135623731731
 10
-2.638748516194482
 20
58.1001017466508
 10
-2.638748516194482
 20
57.42799728675596
 10
-5.21497371544865
 20
57.42799728675596
 42
0.4142135623731289
 10
-6.014973715448377
 20
56.627997286756
 10
-6.014973715448377
 20
55.92380871629643
 42
0.4142135623731132
 10
-5.21497371544865
 20
55.12380871629648
 10
-2.23871460064447
 20
55.12380871629648
 10
-2.23871460064447
 20
58.10010174665103
 42
0.4142135623730717
  0
LWPOLYLINE
  5
BE3
102
{ACAD_REACTORS
330
BEC
102
}
330
B9E
100
AcDbEntity
  8
9
100
AcDbPolyline
 90
       20
 70
     1
 43
0.0
 10
-10.01531287095122
 20
57.82799728675581
 10
-10.01531287095122
 20
58.10010174665103
 42
-0.4142135623730744
 10
-9.615312870951584
 20
58.5001017466509
 10
-6.92703069357276
 20
58.5001017466509
 10
-6.92703069357276
 20
58.90010174665076
 10
-9.615346786501959
 20
58.90010174665076
 42
0.4142135623730883
 10
-10.41534678650168
 20
58.1001017466508
 10
-10.41534678650168
 20
57.82796337120567
 42
0.4142135623730717
 10
-9.615346786501959
 20
57.02796337120571
 10
-7.423079531965413
 20
57.02796337120571
 42
-0.4142135623730847
 10
-7.023079531965322
 20
56.62796337120562
 10
-7.023079531965322
 20
55.90786840766487
 42
-0.4142135623730744
 10
-7.423079531965413
 20
55.507868407665
 10
-10.41534678650168
 20
55.507868407665
 10
-10.41534678650168
 20
55.12380871629648
 10
-7.445787917283723
 20
55.12380871629648
 42
0.4114777732064574
 10
-6.645822882998345
 20
55.9163291493976
 10
-6.639238813324936
 20
56.62051771985716
 42
0.4169546541682913
 10
-7.439203847610315
 20
57.42799728675596
 10
-9.615312870951584
 20
57.42799728675596
 42
-0.4142135623731576
  0
LWPOLYLINE
  5
BE4
102
{ACAD_REACTORS
330
BEC
102
}
330
B9E
100
AcDbEntity
  8
9
100
AcDbPolyline
 90
       12
 70
     1
 43
0.0
 10
-14.41561811090378
 20
58.90010174665076
 10
-14.79964388672215
 20
58.90010174665076
 10
-14.79964388672215
 20
55.92380871629643
 42
0.4142135623731133
 10
-13.99964388672242
 20
55.12380871629648
 10
-11.8233508563676
 20
55.12380871629648
 42
0.4142135623730872
 10
-11.02335085636741
 20
55.92380871629643
 10
-11.02335085636741
 20
58.90010174665076
 10
-11.42338477191788
 20
58.90010174665076
 10
-11.42338477191788
 20
55.91567577726095
 42
-0.4131711701795318
 10
-11.82196067063523
 20
55.51567831234956
 10
-14.0141940096214
 20
55.50787335710947
 42
-0.4152567234624407
 10
-14.41561811090378
 20
55.90787082202087
  0
LWPOLYLINE
  5
BE5
102
{ACAD_REACTORS
330
BEC
102
}
330
B9E
100
AcDbEntity
  8
9
100
AcDbPolyline
 90
        6
 70
     1
 43
0.0
 10
-15.80771578768872
 20
55.507868407665
 10
-18.39994912667453
 20
55.507868407665
 42
-0.4142135623731731
 10
-18.79994912667462
 20
55.90786840766487
 10
-18.79994912667462
 20
58.10010174665103
 42
-0.4142135623730744
 10
-18.39994912667453
 20
58.5001017466509
 10
-15.80771578768872
 20
58.5001017466509
  0
LWPOLYLINE
  5
BE6
102
{ACAD_REACTORS
330
BEC
102
}
330
B9E
100
AcDbEntity
  8
9
100
AcDbPolyline
 90
        8
 70
     1
 43
0.0
 10
-15.4236900118708
 20
59.87619128370352
 10
-15.80771578768872
 20
59.87619128370352
 10
-15.80771578768872
 20
58.90010174665076
 10
-18.39176256411201
 20
58.90010174665076
 42
0.4131164467977967
 10
-19.19175694739761
 20
58.1030995310698
 10
-19.1999120763262
 20
55.92680650071542
 42
0.4153115297271718
 10
-18.39991769304061
 20
55.12380871629648
 10
-15.4236900118708
 20
55.12380871629648
  0
LWPOLYLINE
  5
BE7
102
{ACAD_REACTORS
330
BEC
102
}
330
B9E
100
AcDbEntity
  8
9
100
AcDbPolyline
 90
       10
 70
     1
 43
0.0
 10
-20.59201288790928
 20
58.90010174665076
 10
-23.56830591826338
 20
58.90010174665076
 10
-23.56830591826338
 20
55.12380871629648
 10
-23.18424622689509
 20
55.12380871629648
 10
-23.18424622689509
 20
58.5001017466509
 10
-20.59204680345965
 20
58.5001017466509
 42
-0.4142135623730898
 10
-20.19204680345956
 20
58.1001017466508
 10
-20.19204680345956
 20
55.12380871629648
 10
-19.79201288790909
 20
55.12380871629648
 10
-19.79201288790909
 20
58.10010174665103
 42
0.4142135623731132
  0
LWPOLYLINE
  5
BE8
102
{ACAD_REACTORS
330
BEC
102
}
330
B9E
100
AcDbEntity
  8
9
100
AcDbPolyline
 90
        4
 70
     1
 43
0.0
 10
-24.19231812786165
 20
58.90010174665076
 10
-24.57637781922995
 20
58.90010174665076
 10
-24.57637781922995
 20
55.12380871629648
 10
-24.19231812786165
 20
55.12380871629648
  0
LWPOLYLINE
  5
BE9
102
{ACAD_REACTORS
330
BEC
102
}
330
B9E
100
AcDbEntity
  8
9
100
AcDbPolyline
 90
       10
 70
     1
 43
0.0
 10
-28.57661522808212
 20
58.5001017466509
 10
-25.98444972019706
 20
58.5001017466509
 42
-0.4142135623731731
 10
-25.58444972019652
 20
58.1001017466508
 10
-25.58444972019652
 20
55.12380871629648
 10
-25.2004239443786
 20
55.12380871629648
 10
-25.2004239443786
 20
58.10010174665103
 42
0.4142135623730717
 10
-26.00042394437833
 20
58.90010174665076
 10
-28.97664914363259
 20
58.90010174665076
 10
-28.97664914363259
 20
55.12380871629648
 10
-28.57661522808212
 20
55.12380871629648
  0
LWPOLYLINE
  5
BEA
102
{ACAD_REACTORS
330
BEC
102
}
330
B9E
100
AcDbEntity
  8
9
100
AcDbPolyline
 90
       12
 70
     1
 43
0.0
 10
-29.58465321349832
 20
58.10010174665103
 42
0.4142135623730716
 10
-30.3846532134985
 20
58.90010174665076
 10
-33.07296930642724
 20
58.90010174665076
 10
-33.07296930642724
 20
58.5001017466509
 10
-30.38468712904842
 20
58.5001017466509
 42
-0.4142135623730067
 10
-29.98468712904878
 20
58.1001017466508
 10
-29.98468712904878
 20
57.42799728675618
 10
-32.56098015940324
 20
57.42799728675596
 42
0.4142135623731289
 10
-33.36098015940343
 20
56.627997286756
 10
-33.36098015940343
 20
55.92380871629643
 42
0.4142135623731132
 10
-32.56098015940324
 20
55.12380871629648
 10
-29.58465321349832
 20
55.12380871629648
  0
LWPOLYLINE
  5
BEB
102
{ACAD_REACTORS
330
BEC
102
}
330
B9E
100
AcDbEntity
  8
9
100
AcDbPolyline
 90
       20
 70
     1
 43
0.0
 10
-34.7850262845518
 20
57.42799728675596
 10
-36.96125148380543
 20
57.42799728675596
 42
-0.4142135623730898
 10
-37.36125148380552
 20
57.82799728675604
 10
-37.36125148380552
 20
58.10010174665103
 42
-0.4142135623730744
 10
-36.96125148380543
 20
58.5001017466509
 10
-34.27303713752781
 20
58.50010174665067
 10
-34.27303713752781
 20
58.90010174665076
 10
-36.96128539935535
 20
58.90010174665076
 42
0.4142135623731289
 10
-37.76128539935553
 20
58.1001017466508
 10
-37.76128539935553
 20
57.82796337120567
 42
0.4142135623730716
 10
-36.9612853993558
 20
57.02796337120571
 10
-34.76901814481926
 20
57.02796337120571
 42
-0.414213562373168
 10
-34.36901814481962
 20
56.62796337120562
 10
-34.36901814481962
 20
55.90786840766487
 42
-0.4142135623730744
 10
-34.76901814481926
 20
55.507868407665
 10
-37.76128539935553
 20
55.507868407665
 10
-37.76128539935553
 20
55.12380871629648
 10
-34.7850262845518
 20
55.12380871629648
 42
0.4142135623731289
 10
-33.98502628455162
 20
55.92380871629643
 10
-33.98502628455162
 20
56.627997286756
 42
0.4142135623731132
  0
HATCH
  5
BEC
330
B9E
100
AcDbEntity
  8
9
100
AcDbHatch
 10
0.0
 20
0.0
 30
0.0
210
0.0
220
0.0
230
1.0
  2
SOLID
 70
     1
 71
     1
 91
       13
 92
        7
 72
     1
 73
     1
 93
       20
 10
-34.36901814481962
 20
55.90786840766487
 42
-0.414213562372991
 10
-34.76901814481926
 20
55.507868407665
 42
0.0
 10
-37.76128539935553
 20
55.507868407665
 42
0.0
 10
-37.76128539935553
 20
55.12380871629648
 42
0.0
 10
-34.7850262845518
 20
55.12380871629648
 42
0.4142135623731705
 10
-33.98502628455162
 20
55.92380871629666
 42
0.0
 10
-33.98502628455162
 20
56.627997286756
 42
0.4142135623731547
 10
-34.7850262845518
 20
57.42799728675596
 42
0.0
 10
-36.96125148380543
 20
57.42799728675596
 42
-0.4142135623730898
 10
-37.36125148380552
 20
57.82799728675604
 42
0.0
 10
-37.36125148380552
 20
58.1001017466508
 42
-0.4142135623731575
 10
-36.96125148380543
 20
58.5001017466509
 42
0.0
 10
-34.27303713752781
 20
58.50010174665067
 42
0.0
 10
-34.27303713752781
 20
58.90010174665076
 42
0.0
 10
-36.96128539935535
 20
58.90010174665076
 42
0.4142135623731705
 10
-37.76128539935553
 20
58.10010174665058
 42
0.0
 10
-37.76128539935553
 20
57.82796337120544
 42
0.4142135623730299
 10
-36.9612853993558
 20
57.02796337120571
 42
0.0
 10
-34.76901814481926
 20
57.02796337120571
 42
-0.4142135623730015
 10
-34.36901814481962
 20
56.62796337120608
 42
0.0
 97
        1
330
BEB
 92
        7
 72
     1
 73
     1
 93
       12
 10
-33.36098015940343
 20
55.92380871629666
 42
0.4142135623731547
 10
-32.56098015940324
 20
55.12380871629648
 42
0.0
 10
-29.58465321349877
 20
55.12380871629648
 42
0.0
 10
-29.58465321349832
 20
58.10010174665058
 42
0.4142135623731964
 10
-30.3846532134985
 20
58.90010174665076
 42
0.0
 10
-33.07296930642724
 20
58.90010174665076
 42
0.0
 10
-33.07296930642724
 20
58.50010174665067
 42
0.0
 10
-30.38468712904887
 20
58.5001017466509
 42
-0.4142135623732564
 10
-29.98468712904878
 20
58.10010174665103
 42
0.0
 10
-29.98468712904923
 20
57.42799728675596
 42
0.0
 10
-32.56098015940324
 20
57.42799728675596
 42
0.4142135623731705
 10
-33.36098015940343
 20
56.627997286756
 42
0.0
 97
        1
330
BEA
 92
       22
 72
     1
 73
     1
 93
        6
 10
-32.97692046803468
 20
56.62796337120562
 42
-0.4142135623731576
 10
-32.57692046803459
 20
57.02796337120571
 42
0.0
 10
-29.98468712904878
 20
57.02796337120571
 42
0.0
 10
-29.98468712904878
 20
55.507868407665
 42
0.0
 10
-32.57692046803459
 20
55.507868407665
 42
-0.4142135623731731
 10
-32.97692046803468
 20
55.90786840766487
 42
0.0
 97
        1
330
C11
 92
        7
 72
     1
 73
     1
 93
       10
 10
-28.57661522808212
 20
58.5001017466509
 42
0.0
 10
-25.98444972019661
 20
58.5001017466509
 42
-0.4142135623730067
 10
-25.58444972019652
 20
58.10010174665058
 42
0.0
 10
-25.58444972019606
 20
55.12380871629648
 42
0.0
 10
-25.20042394437906
 20
55.12380871629648
 42
0.0
 10
-25.2004239443786
 20
58.1001017466508
 42
0.4142135623731134
 10
-26.00042394437833
 20
58.90010174665076
 42
0.0
 10
-28.97664914363259
 20
58.90010174665076
 42
0.0
 10
-28.97664914363259
 20
55.12380871629648
 42
0.0
 10
-28.57661522808212
 20
55.12380871629648
 42
0.0
 97
        1
330
BE9
 92
        7
 72
     0
 73
     1
 93
        4
 10
-24.57637781922995
 20
55.12380871629648
 10
-24.19231812786165
 20
55.12380871629648
 10
-24.19231812786165
 20
58.90010174665076
 10
-24.57637781922995
 20
58.90010174665076
 97
        1
330
BE8
 92
        7
 72
     0
 73
     1
 93
        4
 10
-24.19231812786165
 20
59.87619128370352
 10
-24.5763778192304
 20
59.87619128370352
 10
-24.5763778192304
 20
59.28412752246913
 10
-24.1923181278612
 20
59.28412752246913
 97
        1
330
C12
 92
        7
 72
     1
 73
     1
 93
       10
 10
-23.18424622689509
 20
58.5001017466509
 42
0.0
 10
-20.59204680345965
 20
58.5001017466509
 42
-0.4142135623730898
 10
-20.19204680345956
 20
58.1001017466508
 42
0.0
 10
-20.19204680345956
 20
55.12380871629648
 42
0.0
 10
-19.79201288790909
 20
55.12380871629648
 42
0.0
 10
-19.79201288790909
 20
58.1001017466508
 42
0.4142135623731547
 10
-20.59201288790928
 20
58.90010174665076
 42
0.0
 10
-23.56830591826338
 20
58.90010174665076
 42
0.0
 10
-23.56830591826338
 20
55.12380871629648
 42
0.0
 10
-23.18424622689463
 20
55.12380871629648
 42
0.0
 97
        1
330
BE7
 92
        7
 72
     1
 73
     1
 93
        8
 10
-19.1999120763262
 20
55.92680650071542
 42
0.4153115297271299
 10
-18.39991769304061
 20
55.12380871629648
 42
0.0
 10
-15.4236900118708
 20
55.12380871629648
 42
0.0
 10
-15.4236900118708
 20
59.87619128370352
 42
0.0
 10
-15.80771578768872
 20
59.87619128370352
 42
0.0
 10
-15.80771578768872
 20
58.90010174665076
 42
0.0
 10
-18.39176256411201
 20
58.90010174665076
 42
0.4131164467977965
 10
-19.19175694739761
 20
58.1030995310698
 42
0.0
 97
        1
330
BE6
 92
       22
 72
     1
 73
     1
 93
        6
 10
-18.79994912667462
 20
58.1001017466508
 42
-0.4142135623731575
 10
-18.39994912667453
 20
58.5001017466509
 42
0.0
 10
-15.80771578768872
 20
58.50010174665067
 42
0.0
 10
-15.80771578768827
 20
55.507868407665
 42
0.0
 10
-18.39994912667453
 20
55.507868407665
 42
-0.4142135623731731
 10
-18.79994912667462
 20
55.90786840766487
 42
0.0
 97
        1
330
BE5
 92
        7
 72
     1
 73
     1
 93
       12
 10
-14.79964388672215
 20
55.92380871629621
 42
0.4142135623729885
 10
-13.99964388672242
 20
55.12380871629648
 42
0.0
 10
-11.8233508563676
 20
55.12380871629648
 42
0.4142135623731289
 10
-11.02335085636741
 20
55.92380871629666
 42
0.0
 10
-11.02335085636741
 20
58.90010174665076
 42
0.0
 10
-11.42338477191788
 20
58.90010174665076
 42
0.0
 10
-11.42338477191788
 20
55.91567577726095
 42
-0.4131711701795319
 10
-11.82196067063523
 20
55.51567831234956
 42
0.0
 10
-14.01419400962095
 20
55.50787335710947
 42
-0.4152567234626918
 10
-14.41561811090378
 20
55.90787082202087
 42
0.0
 10
-14.41561811090378
 20
58.90010174665076
 42
0.0
 10
-14.7996438867226
 20
58.90010174665076
 42
0.0
 97
        1
330
BE4
 92
        7
 72
     1
 73
     1
 93
       20
 10
-7.423079531965413
 20
57.02796337120571
 42
-0.414213562373168
 10
-7.023079531965322
 20
56.62796337120562
 42
0.0
 10
-7.023079531965322
 20
55.90786840766487
 42
-0.4142135623731575
 10
-7.423079531965413
 20
55.507868407665
 42
0.0
 10
-10.41534678650168
 20
55.507868407665
 42
0.0
 10
-10.41534678650168
 20
55.12380871629648
 42
0.0
 10
-7.445787917283723
 20
55.12380871629648
 42
0.4114777732065809
 10
-6.645822882998345
 20
55.91632914939783
 42
0.0
 10
-6.639238813324936
 20
56.62051771985716
 42
0.4169546541682913
 10
-7.439203847610315
 20
57.42799728675596
 42
0.0
 10
-9.615312870951584
 20
57.42799728675596
 42
-0.4142135623729911
 10
-10.01531287095122
 20
57.82799728675581
 42
0.0
 10
-10.01531287095122
 20
58.10010174665103
 42
-0.414213562372991
 10
-9.615312870951584
 20
58.5001017466509
 42
0.0
 10
-6.92703069357276
 20
58.50010174665067
 42
0.0
 10
-6.927030693572305
 20
58.90010174665076
 42
0.0
 10
-9.615346786501959
 20
58.90010174665076
 42
0.4142135623730467
 10
-10.41534678650168
 20
58.10010174665103
 42
0.0
 10
-10.41534678650168
 20
57.82796337120544
 42
0.4142135623730301
 10
-9.615346786501959
 20
57.02796337120571
 42
0.0
 97
        1
330
BE3
 92
        7
 72
     1
 73
     1
 93
       12
 10
-5.21497371544865
 20
57.42799728675596
 42
0.4142135623730871
 10
-6.014973715448377
 20
56.627997286756
 42
0.0
 10
-6.014973715448377
 20
55.92380871629621
 42
0.4142135623730715
 10
-5.21497371544865
 20
55.12380871629648
 42
0.0
 10
-2.23871460064447
 20
55.12380871629648
 42
0.0
 10
-2.23871460064447
 20
58.10010174665058
 42
0.414213562373155
 10
-3.038714600644652
 20
58.90010174665076
 42
0.0
 10
-5.726962862471737
 20
58.90010174665076
 42
0.0
 10
-5.726962862472191
 20
58.5001017466509
 42
0.0
 10
-3.038748516194573
 20
58.5001017466509
 42
-0.4142135623730067
 10
-2.638748516194482
 20
58.10010174665058
 42
0.0
 10
-2.638748516194482
 20
57.42799728675596
 42
0.0
 97
        1
330
BE2
 92
       22
 72
     1
 73
     1
 93
        6
 10
-2.638748516194937
 20
57.02796337120571
 42
0.0
 10
-2.638748516194482
 20
55.50786840766477
 42
0.0
 10
-5.21497371544865
 20
55.507868407665
 42
-0.4142135623731731
 10
-5.614973715448741
 20
55.90786840766509
 42
0.0
 10
-5.614973715448741
 20
56.62796337120562
 42
-0.4142135623731576
 10
-5.21497371544865
 20
57.02796337120571
 42
0.0
 97
        1
330
C0D
 75
     0
 76
     1
 47
0.0407044778999864
 98
       13
 10
-34.18710075113677
 20
56.16907953933765
 10
-33.12851374392494
 20
56.49471602641233
 10
-33.12851374392494
 20
56.49471602641233
 10
-28.77202873835904
 20
57.51232930166111
 10
-24.41554807250941
 20
57.91937341678636
 10
-24.41554807250941
 20
59.384734621186
 10
-23.31624584658039
 20
58.3264175319116
 10
-19.04119127844888
 20
57.75655517324913
 10
-19.04119127844888
 20
57.75655517324913
 10
-14.64399105416578
 20
57.43091868617466
 10
-8.048195057457178
 20
57.22739662861204
 10
-4.017427461911665
 20
57.18669281458665
 10
-4.017427461911665
 20
57.18669281458665
  0
TEXT
  5
BED
330
B9E
100
AcDbEntity
  8
leg fin
100
AcDbText
 10
3.391127401597259
 20
2.107634911895729
 30
0.0
 40
1.5
  1
Este desenho é propriedade da Sanindusa, S.A., e não pode ser copiado nem divulgado sem nossa autorização.
 50
90.0
 41
0.8
  7
SANINDUSA
100
AcDbText
  0
LINE
  5
BEE
330
B9E
100
AcDbEntity
  8
3
100
AcDbLine
 10
-90.0
 20
4.0
 30
0.0
 11
-90.0
 21
12.0
 31
0.0
  0
TEXT
  5
BEF
330
B9E
100
AcDbEntity
  8
1
100
AcDbText
 10
-39.0
 20
9.25
 30
0.0
 40
2.0
  1
Substituido por:
 41
0.8
  7
SANINDUSA
 11
-39.0
 21
10.25
 31
0.0
100
AcDbText
 73
     2
  0
POINT
  5
BF0
330
B9E
100
AcDbEntity
  8
SANINDUSA
100
AcDbPoint
 10
0.0
 20
0.0
 30
0.0
  0
TEXT
  5
BF1
330
B9E
100
AcDbEntity
  8
1
100
AcDbText
 10
-89.0
 20
16.74927010445663
 30
0.0
 40
2.0
  1
Normas:
 41
0.8
  7
SANINDUSA
 11
-89.0
 21
17.74927010445663
 31
0.0
100
AcDbText
 73
     2
  0
LINE
  5
BF2
330
B9E
100
AcDbEntity
  8
3
100
AcDbLine
 10
-90.0
 20
12.0
 30
0.0
 11
-90.0
 21
20.0
 31
0.0
  0
LINE
  5
BF3
330
B9E
100
AcDbEntity
  8
3
100
AcDbLine
 10
-110.546019464768
 20
12.0
 30
0.0
 11
-110.546019464768
 21
20.0
 31
0.0
  0
TEXT
  5
BF4
330
B9E
100
AcDbEntity
  8
1
100
AcDbText
 10
-109.6177520618648
 20
17.25
 30
0.0
 40
2.0
  1
Cor:
 41
0.8
  7
SANINDUSA
 11
-109.6177520618648
 21
18.25
 31
0.0
100
AcDbText
 73
     2
  0
LINE
  5
BF5
330
B9E
100
AcDbEntity
  8
leg fin
100
AcDbLine
 10
-91.42857142857156
 20
20.0
 30
0.0
 11
-91.42857142857156
 21
28.5
 31
0.0
  0
LINE
  5
BF6
330
B9E
100
AcDbEntity
  8
leg fin
100
AcDbLine
 10
-104.2857142857142
 20
20.0
 30
0.0
 11
-104.2857142857142
 21
28.5
 31
0.0
  0
LINE
  5
BF7
330
B9E
100
AcDbEntity
  8
leg fin
100
AcDbLine
 10
-117.1428571428573
 20
20.0
 30
0.0
 11
-117.1428571428573
 21
28.5
 31
0.0
  0
POINT
  5
BF8
330
B9E
100
AcDbEntity
  8
SANINDUSA
100
AcDbPoint
 10
-117.1428571428573
 20
28.5
 30
0.0
  0
POINT
  5
BF9
330
B9E
100
AcDbEntity
  8
SANINDUSA
100
AcDbPoint
 10
-104.2857142857142
 20
28.5
 30
0.0
  0
POINT
  5
BFA
330
B9E
100
AcDbEntity
  8
SANINDUSA
100
AcDbPoint
 10
-91.42857142857156
 20
28.5
 30
0.0
  0
TEXT
  5
BFB
330
B9E
100
AcDbEntity
  8
1
100
AcDbText
 10
-116.200160604496
 20
26.43288406845113
 30
0.0
 40
1.5
  1
Nº Seq.:
 41
0.8
  7
SANINDUSA
 11
-116.200160604496
 21
27.18288406845113
 31
0.0
100
AcDbText
 73
     2
  0
TEXT
  5
BFC
330
B9E
100
AcDbEntity
  8
1
100
AcDbText
 10
-103.2106584078738
 20
26.43288406845113
 30
0.0
 40
1.5
  1
Tipo:
 41
0.8
  7
SANINDUSA
 11
-103.2106584078738
 21
27.18288406845113
 31
0.0
100
AcDbText
 73
     2
  0
TEXT
  5
BFD
330
B9E
100
AcDbEntity
  8
1
100
AcDbText
 10
-90.22114672289353
 20
26.43288406845113
 30
0.0
 40
1.5
  1
Prod.:
 41
0.8
  7
SANINDUSA
 11
-90.22114672289353
 21
27.18288406845113
 31
0.0
100
AcDbText
 73
     2
  0
TEXT
  5
BFE
330
B9E
100
AcDbEntity
  8
1
100
AcDbText
 10
-64.77320576346574
 20
26.43288406845113
 30
0.0
 40
1.5
  1
Rev.:
 41
0.8
  7
SANINDUSA
 11
-64.77320576346574
 21
27.18288406845113
 31
0.0
100
AcDbText
 73
     2
  0
LINE
  5
BFF
330
B9E
100
AcDbEntity
  8
leg fin
100
AcDbLine
 10
-52.85714285714266
 20
20.0
 30
0.0
 11
-52.85714285714266
 21
28.5
 31
0.0
  0
LINE
  5
C00
330
B9E
100
AcDbEntity
  8
leg fin
100
AcDbLine
 10
-65.71428571428578
 20
20.0
 30
0.0
 11
-65.71428571428578
 21
28.5
 31
0.0
  0
LINE
  5
C01
330
B9E
100
AcDbEntity
  8
leg fin
100
AcDbLine
 10
-78.57142857142844
 20
20.0
 30
0.0
 11
-78.57142857142844
 21
28.5
 31
0.0
  0
POINT
  5
C02
330
B9E
100
AcDbEntity
  8
SANINDUSA
100
AcDbPoint
 10
-78.57142857142844
 20
28.5
 30
0.0
  0
POINT
  5
C03
330
B9E
100
AcDbEntity
  8
SANINDUSA
100
AcDbPoint
 10
-65.71428571428578
 20
28.5
 30
0.0
  0
POINT
  5
C04
330
B9E
100
AcDbEntity
  8
SANINDUSA
100
AcDbPoint
 10
-52.85714285714266
 20
28.5
 30
0.0
  0
TEXT
  5
C05
330
B9E
100
AcDbEntity
  8
1
100
AcDbText
 10
-77.61097961686573
 20
26.43288406845113
 30
0.0
 40
1.5
  1
Peça:
 41
0.8
  7
SANINDUSA
 11
-77.61097961686573
 21
27.18288406845113
 31
0.0
100
AcDbText
 73
     2
  0
TEXT
  5
C06
330
B9E
100
AcDbEntity
  8
1
100
AcDbText
 10
-52.06538060077036
 20
26.43288406845113
 30
0.0
 40
1.5
  1
Alt.:
 41
0.8
  7
SANINDUSA
 11
-52.06538060077036
 21
27.18288406845113
 31
0.0
100
AcDbText
 73
     2
  0
LINE
  5
C07
330
B9E
100
AcDbEntity
  8
3
100
AcDbLine
 10
0.0
 20
12.0
 30
0.0
 11
-40.0
 21
12.0
 31
0.0
  0
LINE
  5
C08
330
B9E
100
AcDbEntity
  8
3
100
AcDbLine
 10
-40.0
 20
32.5
 30
0.0
 11
0.0
 21
32.5
 31
0.0
  0
TEXT
  5
C09
330
B9E
100
AcDbEntity
  8
1
100
AcDbText
 10
-19.0
 20
29.75
 30
0.0
 40
2.0
  1
Folha:
 41
0.8
  7
SANINDUSA
 11
-19.0
 21
30.75
 31
0.0
100
AcDbText
 73
     2
  0
LINE
  5
C0A
330
B9E
100
AcDbEntity
  8
3
100
AcDbLine
 10
-20.0
 20
32.5
 30
0.0
 11
-20.0
 21
20.0
 31
0.0
  0
TEXT
  5
C0B
330
B9E
100
AcDbEntity
  8
1
100
AcDbText
 10
-39.0
 20
29.75
 30
0.0
 40
2.0
  1
Escala:
 41
0.8
  7
SANINDUSA
 11
-39.0
 21
30.75
 31
0.0
100
AcDbText
 73
     2
  0
TEXT
  5
C0C
330
B9E
100
AcDbEntity
  8
1
100
AcDbText
 10
-39.0
 20
17.25
 30
0.0
 40
2.0
  1
Substitui:
 41
0.8
  7
SANINDUSA
 11
-39.0
 21
18.25
 31
0.0
100
AcDbText
 73
     2
  0
LWPOLYLINE
  5
C0D
102
{ACAD_REACTORS
330
BEC
102
}
330
B9E
100
AcDbEntity
  8
9
100
AcDbPolyline
 90
        6
 70
     1
 43
0.0
 10
-2.638748516194482
 20
57.02796337120571
 10
-2.638748516194482
 20
55.50786840766477
 10
-5.21497371544865
 20
55.507868407665
 42
-0.4142135623730898
 10
-5.614973715448741
 20
55.90786840766487
 10
-5.614973715448741
 20
56.62796337120562
 42
-0.4142135623731576
 10
-5.21497371544865
 20
57.02796337120571
  0
LINE
  5
C0E
330
B9E
100
AcDbEntity
  8
3
100
AcDbLine
 10
-40.0
 20
50.0
 30
0.0
 11
0.0
 21
50.0
 31
0.0
  0
ATTDEF
  5
C0F
330
B9E
100
AcDbEntity
  8
1
100
AcDbText
 10
-31.30691739422431
 20
40.25
 30
0.0
 40
2.0
  1
XXXXXXXXXXXXXXX
 41
0.8
  7
SANINDUSA
 72
     4
 11
-20.0
 21
41.25
 31
0.0
100
AcDbAttributeDefinition
  3
Observações:
  2
OBS
 70
     0
  0
TEXT
  5
C10
330
B9E
100
AcDbEntity
  8
1
100
AcDbText
 10
-39.0
 20
47.25
 30
0.0
 40
2.0
  1
Observações:
 41
0.8
  7
SANINDUSA
 11
-39.0
 21
48.25
 31
0.0
100
AcDbText
 73
     2
  0
LWPOLYLINE
  5
C11
102
{ACAD_REACTORS
330
BEC
102
}
330
B9E
100
AcDbEntity
  8
9
100
AcDbPolyline
 90
        6
 70
     1
 43
0.0
 10
-29.98468712904878
 20
57.02796337120571
 10
-29.98468712904878
 20
55.507868407665
 10
-32.57692046803459
 20
55.507868407665
 42
-0.4142135623731731
 10
-32.97692046803468
 20
55.90786840766487
 10
-32.97692046803468
 20
56.62796337120562
 42
-0.4142135623731576
 10
-32.57692046803459
 20
57.02796337120571
  0
LWPOLYLINE
  5
C12
102
{ACAD_REACTORS
330
BEC
102
}
330
B9E
100
AcDbEntity
  8
9
100
AcDbPolyline
 90
        4
 70
     1
 43
0.0
 10
-24.19231812786165
 20
59.87619128370352
 10
-24.57637781922995
 20
59.87619128370352
 10
-24.57637781922995
 20
59.28412752246913
 10
-24.19231812786165
 20
59.28412752246913
  0
ENDBLK
  5
C14
330
B9E
100
AcDbEntity
  8
0
100
AcDbBlockEnd
  0
BLOCK
  5
1061
330
1060
100
AcDbEntity
  8
0
100
AcDbBlockBegin
  2
SW_CENTERMARKSYMBOL_10
 70
     0
 10
0.0
 20
0.0
 30
0.0
  3
SW_CENTERMARKSYMBOL_10
  1

  0
LINE
  5
1062
330
1060
100
AcDbEntity
  8
0
  6
Continuous
 62
     7
370
     0
100
AcDbLine
 10
0.0
 20
0.0
 30
0.0
 11
0.0
 21
2.500000000000002
 31
0.0
  0
LINE
  5
1063
330
1060
100
AcDbEntity
  8
0
  6
Continuous
 62
     7
370
     0
100
AcDbLine
 10
0.0
 20
0.0
 30
0.0
 11
-2.499999999999946
 21
0.0
 31
0.0
  0
LINE
  5
1064
330
1060
100
AcDbEntity
  8
0
  6
Continuous
 62
     7
370
     0
100
AcDbLine
 10
0.0
 20
0.0
 30
0.0
 11
0.0
 21
-2.500000000000002
 31
0.0
  0
LINE
  5
1065
330
1060
100
AcDbEntity
  8
0
  6
Continuous
 62
     7
370
     0
100
AcDbLine
 10
0.0
 20
0.0
 30
0.0
 11
2.499999999999946
 21
0.0
 31
0.0
  0
LINE
  5
1066
330
1060
100
AcDbEntity
  8
0
  6
Continuous
 62
     7
370
     0
100
AcDbLine
 10
0.0
 20
5.000000000000004
 30
0.0
 11
0.0
 21
62.79754525841269
 31
0.0
  0
LINE
  5
1067
330
1060
100
AcDbEntity
  8
0
  6
Continuous
 62
     7
370
     0
100
AcDbLine
 10
-4.999999999999893
 20
0.0
 30
0.0
 11
-62.79754525841285
 21
0.0
 31
0.0
  0
LINE
  5
1068
330
1060
100
AcDbEntity
  8
0
  6
Continuous
 62
     7
370
     0
100
AcDbLine
 10
0.0
 20
-5.000000000000004
 30
0.0
 11
0.0
 21
-62.79754525841269
 31
0.0
  0
LINE
  5
1069
330
1060
100
AcDbEntity
  8
0
  6
Continuous
 62
     7
370
     0
100
AcDbLine
 10
4.999999999999893
 20
0.0
 30
0.0
 11
62.79754525841285
 21
0.0
 31
0.0
  0
ENDBLK
  5
106A
330
1060
100
AcDbEntity
  8
0
100
AcDbBlockEnd
  0
ENDSEC
  0
SECTION
  2
ENTITIES
  0
LINE
  5
1699
330
1F
100
AcDbEntity
  8
SANINDUSA
100
AcDbLine
 10
5286.998648472481
 20
3472.301285399973
 30
0.0
 11
5287.19668381433
 21
3472.301285399973
 31
0.0
  0
LINE
  5
16AD
330
1F
100
AcDbEntity
  8
SANINDUSA
100
AcDbLine
 10
5287.415524633954
 20
3471.55647482748
 30
0.0
 11
5287.415524633954
 21
3472.776027281128
 31
0.0
  0
ELLIPSE
  5
16AF
330
1F
100
AcDbEntity
  8
SANINDUSA
100
AcDbEllipse
 10
5287.395503912048
 20
3472.775994375762
 30
0.0
 11
-0.0141714282365158
 21
-0.014171428237461
 31
0.0
210
0.0
220
0.0
230
0.9999999999999998
 40
0.9979329808705529
 41
2.356803477744651
 42
3.926381829434899
  0
ELLIPSE
  5
16B2
330
1F
100
AcDbEntity
  8
SANINDUSA
100
AcDbEllipse
 10
5287.395503912048
 20
3471.556507732846
 30
0.0
 11
0.0141714282369868
 21
-0.0141714282369858
 31
0.0
210
0.0
220
0.0
230
1.0
 40
0.9979329808707092
 41
5.498396131367747
 42
7.067974482991403
  0
LINE
  5
16B3
330
1F
100
AcDbEntity
  8
SANINDUSA
100
AcDbLine
 10
5287.395536817412
 20
3472.796015097669
 30
0.0
 11
5286.825984279226
 21
3472.796015097631
 31
0.0
  0
LINE
  5
16B6
330
1F
100
AcDbEntity
  8
SANINDUSA
100
AcDbLine
 10
5286.825984279363
 20
3471.536487010939
 30
0.0
 11
5287.395536817413
 21
3471.536487010939
 31
0.0
  0
ELLIPSE
  5
16B8
330
1F
100
AcDbEntity
  8
SANINDUSA
100
AcDbEllipse
 10
5286.826017184729
 20
3471.556507732846
 30
0.0
 11
-0.0141714282361987
 21
-0.014171428237768
 31
0.0
210
0.0
220
0.0
230
0.9999999999999998
 40
0.9979329808709104
 41
5.498396131423088
 42
7.067974482936143
  0
ELLIPSE
  5
16B9
330
1F
100
AcDbEntity
  8
SANINDUSA
100
AcDbEllipse
 10
5286.826017184594
 20
3472.775994375723
 30
0.0
 11
0.0141714282382459
 21
-0.0141714282357298
 31
0.0
210
0.0
220
0.0
230
0.9999999999999998
 40
0.997932980870587
 41
2.356803477755844
 42
3.926381829423617
  0
LINE
  5
16BB
330
1F
100
AcDbEntity
  8
SANINDUSA
100
AcDbLine
 10
5286.805996462687
 20
3472.776027281088
 30
0.0
 11
5286.805996462822
 21
3471.556474827477
 31
0.0
  0
ELLIPSE
  5
16D0
330
1F
100
AcDbEntity
  8
SANINDUSA
100
AcDbEllipse
 10
5287.481457989276
 20
3471.470553571383
 30
0.0
 11
0.0035366109458494
 21
-0.0035366109458464
 31
0.0
210
0.0
220
0.0
230
1.0
 40
0.9996954598818533
 41
5.497939437029295
 42
7.068431177329
  0
ELLIPSE
  5
16D3
330
1F
100
AcDbEntity
  8
SANINDUSA
100
AcDbEllipse
 10
5287.481457989276
 20
3472.861948453297
 30
0.0
 11
-0.0035366109458496
 21
-0.0035366109458464
 31
0.0
210
0.0
220
0.0
230
1.0
 40
0.9996954598818533
 41
2.356346783440333
 42
3.926838523740143
  0
ELLIPSE
  5
16D6
330
1F
100
AcDbEntity
  8
SANINDUSA
100
AcDbEllipse
 10
5286.740063107362
 20
3472.861948453297
 30
0.0
 11
0.0035366109458495
 21
-0.0035366109458464
 31
0.0
210
0.0
220
0.0
230
0.9999999999999998
 40
0.9996954598818692
 41
2.356346783439488
 42
3.92683852373927
  0
ELLIPSE
  5
16D9
330
1F
100
AcDbEntity
  8
SANINDUSA
100
AcDbEllipse
 10
5286.740063107362
 20
3471.470553571383
 30
0.0
 11
-0.0035366109458495
 21
-0.0035366109458464
 31
0.0
210
0.0
220
0.0
230
0.9999999999999998
 40
0.9996954598818993
 41
5.497939437030244
 42
7.068431177329901
  0
LINE
  5
16DB
330
1F
100
AcDbEntity
  8
SANINDUSA
100
AcDbLine
 10
5287.486458750916
 20
3471.470552048219
 30
0.0
 11
5287.486458750916
 21
3472.861949976461
 31
0.0
  0
LINE
  5
16DC
330
1F
100
AcDbEntity
  8
SANINDUSA
100
AcDbLine
 10
5286.740061584198
 20
3471.465552809743
 30
0.0
 11
5287.481459512441
 21
3471.465552809743
 31
0.0
  0
LINE
  5
16DD
330
1F
100
AcDbEntity
  8
SANINDUSA
100
AcDbLine
 10
5287.481459512441
 20
3472.866949214937
 30
0.0
 11
5286.740061584198
 21
3472.866949214937
 31
0.0
  0
LINE
  5
16DE
330
1F
100
AcDbEntity
  8
SANINDUSA
100
AcDbLine
 10
5286.735062345723
 20
3472.861949976461
 30
0.0
 11
5286.735062345723
 21
3471.470552048219
 31
0.0
  0
LWPOLYLINE
  5
16E4
330
1F
100
AcDbEntity
  8
SANINDUSA
100
AcDbPolyline
 90
        6
 70
   128
 43
0.0
 10
5287.37308584943
 20
3472.763202932448
 10
5287.359085849431
 20
3472.763202943987
 10
5287.303085849497
 20
3472.763203159494
 10
5287.079085850217
 20
3472.763204288398
 10
5286.988371446949
 20
3472.763203909229
 10
5286.848435247208
 20
3472.763203173303
  0
ARC
  5
16E8
330
1F
100
AcDbEntity
  8
SANINDUSA
100
AcDbCircle
 10
5286.848434139249
 20
3472.75321116829
 30
0.0
 40
0.0099920050750794
100
AcDbArc
 50
90.0
 51
179.9950606036638
  0
ARC
  5
16EA
330
1F
100
AcDbEntity
  8
SANINDUSA
100
AcDbCircle
 10
5287.373086693827
 20
3472.753210895268
 30
0.0
 40
0.0099920372149336
100
AcDbArc
 50
0.0060036170618518
 51
90.0
  0
LWPOLYLINE
  5
16F2
330
1F
100
AcDbEntity
  8
SANINDUSA
100
AcDbPolyline
 90
        6
 70
   128
 43
0.0
 10
5286.838442134211
 20
3472.753212029687
 10
5286.838442119512
 20
3472.739214167558
 10
5286.838442102254
 20
3472.683222703206
 10
5286.838442369805
 20
3472.459256718344
 10
5286.838442458345
 20
3472.398809262428
 10
5286.83844239643
 20
3472.311279249479
  0
LWPOLYLINE
  5
16F3
330
1F
100
AcDbEntity
  8
SANINDUSA
100
AcDbPolyline
 90
        6
 70
   128
 43
0.0
 10
5287.383075018579
 20
3472.311278008009
 10
5287.383075219372
 20
3472.325275937203
 10
5287.383076198441
 20
3472.381267715615
 10
5287.383077312448
 20
3472.493251028448
 10
5287.383078198089
 20
3472.62323154314
 10
5287.383078730989
 20
3472.753211942264
  0
ARC
  5
1709
330
1F
100
AcDbEntity
  8
SANINDUSA
100
AcDbCircle
 10
5286.84843435189
 20
3472.311280610141
 30
0.0
 40
0.0099919555520145
100
AcDbArc
 50
180.0078023051195
 51
270.0
  0
ARC
  5
170A
330
1F
100
AcDbEntity
  8
SANINDUSA
100
AcDbCircle
 10
5287.373089368898
 20
3472.311279621304
 30
0.0
 40
0.0099856498119779
100
AcDbArc
 50
269.9798058870449
 51
359.9907432207899
  0
LINE
  5
170C
330
1F
100
AcDbEntity
  8
SANINDUSA
100
AcDbLine
 10
5287.196859267289
 20
3472.301286466108
 30
0.0
 11
5287.278991262672
 21
3472.301291433525
 31
0.0
  0
LWPOLYLINE
  5
170D
330
1F
100
AcDbEntity
  8
SANINDUSA
100
AcDbPolyline
 90
        3
 70
   128
 43
0.0
 10
5286.871933685559
 20
3472.301287958665
 10
5286.954475954156
 20
3472.301285513971
 10
5286.998473011122
 20
3472.301286466108
  0
CIRCLE
  5
173A
330
1F
100
AcDbEntity
  8
SANINDUSA
100
AcDbCircle
 10
5287.310775297941
 20
3472.197557167107
 30
0.0
 40
0.0107487520050112
  0
CIRCLE
  5
173C
330
1F
100
AcDbEntity
  8
SANINDUSA
100
AcDbCircle
 10
5286.910751313884
 20
3472.197573330451
 30
0.0
 40
0.0107490851264112
  0
CIRCLE
  5
173E
330
1F
100
AcDbEntity
  8
SANINDUSA
100
AcDbCircle
 10
5287.230790809033
 20
3472.197579723807
 30
0.0
 40
0.0107478874059059
  0
CIRCLE
  5
1740
330
1F
100
AcDbEntity
  8
SANINDUSA
100
AcDbCircle
 10
5287.310776622217
 20
3472.117568385972
 30
0.0
 40
0.0107482831134231
  0
CIRCLE
  5
1742
330
1F
100
AcDbEntity
  8
SANINDUSA
100
AcDbCircle
 10
5286.990734831401
 20
3472.197590856495
 30
0.0
 40
0.0107495753693078
  0
CIRCLE
  5
1744
330
1F
100
AcDbEntity
  8
SANINDUSA
100
AcDbCircle
 10
5286.910751121635
 20
3472.117585213733
 30
0.0
 40
0.0107491141732298
  0
CIRCLE
  5
1746
330
1F
100
AcDbEntity
  8
SANINDUSA
100
AcDbCircle
 10
5287.150781897661
 20
3472.197606324614
 30
0.0
 40
0.0107476251794608
  0
CIRCLE
  5
1748
330
1F
100
AcDbEntity
  8
SANINDUSA
100
AcDbCircle
 10
5287.230794941366
 20
3472.117592500877
 30
0.0
 40
0.0107475887540062
  0
CIRCLE
  5
174A
330
1F
100
AcDbEntity
  8
SANINDUSA
100
AcDbCircle
 10
5287.070749405533
 20
3472.197611638332
 30
0.0
 40
0.0107486939066605
  0
CIRCLE
  5
174C
330
1F
100
AcDbEntity
  8
SANINDUSA
100
AcDbCircle
 10
5287.310778332181
 20
3472.037583537677
 30
0.0
 40
0.0107476302107657
  0
CIRCLE
  5
174E
330
1F
100
AcDbEntity
  8
SANINDUSA
100
AcDbCircle
 10
5286.990730947705
 20
3472.117604570198
 30
0.0
 40
0.0107495103871537
  0
CIRCLE
  5
1750
330
1F
100
AcDbEntity
  8
SANINDUSA
100
AcDbCircle
 10
5286.91075032441
 20
3472.037599433199
 30
0.0
 40
0.0107485734656765
  0
CIRCLE
  5
1752
330
1F
100
AcDbEntity
  8
SANINDUSA
100
AcDbCircle
 10
5287.23079693551
 20
3472.037608381927
 30
0.0
 40
0.0107471179788385
  0
CIRCLE
  5
1754
330
1F
100
AcDbEntity
  8
SANINDUSA
100
AcDbCircle
 10
5287.15078605581
 20
3472.117622238638
 30
0.0
 40
0.0107475173223812
  0
CIRCLE
  5
1756
330
1F
100
AcDbEntity
  8
SANINDUSA
100
AcDbCircle
 10
5287.310782267341
 20
3471.957603639426
 30
0.0
 40
0.0107466045584366
  0
CIRCLE
  5
1758
330
1F
100
AcDbEntity
  8
SANINDUSA
100
AcDbCircle
 10
5287.070747034941
 20
3472.117628361107
 30
0.0
 40
0.0107487100924578
  0
CIRCLE
  5
175A
330
1F
100
AcDbEntity
  8
SANINDUSA
100
AcDbCircle
 10
5286.990728109742
 20
3472.037620261126
 30
0.0
 40
0.0107491375055701
  0
CIRCLE
  5
175C
330
1F
100
AcDbEntity
  8
SANINDUSA
100
AcDbCircle
 10
5286.910749581167
 20
3471.957619313729
 30
0.0
 40
0.0107478058970683
  0
CIRCLE
  5
175E
330
1F
100
AcDbEntity
  8
SANINDUSA
100
AcDbCircle
 10
5287.230796272242
 20
3471.957629320299
 30
0.0
 40
0.0107464917905774
  0
CIRCLE
  5
1760
330
1F
100
AcDbEntity
  8
SANINDUSA
100
AcDbCircle
 10
5287.150788901755
 20
3472.037638560305
 30
0.0
 40
0.0107474376734336
  0
CIRCLE
  5
1762
330
1F
100
AcDbEntity
  8
SANINDUSA
100
AcDbCircle
 10
5287.0707450892
 20
3472.037645441738
 30
0.0
 40
0.0107486744353046
  0
CIRCLE
  5
1764
330
1F
100
AcDbEntity
  8
SANINDUSA
100
AcDbCircle
 10
5287.310788689601
 20
3471.877631255017
 30
0.0
 40
0.0107450409541293
  0
CIRCLE
  5
1766
330
1F
100
AcDbEntity
  8
SANINDUSA
100
AcDbCircle
 10
5286.990727731233
 20
3471.957639528225
 30
0.0
 40
0.0107484833684434
  0
CIRCLE
  5
1768
330
1F
100
AcDbEntity
  8
SANINDUSA
100
AcDbCircle
 10
5286.910749409929
 20
3471.877643975201
 30
0.0
 40
0.0107472802627401
  0
CIRCLE
  5
176A
330
1F
100
AcDbEntity
  8
SANINDUSA
100
AcDbCircle
 10
5287.150789369976
 20
3471.957655884886
 30
0.0
 40
0.0107473980526259
  0
CIRCLE
  5
176C
330
1F
100
AcDbEntity
  8
SANINDUSA
100
AcDbCircle
 10
5287.230792739018
 20
3471.877656409785
 30
0.0
 40
0.0107460256404359
  0
CIRCLE
  5
176E
330
1F
100
AcDbEntity
  8
SANINDUSA
100
AcDbCircle
 10
5287.070745246257
 20
3471.957662901429
 30
0.0
 40
0.0107484733106573
  0
CIRCLE
  5
1770
330
1F
100
AcDbEntity
  8
SANINDUSA
100
AcDbCircle
 10
5286.990729707414
 20
3471.877662468825
 30
0.0
 40
0.0107479449244449
  0
CIRCLE
  5
1772
330
1F
100
AcDbEntity
  8
SANINDUSA
100
AcDbCircle
 10
5287.310787194825
 20
3471.797665334437
 30
0.0
 40
0.0107454746253558
  0
CIRCLE
  5
1774
330
1F
100
AcDbEntity
  8
SANINDUSA
100
AcDbCircle
 10
5286.91074194451
 20
3471.797670212013
 30
0.0
 40
0.0107482785314065
  0
CIRCLE
  5
1776
330
1F
100
AcDbEntity
  8
SANINDUSA
100
AcDbCircle
 10
5287.150784750469
 20
3471.877674763479
 30
0.0
 40
0.0107475755917199
  0
CIRCLE
  5
1778
330
1F
100
AcDbEntity
  8
SANINDUSA
100
AcDbCircle
 10
5287.070748041582
 20
3471.87768114997
 30
0.0
 40
0.0107481517867014
  0
CIRCLE
  5
177A
330
1F
100
AcDbEntity
  8
SANINDUSA
100
AcDbCircle
 10
5287.230787676882
 20
3471.797683202126
 30
0.0
 40
0.0107476507165238
  0
CIRCLE
  5
177C
330
1F
100
AcDbEntity
  8
SANINDUSA
100
AcDbCircle
 10
5286.990732918899
 20
3471.797682521795
 30
0.0
 40
0.0107491917073878
  0
CIRCLE
  5
177E
330
1F
100
AcDbEntity
  8
SANINDUSA
100
AcDbCircle
 10
5287.150773768051
 20
3471.797696990119
 30
0.0
 40
0.0107471339224689
  0
CIRCLE
  5
1780
330
1F
100
AcDbEntity
  8
SANINDUSA
100
AcDbCircle
 10
5287.070751047222
 20
3471.797698772649
 30
0.0
 40
0.0107487795925207
  0
LWPOLYLINE
  5
1788
330
1F
100
AcDbEntity
  8
SANINDUSA
100
AcDbPolyline
 90
        3
 70
   128
 43
0.0
 10
5287.278991262672
 20
3472.301291433525
 10
5287.329085379419
 20
3472.301294463264
 10
5287.37308584943
 20
3472.301293972112
  0
LINE
  5
1789
330
1F
100
AcDbEntity
  8
SANINDUSA
100
AcDbLine
 10
5286.848435247208
 20
3472.301288654629
 30
0.0
 11
5286.871933685559
 21
3472.301287958665
 31
0.0
  0
CIRCLE
  5
178D
330
1F
100
AcDbEntity
  8
SANINDUSA
100
AcDbCircle
 10
5287.110758372578
 20
3471.646196301615
 30
0.0
 40
0.0739783845402035
  0
LINE
  5
17BB
330
1F
100
AcDbEntity
  8
SANINDUSA
100
AcDbLine
 10
5287.868844365323
 20
3472.173508390999
 30
0.0
 11
5288.605086631696
 21
3472.173508390999
 31
0.0
  0
LINE
  5
17BC
330
1F
100
AcDbEntity
  8
SANINDUSA
100
AcDbLine
 10
5287.866266520317
 20
3472.133508391893
 30
0.0
 11
5288.607664472977
 21
3472.133508391893
 31
0.0
  0
LINE
  5
17BE
330
1F
100
AcDbEntity
  8
SANINDUSA
100
AcDbLine
 10
5287.861267281959
 20
3472.133508391893
 30
0.0
 11
5287.861845431516
 21
3472.166630557953
 31
0.0
  0
LINE
  5
17C0
330
1F
100
AcDbEntity
  8
SANINDUSA
100
AcDbLine
 10
5287.861267281959
 20
3472.133508391893
 30
0.0
 11
5287.866266520317
 21
3472.133508391893
 31
0.0
  0
ARC
  5
17C2
330
1F
100
AcDbEntity
  8
SANINDUSA
100
AcDbCircle
 10
5287.868844365382
 20
3472.166508390999
 30
0.0
 40
0.007
100
AcDbArc
 50
90.0
 51
178.9999999902799
  0
LINE
  5
17C4
330
1F
100
AcDbEntity
  8
SANINDUSA
100
AcDbLine
 10
5288.185269720475
 20
3472.045752808667
 30
0.0
 11
5288.288661248604
 21
3472.045752808667
 31
0.0
  0
LINE
  5
17CB
330
1F
100
AcDbEntity
  8
SANINDUSA
100
AcDbLine
 10
5287.929459936539
 20
3472.133508391893
 30
0.0
 11
5287.931065655867
 21
3472.087526738859
 31
0.0
  0
ARC
  5
17D2
330
1F
100
AcDbEntity
  8
SANINDUSA
100
AcDbCircle
 10
5287.949984621592
 20
3472.087980739426
 30
0.0
 40
0.0189244122920063
100
AcDbArc
 50
181.3746694906055
 51
270.0
  0
LINE
  5
17D4
330
1F
100
AcDbEntity
  8
SANINDUSA
100
AcDbLine
 10
5288.174095220487
 20
3472.057736002124
 30
0.0
 11
5288.185269720475
 21
3472.045752808667
 31
0.0
  0
LINE
  5
17D5
330
1F
100
AcDbEntity
  8
SANINDUSA
100
AcDbLine
 10
5288.158377162127
 20
3472.068741910245
 30
0.0
 11
5288.174095220487
 21
3472.057736002124
 31
0.0
  0
LINE
  5
17D8
330
1F
100
AcDbEntity
  8
SANINDUSA
100
AcDbLine
 10
5288.542973823467
 20
3472.090633735275
 30
0.0
 11
5288.54447103254
 21
3472.133508391893
 31
0.0
  0
LINE
  5
17D9
330
1F
100
AcDbEntity
  8
SANINDUSA
100
AcDbLine
 10
5288.288661248604
 20
3472.045752808667
 30
0.0
 11
5288.299835748593
 21
3472.057736002124
 31
0.0
  0
LINE
  5
17DA
330
1F
100
AcDbEntity
  8
SANINDUSA
100
AcDbLine
 10
5288.299835748593
 20
3472.057736002124
 30
0.0
 11
5288.315559598818
 21
3472.068745941868
 31
0.0
  0
ARC
  5
17DD
330
1F
100
AcDbEntity
  8
SANINDUSA
100
AcDbCircle
 10
5288.523971664385
 20
3472.088026173479
 30
0.0
 40
0.0188995846414179
100
AcDbArc
 50
270.3348922746803
 51
358.0369554647942
  0
LWPOLYLINE
  5
17E1
330
1F
100
AcDbEntity
  8
SANINDUSA
100
AcDbPolyline
 90
        4
 70
   128
 43
0.0
 10
5288.54286015741
 20
3472.087378770328
 10
5288.542887039105
 20
3472.088149346626
 10
5288.54291660301
 20
3472.08899506948
 10
5288.542973823467
 20
3472.090633735275
  0
LINE
  5
17E2
330
1F
100
AcDbEntity
  8
SANINDUSA
100
AcDbLine
 10
5288.612085528295
 20
3472.166630557953
 30
0.0
 11
5288.612663693349
 21
3472.133508391893
 31
0.0
  0
LINE
  5
17E4
330
1F
100
AcDbEntity
  8
SANINDUSA
100
AcDbLine
 10
5288.607664472977
 20
3472.133508391893
 30
0.0
 11
5288.612663693349
 21
3472.133508391893
 31
0.0
  0
ARC
  5
17E5
330
1F
100
AcDbEntity
  8
SANINDUSA
100
AcDbCircle
 10
5288.605086603698
 20
3472.166508390999
 30
0.0
 40
0.0070000000000001
100
AcDbArc
 50
1.000000009720081
 51
90.0
  0
LWPOLYLINE
  5
183D
330
1F
100
AcDbEntity
  8
SANINDUSA
100
AcDbPolyline
 90
       20
 70
   128
 43
0.0
 10
5288.236808426301
 20
3472.067923751298
 10
5288.224462397019
 20
3472.068006612575
 10
5288.208460427443
 20
3472.068142608023
 10
5288.192455984274
 20
3472.068306684709
 10
5288.176588542381
 20
3472.068502374208
 10
5288.160996175925
 20
3472.068708904302
 10
5288.145765043418
 20
3472.06890085361
 10
5288.130882925908
 20
3472.069065295374
 10
5288.116325564305
 20
3472.069195568777
 10
5288.10206896774
 20
3472.069289207674
 10
5288.08808911554
 20
3472.069347225345
 10
5288.074362344662
 20
3472.069373816466
 10
5288.060864813249
 20
3472.069376059091
 10
5288.047573215882
 20
3472.069363393104
 10
5288.034464485566
 20
3472.069346241868
 10
5288.016376502435
 20
3472.069330349779
 10
5287.99853897802
 20
3472.069344513333
 10
5287.980892605702
 20
3472.069398835516
 10
5287.963375217834
 20
3472.069487840152
 10
5287.949984621592
 20
3472.069056327134
  0
LWPOLYLINE
  5
183E
330
1F
100
AcDbEntity
  8
SANINDUSA
100
AcDbPolyline
 90
       20
 70
   128
 43
0.0
 10
5288.236808426301
 20
3472.067923751298
 10
5288.249154455582
 20
3472.068006612575
 10
5288.265156425158
 20
3472.068142608023
 10
5288.281160868327
 20
3472.068306684709
 10
5288.297028310219
 20
3472.068502374208
 10
5288.312620676677
 20
3472.068708904302
 10
5288.327851809184
 20
3472.06890085361
 10
5288.342733926693
 20
3472.069065295374
 10
5288.357291288297
 20
3472.069195568777
 10
5288.371547884861
 20
3472.069289207674
 10
5288.385527737061
 20
3472.069347225345
 10
5288.39925450794
 20
3472.069373816466
 10
5288.412752039353
 20
3472.069376059091
 10
5288.426043636719
 20
3472.069363393104
 10
5288.439152367036
 20
3472.069346241868
 10
5288.457240350167
 20
3472.069330349779
 10
5288.475077874581
 20
3472.069344513333
 10
5288.4927242469
 20
3472.069398835516
 10
5288.510241634766
 20
3472.069487840152
 10
5288.524082131306
 20
3472.069126911677
  0
CIRCLE
  5
1DF6
330
1F
100
AcDbEntity
  8
SANINDUSA
100
AcDbCircle
 10
5287.110760548319
 20
3471.64625101234
 30
0.0
 40
0.045
  0
LWPOLYLINE
  5
21CD
330
1F
100
AcDbEntity
  8
SANINDUSA
100
AcDbPolyline
 90
        6
 70
   128
 43
0.0
 10
5290.210811198438
 20
3472.067252502148
 10
5290.212306970087
 20
3472.067285843408
 10
5290.218779796091
 20
3472.067695580637
 10
5290.223611467805
 20
3472.068281494296
 10
5290.228845470872
 20
3472.069240078545
 10
5290.229024046388
 20
3472.069285534537
  0
LWPOLYLINE
  5
21CE
330
1F
100
AcDbEntity
  8
SANINDUSA
100
AcDbPolyline
 90
       22
 70
   128
 43
0.0
 10
5290.019417041269
 20
3472.067851685203
 10
5290.020583265748
 20
3472.067840717948
 10
5290.021802180734
 20
3472.067846514499
 10
5290.023073309388
 20
3472.067852057732
 10
5290.024396651712
 20
3472.067849450028
 10
5290.025772326913
 20
3472.067836567975
 10
5290.026479714837
 20
3472.067826271272
 10
5290.02683841559
 20
3472.067820184147
 10
5290.027200334993
 20
3472.067813471175
 10
5290.027565473047
 20
3472.067806147253
 10
5290.027933948961
 20
3472.067798197485
 10
5290.028724902597
 20
3472.067779444373
 10
5290.029887193171
 20
3472.067750081635
 10
5290.031482094255
 20
3472.067708812869
 10
5290.034155243364
 20
3472.067639380908
 10
5290.037536376443
 20
3472.067554012156
 10
5290.041167610612
 20
3472.06746719054
 10
5290.044696205583
 20
3472.067388467706
 10
5290.04812132689
 20
3472.067317165649
 10
5290.051442855325
 20
3472.067250870383
 10
5290.054866069284
 20
3472.067182757175
 10
5290.058161729302
 20
3472.067114375747
  0
ARC
  5
21CF
330
1F
100
AcDbEntity
  8
SANINDUSA
100
AcDbCircle
 10
5290.224411299284
 20
3472.089657851774
 30
0.0
 40
0.0209000493030934
100
AcDbArc
 50
282.733361481418
 51
358.018893193118
  0
ARC
  5
21D0
330
1F
100
AcDbEntity
  8
SANINDUSA
100
AcDbCircle
 10
5289.496333137724
 20
3472.099777669689
 30
0.0
 40
0.0209001412707025
100
AcDbArc
 50
239.1344455750682
 51
268.7862738454031
  0
LINE
  5
21D1
330
1F
100
AcDbEntity
  8
SANINDUSA
100
AcDbLine
 10
5290.058161729302
 20
3472.067114375747
 30
0.0
 11
5290.071479671922
 21
3472.057736002124
 31
0.0
  0
LINE
  5
21D2
330
1F
100
AcDbEntity
  8
SANINDUSA
100
AcDbLine
 10
5290.197220200028
 20
3472.057736002124
 30
0.0
 11
5290.210811198438
 21
3472.067252502148
 31
0.0
  0
LINE
  5
21D3
330
1F
100
AcDbEntity
  8
SANINDUSA
100
AcDbLine
 10
5290.071479671922
 20
3472.057736002124
 30
0.0
 11
5290.082654112306
 21
3472.045752808667
 31
0.0
  0
LINE
  5
21D4
330
1F
100
AcDbEntity
  8
SANINDUSA
100
AcDbLine
 10
5290.186045640435
 20
3472.045752808667
 30
0.0
 11
5290.197220200028
 21
3472.057736002124
 31
0.0
  0
LINE
  5
21D7
330
1F
100
AcDbEntity
  8
SANINDUSA
100
AcDbLine
 10
5288.913651704785
 20
3472.133508391893
 30
0.0
 11
5288.914229854341
 21
3472.166630557953
 31
0.0
  0
LINE
  5
21D8
330
1F
100
AcDbEntity
  8
SANINDUSA
100
AcDbLine
 10
5288.913651704785
 20
3472.133508391893
 30
0.0
 11
5288.918650943141
 21
3472.133508391893
 31
0.0
  0
LINE
  5
21DB
330
1F
100
AcDbEntity
  8
SANINDUSA
100
AcDbLine
 10
5288.918650943141
 20
3472.133508391893
 30
0.0
 11
5290.310048812356
 21
3472.133508391893
 31
0.0
  0
LINE
  5
21DD
330
1F
100
AcDbEntity
  8
SANINDUSA
100
AcDbLine
 10
5290.314469927277
 20
3472.166630557953
 30
0.0
 11
5290.315048092332
 21
3472.133508391893
 31
0.0
  0
LINE
  5
21DE
330
1F
100
AcDbEntity
  8
SANINDUSA
100
AcDbLine
 10
5290.310048812356
 20
3472.133508391893
 30
0.0
 11
5290.315048092332
 21
3472.133508391893
 31
0.0
  0
ARC
  5
21E0
330
1F
100
AcDbEntity
  8
SANINDUSA
100
AcDbCircle
 10
5288.921228788208
 20
3472.166508390999
 30
0.0
 40
0.0069999999999999
100
AcDbArc
 50
90.0
 51
178.9999999902799
  0
LINE
  5
21E1
330
1F
100
AcDbEntity
  8
SANINDUSA
100
AcDbLine
 10
5288.921228788149
 20
3472.173508390999
 30
0.0
 11
5290.307471030679
 21
3472.173508390999
 31
0.0
  0
ARC
  5
21E3
330
1F
100
AcDbEntity
  8
SANINDUSA
100
AcDbCircle
 10
5290.307471026523
 20
3472.166508390999
 30
0.0
 40
0.0070000000000004
100
AcDbArc
 50
1.000000009720081
 51
90.0
  0
ARC
  5
21EC
330
1F
100
AcDbEntity
  8
SANINDUSA
100
AcDbCircle
 10
5289.455550275573
 20
3472.066267100857
 30
0.0
 40
0.0261013742543822
100
AcDbArc
 50
58.25784229612636
 51
88.99974247429028
  0
LINE
  5
21F1
330
1F
100
AcDbEntity
  8
SANINDUSA
100
AcDbLine
 10
5290.245430105653
 20
3472.092692502058
 30
0.0
 11
5290.246855371918
 21
3472.133508391893
 31
0.0
  0
ARC
  5
21F3
330
1F
100
AcDbEntity
  8
SANINDUSA
100
AcDbCircle
 10
5289.497890919989
 20
3472.135526813147
 30
0.0
 40
0.055075749892547
100
AcDbArc
 50
238.7050266147932
 51
257.1166314074675
  0
LWPOLYLINE
  5
21F6
330
1F
100
AcDbEntity
  8
SANINDUSA
100
AcDbPolyline
 90
        9
 70
   128
 43
0.0
 10
5289.002823152866
 20
3472.100274831272
 10
5289.002880775657
 20
3472.100273825443
 10
5289.003051446107
 20
3472.100270852661
 10
5289.003328600255
 20
3472.100266009784
 10
5289.003701613572
 20
3472.100259497977
 10
5289.004156166043
 20
3472.100251563108
 10
5289.004674830761
 20
3472.100242510653
 10
5289.005237692323
 20
3472.100232690787
 10
5289.005823151495
 20
3472.100222468591
  0
ARC
  5
21F7
330
1F
100
AcDbEntity
  8
SANINDUSA
100
AcDbCircle
 10
5289.003187909182
 20
3472.121171651402
 30
0.0
 40
0.0208999999999997
100
AcDbArc
 50
182.0000000037536
 51
268.9999999902799
  0
LINE
  5
21F9
330
1F
100
AcDbEntity
  8
SANINDUSA
100
AcDbLine
 10
5289.005823151495
 20
3472.100222468591
 30
0.0
 11
5289.456005924669
 21
3472.092364497698
 31
0.0
  0
LINE
  5
2233
330
1F
100
AcDbEntity
  8
SANINDUSA
100
AcDbLine
 10
5288.982300640372
 20
3472.120442252821
 30
0.0
 11
5288.981844359365
 21
3472.133508391893
 31
0.0
  0
LWPOLYLINE
  5
2234
330
1F
100
AcDbEntity
  8
SANINDUSA
100
AcDbPolyline
 90
       10
 70
   128
 43
0.0
 10
5290.245298856225
 20
3472.088935338176
 10
5290.245317929712
 20
3472.08948116771
 10
5290.245346659151
 20
3472.090305760718
 10
5290.245398038354
 20
3472.091775745369
 10
5290.245419496026
 20
3472.092390343762
 10
5290.245429748026
 20
3472.092685289896
 10
5290.245433443513
 20
3472.092788107908
 10
5290.245433562723
 20
3472.092794724023
 10
5290.245431416956
 20
3472.092733092821
 10
5290.245430105653
 20
3472.092692502058
  0
LWPOLYLINE
  5
2235
330
1F
100
AcDbEntity
  8
SANINDUSA
100
AcDbPolyline
 90
       37
 70
   128
 43
0.0
 10
5290.058161729302
 20
3472.067114375747
 10
5290.058265512836
 20
3472.067107427405
 10
5290.058817857232
 20
3472.067095279908
 10
5290.05997931334
 20
3472.067093365109
 10
5290.061632865396
 20
3472.067091748333
 10
5290.063789719072
 20
3472.067089840984
 10
5290.066521399942
 20
3472.067087441898
 10
5290.069749706712
 20
3472.067085221624
 10
5290.073332899538
 20
3472.067083768762
 10
5290.077335828271
 20
3472.067082941747
 10
5290.081865423647
 20
3472.067082539416
 10
5290.086777204003
 20
3472.067082837439
 10
5290.091886037316
 20
3472.067084200895
 10
5290.097287648645
 20
3472.067085713363
 10
5290.103115075556
 20
3472.067085869825
 10
5290.109170907465
 20
3472.067085646307
 10
5290.115257256951
 20
3472.067085892177
 10
5290.121476524797
 20
3472.067085601604
 10
5290.127971523729
 20
3472.06708528868
 10
5290.134513491121
 20
3472.067085549451
 10
5290.141025417772
 20
3472.067085877276
 10
5290.14748906466
 20
3472.067087583459
 10
5290.154050224749
 20
3472.067092024005
 10
5290.160459869828
 20
3472.067098312294
 10
5290.166107290712
 20
3472.067105755425
 10
5290.171553367105
 20
3472.067114658869
 10
5290.176897638765
 20
3472.067122914112
 10
5290.181953543154
 20
3472.067127965605
 10
5290.186745160546
 20
3472.067129112995
 10
5290.191171997514
 20
3472.067127451516
 10
5290.195314758745
 20
3472.067123383498
 10
5290.199007743325
 20
3472.067116834438
 10
5290.202151292291
 20
3472.067109085834
 10
5290.204821341959
 20
3472.067101627803
 10
5290.207055085626
 20
3472.067095309711
 10
5290.208751672235
 20
3472.067089967644
 10
5290.210811198438
 20
3472.067252502148
  0
LINE
  5
2238
330
1F
100
AcDbEntity
  8
SANINDUSA
100
AcDbLine
 10
5290.134349935975
 20
3472.045752808667
 30
0.0
 11
5290.186045640435
 21
3472.045752808667
 31
0.0
  0
LINE
  5
2239
330
1F
100
AcDbEntity
  8
SANINDUSA
100
AcDbLine
 10
5290.082654112306
 20
3472.045752808667
 30
0.0
 11
5290.134349935975
 21
3472.045752808667
 31
0.0
  0
ARC
  5
2256
330
1F
100
AcDbEntity
  8
SANINDUSA
100
AcDbCircle
 10
5291.184844817966
 20
3539.810125124777
 30
0.0
 40
67.75229761908211
100
AcDbArc
 50
268.5715616218143
 51
269.0143893619636
  0
LWPOLYLINE
  5
22AB
330
1F
100
AcDbEntity
  8
SANINDUSA
100
AcDbPolyline
 90
        5
 70
   128
 43
0.0
 10
5291.794458644609
 20
3472.067116655625
 10
5291.76707102559
 20
3472.067690104461
 10
5291.528539495687
 20
3472.072686866141
 10
5291.37787135146
 20
3472.075842812872
 10
5291.232300954084
 20
3472.078892111993
  0
LWPOLYLINE
  5
22AC
330
1F
100
AcDbEntity
  8
SANINDUSA
100
AcDbPolyline
 90
        3
 70
   128
 43
0.0
 10
5291.965377705317
 20
3472.069258094049
 10
5291.956307428102
 20
3472.067711889959
 10
5291.947028296213
 20
3472.067099608696
  0
LWPOLYLINE
  5
22AD
330
1F
100
AcDbEntity
  8
SANINDUSA
100
AcDbPolyline
 90
        3
 70
   128
 43
0.0
 10
5291.794458644609
 20
3472.067116655625
 10
5291.794487493257
 20
3472.067111745692
 10
5291.79451383851
 20
3472.067098595417
  0
LWPOLYLINE
  5
22AE
330
1F
100
AcDbEntity
  8
SANINDUSA
100
AcDbPolyline
 90
        3
 70
   128
 43
0.0
 10
5291.946972387056
 20
3472.067081533587
 10
5291.946998017053
 20
3472.067094452894
 10
5291.947028296213
 20
3472.067099608696
  0
LINE
  5
22AF
330
1F
100
AcDbEntity
  8
SANINDUSA
100
AcDbLine
 10
5291.79451383851
 20
3472.067098595417
 30
0.0
 11
5291.807885067682
 21
3472.057736002124
 31
0.0
  0
LINE
  5
22B0
330
1F
100
AcDbEntity
  8
SANINDUSA
100
AcDbLine
 10
5291.933625595788
 20
3472.057736002124
 30
0.0
 11
5291.946972387056
 21
3472.067081533587
 31
0.0
  0
LWPOLYLINE
  5
22B1
330
1F
100
AcDbEntity
  8
SANINDUSA
100
AcDbPolyline
 90
        3
 70
   128
 43
0.0
 10
5291.794539826135
 20
3472.071015812672
 10
5291.795696633081
 20
3472.070819571829
 10
5291.796750800829
 20
3472.070293285167
  0
LWPOLYLINE
  5
22B2
330
1F
100
AcDbEntity
  8
SANINDUSA
100
AcDbPolyline
 90
       38
 70
   128
 43
0.0
 10
5291.794555204134
 20
3472.071015842474
 10
5291.79505254529
 20
3472.071016781247
 10
5291.796044247369
 20
3472.07101669929
 10
5291.797548907022
 20
3472.071015931881
 10
5291.799623506289
 20
3472.07101438216
 10
5291.802215950708
 20
3472.071012318349
 10
5291.805213229875
 20
3472.071010172582
 10
5291.808661596994
 20
3472.071008287585
 10
5291.812658088426
 20
3472.071006961382
 10
5291.817078488092
 20
3472.071006402588
 10
5291.821766512613
 20
3472.071006581402
 10
5291.826793329935
 20
3472.071006641006
 10
5291.832284586649
 20
3472.071005866146
 10
5291.838056819658
 20
3472.07100501678
 10
5291.843885438662
 20
3472.071003675676
 10
5291.849900024157
 20
3472.071001976944
 10
5291.85624028943
 20
3472.071002036548
 10
5291.862686650972
 20
3472.071003012574
 10
5291.87288226388
 20
3472.071004048205
 10
5291.878071801882
 20
3472.071007602131
 10
5291.883226888399
 20
3472.071011498786
 10
5291.888373749475
 20
3472.071014240599
 10
5291.893436568003
 20
3472.071016393817
 10
5291.898487346391
 20
3472.071019098378
 10
5291.903400914888
 20
3472.071022808767
 10
5291.909002797822
 20
3472.071028016723
 10
5291.914338724833
 20
3472.071033366239
 10
5291.919512765627
 20
3472.071038954175
 10
5291.924332158785
 20
3472.071043074346
 10
5291.92863525651
 20
3472.071043320215
 10
5291.932543533068
 20
3472.071040205872
 10
5291.936122672777
 20
3472.07103503517
 10
5291.939229624491
 20
3472.071028605319
 10
5291.941759841662
 20
3472.071021840192
 10
5291.943805711489
 20
3472.071015350735
 10
5291.945388095598
 20
3472.071009353018
 10
5291.946431892137
 20
3472.071003936445
 10
5291.946468966227
 20
3472.071003616071
  0
LWPOLYLINE
  5
22B3
330
1F
100
AcDbEntity
  8
SANINDUSA
100
AcDbPolyline
 90
        3
 70
   128
 43
0.0
 10
5291.944735424738
 20
3472.070276230789
 10
5291.945763724069
 20
3472.070793979085
 10
5291.946972625474
 20
3472.070999212778
  0
LINE
  5
22B5
330
1F
100
AcDbEntity
  8
SANINDUSA
100
AcDbLine
 10
5291.796750800829
 20
3472.070293285167
 30
0.0
 11
5291.81045772336
 21
3472.060695581353
 31
0.0
  0
LINE
  5
22B6
330
1F
100
AcDbEntity
  8
SANINDUSA
100
AcDbLine
 10
5291.931052820902
 20
3472.060695581353
 30
0.0
 11
5291.944735424738
 21
3472.070276230789
 31
0.0
  0
LWPOLYLINE
  5
22B8
330
1F
100
AcDbEntity
  8
SANINDUSA
100
AcDbPolyline
 90
        4
 70
   128
 43
0.0
 10
5291.794539826135
 20
3472.071015812672
 10
5291.769296782236
 20
3472.071544423914
 10
5291.537901835661
 20
3472.076391592837
 10
5291.232382672053
 20
3472.08279126159
  0
LWPOLYLINE
  5
22C0
330
1F
100
AcDbEntity
  8
SANINDUSA
100
AcDbPolyline
 90
        3
 70
   128
 43
0.0
 10
5291.964526670199
 20
3472.073064081586
 10
5291.955849545221
 20
3472.071584910369
 10
5291.946972625474
 20
3472.070999212778
  0
LINE
  5
22FC
330
1F
100
AcDbEntity
  8
SANINDUSA
100
AcDbLine
 10
5292.050875323038
 20
3472.166630557953
 30
0.0
 11
5292.051453488092
 21
3472.133508391893
 31
0.0
  0
LINE
  5
22FD
330
1F
100
AcDbEntity
  8
SANINDUSA
100
AcDbLine
 10
5292.051453488092
 20
3472.133508391893
 30
0.0
 11
5292.047552960138
 21
3472.133508391893
 31
0.0
  0
LINE
  5
22FE
330
1F
100
AcDbEntity
  8
SANINDUSA
100
AcDbLine
 10
5292.046975987176
 20
3472.16656249364
 30
0.0
 11
5292.047552960138
 21
3472.133508391893
 31
0.0
  0
ARC
  5
22FF
330
1F
100
AcDbEntity
  8
SANINDUSA
100
AcDbCircle
 10
5292.043876422283
 20
3472.166508390999
 30
0.0
 40
0.0031
100
AcDbArc
 50
1.000000009720081
 51
90.0
  0
LINE
  5
2300
330
1F
100
AcDbEntity
  8
SANINDUSA
100
AcDbLine
 10
5291.987514989595
 20
3472.169608391105
 30
0.0
 11
5292.043876426439
 21
3472.169608391105
 31
0.0
  0
ARC
  5
2301
330
1F
100
AcDbEntity
  8
SANINDUSA
100
AcDbCircle
 10
5291.987515040315
 20
3472.166508390999
 30
0.0
 40
0.0031000000000001
100
AcDbArc
 50
90.0
 51
177.9999999962464
  0
LINE
  5
2302
330
1F
100
AcDbEntity
  8
SANINDUSA
100
AcDbLine
 10
5291.981703894357
 20
3472.088924914813
 30
0.0
 11
5291.984416978579
 21
3472.166616579267
 31
0.0
  0
ARC
  5
2303
330
1F
100
AcDbEntity
  8
SANINDUSA
100
AcDbCircle
 10
5291.960816679967
 20
3472.08965428877
 30
0.0
 40
0.02089994524729
100
AcDbArc
 50
282.6051787095929
 51
358.0000647819383
  0
LINE
  5
2304
330
1F
100
AcDbEntity
  8
SANINDUSA
100
AcDbLine
 10
5291.922451036196
 20
3472.045752808667
 30
0.0
 11
5291.933625595788
 21
3472.057736002124
 31
0.0
  0
LINE
  5
2305
330
1F
100
AcDbEntity
  8
SANINDUSA
100
AcDbLine
 10
5291.819059508066
 20
3472.045752808667
 30
0.0
 11
5291.922451036196
 21
3472.045752808667
 31
0.0
  0
LINE
  5
2306
330
1F
100
AcDbEntity
  8
SANINDUSA
100
AcDbLine
 10
5291.807885067682
 20
3472.057736002124
 30
0.0
 11
5291.819059508066
 21
3472.045752808667
 31
0.0
  0
ARC
  5
2307
330
1F
100
AcDbEntity
  8
SANINDUSA
100
AcDbCircle
 10
5291.232744196886
 20
3472.09979313915
 30
0.0
 40
0.0209057264974522
100
AcDbArc
 50
181.9422847999152
 51
268.7851249738817
  0
ARC
  5
2308
330
1F
100
AcDbEntity
  8
SANINDUSA
100
AcDbCircle
 10
5291.208752261386
 20
3472.09898034515
 30
0.0
 40
0.0030999729860845
100
AcDbArc
 50
1.927014788735615
 51
89.00019485978635
  0
LINE
  5
2309
330
1F
100
AcDbEntity
  8
SANINDUSA
100
AcDbLine
 10
5291.208806352834
 20
3472.102079846179
 30
0.0
 11
5290.759335415582
 21
3472.109925389505
 31
0.0
  0
ARC
  5
230A
330
1F
100
AcDbEntity
  8
SANINDUSA
100
AcDbCircle
 10
5290.759281311132
 20
3472.106825863382
 30
0.0
 40
0.0031000000000004
100
AcDbArc
 50
88.99999999027992
 51
154.6842608331306
  0
ARC
  5
230B
330
1F
100
AcDbEntity
  8
SANINDUSA
100
AcDbCircle
 10
5290.74391390409
 20
3472.114095168767
 30
0.0
 40
0.0139000000000006
100
AcDbArc
 50
268.9999999902799
 51
334.6842608331306
  0
LINE
  5
230C
330
1F
100
AcDbEntity
  8
SANINDUSA
100
AcDbLine
 10
5290.743671314936
 20
3472.100197285629
 30
0.0
 11
5290.739228548627
 21
3472.100274831272
 31
0.0
  0
ARC
  5
230D
330
1F
100
AcDbEntity
  8
SANINDUSA
100
AcDbCircle
 10
5290.739593304922
 20
3472.121171651402
 30
0.0
 40
0.0209000000000006
100
AcDbArc
 50
182.0000000037536
 51
268.9999999902799
  0
ARC
  5
230F
330
1F
100
AcDbEntity
  8
SANINDUSA
100
AcDbCircle
 10
5290.713995482025
 20
3472.166508390999
 30
0.0
 40
0.0031
100
AcDbArc
 50
2.000000003753602
 51
90.0
  0
LINE
  5
2310
330
1F
100
AcDbEntity
  8
SANINDUSA
100
AcDbLine
 10
5290.657634183909
 20
3472.169608391105
 30
0.0
 11
5290.713995481055
 21
3472.169608391105
 31
0.0
  0
ARC
  5
2311
330
1F
100
AcDbEntity
  8
SANINDUSA
100
AcDbCircle
 10
5290.657634183967
 20
3472.166508390999
 30
0.0
 40
0.0031000000000004
100
AcDbArc
 50
90.0
 51
178.9999999902799
  0
LINE
  5
2312
330
1F
100
AcDbEntity
  8
SANINDUSA
100
AcDbLine
 10
5290.65395769468
 20
3472.133508391893
 30
0.0
 11
5290.654534656001
 21
3472.16656249364
 31
0.0
  0
LINE
  5
2313
330
1F
100
AcDbEntity
  8
SANINDUSA
100
AcDbLine
 10
5290.65395769468
 20
3472.133508391893
 30
0.0
 11
5290.650057100545
 21
3472.133508391893
 31
0.0
  0
LINE
  5
2314
330
1F
100
AcDbEntity
  8
SANINDUSA
100
AcDbLine
 10
5290.650057100545
 20
3472.133508391893
 30
0.0
 11
5290.650635250101
 21
3472.166630557953
 31
0.0
  0
ARC
  5
2315
330
1F
100
AcDbEntity
  8
SANINDUSA
100
AcDbCircle
 10
5290.657634183967
 20
3472.166508390999
 30
0.0
 40
0.0069999999999999
100
AcDbArc
 50
90.0
 51
178.9999999902799
  0
LINE
  5
2316
330
1F
100
AcDbEntity
  8
SANINDUSA
100
AcDbLine
 10
5290.657634183909
 20
3472.173508390999
 30
0.0
 11
5290.713995481055
 21
3472.173508390999
 31
0.0
  0
ARC
  5
2317
330
1F
100
AcDbEntity
  8
SANINDUSA
100
AcDbCircle
 10
5290.713995482025
 20
3472.166508390999
 30
0.0
 40
0.0069999999999999
100
AcDbArc
 50
2.000000003753602
 51
90.0
  0
ARC
  5
2319
330
1F
100
AcDbEntity
  8
SANINDUSA
100
AcDbCircle
 10
5290.739593304922
 20
3472.121171651402
 30
0.0
 40
0.0170000000000006
100
AcDbArc
 50
182.0000000037536
 51
268.9999999902799
  0
LINE
  5
231A
330
1F
100
AcDbEntity
  8
SANINDUSA
100
AcDbLine
 10
5290.743739380026
 20
3472.104096691815
 30
0.0
 11
5290.739296617131
 21
3472.104174241638
 31
0.0
  0
ARC
  5
231B
330
1F
100
AcDbEntity
  8
SANINDUSA
100
AcDbCircle
 10
5290.74391390409
 20
3472.114095168767
 30
0.0
 40
0.0100000000000003
100
AcDbArc
 50
268.9999999902799
 51
334.6842608331306
  0
ARC
  5
231C
330
1F
100
AcDbEntity
  8
SANINDUSA
100
AcDbCircle
 10
5290.759281311132
 20
3472.106825863382
 30
0.0
 40
0.007
100
AcDbArc
 50
88.99999999027992
 51
154.6842608331306
  0
LINE
  5
231D
330
1F
100
AcDbEntity
  8
SANINDUSA
100
AcDbLine
 10
5291.208874421339
 20
3472.105979256547
 30
0.0
 11
5290.759403476636
 21
3472.113824796146
 31
0.0
  0
ARC
  5
231E
330
1F
100
AcDbEntity
  8
SANINDUSA
100
AcDbCircle
 10
5291.208752221917
 20
3472.098980316836
 30
0.0
 40
0.0070000064127127
100
AcDbArc
 50
1.927559855821976
 51
88.99973423985787
  0
ARC
  5
231F
330
1F
100
AcDbEntity
  8
SANINDUSA
100
AcDbCircle
 10
5291.232743144871
 20
3472.099792086947
 30
0.0
 40
0.0170046465259429
100
AcDbArc
 50
181.9422303142182
 51
268.7853250179469
  0
LINE
  5
2320
330
1F
100
AcDbEntity
  8
SANINDUSA
100
AcDbLine
 10
5291.81045772336
 20
3472.060695581353
 30
0.0
 11
5291.82075526021
 21
3472.04965281508
 31
0.0
  0
LINE
  5
2321
330
1F
100
AcDbEntity
  8
SANINDUSA
100
AcDbLine
 10
5291.82075526021
 20
3472.04965281508
 30
0.0
 11
5291.920755284052
 21
3472.04965281508
 31
0.0
  0
LINE
  5
2322
330
1F
100
AcDbEntity
  8
SANINDUSA
100
AcDbLine
 10
5291.920755284052
 20
3472.04965281508
 30
0.0
 11
5291.931052820902
 21
3472.060695581353
 31
0.0
  0
ARC
  5
2323
330
1F
100
AcDbEntity
  8
SANINDUSA
100
AcDbCircle
 10
5291.960816607921
 20
3472.089654275987
 30
0.0
 40
0.0169999738929111
100
AcDbArc
 50
282.605639207262
 51
358.0001484436762
  0
LINE
  5
2324
330
1F
100
AcDbEntity
  8
SANINDUSA
100
AcDbLine
 10
5291.977806227426
 20
3472.08906102947
 30
0.0
 11
5291.980519311647
 21
3472.166752687404
 31
0.0
  0
ARC
  5
2325
330
1F
100
AcDbEntity
  8
SANINDUSA
100
AcDbCircle
 10
5291.987515040315
 20
3472.166508390999
 30
0.0
 40
0.0070000000000001
100
AcDbArc
 50
90.0
 51
177.9999999962464
  0
LINE
  5
2326
330
1F
100
AcDbEntity
  8
SANINDUSA
100
AcDbLine
 10
5291.987514989595
 20
3472.173508390999
 30
0.0
 11
5292.043876426439
 21
3472.173508390999
 31
0.0
  0
ARC
  5
2327
330
1F
100
AcDbEntity
  8
SANINDUSA
100
AcDbCircle
 10
5292.043876422283
 20
3472.166508390999
 30
0.0
 40
0.0070000000000004
100
AcDbArc
 50
1.000000009720081
 51
90.0
  0
LINE
  5
232A
330
1F
100
AcDbEntity
  8
SANINDUSA
100
AcDbLine
 10
5290.71870603613
 20
3472.120442252821
 30
0.0
 11
5290.71709359638
 21
3472.166616579267
 31
0.0
  0
LWPOLYLINE
  5
2352
330
1F
100
AcDbEntity
  8
SANINDUSA
100
AcDbPolyline
 90
       16
 70
   128
 43
0.0
 10
5290.743671314936
 20
3472.100197285629
 10
5290.743780860822
 20
3472.10019537083
 10
5290.744108298937
 20
3472.100189656234
 10
5290.744650038104
 20
3472.100180201447
 10
5290.745400140206
 20
3472.100167110777
 10
5290.746350402157
 20
3472.100150525785
 10
5290.747490393142
 20
3472.100130625284
 10
5290.74880763344
 20
3472.100107632793
 10
5290.750287698727
 20
3472.100081794179
 10
5290.751914354186
 20
3472.100053400016
 10
5290.75366979293
 20
3472.100022763229
 10
5290.755534777563
 20
3472.099990211642
 10
5290.757488871138
 20
3472.099956102884
 10
5290.759510668139
 20
3472.099920809484
 10
5290.76157801799
 20
3472.099884726322
 10
5290.763668270926
 20
3472.099848240829
  0
ARC
  5
235B
330
1F
100
AcDbEntity
  8
SANINDUSA
100
AcDbCircle
 10
5291.23231480869
 20
3472.132254449358
 30
0.0
 40
0.0511294464330257
100
AcDbArc
 50
238.7119691459735
 51
257.6769680309184
  0
LINE
  5
235E
330
1F
100
AcDbEntity
  8
SANINDUSA
100
AcDbLine
 10
5291.20381351016
 20
3472.089632526255
 30
0.0
 11
5291.205761211138
 21
3472.088560894346
 31
0.0
  0
LINE
  5
2361
330
1F
100
AcDbEntity
  8
SANINDUSA
100
AcDbLine
 10
5291.201072709779
 20
3472.090804606891
 30
0.0
 11
5291.20381351016
 21
3472.089632526255
 31
0.0
  0
LWPOLYLINE
  5
2362
330
1F
100
AcDbEntity
  8
SANINDUSA
100
AcDbPolyline
 90
        3
 70
   128
 43
0.0
 10
5291.192640202265
 20
3472.092360504186
 10
5291.196862654905
 20
3472.091941863514
 10
5291.201072709779
 20
3472.090804606891
  0
LINE
  5
2364
330
1F
100
AcDbEntity
  8
SANINDUSA
100
AcDbLine
 10
5290.763668270926
 20
3472.099848240829
 30
0.0
 11
5291.192640202265
 21
3472.092360504186
 31
0.0
  0
LINE
  5
236E
330
1F
100
AcDbEntity
  8
SANINDUSA
100
AcDbLine
 10
5290.722603658359
 20
3472.120578360028
 30
0.0
 11
5290.720991218607
 21
3472.166752687404
 31
0.0
  0
LINE
  5
2371
330
1F
100
AcDbEntity
  8
SANINDUSA
100
AcDbLine
 10
5290.713995481055
 20
3472.173508390999
 30
0.0
 11
5290.740979032736
 21
3472.173508390999
 31
0.0
  0
LINE
  5
2373
330
1F
100
AcDbEntity
  8
SANINDUSA
100
AcDbLine
 10
5291.960531490069
 20
3472.173508390999
 30
0.0
 11
5291.987514989595
 21
3472.173508390999
 31
0.0
  0
LINE
  5
2376
330
1F
100
AcDbEntity
  8
SANINDUSA
100
AcDbLine
 10
5290.740979032736
 20
3472.173508390999
 30
0.0
 11
5291.960531490069
 21
3472.173508390999
 31
0.0
  0
LINE
  5
237C
330
1F
100
AcDbEntity
  8
SANINDUSA
100
AcDbLine
 10
5290.65505752727
 20
3472.133508391893
 30
0.0
 11
5290.65395769468
 21
3472.133508391893
 31
0.0
  0
LINE
  5
237E
330
1F
100
AcDbEntity
  8
SANINDUSA
100
AcDbLine
 10
5292.047552960138
 20
3472.133508391893
 30
0.0
 11
5292.046453135233
 21
3472.133508391893
 31
0.0
  0
LINE
  5
237F
330
1F
100
AcDbEntity
  8
SANINDUSA
100
AcDbLine
 10
5292.046453135233
 20
3472.133508391893
 30
0.0
 11
5291.983260767679
 21
3472.133508391893
 31
0.0
  0
LINE
  5
2380
330
1F
100
AcDbEntity
  8
SANINDUSA
100
AcDbLine
 10
5290.718249755125
 20
3472.133508391893
 30
0.0
 11
5290.65505752727
 21
3472.133508391893
 31
0.0
  0
ENDSEC
  0
SECTION
  2
OBJECTS
  0
DICTIONARY
  5
C
330
0
100
AcDbDictionary
281
     1
  3
ACAD_COLOR
350
EE6
  3
ACAD_GROUP
350
D
  3
ACAD_LAYOUT
350
1A
  3
ACAD_MATERIAL
350
EE5
  3
ACAD_MLINESTYLE
350
17
  3
ACAD_PLOTSETTINGS
350
19
  3
ACAD_PLOTSTYLENAME
350
E
  3
ACAD_TABLESTYLE
350
EE7
  3
ACDBHEADERROUNDTRIPXREC
350
2605
  3
AcDbVariableDictionary
350
3D
  3
ASE_INDEX_DICTIONARY
350
25E6
  0
DICTIONARY
  5
1051
330
2
100
AcDbDictionary
280
     1
281
     1
  3
ACAD_LAYERFILTERS
360
1057
  3
ACLYDICTIONARY
360
1056
  0
DICTIONARY
  5
EE6
102
{ACAD_REACTORS
330
C
102
}
330
C
100
AcDbDictionary
281
     1
  0
DICTIONARY
  5
D
102
{ACAD_REACTORS
330
C
102
}
330
C
100
AcDbDictionary
281
     1
  0
DICTIONARY
  5
1A
102
{ACAD_REACTORS
330
C
102
}
330
C
100
AcDbDictionary
281
     1
  3
Layout1
350
1E
  3
Layout2
350
26
  3
Model
350
22
  0
DICTIONARY
  5
EE5
102
{ACAD_REACTORS
330
C
102
}
330
C
100
AcDbDictionary
281
     1
  0
DICTIONARY
  5
17
102
{ACAD_REACTORS
330
C
102
}
330
C
100
AcDbDictionary
281
     1
  3
Standard
350
18
  0
DICTIONARY
  5
19
102
{ACAD_REACTORS
330
C
102
}
330
C
100
AcDbDictionary
281
     1
  0
ACDBDICTIONARYWDFLT
  5
E
102
{ACAD_REACTORS
330
C
102
}
330
C
100
AcDbDictionary
281
     1
  3
Normal
350
F
100
AcDbDictionaryWithDefault
340
F
  0
DICTIONARY
  5
EE7
102
{ACAD_REACTORS
330
C
102
}
330
C
100
AcDbDictionary
281
     1
  3
Standard
350
EE8
  0
DICTIONARY
  5
2605
102
{ACAD_REACTORS
330
C
102
}
330
C
100
AcDbDictionary
281
     1
  0
DICTIONARY
  5
3D
102
{ACAD_REACTORS
330
C
102
}
330
C
100
AcDbDictionary
281
     1
  3
CTABLESTYLE
350
1049
  3
DIMASSOC
350
3F
  3
HIDETEXT
350
3E
  3
PROJECTNAME
350
1E04
  0
DICTIONARY
  5
25E6
102
{ACAD_REACTORS
330
C
102
}
330
C
100
AcDbDictionary
281
     1
  3
ASEBlockHierarchyIndexRecord
350
25E7
1001
DCO15
1040
1598620051.859
  0
DICTIONARY
  5
1057
102
{ACAD_REACTORS
330
1051
102
}
330
1051
100
AcDbDictionary
281
     1
  0
DICTIONARY
  5
1056
102
{ACAD_REACTORS
330
1051
102
}
330
1051
100
AcDbDictionary
281
     1
1001
ACAD
1000
<All
  0
LAYOUT
  5
1E
102
{ACAD_XDICTIONARY
360
2606
102
}
102
{ACAD_REACTORS
330
1A
102
}
330
1A
100
AcDbPlotSettings
  1

  2
Ploter HP500
  4

  6

 40
0.0
 41
0.0
 42
0.0
 43
0.0
 44
0.0
 45
0.0
 46
0.0
 47
0.0
 48
0.0
 49
0.0
140
0.0
141
0.0
142
1.0
143
1.0
 70
   688
 72
     0
 73
     0
 74
     5
  7
sanindusa.ctb
 75
    16
147
1.0
148
0.0
149
0.0
100
AcDbLayout
  1
Layout1
 70
     1
 71
     1
 10
0.0
 20
0.0
 11
420.0
 21
297.0
 12
0.0
 22
0.0
 32
0.0
 14
1.000000000000000E+20
 24
1.000000000000000E+20
 34
1.000000000000000E+20
 15
-1.000000000000000E+20
 25
-1.000000000000000E+20
 35
-1.000000000000000E+20
146
0.0
 13
0.0
 23
0.0
 33
0.0
 16
1.0
 26
0.0
 36
0.0
 17
0.0
 27
1.0
 37
0.0
 76
     0
330
1B
  0
LAYOUT
  5
26
102
{ACAD_XDICTIONARY
360
260A
102
}
102
{ACAD_REACTORS
330
1A
102
}
330
1A
100
AcDbPlotSettings
  1

  2
Ploter HP500
  4

  6

 40
0.0
 41
0.0
 42
0.0
 43
0.0
 44
0.0
 45
0.0
 46
0.0
 47
0.0
 48
0.0
 49
0.0
140
0.0
141
0.0
142
1.0
143
1.0
 70
   688
 72
     0
 73
     0
 74
     5
  7
sanindusa.ctb
 75
    16
147
1.0
148
0.0
149
0.0
100
AcDbLayout
  1
Layout2
 70
     1
 71
     2
 10
0.0
 20
0.0
 11
12.0
 21
9.0
 12
0.0
 22
0.0
 32
0.0
 14
0.0
 24
0.0
 34
0.0
 15
0.0
 25
0.0
 35
0.0
146
0.0
 13
0.0
 23
0.0
 33
0.0
 16
1.0
 26
0.0
 36
0.0
 17
0.0
 27
1.0
 37
0.0
 76
     0
330
23
  0
LAYOUT
  5
22
102
{ACAD_XDICTIONARY
360
2608
102
}
102
{ACAD_REACTORS
330
1A
102
}
330
1A
100
AcDbPlotSettings
  1

  2
Ploter HP500
  4
User268
  6

 40
4.995333194732666
 41
16.97565841674804
 42
4.995330810546875
 43
16.97567749023437
 44
209.9733276367187
 45
296.9259948730469
 46
0.0
 47
0.0
 48
0.0
 49
0.0
140
0.0
141
0.0
142
1.0
143
1.0
 70
 11952
 72
     1
 73
     1
 74
     0
  7
sanindusa.ctb
 75
     0
147
1.0
148
-427.5957866592534
149
7.362384574453926
100
AcDbLayout
  1
Model
 70
     1
 71
     0
 10
0.0
 20
0.0
 11
12.0
 21
9.0
 12
0.0
 22
0.0
 32
0.0
 14
0.0
 24
0.0
 34
0.0
 15
0.0
 25
0.0
 35
0.0
146
0.0
 13
0.0
 23
0.0
 33
0.0
 16
1.0
 26
0.0
 36
0.0
 17
0.0
 27
1.0
 37
0.0
 76
     0
330
1F
  0
MLINESTYLE
  5
18
102
{ACAD_REACTORS
330
17
102
}
330
17
100
AcDbMlineStyle
  2
STANDARD
 70
     0
  3

 62
   256
 51
90.0
 52
90.0
 71
     2
 49
0.5
 62
   256
  6
BYLAYER
 49
-0.5
 62
   256
  6
BYLAYER
  0
ACDBPLACEHOLDER
  5
F
102
{ACAD_REACTORS
330
E
102
}
330
E
  0
TABLESTYLE
  5
EE8
102
{ACAD_REACTORS
330
EE7
102
}
330
EE7
100
AcDbTableStyle
  3
Standard
 70
     0
 71
     0
 40
1.5
 41
1.5
280
     0
281
     0
  7
Standard
140
4.5
170
     2
 62
     0
 63
     7
283
     0
274
    -2
284
     1
 64
     0
275
    -2
285
     1
 65
     0
276
    -2
286
     1
 66
     0
277
    -2
287
     1
 67
     0
278
    -2
288
     1
 68
     0
279
    -2
289
     1
 69
     0
  7
Standard
140
6.0
170
     5
 62
     0
 63
     7
283
     0
274
    -2
284
     1
 64
     0
275
    -2
285
     1
 65
     0
276
    -2
286
     1
 66
     0
277
    -2
287
     1
 67
     0
278
    -2
288
     1
 68
     0
279
    -2
289
     1
 69
     0
  7
Standard
140
4.5
170
     5
 62
     0
 63
     7
283
     0
274
    -2
284
     1
 64
     0
275
    -2
285
     1
 65
     0
276
    -2
286
     1
 66
     0
277
    -2
287
     1
 67
     0
278
    -2
288
     1
 68
     0
279
    -2
289
     1
 69
     0
  0
DICTIONARYVAR
  5
1049
102
{ACAD_REACTORS
330
3D
102
}
330
3D
100
DictionaryVariables
280
     0
  1
STANDARD
  0
DICTIONARYVAR
  5
3F
102
{ACAD_REACTORS
330
3D
102
}
330
3D
100
DictionaryVariables
280
     0
  1
2
  0
DICTIONARYVAR
  5
3E
102
{ACAD_REACTORS
330
3D
102
}
330
3D
100
DictionaryVariables
280
     0
  1
1
  0
DICTIONARYVAR
  5
1E04
102
{ACAD_REACTORS
330
3D
102
}
330
3D
100
DictionaryVariables
280
     0
  1

  0
XRECORD
  5
25E7
102
{ACAD_REACTORS
330
25E6
102
}
330
25E6
100
AcDbXrecord
280
     1
  0
DICTIONARY
  5
2606
330
1E
100
AcDbDictionary
280
     1
281
     1
  3
ACAD_XREC_ROUNDTRIP
360
2607
  0
DICTIONARY
  5
260A
330
26
100
AcDbDictionary
280
     1
281
     1
  3
ACAD_XREC_ROUNDTRIP
360
260B
  0
DICTIONARY
  5
2608
330
22
100
AcDbDictionary
280
     1
281
     1
  3
ACAD_XREC_ROUNDTRIP
360
2609
  0
XRECORD
  5
2607
102
{ACAD_REACTORS
330
2606
102
}
330
2606
100
AcDbXrecord
280
     1
102
SHADEPLOT
 70
     0
102
SHADEPLOTRESLEVEL
 70
     2
102
SHADEPLOTCUSTOMDPI
 70
   300
  0
XRECORD
  5
260B
102
{ACAD_REACTORS
330
260A
102
}
330
260A
100
AcDbXrecord
280
     1
102
SHADEPLOT
 70
     0
102
SHADEPLOTRESLEVEL
 70
     2
102
SHADEPLOTCUSTOMDPI
 70
   300
  0
XRECORD
  5
2609
102
{ACAD_REACTORS
330
2608
102
}
330
2608
100
AcDbXrecord
280
     1
102
SHADEPLOT
 70
     0
102
SHADEPLOTRESLEVEL
 70
     2
102
SHADEPLOTCUSTOMDPI
 70
   300
  0
ENDSEC
  0
EOF
