  0
SECTION
  2
HEADER
  9
$ACADVER
  1
AC1015
  9
$ACADMAINTVER
 70
    20
  9
$DWGCODEPAGE
  3
ANSI_1252
  9
$INSBASE
 10
0.0
 20
0.0
 30
0.0
  9
$EXTMIN
 10
4983.594578892794
 20
2961.866852260357
 30
-0.0000000000000002
  9
$EXTMAX
 10
4988.122155338353
 20
2962.769645070746
 30
0.0000000000000002
  9
$LIMMIN
 10
0.0
 20
0.0
  9
$LIMMAX
 10
420.0
 20
297.0
  9
$ORTHOMODE
 70
     0
  9
$REGENMODE
 70
     1
  9
$FILLMODE
 70
     1
  9
$QTEXTMODE
 70
     0
  9
$MIRRTEXT
 70
     1
  9
$LTSCALE
 40
1.0
  9
$ATTMODE
 70
     1
  9
$TEXTSIZE
 40
2.5
  9
$TRACEWID
 40
1.0
  9
$TEXTSTYLE
  7
SANINDUSA
  9
$CLAYER
  8
0
  9
$CELTYPE
  6
ByLayer
  9
$CECOLOR
 62
   256
  9
$CELTSCALE
 40
1.0
  9
$DISPSILH
 70
     0
  9
$DIMSCALE
 40
1.0
  9
$DIMASZ
 40
2.0
  9
$DIMEXO
 40
1.0
  9
$DIMDLI
 40
1.0
  9
$DIMRND
 40
0.0
  9
$DIMDLE
 40
0.0
  9
$DIMEXE
 40
1.0
  9
$DIMTP
 40
0.0
  9
$DIMTM
 40
0.0
  9
$DIMTXT
 40
2.0
  9
$DIMCEN
 40
0.0
  9
$DIMTSZ
 40
0.0
  9
$DIMTOL
 70
     0
  9
$DIMLIM
 70
     0
  9
$DIMTIH
 70
     0
  9
$DIMTOH
 70
     0
  9
$DIMSE1
 70
     0
  9
$DIMSE2
 70
     0
  9
$DIMTAD
 70
     1
  9
$DIMZIN
 70
     8
  9
$DIMBLK
  1

  9
$DIMASO
 70
     1
  9
$DIMSHO
 70
     1
  9
$DIMPOST
  1

  9
$DIMAPOST
  1

  9
$DIMALT
 70
     0
  9
$DIMALTD
 70
     3
  9
$DIMALTF
 40
0.03937007874016
  9
$DIMLFAC
 40
1.0
  9
$DIMTOFL
 70
     1
  9
$DIMTVP
 40
0.0
  9
$DIMTIX
 70
     0
  9
$DIMSOXD
 70
     0
  9
$DIMSAH
 70
     0
  9
$DIMBLK1
  1

  9
$DIMBLK2
  1

  9
$DIMSTYLE
  2
SANINDUSA
  9
$DIMCLRD
 70
   256
  9
$DIMCLRE
 70
   256
  9
$DIMCLRT
 70
   256
  9
$DIMTFAC
 40
1.0
  9
$DIMGAP
 40
1.0
  9
$DIMJUST
 70
     0
  9
$DIMSD1
 70
     0
  9
$DIMSD2
 70
     0
  9
$DIMTOLJ
 70
     0
  9
$DIMTZIN
 70
     8
  9
$DIMALTZ
 70
     0
  9
$DIMALTTZ
 70
     0
  9
$DIMUPT
 70
     0
  9
$DIMDEC
 70
     1
  9
$DIMTDEC
 70
     1
  9
$DIMALTU
 70
     2
  9
$DIMALTTD
 70
     3
  9
$DIMTXSTY
  7
SANINDUSA
  9
$DIMAUNIT
 70
     0
  9
$DIMADEC
 70
     1
  9
$DIMALTRND
 40
0.0
  9
$DIMAZIN
 70
     0
  9
$DIMDSEP
 70
    44
  9
$DIMATFIT
 70
     3
  9
$DIMFRAC
 70
     0
  9
$DIMLDRBLK
  1

  9
$DIMLUNIT
 70
     2
  9
$DIMLWD
 70
    -1
  9
$DIMLWE
 70
    -1
  9
$DIMTMOVE
 70
     0
  9
$LUNITS
 70
     2
  9
$LUPREC
 70
     4
  9
$SKETCHINC
 40
1.0
  9
$FILLETRAD
 40
3.0
  9
$AUNITS
 70
     0
  9
$AUPREC
 70
     0
  9
$MENU
  1
.
  9
$ELEVATION
 40
0.0
  9
$PELEVATION
 40
0.0
  9
$THICKNESS
 40
0.0
  9
$LIMCHECK
 70
     0
  9
$CHAMFERA
 40
10.0
  9
$CHAMFERB
 40
10.0
  9
$CHAMFERC
 40
20.0
  9
$CHAMFERD
 40
0.0
  9
$SKPOLY
 70
     0
  9
$TDCREATE
 40
2454305.692224745
  9
$TDUCREATE
 40
2454305.692224745
  9
$TDUPDATE
 40
2454478.650428959
  9
$TDUUPDATE
 40
2454478.650428959
  9
$TDINDWG
 40
0.0125198958
  9
$TDUSRTIMER
 40
0.0125198958
  9
$USRTIMER
 70
     1
  9
$ANGBASE
 50
0.0
  9
$ANGDIR
 70
     0
  9
$PDMODE
 70
     0
  9
$PDSIZE
 40
0.0
  9
$PLINEWID
 40
0.0
  9
$SPLFRAME
 70
     0
  9
$SPLINETYPE
 70
     6
  9
$SPLINESEGS
 70
     8
  9
$HANDSEED
  5
36A1
  9
$SURFTAB1
 70
     6
  9
$SURFTAB2
 70
     6
  9
$SURFTYPE
 70
     6
  9
$SURFU
 70
     6
  9
$SURFV
 70
     6
  9
$UCSBASE
  2

  9
$UCSNAME
  2

  9
$UCSORG
 10
0.0
 20
0.0
 30
0.0
  9
$UCSXDIR
 10
1.0
 20
0.0
 30
0.0
  9
$UCSYDIR
 10
0.0
 20
1.0
 30
0.0
  9
$UCSORTHOREF
  2

  9
$UCSORTHOVIEW
 70
     0
  9
$UCSORGTOP
 10
0.0
 20
0.0
 30
0.0
  9
$UCSORGBOTTOM
 10
0.0
 20
0.0
 30
0.0
  9
$UCSORGLEFT
 10
0.0
 20
0.0
 30
0.0
  9
$UCSORGRIGHT
 10
0.0
 20
0.0
 30
0.0
  9
$UCSORGFRONT
 10
0.0
 20
0.0
 30
0.0
  9
$UCSORGBACK
 10
0.0
 20
0.0
 30
0.0
  9
$PUCSBASE
  2

  9
$PUCSNAME
  2

  9
$PUCSORG
 10
0.0
 20
0.0
 30
0.0
  9
$PUCSXDIR
 10
1.0
 20
0.0
 30
0.0
  9
$PUCSYDIR
 10
0.0
 20
1.0
 30
0.0
  9
$PUCSORTHOREF
  2

  9
$PUCSORTHOVIEW
 70
     0
  9
$PUCSORGTOP
 10
0.0
 20
0.0
 30
0.0
  9
$PUCSORGBOTTOM
 10
0.0
 20
0.0
 30
0.0
  9
$PUCSORGLEFT
 10
0.0
 20
0.0
 30
0.0
  9
$PUCSORGRIGHT
 10
0.0
 20
0.0
 30
0.0
  9
$PUCSORGFRONT
 10
0.0
 20
0.0
 30
0.0
  9
$PUCSORGBACK
 10
0.0
 20
0.0
 30
0.0
  9
$USERI1
 70
     0
  9
$USERI2
 70
     0
  9
$USERI3
 70
     0
  9
$USERI4
 70
     0
  9
$USERI5
 70
     0
  9
$USERR1
 40
0.0
  9
$USERR2
 40
0.0
  9
$USERR3
 40
0.0
  9
$USERR4
 40
0.0
  9
$USERR5
 40
0.0
  9
$WORLDVIEW
 70
     1
  9
$SHADEDGE
 70
     3
  9
$SHADEDIF
 70
    70
  9
$TILEMODE
 70
     1
  9
$MAXACTVP
 70
    64
  9
$PINSBASE
 10
0.0
 20
0.0
 30
0.0
  9
$PLIMCHECK
 70
     0
  9
$PEXTMIN
 10
1.000000000000000E+20
 20
1.000000000000000E+20
 30
1.000000000000000E+20
  9
$PEXTMAX
 10
-1.000000000000000E+20
 20
-1.000000000000000E+20
 30
-1.000000000000000E+20
  9
$PLIMMIN
 10
0.0
 20
0.0
  9
$PLIMMAX
 10
420.0
 20
297.0
  9
$UNITMODE
 70
     0
  9
$VISRETAIN
 70
     1
  9
$PLINEGEN
 70
     0
  9
$PSLTSCALE
 70
     1
  9
$TREEDEPTH
 70
  3020
  9
$CMLSTYLE
  2
Standard
  9
$CMLJUST
 70
     0
  9
$CMLSCALE
 40
20.0
  9
$PROXYGRAPHICS
 70
     1
  9
$MEASUREMENT
 70
     1
  9
$CELWEIGHT
370
    -1
  9
$ENDCAPS
280
     0
  9
$JOINSTYLE
280
     0
  9
$LWDISPLAY
290
     0
  9
$INSUNITS
 70
     4
  9
$HYPERLINKBASE
  1

  9
$STYLESHEET
  1
sanindusa.ctb
  9
$XEDIT
290
     1
  9
$CEPSNTYPE
380
     0
  9
$PSTYLEMODE
290
     1
  9
$FINGERPRINTGUID
  2
{0CB6F894-82EF-4F0A-AD1B-3DB3406448C2}
  9
$VERSIONGUID
  2
{6E91571F-EA8E-4C91-91AC-D3BF59E5F35A}
  9
$EXTNAMES
290
     1
  9
$PSVPSCALE
 40
0.0
  9
$OLESTARTUP
290
     0
  0
ENDSEC
  0
SECTION
  2
CLASSES
  0
CLASS
  1
ACDBDICTIONARYWDFLT
  2
AcDbDictionaryWithDefault
  3
ObjectDBX Classes
 90
        0
280
     0
281
     0
  0
CLASS
  1
ACDBPLACEHOLDER
  2
AcDbPlaceHolder
  3
ObjectDBX Classes
 90
        0
280
     0
281
     0
  0
CLASS
  1
LAYOUT
  2
AcDbLayout
  3
ObjectDBX Classes
 90
        0
280
     0
281
     0
  0
CLASS
  1
DICTIONARYVAR
  2
AcDbDictionaryVar
  3
ObjectDBX Classes
 90
        0
280
     0
281
     0
  0
CLASS
  1
DIMASSOC
  2
AcDbDimAssoc
  3
"AcDbDimAssoc|Product Desc:     AcDim ARX App For Dimension|Company:          Autodesk, Inc.|WEB Address:      www.autodesk.com"
 90
    32768
280
     0
281
     0
  0
CLASS
  1
TABLESTYLE
  2
AcDbTableStyle
  3
ObjectDBX Classes
 90
     2047
280
     0
281
     0
  0
CLASS
  1
SORTENTSTABLE
  2
AcDbSortentsTable
  3
ObjectDBX Classes
 90
    32768
280
     0
281
     0
  0
ENDSEC
  0
SECTION
  2
TABLES
  0
TABLE
  2
VPORT
  5
8
330
0
100
AcDbSymbolTable
 70
     2
  0
VPORT
  5
3699
330
8
100
AcDbSymbolTableRecord
100
AcDbViewportTableRecord
  2
*Active
 70
     0
 10
0.0
 20
0.0
 11
1.0
 21
1.0
 12
4985.858367115574
 22
2962.318248665552
 13
0.0
 23
0.0
 14
10.0
 24
10.0
 15
10.0
 25
10.0
 16
0.0
 26
0.0
 36
1.0
 17
0.0
 27
0.0
 37
0.0
 40
2.877205054279805
 41
1.579579579579579
 42
50.0
 43
0.0
 44
0.0
 50
0.0
 51
0.0
 71
     0
 72
   100
 73
     1
 74
     2
 75
     0
 76
     0
 77
     0
 78
     0
281
     0
 65
     1
110
0.0
120
0.0
130
0.0
111
1.0
121
0.0
131
0.0
112
0.0
122
1.0
132
0.0
 79
     0
146
0.0
  0
ENDTAB
  0
TABLE
  2
LTYPE
  5
5
330
0
100
AcDbSymbolTable
 70
     5
  0
LTYPE
  5
14
330
5
100
AcDbSymbolTableRecord
100
AcDbLinetypeTableRecord
  2
ByBlock
 70
     0
  3

 72
    65
 73
     0
 40
0.0
  0
LTYPE
  5
15
330
5
100
AcDbSymbolTableRecord
100
AcDbLinetypeTableRecord
  2
ByLayer
 70
     0
  3

 72
    65
 73
     0
 40
0.0
  0
LTYPE
  5
16
330
5
100
AcDbSymbolTableRecord
100
AcDbLinetypeTableRecord
  2
Continuous
 70
     0
  3
Solid line
 72
    65
 73
     0
 40
0.0
  0
LTYPE
  5
2D
330
5
100
AcDbSymbolTableRecord
100
AcDbLinetypeTableRecord
  2
DASHDOT
 70
     0
  3
Dash dot __ . __ . __ . __ . __ . __ . __ . __
 72
    65
 73
     4
 40
25.4
 49
12.7
 74
     0
 49
-6.349999999999999
 74
     0
 49
0.0
 74
     0
 49
-6.349999999999999
 74
     0
  0
LTYPE
  5
2E
330
5
100
AcDbSymbolTableRecord
100
AcDbLinetypeTableRecord
  2
HIDDEN
 70
     0
  3
Hidden __ __ __ __ __ __ __ __ __ __ __ __ __ _
 72
    65
 73
     2
 40
9.524999999999998
 49
6.349999999999999
 74
     0
 49
-3.174999999999999
 74
     0
  0
LTYPE
  5
C75
330
5
100
AcDbSymbolTableRecord
100
AcDbLinetypeTableRecord
  2
AM_ISO02W050
 70
     0
  3
__ __ __ __ __ __ __ __ __ __ __ __ __ __ __
 72
    65
 73
     2
 40
7.5
 49
6.0
 74
     0
 49
-1.5
 74
     0
  0
LTYPE
  5
C76
330
5
100
AcDbSymbolTableRecord
100
AcDbLinetypeTableRecord
  2
AM_ISO08W050
 70
     0
  3
____ . ____ . ____ . ____ . ____ . ____ . ____
 72
    65
 73
     4
 40
18.0
 49
12.0
 74
     0
 49
-1.5
 74
     0
 49
3.0
 74
     0
 49
-1.5
 74
     0
  0
ENDTAB
  0
TABLE
  2
LAYER
  5
2
102
{ACAD_XDICTIONARY
360
1051
102
}
330
0
100
AcDbSymbolTable
 70
    16
  0
LAYER
  5
10
330
2
100
AcDbSymbolTableRecord
100
AcDbLayerTableRecord
  2
0
 70
     0
 62
     7
  6
Continuous
370
    -3
390
F
  0
LAYER
  5
2F
330
2
100
AcDbSymbolTableRecord
100
AcDbLayerTableRecord
  2
1
 70
     0
 62
     1
  6
Continuous
370
    -3
390
F
  0
LAYER
  5
30
330
2
100
AcDbSymbolTableRecord
100
AcDbLayerTableRecord
  2
2
 70
     0
 62
     2
  6
Continuous
370
    -3
390
F
  0
LAYER
  5
31
330
2
100
AcDbSymbolTableRecord
100
AcDbLayerTableRecord
  2
3
 70
     0
 62
     3
  6
Continuous
370
    -3
390
F
  0
LAYER
  5
32
330
2
100
AcDbSymbolTableRecord
100
AcDbLayerTableRecord
  2
4
 70
     0
 62
     4
  6
Continuous
370
    -3
390
F
  0
LAYER
  5
33
330
2
100
AcDbSymbolTableRecord
100
AcDbLayerTableRecord
  2
5
 70
     0
 62
     5
  6
Continuous
370
    -3
390
F
  0
LAYER
  5
34
330
2
100
AcDbSymbolTableRecord
100
AcDbLayerTableRecord
  2
6
 70
     0
 62
     6
  6
Continuous
370
    -3
390
F
  0
LAYER
  5
35
330
2
100
AcDbSymbolTableRecord
100
AcDbLayerTableRecord
  2
7
 70
     0
 62
     7
  6
Continuous
370
    -3
390
F
  0
LAYER
  5
36
330
2
100
AcDbSymbolTableRecord
100
AcDbLayerTableRecord
  2
cen
 70
     0
 62
     7
  6
DASHDOT
370
    -3
390
F
  0
LAYER
  5
37
330
2
100
AcDbSymbolTableRecord
100
AcDbLayerTableRecord
  2
hid
 70
     0
 62
     7
  6
HIDDEN
370
    -3
390
F
  0
LAYER
  5
5D6
330
2
100
AcDbSymbolTableRecord
100
AcDbLayerTableRecord
  2
hatch
 70
     0
 62
     9
  6
Continuous
370
    -3
390
F
  0
LAYER
  5
8AF
330
2
100
AcDbSymbolTableRecord
100
AcDbLayerTableRecord
  2
9
 70
     0
 62
     9
  6
Continuous
370
    -3
390
F
  0
LAYER
  5
8F8
330
2
100
AcDbSymbolTableRecord
100
AcDbLayerTableRecord
  2
leg fin
 70
     0
 62
     9
  6
Continuous
370
    -3
390
F
  0
LAYER
  5
91D
330
2
100
AcDbSymbolTableRecord
100
AcDbLayerTableRecord
  2
cotas
 70
     0
 62
     1
  6
Continuous
370
    -3
390
F
  0
LAYER
  5
92F
330
2
100
AcDbSymbolTableRecord
100
AcDbLayerTableRecord
  2
Defpoints
 70
     0
 62
     7
  6
Continuous
290
     0
370
    -3
390
F
  0
LAYER
  5
C7B
330
2
100
AcDbSymbolTableRecord
100
AcDbLayerTableRecord
  2
SANINDUSA
 70
     0
 62
     3
  6
Continuous
370
    -3
390
F
  0
ENDTAB
  0
TABLE
  2
STYLE
  5
3
330
0
100
AcDbSymbolTable
 70
     4
  0
STYLE
  5
11
330
3
100
AcDbSymbolTableRecord
100
AcDbTextStyleTableRecord
  2
Standard
 70
     0
 40
0.0
 41
1.0
 50
0.0
 71
     0
 42
2.5
  3
Avgardn.ttf
  4

1001
ACAD
1000
AvantGarde Bk BT
1071
       34
  0
STYLE
  5
2C
330
3
100
AcDbSymbolTableRecord
100
AcDbTextStyleTableRecord
  2

 70
     1
 40
0.0
 41
1.0
 50
0.0
 71
     0
 42
2.5
  3
ltypeshp.shx
  4

  0
STYLE
  5
91F
330
3
100
AcDbSymbolTableRecord
100
AcDbTextStyleTableRecord
  2
SANINDUSA
 70
     0
 40
0.0
 41
1.0
 50
0.0
 71
     0
 42
2.5
  3
verdana.TTF
  4

1001
ACAD
1000
Verdana
1071
       34
  0
STYLE
  5
C7C
330
3
100
AcDbSymbolTableRecord
100
AcDbTextStyleTableRecord
  2
futura
 70
     0
 40
0.0
 41
1.0
 50
0.0
 71
     0
 42
2.5
  3
ZURCHN.TTF
  4

1001
ACAD
1000
Zurich BT
1071
       34
  0
ENDTAB
  0
TABLE
  2
VIEW
  5
6
330
0
100
AcDbSymbolTable
 70
     0
  0
ENDTAB
  0
TABLE
  2
UCS
  5
7
330
0
100
AcDbSymbolTable
 70
     0
  0
ENDTAB
  0
TABLE
  2
APPID
  5
9
330
0
100
AcDbSymbolTable
 70
    12
  0
APPID
  5
12
330
9
100
AcDbSymbolTableRecord
100
AcDbRegAppTableRecord
  2
ACAD
 70
     0
  0
APPID
  5
3A
330
9
100
AcDbSymbolTableRecord
100
AcDbRegAppTableRecord
  2
DCO15
 70
     0
  0
APPID
  5
EEE
330
9
100
AcDbSymbolTableRecord
100
AcDbRegAppTableRecord
  2
ACAD_DSTYLE_DIMTEXT_FILL
 70
     0
  0
APPID
  5
EEF
330
9
100
AcDbSymbolTableRecord
100
AcDbRegAppTableRecord
  2
ACAD_DSTYLE_DIMEXT_LENGTH
 70
     0
  0
APPID
  5
EF0
330
9
100
AcDbSymbolTableRecord
100
AcDbRegAppTableRecord
  2
ACAD_DSTYLE_DIMEXT_ENABLED
 70
     0
  0
APPID
  5
EF1
330
9
100
AcDbSymbolTableRecord
100
AcDbRegAppTableRecord
  2
ACAD_DSTYLE_DIM_LINETYPE
 70
     0
  0
APPID
  5
EF2
330
9
100
AcDbSymbolTableRecord
100
AcDbRegAppTableRecord
  2
ACAD_DSTYLE_DIM_EXT1_LINETYPE
 70
     0
  0
APPID
  5
EF3
330
9
100
AcDbSymbolTableRecord
100
AcDbRegAppTableRecord
  2
ACAD_DSTYLE_DIM_EXT2_LINETYPE
 70
     0
  0
APPID
  5
FAF
330
9
100
AcDbSymbolTableRecord
100
AcDbRegAppTableRecord
  2
ACAD_DSTYLE_DIMJOGGED_JOGANGLE_SYMBOL
 70
     0
  0
APPID
  5
1013
330
9
100
AcDbSymbolTableRecord
100
AcDbRegAppTableRecord
  2
ACAD_DSTYLE_DIMARC_LENGTH_SYMBOL
 70
     0
  0
APPID
  5
1339
330
9
100
AcDbSymbolTableRecord
100
AcDbRegAppTableRecord
  2
ACAD_PSEXT
 70
     0
  0
APPID
  5
3670
330
9
100
AcDbSymbolTableRecord
100
AcDbRegAppTableRecord
  2
ACAD_EXEMPT_FROM_CAD_STANDARDS
 70
     0
  0
ENDTAB
  0
TABLE
  2
DIMSTYLE
  5
A
330
0
100
AcDbSymbolTable
 70
     3
100
AcDbDimStyleTable
 71
     1
340
921
  0
DIMSTYLE
105
45
330
A
100
AcDbSymbolTableRecord
100
AcDbDimStyleTableRecord
  2
STANDARD
 70
     0
289
     0
340
11
  0
DIMSTYLE
105
921
330
A
100
AcDbSymbolTableRecord
100
AcDbDimStyleTableRecord
  2
SANINDUSA
 70
     0
 41
2.0
 42
1.0
 43
1.0
 44
1.0
 73
     0
 74
     0
 77
     1
 78
     8
140
2.0
141
0.0
143
0.03937007874016
147
1.0
171
     3
172
     1
176
   256
177
   256
178
   256
179
     1
271
     1
272
     1
274
     3
278
    44
283
     0
284
     8
340
91F
371
    -1
372
    -1
1001
ACAD_DSTYLE_DIMEXT_LENGTH
1070
   378
1040
1.0
1001
ACAD_DSTYLE_DIMEXT_ENABLED
1070
   383
1070
     0
1001
ACAD_DSTYLE_DIMARC_LENGTH_SYMBOL
1070
   379
1070
     0
1001
ACAD_DSTYLE_DIMJOGGED_JOGANGLE_SYMBOL
1070
   384
1040
1.570796326794896
  0
DIMSTYLE
105
C7D
330
A
100
AcDbSymbolTableRecord
100
AcDbDimStyleTableRecord
  2
AM_ISO
 70
     0
  4
"
 41
2.5
 42
1.0
 43
10.0
 44
1.0
 47
0.1
 48
0.1
 73
     0
 74
     0
 77
     1
 78
     8
 79
     2
140
3.5
141
0.0
143
0.0393701
146
0.71
147
1.5
172
     1
176
   256
177
   256
178
     2
271
     2
272
     3
274
     4
283
     0
284
     8
340
11
371
    -1
372
    -1
  0
ENDTAB
  0
TABLE
  2
BLOCK_RECORD
  5
1
330
0
100
AcDbSymbolTable
 70
   135
  0
BLOCK_RECORD
  5
1F
330
1
100
AcDbSymbolTableRecord
100
AcDbBlockTableRecord
  2
*Model_Space
340
22
  0
BLOCK_RECORD
  5
1B
330
1
100
AcDbSymbolTableRecord
100
AcDbBlockTableRecord
  2
*Paper_Space
340
1E
  0
BLOCK_RECORD
  5
23
330
1
100
AcDbSymbolTableRecord
100
AcDbBlockTableRecord
  2
*Paper_Space0
340
26
  0
BLOCK_RECORD
  5
919
330
1
100
AcDbSymbolTableRecord
100
AcDbBlockTableRecord
  2
_DotSmall
340
0
  0
BLOCK_RECORD
  5
922
330
1
100
AcDbSymbolTableRecord
100
AcDbBlockTableRecord
  2
base para cotas
340
0
310
2800000020000000200000000100080000000000000400000000000000000000000000000000000000000000000080000080000000808000800000008000800080800000C0C0C000C0DCC000F0CAA6000020400000206000002080000020A0000020C0000020E00000400000004020000040400000406000004080000040A0
310
000040C0000040E00000600000006020000060400000606000006080000060A0000060C0000060E00000800000008020000080400000806000008080000080A0000080C0000080E00000A0000000A0200000A0400000A0600000A0800000A0A00000A0C00000A0E00000C0000000C0200000C0400000C0600000C0800000C0
310
A00000C0C00000C0E00000E0000000E0200000E0400000E0600000E0800000E0A00000E0C00000E0E00040000000400020004000400040006000400080004000A0004000C0004000E00040200000402020004020400040206000402080004020A0004020C0004020E000404000004040200040404000404060004040800040
310
40A0004040C0004040E00040600000406020004060400040606000406080004060A0004060C0004060E00040800000408020004080400040806000408080004080A0004080C0004080E00040A0000040A0200040A0400040A0600040A0800040A0A00040A0C00040A0E00040C0000040C0200040C0400040C0600040C08000
310
40C0A00040C0C00040C0E00040E0000040E0200040E0400040E0600040E0800040E0A00040E0C00040E0E00080000000800020008000400080006000800080008000A0008000C0008000E00080200000802020008020400080206000802080008020A0008020C0008020E00080400000804020008040400080406000804080
310
008040A0008040C0008040E00080600000806020008060400080606000806080008060A0008060C0008060E00080800000808020008080400080806000808080008080A0008080C0008080E00080A0000080A0200080A0400080A0600080A0800080A0A00080A0C00080A0E00080C0000080C0200080C0400080C0600080C0
310
800080C0A00080C0C00080C0E00080E0000080E0200080E0400080E0600080E0800080E0A00080E0C00080E0E000C0000000C0002000C0004000C0006000C0008000C000A000C000C000C000E000C0200000C0202000C0204000C0206000C0208000C020A000C020C000C020E000C0400000C0402000C0404000C0406000C0
310
408000C040A000C040C000C040E000C0600000C0602000C0604000C0606000C0608000C060A000C060C000C060E000C0800000C0802000C0804000C0806000C0808000C080A000C080C000C080E000C0A00000C0A02000C0A04000C0A06000C0A08000C0A0A000C0A0C000C0A0E000C0C00000C0C02000C0C04000C0C06000
310
C0C08000C0C0A000F0FBFF00A4A0A000808080000000FF0000FF000000FFFF00FF000000FF00FF00FFFF0000FFFFFF00A4A4A4A4A4A4A4A4A4A4A4A4A4A4A4A4A4A4A4A4A4A4A4A4A4A4A4A4A4A4A4A4A4A4A4A4A4A4A4A4A4A4A4A4A4A4A4A4A4A4A4A4A4A4A4A4A4A4A4A4A4A4A4A4A4A4A4A4A4A4A4A4A4A4A4A4A4A4A4
310
A4A4A4A4A4A4A4A4A4A4A4A4A4A4A4A4A4A4A4A4A4A4A4A4A4A4A4A4A4A4A4A4A4A4A4A4A4A4A4A4A4A4A4A4A4A4A4A4A4A4A4A4A4A4A4A4A4A4A4A4A4A4A4A4A4A4A4A4A4A4A4A4A4A4A4A4A4A4A4A4A4A4A4A4A4A4A4A4A4A4A4A4A4A4A4A4A4A4A4A4A4A4A4A4A4A4A4A4A4A4A4A4A4A4A4A4A4A4A4A4A4A4A4A4A4A4A4
310
A4A4A4A4A4A4A4A4A4A4A4A4A4A4A4A4A4A4A4A4A4A4A4A4A4A4A4A4A4A4A4A4A4A4A4A4A4A4A4A4A4A4A4A4A4A4A4A4A4A4A4A4A4A4A4A4A4A4A4A4A4A4A4A4A4A4A4A4A4A4A4A4A4A4A4A4A4A4A4A4A4A4A4A4A4A4A4A4A4A4A4A4A4A4A4A4A4A4A4A4A4A4A4A4A4A4A4A4A4A4A4A4A4A4A4A4A4A4A4A4A4A4A4A4A4A4A4
310
A4A4A4A4A4A4A4A4A4A4A4A4A4A4A4A4A4A4A4A4A4A4A4A4A4A4A4A4A4A4A4A4A4A4A4A4A4A4A4A4A4A4A4A4A4A4A4A4A4A4A4A4A4A4A4A4A4A4A4A4A4A4A4A4A4A4A4A4A4A4A4A4A4A4A4A4A4A4A4A4A4A4A4A4A4A4A4A4A4A4A4A4A4A4A4A4A4A4A4A4A4A4A4A4A4A4A4A4A4A4A4A4A4A4A4A4F9F9F9F9F9F9F9F9F9F9F9
310
F9F9F9F9F9F9F9F9F9F9F9F9F9F9F9F9F9F9F9A4A4F9F9F9F9F9F9F9F9F9F9F9F9F9F9F9F9F9F9F9F9F9F9F9F9F9F9F9F9F9F9A4A4F9F9F9F9F9F9F9F9F9F9F9F9F9F9F9F9F9F9F9F9F9F9F9F9F9F9F9F9F9F9A4A4F9A4A4A4A4A4A4A4A4A4A4A4A4A4A4A4A4A4A4A4A4A4A4A4A4A4A4A4A4F9A4A4A4A4A4A4A4A4A4A4A4A4
310
A4A4A4A4A4A4A4A4A4A4A4A4A4A4A4A4A4A4A4A4A4A4A4A4A4A4A4A4A4A4A4A4A4A4A4A4A4A4A4A4A4A4A4A4A4A4A4A4A4A4A4A4A4A4A4A4A4A4A4A4A4A4A4A4A4A4A4A4A4A4A4A4A4A4A4A4A4A4A4A4A4A4A4A4A4A4A4A4A4A4A4A4A4A4A4A4A4A4A4A4A4A4A4A4A4A4A4A4A4A4A4A4A4A4A4A4A4A4A4A4A4A4A4A4A4A4A4
310
A4A4A4A4A4A4A4A4A4A4A4A4A4A4A4A4A4A4A4A4A4A4A4A4A4A4A4A4A4A4A4A4A4A4A4A4A4A4A4A4A4A4A4A4A4A4A4A4A4A4A4A4A4A4A4A4A4A4A4A4A4A4A4A4A4A4A4A4A4A4A4A4A4A4A4A4A4A4A4A4A4A4A4A4A4A4A4A4A4A4A4A4A4A4A4A4A4A4A4A4A4A4A4A4A4A4A4A4A4A4A4A4A4A4A4A4A4A4A4A4A4A4A4A4A4A4A4
310
A4A4A4A4A4A4A4A4A4A4A4A4A4A4A4A4A4A4A4A4A4A4A4A4A4A4A4A4A4A4A4A4A4A4A4A4A4A4A4A4A4A4A4A4A4A4A4A4A4A4A4A4A4A4A4A4A4A4A4A4A4A4A4A4A4A4A4A4A4A4A4A4A4A4A4A4A4A4A4A4A4A4A4A4A4A4A4A4A4A4A4A4A4A4A4A4A4A4A4A4A4A4A4A4A4A4A4A4A4A4A4A4A4A4A4A4A4A4A4A4A4A4A4A4A4A4A4
310
A4A4A4A4A4A4A4A4A4A4A4A4A4A4A4A4A4A4A4A4A4A4A4A4A4A4A4A4A4A4A4A4A4A4A4A4A4A4A4A4A4A4A4A4A4A4A4A4A4A4A4A4A4A4A4A4
1001
ACAD
1000
DesignCenter Data
1002
{
1070
     1
1070
     4
1002
}
  0
BLOCK_RECORD
  5
AA8
330
1
100
AcDbSymbolTableRecord
100
AcDbBlockTableRecord
  2
_CLOSED
340
0
  0
BLOCK_RECORD
  5
B79
330
1
100
AcDbSymbolTableRecord
100
AcDbBlockTableRecord
  2
nota revisoes
340
0
1001
ACAD
1000
DesignCenter Data
1002
{
1070
     1
1070
     4
1002
}
  0
BLOCK_RECORD
  5
B8E
330
1
100
AcDbSymbolTableRecord
100
AcDbBlockTableRecord
  2
a3l
340
0
1001
ACAD
1000
DesignCenter Data
1002
{
1070
     1
1070
     4
1002
}
  0
BLOCK_RECORD
  5
B9E
330
1
100
AcDbSymbolTableRecord
100
AcDbBlockTableRecord
  2
legenda desenvolvimento
340
0
1001
ACAD
1000
DesignCenter Data
1002
{
1070
     1
1070
     4
1002
}
  0
ENDTAB
  0
ENDSEC
  0
SECTION
  2
BLOCKS
  0
BLOCK
  5
20
330
1F
100
AcDbEntity
  8
0
100
AcDbBlockBegin
  2
*Model_Space
 70
     0
 10
0.0
 20
0.0
 30
0.0
  3
*Model_Space
  1

  0
ENDBLK
  5
21
330
1F
100
AcDbEntity
  8
0
100
AcDbBlockEnd
  0
BLOCK
  5
1C
330
1B
100
AcDbEntity
 67
     1
  8
0
100
AcDbBlockBegin
  2
*Paper_Space
 70
     0
 10
0.0
 20
0.0
 30
0.0
  3
*Paper_Space
  1

  0
ENDBLK
  5
1D
330
1B
100
AcDbEntity
 67
     1
  8
0
100
AcDbBlockEnd
  0
BLOCK
  5
24
330
23
100
AcDbEntity
 67
     1
  8
0
100
AcDbBlockBegin
  2
*Paper_Space0
 70
     0
 10
0.0
 20
0.0
 30
0.0
  3
*Paper_Space0
  1

  0
ENDBLK
  5
25
330
23
100
AcDbEntity
 67
     1
  8
0
100
AcDbBlockEnd
  0
BLOCK
  5
91B
330
919
100
AcDbEntity
  8
0
100
AcDbBlockBegin
  2
_DotSmall
 70
     0
 10
0.0
 20
0.0
 30
0.0
  3
_DotSmall
  1

  0
LWPOLYLINE
  5
91A
330
919
100
AcDbEntity
  8
0
  6
ByBlock
 62
     0
100
AcDbPolyline
 90
        2
 70
     1
 43
0.5
 10
-0.0625
 20
0.0
 42
1.0
 10
0.0625
 20
0.0
 42
1.0
  0
ENDBLK
  5
91C
330
919
100
AcDbEntity
  8
0
100
AcDbBlockEnd
  0
BLOCK
  5
92A
330
922
100
AcDbEntity
  8
0
100
AcDbBlockBegin
  2
base para cotas
 70
     0
 10
0.0
 20
0.0
 30
0.0
  3
base para cotas
  1

  0
LINE
  5
B36
330
922
100
AcDbEntity
  8
cotas
100
AcDbLine
 10
0.0
 20
-30.0
 30
0.0
 11
327.1260136525398
 21
-30.0
 31
0.0
  0
LINE
  5
B37
330
922
100
AcDbEntity
  8
cotas
100
AcDbLine
 10
0.0
 20
-25.0
 30
0.0
 11
327.1260136525398
 21
-25.0
 31
0.0
  0
LINE
  5
B38
330
922
100
AcDbEntity
  8
cotas
100
AcDbLine
 10
0.0
 20
-20.0
 30
0.0
 11
327.1260136525398
 21
-20.0
 31
0.0
  0
LINE
  5
B39
330
922
100
AcDbEntity
  8
cotas
100
AcDbLine
 10
0.0
 20
-15.0
 30
0.0
 11
327.1260136525398
 21
-15.0
 31
0.0
  0
LINE
  5
B3A
330
922
100
AcDbEntity
  8
cotas
100
AcDbLine
 10
0.0
 20
-10.0
 30
0.0
 11
327.1260136525398
 21
-10.0
 31
0.0
  0
LINE
  5
B3B
330
922
100
AcDbEntity
  8
cotas
100
AcDbLine
 10
0.0
 20
0.0
 30
0.0
 11
0.0
 21
-30.0
 31
0.0
  0
LINE
  5
B3C
330
922
100
AcDbEntity
  8
cotas
100
AcDbLine
 10
327.1260136525398
 20
-30.0
 30
0.0
 11
327.1260136525398
 21
0.0
 31
0.0
  0
ENDBLK
  5
92B
330
922
100
AcDbEntity
  8
0
100
AcDbBlockEnd
  0
BLOCK
  5
AAD
330
AA8
100
AcDbEntity
  8
0
100
AcDbBlockBegin
  2
_CLOSED
 70
     0
 10
0.0
 20
0.0
 30
0.0
  3
_CLOSED
  1

  0
LINE
  5
AA9
330
AA8
100
AcDbEntity
  8
0
100
AcDbLine
 10
-1.0
 20
0.166667
 30
0.0
 11
0.0
 21
0.0
 31
0.0
  0
LINE
  5
AAA
330
AA8
100
AcDbEntity
  8
0
100
AcDbLine
 10
0.0
 20
0.0
 30
0.0
 11
-1.0
 21
-0.166667
 31
0.0
  0
LINE
  5
AAB
330
AA8
100
AcDbEntity
  8
0
100
AcDbLine
 10
-1.0
 20
0.166667
 30
0.0
 11
-1.0
 21
-0.166667
 31
0.0
  0
LINE
  5
AAC
330
AA8
100
AcDbEntity
  8
0
100
AcDbLine
 10
0.0
 20
0.0
 30
0.0
 11
-1.0
 21
0.0
 31
0.0
  0
ENDBLK
  5
AAE
330
AA8
100
AcDbEntity
  8
0
100
AcDbBlockEnd
  0
BLOCK
  5
B7C
330
B79
100
AcDbEntity
  8
0
100
AcDbBlockBegin
  2
nota revisoes
 70
     0
 10
0.0
 20
0.0
 30
0.0
  3
nota revisoes
  1

  0
CIRCLE
  5
B7A
330
B79
100
AcDbEntity
  8
4
100
AcDbCircle
 10
0.0
 20
0.0
 30
0.0
 40
13.69426055101189
  0
TEXT
  5
B7B
330
B79
100
AcDbEntity
  8
4
100
AcDbText
 10
-5.496248358154345
 20
-5.354545554066362
 30
0.0
 40
12.0
  1
1
  7
SANINDUSA
 72
     1
 11
-0.249774214433728
 21
-5.354545554066362
 31
0.0
100
AcDbText
  0
ENDBLK
  5
B7D
330
B79
100
AcDbEntity
  8
0
100
AcDbBlockEnd
  0
BLOCK
  5
B9C
330
B8E
100
AcDbEntity
  8
0
100
AcDbBlockBegin
  2
a3l
 70
     0
 10
0.0
 20
0.0
 30
0.0
  3
a3l
  1

  0
LINE
  5
B8F
330
B8E
100
AcDbEntity
  8
1
100
AcDbLine
 10
-364.2925296599447
 20
-362.1188951399395
 30
0.0
 11
-364.2925296599447
 21
-65.11889513993946
 31
0.0
  0
LINE
  5
B90
330
B8E
100
AcDbEntity
  8
4
100
AcDbLine
 10
-369.2925296599447
 20
-357.1188951399395
 30
0.0
 11
-369.2925296599447
 21
-70.11889513993946
 31
0.0
  0
LINE
  5
B91
330
B8E
100
AcDbEntity
  8
1
100
AcDbLine
 10
-784.2925296599446
 20
-65.11889513993946
 30
0.0
 11
-784.2925296599446
 21
-362.1188951399395
 31
0.0
  0
LINE
  5
B92
330
B8E
100
AcDbEntity
  8
4
100
AcDbLine
 10
-759.2925296599446
 20
-357.1188951399395
 30
0.0
 11
-759.2925296599446
 21
-70.11889513993946
 31
0.0
  0
LINE
  5
B93
330
B8E
100
AcDbEntity
  8
1
100
AcDbLine
 10
-784.2925296599446
 20
-362.1188951399395
 30
0.0
 11
-364.2925296599447
 21
-362.1188951399395
 31
0.0
  0
LINE
  5
B94
330
B8E
100
AcDbEntity
  8
4
100
AcDbLine
 10
-759.2925296599446
 20
-357.1188951399395
 30
0.0
 11
-369.2925296599447
 21
-357.1188951399395
 31
0.0
  0
LINE
  5
B95
330
B8E
100
AcDbEntity
  8
1
100
AcDbLine
 10
-654.2925296599446
 20
-357.1188951399395
 30
0.0
 11
-654.2925296599446
 21
-362.1188951399395
 31
0.0
  0
LINE
  5
B96
330
B8E
100
AcDbEntity
  8
1
100
AcDbLine
 10
-364.2925296599447
 20
-65.11889513993946
 30
0.0
 11
-784.2925296599446
 21
-65.11889513993946
 31
0.0
  0
LINE
  5
B97
330
B8E
100
AcDbEntity
  8
4
100
AcDbLine
 10
-369.2925296599447
 20
-70.11889513993946
 30
0.0
 11
-759.2925296599446
 21
-70.11889513993946
 31
0.0
  0
LINE
  5
B98
330
B8E
100
AcDbEntity
  8
1
100
AcDbLine
 10
-654.2925296599446
 20
-65.11889513993946
 30
0.0
 11
-654.2925296599446
 21
-70.11889513993946
 31
0.0
  0
LINE
  5
B99
330
B8E
100
AcDbEntity
  8
1
100
AcDbLine
 10
-549.2925296599446
 20
-70.11889513993946
 30
0.0
 11
-549.2925296599446
 21
-65.11889513993946
 31
0.0
  0
LINE
  5
B9A
330
B8E
100
AcDbEntity
  8
1
100
AcDbLine
 10
-369.2925296599447
 20
-65.11889513993946
 30
0.0
 11
-364.2925296599447
 21
-65.11889513993946
 31
0.0
  0
LINE
  5
B9B
330
B8E
100
AcDbEntity
  8
1
100
AcDbLine
 10
-549.2925296599446
 20
-357.1188951399395
 30
0.0
 11
-549.2925296599446
 21
-362.1188951399395
 31
0.0
  0
ENDBLK
  5
B9D
330
B8E
100
AcDbEntity
  8
0
100
AcDbBlockEnd
  0
BLOCK
  5
C13
330
B9E
100
AcDbEntity
  8
0
100
AcDbBlockBegin
  2
legenda desenvolvimento
 70
     2
 10
0.0
 20
0.0
 30
0.0
  3
legenda desenvolvimento
  1

  0
ATTDEF
  5
B9F
330
B9E
100
AcDbEntity
  8
1
100
AcDbText
 10
-108.606245802552
 20
55.5
 30
0.0
 40
4.0
  1
XXXXXXXXXXXXXX
 41
0.8
  7
SANINDUSA
 72
     4
 11
-87.5
 21
57.5
 31
0.0
100
AcDbAttributeDefinition
  3
Nome do Produto:
  2
PRODUTO
 70
     0
  0
ATTDEF
  5
BA0
330
B9E
100
AcDbEntity
  8
1
100
AcDbText
 10
-97.9997966101695
 20
41.25
 30
0.0
 40
3.0
  1
XXXXXXXXX
 41
0.8
  7
futura
 72
     4
 11
-87.5
 21
42.75
 31
0.0
100
AcDbAttributeDefinition
  3
Nome da Peça:
  2
PECA
 70
     0
  0
ATTDEF
  5
BA1
330
B9E
100
AcDbEntity
  8
1
100
AcDbText
 10
-133.4422431161853
 20
21.11745296763252
 30
0.0
 40
2.5
  1
X
 41
0.8
  7
SANINDUSA
 72
     4
 11
-132.5
 21
22.36745296763252
 31
0.0
100
AcDbAttributeDefinition
  3
Cod. TESTE:
  2
TESTE
 70
     0
  0
ATTDEF
  5
BA2
330
B9E
100
AcDbEntity
  8
1
100
AcDbText
 10
-124.3844862323707
 20
21.11745296763252
 30
0.0
 40
2.5
  1
XX
 41
0.8
  7
SANINDUSA
 72
     4
 11
-122.5
 21
22.36745296763252
 31
0.0
100
AcDbAttributeDefinition
  3
Cod. Ano:
  2
ANO
 70
     0
  0
ATTDEF
  5
BA3
330
B9E
100
AcDbEntity
  8
1
100
AcDbText
 10
-112.526889953052
 20
21.11745296763252
 30
0.0
 40
2.5
  1
XXX
 41
0.8
  7
SANINDUSA
 72
     4
 11
-109.700160604496
 21
22.36745296763252
 31
0.0
100
AcDbAttributeDefinition
  3
Cod. Sequência:
  2
SEQUENCIA
 70
     0
  0
ATTDEF
  5
BA4
330
B9E
100
AcDbEntity
  8
1
100
AcDbText
 10
-99.35382430979316
 20
21.11745296763252
 30
0.0
 40
2.5
  1
XX
 41
0.8
  7
SANINDUSA
 72
     4
 11
-97.46933807742244
 21
22.36745296763252
 31
0.0
100
AcDbAttributeDefinition
  3
Cod. Tipo:
  2
TIPO
 70
     0
  0
ATTDEF
  5
BA5
330
B9E
100
AcDbEntity
  8
1
100
AcDbText
 10
-87.42035911468438
 20
21.11745296763252
 30
0.0
 40
2.5
  1
XXX
 41
0.8
  7
SANINDUSA
 72
     4
 11
-84.59362976612828
 21
22.36745296763252
 31
0.0
100
AcDbAttributeDefinition
  3
Cod. Produto:
  2
PRODUTO
 70
     0
  0
ATTDEF
  5
BA6
330
B9E
100
AcDbEntity
  8
1
100
AcDbText
 10
-74.62051971917853
 20
21.11745296763252
 30
0.0
 40
2.5
  1
XXX
 41
0.8
  7
SANINDUSA
 72
     4
 11
-71.79379037062244
 21
22.36745296763252
 31
0.0
100
AcDbAttributeDefinition
  3
Cod. Peça:
  2
PECA
 70
     0
  0
ATTDEF
  5
BA7
330
B9E
100
AcDbEntity
  8
1
100
AcDbText
 10
-61.10603446650329
 20
21.11745296763252
 30
0.0
 40
2.5
  1
XX
 41
0.8
  7
SANINDUSA
 72
     4
 11
-59.22154823413257
 21
22.36745296763252
 31
0.0
100
AcDbAttributeDefinition
  3
Cod. Revisão:
  2
REV
 70
     0
  0
ATTDEF
  5
BA8
330
B9E
100
AcDbEntity
  8
1
100
AcDbText
 10
-48.43615325006194
 20
21.11745296763252
 30
0.0
 40
2.5
  1
XX
 41
0.8
  7
SANINDUSA
 72
     4
 11
-46.55166701769121
 21
22.36745296763252
 31
0.0
100
AcDbAttributeDefinition
  3
Cod. Alteração:
  2
ALT
 70
     0
  0
ATTDEF
  5
BA9
330
B9E
100
AcDbEntity
  8
1
100
AcDbText
 10
-35.19086635325722
 20
23.98875083948959
 30
0.0
 40
3.0
  1
1/XXX
 41
0.8
  7
SANINDUSA
 72
     4
 11
-30.0
 21
25.25
 31
0.0
100
AcDbAttributeDefinition
  3
Escala geral:
  2
ESCALA
 70
     0
  0
ATTDEF
  5
BAA
330
B9E
100
AcDbEntity
  8
1
100
AcDbText
 10
-15.65345869711215
 20
23.75
 30
0.0
 40
3.0
  1
XXXXX
 41
0.8
  7
SANINDUSA
 72
     4
 11
-10.0
 21
25.25
 31
0.0
100
AcDbAttributeDefinition
  3
Folha:
  2
FOLHA
 70
     0
  0
ATTDEF
  5
BAB
330
B9E
100
AcDbEntity
  8
1
100
AcDbText
 10
-178.5146998822042
 20
56.9531347542807
 30
0.0
 40
2.0
  1
xx
 41
0.8
  7
SANINDUSA
 72
     4
 11
-177.2123493113513
 21
57.70330265219877
 31
0.0
100
AcDbAttributeDefinition
  3
revisão
  2
REV.
 70
     0
  0
ATTDEF
  5
BAC
330
B9E
100
AcDbEntity
  8
1
100
AcDbText
 10
-172.7849640077129
 20
56.9531347542807
 30
0.0
 40
2.0
  1
xx
 41
0.8
  7
SANINDUSA
 72
     4
 11
-171.48261343686
 21
57.70330265219877
 31
0.0
100
AcDbAttributeDefinition
  3
alteração
  2
ALT.
 70
     0
  0
ATTDEF
  5
BAD
330
B9E
100
AcDbEntity
  8
1
100
AcDbText
 10
-168.007199951307
 20
56.70330265219877
 30
0.0
 40
2.0
  1
xx/xx/xxxx
 41
0.8
  7
SANINDUSA
 11
-168.007199951307
 21
57.70330265219877
 31
0.0
100
AcDbAttributeDefinition
  3
data
  2
DATA
 70
     0
 74
     2
  0
ATTDEF
  5
BAE
330
B9E
100
AcDbEntity
  8
1
100
AcDbText
 10
-168.5396372253371
 20
13.15916722632639
 30
0.0
 40
2.0
  1
XX/XX/XXXX
 41
0.8
  7
SANINDUSA
 72
     4
 11
-161.5099528734231
 21
14.0
 31
0.0
100
AcDbAttributeDefinition
  3
Data projecto
  2
DATA_PROJ
 70
     0
  0
ATTDEF
  5
BAF
330
B9E
100
AcDbEntity
  8
1
100
AcDbText
 10
-150.8658110728766
 20
13.24983210208193
 30
0.0
 40
2.0
  1
xxxxxxxx
 41
0.8
  7
SANINDUSA
 72
     4
 11
-145.6564087894649
 21
14.0
 31
0.0
100
AcDbAttributeDefinition
  3
nome de quem projectou
  2
NOME
 70
     0
  0
ATTDEF
  5
BB0
330
B9E
100
AcDbEntity
  8
1
100
AcDbText
 10
-168.5396372253371
 20
9.159167226326394
 30
0.0
 40
2.0
  1
XX/XX/XXXX
 41
0.8
  7
SANINDUSA
 72
     4
 11
-161.5099528734231
 21
10.0
 31
0.0
100
AcDbAttributeDefinition
  3
Data desenhou
  2
DATA_DES
 70
     0
  0
ATTDEF
  5
BB1
330
B9E
100
AcDbEntity
  8
1
100
AcDbText
 10
-151.516986358303
 20
9.249832102081933
 30
0.0
 40
2.0
  1
xxxxxxxxx
 41
0.8
  7
SANINDUSA
 72
     4
 11
-145.6564087894649
 21
10.0
 31
0.0
100
AcDbAttributeDefinition
  3
nome
  2
NOME
 70
     0
  0
ATTDEF
  5
BB2
330
B9E
100
AcDbEntity
  8
1
100
AcDbText
 10
-127.2924214135946
 20
14.1979876583216
 30
0.0
 40
2.0
  1
Vitreous China
 41
0.8
  7
SANINDUSA
 72
     4
 11
-119.231709526422
 21
15.22216495852308
 31
0.0
100
AcDbAttributeDefinition
  3
Nome do Material:
  2
MATERIAL
 70
     0
  0
ATTDEF
  5
BB3
330
B9E
100
AcDbEntity
  8
1
100
AcDbText
 10
-103.1563452122093
 20
14.38019043949261
 30
0.0
 40
2.0
  1
Branco
 41
0.8
  7
SANINDUSA
 72
     4
 11
-99.33418268702462
 21
15.35937109765245
 31
0.0
100
AcDbAttributeDefinition
  3
cor da peça
  2
COR
 70
     0
  0
ATTDEF
  5
BB4
330
B9E
100
AcDbEntity
  8
1
100
AcDbText
 10
-116.7235057085292
 20
5.975822699798522
 30
0.0
 40
2.0
  1
Vidrado
 41
0.8
  7
SANINDUSA
 72
     4
 11
-112.5
 21
7.0
 31
0.0
100
AcDbAttributeDefinition
  3
Tipo de acabamento:
  2
ACABAMENTO
 70
     0
  0
ATTDEF
  5
BB5
330
B9E
100
AcDbEntity
  8
1
100
AcDbText
 10
-79.18527869967246
 20
16.65066409850533
 30
0.0
 40
2.0
  1
XXXXXXX
 41
0.8
  7
SANINDUSA
 72
     4
 11
-73.90871724903445
 21
17.65066409850533
 31
0.0
100
AcDbAttributeDefinition
  3
Normas
  2
NORMAS
 70
     0
  0
ATTDEF
  5
BB6
330
B9E
100
AcDbEntity
  8
1
100
AcDbText
 10
-30.55312290127603
 20
14.0
 30
0.0
 40
2.0
  1
XXXXXXXXXXXXXX
 41
0.8
  7
SANINDUSA
 72
     4
 11
-20.0
 21
15.0
 31
0.0
100
AcDbAttributeDefinition
  3
Substitui o desenho:
  2
SUBSTITUI
 70
     0
  0
ATTDEF
  5
BB7
330
B9E
100
AcDbEntity
  8
1
100
AcDbText
 10
-31.30691739422431
 20
6.0
 30
0.0
 40
2.0
  1
XXXXXXXXXXXXXXX
 41
0.8
  7
SANINDUSA
 72
     4
 11
-20.0
 21
7.0
 31
0.0
100
AcDbAttributeDefinition
  3
Substituido por:
  2
SUBSTITUIDO
 70
     0
  0
ATTDEF
  5
BB8
330
B9E
100
AcDbEntity
  8
1
100
AcDbText
 10
-110.0220608548302
 20
1.478208457928303
 30
0.0
 40
2.0
  1
XXXXXXXXXXXXXXXXXXXXXXXXXXXXXXXXXX
 41
0.8
  7
SANINDUSA
 11
-110.0220608548302
 21
2.478208457928303
 31
0.0
100
AcDbAttributeDefinition
  3
Localização do desenho:
  2
LOC-DWG
 70
     0
 74
     2
  0
LINE
  5
BB9
330
B9E
100
AcDbEntity
  8
3
100
AcDbLine
 10
-135.0
 20
4.0
 30
0.0
 11
0.0000000000004547
 21
4.0
 31
0.0
  0
LINE
  5
BBA
330
B9E
100
AcDbEntity
  8
3
100
AcDbLine
 10
-90.00000000000046
 20
12.0
 30
0.0
 11
-135.0
 21
12.0
 31
0.0
  0
LINE
  5
BBB
330
B9E
100
AcDbEntity
  8
3
100
AcDbLine
 10
-135.0
 20
32.5
 30
0.0
 11
-40.0
 21
32.5
 31
0.0
  0
TEXT
  5
BBC
330
B9E
100
AcDbEntity
  8
1
100
AcDbText
 10
-134.0
 20
1.25
 30
0.0
 40
2.0
  1
Localização do des.:
 41
0.8
  7
SANINDUSA
 11
-134.0
 21
2.25
 31
0.0
100
AcDbText
 73
     2
  0
LINE
  5
BBD
330
B9E
100
AcDbEntity
  8
3
100
AcDbLine
 10
-180.0
 20
65.0
 30
0.0
 11
0.0
 21
65.0
 31
0.0
  0
LINE
  5
BBE
330
B9E
100
AcDbEntity
  8
leg fin
100
AcDbLine
 10
-40.0
 20
25.05956924886846
 30
0.0
 11
-135.0
 21
25.05956924886846
 31
0.0
  0
LINE
  5
BBF
330
B9E
100
AcDbEntity
  8
leg fin
100
AcDbLine
 10
-40.0
 20
28.5
 30
0.0
 11
-135.0
 21
28.5
 31
0.0
  0
LINE
  5
BC0
330
B9E
100
AcDbEntity
  8
3
100
AcDbLine
 10
-135.0
 20
50.0
 30
0.0
 11
-40.0
 21
50.0
 31
0.0
  0
TEXT
  5
BC1
330
B9E
100
AcDbEntity
  8
1
100
AcDbText
 10
-134.0
 20
29.75
 30
0.0
 40
2.0
  1
Desenho nº:
 41
0.8
  7
SANINDUSA
 11
-134.0
 21
30.75
 31
0.0
100
AcDbText
 73
     2
  0
TEXT
  5
BC2
330
B9E
100
AcDbEntity
  8
1
100
AcDbText
 10
-134.0
 20
9.25
 30
0.0
 40
2.0
  1
Acabamento:
 41
0.8
  7
SANINDUSA
 11
-134.0
 21
10.25
 31
0.0
100
AcDbText
 73
     2
  0
LINE
  5
BC3
330
B9E
100
AcDbEntity
  8
3
100
AcDbLine
 10
-180.0
 20
20.0
 30
0.0
 11
0.0
 21
20.0
 31
0.0
  0
LINE
  5
BC4
330
B9E
100
AcDbEntity
  8
1
100
AcDbLine
 10
-174.5810776056337
 20
55.5
 30
0.0
 11
-174.5810776056337
 21
65.0
 31
0.0
  0
LINE
  5
BC5
330
B9E
100
AcDbEntity
  8
1
100
AcDbLine
 10
-168.9210461879161
 20
55.5
 30
0.0
 11
-168.9210461879161
 21
65.0
 31
0.0
  0
LINE
  5
BC6
330
B9E
100
AcDbEntity
  8
1
100
AcDbLine
 10
-154.0988595589306
 20
55.5
 30
0.0
 11
-154.0988595589306
 21
65.0
 31
0.0
  0
LINE
  5
BC7
330
B9E
100
AcDbEntity
  8
3
100
AcDbLine
 10
-180.0
 20
65.0
 30
0.0
 11
-180.0
 21
0.0
 31
0.0
  0
LINE
  5
BC8
330
B9E
100
AcDbEntity
  8
3
100
AcDbLine
 10
-135.0
 20
0.0
 30
0.0
 11
-135.0
 21
65.0
 31
0.0
  0
TEXT
  5
BC9
330
B9E
100
AcDbEntity
  8
1
100
AcDbText
 10
-179.0
 20
9.75
 30
0.0
 40
1.5
  1
Des.
 41
0.8
  7
SANINDUSA
 11
-179.0
 21
10.5
 31
0.0
100
AcDbText
 73
     2
  0
LINE
  5
BCA
330
B9E
100
AcDbEntity
  8
1
100
AcDbLine
 10
-168.9210461879161
 20
20.0
 30
0.0
 11
-168.9210461879161
 21
0.0
 31
0.0
  0
LINE
  5
BCB
330
B9E
100
AcDbEntity
  8
1
100
AcDbLine
 10
-154.0988595589306
 20
20.0
 30
0.0
 11
-154.0988595589306
 21
0.0
 31
0.0
  0
LINE
  5
BCC
330
B9E
100
AcDbEntity
  8
1
100
AcDbLine
 10
-180.0
 20
4.0
 30
0.0
 11
-135.0
 21
4.0
 31
0.0
  0
LINE
  5
BCD
330
B9E
100
AcDbEntity
  8
1
100
AcDbLine
 10
-180.0
 20
8.0
 30
0.0
 11
-135.0
 21
8.0
 31
0.0
  0
TEXT
  5
BCE
330
B9E
100
AcDbEntity
  8
1
100
AcDbText
 10
-179.0
 20
1.73257823687436
 30
0.0
 40
1.5
  1
Aprov.
 41
0.8
  7
SANINDUSA
 11
-179.0
 21
2.48257823687436
 31
0.0
100
AcDbText
 73
     2
  0
TEXT
  5
BCF
330
B9E
100
AcDbEntity
  8
1
100
AcDbText
 10
-179.0
 20
5.75
 30
0.0
 40
1.5
  1
Ver.
 41
0.8
  7
SANINDUSA
 11
-179.0
 21
6.5
 31
0.0
100
AcDbText
 73
     2
  0
LINE
  5
BD0
330
B9E
100
AcDbEntity
  8
1
100
AcDbLine
 10
-180.0
 20
16.0
 30
0.0
 11
-135.0
 21
16.0
 31
0.0
  0
LINE
  5
BD1
330
B9E
100
AcDbEntity
  8
1
100
AcDbLine
 10
-180.0
 20
12.0
 30
0.0
 11
-135.0
 21
12.0
 31
0.0
  0
TEXT
  5
BD2
330
B9E
100
AcDbEntity
  8
1
100
AcDbText
 10
-179.0
 20
13.75
 30
0.0
 40
1.5
  1
Proj.
 41
0.8
  7
SANINDUSA
 11
-179.0
 21
14.5
 31
0.0
100
AcDbText
 73
     2
  0
TEXT
  5
BD3
330
B9E
100
AcDbEntity
  8
1
100
AcDbText
 10
-167.9210461879161
 20
17.75
 30
0.0
 40
1.5
  1
Data
 41
0.8
  7
SANINDUSA
 11
-167.9210461879161
 21
18.5
 31
0.0
100
AcDbText
 73
     2
  0
TEXT
  5
BD4
330
B9E
100
AcDbEntity
  8
1
100
AcDbText
 10
-153.0988595589306
 20
17.75
 30
0.0
 40
1.5
  1
Nome
 41
0.8
  7
SANINDUSA
 11
-153.0988595589306
 21
18.5
 31
0.0
100
AcDbText
 73
     2
  0
LINE
  5
BD5
330
B9E
100
AcDbEntity
  8
leg fin
100
AcDbLine
 10
-130.0
 20
20.0
 30
0.0
 11
-130.0
 21
28.5
 31
0.0
  0
TEXT
  5
BD6
330
B9E
100
AcDbEntity
  8
1
100
AcDbText
 10
-134.0
 20
17.25
 30
0.0
 40
2.0
  1
Material:
 41
0.8
  7
SANINDUSA
 11
-134.0
 21
18.25
 31
0.0
100
AcDbText
 73
     2
  0
TEXT
  5
BD7
330
B9E
100
AcDbEntity
  8
1
100
AcDbText
 10
-129.0
 20
26.43288406845113
 30
0.0
 40
1.5
  1
Ano:
 41
0.8
  7
SANINDUSA
 11
-129.0
 21
27.18288406845113
 31
0.0
100
AcDbText
 73
     2
  0
LINE
  5
BD8
330
B9E
100
AcDbEntity
  8
1
100
AcDbLine
 10
-180.0
 20
55.5
 30
0.0
 11
-135.0
 21
55.5
 31
0.0
  0
TEXT
  5
BD9
330
B9E
100
AcDbEntity
  8
1
100
AcDbText
 10
-179.0
 20
52.67772246885193
 30
0.0
 40
1.5
  1
descrição
 41
0.8
  7
SANINDUSA
 11
-179.0
 21
53.42772246885193
 31
0.0
100
AcDbText
 73
     2
  0
TEXT
  5
BDA
330
B9E
100
AcDbEntity
  8
1
100
AcDbText
 10
-134.0
 20
47.25
 30
0.0
 40
2.0
  1
Peça:
 41
0.8
  7
SANINDUSA
 11
-134.0
 21
48.25
 31
0.0
100
AcDbText
 73
     2
  0
LINE
  5
BDB
330
B9E
100
AcDbEntity
  8
1
100
AcDbLine
 10
-180.0
 20
59.5
 30
0.0
 11
-135.0
 21
59.5
 31
0.0
  0
TEXT
  5
BDC
330
B9E
100
AcDbEntity
  8
1
100
AcDbText
 10
-173.5810776056337
 20
62.75
 30
0.0
 40
1.5
  1
Alt.
 41
0.8
  7
SANINDUSA
 11
-173.5810776056337
 21
63.5
 31
0.0
100
AcDbText
 73
     2
  0
TEXT
  5
BDD
330
B9E
100
AcDbEntity
  8
1
100
AcDbText
 10
-179.0
 20
62.75
 30
0.0
 40
1.5
  1
Rev.
 41
0.8
  7
SANINDUSA
 11
-179.0
 21
63.5
 31
0.0
100
AcDbText
 73
     2
  0
TEXT
  5
BDE
330
B9E
100
AcDbEntity
  8
1
100
AcDbText
 10
-167.9210461879161
 20
62.75
 30
0.0
 40
1.5
  1
Data
 41
0.8
  7
SANINDUSA
 11
-167.9210461879161
 21
63.5
 31
0.0
100
AcDbText
 73
     2
  0
TEXT
  5
BDF
330
B9E
100
AcDbEntity
  8
1
100
AcDbText
 10
-153.0988595589306
 20
62.75
 30
0.0
 40
1.5
  1
Nome
 41
0.8
  7
SANINDUSA
 11
-153.0988595589306
 21
63.5
 31
0.0
100
AcDbText
 73
     2
  0
TEXT
  5
BE0
330
B9E
100
AcDbEntity
  8
1
100
AcDbText
 10
-134.0
 20
62.25
 30
0.0
 40
2.0
  1
Produto:
 41
0.8
  7
SANINDUSA
 11
-134.0
 21
63.25
 31
0.0
100
AcDbText
 73
     2
  0
LINE
  5
BE1
330
B9E
100
AcDbEntity
  8
3
100
AcDbLine
 10
-40.0
 20
4.0
 30
0.0
 11
-40.0
 21
65.0
 31
0.0
  0
LWPOLYLINE
  5
BE2
102
{ACAD_REACTORS
330
BEC
102
}
330
B9E
100
AcDbEntity
  8
9
100
AcDbPolyline
 90
       12
 70
     1
 43
0.0
 10
-3.038714600644652
 20
58.90010174665076
 10
-5.726962862472191
 20
58.90010174665076
 10
-5.726962862472191
 20
58.5001017466509
 10
-3.038748516195028
 20
58.5001017466509
 42
-0.4142135623731731
 10
-2.638748516194482
 20
58.1001017466508
 10
-2.638748516194482
 20
57.42799728675596
 10
-5.21497371544865
 20
57.42799728675596
 42
0.4142135623731289
 10
-6.014973715448377
 20
56.627997286756
 10
-6.014973715448377
 20
55.92380871629643
 42
0.4142135623731132
 10
-5.21497371544865
 20
55.12380871629648
 10
-2.23871460064447
 20
55.12380871629648
 10
-2.23871460064447
 20
58.10010174665103
 42
0.4142135623730717
  0
LWPOLYLINE
  5
BE3
102
{ACAD_REACTORS
330
BEC
102
}
330
B9E
100
AcDbEntity
  8
9
100
AcDbPolyline
 90
       20
 70
     1
 43
0.0
 10
-10.01531287095122
 20
57.82799728675581
 10
-10.01531287095122
 20
58.10010174665103
 42
-0.4142135623730744
 10
-9.615312870951584
 20
58.5001017466509
 10
-6.92703069357276
 20
58.5001017466509
 10
-6.92703069357276
 20
58.90010174665076
 10
-9.615346786501959
 20
58.90010174665076
 42
0.4142135623730883
 10
-10.41534678650168
 20
58.1001017466508
 10
-10.41534678650168
 20
57.82796337120567
 42
0.4142135623730717
 10
-9.615346786501959
 20
57.02796337120571
 10
-7.423079531965413
 20
57.02796337120571
 42
-0.4142135623730847
 10
-7.023079531965322
 20
56.62796337120562
 10
-7.023079531965322
 20
55.90786840766487
 42
-0.4142135623730744
 10
-7.423079531965413
 20
55.507868407665
 10
-10.41534678650168
 20
55.507868407665
 10
-10.41534678650168
 20
55.12380871629648
 10
-7.445787917283723
 20
55.12380871629648
 42
0.4114777732064574
 10
-6.645822882998345
 20
55.9163291493976
 10
-6.639238813324936
 20
56.62051771985716
 42
0.4169546541682913
 10
-7.439203847610315
 20
57.42799728675596
 10
-9.615312870951584
 20
57.42799728675596
 42
-0.4142135623731576
  0
LWPOLYLINE
  5
BE4
102
{ACAD_REACTORS
330
BEC
102
}
330
B9E
100
AcDbEntity
  8
9
100
AcDbPolyline
 90
       12
 70
     1
 43
0.0
 10
-14.41561811090378
 20
58.90010174665076
 10
-14.79964388672215
 20
58.90010174665076
 10
-14.79964388672215
 20
55.92380871629643
 42
0.4142135623731133
 10
-13.99964388672242
 20
55.12380871629648
 10
-11.8233508563676
 20
55.12380871629648
 42
0.4142135623730872
 10
-11.02335085636741
 20
55.92380871629643
 10
-11.02335085636741
 20
58.90010174665076
 10
-11.42338477191788
 20
58.90010174665076
 10
-11.42338477191788
 20
55.91567577726095
 42
-0.4131711701795318
 10
-11.82196067063523
 20
55.51567831234956
 10
-14.0141940096214
 20
55.50787335710947
 42
-0.4152567234624407
 10
-14.41561811090378
 20
55.90787082202087
  0
LWPOLYLINE
  5
BE5
102
{ACAD_REACTORS
330
BEC
102
}
330
B9E
100
AcDbEntity
  8
9
100
AcDbPolyline
 90
        6
 70
     1
 43
0.0
 10
-15.80771578768872
 20
55.507868407665
 10
-18.39994912667453
 20
55.507868407665
 42
-0.4142135623731731
 10
-18.79994912667462
 20
55.90786840766487
 10
-18.79994912667462
 20
58.10010174665103
 42
-0.4142135623730744
 10
-18.39994912667453
 20
58.5001017466509
 10
-15.80771578768872
 20
58.5001017466509
  0
LWPOLYLINE
  5
BE6
102
{ACAD_REACTORS
330
BEC
102
}
330
B9E
100
AcDbEntity
  8
9
100
AcDbPolyline
 90
        8
 70
     1
 43
0.0
 10
-15.4236900118708
 20
59.87619128370352
 10
-15.80771578768872
 20
59.87619128370352
 10
-15.80771578768872
 20
58.90010174665076
 10
-18.39176256411201
 20
58.90010174665076
 42
0.4131164467977967
 10
-19.19175694739761
 20
58.1030995310698
 10
-19.1999120763262
 20
55.92680650071542
 42
0.4153115297271718
 10
-18.39991769304061
 20
55.12380871629648
 10
-15.4236900118708
 20
55.12380871629648
  0
LWPOLYLINE
  5
BE7
102
{ACAD_REACTORS
330
BEC
102
}
330
B9E
100
AcDbEntity
  8
9
100
AcDbPolyline
 90
       10
 70
     1
 43
0.0
 10
-20.59201288790928
 20
58.90010174665076
 10
-23.56830591826338
 20
58.90010174665076
 10
-23.56830591826338
 20
55.12380871629648
 10
-23.18424622689509
 20
55.12380871629648
 10
-23.18424622689509
 20
58.5001017466509
 10
-20.59204680345965
 20
58.5001017466509
 42
-0.4142135623730898
 10
-20.19204680345956
 20
58.1001017466508
 10
-20.19204680345956
 20
55.12380871629648
 10
-19.79201288790909
 20
55.12380871629648
 10
-19.79201288790909
 20
58.10010174665103
 42
0.4142135623731132
  0
LWPOLYLINE
  5
BE8
102
{ACAD_REACTORS
330
BEC
102
}
330
B9E
100
AcDbEntity
  8
9
100
AcDbPolyline
 90
        4
 70
     1
 43
0.0
 10
-24.19231812786165
 20
58.90010174665076
 10
-24.57637781922995
 20
58.90010174665076
 10
-24.57637781922995
 20
55.12380871629648
 10
-24.19231812786165
 20
55.12380871629648
  0
LWPOLYLINE
  5
BE9
102
{ACAD_REACTORS
330
BEC
102
}
330
B9E
100
AcDbEntity
  8
9
100
AcDbPolyline
 90
       10
 70
     1
 43
0.0
 10
-28.57661522808212
 20
58.5001017466509
 10
-25.98444972019706
 20
58.5001017466509
 42
-0.4142135623731731
 10
-25.58444972019652
 20
58.1001017466508
 10
-25.58444972019652
 20
55.12380871629648
 10
-25.2004239443786
 20
55.12380871629648
 10
-25.2004239443786
 20
58.10010174665103
 42
0.4142135623730717
 10
-26.00042394437833
 20
58.90010174665076
 10
-28.97664914363259
 20
58.90010174665076
 10
-28.97664914363259
 20
55.12380871629648
 10
-28.57661522808212
 20
55.12380871629648
  0
LWPOLYLINE
  5
BEA
102
{ACAD_REACTORS
330
BEC
102
}
330
B9E
100
AcDbEntity
  8
9
100
AcDbPolyline
 90
       12
 70
     1
 43
0.0
 10
-29.58465321349832
 20
58.10010174665103
 42
0.4142135623730716
 10
-30.3846532134985
 20
58.90010174665076
 10
-33.07296930642724
 20
58.90010174665076
 10
-33.07296930642724
 20
58.5001017466509
 10
-30.38468712904842
 20
58.5001017466509
 42
-0.4142135623730067
 10
-29.98468712904878
 20
58.1001017466508
 10
-29.98468712904878
 20
57.42799728675618
 10
-32.56098015940324
 20
57.42799728675596
 42
0.4142135623731289
 10
-33.36098015940343
 20
56.627997286756
 10
-33.36098015940343
 20
55.92380871629643
 42
0.4142135623731132
 10
-32.56098015940324
 20
55.12380871629648
 10
-29.58465321349832
 20
55.12380871629648
  0
LWPOLYLINE
  5
BEB
102
{ACAD_REACTORS
330
BEC
102
}
330
B9E
100
AcDbEntity
  8
9
100
AcDbPolyline
 90
       20
 70
     1
 43
0.0
 10
-34.7850262845518
 20
57.42799728675596
 10
-36.96125148380543
 20
57.42799728675596
 42
-0.4142135623730898
 10
-37.36125148380552
 20
57.82799728675604
 10
-37.36125148380552
 20
58.10010174665103
 42
-0.4142135623730744
 10
-36.96125148380543
 20
58.5001017466509
 10
-34.27303713752781
 20
58.50010174665067
 10
-34.27303713752781
 20
58.90010174665076
 10
-36.96128539935535
 20
58.90010174665076
 42
0.4142135623731289
 10
-37.76128539935553
 20
58.1001017466508
 10
-37.76128539935553
 20
57.82796337120567
 42
0.4142135623730716
 10
-36.9612853993558
 20
57.02796337120571
 10
-34.76901814481926
 20
57.02796337120571
 42
-0.414213562373168
 10
-34.36901814481962
 20
56.62796337120562
 10
-34.36901814481962
 20
55.90786840766487
 42
-0.4142135623730744
 10
-34.76901814481926
 20
55.507868407665
 10
-37.76128539935553
 20
55.507868407665
 10
-37.76128539935553
 20
55.12380871629648
 10
-34.7850262845518
 20
55.12380871629648
 42
0.4142135623731289
 10
-33.98502628455162
 20
55.92380871629643
 10
-33.98502628455162
 20
56.627997286756
 42
0.4142135623731132
  0
HATCH
  5
BEC
330
B9E
100
AcDbEntity
  8
9
100
AcDbHatch
 10
0.0
 20
0.0
 30
0.0
210
0.0
220
0.0
230
1.0
  2
SOLID
 70
     1
 71
     1
 91
       13
 92
        7
 72
     1
 73
     1
 93
       20
 10
-34.36901814481962
 20
55.90786840766487
 42
-0.414213562372991
 10
-34.76901814481926
 20
55.507868407665
 42
0.0
 10
-37.76128539935553
 20
55.507868407665
 42
0.0
 10
-37.76128539935553
 20
55.12380871629648
 42
0.0
 10
-34.7850262845518
 20
55.12380871629648
 42
0.4142135623731705
 10
-33.98502628455162
 20
55.92380871629666
 42
0.0
 10
-33.98502628455162
 20
56.627997286756
 42
0.4142135623731547
 10
-34.7850262845518
 20
57.42799728675596
 42
0.0
 10
-36.96125148380543
 20
57.42799728675596
 42
-0.4142135623730898
 10
-37.36125148380552
 20
57.82799728675604
 42
0.0
 10
-37.36125148380552
 20
58.1001017466508
 42
-0.4142135623731575
 10
-36.96125148380543
 20
58.5001017466509
 42
0.0
 10
-34.27303713752781
 20
58.50010174665067
 42
0.0
 10
-34.27303713752781
 20
58.90010174665076
 42
0.0
 10
-36.96128539935535
 20
58.90010174665076
 42
0.4142135623731705
 10
-37.76128539935553
 20
58.10010174665058
 42
0.0
 10
-37.76128539935553
 20
57.82796337120544
 42
0.4142135623730299
 10
-36.9612853993558
 20
57.02796337120571
 42
0.0
 10
-34.76901814481926
 20
57.02796337120571
 42
-0.4142135623730015
 10
-34.36901814481962
 20
56.62796337120608
 42
0.0
 97
        1
330
BEB
 92
        7
 72
     1
 73
     1
 93
       12
 10
-33.36098015940343
 20
55.92380871629666
 42
0.4142135623731547
 10
-32.56098015940324
 20
55.12380871629648
 42
0.0
 10
-29.58465321349877
 20
55.12380871629648
 42
0.0
 10
-29.58465321349832
 20
58.10010174665058
 42
0.4142135623731964
 10
-30.3846532134985
 20
58.90010174665076
 42
0.0
 10
-33.07296930642724
 20
58.90010174665076
 42
0.0
 10
-33.07296930642724
 20
58.50010174665067
 42
0.0
 10
-30.38468712904887
 20
58.5001017466509
 42
-0.4142135623732564
 10
-29.98468712904878
 20
58.10010174665103
 42
0.0
 10
-29.98468712904923
 20
57.42799728675596
 42
0.0
 10
-32.56098015940324
 20
57.42799728675596
 42
0.4142135623731705
 10
-33.36098015940343
 20
56.627997286756
 42
0.0
 97
        1
330
BEA
 92
       22
 72
     1
 73
     1
 93
        6
 10
-32.97692046803468
 20
56.62796337120562
 42
-0.4142135623731576
 10
-32.57692046803459
 20
57.02796337120571
 42
0.0
 10
-29.98468712904878
 20
57.02796337120571
 42
0.0
 10
-29.98468712904878
 20
55.507868407665
 42
0.0
 10
-32.57692046803459
 20
55.507868407665
 42
-0.4142135623731731
 10
-32.97692046803468
 20
55.90786840766487
 42
0.0
 97
        1
330
C11
 92
        7
 72
     1
 73
     1
 93
       10
 10
-28.57661522808212
 20
58.5001017466509
 42
0.0
 10
-25.98444972019661
 20
58.5001017466509
 42
-0.4142135623730067
 10
-25.58444972019652
 20
58.10010174665058
 42
0.0
 10
-25.58444972019606
 20
55.12380871629648
 42
0.0
 10
-25.20042394437906
 20
55.12380871629648
 42
0.0
 10
-25.2004239443786
 20
58.1001017466508
 42
0.4142135623731134
 10
-26.00042394437833
 20
58.90010174665076
 42
0.0
 10
-28.97664914363259
 20
58.90010174665076
 42
0.0
 10
-28.97664914363259
 20
55.12380871629648
 42
0.0
 10
-28.57661522808212
 20
55.12380871629648
 42
0.0
 97
        1
330
BE9
 92
        7
 72
     0
 73
     1
 93
        4
 10
-24.57637781922995
 20
55.12380871629648
 10
-24.19231812786165
 20
55.12380871629648
 10
-24.19231812786165
 20
58.90010174665076
 10
-24.57637781922995
 20
58.90010174665076
 97
        1
330
BE8
 92
        7
 72
     0
 73
     1
 93
        4
 10
-24.19231812786165
 20
59.87619128370352
 10
-24.5763778192304
 20
59.87619128370352
 10
-24.5763778192304
 20
59.28412752246913
 10
-24.1923181278612
 20
59.28412752246913
 97
        1
330
C12
 92
        7
 72
     1
 73
     1
 93
       10
 10
-23.18424622689509
 20
58.5001017466509
 42
0.0
 10
-20.59204680345965
 20
58.5001017466509
 42
-0.4142135623730898
 10
-20.19204680345956
 20
58.1001017466508
 42
0.0
 10
-20.19204680345956
 20
55.12380871629648
 42
0.0
 10
-19.79201288790909
 20
55.12380871629648
 42
0.0
 10
-19.79201288790909
 20
58.1001017466508
 42
0.4142135623731547
 10
-20.59201288790928
 20
58.90010174665076
 42
0.0
 10
-23.56830591826338
 20
58.90010174665076
 42
0.0
 10
-23.56830591826338
 20
55.12380871629648
 42
0.0
 10
-23.18424622689463
 20
55.12380871629648
 42
0.0
 97
        1
330
BE7
 92
        7
 72
     1
 73
     1
 93
        8
 10
-19.1999120763262
 20
55.92680650071542
 42
0.4153115297271299
 10
-18.39991769304061
 20
55.12380871629648
 42
0.0
 10
-15.4236900118708
 20
55.12380871629648
 42
0.0
 10
-15.4236900118708
 20
59.87619128370352
 42
0.0
 10
-15.80771578768872
 20
59.87619128370352
 42
0.0
 10
-15.80771578768872
 20
58.90010174665076
 42
0.0
 10
-18.39176256411201
 20
58.90010174665076
 42
0.4131164467977965
 10
-19.19175694739761
 20
58.1030995310698
 42
0.0
 97
        1
330
BE6
 92
       22
 72
     1
 73
     1
 93
        6
 10
-18.79994912667462
 20
58.1001017466508
 42
-0.4142135623731575
 10
-18.39994912667453
 20
58.5001017466509
 42
0.0
 10
-15.80771578768872
 20
58.50010174665067
 42
0.0
 10
-15.80771578768827
 20
55.507868407665
 42
0.0
 10
-18.39994912667453
 20
55.507868407665
 42
-0.4142135623731731
 10
-18.79994912667462
 20
55.90786840766487
 42
0.0
 97
        1
330
BE5
 92
        7
 72
     1
 73
     1
 93
       12
 10
-14.79964388672215
 20
55.92380871629621
 42
0.4142135623729885
 10
-13.99964388672242
 20
55.12380871629648
 42
0.0
 10
-11.8233508563676
 20
55.12380871629648
 42
0.4142135623731289
 10
-11.02335085636741
 20
55.92380871629666
 42
0.0
 10
-11.02335085636741
 20
58.90010174665076
 42
0.0
 10
-11.42338477191788
 20
58.90010174665076
 42
0.0
 10
-11.42338477191788
 20
55.91567577726095
 42
-0.4131711701795319
 10
-11.82196067063523
 20
55.51567831234956
 42
0.0
 10
-14.01419400962095
 20
55.50787335710947
 42
-0.4152567234626918
 10
-14.41561811090378
 20
55.90787082202087
 42
0.0
 10
-14.41561811090378
 20
58.90010174665076
 42
0.0
 10
-14.7996438867226
 20
58.90010174665076
 42
0.0
 97
        1
330
BE4
 92
        7
 72
     1
 73
     1
 93
       20
 10
-7.423079531965413
 20
57.02796337120571
 42
-0.414213562373168
 10
-7.023079531965322
 20
56.62796337120562
 42
0.0
 10
-7.023079531965322
 20
55.90786840766487
 42
-0.4142135623731575
 10
-7.423079531965413
 20
55.507868407665
 42
0.0
 10
-10.41534678650168
 20
55.507868407665
 42
0.0
 10
-10.41534678650168
 20
55.12380871629648
 42
0.0
 10
-7.445787917283723
 20
55.12380871629648
 42
0.4114777732065809
 10
-6.645822882998345
 20
55.91632914939783
 42
0.0
 10
-6.639238813324936
 20
56.62051771985716
 42
0.4169546541682913
 10
-7.439203847610315
 20
57.42799728675596
 42
0.0
 10
-9.615312870951584
 20
57.42799728675596
 42
-0.4142135623729911
 10
-10.01531287095122
 20
57.82799728675581
 42
0.0
 10
-10.01531287095122
 20
58.10010174665103
 42
-0.414213562372991
 10
-9.615312870951584
 20
58.5001017466509
 42
0.0
 10
-6.92703069357276
 20
58.50010174665067
 42
0.0
 10
-6.927030693572305
 20
58.90010174665076
 42
0.0
 10
-9.615346786501959
 20
58.90010174665076
 42
0.4142135623730467
 10
-10.41534678650168
 20
58.10010174665103
 42
0.0
 10
-10.41534678650168
 20
57.82796337120544
 42
0.4142135623730301
 10
-9.615346786501959
 20
57.02796337120571
 42
0.0
 97
        1
330
BE3
 92
        7
 72
     1
 73
     1
 93
       12
 10
-5.21497371544865
 20
57.42799728675596
 42
0.4142135623730871
 10
-6.014973715448377
 20
56.627997286756
 42
0.0
 10
-6.014973715448377
 20
55.92380871629621
 42
0.4142135623730715
 10
-5.21497371544865
 20
55.12380871629648
 42
0.0
 10
-2.23871460064447
 20
55.12380871629648
 42
0.0
 10
-2.23871460064447
 20
58.10010174665058
 42
0.414213562373155
 10
-3.038714600644652
 20
58.90010174665076
 42
0.0
 10
-5.726962862471737
 20
58.90010174665076
 42
0.0
 10
-5.726962862472191
 20
58.5001017466509
 42
0.0
 10
-3.038748516194573
 20
58.5001017466509
 42
-0.4142135623730067
 10
-2.638748516194482
 20
58.10010174665058
 42
0.0
 10
-2.638748516194482
 20
57.42799728675596
 42
0.0
 97
        1
330
BE2
 92
       22
 72
     1
 73
     1
 93
        6
 10
-2.638748516194937
 20
57.02796337120571
 42
0.0
 10
-2.638748516194482
 20
55.50786840766477
 42
0.0
 10
-5.21497371544865
 20
55.507868407665
 42
-0.4142135623731731
 10
-5.614973715448741
 20
55.90786840766509
 42
0.0
 10
-5.614973715448741
 20
56.62796337120562
 42
-0.4142135623731576
 10
-5.21497371544865
 20
57.02796337120571
 42
0.0
 97
        1
330
C0D
 75
     0
 76
     1
 47
0.0407044778999864
 98
       13
 10
-34.18710075113677
 20
56.16907953933765
 10
-33.12851374392494
 20
56.49471602641233
 10
-33.12851374392494
 20
56.49471602641233
 10
-28.77202873835904
 20
57.51232930166111
 10
-24.41554807250941
 20
57.91937341678636
 10
-24.41554807250941
 20
59.384734621186
 10
-23.31624584658039
 20
58.3264175319116
 10
-19.04119127844888
 20
57.75655517324913
 10
-19.04119127844888
 20
57.75655517324913
 10
-14.64399105416578
 20
57.43091868617466
 10
-8.048195057457178
 20
57.22739662861204
 10
-4.017427461911665
 20
57.18669281458665
 10
-4.017427461911665
 20
57.18669281458665
  0
TEXT
  5
BED
330
B9E
100
AcDbEntity
  8
leg fin
100
AcDbText
 10
3.391127401597259
 20
2.107634911895729
 30
0.0
 40
1.5
  1
Este desenho é propriedade da Sanindusa, S.A., e não pode ser copiado nem divulgado sem nossa autorização.
 50
90.0
 41
0.8
  7
SANINDUSA
100
AcDbText
  0
LINE
  5
BEE
330
B9E
100
AcDbEntity
  8
3
100
AcDbLine
 10
-90.0
 20
4.0
 30
0.0
 11
-90.0
 21
12.0
 31
0.0
  0
TEXT
  5
BEF
330
B9E
100
AcDbEntity
  8
1
100
AcDbText
 10
-39.0
 20
9.25
 30
0.0
 40
2.0
  1
Substituido por:
 41
0.8
  7
SANINDUSA
 11
-39.0
 21
10.25
 31
0.0
100
AcDbText
 73
     2
  0
POINT
  5
BF0
330
B9E
100
AcDbEntity
  8
SANINDUSA
100
AcDbPoint
 10
0.0
 20
0.0
 30
0.0
  0
TEXT
  5
BF1
330
B9E
100
AcDbEntity
  8
1
100
AcDbText
 10
-89.0
 20
16.74927010445663
 30
0.0
 40
2.0
  1
Normas:
 41
0.8
  7
SANINDUSA
 11
-89.0
 21
17.74927010445663
 31
0.0
100
AcDbText
 73
     2
  0
LINE
  5
BF2
330
B9E
100
AcDbEntity
  8
3
100
AcDbLine
 10
-90.0
 20
12.0
 30
0.0
 11
-90.0
 21
20.0
 31
0.0
  0
LINE
  5
BF3
330
B9E
100
AcDbEntity
  8
3
100
AcDbLine
 10
-110.546019464768
 20
12.0
 30
0.0
 11
-110.546019464768
 21
20.0
 31
0.0
  0
TEXT
  5
BF4
330
B9E
100
AcDbEntity
  8
1
100
AcDbText
 10
-109.6177520618648
 20
17.25
 30
0.0
 40
2.0
  1
Cor:
 41
0.8
  7
SANINDUSA
 11
-109.6177520618648
 21
18.25
 31
0.0
100
AcDbText
 73
     2
  0
LINE
  5
BF5
330
B9E
100
AcDbEntity
  8
leg fin
100
AcDbLine
 10
-91.42857142857156
 20
20.0
 30
0.0
 11
-91.42857142857156
 21
28.5
 31
0.0
  0
LINE
  5
BF6
330
B9E
100
AcDbEntity
  8
leg fin
100
AcDbLine
 10
-104.2857142857142
 20
20.0
 30
0.0
 11
-104.2857142857142
 21
28.5
 31
0.0
  0
LINE
  5
BF7
330
B9E
100
AcDbEntity
  8
leg fin
100
AcDbLine
 10
-117.1428571428573
 20
20.0
 30
0.0
 11
-117.1428571428573
 21
28.5
 31
0.0
  0
POINT
  5
BF8
330
B9E
100
AcDbEntity
  8
SANINDUSA
100
AcDbPoint
 10
-117.1428571428573
 20
28.5
 30
0.0
  0
POINT
  5
BF9
330
B9E
100
AcDbEntity
  8
SANINDUSA
100
AcDbPoint
 10
-104.2857142857142
 20
28.5
 30
0.0
  0
POINT
  5
BFA
330
B9E
100
AcDbEntity
  8
SANINDUSA
100
AcDbPoint
 10
-91.42857142857156
 20
28.5
 30
0.0
  0
TEXT
  5
BFB
330
B9E
100
AcDbEntity
  8
1
100
AcDbText
 10
-116.200160604496
 20
26.43288406845113
 30
0.0
 40
1.5
  1
Nº Seq.:
 41
0.8
  7
SANINDUSA
 11
-116.200160604496
 21
27.18288406845113
 31
0.0
100
AcDbText
 73
     2
  0
TEXT
  5
BFC
330
B9E
100
AcDbEntity
  8
1
100
AcDbText
 10
-103.2106584078738
 20
26.43288406845113
 30
0.0
 40
1.5
  1
Tipo:
 41
0.8
  7
SANINDUSA
 11
-103.2106584078738
 21
27.18288406845113
 31
0.0
100
AcDbText
 73
     2
  0
TEXT
  5
BFD
330
B9E
100
AcDbEntity
  8
1
100
AcDbText
 10
-90.22114672289353
 20
26.43288406845113
 30
0.0
 40
1.5
  1
Prod.:
 41
0.8
  7
SANINDUSA
 11
-90.22114672289353
 21
27.18288406845113
 31
0.0
100
AcDbText
 73
     2
  0
TEXT
  5
BFE
330
B9E
100
AcDbEntity
  8
1
100
AcDbText
 10
-64.77320576346574
 20
26.43288406845113
 30
0.0
 40
1.5
  1
Rev.:
 41
0.8
  7
SANINDUSA
 11
-64.77320576346574
 21
27.18288406845113
 31
0.0
100
AcDbText
 73
     2
  0
LINE
  5
BFF
330
B9E
100
AcDbEntity
  8
leg fin
100
AcDbLine
 10
-52.85714285714266
 20
20.0
 30
0.0
 11
-52.85714285714266
 21
28.5
 31
0.0
  0
LINE
  5
C00
330
B9E
100
AcDbEntity
  8
leg fin
100
AcDbLine
 10
-65.71428571428578
 20
20.0
 30
0.0
 11
-65.71428571428578
 21
28.5
 31
0.0
  0
LINE
  5
C01
330
B9E
100
AcDbEntity
  8
leg fin
100
AcDbLine
 10
-78.57142857142844
 20
20.0
 30
0.0
 11
-78.57142857142844
 21
28.5
 31
0.0
  0
POINT
  5
C02
330
B9E
100
AcDbEntity
  8
SANINDUSA
100
AcDbPoint
 10
-78.57142857142844
 20
28.5
 30
0.0
  0
POINT
  5
C03
330
B9E
100
AcDbEntity
  8
SANINDUSA
100
AcDbPoint
 10
-65.71428571428578
 20
28.5
 30
0.0
  0
POINT
  5
C04
330
B9E
100
AcDbEntity
  8
SANINDUSA
100
AcDbPoint
 10
-52.85714285714266
 20
28.5
 30
0.0
  0
TEXT
  5
C05
330
B9E
100
AcDbEntity
  8
1
100
AcDbText
 10
-77.61097961686573
 20
26.43288406845113
 30
0.0
 40
1.5
  1
Peça:
 41
0.8
  7
SANINDUSA
 11
-77.61097961686573
 21
27.18288406845113
 31
0.0
100
AcDbText
 73
     2
  0
TEXT
  5
C06
330
B9E
100
AcDbEntity
  8
1
100
AcDbText
 10
-52.06538060077036
 20
26.43288406845113
 30
0.0
 40
1.5
  1
Alt.:
 41
0.8
  7
SANINDUSA
 11
-52.06538060077036
 21
27.18288406845113
 31
0.0
100
AcDbText
 73
     2
  0
LINE
  5
C07
330
B9E
100
AcDbEntity
  8
3
100
AcDbLine
 10
0.0
 20
12.0
 30
0.0
 11
-40.0
 21
12.0
 31
0.0
  0
LINE
  5
C08
330
B9E
100
AcDbEntity
  8
3
100
AcDbLine
 10
-40.0
 20
32.5
 30
0.0
 11
0.0
 21
32.5
 31
0.0
  0
TEXT
  5
C09
330
B9E
100
AcDbEntity
  8
1
100
AcDbText
 10
-19.0
 20
29.75
 30
0.0
 40
2.0
  1
Folha:
 41
0.8
  7
SANINDUSA
 11
-19.0
 21
30.75
 31
0.0
100
AcDbText
 73
     2
  0
LINE
  5
C0A
330
B9E
100
AcDbEntity
  8
3
100
AcDbLine
 10
-20.0
 20
32.5
 30
0.0
 11
-20.0
 21
20.0
 31
0.0
  0
TEXT
  5
C0B
330
B9E
100
AcDbEntity
  8
1
100
AcDbText
 10
-39.0
 20
29.75
 30
0.0
 40
2.0
  1
Escala:
 41
0.8
  7
SANINDUSA
 11
-39.0
 21
30.75
 31
0.0
100
AcDbText
 73
     2
  0
TEXT
  5
C0C
330
B9E
100
AcDbEntity
  8
1
100
AcDbText
 10
-39.0
 20
17.25
 30
0.0
 40
2.0
  1
Substitui:
 41
0.8
  7
SANINDUSA
 11
-39.0
 21
18.25
 31
0.0
100
AcDbText
 73
     2
  0
LWPOLYLINE
  5
C0D
102
{ACAD_REACTORS
330
BEC
102
}
330
B9E
100
AcDbEntity
  8
9
100
AcDbPolyline
 90
        6
 70
     1
 43
0.0
 10
-2.638748516194482
 20
57.02796337120571
 10
-2.638748516194482
 20
55.50786840766477
 10
-5.21497371544865
 20
55.507868407665
 42
-0.4142135623730898
 10
-5.614973715448741
 20
55.90786840766487
 10
-5.614973715448741
 20
56.62796337120562
 42
-0.4142135623731576
 10
-5.21497371544865
 20
57.02796337120571
  0
LINE
  5
C0E
330
B9E
100
AcDbEntity
  8
3
100
AcDbLine
 10
-40.0
 20
50.0
 30
0.0
 11
0.0
 21
50.0
 31
0.0
  0
ATTDEF
  5
C0F
330
B9E
100
AcDbEntity
  8
1
100
AcDbText
 10
-31.30691739422431
 20
40.25
 30
0.0
 40
2.0
  1
XXXXXXXXXXXXXXX
 41
0.8
  7
SANINDUSA
 72
     4
 11
-20.0
 21
41.25
 31
0.0
100
AcDbAttributeDefinition
  3
Observações:
  2
OBS
 70
     0
  0
TEXT
  5
C10
330
B9E
100
AcDbEntity
  8
1
100
AcDbText
 10
-39.0
 20
47.25
 30
0.0
 40
2.0
  1
Observações:
 41
0.8
  7
SANINDUSA
 11
-39.0
 21
48.25
 31
0.0
100
AcDbText
 73
     2
  0
LWPOLYLINE
  5
C11
102
{ACAD_REACTORS
330
BEC
102
}
330
B9E
100
AcDbEntity
  8
9
100
AcDbPolyline
 90
        6
 70
     1
 43
0.0
 10
-29.98468712904878
 20
57.02796337120571
 10
-29.98468712904878
 20
55.507868407665
 10
-32.57692046803459
 20
55.507868407665
 42
-0.4142135623731731
 10
-32.97692046803468
 20
55.90786840766487
 10
-32.97692046803468
 20
56.62796337120562
 42
-0.4142135623731576
 10
-32.57692046803459
 20
57.02796337120571
  0
LWPOLYLINE
  5
C12
102
{ACAD_REACTORS
330
BEC
102
}
330
B9E
100
AcDbEntity
  8
9
100
AcDbPolyline
 90
        4
 70
     1
 43
0.0
 10
-24.19231812786165
 20
59.87619128370352
 10
-24.57637781922995
 20
59.87619128370352
 10
-24.57637781922995
 20
59.28412752246913
 10
-24.19231812786165
 20
59.28412752246913
  0
ENDBLK
  5
C14
330
B9E
100
AcDbEntity
  8
0
100
AcDbBlockEnd
  0
ENDSEC
  0
SECTION
  2
ENTITIES
  0
LINE
  5
2216
330
1F
100
AcDbEntity
  8
SANINDUSA
100
AcDbLine
 10
4984.740252728381
 20
2962.350917407407
 30
0.0
 11
4985.633047068532
 21
2962.350917407407
 31
0.0
  0
LINE
  5
2219
330
1F
100
AcDbEntity
  8
SANINDUSA
100
AcDbLine
 10
4985.6368041508
 20
2962.422080006703
 30
0.0
 11
4985.638046288903
 21
2962.350917407407
 31
0.0
  0
LINE
  5
221A
330
1F
100
AcDbEntity
  8
SANINDUSA
100
AcDbLine
 10
4985.633047068532
 20
2962.350917407407
 30
0.0
 11
4985.638046288903
 21
2962.350917407407
 31
0.0
  0
LINE
  5
221C
330
1F
100
AcDbEntity
  8
SANINDUSA
100
AcDbLine
 10
4984.735253489965
 20
2962.350917407407
 30
0.0
 11
4984.736495547117
 21
2962.422074813696
 31
0.0
  0
LINE
  5
221D
330
1F
100
AcDbEntity
  8
SANINDUSA
100
AcDbLine
 10
4984.735253489965
 20
2962.350917407407
 30
0.0
 11
4984.740252728381
 21
2962.350917407407
 31
0.0
  0
LINE
  5
221E
330
1F
100
AcDbEntity
  8
SANINDUSA
100
AcDbLine
 10
4984.745494170154
 20
2962.430917405619
 30
0.0
 11
4985.627805614884
 21
2962.430917405619
 31
0.0
  0
ARC
  5
2221
330
1F
100
AcDbEntity
  8
SANINDUSA
100
AcDbCircle
 10
4985.627805619759
 20
2962.421917405618
 30
0.0
 40
0.0090000000000001
100
AcDbArc
 50
1.000000009720081
 51
90.0
  0
ARC
  5
2222
330
1F
100
AcDbEntity
  8
SANINDUSA
100
AcDbCircle
 10
4984.745494170495
 20
2962.421917405618
 30
0.0
 40
0.009
100
AcDbArc
 50
90.0
 51
178.9999999902799
  0
ELLIPSE
  5
223A
330
1F
100
AcDbEntity
  8
SANINDUSA
100
AcDbEllipse
 10
4984.434234089043
 20
2962.706507456606
 30
0.0
 11
0.0076715688679884
 21
0.0076715688679883
 31
0.0
210
0.0
220
0.0
230
1.0
 40
0.9217238264485043
 41
5.512866274278628
 42
7.053504340080576
  0
LINE
  5
223D
330
1F
100
AcDbEntity
  8
SANINDUSA
100
AcDbLine
 10
4984.434815842212
 20
2962.716937291841
 30
0.0
 11
4983.657134748549
 21
2962.716937291841
 31
0.0
  0
ELLIPSE
  5
223F
330
1F
100
AcDbEntity
  8
SANINDUSA
100
AcDbEllipse
 10
4983.657716506932
 20
2962.706507456606
 30
0.0
 11
0.0076715688679884
 21
-0.0076715688679883
 31
0.0
210
0.0
220
0.0
230
0.9999999999999998
 40
0.9217238264485144
 41
2.371273620688826
 42
3.911911686490778
  0
LINE
  5
2241
330
1F
100
AcDbEntity
  8
SANINDUSA
100
AcDbLine
 10
4984.444663900435
 20
2961.929408121328
 30
0.0
 11
4984.444663900435
 21
2962.707089214991
 31
0.0
  0
LINE
  5
2243
330
1F
100
AcDbEntity
  8
SANINDUSA
100
AcDbLine
 10
4983.647286671699
 20
2962.707089214991
 30
0.0
 11
4983.647286671699
 21
2961.929408121328
 31
0.0
  0
ELLIPSE
  5
2246
330
1F
100
AcDbEntity
  8
SANINDUSA
100
AcDbEllipse
 10
4984.434234089043
 20
2961.929989874496
 30
0.0
 11
-0.0076715688679882
 21
0.0076715688679883
 31
0.0
210
0.0
220
0.0
230
1.0
 40
0.921723826448513
 41
2.371273620688842
 42
3.911911686490776
  0
ELLIPSE
  5
2247
330
1F
100
AcDbEntity
  8
SANINDUSA
100
AcDbEllipse
 10
4983.657716506932
 20
2961.929989874496
 30
0.0
 11
0.0076715688679883
 21
0.0076715688679883
 31
0.0
210
0.0
220
0.0
230
1.0
 40
0.9217238264485139
 41
2.371273620688833
 42
3.911911686490766
  0
LINE
  5
2249
330
1F
100
AcDbEntity
  8
SANINDUSA
100
AcDbLine
 10
4983.657134748549
 20
2961.919560063104
 30
0.0
 11
4984.434815842212
 21
2961.919560063104
 31
0.0
  0
LINE
  5
2250
330
1F
100
AcDbEntity
  8
SANINDUSA
100
AcDbLine
 10
4984.431936282218
 20
2962.714059236865
 30
0.0
 11
4984.434815842212
 21
2962.716937291841
 31
0.0
  0
LINE
  5
2251
330
1F
100
AcDbEntity
  8
SANINDUSA
100
AcDbLine
 10
4984.444663900435
 20
2962.707089214991
 30
0.0
 11
4984.441815811694
 21
2962.704241077821
 31
0.0
  0
ARC
  5
2252
330
1F
100
AcDbEntity
  8
SANINDUSA
100
AcDbCircle
 10
4983.660292757658
 20
2962.703899363941
 30
0.0
 40
0.0101638447650873
100
AcDbArc
 50
91.57073530218864
 51
178.0725238023454
  0
LINE
  5
2253
330
1F
100
AcDbEntity
  8
SANINDUSA
100
AcDbLine
 10
4983.650134663583
 20
2962.704241219382
 30
0.0
 11
4983.647286671699
 21
2962.707089214991
 31
0.0
  0
LINE
  5
2254
330
1F
100
AcDbEntity
  8
SANINDUSA
100
AcDbLine
 10
4983.657134748549
 20
2962.716937291841
 30
0.0
 11
4983.660014155805
 21
2962.714059389601
 31
0.0
  0
LINE
  5
2256
330
1F
100
AcDbEntity
  8
SANINDUSA
100
AcDbLine
 10
4984.441152411998
 20
2961.93291966937
 30
0.0
 11
4984.444663900435
 21
2961.929408121328
 31
0.0
  0
LINE
  5
2257
330
1F
100
AcDbEntity
  8
SANINDUSA
100
AcDbLine
 10
4984.434815842212
 20
2961.919560063104
 30
0.0
 11
4984.430900115073
 21
2961.923351156931
 31
0.0
  0
ARC
  5
2258
330
1F
100
AcDbEntity
  8
SANINDUSA
100
AcDbCircle
 10
4983.66053950026
 20
2961.933080524321
 30
0.0
 40
0.0097417678589494
100
AcDbArc
 50
180.9411957789194
 51
273.0137460338146
  0
LINE
  5
2259
330
1F
100
AcDbEntity
  8
SANINDUSA
100
AcDbLine
 10
4983.661051678956
 20
2961.923352229814
 30
0.0
 11
4983.657134748549
 21
2961.919560063104
 31
0.0
  0
LINE
  5
225A
330
1F
100
AcDbEntity
  8
SANINDUSA
100
AcDbLine
 10
4983.647286671699
 20
2961.929408121328
 30
0.0
 11
4983.650799046755
 21
2961.932920503836
 31
0.0
  0
LWPOLYLINE
  5
225C
330
1F
100
AcDbEntity
  8
SANINDUSA
100
AcDbPolyline
 90
        5
 70
   128
 43
0.0
 10
4983.660014155805
 20
2962.714059389602
 10
4983.792825776637
 20
2962.714056603085
 10
4984.045975345672
 20
2962.714043244194
 10
4984.299124914706
 20
2962.714055273156
 10
4984.431936282218
 20
2962.714059236865
  0
LWPOLYLINE
  5
225E
330
1F
100
AcDbEntity
  8
SANINDUSA
100
AcDbPolyline
 90
       10
 70
   128
 43
0.0
 10
4984.441815811694
 20
2962.704241077821
 10
4984.441368478835
 20
2962.555998790483
 10
4984.440611499846
 20
2962.302886772375
 10
4984.44018806845
 20
2962.176335263471
 10
4984.439788359702
 20
2962.049781429987
 10
4984.439780551493
 20
2962.026332187872
 10
4984.439894932807
 20
2962.002865958433
 10
4984.440149563849
 20
2961.97943817399
 10
4984.440562683642
 20
2961.956104266862
 10
4984.441152411998
 20
2961.93291966937
  0
LWPOLYLINE
  5
225F
330
1F
100
AcDbEntity
  8
SANINDUSA
100
AcDbPolyline
 90
       11
 70
   128
 43
0.0
 10
4983.650799046755
 20
2961.932920503836
 10
4983.651360101551
 20
2961.954479503851
 10
4983.651769078822
 20
2961.976172733526
 10
4983.652036025674
 20
2961.997952389936
 10
4983.65217098549
 20
2962.019770789365
 10
4983.652183997929
 20
2962.041580069284
 10
4983.651950139106
 20
2962.125951993684
 10
4983.65164772004
 20
2962.210317898016
 10
4983.651357192099
 20
2962.294685024242
 10
4983.650604135842
 20
2962.547797459583
 10
4983.650134663583
 20
2962.704241219382
  0
LWPOLYLINE
  5
2261
330
1F
100
AcDbEntity
  8
SANINDUSA
100
AcDbPolyline
 90
       12
 70
   128
 43
0.0
 10
4984.430900115073
 20
2961.923351156931
 10
4984.357508498728
 20
2961.923386740904
 10
4984.265497285426
 20
2961.923482525568
 10
4984.173490363658
 20
2961.92367260478
 10
4984.081494617761
 20
2961.923974085073
 10
4984.046996939481
 20
2961.924027669649
 10
4984.012494731248
 20
2961.923958468656
 10
4983.97799156934
 20
2961.923829186181
 10
4983.943491149247
 20
2961.92370276473
 10
4983.849350321591
 20
2961.923496949891
 10
4983.755201655925
 20
2961.92340247653
 10
4983.661051678956
 20
2961.923352229814
  0
ELLIPSE
  5
2264
330
1F
100
AcDbEntity
  8
SANINDUSA
100
AcDbEllipse
 10
4984.492370941541
 20
2962.764644309106
 30
0.0
 11
0.0035366109458464
 21
0.0035366109458496
 31
0.0
210
0.0
220
0.0
230
1.0
 40
0.9996954598818252
 41
5.497939437029271
 42
7.068431177329004
  0
ELLIPSE
  5
2267
330
1F
100
AcDbEntity
  8
SANINDUSA
100
AcDbEllipse
 10
4983.599579654434
 20
2962.764644309106
 30
0.0
 11
0.0035366109458464
 21
-0.0035366109458495
 31
0.0
210
0.0
220
0.0
230
1.0
 40
0.9996954598818714
 41
2.356346783440356
 42
3.926838523740092
  0
ELLIPSE
  5
226A
330
1F
100
AcDbEntity
  8
SANINDUSA
100
AcDbEllipse
 10
4983.599579654434
 20
2961.871853021998
 30
0.0
 11
0.0035366109458463
 21
0.0035366109458495
 31
0.0
210
0.0
220
0.0
230
1.0
 40
0.9996954598818872
 41
2.356346783439456
 42
3.926838523739226
  0
ELLIPSE
  5
226D
330
1F
100
AcDbEntity
  8
SANINDUSA
100
AcDbEllipse
 10
4984.492370941541
 20
2961.871853021998
 30
0.0
 11
0.0035366109458464
 21
-0.0035366109458495
 31
0.0
210
0.0
220
0.0
230
1.0
 40
0.9996954598818794
 41
5.497939437030172
 42
7.068431177329915
  0
LINE
  5
226F
330
1F
100
AcDbEntity
  8
SANINDUSA
100
AcDbLine
 10
4984.492372471393
 20
2962.769645070713
 30
0.0
 11
4983.599578131242
 21
2962.769645070713
 31
0.0
  0
LINE
  5
2270
330
1F
100
AcDbEntity
  8
SANINDUSA
100
AcDbLine
 10
4984.497371691764
 20
2961.871851492147
 30
0.0
 11
4984.497371691764
 21
2962.764645832298
 31
0.0
  0
LINE
  5
2271
330
1F
100
AcDbEntity
  8
SANINDUSA
100
AcDbLine
 10
4983.594578892827
 20
2962.764645832298
 30
0.0
 11
4983.594578892827
 21
2961.871851492147
 31
0.0
  0
LINE
  5
2272
330
1F
100
AcDbEntity
  8
SANINDUSA
100
AcDbLine
 10
4983.599578131242
 20
2961.866852271776
 30
0.0
 11
4984.492372471393
 21
2961.866852271776
 31
0.0
  0
LWPOLYLINE
  5
2274
330
1F
100
AcDbEntity
  8
SANINDUSA
100
AcDbPolyline
 90
       17
 70
   128
 43
0.0
 10
4984.421218890251
 20
2961.940095710973
 10
4984.421244579852
 20
2961.940083193998
 10
4984.421289879382
 20
2961.940061080675
 10
4984.421350020468
 20
2961.94003175519
 10
4984.421461183131
 20
2961.939977574568
 10
4984.421666640342
 20
2961.939877736787
 10
4984.422046441139
 20
2961.939693975668
 10
4984.422750014365
 20
2961.93935637496
 10
4984.424061256945
 20
2961.938737380723
 10
4984.424146014751
 20
2961.93869780324
 10
4984.426725167335
 20
2961.93752234004
 10
4984.42955483824
 20
2961.936301219683
 10
4984.432231980861
 20
2961.935224580983
 10
4984.435009199679
 20
2961.934215533953
 10
4984.437414187492
 20
2961.933472919683
 10
4984.439092058241
 20
2961.933083343725
 10
4984.44036002785
 20
2961.93293814681
  0
LWPOLYLINE
  5
2275
330
1F
100
AcDbEntity
  8
SANINDUSA
100
AcDbPolyline
 90
       10
 70
   128
 43
0.0
 10
4984.421218890251
 20
2961.940095710973
 10
4984.420799213946
 20
2961.961953389863
 10
4984.420518833697
 20
2961.983923423509
 10
4984.420365530551
 20
2962.005963492613
 10
4984.420326906741
 20
2962.028031397085
 10
4984.42039080292
 20
2962.050084877233
 10
4984.420682567656
 20
2962.17666016839
 10
4984.420840162337
 20
2962.303233880024
 10
4984.421663600505
 20
2962.55633893929
 10
4984.422090488971
 20
2962.694706949811
  0
ARC
  5
2276
330
1F
100
AcDbEntity
  8
SANINDUSA
100
AcDbCircle
 10
4984.818993874679
 20
2961.898718749507
 30
0.0
 40
0.8894546152598536
100
AcDbArc
 50
115.0908901279712
 51
116.5022084439183
  0
LWPOLYLINE
  5
2278
330
1F
100
AcDbEntity
  8
SANINDUSA
100
AcDbPolyline
 90
       17
 70
   128
 43
0.0
 10
4983.651592019499
 20
2961.932937431555
 10
4983.6528608571
 20
2961.933081436376
 10
4983.654539886416
 20
2961.933470297079
 10
4983.656947116852
 20
2961.934213090162
 10
4983.659726846517
 20
2961.935223031263
 10
4983.662398624719
 20
2961.936297762613
 10
4983.665222260654
 20
2961.937516677599
 10
4983.667797561288
 20
2961.9386908891
 10
4983.667902338804
 20
2961.938739824514
 10
4983.669202509821
 20
2961.939353990774
 10
4983.6699003312
 20
2961.939688968877
 10
4983.670277114511
 20
2961.939871418695
 10
4983.670480902791
 20
2961.939970481615
 10
4983.670591186285
 20
2961.940024245004
 10
4983.670650872887
 20
2961.940053391676
 10
4983.670695650876
 20
2961.94007526658
 10
4983.670721303225
 20
2961.940087783556
  0
LINE
  5
2279
330
1F
100
AcDbEntity
  8
SANINDUSA
100
AcDbLine
 10
4983.650799046755
 20
2961.932920503836
 30
0.0
 11
4983.651592019499
 21
2961.932937431555
 31
0.0
  0
ARC
  5
227B
330
1F
100
AcDbEntity
  8
SANINDUSA
100
AcDbCircle
 10
4983.271298765817
 20
2961.895379133781
 30
0.0
 40
0.8931822383793715
100
AcDbArc
 50
63.4980548609449
 51
64.90364749013581
  0
LWPOLYLINE
  5
227C
330
1F
100
AcDbEntity
  8
SANINDUSA
100
AcDbPolyline
 90
       11
 70
   128
 43
0.0
 10
4983.669861863852
 20
2962.694705079715
 10
4983.669986407758
 20
2962.654711100678
 10
4983.670504163504
 20
2962.494734931211
 10
4983.671171772779
 20
2962.295031893472
 10
4983.671237330437
 20
2962.210625756006
 10
4983.671236019135
 20
2962.126220691423
 10
4983.671613480449
 20
2962.041811752538
 10
4983.671700272263
 20
2962.016308713178
 10
4983.671554628313
 20
2961.990807044725
 10
4983.671215366126
 20
2961.965376782636
 10
4983.670721303225
 20
2961.940087783556
  0
ARC
  5
227D
330
1F
100
AcDbEntity
  8
SANINDUSA
100
AcDbCircle
 10
4982.08265365433
 20
2961.899296728091
 30
0.0
 40
1.775360342635296
100
AcDbArc
 50
26.61713191260839
 51
27.31795818980606
  0
ARC
  5
227F
330
1F
100
AcDbEntity
  8
SANINDUSA
100
AcDbCircle
 10
4986.014974243484
 20
2961.896481978198
 30
0.0
 40
1.781696315509453
100
AcDbArc
 50
152.6854136169902
 51
153.3836616955239
  0
LWPOLYLINE
  5
2280
330
1F
100
AcDbEntity
  8
SANINDUSA
100
AcDbPolyline
 90
        5
 70
   128
 43
0.0
 10
4984.422090488971
 20
2962.694706949811
 10
4984.299131053984
 20
2962.694729331355
 10
4984.045974958242
 20
2962.694800789873
 10
4983.79281965226
 20
2962.694721605103
 10
4983.669861863852
 20
2962.694705079715
  0
ARC
  5
2281
330
1F
100
AcDbEntity
  8
SANINDUSA
100
AcDbCircle
 10
4984.431465206661
 20
2962.703705495473
 30
0.0
 40
0.0103644523727695
100
AcDbArc
 50
2.962074645190337
 51
87.39494749343462
  0
LWPOLYLINE
  5
2282
330
1F
100
AcDbEntity
  8
SANINDUSA
100
AcDbPolyline
 90
       17
 70
   128
 43
0.0
 10
4983.670721303225
 20
2961.940087783556
 10
4983.670708287061
 20
2961.940062451582
 10
4983.670684847535
 20
2961.940016854029
 10
4983.670654203296
 20
2961.939957189779
 10
4983.670597772599
 20
2961.939847457628
 10
4983.670493874252
 20
2961.939645695905
 10
4983.67030250609
 20
2961.939274835806
 10
4983.66994949013
 20
2961.938593435507
 10
4983.669294837415
 20
2961.93733947299
 10
4983.669215280116
 20
2961.937187898378
 10
4983.667903665007
 20
2961.934717822294
 10
4983.666493493617
 20
2961.932126689177
 10
4983.665159422457
 20
2961.92974834464
 10
4983.6637541461
 20
2961.927344548922
 10
4983.662538166643
 20
2961.925388682108
 10
4983.661691005827
 20
2961.92414741538
 10
4983.661051678956
 20
2961.923352229814
  0
LWPOLYLINE
  5
2283
330
1F
100
AcDbEntity
  8
SANINDUSA
100
AcDbPolyline
 90
       12
 70
   128
 43
0.0
 10
4983.670721303225
 20
2961.940087783556
 10
4983.761543709338
 20
2961.93981437705
 10
4983.852364319862
 20
2961.939317274313
 10
4983.943175781071
 20
2961.938309598188
 10
4983.977853375971
 20
2961.937642264585
 10
4984.012534368337
 20
2961.936926233987
 10
4984.047214109004
 20
2961.936533856611
 10
4984.081887948812
 20
2961.93683772109
 10
4984.173771518768
 20
2961.938486564378
 10
4984.265669304431
 20
2961.939449835043
 10
4984.357572692932
 20
2961.93992267869
 10
4984.421218890251
 20
2961.940095710973
  0
LWPOLYLINE
  5
2284
330
1F
100
AcDbEntity
  8
SANINDUSA
100
AcDbPolyline
 90
       17
 70
   128
 43
0.0
 10
4984.430900115073
 20
2961.923351156931
 10
4984.430260080397
 20
2961.92414574645
 10
4984.429412383139
 20
2961.925385940294
 10
4984.428196448386
 20
2961.927339661341
 10
4984.426791566909
 20
2961.929740655641
 10
4984.425453979075
 20
2961.932123708944
 10
4984.424040037692
 20
2961.934720444898
 10
4984.422726351321
 20
2961.937193680029
 10
4984.422657329143
 20
2961.937325167875
 10
4984.421996969283
 20
2961.938589620809
 10
4984.421641010345
 20
2961.939276504736
 10
4984.421448129714
 20
2961.939650285463
 10
4984.421343404353
 20
2961.939853656511
 10
4984.421286541522
 20
2961.939964223127
 10
4984.421255606712
 20
2961.940024304609
 10
4984.421231943668
 20
2961.940070378999
 10
4984.421218890251
 20
2961.940095710973
  0
ARC
  5
2285
330
1F
100
AcDbEntity
  8
SANINDUSA
100
AcDbCircle
 10
4984.430295339526
 20
2961.934275880121
 30
0.0
 40
0.0109414500983523
100
AcDbArc
 50
273.168570403609
 51
352.8797813017548
  0
ARC
  5
2287
330
1F
100
AcDbEntity
  8
SANINDUSA
100
AcDbCircle
 10
4983.780472874344
 20
2962.583769810115
 30
0.0
 40
0.0025904440940831
100
AcDbArc
 50
90.00058009083447
 51
180.0
  0
LWPOLYLINE
  5
2292
330
1F
100
AcDbEntity
  8
SANINDUSA
100
AcDbPolyline
 90
        3
 70
   128
 43
0.0
 10
4983.780472848118
 20
2962.586360254208
 10
4983.788472834528
 20
2962.586360775749
 10
4983.791472557485
 20
2962.586360984366
  0
LWPOLYLINE
  5
2295
330
1F
100
AcDbEntity
  8
SANINDUSA
100
AcDbPolyline
 90
        3
 70
   128
 43
0.0
 10
4983.777882236541
 20
2962.57277128927
 10
4983.777882370652
 20
2962.58077012829
 10
4983.777882430256
 20
2962.583769985359
  0
ARC
  5
2296
330
1F
100
AcDbEntity
  8
SANINDUSA
100
AcDbCircle
 10
4983.791472901139
 20
2962.583771133696
 30
0.0
 40
0.00258985069222
100
AcDbArc
 50
0.0
 51
90.00760272302512
  0
LWPOLYLINE
  5
2298
330
1F
100
AcDbEntity
  8
SANINDUSA
100
AcDbPolyline
 90
        3
 70
   128
 43
0.0
 10
4983.79406275183
 20
2962.583771207254
 10
4983.794062587918
 20
2962.575772412936
 10
4983.794062513411
 20
2962.572772555868
  0
ARC
  5
229A
330
1F
100
AcDbEntity
  8
SANINDUSA
100
AcDbCircle
 10
4984.311477933331
 20
2962.583771550676
 30
0.0
 40
0.0025904022651716
100
AcDbArc
 50
0.0
 51
90.00034507379664
  0
LWPOLYLINE
  5
22A5
330
1F
100
AcDbEntity
  8
SANINDUSA
100
AcDbPolyline
 90
        3
 70
   128
 43
0.0
 10
4984.300478118957
 20
2962.586362727801
 10
4984.308478135169
 20
2962.586362161557
 10
4984.311477917731
 20
2962.586361952941
  0
LWPOLYLINE
  5
22A7
330
1F
100
AcDbEntity
  8
SANINDUSA
100
AcDbPolyline
 90
        3
 70
   128
 43
0.0
 10
4984.314068335593
 20
2962.583771684091
 10
4984.314068514407
 20
2962.575772904675
 10
4984.314068574011
 20
2962.572773077409
  0
ARC
  5
22A9
330
1F
100
AcDbEntity
  8
SANINDUSA
100
AcDbCircle
 10
4984.300477869672
 20
2962.583772797648
 30
0.0
 40
0.0025899301649297
100
AcDbArc
 50
89.9944851766884
 51
180.0
  0
LWPOLYLINE
  5
22AC
330
1F
100
AcDbEntity
  8
SANINDUSA
100
AcDbPolyline
 90
        3
 70
   128
 43
0.0
 10
4984.297888177931
 20
2962.572774418513
 10
4984.297887999118
 20
2962.580773168127
 10
4984.297887939513
 20
2962.583772980492
  0
ARC
  5
22AD
330
1F
100
AcDbEntity
  8
SANINDUSA
100
AcDbCircle
 10
4983.845471596046
 20
2962.583775109337
 30
0.0
 40
0.0025905986973905
100
AcDbArc
 50
90.0013627340469
 51
180.0
  0
LWPOLYLINE
  5
22B8
330
1F
100
AcDbEntity
  8
SANINDUSA
100
AcDbPolyline
 90
        3
 70
   128
 43
0.0
 10
4983.845471534431
 20
2962.586365708034
 10
4983.85347150594
 20
2962.586366527597
 10
4983.856471407712
 20
2962.586366840522
  0
LWPOLYLINE
  5
22BB
330
1F
100
AcDbEntity
  8
SANINDUSA
100
AcDbPolyline
 90
        3
 70
   128
 43
0.0
 10
4983.842880639732
 20
2962.572776951711
 10
4983.842880893052
 20
2962.580775597017
 10
4983.842880997361
 20
2962.583775349776
  0
ARC
  5
22BD
330
1F
100
AcDbEntity
  8
SANINDUSA
100
AcDbCircle
 10
4983.780472174959
 20
2962.572771376058
 30
0.0
 40
0.0025899384199776
100
AcDbArc
 50
180.0
 51
270.005991371163
  0
LWPOLYLINE
  5
22BF
330
1F
100
AcDbEntity
  8
SANINDUSA
100
AcDbPolyline
 90
        3
 70
   128
 43
0.0
 10
4983.79147209555
 20
2962.570182227413
 10
4983.78347210914
 20
2962.570181646268
 10
4983.780472445786
 20
2962.570181437652
  0
ARC
  5
22C0
330
1F
100
AcDbEntity
  8
SANINDUSA
100
AcDbCircle
 10
4983.85647183617
 20
2962.58377711937
 30
0.0
 40
0.0025897211868463
100
AcDbArc
 50
0.0
 51
90.00947936796448
  0
LWPOLYLINE
  5
22C2
330
1F
100
AcDbEntity
  8
SANINDUSA
100
AcDbPolyline
 90
        3
 70
   128
 43
0.0
 10
4983.859061557353
 20
2962.583777272026
 10
4983.859061289132
 20
2962.575778686325
 10
4983.859061169923
 20
2962.572778978269
  0
ARC
  5
22C4
330
1F
100
AcDbEntity
  8
SANINDUSA
100
AcDbCircle
 10
4983.791472035896
 20
2962.572772704931
 30
0.0
 40
0.0025904775184589
100
AcDbArc
 50
270.001319378354
 51
0.0
  0
ARC
  5
22C5
330
1F
100
AcDbEntity
  8
SANINDUSA
100
AcDbCircle
 10
4984.246479005516
 20
2962.583776971616
 30
0.0
 40
0.0025904649528726
100
AcDbArc
 50
0.0
 51
90.00159519768427
  0
LWPOLYLINE
  5
22D0
330
1F
100
AcDbEntity
  8
SANINDUSA
100
AcDbPolyline
 90
        3
 70
   128
 43
0.0
 10
4984.23547901541
 20
2962.586368524353
 10
4984.243478972018
 20
2962.586367734592
 10
4984.246478933394
 20
2962.586367436568
  0
LWPOLYLINE
  5
22D2
330
1F
100
AcDbEntity
  8
SANINDUSA
100
AcDbPolyline
 90
        3
 70
   128
 43
0.0
 10
4984.249069470465
 20
2962.583777108113
 10
4984.249069708884
 20
2962.575778522412
 10
4984.249069828093
 20
2962.572778814356
  0
ARC
  5
22D4
330
1F
100
AcDbEntity
  8
SANINDUSA
100
AcDbCircle
 10
4984.311478560283
 20
2962.572773284221
 30
0.0
 40
0.0025900137360217
100
AcDbArc
 50
269.9950155022768
 51
0.0
  0
ARC
  5
22D6
330
1F
100
AcDbEntity
  8
SANINDUSA
100
AcDbCircle
 10
4984.235478665867
 20
2962.583778694462
 30
0.0
 40
0.0025898299148443
100
AcDbArc
 50
89.99226694934611
 51
180.0
  0
LWPOLYLINE
  5
22D8
330
1F
100
AcDbEntity
  8
SANINDUSA
100
AcDbPolyline
 90
        3
 70
   128
 43
0.0
 10
4984.311478334964
 20
2962.570183270495
 10
4984.303478378356
 20
2962.570183866541
 10
4984.300478655399
 20
2962.57018410496
  0
LWPOLYLINE
  5
22DB
330
1F
100
AcDbEntity
  8
SANINDUSA
100
AcDbPolyline
 90
        3
 70
   128
 43
0.0
 10
4984.232889253199
 20
2962.572780781309
 10
4984.232888955176
 20
2962.580779322307
 10
4984.232888835967
 20
2962.583778970758
  0
ARC
  5
22DC
330
1F
100
AcDbEntity
  8
SANINDUSA
100
AcDbCircle
 10
4984.300478621984
 20
2962.572774549015
 30
0.0
 40
0.0025904440557549
100
AcDbArc
 50
180.0
 51
270.0007390790788
  0
ARC
  5
22DE
330
1F
100
AcDbEntity
  8
SANINDUSA
100
AcDbCircle
 10
4983.845470373433
 20
2962.572777072184
 30
0.0
 40
0.0025897337032285
100
AcDbArc
 50
180.0
 51
270.0088727009152
  0
ARC
  5
22DF
330
1F
100
AcDbEntity
  8
SANINDUSA
100
AcDbCircle
 10
4983.910471403572
 20
2962.58378204964
 30
0.0
 40
0.0025906321371368
100
AcDbArc
 50
90.00012464761727
 51
180.0
  0
LWPOLYLINE
  5
22EB
330
1F
100
AcDbEntity
  8
SANINDUSA
100
AcDbPolyline
 90
        3
 70
   128
 43
0.0
 10
4983.856470632852
 20
2962.570188590209
 10
4983.848470676243
 20
2962.570187681238
 10
4983.845470774472
 20
2962.570187338512
  0
LWPOLYLINE
  5
22EC
330
1F
100
AcDbEntity
  8
SANINDUSA
100
AcDbPolyline
 90
        3
 70
   128
 43
0.0
 10
4983.910471397937
 20
2962.586372681777
 10
4983.918471354545
 20
2962.586373546045
 10
4983.921471524537
 20
2962.586373858968
  0
LWPOLYLINE
  5
22EF
330
1F
100
AcDbEntity
  8
SANINDUSA
100
AcDbPolyline
 90
        3
 70
   128
 43
0.0
 10
4983.907880384029
 20
2962.572784491698
 10
4983.907880682052
 20
2962.580782868783
 10
4983.907880771458
 20
2962.583782398026
  0
ARC
  5
22F0
330
1F
100
AcDbEntity
  8
SANINDUSA
100
AcDbCircle
 10
4983.856470504382
 20
2962.572779255762
 30
0.0
 40
0.0025906655560664
100
AcDbArc
 50
270.0028412569766
 51
0.0
  0
ARC
  5
22F1
330
1F
100
AcDbEntity
  8
SANINDUSA
100
AcDbCircle
 10
4983.921472070505
 20
2962.583784225545
 30
0.0
 40
0.0025896334818858
100
AcDbArc
 50
0.0
 51
90.01207956316088
  0
ARC
  5
22F3
330
1F
100
AcDbEntity
  8
SANINDUSA
100
AcDbCircle
 10
4984.181479088384
 20
2962.583783623515
 30
0.0
 40
0.0025904440783854
100
AcDbArc
 50
0.0
 51
90.0046936706517
  0
LWPOLYLINE
  5
22FE
330
1F
100
AcDbEntity
  8
SANINDUSA
100
AcDbPolyline
 90
        3
 70
   128
 43
0.0
 10
4983.92406170398
 20
2962.583784409682
 10
4983.924061405957
 20
2962.575786107104
 10
4983.92406131655
 20
2962.572786637466
  0
LWPOLYLINE
  5
2300
330
1F
100
AcDbEntity
  8
SANINDUSA
100
AcDbPolyline
 90
        3
 70
   128
 43
0.0
 10
4984.170478779375
 20
2962.586375140469
 10
4984.178478735984
 20
2962.586374365609
 10
4984.181478876173
 20
2962.586374067585
  0
LWPOLYLINE
  5
2302
330
1F
100
AcDbEntity
  8
SANINDUSA
100
AcDbPolyline
 90
        3
 70
   128
 43
0.0
 10
4984.184069532455
 20
2962.583783828537
 10
4984.184069770873
 20
2962.575785511057
 10
4984.184069890083
 20
2962.572785996716
  0
ARC
  5
2304
330
1F
100
AcDbEntity
  8
SANINDUSA
100
AcDbCircle
 10
4984.246480031632
 20
2962.572779027408
 30
0.0
 40
0.0025897964689495
100
AcDbArc
 50
269.9928456853168
 51
0.0
  0
LWPOLYLINE
  5
2306
330
1F
100
AcDbEntity
  8
SANINDUSA
100
AcDbPolyline
 90
        3
 70
   128
 43
0.0
 10
4984.246479708255
 20
2962.570189230959
 10
4984.238479751647
 20
2962.570190095227
 10
4984.235479790271
 20
2962.570190423052
  0
ARC
  5
2308
330
1F
100
AcDbEntity
  8
SANINDUSA
100
AcDbCircle
 10
4984.170478370252
 20
2962.583785310548
 30
0.0
 40
0.0025898299530563
100
AcDbArc
 50
89.99094882162093
 51
179.9915783911062
  0
LWPOLYLINE
  5
230B
330
1F
100
AcDbEntity
  8
SANINDUSA
100
AcDbPolyline
 90
        3
 70
   128
 43
0.0
 10
4984.167888897956
 20
2962.572787993471
 10
4984.167888659538
 20
2962.580786251347
 10
4984.167888540328
 20
2962.583785691182
  0
ARC
  5
230C
330
1F
100
AcDbEntity
  8
SANINDUSA
100
AcDbCircle
 10
4984.235479780835
 20
2962.572780950693
 30
0.0
 40
0.0025905276414544
100
AcDbArc
 50
180.0
 51
270.0002087013826
  0
ARC
  5
230D
330
1F
100
AcDbEntity
  8
SANINDUSA
100
AcDbCircle
 10
4983.97547253227
 20
2962.583788324426
 30
0.0
 40
0.002590481730098
100
AcDbArc
 50
89.99745691763273
 51
179.9906774837634
  0
LWPOLYLINE
  5
2318
330
1F
100
AcDbEntity
  8
SANINDUSA
100
AcDbPolyline
 90
        3
 70
   128
 43
0.0
 10
4983.975472647251
 20
2962.586378806154
 10
4983.98347263366
 20
2962.586379372398
 10
4983.986472982467
 20
2962.586379566113
  0
LWPOLYLINE
  5
231B
330
1F
100
AcDbEntity
  8
SANINDUSA
100
AcDbPolyline
 90
        3
 70
   128
 43
0.0
 10
4983.972881752551
 20
2962.57279131643
 10
4983.972881961167
 20
2962.580789410393
 10
4983.972882050574
 20
2962.58378874592
  0
ARC
  5
231C
330
1F
100
AcDbEntity
  8
SANINDUSA
100
AcDbCircle
 10
4983.986473564048
 20
2962.583789849098
 30
0.0
 40
0.0025897170806742
100
AcDbArc
 50
0.0
 51
90.01286710475389
  0
ARC
  5
231F
330
1F
100
AcDbEntity
  8
SANINDUSA
100
AcDbCircle
 10
4984.116477845211
 20
2962.583789247388
 30
0.0
 40
0.0025903187402937
100
AcDbArc
 50
0.0
 51
90.00614817078048
  0
LWPOLYLINE
  5
232A
330
1F
100
AcDbEntity
  8
SANINDUSA
100
AcDbPolyline
 90
        3
 70
   128
 43
0.0
 10
4984.10547723204
 20
2962.586380221765
 10
4984.113477188647
 20
2962.586379759829
 10
4984.116477567256
 20
2962.586379566113
  0
LWPOLYLINE
  5
232C
330
1F
100
AcDbEntity
  8
SANINDUSA
100
AcDbPolyline
 90
        3
 70
   128
 43
0.0
 10
4983.98906328112
 20
2962.583790072124
 10
4983.989063102305
 20
2962.575792037766
 10
4983.989063042701
 20
2962.572792746941
  0
LWPOLYLINE
  5
232E
330
1F
100
AcDbEntity
  8
SANINDUSA
100
AcDbPolyline
 90
        3
 70
   128
 43
0.0
 10
4984.119068163932
 20
2962.583789565484
 10
4984.119068342746
 20
2962.575791501324
 10
4984.11906840235
 20
2962.572792180698
  0
ARC
  5
2330
330
1F
100
AcDbEntity
  8
SANINDUSA
100
AcDbCircle
 10
4984.105476870841
 20
2962.583790224691
 30
0.0
 40
0.0025899970990358
100
AcDbArc
 50
89.99200957702456
 51
179.9898597443201
  0
ARC
  5
2333
330
1F
100
AcDbEntity
  8
SANINDUSA
100
AcDbCircle
 10
4983.910469975715
 20
2962.572784648944
 30
0.0
 40
0.0025895916907168
100
AcDbArc
 50
180.0
 51
270.0123449604547
  0
LWPOLYLINE
  5
2335
330
1F
100
AcDbEntity
  8
SANINDUSA
100
AcDbPolyline
 90
        3
 70
   128
 43
0.0
 10
4984.1028871122
 20
2962.572793402593
 10
4984.102886933387
 20
2962.580791407149
 10
4984.102886873782
 20
2962.583790683071
  0
LWPOLYLINE
  5
2337
330
1F
100
AcDbEntity
  8
SANINDUSA
100
AcDbPolyline
 90
        3
 70
   128
 43
0.0
 10
4983.92147066027
 20
2962.570196353714
 10
4983.913470703662
 20
2962.570195414941
 10
4983.910470533669
 20
2962.570195057313
  0
ARC
  5
2338
330
1F
100
AcDbEntity
  8
SANINDUSA
100
AcDbCircle
 10
4983.921470617584
 20
2962.572787052712
 30
0.0
 40
0.0025906989990751
100
AcDbArc
 50
270.0009440285265
 51
359.9908163574741
  0
ARC
  5
2339
330
1F
100
AcDbEntity
  8
SANINDUSA
100
AcDbCircle
 10
4984.040474653939
 20
2962.583791400869
 30
0.0
 40
0.0025902812195264
100
AcDbArc
 50
89.99499872278994
 51
179.9885185317643
  0
ARC
  5
2344
330
1F
100
AcDbEntity
  8
SANINDUSA
100
AcDbCircle
 10
4984.051475780383
 20
2962.58379176977
 30
0.0
 40
0.0025899719568776
100
AcDbArc
 50
0.0
 51
90.01052391709803
  0
ARC
  5
2347
330
1F
100
AcDbEntity
  8
SANINDUSA
100
AcDbCircle
 10
4984.181480093597
 20
2962.572786358812
 30
0.0
 40
0.0025897965103203
100
AcDbArc
 50
269.991527557599
 51
0.0
  0
LWPOLYLINE
  5
2349
330
1F
100
AcDbEntity
  8
SANINDUSA
100
AcDbPolyline
 90
        3
 70
   128
 43
0.0
 10
4984.04047488004
 20
2962.586381682078
 10
4984.04847486645
 20
2962.586381741683
 10
4984.051475304664
 20
2962.586381741683
  0
LWPOLYLINE
  5
234B
330
1F
100
AcDbEntity
  8
SANINDUSA
100
AcDbPolyline
 90
        3
 70
   128
 43
0.0
 10
4984.037884342969
 20
2962.572794743697
 10
4984.037884372771
 20
2962.580792688648
 10
4984.037884372771
 20
2962.583791919868
  0
LWPOLYLINE
  5
234C
330
1F
100
AcDbEntity
  8
SANINDUSA
100
AcDbPolyline
 90
        3
 70
   128
 43
0.0
 10
4984.054065752328
 20
2962.583792009274
 10
4984.05406578213
 20
2962.575794079225
 10
4984.05406578213
 20
2962.572794848006
  0
LWPOLYLINE
  5
234E
330
1F
100
AcDbEntity
  8
SANINDUSA
100
AcDbPolyline
 90
        3
 70
   128
 43
0.0
 10
4984.181479710639
 20
2962.57019656233
 10
4984.173479754031
 20
2962.570197441499
 10
4984.170479554236
 20
2962.570197754423
  0
ARC
  5
2350
330
1F
100
AcDbEntity
  8
SANINDUSA
100
AcDbCircle
 10
4984.170479383817
 20
2962.57278824029
 30
0.0
 40
0.0025904858729056
100
AcDbArc
 50
180.0
 51
270.0037692876704
  0
ARC
  5
2352
330
1F
100
AcDbEntity
  8
SANINDUSA
100
AcDbCircle
 10
4983.975471427836
 20
2962.57279154237
 30
0.0
 40
0.0025896752946224
100
AcDbArc
 50
180.0
 51
270.0131324499375
  0
LWPOLYLINE
  5
2354
330
1F
100
AcDbEntity
  8
SANINDUSA
100
AcDbPolyline
 90
        3
 70
   128
 43
0.0
 10
4983.986472416223
 20
2962.570202731411
 10
4983.978472459615
 20
2962.570202120464
 10
4983.975472021402
 20
2962.570201867144
  0
ARC
  5
2355
330
1F
100
AcDbEntity
  8
SANINDUSA
100
AcDbCircle
 10
4983.986472560999
 20
2962.572793213151
 30
0.0
 40
0.0025904817442138
100
AcDbArc
 50
269.9967978798329
 51
359.9896884580602
  0
ARC
  5
2356
330
1F
100
AcDbEntity
  8
SANINDUSA
100
AcDbCircle
 10
4984.116478472145
 20
2962.57279264673
 30
0.0
 40
0.0025899302465381
100
AcDbArc
 50
269.9918490254719
 51
359.9896901776971
  0
LWPOLYLINE
  5
2358
330
1F
100
AcDbEntity
  8
SANINDUSA
100
AcDbPolyline
 90
        3
 70
   128
 43
0.0
 10
4984.116478103698
 20
2962.57020271651
 10
4984.108478087485
 20
2962.570203252952
 10
4984.105477708876
 20
2962.570203431766
  0
ARC
  5
235A
330
1F
100
AcDbEntity
  8
SANINDUSA
100
AcDbCircle
 10
4984.105477297241
 20
2962.572793616782
 30
0.0
 40
0.0025901850493317
100
AcDbArc
 50
180.0
 51
270.0091055293253
  0
ARC
  5
235C
330
1F
100
AcDbEntity
  8
SANINDUSA
100
AcDbCircle
 10
4984.040474227195
 20
2962.572794969969
 30
0.0
 40
0.0025898842360622
100
AcDbArc
 50
180.0
 51
270.0124648660459
  0
ARC
  5
235D
330
1F
100
AcDbEntity
  8
SANINDUSA
100
AcDbCircle
 10
4984.051475576168
 20
2962.5727953663
 30
0.0
 40
0.0025902060143913
100
AcDbArc
 50
269.9939942985271
 51
359.9885352330856
  0
LWPOLYLINE
  5
235F
330
1F
100
AcDbEntity
  8
SANINDUSA
100
AcDbPolyline
 90
        3
 70
   128
 43
0.0
 10
4984.051475304664
 20
2962.570205160301
 10
4984.043475318253
 20
2962.570205130498
 10
4984.040474790633
 20
2962.570205085795
  0
ARC
  5
2360
330
1F
100
AcDbEntity
  8
SANINDUSA
100
AcDbCircle
 10
4983.780471896865
 20
2962.518776973963
 30
0.0
 40
0.0025904649913357
100
AcDbArc
 50
90.00269024159427
 51
180.0
  0
LWPOLYLINE
  5
236B
330
1F
100
AcDbEntity
  8
SANINDUSA
100
AcDbPolyline
 90
        3
 70
   128
 43
0.0
 10
4983.780471775234
 20
2962.521367438953
 10
4983.788471746743
 20
2962.521368079702
 10
4983.791471275986
 20
2962.521368347923
  0
LWPOLYLINE
  5
236E
330
1F
100
AcDbEntity
  8
SANINDUSA
100
AcDbPolyline
 90
        3
 70
   128
 43
0.0
 10
4983.777881297767
 20
2962.50777817599
 10
4983.777881402076
 20
2962.515777119319
 10
4983.777881431878
 20
2962.518777110498
  0
ARC
  5
2372
330
1F
100
AcDbEntity
  8
SANINDUSA
100
AcDbCircle
 10
4983.791471606581
 20
2962.518778513997
 30
0.0
 40
0.0025898339475671
100
AcDbArc
 50
0.0
 51
90.00731387613839
  0
LWPOLYLINE
  5
2377
330
1F
100
AcDbEntity
  8
SANINDUSA
100
AcDbPolyline
 90
        3
 70
   128
 43
0.0
 10
4983.794061440528
 20
2962.51877855591
 10
4983.794061291516
 20
2962.510779657285
 10
4983.794061246813
 20
2962.507779666106
  0
ARC
  5
237C
330
1F
100
AcDbEntity
  8
SANINDUSA
100
AcDbCircle
 10
4984.311479077228
 20
2962.518779402483
 30
0.0
 40
0.0025903312483977
100
AcDbArc
 50
0.0
 51
90.00059739142351
  0
LWPOLYLINE
  5
2387
330
1F
100
AcDbEntity
  8
SANINDUSA
100
AcDbPolyline
 90
        3
 70
   128
 43
0.0
 10
4984.300479489863
 20
2962.521370702307
 10
4984.308479446472
 20
2962.521369987051
 10
4984.311479050219
 20
2962.521369733731
  0
LWPOLYLINE
  5
2389
330
1F
100
AcDbEntity
  8
SANINDUSA
100
AcDbPolyline
 90
        3
 70
   128
 43
0.0
 10
4984.314069408476
 20
2962.518779405277
 10
4984.314069527687
 20
2962.510780521552
 10
4984.314069587291
 20
2962.507780589978
  0
ARC
  5
238E
330
1F
100
AcDbEntity
  8
SANINDUSA
100
AcDbCircle
 10
4984.300479140315
 20
2962.518780872434
 30
0.0
 40
0.0025898298960258
100
AcDbArc
 50
89.99226679301548
 51
180.0
  0
LWPOLYLINE
  5
2391
330
1F
100
AcDbEntity
  8
SANINDUSA
100
AcDbPolyline
 90
        3
 70
   128
 43
0.0
 10
4984.297889548838
 20
2962.507782169502
 10
4984.297889370025
 20
2962.515781023423
 10
4984.29788931042
 20
2962.518780954997
  0
ARC
  5
2397
330
1F
100
AcDbEntity
  8
SANINDUSA
100
AcDbCircle
 10
4983.780471186024
 20
2962.507778182811
 30
0.0
 40
0.002589888256877
100
AcDbArc
 50
180.0
 51
270.0064418639133
  0
LWPOLYLINE
  5
2399
330
1F
100
AcDbEntity
  8
SANINDUSA
100
AcDbPolyline
 90
        3
 70
   128
 43
0.0
 10
4983.791470888555
 20
2962.505189248244
 10
4983.783470931948
 20
2962.505188532988
 10
4983.780471477211
 20
2962.50518829457
  0
ARC
  5
23A0
330
1F
100
AcDbEntity
  8
SANINDUSA
100
AcDbCircle
 10
4983.7914707275
 20
2962.507779767553
 30
0.0
 40
0.0025905193139639
100
AcDbArc
 50
270.0035621495946
 51
0.0
  0
ARC
  5
23AA
330
1F
100
AcDbEntity
  8
SANINDUSA
100
AcDbCircle
 10
4983.845469571463
 20
2962.518783975948
 30
0.0
 40
0.0025907198785174
100
AcDbArc
 50
90.0047018519543
 51
180.0
  0
LWPOLYLINE
  5
23B5
330
1F
100
AcDbEntity
  8
SANINDUSA
100
AcDbPolyline
 90
        3
 70
   128
 43
0.0
 10
4983.845469358862
 20
2962.521374695818
 10
4983.853469270766
 20
2962.521375843208
 10
4983.856469112933
 20
2962.521376290242
  0
LWPOLYLINE
  5
23B8
330
1F
100
AcDbEntity
  8
SANINDUSA
100
AcDbPolyline
 90
        3
 70
   128
 43
0.0
 10
4983.842878479064
 20
2962.507785537164
 10
4983.842878747285
 20
2962.515784301679
 10
4983.842878851593
 20
2962.518784188549
  0
ARC
  5
23BC
330
1F
100
AcDbEntity
  8
SANINDUSA
100
AcDbCircle
 10
4984.311479640422
 20
2962.507780715024
 30
0.0
 40
0.0025899468710435
100
AcDbArc
 50
269.9948548986167
 51
0.0
  0
LINE
  5
23BE
330
1F
100
AcDbEntity
  8
SANINDUSA
100
AcDbLine
 10
4984.311479407847
 20
2962.505190768163
 30
0.0
 11
4984.300479907096
 21
2962.50519175164
 31
0.0
  0
ARC
  5
23C6
330
1F
100
AcDbEntity
  8
SANINDUSA
100
AcDbCircle
 10
4984.300479963667
 20
2962.507782166467
 30
0.0
 40
0.0025904148280044
100
AcDbArc
 50
180.0
 51
269.9987487296878
  0
ARC
  5
23C7
330
1F
100
AcDbEntity
  8
SANINDUSA
100
AcDbCircle
 10
4983.856469628038
 20
2962.518786715362
 30
0.0
 40
0.0025895749320745
100
AcDbArc
 50
0.0
 51
90.01139697153526
  0
LWPOLYLINE
  5
23C9
330
1F
100
AcDbEntity
  8
SANINDUSA
100
AcDbPolyline
 90
        3
 70
   128
 43
0.0
 10
4983.85905920297
 20
2962.518786796252
 10
4983.859058904947
 20
2962.510788091342
 10
4983.859058785736
 20
2962.507788249175
  0
ARC
  5
23CC
330
1F
100
AcDbEntity
  8
SANINDUSA
100
AcDbCircle
 10
4984.24648098412
 20
2962.518786418086
 30
0.0
 40
0.0025906321170759
100
AcDbArc
 50
0.0
 51
89.99789803054335
  0
LWPOLYLINE
  5
23D9
330
1F
100
AcDbEntity
  8
SANINDUSA
100
AcDbPolyline
 90
        3
 70
   128
 43
0.0
 10
4984.235481280387
 20
2962.521378585021
 10
4984.24348117739
 20
2962.521377452533
 10
4984.246481079162
 20
2962.521377050201
  0
LWPOLYLINE
  5
23DB
330
1F
100
AcDbEntity
  8
SANINDUSA
100
AcDbPolyline
 90
        3
 70
   128
 43
0.0
 10
4984.249071616233
 20
2962.518786572735
 10
4984.249071854652
 20
2962.510787852924
 10
4984.24907197386
 20
2962.507788010757
  0
ARC
  5
23E3
330
1F
100
AcDbEntity
  8
SANINDUSA
100
AcDbCircle
 10
4984.235480806626
 20
2962.518788938982
 30
0.0
 40
0.0025896460825735
100
AcDbArc
 50
89.98951808373361
 51
180.0
  0
LWPOLYLINE
  5
23E6
330
1F
100
AcDbEntity
  8
SANINDUSA
100
AcDbPolyline
 90
        3
 70
   128
 43
0.0
 10
4984.232891518176
 20
2962.507790663163
 10
4984.232891220153
 20
2962.515789308469
 10
4984.232891160548
 20
2962.518789091031
  0
ARC
  5
23F5
330
1F
100
AcDbEntity
  8
SANINDUSA
100
AcDbCircle
 10
4983.845468058146
 20
2962.507785562601
 30
0.0
 40
0.0025895790823586
100
AcDbArc
 50
180.0
 51
270.0113051012354
  0
LWPOLYLINE
  5
23FA
330
1F
100
AcDbEntity
  8
SANINDUSA
100
AcDbPolyline
 90
        3
 70
   128
 43
0.0
 10
4983.856468248666
 20
2962.505197682302
 10
4983.848468381465
 20
2962.505196430604
 10
4983.8454685691
 20
2962.505195983569
  0
ARC
  5
2402
330
1F
100
AcDbEntity
  8
SANINDUSA
100
AcDbCircle
 10
4983.856468019913
 20
2962.507788448122
 30
0.0
 40
0.0025907658308352
100
AcDbArc
 50
270.00505896321
 51
0.0
  0
ARC
  5
2406
330
1F
100
AcDbEntity
  8
SANINDUSA
100
AcDbCircle
 10
4984.24648231108
 20
2962.507788149708
 30
0.0
 40
0.0025896627837571
100
AcDbArc
 50
269.9898876493314
 51
0.0
  0
LINE
  5
2408
330
1F
100
AcDbEntity
  8
SANINDUSA
100
AcDbLine
 10
4984.246481854022
 20
2962.505198486964
 30
0.0
 11
4984.235482055247
 21
2962.505200126092
 31
0.0
  0
ARC
  5
2416
330
1F
100
AcDbEntity
  8
SANINDUSA
100
AcDbCircle
 10
4983.910469007696
 20
2962.518793984651
 30
0.0
 40
0.002590799256772
100
AcDbArc
 50
90.00316147420504
 51
180.0
  0
ARC
  5
2421
330
1F
100
AcDbEntity
  8
SANINDUSA
100
AcDbCircle
 10
4984.23548219208
 20
2962.507790799995
 30
0.0
 40
0.0025906739072803
100
AcDbArc
 50
180.0
 51
269.9969738038945
  0
LWPOLYLINE
  5
2422
330
1F
100
AcDbEntity
  8
SANINDUSA
100
AcDbPolyline
 90
        3
 70
   128
 43
0.0
 10
4983.910468864739
 20
2962.521384783904
 10
4983.918468761743
 20
2962.521386050503
 10
4983.921469021142
 20
2962.52138652734
  0
LWPOLYLINE
  5
2425
330
1F
100
AcDbEntity
  8
SANINDUSA
100
AcDbPolyline
 90
        3
 70
   128
 43
0.0
 10
4983.907877731621
 20
2962.507796206395
 10
4983.90787808925
 20
2962.515794672887
 10
4983.907878208459
 20
2962.518794306438
  0
ARC
  5
242E
330
1F
100
AcDbEntity
  8
SANINDUSA
100
AcDbCircle
 10
4983.921469641759
 20
2962.518796998384
 30
0.0
 40
0.0025895290307229
100
AcDbArc
 50
0.0
 51
90.01373176945877
  0
ARC
  5
2438
330
1F
100
AcDbEntity
  8
SANINDUSA
100
AcDbCircle
 10
4984.181481418231
 20
2962.51879614814
 30
0.0
 40
0.002590498410845
100
AcDbArc
 50
0.0
 51
90.00217341255163
  0
LWPOLYLINE
  5
2443
330
1F
100
AcDbEntity
  8
SANINDUSA
100
AcDbPolyline
 90
        3
 70
   128
 43
0.0
 10
4983.924059170783
 20
2962.518797197263
 10
4983.924058813155
 20
2962.510798820178
 10
4983.924058693946
 20
2962.507799246232
  0
LWPOLYLINE
  5
2445
330
1F
100
AcDbEntity
  8
SANINDUSA
100
AcDbPolyline
 90
        3
 70
   128
 43
0.0
 10
4984.170481103957
 20
2962.521388270776
 10
4984.17848100096
 20
2962.521387093584
 10
4984.181481319964
 20
2962.52138664655
  0
LWPOLYLINE
  5
2447
330
1F
100
AcDbEntity
  8
SANINDUSA
100
AcDbPolyline
 90
        3
 70
   128
 43
0.0
 10
4984.18407191664
 20
2962.518796228687
 10
4984.184072274268
 20
2962.510797806899
 10
4984.184072393477
 20
2962.507798203151
  0
ARC
  5
244E
330
1F
100
AcDbEntity
  8
SANINDUSA
100
AcDbCircle
 10
4984.170480654163
 20
2962.518798541137
 30
0.0
 40
0.002589729678139
100
AcDbArc
 50
89.99004866987599
 51
179.9914896734782
  0
LWPOLYLINE
  5
2454
330
1F
100
AcDbEntity
  8
SANINDUSA
100
AcDbPolyline
 90
        3
 70
   128
 43
0.0
 10
4984.167891401352
 20
2962.507801064174
 10
4984.167891043723
 20
2962.515799381654
 10
4984.167890924513
 20
2962.518798925798
  0
ARC
  5
2460
330
1F
100
AcDbEntity
  8
SANINDUSA
100
AcDbCircle
 10
4983.910467177075
 20
2962.507796336589
 30
0.0
 40
0.0025894454573826
100
AcDbArc
 50
180.0
 51
270.0149218624214
  0
LWPOLYLINE
  5
2464
330
1F
100
AcDbEntity
  8
SANINDUSA
100
AcDbPolyline
 90
        3
 70
   128
 43
0.0
 10
4983.921468007864
 20
2962.505208768766
 10
4983.913468140662
 20
2962.505207397859
 10
4983.910467851461
 20
2962.505206891219
  0
ARC
  5
246C
330
1F
100
AcDbEntity
  8
SANINDUSA
100
AcDbCircle
 10
4983.921467794427
 20
2962.50779966831
 30
0.0
 40
0.002590899553033
100
AcDbArc
 50
270.0047199863066
 51
359.9906660716281
  0
ARC
  5
246D
330
1F
100
AcDbEntity
  8
SANINDUSA
100
AcDbCircle
 10
4984.181482747394
 20
2962.50779850423
 30
0.0
 40
0.0025896461008155
100
AcDbArc
 50
269.989518187954
 51
0.0
  0
LWPOLYLINE
  5
2471
330
1F
100
AcDbEntity
  8
SANINDUSA
100
AcDbPolyline
 90
        3
 70
   128
 43
0.0
 10
4984.181482273639
 20
2962.505208858173
 10
4984.173482376636
 20
2962.505210139672
 10
4984.170482057631
 20
2962.50521061651
  0
ARC
  5
2473
330
1F
100
AcDbEntity
  8
SANINDUSA
100
AcDbCircle
 10
4983.975470792034
 20
2962.518803329075
 30
0.0
 40
0.0025906488454926
100
AcDbArc
 50
89.99983475853078
 51
179.9902776421351
  0
LWPOLYLINE
  5
2480
330
1F
100
AcDbEntity
  8
SANINDUSA
100
AcDbPolyline
 90
        3
 70
   128
 43
0.0
 10
4983.975470799506
 20
2962.521393977921
 10
4983.983470756114
 20
2962.521394842188
 10
4983.986471343339
 20
2962.521395140211
  0
LWPOLYLINE
  5
2483
330
1F
100
AcDbEntity
  8
SANINDUSA
100
AcDbPolyline
 90
        3
 70
   128
 43
0.0
 10
4983.972879755795
 20
2962.50780627958
 10
4983.972880024016
 20
2962.515804418247
 10
4983.972880143226
 20
2962.518803768675
  0
ARC
  5
2487
330
1F
100
AcDbEntity
  8
SANINDUSA
100
AcDbCircle
 10
4984.116479501576
 20
2962.518804719533
 30
0.0
 40
0.0025903312910677
100
AcDbArc
 50
0.0
 51
90.0071886031996
  0
ARC
  5
2492
330
1F
100
AcDbEntity
  8
SANINDUSA
100
AcDbCircle
 10
4983.986472063313
 20
2962.518805531823
 30
0.0
 40
0.0025896084886108
100
AcDbArc
 50
0.0
 51
90.01592962176555
  0
LWPOLYLINE
  5
2494
330
1F
100
AcDbEntity
  8
SANINDUSA
100
AcDbPolyline
 90
        3
 70
   128
 43
0.0
 10
4984.105478602947
 20
2962.521396078984
 10
4984.113478559554
 20
2962.521395348828
 10
4984.116479176581
 20
2962.521395050804
  0
ARC
  5
2496
330
1F
100
AcDbEntity
  8
SANINDUSA
100
AcDbCircle
 10
4984.170481941551
 20
2962.507801156709
 30
0.0
 40
0.0025905402017628
100
AcDbArc
 50
180.0
 51
270.0025673657241
  0
LWPOLYLINE
  5
2497
330
1F
100
AcDbEntity
  8
SANINDUSA
100
AcDbPolyline
 90
        3
 70
   128
 43
0.0
 10
4984.119069832861
 20
2962.518804901163
 10
4984.11907007128
 20
2962.5108068072
 10
4984.11907019049
 20
2962.507807441871
  0
LWPOLYLINE
  5
2499
330
1F
100
AcDbEntity
  8
SANINDUSA
100
AcDbPolyline
 90
        3
 70
   128
 43
0.0
 10
4983.989061671794
 20
2962.518805735629
 10
4983.989061463177
 20
2962.510807671468
 10
4983.989061373771
 20
2962.507808365743
  0
ARC
  5
249F
330
1F
100
AcDbEntity
  8
SANINDUSA
100
AcDbCircle
 10
4984.105478208334
 20
2962.518806115318
 30
0.0
 40
0.0025899636965354
100
AcDbArc
 50
89.9912702894977
 51
179.9886201727228
  0
LWPOLYLINE
  5
24A2
330
1F
100
AcDbEntity
  8
SANINDUSA
100
AcDbPolyline
 90
        3
 70
   128
 43
0.0
 10
4984.102888542712
 20
2962.507809289615
 10
4984.102888363898
 20
2962.515807338874
 10
4984.102888244689
 20
2962.518806629698
  0
ARC
  5
24A3
330
1F
100
AcDbEntity
  8
SANINDUSA
100
AcDbCircle
 10
4984.040474384603
 20
2962.518808048958
 30
0.0
 40
0.0025903397163461
100
AcDbArc
 50
89.99497423099233
 51
179.9878855751053
  0
ARC
  5
24AE
330
1F
100
AcDbEntity
  8
SANINDUSA
100
AcDbCircle
 10
4984.051475836891
 20
2962.518808443456
 30
0.0
 40
0.0025900346638093
100
AcDbArc
 50
0.0
 51
90.01111448209339
  0
LWPOLYLINE
  5
24B1
330
1F
100
AcDbEntity
  8
SANINDUSA
100
AcDbPolyline
 90
        3
 70
   128
 43
0.0
 10
4984.04047461182
 20
2962.521398388664
 10
4984.048474628032
 20
2962.521398478072
 10
4984.051475334466
 20
2962.521398478072
  0
LWPOLYLINE
  5
24B3
330
1F
100
AcDbEntity
  8
SANINDUSA
100
AcDbPolyline
 90
        3
 70
   128
 43
0.0
 10
4984.037883985341
 20
2962.507811405579
 10
4984.037884044946
 20
2962.515809365432
 10
4984.037884044946
 20
2962.518808596651
  0
LINE
  5
24B4
330
1F
100
AcDbEntity
  8
SANINDUSA
100
AcDbLine
 10
4984.054065871537
 20
2962.518808745663
 30
0.0
 11
4984.054065871537
 21
2962.507811584393
 31
0.0
  0
ARC
  5
24B6
330
1F
100
AcDbEntity
  8
SANINDUSA
100
AcDbCircle
 10
4983.780471237599
 20
2962.45378288083
 30
0.0
 40
0.0025904315714371
100
AcDbArc
 50
90.00425823775369
 51
180.0
  0
LWPOLYLINE
  5
24C1
330
1F
100
AcDbEntity
  8
SANINDUSA
100
AcDbPolyline
 90
        3
 70
   128
 43
0.0
 10
4983.780471045077
 20
2962.456373312394
 10
4983.788470986784
 20
2962.45637402765
 10
4983.791470262707
 20
2962.456374325673
  0
LWPOLYLINE
  5
24C4
330
1F
100
AcDbEntity
  8
SANINDUSA
100
AcDbPolyline
 90
        3
 70
   128
 43
0.0
 10
4983.777880746425
 20
2962.442783870618
 10
4983.777880791128
 20
2962.450782903354
 10
4983.777880806029
 20
2962.453782954137
  0
ARC
  5
24C6
330
1F
100
AcDbEntity
  8
SANINDUSA
100
AcDbCircle
 10
4983.791470574253
 20
2962.453784487597
 30
0.0
 40
0.0025898380954646
100
AcDbArc
 50
0.0
 51
90.00689240877374
  0
LWPOLYLINE
  5
24C9
330
1F
100
AcDbEntity
  8
SANINDUSA
100
AcDbPolyline
 90
        3
 70
   128
 43
0.0
 10
4983.794060412348
 20
2962.453784503858
 10
4983.794060308039
 20
2962.445785471122
 10
4983.794060278238
 20
2962.442785390536
  0
ARC
  5
24CF
330
1F
100
AcDbEntity
  8
SANINDUSA
100
AcDbCircle
 10
4983.975469368431
 20
2962.50780654716
 30
0.0
 40
0.0025896126495469
100
AcDbArc
 50
180.0
 51
270.0151782967662
  0
LWPOLYLINE
  5
24D1
330
1F
100
AcDbEntity
  8
SANINDUSA
100
AcDbPolyline
 90
        3
 70
   128
 43
0.0
 10
4983.986470687688
 20
2962.505218245904
 10
4983.97847073108
 20
2962.505217322032
 10
4983.975470054448
 20
2962.505216934602
  0
ARC
  5
24D5
330
1F
100
AcDbEntity
  8
SANINDUSA
100
AcDbCircle
 10
4984.311479676586
 20
2962.453785815682
 30
0.0
 40
0.0025905067550635
100
AcDbArc
 50
0.0
 51
89.99539736588124
  0
LWPOLYLINE
  5
24E0
330
1F
100
AcDbEntity
  8
SANINDUSA
100
AcDbPolyline
 90
        3
 70
   128
 43
0.0
 10
4984.300480562747
 20
2962.456377395313
 10
4984.308480519355
 20
2962.45637659065
 10
4984.311479884684
 20
2962.456376322429
  0
LWPOLYLINE
  5
24E3
330
1F
100
AcDbEntity
  8
SANINDUSA
100
AcDbPolyline
 90
        3
 70
   128
 43
0.0
 10
4984.314070183337
 20
2962.453785964172
 10
4984.314070242942
 20
2962.44578699104
 10
4984.314070242942
 20
2962.44278697006
  0
ARC
  5
24E5
330
1F
100
AcDbEntity
  8
SANINDUSA
100
AcDbCircle
 10
4984.116480393953
 20
2962.50780789342
 30
0.0
 40
0.0025897965757066
100
AcDbArc
 50
269.9888913542498
 51
359.9900099519921
  0
ARC
  5
24E7
330
1F
100
AcDbEntity
  8
SANINDUSA
100
AcDbCircle
 10
4983.986470758378
 20
2962.507808861342
 30
0.0
 40
0.002590615439134
100
AcDbArc
 50
269.9984365374323
 51
359.9890389824761
  0
LWPOLYLINE
  5
2696
330
1F
100
AcDbEntity
  8
SANINDUSA
100
AcDbPolyline
 90
        3
 70
   128
 43
0.0
 10
4984.116479891837
 20
2962.505218096893
 10
4984.10847993523
 20
2962.505218931358
 10
4984.105479258597
 20
2962.505219199579
  0
ARC
  5
269A
330
1F
100
AcDbEntity
  8
SANINDUSA
100
AcDbCircle
 10
4984.300480263326
 20
2962.453787515306
 30
0.0
 40
0.0025898800239283
100
AcDbArc
 50
89.99337590668792
 51
180.0
  0
ARC
  5
269C
330
1F
100
AcDbEntity
  8
SANINDUSA
100
AcDbCircle
 10
4984.105478874013
 20
2962.507809530863
 30
0.0
 40
0.002590331313421
100
AcDbArc
 50
180.0
 51
270.0085066267009
  0
LWPOLYLINE
  5
269E
330
1F
100
AcDbEntity
  8
SANINDUSA
100
AcDbPolyline
 90
        3
 70
   128
 43
0.0
 10
4984.297890562118
 20
2962.442788609187
 10
4984.297890442908
 20
2962.450787582318
 10
4984.297890383303
 20
2962.453787603299
  0
ARC
  5
26A0
330
1F
100
AcDbEntity
  8
SANINDUSA
100
AcDbCircle
 10
4983.780470701512
 20
2962.442783854869
 30
0.0
 40
0.0025899550879178
100
AcDbArc
 50
180.0
 51
270.0049632367584
  0
LWPOLYLINE
  5
26A4
330
1F
100
AcDbEntity
  8
SANINDUSA
100
AcDbPolyline
 90
        3
 70
   128
 43
0.0
 10
4983.791470024288
 20
2962.440194942872
 10
4983.783470082581
 20
2962.440194168012
 10
4983.780470925868
 20
2962.440193899791
  0
ARC
  5
26A5
330
1F
100
AcDbEntity
  8
SANINDUSA
100
AcDbCircle
 10
4983.791469804874
 20
2962.442785416226
 30
0.0
 40
0.0025904733634537
100
AcDbArc
 50
270.0048529715567
 51
0.0
  0
ARC
  5
26A7
330
1F
100
AcDbEntity
  8
SANINDUSA
100
AcDbCircle
 10
4984.040473890483
 20
2962.507811697469
 30
0.0
 40
0.0025899051579173
100
AcDbArc
 50
180.0
 51
270.0133207241256
  0
ARC
  5
26A8
330
1F
100
AcDbEntity
  8
SANINDUSA
100
AcDbCircle
 10
4984.051475607081
 20
2962.507812146289
 30
0.0
 40
0.0025902645161638
100
AcDbArc
 50
269.9939698067295
 51
359.9875710639416
  0
LWPOLYLINE
  5
26AA
330
1F
100
AcDbEntity
  8
SANINDUSA
100
AcDbPolyline
 90
        3
 70
   128
 43
0.0
 10
4984.051475334466
 20
2962.505221881788
 10
4984.043475348055
 20
2962.505221851985
 10
4984.04047449261
 20
2962.505221792381
  0
ARC
  5
26AD
330
1F
100
AcDbEntity
  8
SANINDUSA
100
AcDbCircle
 10
4984.311480296074
 20
2962.442787035497
 30
0.0
 40
0.002589946868067
100
AcDbArc
 50
269.9948548465065
 51
0.0
  0
LWPOLYLINE
  5
26AF
330
1F
100
AcDbEntity
  8
SANINDUSA
100
AcDbPolyline
 90
        3
 70
   128
 43
0.0
 10
4984.311480063499
 20
2962.440197088639
 10
4984.303480106891
 20
2962.4401978635
 10
4984.300480801166
 20
2962.440198191325
  0
ARC
  5
26B5
330
1F
100
AcDbEntity
  8
SANINDUSA
100
AcDbCircle
 10
4983.845467438966
 20
2962.453791296454
 30
0.0
 40
0.0025908076505408
100
AcDbArc
 50
90.00796103281848
 51
180.0
  0
ARC
  5
26C0
330
1F
100
AcDbEntity
  8
SANINDUSA
100
AcDbCircle
 10
4984.300480976952
 20
2962.442788606154
 30
0.0
 40
0.002590414835528
100
AcDbArc
 50
180.0
 51
269.9961118489438
  0
LWPOLYLINE
  5
26C2
330
1F
100
AcDbEntity
  8
SANINDUSA
100
AcDbPolyline
 90
        3
 70
   128
 43
0.0
 10
4983.845467078984
 20
2962.456382104079
 10
4983.853466916382
 20
2962.456383594196
 10
4983.85646663934
 20
2962.456384190242
  0
LWPOLYLINE
  5
26C5
330
1F
100
AcDbEntity
  8
SANINDUSA
100
AcDbPolyline
 90
        3
 70
   128
 43
0.0
 10
4983.84287624389
 20
2962.442792543093
 10
4983.842876527012
 20
2962.450791426818
 10
4983.84287663132
 20
2962.453791447799
  0
ARC
  5
26CC
330
1F
100
AcDbEntity
  8
SANINDUSA
100
AcDbCircle
 10
4983.856467174267
 20
2962.453794694792
 30
0.0
 40
0.0025894955057067
100
AcDbArc
 50
0.0
 51
90.0118358958232
  0
LWPOLYLINE
  5
26CE
330
1F
100
AcDbEntity
  8
SANINDUSA
100
AcDbPolyline
 90
        3
 70
   128
 43
0.0
 10
4983.859056669772
 20
2962.453794755857
 10
4983.859056341946
 20
2962.445795901935
 10
4983.859056222737
 20
2962.442795940559
  0
ARC
  5
26D1
330
1F
100
AcDbEntity
  8
SANINDUSA
100
AcDbCircle
 10
4984.246483004501
 20
2962.453794356627
 30
0.0
 40
0.0025907575020581
100
AcDbArc
 50
0.0
 51
89.99380696233076
  0
LWPOLYLINE
  5
26DC
330
1F
100
AcDbEntity
  8
SANINDUSA
100
AcDbPolyline
 90
        3
 70
   128
 43
0.0
 10
4984.235483664573
 20
2962.45638711087
 10
4984.243483501971
 20
2962.456385650556
 10
4984.246483284533
 20
2962.456385114114
  0
LWPOLYLINE
  5
26E0
330
1F
100
AcDbEntity
  8
SANINDUSA
100
AcDbPolyline
 90
        3
 70
   128
 43
0.0
 10
4984.249073762001
 20
2962.453794487636
 10
4984.249074000419
 20
2962.445795663516
 10
4984.249074060024
 20
2962.44279570214
  0
ARC
  5
26E3
330
1F
100
AcDbEntity
  8
SANINDUSA
100
AcDbCircle
 10
4984.235483140679
 20
2962.453797514972
 30
0.0
 40
0.0025895959503515
100
AcDbArc
 50
89.98840865738797
 51
180.0
  0
ARC
  5
26E6
330
1F
100
AcDbEntity
  8
SANINDUSA
100
AcDbCircle
 10
4983.845465764442
 20
2962.442792539797
 30
0.0
 40
0.0025895205516057
100
AcDbArc
 50
180.0
 51
270.0119410021157
  0
LWPOLYLINE
  5
26E8
330
1F
100
AcDbEntity
  8
SANINDUSA
100
AcDbPolyline
 90
        3
 70
   128
 43
0.0
 10
4984.232893961967
 20
2962.442798980396
 10
4984.232893663943
 20
2962.450797774712
 10
4984.232893544734
 20
2962.453797676484
  0
LWPOLYLINE
  5
26EA
330
1F
100
AcDbEntity
  8
SANINDUSA
100
AcDbPolyline
 90
        3
 70
   128
 43
0.0
 10
4983.856465745271
 20
2962.440205194871
 10
4983.848465967477
 20
2962.440203585546
 10
4983.845466304124
 20
2962.440203019302
  0
ARC
  5
26EE
330
1F
100
AcDbEntity
  8
SANINDUSA
100
AcDbCircle
 10
4983.856465281363
 20
2962.44279613621
 30
0.0
 40
0.0025909413802632
100
AcDbArc
 50
270.0102587803551
 51
0.0
  0
ARC
  5
26F0
330
1F
100
AcDbEntity
  8
SANINDUSA
100
AcDbCircle
 10
4984.246484547638
 20
2962.442795690675
 30
0.0
 40
0.002589512384919
100
AcDbArc
 50
269.9878782275662
 51
0.0
  0
LWPOLYLINE
  5
26F3
330
1F
100
AcDbEntity
  8
SANINDUSA
100
AcDbPolyline
 90
        3
 70
   128
 43
0.0
 10
4984.24648399979
 20
2962.440206178348
 10
4984.238484221996
 20
2962.440207698266
 10
4984.235484499038
 20
2962.440208294312
  0
ARC
  5
26FA
330
1F
100
AcDbEntity
  8
SANINDUSA
100
AcDbCircle
 10
4984.235484803049
 20
2962.442799135382
 30
0.0
 40
0.002590841087542
100
AcDbArc
 50
180.0
 51
269.9932768451803
  0
ARC
  5
2700
330
1F
100
AcDbEntity
  8
SANINDUSA
100
AcDbCircle
 10
4983.910466172047
 20
2962.453804660715
 30
0.0
 40
0.0025910332464905
100
AcDbArc
 50
90.00767645896864
 51
180.0
  0
LWPOLYLINE
  5
270B
330
1F
100
AcDbEntity
  8
SANINDUSA
100
AcDbPolyline
 90
        3
 70
   128
 43
0.0
 10
4983.910465824902
 20
2962.456395693939
 10
4983.918465602696
 20
2962.456397452275
 10
4983.921466011107
 20
2962.456398107926
  0
LWPOLYLINE
  5
270E
330
1F
100
AcDbEntity
  8
SANINDUSA
100
AcDbPolyline
 90
        3
 70
   128
 43
0.0
 10
4983.907874572576
 20
2962.442806639592
 10
4983.907874989808
 20
2962.450805255095
 10
4983.90787513882
 20
2962.453804978053
  0
ARC
  5
2710
330
1F
100
AcDbEntity
  8
SANINDUSA
100
AcDbCircle
 10
4983.921466806068
 20
2962.45380881297
 30
0.0
 40
0.0025892950788237
100
AcDbArc
 50
0.0
 51
90.01759084315681
  0
ARC
  5
2712
330
1F
100
AcDbEntity
  8
SANINDUSA
100
AcDbCircle
 10
4984.181483954407
 20
2962.453807135654
 30
0.0
 40
0.0025908828709486
100
AcDbArc
 50
0.0
 51
89.99630741855538
  0
LWPOLYLINE
  5
271E
330
1F
100
AcDbEntity
  8
SANINDUSA
100
AcDbPolyline
 90
        3
 70
   128
 43
0.0
 10
4984.170483905375
 20
2962.456400283496
 10
4984.178483742773
 20
2962.456398644368
 10
4984.181484121382
 20
2962.456398018519
  0
LWPOLYLINE
  5
2721
330
1F
100
AcDbEntity
  8
SANINDUSA
100
AcDbPolyline
 90
        3
 70
   128
 43
0.0
 10
4983.924056101144
 20
2962.453808941762
 10
4983.924055683911
 20
2962.445810445468
 10
4983.924055505098
 20
2962.442810811917
  0
LWPOLYLINE
  5
2723
330
1F
100
AcDbEntity
  8
SANINDUSA
100
AcDbPolyline
 90
        3
 70
   128
 43
0.0
 10
4984.184074837268
 20
2962.453807362239
 10
4984.184075194896
 20
2962.445808836143
 10
4984.184075373709
 20
2962.442809113185
  0
ARC
  5
2729
330
1F
100
AcDbEntity
  8
SANINDUSA
100
AcDbCircle
 10
4984.170483364791
 20
2962.453810704274
 30
0.0
 40
0.0025895792780874
100
AcDbArc
 50
89.98803930022619
 51
180.0
  0
LWPOLYLINE
  5
2731
330
1F
100
AcDbEntity
  8
SANINDUSA
100
AcDbPolyline
 90
        3
 70
   128
 43
0.0
 10
4984.167894321979
 20
2962.442812987487
 10
4984.16789396435
 20
2962.450811453979
 10
4984.167893785537
 20
2962.453811057727
  0
ARC
  5
2733
330
1F
100
AcDbEntity
  8
SANINDUSA
100
AcDbCircle
 10
4983.780471045553
 20
2962.388788186363
 30
0.0
 40
0.0025903438322036
100
AcDbArc
 50
90.00528407930955
 51
180.0
  0
LWPOLYLINE
  5
273E
330
1F
100
AcDbEntity
  8
SANINDUSA
100
AcDbPolyline
 90
        3
 70
   128
 43
0.0
 10
4983.780470806658
 20
2962.391378530185
 10
4983.788470748365
 20
2962.391379215639
 10
4983.791469696463
 20
2962.391379513661
  0
LWPOLYLINE
  5
2741
330
1F
100
AcDbEntity
  8
SANINDUSA
100
AcDbPolyline
 90
        3
 70
   128
 43
0.0
 10
4983.777880731524
 20
2962.377789177816
 10
4983.777880701722
 20
2962.385788270156
 10
4983.777880701722
 20
2962.388788231532
  0
ARC
  5
2745
330
1F
100
AcDbEntity
  8
SANINDUSA
100
AcDbCircle
 10
4983.910463850904
 20
2962.442806751641
 30
0.0
 40
0.0025892783313397
100
AcDbArc
 50
180.0
 51
270.0173020483742
  0
LWPOLYLINE
  5
2747
330
1F
100
AcDbEntity
  8
SANINDUSA
100
AcDbPolyline
 90
        3
 70
   128
 43
0.0
 10
4983.921464789212
 20
2962.44022006623
 10
4983.91346504122
 20
2962.440218188684
 10
4983.91046463281
 20
2962.440217473428
  0
ARC
  5
2748
330
1F
100
AcDbEntity
  8
SANINDUSA
100
AcDbCircle
 10
4983.791469968068
 20
2962.388789650541
 30
0.0
 40
0.0025898631346232
100
AcDbArc
 50
0.0
 51
90.00600872386492
  0
LWPOLYLINE
  5
274A
330
1F
100
AcDbEntity
  8
SANINDUSA
100
AcDbPolyline
 90
        3
 70
   128
 43
0.0
 10
4983.794059831202
 20
2962.388789632241
 10
4983.7940598014
 20
2962.380790539901
 10
4983.794059786499
 20
2962.377790548723
  0
ARC
  5
2751
330
1F
100
AcDbEntity
  8
SANINDUSA
100
AcDbCircle
 10
4984.181485861289
 20
2962.442809399782
 30
0.0
 40
0.0025895124368517
100
AcDbArc
 50
269.9865602040464
 51
0.0
  0
ARC
  5
2753
330
1F
100
AcDbEntity
  8
SANINDUSA
100
AcDbCircle
 10
4983.921464446826
 20
2962.442811124497
 30
0.0
 40
0.0025910582900274
100
AcDbArc
 50
270.0075711442394
 51
0.0
  0
LWPOLYLINE
  5
2756
330
1F
100
AcDbEntity
  8
SANINDUSA
100
AcDbPolyline
 90
        3
 70
   128
 43
0.0
 10
4984.181485253871
 20
2962.440219887416
 10
4984.173485476077
 20
2962.440221675555
 10
4984.170485097468
 20
2962.440222331207
  0
ARC
  5
2759
330
1F
100
AcDbEntity
  8
SANINDUSA
100
AcDbCircle
 10
4984.311480030896
 20
2962.388791954026
 30
0.0
 40
0.0025903312548842
100
AcDbArc
 50
0.0
 51
89.99664207031148
  0
LWPOLYLINE
  5
2764
330
1F
100
AcDbEntity
  8
SANINDUSA
100
AcDbPolyline
 90
        3
 70
   128
 43
0.0
 10
4984.300481158793
 20
2962.391383358161
 10
4984.308481055797
 20
2962.391382553498
 10
4984.311480182707
 20
2962.391382285277
  0
LWPOLYLINE
  5
2766
330
1F
100
AcDbEntity
  8
SANINDUSA
100
AcDbPolyline
 90
        3
 70
   128
 43
0.0
 10
4984.314070362152
 20
2962.388791986625
 10
4984.314070362152
 20
2962.380792953889
 10
4984.314070302547
 20
2962.37779308192
  0
ARC
  5
276B
330
1F
100
AcDbEntity
  8
SANINDUSA
100
AcDbCircle
 10
4983.780470711653
 20
2962.377789157309
 30
0.0
 40
0.0025899801293097
100
AcDbArc
 50
180.0
 51
270.0040796039596
  0
LWPOLYLINE
  5
276E
330
1F
100
AcDbEntity
  8
SANINDUSA
100
AcDbPolyline
 90
        3
 70
   128
 43
0.0
 10
4983.791469681562
 20
2962.375200160663
 10
4983.783469739854
 20
2962.375199415605
 10
4983.780470896066
 20
2962.375199177186
  0
ARC
  5
276F
330
1F
100
AcDbEntity
  8
SANINDUSA
100
AcDbCircle
 10
4984.300480859372
 20
2962.388793478156
 30
0.0
 40
0.0025898800220795
100
AcDbArc
 50
89.99337590668792
 51
180.0
  0
ARC
  5
2772
330
1F
100
AcDbEntity
  8
SANINDUSA
100
AcDbCircle
 10
4984.170485246632
 20
2962.442813255869
 30
0.0
 40
0.0025909246673865
100
AcDbArc
 50
180.0
 51
269.996701371728
  0
LWPOLYLINE
  5
2774
330
1F
100
AcDbEntity
  8
SANINDUSA
100
AcDbPolyline
 90
        3
 70
   128
 43
0.0
 10
4984.297891038955
 20
2962.377794572036
 10
4984.297891038955
 20
2962.38579357497
 10
4984.29789097935
 20
2962.388793506543
  0
ARC
  5
2775
330
1F
100
AcDbEntity
  8
SANINDUSA
100
AcDbCircle
 10
4983.791469354898
 20
2962.377790592242
 30
0.0
 40
0.0025904316006381
100
AcDbArc
 50
270.0072251845652
 51
0.0
  0
ARC
  5
277A
330
1F
100
AcDbEntity
  8
SANINDUSA
100
AcDbCircle
 10
4983.975468623999
 20
2962.453817852542
 30
0.0
 40
0.0025909246186111
100
AcDbArc
 50
90.00263755817412
 51
179.9881345837392
  0
LWPOLYLINE
  5
2785
330
1F
100
AcDbEntity
  8
SANINDUSA
100
AcDbPolyline
 90
        3
 70
   128
 43
0.0
 10
4983.975468504727
 20
2962.456408777158
 10
4983.983468401731
 20
2962.456410028855
 10
4983.986469316781
 20
2962.456410475891
  0
LWPOLYLINE
  5
2788
330
1F
100
AcDbEntity
  8
SANINDUSA
100
AcDbPolyline
 90
        3
 70
   128
 43
0.0
 10
4983.972877222598
 20
2962.442820795696
 10
4983.972877580225
 20
2962.450818964164
 10
4983.972877699436
 20
2962.453818389099
  0
ARC
  5
2790
330
1F
100
AcDbEntity
  8
SANINDUSA
100
AcDbCircle
 10
4984.11648149802
 20
2962.453819458837
 30
0.0
 40
0.0025905402221949
100
AcDbArc
 50
0.0
 51
90.00388538921518
  0
LWPOLYLINE
  5
279B
330
1F
100
AcDbEntity
  8
SANINDUSA
100
AcDbPolyline
 90
        3
 70
   128
 43
0.0
 10
4984.10548045069
 20
2962.456411489169
 10
4984.113480407298
 20
2962.456410416286
 10
4984.116481322349
 20
2962.456409999053
  0
LWPOLYLINE
  5
279D
330
1F
100
AcDbEntity
  8
SANINDUSA
100
AcDbPolyline
 90
        3
 70
   128
 43
0.0
 10
4984.119072038233
 20
2962.453819670598
 10
4984.119072395862
 20
2962.44582150213
 10
4984.119072515071
 20
2962.442822106998
  0
ARC
  5
279F
330
1F
100
AcDbEntity
  8
SANINDUSA
100
AcDbCircle
 10
4983.986470099408
 20
2962.453820930168
 30
0.0
 40
0.0025895458401903
100
AcDbArc
 50
0.0
 51
90.01731627446032
  0
ARC
  5
27A1
330
1F
100
AcDbEntity
  8
SANINDUSA
100
AcDbCircle
 10
4984.311480439231
 20
2962.377793004191
 30
0.0
 40
0.0025898633157871
100
AcDbArc
 50
269.9930062368695
 51
0.0
  0
LWPOLYLINE
  5
27A5
330
1F
100
AcDbEntity
  8
SANINDUSA
100
AcDbPolyline
 90
        3
 70
   128
 43
0.0
 10
4983.989059645236
 20
2962.453821190516
 10
4983.989059347212
 20
2962.445823111455
 10
4983.989059228004
 20
2962.442823775928
  0
LWPOLYLINE
  5
27A7
330
1F
100
AcDbEntity
  8
SANINDUSA
100
AcDbPolyline
 90
        3
 70
   128
 43
0.0
 10
4984.311480123103
 20
2962.375203140895
 10
4984.303480166495
 20
2962.375203885953
 10
4984.300481158793
 20
2962.375204183976
  0
ARC
  5
27A9
330
1F
100
AcDbEntity
  8
SANINDUSA
100
AcDbCircle
 10
4984.105479955831
 20
2962.453821625766
 30
0.0
 40
0.0025898634496734
100
AcDbArc
 50
89.98905216635341
 51
179.9885308558282
  0
LWPOLYLINE
  5
27AD
330
1F
100
AcDbEntity
  8
SANINDUSA
100
AcDbPolyline
 90
        3
 70
   128
 43
0.0
 10
4984.102890450061
 20
2962.442824759405
 10
4984.102890211642
 20
2962.450822838466
 10
4984.102890092433
 20
2962.453822144191
  0
ARC
  5
27AE
330
1F
100
AcDbEntity
  8
SANINDUSA
100
AcDbCircle
 10
4984.300481453805
 20
2962.377794598811
 30
0.0
 40
0.0025904148509491
100
AcDbArc
 50
180.0
 51
269.9934748118618
  0
ARC
  5
27B1
330
1F
100
AcDbEntity
  8
SANINDUSA
100
AcDbCircle
 10
4983.845465308135
 20
2962.388797438101
 30
0.0
 40
0.0025908076826134
100
AcDbArc
 50
90.01026857707403
 51
180.0
  0
LWPOLYLINE
  5
27BD
330
1F
100
AcDbEntity
  8
SANINDUSA
100
AcDbPolyline
 90
        3
 70
   128
 43
0.0
 10
4983.84546484381
 20
2962.391388245742
 10
4983.853464561999
 20
2962.391390063684
 10
4983.856464076341
 20
2962.391390749137
  0
LINE
  5
27C0
330
1F
100
AcDbEntity
  8
SANINDUSA
100
AcDbLine
 10
4983.842874172628
 20
2962.377798505942
 30
0.0
 11
4983.842874500454
 21
2962.388797500054
 31
0.0
  0
ARC
  5
27C6
330
1F
100
AcDbEntity
  8
SANINDUSA
100
AcDbCircle
 10
4984.040474030607
 20
2962.453824722106
 30
0.0
 40
0.0025903731569552
100
AcDbArc
 50
89.99439539080059
 51
179.9871457143569
  0
LWPOLYLINE
  5
27D1
330
1F
100
AcDbEntity
  8
SANINDUSA
100
AcDbPolyline
 90
        3
 70
   128
 43
0.0
 10
4984.040474283993
 20
2962.45641509525
 10
4984.048474300206
 20
2962.456415184657
 10
4984.051475394071
 20
2962.456415184657
  0
ARC
  5
27D3
330
1F
100
AcDbEntity
  8
SANINDUSA
100
AcDbCircle
 10
4984.051475978056
 20
2962.453825112408
 30
0.0
 40
0.0025900723145089
100
AcDbArc
 50
0.0
 51
90.01291848541757
  0
LWPOLYLINE
  5
27D6
330
1F
100
AcDbEntity
  8
SANINDUSA
100
AcDbPolyline
 90
        3
 70
   128
 43
0.0
 10
4984.037883597911
 20
2962.442828127067
 10
4984.037883627713
 20
2962.450826086919
 10
4984.037883657515
 20
2962.453825303237
  0
LWPOLYLINE
  5
27D7
330
1F
100
AcDbEntity
  8
SANINDUSA
100
AcDbPolyline
 90
        3
 70
   128
 43
0.0
 10
4984.054066050351
 20
2962.453825422446
 10
4984.054066109956
 20
2962.445827462594
 10
4984.054066109956
 20
2962.442828246276
  0
ARC
  5
27D9
330
1F
100
AcDbEntity
  8
SANINDUSA
100
AcDbCircle
 10
4983.856464790369
 20
2962.388801462634
 30
0.0
 40
0.0025892866015417
100
AcDbArc
 50
0.0
 51
90.01580002367626
  0
ARC
  5
27DC
330
1F
100
AcDbEntity
  8
SANINDUSA
100
AcDbCircle
 10
4983.975466643082
 20
2962.442821049888
 30
0.0
 40
0.0025894204962545
100
AcDbArc
 50
180.0
 51
270.0187717126342
  0
LWPOLYLINE
  5
27DE
330
1F
100
AcDbEntity
  8
SANINDUSA
100
AcDbPolyline
 90
        3
 70
   128
 43
0.0
 10
4983.85905407697
 20
2962.388801404159
 10
4983.859053778947
 20
2962.380802431028
 10
4983.859053659738
 20
2962.377802469652
  0
LWPOLYLINE
  5
27E1
330
1F
100
AcDbEntity
  8
SANINDUSA
100
AcDbPolyline
 90
        3
 70
   128
 43
0.0
 10
4983.986468422711
 20
2962.440233477275
 10
4983.978468555511
 20
2962.440232165972
 10
4983.975467491449
 20
2962.440231629531
  0
ARC
  5
27E4
330
1F
100
AcDbEntity
  8
SANINDUSA
100
AcDbCircle
 10
4984.246484979774
 20
2962.388801192079
 30
0.0
 40
0.0025907491800509
100
AcDbArc
 50
0.0
 51
89.99135455170685
  0
LWPOLYLINE
  5
27EF
330
1F
100
AcDbEntity
  8
SANINDUSA
100
AcDbPolyline
 90
        3
 70
   128
 43
0.0
 10
4984.235486048759
 20
2962.391394325416
 10
4984.243485766948
 20
2962.391392567079
 10
4984.246485370697
 20
2962.39139194123
  0
LWPOLYLINE
  5
27F1
330
1F
100
AcDbEntity
  8
SANINDUSA
100
AcDbPolyline
 90
        3
 70
   128
 43
0.0
 10
4984.249075728953
 20
2962.388801255147
 10
4984.249075967372
 20
2962.380802282016
 10
4984.249076026976
 20
2962.377802350442
  0
ARC
  5
27F3
330
1F
100
AcDbEntity
  8
SANINDUSA
100
AcDbCircle
 10
4984.116482718525
 20
2962.442822677788
 30
0.0
 40
0.0025897966087309
100
AcDbArc
 50
269.9888915626906
 51
359.9873720029407
  0
LWPOLYLINE
  5
27F7
330
1F
100
AcDbEntity
  8
SANINDUSA
100
AcDbPolyline
 90
        3
 70
   128
 43
0.0
 10
4984.116482216418
 20
2962.440232881228
 10
4984.108482319415
 20
2962.440234103124
 10
4984.105481225551
 20
2962.440234520356
  0
ARC
  5
27F9
330
1F
100
AcDbEntity
  8
SANINDUSA
100
AcDbCircle
 10
4983.986468345232
 20
2962.442824360111
 30
0.0
 40
0.00259088283704
100
AcDbArc
 50
270.0017133836356
 51
359.987081149811
  0
ARC
  5
27FB
330
1F
100
AcDbEntity
  8
SANINDUSA
100
AcDbCircle
 10
4983.845463601233
 20
2962.377798440492
 30
0.0
 40
0.0025894286059561
100
AcDbArc
 50
180.0
 51
270.0129868019042
  0
LWPOLYLINE
  5
27FD
330
1F
100
AcDbEntity
  8
SANINDUSA
100
AcDbPolyline
 90
        3
 70
   128
 43
0.0
 10
4983.856463301481
 20
2962.375211604755
 10
4983.848463613093
 20
2962.375209697406
 10
4983.845464188159
 20
2962.375209011952
  0
ARC
  5
27FE
330
1F
100
AcDbEntity
  8
SANINDUSA
100
AcDbCircle
 10
4984.105480990291
 20
2962.442825060594
 30
0.0
 40
0.0025905402486338
100
AcDbArc
 50
180.0
 51
270.0052033084876
  0
ARC
  5
2800
330
1F
100
AcDbEntity
  8
SANINDUSA
100
AcDbCircle
 10
4984.235485434079
 20
2962.388804879933
 30
0.0
 40
0.0025894455556582
100
AcDbArc
 50
89.98639918350239
 51
180.0
  0
LWPOLYLINE
  5
2805
330
1F
100
AcDbEntity
  8
SANINDUSA
100
AcDbPolyline
 90
        3
 70
   128
 43
0.0
 10
4984.232896346153
 20
2962.377806105535
 10
4984.232896107734
 20
2962.385805019061
 10
4984.232895988524
 20
2962.388804950635
  0
ARC
  5
2807
330
1F
100
AcDbEntity
  8
SANINDUSA
100
AcDbCircle
 10
4983.856462651434
 20
2962.37780261298
 30
0.0
 40
0.0025910083073702
100
AcDbArc
 50
270.0143746531128
 51
0.0
  0
ARC
  5
2808
330
1F
100
AcDbEntity
  8
SANINDUSA
100
AcDbCircle
 10
4984.246486514591
 20
2962.377802368779
 30
0.0
 40
0.0025895123849064
100
AcDbArc
 50
269.9878782275662
 51
0.0
  0
LWPOLYLINE
  5
280A
330
1F
100
AcDbEntity
  8
SANINDUSA
100
AcDbPolyline
 90
        3
 70
   128
 43
0.0
 10
4984.246485966743
 20
2962.375212856452
 10
4984.238486248553
 20
2962.375214644591
 10
4984.235486764014
 20
2962.375215330045
  0
ARC
  5
280D
330
1F
100
AcDbEntity
  8
SANINDUSA
100
AcDbCircle
 10
4984.04047351982
 20
2962.442828435699
 30
0.0
 40
0.00258992192744
100
AcDbArc
 50
180.0
 51
270.0155868929197
  0
ARC
  5
280E
330
1F
100
AcDbEntity
  8
SANINDUSA
100
AcDbCircle
 10
4984.051475912315
 20
2962.442828800943
 30
0.0
 40
0.0025901976996059
100
AcDbArc
 50
269.9911732602877
 51
359.987730208524
  0
LWPOLYLINE
  5
2812
330
1F
100
AcDbEntity
  8
SANINDUSA
100
AcDbPolyline
 90
        3
 70
   128
 43
0.0
 10
4984.05147551328
 20
2962.440238603275
 10
4984.04347552687
 20
2962.440238573472
 10
4984.040474224389
 20
2962.440238513867
  0
ARC
  5
2815
330
1F
100
AcDbEntity
  8
SANINDUSA
100
AcDbCircle
 10
4984.235487354467
 20
2962.377806338303
 30
0.0
 40
0.0025910083254724
100
AcDbArc
 50
180.0
 51
269.9869431098619
  0
ARC
  5
281E
330
1F
100
AcDbEntity
  8
SANINDUSA
100
AcDbCircle
 10
4983.780471363044
 20
2962.323794964204
 30
0.0
 40
0.0025902142905956
100
AcDbArc
 50
90.00439653824507
 51
180.0
  0
LWPOLYLINE
  5
2829
330
1F
100
AcDbEntity
  8
SANINDUSA
100
AcDbPolyline
 90
        3
 70
   128
 43
0.0
 10
4983.780471164287
 20
2962.326385178487
 10
4983.788471105993
 20
2962.326385744731
 10
4983.791469741166
 20
2962.326386012952
  0
LWPOLYLINE
  5
282C
330
1F
100
AcDbEntity
  8
SANINDUSA
100
AcDbPolyline
 90
        3
 70
   128
 43
0.0
 10
4983.777881267965
 20
2962.312796660583
 10
4983.777881178558
 20
2962.320795603912
 10
4983.777881148756
 20
2962.323795058648
  0
ARC
  5
282D
330
1F
100
AcDbEntity
  8
SANINDUSA
100
AcDbCircle
 10
4983.910462855975
 20
2962.388814148296
 30
0.0
 40
0.0025912338450514
100
AcDbArc
 50
90.01277044031482
 51
180.0
  0
LWPOLYLINE
  5
2838
330
1F
100
AcDbEntity
  8
SANINDUSA
100
AcDbPolyline
 90
        3
 70
   128
 43
0.0
 10
4983.910462278426
 20
2962.391405382077
 10
4983.918461877406
 20
2962.391407706658
 10
4983.921462405026
 20
2962.391408570926
  0
LWPOLYLINE
  5
283B
330
1F
100
AcDbEntity
  8
SANINDUSA
100
AcDbPolyline
 90
        3
 70
   128
 43
0.0
 10
4983.907870996297
 20
2962.377815970103
 10
4983.907871443332
 20
2962.385814675014
 10
4983.907871622146
 20
2962.388814427774
  0
ARC
  5
283C
330
1F
100
AcDbEntity
  8
SANINDUSA
100
AcDbCircle
 10
4983.791470114857
 20
2962.32379626683
 30
0.0
 40
0.0025897461493761
100
AcDbArc
 50
0.0
 51
90.00826754506196
  0
LWPOLYLINE
  5
283E
330
1F
100
AcDbEntity
  8
SANINDUSA
100
AcDbPolyline
 90
        3
 70
   128
 43
0.0
 10
4983.794059861004
 20
2962.323796191137
 10
4983.794059920609
 20
2962.315797188203
 10
4983.794059935511
 20
2962.312797733466
  0
ARC
  5
2845
330
1F
100
AcDbEntity
  8
SANINDUSA
100
AcDbCircle
 10
4984.181487083293
 20
2962.388816972469
 30
0.0
 40
0.0025910918451849
100
AcDbArc
 50
0.0
 51
89.99168675428242
  0
LWPOLYLINE
  5
2850
330
1F
100
AcDbEntity
  8
SANINDUSA
100
AcDbPolyline
 90
        3
 70
   128
 43
0.0
 10
4984.17048730284
 20
2962.391411074321
 10
4984.178486961425
 20
2962.391408898751
 10
4984.181487459243
 20
2962.391408064286
  0
LWPOLYLINE
  5
2852
330
1F
100
AcDbEntity
  8
SANINDUSA
100
AcDbPolyline
 90
        3
 70
   128
 43
0.0
 10
4984.184078175128
 20
2962.38881719939
 10
4984.184078592361
 20
2962.380818554084
 10
4984.18407871157
 20
2962.377818771522
  0
ARC
  5
2854
330
1F
100
AcDbEntity
  8
SANINDUSA
100
AcDbCircle
 10
4983.9214633075
 20
2962.388819443122
 30
0.0
 40
0.0025891279604479
100
AcDbArc
 50
0.0
 51
90.01997118547198
  0
LINE
  5
2856
330
1F
100
AcDbEntity
  8
SANINDUSA
100
AcDbLine
 10
4983.924052435458
 20
2962.388819553773
 30
0.0
 11
4983.924051779808
 21
2962.377821274916
 31
0.0
  0
ARC
  5
285B
330
1F
100
AcDbEntity
  8
SANINDUSA
100
AcDbCircle
 10
4984.311479830948
 20
2962.323799534865
 30
0.0
 40
0.0025901139704507
100
AcDbArc
 50
0.0
 51
89.99881131404745
  0
ARC
  5
2868
330
1F
100
AcDbEntity
  8
SANINDUSA
100
AcDbCircle
 10
4983.780471181262
 20
2962.312796662646
 30
0.0
 40
0.0025899132965919
100
AcDbArc
 50
180.0
 51
270.0052285819384
  0
LWPOLYLINE
  5
2869
330
1F
100
AcDbEntity
  8
SANINDUSA
100
AcDbPolyline
 90
        3
 70
   128
 43
0.0
 10
4984.300481099189
 20
2962.326390572707
 10
4984.308481055797
 20
2962.326389857452
 10
4984.311479884684
 20
2962.326389648835
  0
LWPOLYLINE
  5
286B
330
1F
100
AcDbEntity
  8
SANINDUSA
100
AcDbPolyline
 90
        3
 70
   128
 43
0.0
 10
4984.314069944918
 20
2962.323799528997
 10
4984.314069885314
 20
2962.315800585668
 10
4984.314069885314
 20
2962.312801190535
  0
LWPOLYLINE
  5
286E
330
1F
100
AcDbEntity
  8
SANINDUSA
100
AcDbPolyline
 90
        3
 70
   128
 43
0.0
 10
4983.791469949782
 20
2962.310207554023
 10
4983.783470008075
 20
2962.310206928174
 10
4983.780471417606
 20
2962.31020674936
  0
ARC
  5
2870
330
1F
100
AcDbEntity
  8
SANINDUSA
100
AcDbCircle
 10
4984.300480775806
 20
2962.323800776271
 30
0.0
 40
0.0025897964566382
100
AcDbArc
 50
89.9928455810965
 51
180.0
  0
ARC
  5
2872
330
1F
100
AcDbEntity
  8
SANINDUSA
100
AcDbCircle
 10
4983.791469675247
 20
2962.312797814273
 30
0.0
 40
0.0025902602646642
100
AcDbArc
 50
270.0060726109795
 51
0.0
  0
ARC
  5
2874
330
1F
100
AcDbEntity
  8
SANINDUSA
100
AcDbCircle
 10
4983.91046004068
 20
2962.377815967365
 30
0.0
 40
0.0025890443831529
100
AcDbArc
 50
180.0
 51
270.0205022927422
  0
LWPOLYLINE
  5
2876
330
1F
100
AcDbEntity
  8
SANINDUSA
100
AcDbPolyline
 90
        3
 70
   128
 43
0.0
 10
4984.29789086014
 20
2962.312802382628
 10
4984.297890919745
 20
2962.320801325958
 10
4984.29789097935
 20
2962.323800780694
  0
ARC
  5
2877
330
1F
100
AcDbEntity
  8
SANINDUSA
100
AcDbCircle
 10
4984.170486604645
 20
2962.388821712361
 30
0.0
 40
0.0025893620546252
100
AcDbArc
 50
89.98455078225868
 51
180.0
  0
LWPOLYLINE
  5
287A
330
1F
100
AcDbEntity
  8
SANINDUSA
100
AcDbPolyline
 90
        3
 70
   128
 43
0.0
 10
4983.921461034119
 20
2962.375230320613
 10
4983.913461524547
 20
2962.375227847021
 10
4983.910460967123
 20
2962.375226923148
  0
LINE
  5
287D
330
1F
100
AcDbEntity
  8
SANINDUSA
100
AcDbLine
 10
4984.167897898257
 20
2962.377823748509
 30
0.0
 11
4984.167897242606
 21
2962.388821997564
 31
0.0
  0
ARC
  5
2886
330
1F
100
AcDbEntity
  8
SANINDUSA
100
AcDbCircle
 10
4984.181489416394
 20
2962.377818989853
 30
0.0
 40
0.0025892951851798
100
AcDbArc
 50
269.9843897617081
 51
0.0
  0
LWPOLYLINE
  5
2888
330
1F
100
AcDbEntity
  8
SANINDUSA
100
AcDbPolyline
 90
        3
 70
   128
 43
0.0
 10
4984.181488710941
 20
2962.375229694764
 10
4984.17348911196
 20
2962.375231989543
 10
4984.170488614143
 20
2962.375232853811
  0
ARC
  5
288A
330
1F
100
AcDbEntity
  8
SANINDUSA
100
AcDbCircle
 10
4983.921460412279
 20
2962.377821688099
 30
0.0
 40
0.0025913675610973
100
AcDbArc
 50
270.0137490700473
 51
359.9908644291403
  0
ARC
  5
288D
330
1F
100
AcDbEntity
  8
SANINDUSA
100
AcDbCircle
 10
4984.311479871587
 20
2962.31280135264
 30
0.0
 40
0.0025900137315626
100
AcDbArc
 50
269.9950155022768
 51
0.0
  0
LWPOLYLINE
  5
2891
330
1F
100
AcDbEntity
  8
SANINDUSA
100
AcDbPolyline
 90
        3
 70
   128
 43
0.0
 10
4984.311479646265
 20
2962.310211338918
 10
4984.303479749263
 20
2962.310211964767
 10
4984.300480920374
 20
2962.310212232988
  0
ARC
  5
2896
330
1F
100
AcDbEntity
  8
SANINDUSA
100
AcDbCircle
 10
4984.300481149618
 20
2962.312802522458
 30
0.0
 40
0.0025902894811823
100
AcDbArc
 50
180.0
 51
269.9949292598831
  0
ARC
  5
2899
330
1F
100
AcDbEntity
  8
SANINDUSA
100
AcDbCircle
 10
4983.845463703049
 20
2962.323804052395
 30
0.0
 40
0.0025908119237465
100
AcDbArc
 50
90.01398721370307
 51
180.0
  0
LWPOLYLINE
  5
28A4
330
1F
100
AcDbEntity
  8
SANINDUSA
100
AcDbPolyline
 90
        3
 70
   128
 43
0.0
 10
4983.845463070572
 20
2962.326394864242
 10
4983.853462684454
 20
2962.326396831195
 10
4983.856461900771
 20
2962.326397606056
  0
LINE
  5
28A7
330
1F
100
AcDbEntity
  8
SANINDUSA
100
AcDbLine
 10
4983.842872727215
 20
2962.312805631082
 30
0.0
 11
4983.842872891129
 21
2962.323804178159
 31
0.0
  0
ARC
  5
28A9
330
1F
100
AcDbEntity
  8
SANINDUSA
100
AcDbCircle
 10
4984.170488981739
 20
2962.377823937274
 30
0.0
 40
0.0025910834893939
100
AcDbArc
 50
180.0
 51
269.9918714328611
  0
ARC
  5
28B1
330
1F
100
AcDbEntity
  8
SANINDUSA
100
AcDbCircle
 10
4983.856462673319
 20
2962.323808378089
 30
0.0
 40
0.0025892280820029
100
AcDbArc
 50
0.0
 51
90.01709537927551
  0
LWPOLYLINE
  5
28B4
330
1F
100
AcDbEntity
  8
SANINDUSA
100
AcDbPolyline
 90
        3
 70
   128
 43
0.0
 10
4983.859051901401
 20
2962.323808290879
 10
4983.859051692784
 20
2962.315809347551
 10
4983.85905163318
 20
2962.312809714
  0
ARC
  5
28BA
330
1F
100
AcDbEntity
  8
SANINDUSA
100
AcDbCircle
 10
4984.246486442582
 20
2962.32380846874
 30
0.0
 40
0.0025906572776222
100
AcDbArc
 50
0.0
 51
89.98943210188725
  0
LWPOLYLINE
  5
28C6
330
1F
100
AcDbEntity
  8
SANINDUSA
100
AcDbPolyline
 90
        3
 70
   128
 43
0.0
 10
4984.235487956107
 20
2962.326401688974
 10
4984.243487614691
 20
2962.326399811427
 10
4984.246486920417
 20
2962.326399125974
  0
LWPOLYLINE
  5
28C8
330
1F
100
AcDbEntity
  8
SANINDUSA
100
AcDbPolyline
 90
        3
 70
   128
 43
0.0
 10
4984.24907709986
 20
2962.323808529298
 10
4984.249077219069
 20
2962.315809585969
 10
4984.249077278674
 20
2962.312810041825
  0
ARC
  5
28CD
330
1F
100
AcDbEntity
  8
SANINDUSA
100
AcDbCircle
 10
4983.845462063893
 20
2962.312805563083
 30
0.0
 40
0.0025893366781735
100
AcDbArc
 50
180.0
 51
270.0153510942164
  0
LWPOLYLINE
  5
28CF
330
1F
100
AcDbEntity
  8
SANINDUSA
100
AcDbPolyline
 90
        3
 70
   128
 43
0.0
 10
4983.856461453736
 20
2962.310218968312
 10
4983.848461884559
 20
2962.310216941754
 10
4983.845462757647
 20
2962.310216226498
  0
ARC
  5
28D4
330
1F
100
AcDbEntity
  8
SANINDUSA
100
AcDbCircle
 10
4983.975465742887
 20
2962.388831882119
 30
0.0
 40
0.0025910833355415
100
AcDbArc
 50
90.00417022361085
 51
179.9892382519074
  0
LWPOLYLINE
  5
28DF
330
1F
100
AcDbEntity
  8
SANINDUSA
100
AcDbPolyline
 90
        3
 70
   128
 43
0.0
 10
4983.975465554298
 20
2962.391422965448
 10
4983.983465332091
 20
2962.391424693982
 10
4983.986466694176
 20
2962.391425290029
  0
LWPOLYLINE
  5
28E2
330
1F
100
AcDbEntity
  8
SANINDUSA
100
AcDbPolyline
 90
        3
 70
   128
 43
0.0
 10
4983.972874093354
 20
2962.377834715764
 10
4983.972874510587
 20
2962.385832943838
 10
4983.972874659599
 20
2962.388832368772
  0
ARC
  5
28E6
330
1F
100
AcDbEntity
  8
SANINDUSA
100
AcDbCircle
 10
4984.235487191083
 20
2962.323812393876
 30
0.0
 40
0.0025892952103442
100
AcDbArc
 50
89.98307158183868
 51
180.0
  0
ARC
  5
28E9
330
1F
100
AcDbEntity
  8
SANINDUSA
100
AcDbCircle
 10
4984.116483992402
 20
2962.388833489075
 30
0.0
 40
0.0025909664895422
100
AcDbArc
 50
0.0088371356946208
 51
89.99841313994901
  0
LWPOLYLINE
  5
28F5
330
1F
100
AcDbEntity
  8
SANINDUSA
100
AcDbPolyline
 90
        3
 70
   128
 43
0.0
 10
4984.232898134291
 20
2962.312813856522
 10
4984.232897955478
 20
2962.320812740247
 10
4984.232897895873
 20
2962.323812373798
  0
LWPOLYLINE
  5
28F6
330
1F
100
AcDbEntity
  8
SANINDUSA
100
AcDbPolyline
 90
        3
 70
   128
 43
0.0
 10
4984.105482894481
 20
2962.391426571528
 10
4984.11348273188
 20
2962.39142505161
 10
4984.116484064163
 20
2962.391424455564
  0
LWPOLYLINE
  5
28F8
330
1F
100
AcDbEntity
  8
SANINDUSA
100
AcDbPolyline
 90
        3
 70
   128
 43
0.0
 10
4984.119074958861
 20
2962.38883388869
 10
4984.119075376094
 20
2962.380835660617
 10
4984.119075495303
 20
2962.37783620588
  0
ARC
  5
28FA
330
1F
100
AcDbEntity
  8
SANINDUSA
100
AcDbCircle
 10
4983.856460708402
 20
2962.312809892989
 30
0.0
 40
0.0025909247836227
100
AcDbArc
 50
270.0164823547628
 51
0.0
  0
ARC
  5
28FC
330
1F
100
AcDbEntity
  8
SANINDUSA
100
AcDbCircle
 10
4983.986467656944
 20
2962.388835894703
 30
0.0
 40
0.0025893955045229
100
AcDbArc
 50
0.0
 51
90.02130327879894
  0
LWPOLYLINE
  5
2900
330
1F
100
AcDbEntity
  8
SANINDUSA
100
AcDbPolyline
 90
        3
 70
   128
 43
0.0
 10
4983.989057052434
 20
2962.388836183469
 10
4983.989056694806
 20
2962.380838015
 10
4983.989056545794
 20
2962.377838679473
  0
ARC
  5
2904
330
1F
100
AcDbEntity
  8
SANINDUSA
100
AcDbCircle
 10
4984.246487833086
 20
2962.31281005294
 30
0.0
 40
0.0025894455875931
100
AcDbArc
 50
269.9850810557501
 51
0.0
  0
ARC
  5
2907
330
1F
100
AcDbEntity
  8
SANINDUSA
100
AcDbCircle
 10
4984.10548218244
 20
2962.388836925365
 30
0.0
 40
0.0025896462610589
100
AcDbArc
 50
89.9842461459662
 51
179.9893800437904
  0
LWPOLYLINE
  5
2909
330
1F
100
AcDbEntity
  8
SANINDUSA
100
AcDbPolyline
 90
        3
 70
   128
 43
0.0
 10
4984.246487158835
 20
2962.31022060744
 10
4984.238487559855
 20
2962.310222455184
 10
4984.235488313736
 20
2962.31022317044
  0
LWPOLYLINE
  5
290C
330
1F
100
AcDbEntity
  8
SANINDUSA
100
AcDbPolyline
 90
        3
 70
   128
 43
0.0
 10
4984.10289301306
 20
2962.37783993117
 10
4984.102892655433
 20
2962.385838040034
 10
4984.102892536224
 20
2962.388837405364
  0
ARC
  5
2914
330
1F
100
AcDbEntity
  8
SANINDUSA
100
AcDbCircle
 10
4983.975463363486
 20
2962.377834968563
 30
0.0
 40
0.00258927014409
100
AcDbArc
 50
180.0
 51
270.0220997833879
  0
ARC
  5
2915
330
1F
100
AcDbEntity
  8
SANINDUSA
100
AcDbCircle
 10
4984.235488916968
 20
2962.312813953047
 30
0.0
 40
0.0025907826773305
100
AcDbArc
 50
180.0
 51
269.9866593697755
  0
LWPOLYLINE
  5
2917
330
1F
100
AcDbEntity
  8
SANINDUSA
100
AcDbPolyline
 90
        3
 70
   128
 43
0.0
 10
4983.986465621293
 20
2962.375248202006
 10
4983.978465873302
 20
2962.375246413867
 10
4983.975464362204
 20
2962.375245698611
  0
ARC
  5
2918
330
1F
100
AcDbEntity
  8
SANINDUSA
100
AcDbCircle
 10
4984.116485999502
 20
2962.377836654659
 30
0.0
 40
0.002589495840486
100
AcDbArc
 50
269.9835547477038
 51
359.9900701392813
  0
LWPOLYLINE
  5
291B
330
1F
100
AcDbEntity
  8
SANINDUSA
100
AcDbPolyline
 90
        3
 70
   128
 43
0.0
 10
4984.116485256254
 20
2962.375247158925
 10
4984.108485418857
 20
2962.37524888746
 10
4984.105483967365
 20
2962.375249483507
  0
ARC
  5
291D
330
1F
100
AcDbEntity
  8
SANINDUSA
100
AcDbCircle
 10
4984.040473717276
 20
2962.388841280077
 30
0.0
 40
0.0025905068709615
100
AcDbArc
 50
89.99405714344023
 51
179.9861668501347
  0
LWPOLYLINE
  5
2928
330
1F
100
AcDbEntity
  8
SANINDUSA
100
AcDbPolyline
 90
        3
 70
   128
 43
0.0
 10
4984.04047398597
 20
2962.391431786935
 10
4984.048474002182
 20
2962.391431935947
 10
4984.051475632489
 20
2962.391431935947
  0
ARC
  5
292A
330
1F
100
AcDbEntity
  8
SANINDUSA
100
AcDbCircle
 10
4984.051476217555
 20
2962.388841805166
 30
0.0
 40
0.002590130846345
100
AcDbArc
 50
0.0081530589326664
 51
90.01294209134703
  0
LWPOLYLINE
  5
292D
330
1F
100
AcDbEntity
  8
SANINDUSA
100
AcDbPolyline
 90
        3
 70
   128
 43
0.0
 10
4984.037883091271
 20
2962.377844729344
 10
4984.037883180679
 20
2962.385842689197
 10
4984.037883210481
 20
2962.388841905515
  0
LWPOLYLINE
  5
292E
330
1F
100
AcDbEntity
  8
SANINDUSA
100
AcDbPolyline
 90
        3
 70
   128
 43
0.0
 10
4984.054066348374
 20
2962.388842173736
 10
4984.054066378177
 20
2962.380844213884
 10
4984.054066378177
 20
2962.377844997565
  0
ARC
  5
2930
330
1F
100
AcDbEntity
  8
SANINDUSA
100
AcDbCircle
 10
4983.986465437451
 20
2962.377839310419
 30
0.0
 40
0.0025911084192679
100
AcDbArc
 50
270.004065169432
 51
359.9860475177495
  0
ARC
  5
2932
330
1F
100
AcDbEntity
  8
SANINDUSA
100
AcDbCircle
 10
4984.105483762231
 20
2962.377840232686
 30
0.0
 40
0.0025907491877165
100
AcDbArc
 50
180.0
 51
270.0045366625937
  0
ARC
  5
2937
330
1F
100
AcDbEntity
  8
SANINDUSA
100
AcDbCircle
 10
4983.780471977993
 20
2962.258807494444
 30
0.0
 40
0.0025901139983491
100
AcDbArc
 50
90.0025074389851
 51
180.0
  0
LINE
  5
2942
330
1F
100
AcDbEntity
  8
SANINDUSA
100
AcDbLine
 10
4983.780471864641
 20
2962.26139760844
 30
0.0
 11
4983.791470367015
 21
2962.261398264091
 31
0.0
  0
LWPOLYLINE
  5
2945
330
1F
100
AcDbEntity
  8
SANINDUSA
100
AcDbPolyline
 90
        3
 70
   128
 43
0.0
 10
4983.777881938518
 20
2962.247810968082
 10
4983.777881878913
 20
2962.255809434573
 10
4983.777881864011
 20
2962.258807786624
  0
ARC
  5
2948
330
1F
100
AcDbEntity
  8
SANINDUSA
100
AcDbCircle
 10
4983.791470870735
 20
2962.258808618218
 30
0.0
 40
0.0025896459219008
100
AcDbArc
 50
0.0
 51
90.01114475812363
  0
LWPOLYLINE
  5
294A
330
1F
100
AcDbEntity
  8
SANINDUSA
100
AcDbPolyline
 90
        3
 70
   128
 43
0.0
 10
4983.794060516656
 20
2962.258808680694
 10
4983.794060620964
 20
2962.250810214202
 10
4983.794060650766
 20
2962.247811862151
  0
ARC
  5
294C
330
1F
100
AcDbEntity
  8
SANINDUSA
100
AcDbCircle
 10
4983.910459252445
 20
2962.323823327287
 30
0.0
 40
0.0025913257998541
100
AcDbArc
 50
90.01612112678662
 51
180.0
  0
LWPOLYLINE
  5
2957
330
1F
100
AcDbEntity
  8
SANINDUSA
100
AcDbPolyline
 90
        3
 70
   128
 43
0.0
 10
4983.910458523333
 20
2962.326414652984
 10
4983.918457824291
 20
2962.326417514006
 10
4983.92145847112
 20
2962.32641858689
  0
LWPOLYLINE
  5
295A
330
1F
100
AcDbEntity
  8
SANINDUSA
100
AcDbPolyline
 90
        3
 70
   128
 43
0.0
 10
4983.907867360414
 20
2962.31282524101
 10
4983.907867777646
 20
2962.320823975722
 10
4983.907867926657
 20
2962.323823579471
  0
ARC
  5
295C
330
1F
100
AcDbEntity
  8
SANINDUSA
100
AcDbCircle
 10
4984.040472963098
 20
2962.377845047468
 30
0.0
 40
0.0025898718462902
100
AcDbArc
 50
180.0
 51
270.0180138217344
  0
LWPOLYLINE
  5
295E
330
1F
100
AcDbEntity
  8
SANINDUSA
100
AcDbPolyline
 90
        3
 70
   128
 43
0.0
 10
4984.051475632489
 20
2962.375255354564
 10
4984.043475646079
 20
2962.375255265157
 10
4984.040473777355
 20
2962.37525517575
  0
ARC
  5
295F
330
1F
100
AcDbEntity
  8
SANINDUSA
100
AcDbCircle
 10
4984.051476046817
 20
2962.377845685982
 30
0.0
 40
0.0025903314507652
100
AcDbArc
 50
269.9908354298058
 51
359.9847728499156
  0
ARC
  5
2968
330
1F
100
AcDbEntity
  8
SANINDUSA
100
AcDbCircle
 10
4984.181490336425
 20
2962.323826426912
 30
0.0
 40
0.0025911169620271
100
AcDbArc
 50
0.0
 51
89.98717729314213
  0
ARC
  5
2973
330
1F
100
AcDbEntity
  8
SANINDUSA
100
AcDbCircle
 10
4984.311479268348
 20
2962.258812236669
 30
0.0
 40
0.00259008053696
100
AcDbArc
 50
0.0
 51
89.99955117477924
  0
LWPOLYLINE
  5
297E
330
1F
100
AcDbEntity
  8
SANINDUSA
100
AcDbPolyline
 90
        3
 70
   128
 43
0.0
 10
4984.170490938724
 20
2962.32642114989
 10
4984.178490299285
 20
2962.326418527286
 10
4984.181490916313
 20
2962.326417543809
  0
LWPOLYLINE
  5
2980
330
1F
100
AcDbEntity
  8
SANINDUSA
100
AcDbPolyline
 90
        3
 70
   128
 43
0.0
 10
4984.184081453384
 20
2962.323826559703
 10
4984.184081870616
 20
2962.315827854793
 10
4984.184081989825
 20
2962.312828221242
  0
LWPOLYLINE
  5
2983
330
1F
100
AcDbEntity
  8
SANINDUSA
100
AcDbPolyline
 90
        3
 70
   128
 43
0.0
 10
4984.300480503143
 20
2962.261403092067
 10
4984.30848045975
 20
2962.26140249602
 10
4984.311479288638
 20
2962.261402317207
  0
LWPOLYLINE
  5
2985
330
1F
100
AcDbEntity
  8
SANINDUSA
100
AcDbPolyline
 90
        3
 70
   128
 43
0.0
 10
4984.314069348872
 20
2962.258812495391
 10
4984.314069289268
 20
2962.250814028899
 10
4984.314069229663
 20
2962.247815557639
  0
ARC
  5
298C
330
1F
100
AcDbEntity
  8
SANINDUSA
100
AcDbCircle
 10
4983.780471567768
 20
2962.24781107349
 30
0.0
 40
0.0025896292526854
100
AcDbArc
 50
180.0
 51
270.0115136984038
  0
ARC
  5
298D
330
1F
100
AcDbEntity
  8
SANINDUSA
100
AcDbCircle
 10
4983.921459589675
 20
2962.32382973486
 30
0.0
 40
0.0025888522720693
100
AcDbArc
 50
0.0
 51
90.02475558035945
  0
LINE
  5
2991
330
1F
100
AcDbEntity
  8
SANINDUSA
100
AcDbLine
 10
4983.791470665038
 20
2962.24522209994
 30
0.0
 11
4983.780472088159
 21
2962.245221444289
 31
0.0
  0
LWPOLYLINE
  5
2992
330
1F
100
AcDbEntity
  8
SANINDUSA
100
AcDbPolyline
 90
        3
 70
   128
 43
0.0
 10
4983.924048441947
 20
2962.323829748552
 10
4983.92404796511
 20
2962.315831133048
 10
4983.924047816098
 20
2962.3128315293
  0
ARC
  5
2995
330
1F
100
AcDbEntity
  8
SANINDUSA
100
AcDbCircle
 10
4984.300480036633
 20
2962.258813379171
 30
0.0
 40
0.0025897129378513
100
AcDbArc
 50
89.98967879161686
 51
180.0
  0
LWPOLYLINE
  5
2998
330
1F
100
AcDbEntity
  8
SANINDUSA
100
AcDbPolyline
 90
        3
 70
   128
 43
0.0
 10
4984.29789020449
 20
2962.247816630523
 10
4984.297890264095
 20
2962.255815097014
 10
4984.297890323698
 20
2962.25881350867
  0
ARC
  5
2999
330
1F
100
AcDbEntity
  8
SANINDUSA
100
AcDbCircle
 10
4983.791470578575
 20
2962.247812172149
 30
0.0
 40
0.0025900722098508
100
AcDbArc
 50
270.0019126530714
 51
0.0
  0
ARC
  5
299C
330
1F
100
AcDbEntity
  8
SANINDUSA
100
AcDbCircle
 10
4983.91045626275
 20
2962.312825245182
 30
0.0
 40
0.0025889023362201
100
AcDbArc
 50
180.0
 51
270.0236470919176
  0
LWPOLYLINE
  5
299F
330
1F
100
AcDbEntity
  8
SANINDUSA
100
AcDbPolyline
 90
        3
 70
   128
 43
0.0
 10
4983.921457159818
 20
2962.310240425984
 10
4983.913457948268
 20
2962.310237445752
 10
4983.910457331241
 20
2962.310236343066
  0
ARC
  5
29A0
330
1F
100
AcDbEntity
  8
SANINDUSA
100
AcDbCircle
 10
4984.170489956564
 20
2962.323832071997
 30
0.0
 40
0.0025890780800575
100
AcDbArc
 50
89.97826504020075
 51
180.0
  0
LWPOLYLINE
  5
29A4
330
1F
100
AcDbEntity
  8
SANINDUSA
100
AcDbPolyline
 90
        3
 70
   128
 43
0.0
 10
4984.167901474536
 20
2962.312834002893
 10
4984.167901057304
 20
2962.320832648198
 10
4984.167900878489
 20
2962.323832222145
  0
ARC
  5
29A8
330
1F
100
AcDbEntity
  8
SANINDUSA
100
AcDbCircle
 10
4984.18149291175
 20
2962.312828341586
 30
0.0
 40
0.0025890780778795
100
AcDbArc
 50
269.9782650402008
 51
0.0
  0
LWPOLYLINE
  5
29AA
330
1F
100
AcDbEntity
  8
SANINDUSA
100
AcDbPolyline
 90
        3
 70
   128
 43
0.0
 10
4984.181491929591
 20
2962.310239263694
 10
4984.173492628634
 20
2962.310241975706
 10
4984.170492071211
 20
2962.310243018786
  0
ARC
  5
29AD
330
1F
100
AcDbEntity
  8
SANINDUSA
100
AcDbCircle
 10
4983.845463123205
 20
2962.258815378336
 30
0.0
 40
0.0025905152131496
100
AcDbArc
 50
90.012699309877
 51
180.0
  0
LWPOLYLINE
  5
29BB
330
1F
100
AcDbEntity
  8
SANINDUSA
100
AcDbPolyline
 90
        3
 70
   128
 43
0.0
 10
4983.845462549031
 20
2962.261405893485
 10
4983.853462118209
 20
2962.261407741229
 10
4983.856461006702
 20
2962.261408456485
  0
LWPOLYLINE
  5
29BE
330
1F
100
AcDbEntity
  8
SANINDUSA
100
AcDbPolyline
 90
        3
 70
   128
 43
0.0
 10
4983.842872757018
 20
2962.247818537872
 10
4983.842872637809
 20
2962.255817123573
 10
4983.842872608007
 20
2962.258815654437
  0
ARC
  5
29BF
330
1F
100
AcDbEntity
  8
SANINDUSA
100
AcDbCircle
 10
4984.311479466601
 20
2962.247815856498
 30
0.0
 40
0.0025897630794907
100
AcDbArc
 50
269.9907880095172
 51
0.0
  0
ARC
  5
29C1
330
1F
100
AcDbEntity
  8
SANINDUSA
100
AcDbCircle
 10
4983.921456398421
 20
2962.312831843568
 30
0.0
 40
0.0025914176956058
100
AcDbArc
 50
270.0168343071222
 51
0.0
  0
LWPOLYLINE
  5
29C2
330
1F
100
AcDbEntity
  8
SANINDUSA
100
AcDbPolyline
 90
        3
 70
   128
 43
0.0
 10
4984.311479050219
 20
2962.245226093452
 10
4984.303479093611
 20
2962.245226629893
 10
4984.300480264724
 20
2962.245226808708
  0
ARC
  5
29C6
330
1F
100
AcDbEntity
  8
SANINDUSA
100
AcDbCircle
 10
4984.300480234892
 20
2962.247816839117
 30
0.0
 40
0.002590030410441
100
AcDbArc
 50
180.0
 51
270.000659923673
  0
ARC
  5
29C8
330
1F
100
AcDbEntity
  8
SANINDUSA
100
AcDbCircle
 10
4983.856461952167
 20
2962.258819312087
 30
0.0
 40
0.0025891445707358
100
AcDbArc
 50
0.0
 51
90.0209224052673
  0
LWPOLYLINE
  5
29CC
330
1F
100
AcDbEntity
  8
SANINDUSA
100
AcDbPolyline
 90
        3
 70
   128
 43
0.0
 10
4983.859051096738
 20
2962.258819290321
 10
4983.859051156342
 20
2962.250820645015
 10
4983.859051186144
 20
2962.247821935336
  0
ARC
  5
29CE
330
1F
100
AcDbEntity
  8
SANINDUSA
100
AcDbCircle
 10
4984.170492633278
 20
2962.312834177473
 30
0.0
 40
0.0025911587474794
100
AcDbArc
 50
180.0
 51
269.9875716110987
  0
ARC
  5
29D2
330
1F
100
AcDbEntity
  8
SANINDUSA
100
AcDbCircle
 10
4984.246486820868
 20
2962.258820084877
 30
0.0
 40
0.0025903982062073
100
AcDbArc
 50
0.0
 51
89.98988790988247
  0
LWPOLYLINE
  5
29DD
330
1F
100
AcDbEntity
  8
SANINDUSA
100
AcDbPolyline
 90
        3
 70
   128
 43
0.0
 10
4984.235488611759
 20
2962.261412807624
 10
4984.243488210738
 20
2962.261411079089
 10
4984.246487278045
 20
2962.261410483043
  0
LWPOLYLINE
  5
29DF
330
1F
100
AcDbEntity
  8
SANINDUSA
100
AcDbPolyline
 90
        3
 70
   128
 43
0.0
 10
4984.249077219069
 20
2962.258820243995
 10
4984.24907709986
 20
2962.250821658294
 10
4984.24907709986
 20
2962.247823067825
  0
ARC
  5
29E3
330
1F
100
AcDbEntity
  8
SANINDUSA
100
AcDbCircle
 10
4983.84546203531
 20
2962.247818530644
 30
0.0
 40
0.0025892782927059
100
AcDbArc
 50
180.0
 51
270.0192812983897
  0
LWPOLYLINE
  5
29E7
330
1F
100
AcDbEntity
  8
SANINDUSA
100
AcDbPolyline
 90
        3
 70
   128
 43
0.0
 10
4983.856461274922
 20
2962.245231636684
 10
4983.848461735547
 20
2962.245229908149
 10
4983.845462906659
 20
2962.245229252498
  0
ARC
  5
29EC
330
1F
100
AcDbEntity
  8
SANINDUSA
100
AcDbCircle
 10
4984.23548785399
 20
2962.25882344566
 30
0.0
 40
0.0025893620752016
100
AcDbArc
 50
89.9832326023818
 51
180.0
  0
LWPOLYLINE
  5
29F1
330
1F
100
AcDbEntity
  8
SANINDUSA
100
AcDbPolyline
 90
        3
 70
   128
 43
0.0
 10
4984.232898372709
 20
2962.247826226871
 10
4984.23289849192
 20
2962.255824752967
 10
4984.23289849192
 20
2962.258823581855
  0
ARC
  5
29F2
330
1F
100
AcDbEntity
  8
SANINDUSA
100
AcDbCircle
 10
4983.856460578988
 20
2962.247822243765
 30
0.0
 40
0.0025906071746711
100
AcDbArc
 50
270.0153917922943
 51
0.0
  0
ARC
  5
29FA
330
1F
100
AcDbEntity
  8
SANINDUSA
100
AcDbCircle
 10
4984.246487737705
 20
2962.247823144459
 30
0.0
 40
0.0025893621561393
100
AcDbArc
 50
269.9805966594927
 51
0.0
  0
LWPOLYLINE
  5
29FC
330
1F
100
AcDbEntity
  8
SANINDUSA
100
AcDbPolyline
 90
        3
 70
   128
 43
0.0
 10
4984.246486860812
 20
2962.245233782451
 10
4984.238487261833
 20
2962.245235332172
 10
4984.235488313736
 20
2962.245235987822
  0
ARC
  5
2A00
330
1F
100
AcDbEntity
  8
SANINDUSA
100
AcDbCircle
 10
4983.975462399416
 20
2962.3238457184
 30
0.0
 40
0.0025913757576094
100
AcDbArc
 50
90.00799928171071
 51
179.9880458661122
  0
LWPOLYLINE
  5
2A0C
330
1F
100
AcDbEntity
  8
SANINDUSA
100
AcDbPolyline
 90
        3
 70
   128
 43
0.0
 10
4983.975462037623
 20
2962.326437094132
 10
4983.983461636603
 20
2962.326439418714
 10
4983.986463564932
 20
2962.326440223376
  0
LWPOLYLINE
  5
2A0F
330
1F
100
AcDbEntity
  8
SANINDUSA
100
AcDbPolyline
 90
        3
 70
   128
 43
0.0
 10
4983.972870338262
 20
2962.312848576229
 10
4983.972870844901
 20
2962.320846834104
 10
4983.972871023715
 20
2962.323846259038
  0
ARC
  5
2A10
330
1F
100
AcDbEntity
  8
SANINDUSA
100
AcDbCircle
 10
4984.235488770912
 20
2962.247826385988
 30
0.0
 40
0.0025903982061534
100
AcDbArc
 50
180.0
 51
269.9898879098825
  0
ARC
  5
2A18
330
1F
100
AcDbEntity
  8
SANINDUSA
100
AcDbCircle
 10
4984.116487406595
 20
2962.323847098068
 30
0.0
 40
0.0025909497391656
100
AcDbArc
 50
0.0
 51
89.99878301820457
  0
LWPOLYLINE
  5
2A23
330
1F
100
AcDbEntity
  8
SANINDUSA
100
AcDbPolyline
 90
        3
 70
   128
 43
0.0
 10
4984.105485993922
 20
2962.326440849225
 10
4984.113485712112
 20
2962.32643885247
 10
4984.116487461626
 20
2962.326438047807
  0
LWPOLYLINE
  5
2A25
330
1F
100
AcDbEntity
  8
SANINDUSA
100
AcDbPolyline
 90
        3
 70
   128
 43
0.0
 10
4984.119078356326
 20
2962.323847302119
 10
4984.119078833163
 20
2962.315849014442
 10
4984.119078952373
 20
2962.312849619309
  0
ARC
  5
2A28
330
1F
100
AcDbEntity
  8
SANINDUSA
100
AcDbCircle
 10
4983.986464781884
 20
2962.323851112151
 30
0.0
 40
0.0025891115119531
100
AcDbArc
 50
0.0
 51
90.0269305564305
  0
LWPOLYLINE
  5
2A2B
330
1F
100
AcDbEntity
  8
SANINDUSA
100
AcDbPolyline
 90
        3
 70
   128
 43
0.0
 10
4983.989053893388
 20
2962.323851325433
 10
4983.989053446353
 20
2962.315853216569
 10
4983.989053267539
 20
2962.312853851239
  0
ARC
  5
2A2D
330
1F
100
AcDbEntity
  8
SANINDUSA
100
AcDbCircle
 10
4984.105485222328
 20
2962.323851202996
 30
0.0
 40
0.0025896463441045
100
AcDbArc
 50
89.98292853930884
 51
179.9860817280999
  0
LWPOLYLINE
  5
2A30
330
1F
100
AcDbEntity
  8
SANINDUSA
100
AcDbPolyline
 90
        3
 70
   128
 43
0.0
 10
4984.102896112502
 20
2962.312854328077
 10
4984.102895754874
 20
2962.320852526347
 10
4984.102895576061
 20
2962.323851832072
  0
ARC
  5
2A36
330
1F
100
AcDbEntity
  8
SANINDUSA
100
AcDbCircle
 10
4983.975459307699
 20
2962.312848766627
 30
0.0
 40
0.0025889694438895
100
AcDbArc
 50
180.0
 51
270.0280974083465
  0
LWPOLYLINE
  5
2A39
330
1F
100
AcDbEntity
  8
SANINDUSA
100
AcDbPolyline
 90
        3
 70
   128
 43
0.0
 10
4983.986462194025
 20
2962.310263135354
 10
4983.978462624849
 20
2962.310260751169
 10
4983.975460577309
 20
2962.310259797494
  0
ARC
  5
2A3E
330
1F
100
AcDbEntity
  8
SANINDUSA
100
AcDbCircle
 10
4984.116489673708
 20
2962.312850029687
 30
0.0
 40
0.0025892786967764
100
AcDbArc
 50
269.9787485708544
 51
359.9909190406374
  0
LWPOLYLINE
  5
2A40
330
1F
100
AcDbEntity
  8
SANINDUSA
100
AcDbPolyline
 90
        3
 70
   128
 43
0.0
 10
4984.116488713325
 20
2962.310260751169
 10
4984.10848905474
 20
2962.31026295654
 10
4984.10548712641
 20
2962.310263731401
  0
ARC
  5
2A44
330
1F
100
AcDbEntity
  8
SANINDUSA
100
AcDbCircle
 10
4983.98646182499
 20
2962.312854577979
 30
0.0
 40
0.0025914426514566
100
AcDbArc
 50
270.008159260051
 51
359.9839320516857
  0
ARC
  5
2A45
330
1F
100
AcDbEntity
  8
SANINDUSA
100
AcDbCircle
 10
4983.910456428176
 20
2962.25883443902
 30
0.0
 40
0.0025911837437459
100
AcDbArc
 50
90.018911628552
 51
180.0
  0
LWPOLYLINE
  5
2A50
330
1F
100
AcDbEntity
  8
SANINDUSA
100
AcDbPolyline
 90
        3
 70
   128
 43
0.0
 10
4983.910455572903
 20
2962.261425622623
 10
4983.918454605639
 20
2962.261428722064
 10
4983.921455133259
 20
2962.261429854553
  0
LWPOLYLINE
  5
2A53
330
1F
100
AcDbEntity
  8
SANINDUSA
100
AcDbPolyline
 90
        3
 70
   128
 43
0.0
 10
4983.90786500603
 20
2962.247837134521
 10
4983.907865184844
 20
2962.255835720222
 10
4983.907865244448
 20
2962.258834727924
  0
ARC
  5
2A54
330
1F
100
AcDbEntity
  8
SANINDUSA
100
AcDbCircle
 10
4984.105487062253
 20
2962.312854681175
 30
0.0
 40
0.0025909497753815
100
AcDbArc
 50
180.0
 51
270.0014187525204
  0
LWPOLYLINE
  5
2A5A
330
1F
100
AcDbEntity
  8
SANINDUSA
100
AcDbPolyline
 90
        3
 70
   128
 43
0.0
 10
4984.040473568738
 20
2962.326448568027
 10
4984.048473555148
 20
2962.326448627631
 10
4984.051475930512
 20
2962.326448538224
  0
ARC
  5
2A65
330
1F
100
AcDbEntity
  8
SANINDUSA
100
AcDbCircle
 10
4984.040473223734
 20
2962.323858077857
 30
0.0
 40
0.0025904901927649
100
AcDbArc
 50
89.99236929379348
 51
179.9838991961863
  0
ARC
  5
2A67
330
1F
100
AcDbEntity
  8
SANINDUSA
100
AcDbCircle
 10
4984.051476633327
 20
2962.323858257002
 30
0.0
 40
0.002590281317492
100
AcDbArc
 50
0.0081850806550845
 51
90.01554593429068
  0
LWPOLYLINE
  5
2A6A
330
1F
100
AcDbEntity
  8
SANINDUSA
100
AcDbPolyline
 90
        3
 70
   128
 43
0.0
 10
4984.037882793248
 20
2962.312861629646
 10
4984.037882733644
 20
2962.320859559696
 10
4984.037882733644
 20
2962.323858805816
  0
LWPOLYLINE
  5
2A6B
330
1F
100
AcDbEntity
  8
SANINDUSA
100
AcDbPolyline
 90
        3
 70
   128
 43
0.0
 10
4984.054066914619
 20
2962.323858627002
 10
4984.05406706363
 20
2962.31586066715
 10
4984.054067123235
 20
2962.312861450831
  0
ARC
  5
2A74
330
1F
100
AcDbEntity
  8
SANINDUSA
100
AcDbCircle
 10
4984.181492854294
 20
2962.258837560058
 30
0.0
 40
0.0025909832824917
100
AcDbArc
 50
0.0
 51
89.98486057745443
  0
LWPOLYLINE
  5
2A80
330
1F
100
AcDbEntity
  8
SANINDUSA
100
AcDbPolyline
 90
        3
 70
   128
 43
0.0
 10
4984.170493918956
 20
2962.261432477157
 10
4984.178493100703
 20
2962.261429616134
 10
4984.181493538916
 20
2962.26142854325
  0
LWPOLYLINE
  5
2A82
330
1F
100
AcDbEntity
  8
SANINDUSA
100
AcDbPolyline
 90
        3
 70
   128
 43
0.0
 10
4984.184083837569
 20
2962.25883776776
 10
4984.184084016384
 20
2962.250839182059
 10
4984.184084075987
 20
2962.247840114753
  0
ARC
  5
2A85
330
1F
100
AcDbEntity
  8
SANINDUSA
100
AcDbCircle
 10
4983.921456466457
 20
2962.258841127857
 30
0.0
 40
0.0025887270379095
100
AcDbArc
 50
0.0
 51
90.02950735441725
  0
ARC
  5
2A89
330
1F
100
AcDbEntity
  8
SANINDUSA
100
AcDbCircle
 10
4983.780472028142
 20
2962.193830990435
 30
0.0
 40
0.0025901642246946
100
AcDbArc
 50
89.99801314199254
 51
179.9845147480512
  0
LINE
  5
2A94
330
1F
100
AcDbEntity
  8
SANINDUSA
100
AcDbLine
 10
4983.924045193494
 20
2962.25884110562
 30
0.0
 11
4983.924044865668
 21
2962.247843452613
 31
0.0
  0
LWPOLYLINE
  5
2A96
330
1F
100
AcDbEntity
  8
SANINDUSA
100
AcDbPolyline
 90
        3
 70
   128
 43
0.0
 10
4983.780472117961
 20
2962.196421154658
 10
4983.78847208947
 20
2962.1964216911
 10
4983.79147106737
 20
2962.196421869914
  0
LWPOLYLINE
  5
2A99
330
1F
100
AcDbEntity
  8
SANINDUSA
100
AcDbPolyline
 90
        3
 70
   128
 43
0.0
 10
4983.777881700099
 20
2962.182836898486
 10
4983.777881834209
 20
2962.190834172885
 10
4983.777881864011
 20
2962.193831690471
  0
ARC
  5
2A9C
330
1F
100
AcDbEntity
  8
SANINDUSA
100
AcDbCircle
 10
4983.910453783144
 20
2962.247837102765
 30
0.0
 40
0.0025887771138846
100
AcDbArc
 50
180.0
 51
270.0290581122538
  0
ARC
  5
2A9D
330
1F
100
AcDbEntity
  8
SANINDUSA
100
AcDbCircle
 10
4983.791471933169
 20
2962.193832541499
 30
0.0
 40
0.0025893285596852
100
AcDbArc
 50
0.0
 51
90.01915810984769
  0
LWPOLYLINE
  5
2AA0
330
1F
100
AcDbEntity
  8
SANINDUSA
100
AcDbPolyline
 90
        3
 70
   128
 43
0.0
 10
4983.921454507411
 20
2962.245252557914
 10
4983.91345553428
 20
2962.245249458473
 10
4983.910455096066
 20
2962.245248325984
  0
LWPOLYLINE
  5
2AA1
330
1F
100
AcDbEntity
  8
SANINDUSA
100
AcDbPolyline
 90
        3
 70
   128
 43
0.0
 10
4983.794061261714
 20
2962.193832822959
 10
4983.794061306418
 20
2962.185835488956
 10
4983.794061321319
 20
2962.182838150184
  0
ARC
  5
2AA7
330
1F
100
AcDbEntity
  8
SANINDUSA
100
AcDbCircle
 10
4984.170492726955
 20
2962.25884354959
 30
0.0
 40
0.0025889278407488
100
AcDbArc
 50
89.97361972741449
 51
180.0
  0
LWPOLYLINE
  5
2AAB
330
1F
100
AcDbEntity
  8
SANINDUSA
100
AcDbPolyline
 90
        3
 70
   128
 43
0.0
 10
4984.167904156745
 20
2962.247845896403
 10
4984.167903918326
 20
2962.2558444225
 10
4984.167903799117
 20
2962.25884366862
  0
LWPOLYLINE
  5
2AAE
330
1F
100
AcDbEntity
  8
SANINDUSA
100
AcDbPolyline
 90
        3
 70
   128
 43
0.0
 10
4984.051476347745
 20
2962.310271927039
 10
4984.043476331533
 20
2962.310272046249
 10
4984.040473717749
 20
2962.310272016446
  0
ARC
  5
2AB1
330
1F
100
AcDbEntity
  8
SANINDUSA
100
AcDbCircle
 10
4984.040472773787
 20
2962.312861996839
 30
0.0
 40
0.0025899805646743
100
AcDbArc
 50
180.0081230955634
 51
270.0208824367405
  0
ARC
  5
2AB2
330
1F
100
AcDbEntity
  8
SANINDUSA
100
AcDbCircle
 10
4984.051476766798
 20
2962.312862283575
 30
0.0
 40
0.002590356570034
100
AcDbArc
 50
269.9907310009505
 51
359.9815803960558
  0
ARC
  5
2AB3
330
1F
100
AcDbEntity
  8
SANINDUSA
100
AcDbCircle
 10
4984.181494930997
 20
2962.247840331799
 30
0.0
 40
0.0025891449989806
100
AcDbArc
 50
269.9771083498311
 51
0.0
  0
LWPOLYLINE
  5
2AB5
330
1F
100
AcDbEntity
  8
SANINDUSA
100
AcDbPolyline
 90
        3
 70
   128
 43
0.0
 10
4984.181493896545
 20
2962.245251187007
 10
4984.173494774402
 20
2962.245253988426
 10
4984.170494455398
 20
2962.245255061309
  0
ARC
  5
2ABB
330
1F
100
AcDbEntity
  8
SANINDUSA
100
AcDbCircle
 10
4984.311479461599
 20
2962.193834962871
 30
0.0
 40
0.0025899469032019
100
AcDbArc
 50
0.0
 51
90.0077820863626
  0
LWPOLYLINE
  5
2AC6
330
1F
100
AcDbEntity
  8
SANINDUSA
100
AcDbPolyline
 90
        3
 70
   128
 43
0.0
 10
4984.300479907096
 20
2962.196425744216
 10
4984.308479863703
 20
2962.196425088565
 10
4984.311479109824
 20
2962.196424909751
  0
LWPOLYLINE
  5
2AC8
330
1F
100
AcDbEntity
  8
SANINDUSA
100
AcDbPolyline
 90
        3
 70
   128
 43
0.0
 10
4984.314069408476
 20
2962.193835326354
 10
4984.314069527687
 20
2962.185837873141
 10
4984.314069587291
 20
2962.182840236346
  0
ARC
  5
2ACA
330
1F
100
AcDbEntity
  8
SANINDUSA
100
AcDbCircle
 10
4983.921453548197
 20
2962.247843875241
 30
0.0
 40
0.0025913175052211
100
AcDbArc
 50
270.0212088550991
 51
359.9906551284846
  0
ARC
  5
2ACC
330
1F
100
AcDbEntity
  8
SANINDUSA
100
AcDbCircle
 10
4984.30047935707
 20
2962.193836114803
 30
0.0
 40
0.0025896294713107
100
AcDbArc
 50
89.98783065094743
 51
179.9884312992675
  0
LWPOLYLINE
  5
2ACF
330
1F
100
AcDbEntity
  8
SANINDUSA
100
AcDbPolyline
 90
        3
 70
   128
 43
0.0
 10
4984.297889668048
 20
2962.182841726463
 10
4984.297889727653
 20
2962.190839060466
 10
4984.297889727653
 20
2962.193836637656
  0
ARC
  5
2AD5
330
1F
100
AcDbEntity
  8
SANINDUSA
100
AcDbCircle
 10
4983.780470844857
 20
2962.182837234546
 30
0.0
 40
0.0025891447802819
100
AcDbArc
 50
180.0
 51
270.0215777953939
  0
LWPOLYLINE
  5
2AD8
330
1F
100
AcDbEntity
  8
SANINDUSA
100
AcDbPolyline
 90
        3
 70
   128
 43
0.0
 10
4983.791471126973
 20
2962.18024886481
 10
4983.783471155465
 20
2962.180248268764
 10
4983.780471819938
 20
2962.18024808995
  0
ARC
  5
2AD9
330
1F
100
AcDbEntity
  8
SANINDUSA
100
AcDbCircle
 10
4984.170495223623
 20
2962.247846128084
 30
0.0
 40
0.0025910668887525
100
AcDbArc
 50
180.0
 51
269.9830123846373
  0
ARC
  5
2ADA
330
1F
100
AcDbEntity
  8
SANINDUSA
100
AcDbCircle
 10
4983.791471198963
 20
2962.182838987299
 30
0.0
 40
0.0025901224902174
100
AcDbArc
 50
269.9984075120465
 51
359.9814821943573
  0
ARC
  5
2ADB
330
1F
100
AcDbEntity
  8
SANINDUSA
100
AcDbCircle
 10
4983.845464675875
 20
2962.193837043972
 30
0.0
 40
0.00259013078816
100
AcDbArc
 50
90.0091405473845
 51
179.9865733879348
  0
LWPOLYLINE
  5
2AE6
330
1F
100
AcDbEntity
  8
SANINDUSA
100
AcDbPolyline
 90
        3
 70
   128
 43
0.0
 10
4983.845464262665
 20
2962.196427174728
 10
4983.853463965953
 20
2962.196428366821
 10
4983.856462645829
 20
2962.196428843658
  0
LWPOLYLINE
  5
2AE9
330
1F
100
AcDbEntity
  8
SANINDUSA
100
AcDbPolyline
 90
        3
 70
   128
 43
0.0
 10
4983.842875126303
 20
2962.182842680137
 10
4983.842874694169
 20
2962.19084013335
 10
4983.842874545157
 20
2962.193837650935
  0
ARC
  5
2AEE
330
1F
100
AcDbEntity
  8
SANINDUSA
100
AcDbCircle
 10
4983.856463812833
 20
2962.193839682469
 30
0.0
 40
0.0025891614516159
100
AcDbArc
 50
0.0
 51
90.02582472559794
  0
LWPOLYLINE
  5
2AF0
330
1F
100
AcDbEntity
  8
SANINDUSA
100
AcDbPolyline
 90
        3
 70
   128
 43
0.0
 10
4983.859052974285
 20
2962.193839737098
 10
4983.859053421319
 20
2962.185842045466
 10
4983.859053600133
 20
2962.182844349067
  0
ARC
  5
2AF3
330
1F
100
AcDbEntity
  8
SANINDUSA
100
AcDbCircle
 10
4984.311480091545
 20
2962.182840863952
 30
0.0
 40
0.0025894958220001
100
AcDbArc
 50
269.986191159546
 51
359.9861134632157
  0
LWPOLYLINE
  5
2AF5
330
1F
100
AcDbEntity
  8
SANINDUSA
100
AcDbPolyline
 90
        3
 70
   128
 43
0.0
 10
4984.311479467452
 20
2962.180251368205
 10
4984.303479510844
 20
2962.180252023856
 10
4984.300479966701
 20
2962.180252321879
  0
ARC
  5
2AF8
330
1F
100
AcDbEntity
  8
SANINDUSA
100
AcDbCircle
 10
4984.300479447807
 20
2962.182842101614
 30
0.0
 40
0.0025897797868287
100
AcDbArc
 50
180.0083005829372
 51
270.0114798788796
  0
ARC
  5
2AF9
330
1F
100
AcDbEntity
  8
SANINDUSA
100
AcDbCircle
 10
4984.246485391003
 20
2962.193841128277
 30
0.0
 40
0.0025899803621518
100
AcDbArc
 50
0.0101013814653651
 51
89.99649350410747
  0
LWPOLYLINE
  5
2B04
330
1F
100
AcDbEntity
  8
SANINDUSA
100
AcDbPolyline
 90
        3
 70
   128
 43
0.0
 10
4984.235487002433
 20
2962.196432658355
 10
4984.243486720622
 20
2962.196431525867
 10
4984.24648554951
 20
2962.196431108634
  0
LWPOLYLINE
  5
2B06
330
1F
100
AcDbEntity
  8
SANINDUSA
100
AcDbPolyline
 90
        3
 70
   128
 43
0.0
 10
4984.249075371326
 20
2962.193841584842
 10
4984.249075013697
 20
2962.185843952815
 10
4984.249074834884
 20
2962.182846256416
  0
ARC
  5
2B0E
330
1F
100
AcDbEntity
  8
SANINDUSA
100
AcDbCircle
 10
4983.845464337939
 20
2962.182842784942
 30
0.0
 40
0.0025892116389715
100
AcDbArc
 50
180.0
 51
270.0263623987741
  0
ARC
  5
2B0F
330
1F
100
AcDbEntity
  8
SANINDUSA
100
AcDbCircle
 10
4984.235486089933
 20
2962.193843212743
 30
0.0
 40
0.0025894457724763
100
AcDbArc
 50
89.97980943053883
 51
180.0
  0
LWPOLYLINE
  5
2B12
330
1F
100
AcDbEntity
  8
SANINDUSA
100
AcDbPolyline
 90
        3
 70
   128
 43
0.0
 10
4983.856463986934
 20
2962.180254944484
 10
4983.848464268745
 20
2962.180253931205
 10
4983.845465529263
 20
2962.180253573577
  0
LWPOLYLINE
  5
2B14
330
1F
100
AcDbEntity
  8
SANINDUSA
100
AcDbPolyline
 90
        3
 70
   128
 43
0.0
 10
4984.232896107734
 20
2962.182847925346
 10
4984.232896524966
 20
2962.190845616977
 10
4984.232896644176
 20
2962.193843492191
  0
ARC
  5
2B18
330
1F
100
AcDbEntity
  8
SANINDUSA
100
AcDbCircle
 10
4983.856463511175
 20
2962.182845033487
 30
0.0
 40
0.0025900890475493
100
AcDbArc
 50
270.0105243339797
 51
359.984859691574
  0
ARC
  5
2B1D
330
1F
100
AcDbEntity
  8
SANINDUSA
100
AcDbCircle
 10
4984.246485255448
 20
2962.182846669584
 30
0.0
 40
0.0025895794683557
100
AcDbArc
 50
269.9814493909831
 51
359.9908584364665
  0
LWPOLYLINE
  5
2B1F
330
1F
100
AcDbEntity
  8
SANINDUSA
100
AcDbPolyline
 90
        3
 70
   128
 43
0.0
 10
4984.246484417021
 20
2962.180257090251
 10
4984.238484639227
 20
2962.180258043926
 10
4984.235485750735
 20
2962.180258461158
  0
ARC
  5
2B22
330
1F
100
AcDbEntity
  8
SANINDUSA
100
AcDbCircle
 10
4983.975458791097
 20
2962.258859461917
 30
0.0
 40
0.002591492741772
100
AcDbArc
 50
90.01256179103599
 51
179.9867791450971
  0
LWPOLYLINE
  5
2B2D
330
1F
100
AcDbEntity
  8
SANINDUSA
100
AcDbPolyline
 90
        3
 70
   128
 43
0.0
 10
4983.975458222926
 20
2962.261450954597
 10
4983.983457553685
 20
2962.261453636806
 10
4983.986460018456
 20
2962.261454650084
  0
LWPOLYLINE
  5
2B30
330
1F
100
AcDbEntity
  8
SANINDUSA
100
AcDbPolyline
 90
        3
 70
   128
 43
0.0
 10
4983.972866791785
 20
2962.247862526099
 10
4983.972867149413
 20
2962.255860813777
 10
4983.972867298425
 20
2962.258860059897
  0
ARC
  5
2B32
330
1F
100
AcDbEntity
  8
SANINDUSA
100
AcDbCircle
 10
4984.116490791727
 20
2962.258860946208
 30
0.0
 40
0.0025912004997945
100
AcDbArc
 50
0.0
 51
89.99323864839821
  0
LWPOLYLINE
  5
2B3D
330
1F
100
AcDbEntity
  8
SANINDUSA
100
AcDbPolyline
 90
        3
 70
   128
 43
0.0
 10
4984.105489391387
 20
2962.261455722968
 10
4984.113488871158
 20
2962.261453159968
 10
4984.11649109751
 20
2962.26145214669
  0
LWPOLYLINE
  5
2B3F
330
1F
100
AcDbEntity
  8
SANINDUSA
100
AcDbPolyline
 90
        3
 70
   128
 43
0.0
 10
4984.11908199221
 20
2962.258861251991
 10
4984.119082469046
 20
2962.250862964312
 10
4984.119082588256
 20
2962.247863658588
  0
ARC
  5
2B41
330
1F
100
AcDbEntity
  8
SANINDUSA
100
AcDbCircle
 10
4984.23548587074
 20
2962.182848224178
 30
0.0
 40
0.0025897630228123
100
AcDbArc
 50
180.0
 51
269.9973450370165
  0
ARC
  5
2B46
330
1F
100
AcDbEntity
  8
SANINDUSA
100
AcDbCircle
 10
4983.986461384311
 20
2962.258865538823
 30
0.0
 40
0.0025891116219833
100
AcDbArc
 50
0.0
 51
90.03022574583585
  0
LWPOLYLINE
  5
2B4C
330
1F
100
AcDbEntity
  8
SANINDUSA
100
AcDbPolyline
 90
        3
 70
   128
 43
0.0
 10
4983.989050495923
 20
2962.258865781944
 10
4983.989050168098
 20
2962.250867613475
 10
4983.989050048888
 20
2962.247868367354
  0
ARC
  5
2B4F
330
1F
100
AcDbEntity
  8
SANINDUSA
100
AcDbCircle
 10
4984.105488385966
 20
2962.258866310652
 30
0.0
 40
0.0025894125115979
100
AcDbArc
 50
89.97775310948602
 51
179.9866399587235
  0
LWPOLYLINE
  5
2B52
330
1F
100
AcDbEntity
  8
SANINDUSA
100
AcDbPolyline
 90
        3
 70
   128
 43
0.0
 10
4984.102899569571
 20
2962.247869380633
 10
4984.102899152339
 20
2962.255867489497
 10
4984.102898973524
 20
2962.258866914432
  0
ARC
  5
2B57
330
1F
100
AcDbEntity
  8
SANINDUSA
100
AcDbCircle
 10
4983.975455636062
 20
2962.247862740202
 30
0.0
 40
0.0025888442855234
100
AcDbArc
 50
180.0
 51
270.034166685151
  0
LWPOLYLINE
  5
2B59
330
1F
100
AcDbEntity
  8
SANINDUSA
100
AcDbPolyline
 90
        3
 70
   128
 43
0.0
 10
4983.98645903498
 20
2962.245277651469
 10
4983.978459734023
 20
2962.245274909656
 10
4983.975457179845
 20
2962.245273896377
  0
ARC
  5
2B5F
330
1F
100
AcDbEntity
  8
SANINDUSA
100
AcDbCircle
 10
4984.116493443145
 20
2962.24786405454
 30
0.0
 40
0.0025891451415712
100
AcDbArc
 50
269.9744730321585
 51
359.9912377727284
  0
LWPOLYLINE
  5
2B61
330
1F
100
AcDbEntity
  8
SANINDUSA
100
AcDbPolyline
 90
        3
 70
   128
 43
0.0
 10
4984.116492289603
 20
2962.245274909656
 10
4984.108492929042
 20
2962.245277591865
 10
4984.105490643084
 20
2962.245278545539
  0
ARC
  5
2B65
330
1F
100
AcDbEntity
  8
SANINDUSA
100
AcDbCircle
 10
4983.910456145245
 20
2962.193851175199
 30
0.0
 40
0.0025908412630434
100
AcDbArc
 50
90.02122511348282
 51
179.986685998091
  0
LWPOLYLINE
  5
2B70
330
1F
100
AcDbEntity
  8
SANINDUSA
100
AcDbPolyline
 90
        3
 70
   128
 43
0.0
 10
4983.910455185474
 20
2962.196442016284
 10
4983.918454158605
 20
2962.196444698493
 10
4983.921454209387
 20
2962.196445771377
  0
LWPOLYLINE
  5
2B73
330
1F
100
AcDbEntity
  8
SANINDUSA
100
AcDbPolyline
 90
        3
 70
   128
 43
0.0
 10
4983.90786578089
 20
2962.182855375926
 10
4983.907865423263
 20
2962.19085336558
 10
4983.907865304053
 20
2962.193851777236
  0
ARC
  5
2B78
330
1F
100
AcDbEntity
  8
SANINDUSA
100
AcDbCircle
 10
4983.986458598056
 20
2962.247869102368
 30
0.0
 40
0.0025914509361486
100
AcDbArc
 50
270.0096601903878
 51
359.9837490406283
  0
ARC
  5
2B7B
330
1F
100
AcDbEntity
  8
SANINDUSA
100
AcDbCircle
 10
4984.105490770041
 20
2962.247869746032
 30
0.0
 40
0.0025912004962436
100
AcDbArc
 50
180.0
 51
269.9971927709892
  0
ARC
  5
2B7C
330
1F
100
AcDbEntity
  8
SANINDUSA
100
AcDbCircle
 10
4984.181493024279
 20
2962.193854183282
 30
0.0
 40
0.0025905152886113
100
AcDbArc
 50
0.0
 51
89.98598089485064
  0
LWPOLYLINE
  5
2B87
330
1F
100
AcDbEntity
  8
SANINDUSA
100
AcDbPolyline
 90
        3
 70
   128
 43
0.0
 10
4984.170494515002
 20
2962.196448095958
 10
4984.17849369675
 20
2962.196445592563
 10
4984.181493658126
 20
2962.196444698493
  0
LWPOLYLINE
  5
2B89
330
1F
100
AcDbEntity
  8
SANINDUSA
100
AcDbPolyline
 90
        3
 70
   128
 43
0.0
 10
4984.184083539545
 20
2962.19385451905
 10
4984.184083301127
 20
2962.185856410186
 10
4984.184083181919
 20
2962.182858058135
  0
ARC
  5
2B91
330
1F
100
AcDbEntity
  8
SANINDUSA
100
AcDbCircle
 10
4983.921455654474
 20
2962.193856977819
 30
0.0
 40
0.002588793961395
100
AcDbArc
 50
0.0
 51
90.03198300653094
  0
LWPOLYLINE
  5
2B93
330
1F
100
AcDbEntity
  8
SANINDUSA
100
AcDbPolyline
 90
        3
 70
   128
 43
0.0
 10
4983.924044448436
 20
2962.19385696284
 10
4983.92404462725
 20
2962.185858794372
 10
4983.924044716657
 20
2962.182860084693
  0
LWPOLYLINE
  5
2B99
330
1F
100
AcDbEntity
  8
SANINDUSA
100
AcDbPolyline
 90
        3
 70
   128
 43
0.0
 10
4984.040473509133
 20
2962.261465200107
 10
4984.048473525346
 20
2962.261465378921
 10
4984.051476615966
 20
2962.261465378921
  0
ARC
  5
2BA4
330
1F
100
AcDbEntity
  8
SANINDUSA
100
AcDbCircle
 10
4984.040473212304
 20
2962.258874333887
 30
0.0
 40
0.0025908662361956
100
AcDbArc
 50
89.99343578131639
 51
179.9808578358663
  0
ARC
  5
2BA6
330
1F
100
AcDbEntity
  8
SANINDUSA
100
AcDbCircle
 10
4984.051477315118
 20
2962.258875064213
 30
0.0
 40
0.0025903148026232
100
AcDbArc
 50
0.0109026019819893
 51
90.01546474658976
  0
LWPOLYLINE
  5
2BA9
330
1F
100
AcDbEntity
  8
SANINDUSA
100
AcDbPolyline
 90
        3
 70
   128
 43
0.0
 10
4984.037882107795
 20
2962.247877963702
 10
4984.037882286608
 20
2962.255875953357
 10
4984.037882346213
 20
2962.258875199477
  0
LWPOLYLINE
  5
2BAA
330
1F
100
AcDbEntity
  8
SANINDUSA
100
AcDbPolyline
 90
        3
 70
   128
 43
0.0
 10
4984.054067629874
 20
2962.258875557105
 10
4984.054067600072
 20
2962.250877627056
 10
4984.054067600072
 20
2962.247878380935
  0
ARC
  5
2BAD
330
1F
100
AcDbEntity
  8
SANINDUSA
100
AcDbCircle
 10
4983.910454691798
 20
2962.182855299064
 30
0.0
 40
0.0025889109100446
100
AcDbArc
 50
180.0
 51
270.0326911843641
  0
LWPOLYLINE
  5
2BB0
330
1F
100
AcDbEntity
  8
SANINDUSA
100
AcDbPolyline
 90
        3
 70
   128
 43
0.0
 10
4983.921454894841
 20
2962.180269726436
 10
4983.913455862105
 20
2962.180267223041
 10
4983.91045616895
 20
2962.180266388576
  0
ARC
  5
2BB1
330
1F
100
AcDbEntity
  8
SANINDUSA
100
AcDbCircle
 10
4984.170493361452
 20
2962.193858951103
 30
0.0
 40
0.0025891451118785
100
AcDbArc
 50
89.97447282371771
 51
180.0
  0
LWPOLYLINE
  5
2BB4
330
1F
100
AcDbEntity
  8
SANINDUSA
100
AcDbPolyline
 90
        3
 70
   128
 43
0.0
 10
4984.16790397793
 20
2962.182862409274
 10
4984.167904156745
 20
2962.190860518138
 10
4984.16790421635
 20
2962.193859168212
  0
ARC
  5
2BBB
330
1F
100
AcDbEntity
  8
SANINDUSA
100
AcDbCircle
 10
4984.181493953272
 20
2962.182858239586
 30
0.0
 40
0.0025892286523434
100
AcDbArc
 50
269.9750033577962
 51
0.0
  0
LWPOLYLINE
  5
2BBE
330
1F
100
AcDbEntity
  8
SANINDUSA
100
AcDbPolyline
 90
        3
 70
   128
 43
0.0
 10
4984.181492823661
 20
2962.18026901118
 10
4984.173493582309
 20
2962.180271276157
 10
4984.170493859352
 20
2962.180272170226
  0
ARC
  5
2BC3
330
1F
100
AcDbEntity
  8
SANINDUSA
100
AcDbCircle
 10
4983.921453783472
 20
2962.182860659446
 30
0.0
 40
0.0025909332483408
100
AcDbArc
 50
270.024576790219
 51
359.9872899554205
  0
LWPOLYLINE
  5
2BC5
330
1F
100
AcDbEntity
  8
SANINDUSA
100
AcDbPolyline
 90
        3
 70
   128
 43
0.0
 10
4984.051476496756
 20
2962.245288797538
 10
4984.043476510347
 20
2962.245288678328
 10
4984.040473032297
 20
2962.245288559119
  0
ARC
  5
2BC7
330
1F
100
AcDbEntity
  8
SANINDUSA
100
AcDbCircle
 10
4984.040471954711
 20
2962.247878405849
 30
0.0
 40
0.0025898469538654
100
AcDbArc
 50
180.009782258548
 51
270.0238396912619
  0
ARC
  5
2BC8
330
1F
100
AcDbEntity
  8
SANINDUSA
100
AcDbCircle
 10
4984.051477043028
 20
2962.247879354708
 30
0.0
 40
0.0025905572272474
100
AcDbArc
 50
269.9879180397697
 51
359.9784626942347
  0
ARC
  5
2BCD
330
1F
100
AcDbEntity
  8
SANINDUSA
100
AcDbCircle
 10
4984.170494576801
 20
2962.182862769023
 30
0.0
 40
0.0025905988957693
100
AcDbArc
 50
180.0
 51
269.9841322851591
  0
ARC
  5
2BE3
330
1F
100
AcDbEntity
  8
SANINDUSA
100
AcDbCircle
 10
4983.975456146996
 20
2962.193875310838
 30
0.0
 40
0.0025915010639157
100
AcDbArc
 50
90.01472212398773
 51
179.9852779020607
  0
LWPOLYLINE
  5
2BF0
330
1F
100
AcDbEntity
  8
SANINDUSA
100
AcDbPolyline
 90
        3
 70
   128
 43
0.0
 10
4983.975455481112
 20
2962.196466811816
 10
4983.983454603255
 20
2962.196469911258
 10
4983.98645736605
 20
2962.196471043746
  0
LWPOLYLINE
  5
2BF3
330
1F
100
AcDbEntity
  8
SANINDUSA
100
AcDbPolyline
 90
        3
 70
   128
 43
0.0
 10
4983.97286428839
 20
2962.182878800552
 10
4983.972864556611
 20
2962.190876849811
 10
4983.972864646018
 20
2962.193875976722
  0
ARC
  5
2BF5
330
1F
100
AcDbEntity
  8
SANINDUSA
100
AcDbCircle
 10
4984.116493216597
 20
2962.193875652028
 30
0.0
 40
0.0025911002216635
100
AcDbArc
 50
0.0084978721821747
 51
89.9901839479782
  0
LWPOLYLINE
  5
2C00
330
1F
100
AcDbEntity
  8
SANINDUSA
100
AcDbPolyline
 90
        3
 70
   128
 43
0.0
 10
4984.105492133201
 20
2962.19647032849
 10
4984.113491374553
 20
2962.196467765491
 10
4984.11649366051
 20
2962.196466752212
  0
LWPOLYLINE
  5
2C02
330
1F
100
AcDbEntity
  8
SANINDUSA
100
AcDbPolyline
 90
        3
 70
   128
 43
0.0
 10
4984.119084316791
 20
2962.193876036327
 10
4984.119084436
 20
2962.185877867858
 10
4984.119084436
 20
2962.18287903897
  0
ARC
  5
2C09
330
1F
100
AcDbEntity
  8
SANINDUSA
100
AcDbCircle
 10
4983.986458911973
 20
2962.193882082832
 30
0.0
 40
0.0025889613756689
100
AcDbArc
 50
0.0086489396809816
 51
90.03421249003119
  0
LWPOLYLINE
  5
2C0C
330
1F
100
AcDbEntity
  8
SANINDUSA
100
AcDbPolyline
 90
        3
 70
   128
 43
0.0
 10
4983.989047873318
 20
2962.193882473628
 10
4983.989047456086
 20
2962.185884483974
 10
4983.989047307074
 20
2962.182885237853
  0
ARC
  5
2C0F
330
1F
100
AcDbEntity
  8
SANINDUSA
100
AcDbCircle
 10
4984.105490815541
 20
2962.193881049776
 30
0.0
 40
0.0025892790494324
100
AcDbArc
 50
89.97084272200693
 51
179.9909148197107
  0
LWPOLYLINE
  5
2C13
330
1F
100
AcDbEntity
  8
SANINDUSA
100
AcDbPolyline
 90
        3
 70
   128
 43
0.0
 10
4984.102901655734
 20
2962.182884343784
 10
4984.10290159613
 20
2962.190882452647
 10
4984.102901536525
 20
2962.193881460349
  0
ARC
  5
2C1A
330
1F
100
AcDbEntity
  8
SANINDUSA
100
AcDbCircle
 10
4983.975453049151
 20
2962.182878931081
 30
0.0
 40
0.0025887607630654
100
AcDbArc
 50
180.0
 51
270.0360162331153
  0
LWPOLYLINE
  5
2C1C
330
1F
100
AcDbEntity
  8
SANINDUSA
100
AcDbPolyline
 90
        3
 70
   128
 43
0.0
 10
4983.986456322969
 20
2962.180294343154
 10
4983.97845726043
 20
2962.180291303317
 10
4983.97545467645
 20
2962.180290170829
  0
ARC
  5
2C1D
330
1F
100
AcDbEntity
  8
SANINDUSA
100
AcDbCircle
 10
4984.11649524059
 20
2962.182879485168
 30
0.0
 40
0.0025891954472368
100
AcDbArc
 50
269.9716295862432
 51
359.9901260274785
  0
LWPOLYLINE
  5
2C20
330
1F
100
AcDbEntity
  8
SANINDUSA
100
AcDbPolyline
 90
        3
 70
   128
 43
0.0
 10
4984.116493958533
 20
2962.180290290038
 10
4984.108494717181
 20
2962.180292912643
 10
4984.105492431224
 20
2962.180293866317
  0
ARC
  5
2C26
330
1F
100
AcDbEntity
  8
SANINDUSA
100
AcDbCircle
 10
4983.986455722531
 20
2962.182885927719
 30
0.0
 40
0.0025915846350827
100
AcDbArc
 50
270.0132747108073
 51
359.9847478370167
  0
ARC
  5
2C27
330
1F
100
AcDbEntity
  8
SANINDUSA
100
AcDbCircle
 10
4984.105492672359
 20
2962.182884882986
 30
0.0
 40
0.0025910166801565
100
AcDbArc
 50
180.0119237536372
 51
269.9946677187484
  0
LWPOLYLINE
  5
2C2F
330
1F
100
AcDbEntity
  8
SANINDUSA
100
AcDbPolyline
 90
        3
 70
   128
 43
0.0
 10
4984.040473002494
 20
2962.196482249419
 10
4984.048472988904
 20
2962.196481951396
 10
4984.051477003396
 20
2962.196481712977
  0
ARC
  5
2C3A
330
1F
100
AcDbEntity
  8
SANINDUSA
100
AcDbCircle
 10
4984.040472643279
 20
2962.193891683948
 30
0.0
 40
0.0025905654959942
100
AcDbArc
 50
89.99205522556625
 51
179.9769610863745
  0
ARC
  5
2C3C
330
1F
100
AcDbEntity
  8
SANINDUSA
100
AcDbCircle
 10
4984.051477861761
 20
2962.19389108071
 30
0.0
 40
0.0025906324096554
100
AcDbArc
 50
0.0086968029063982
 51
90.01898406174563
  0
LWPOLYLINE
  5
2C40
330
1F
100
AcDbEntity
  8
SANINDUSA
100
AcDbPolyline
 90
        3
 70
   128
 43
0.0
 10
4984.037882614434
 20
2962.182895609061
 10
4984.037882227004
 20
2962.190893479507
 10
4984.037882077992
 20
2962.193892725627
  0
LWPOLYLINE
  5
2C41
330
1F
100
AcDbEntity
  8
SANINDUSA
100
AcDbPolyline
 90
        3
 70
   128
 43
0.0
 10
4984.054068494142
 20
2962.19389147393
 10
4984.05406873256
 20
2962.189892479102
 10
4984.054069119991
 20
2962.182894238154
  0
LWPOLYLINE
  5
2C44
330
1F
100
AcDbEntity
  8
SANINDUSA
100
AcDbPolyline
 90
        3
 70
   128
 43
0.0
 10
4984.051478284897
 20
2962.180305012386
 10
4984.043478268683
 20
2962.180305668037
 10
4984.04047410518
 20
2962.180305727641
  0
ARC
  5
2C46
330
1F
100
AcDbEntity
  8
SANINDUSA
100
AcDbCircle
 10
4984.051478863774
 20
2962.182895268742
 30
0.0
 40
0.0025902564215082
100
AcDbArc
 50
269.9871953753897
 51
359.9772036594145
  0
ARC
  5
2C47
330
1F
100
AcDbEntity
  8
SANINDUSA
100
AcDbCircle
 10
4984.040472929418
 20
2962.182896042395
 30
0.0
 40
0.0025903150205897
100
AcDbArc
 50
180.0095856206813
 51
270.0260069550117
  0
CIRCLE
  5
2C60
330
1F
100
AcDbEntity
  8
SANINDUSA
100
AcDbCircle
 10
-4984.045975297988
 20
2962.038248665552
 30
0.0000000000178631
 40
0.0602975452584131
210
0.0000000000000015
220
0.0000000000000035
230
-1.0
  0
CIRCLE
  5
2C61
330
1F
100
AcDbEntity
  8
SANINDUSA
100
AcDbCircle
 10
-4984.045975297988
 20
2962.038248665552
 30
0.0000000000178631
 40
0.0500000000000001
210
0.0000000000000015
220
0.0000000000000035
230
-1.0
  0
LINE
  5
2C7D
330
1F
100
AcDbEntity
  8
SANINDUSA
100
AcDbLine
 10
4985.960743471391
 20
2962.350917407407
 30
0.0
 11
4985.965742709807
 21
2962.350917407407
 31
0.0
  0
LINE
  5
2C7E
330
1F
100
AcDbEntity
  8
SANINDUSA
100
AcDbLine
 10
4985.960743471391
 20
2962.350917407407
 30
0.0
 11
4985.961985528543
 21
2962.42207481371
 31
0.0
  0
LINE
  5
2C81
330
1F
100
AcDbEntity
  8
SANINDUSA
100
AcDbLine
 10
4985.965742709807
 20
2962.350917407407
 30
0.0
 11
4986.858537049958
 21
2962.350917407407
 31
0.0
  0
LINE
  5
2C83
330
1F
100
AcDbEntity
  8
SANINDUSA
100
AcDbLine
 10
4986.862294132226
 20
2962.422080006703
 30
0.0
 11
4986.863536270329
 21
2962.350917407407
 31
0.0
  0
LINE
  5
2C84
330
1F
100
AcDbEntity
  8
SANINDUSA
100
AcDbLine
 10
4986.858537049958
 20
2962.350917407407
 30
0.0
 11
4986.863536270329
 21
2962.350917407407
 31
0.0
  0
ARC
  5
2C85
330
1F
100
AcDbEntity
  8
SANINDUSA
100
AcDbCircle
 10
4985.97098415192
 20
2962.421917405618
 30
0.0
 40
0.0089999999999999
100
AcDbArc
 50
90.0
 51
178.9999999902799
  0
LINE
  5
2C87
330
1F
100
AcDbEntity
  8
SANINDUSA
100
AcDbLine
 10
4985.970984151581
 20
2962.430917405619
 30
0.0
 11
4986.85329559631
 21
2962.430917405619
 31
0.0
  0
ARC
  5
2C89
330
1F
100
AcDbEntity
  8
SANINDUSA
100
AcDbCircle
 10
4986.853295601185
 20
2962.421917405618
 30
0.0
 40
0.0089999999999999
100
AcDbArc
 50
1.000000009720081
 51
90.0
  0
ARC
  5
2C95
330
1F
100
AcDbEntity
  8
SANINDUSA
100
AcDbCircle
 10
4988.022917406995
 20
2962.458663806564
 30
0.0
 40
0.0813640665337288
100
AcDbArc
 50
272.0013949844345
 51
291.3565296716646
  0
LINE
  5
2C98
330
1F
100
AcDbEntity
  8
SANINDUSA
100
AcDbLine
 10
4987.825981527394
 20
2962.378478978856
 30
0.0
 11
4987.875758915967
 21
2962.377349575146
 31
0.0
  0
LINE
  5
2C99
330
1F
100
AcDbEntity
  8
SANINDUSA
100
AcDbLine
 10
4987.294206820255
 20
2962.390545395298
 30
0.0
 11
4987.382909446782
 21
2962.388532661928
 31
0.0
  0
LINE
  5
2C9A
330
1F
100
AcDbEntity
  8
SANINDUSA
100
AcDbLine
 10
4987.811089068479
 20
2962.378816955818
 30
0.0
 11
4987.825981527394
 21
2962.378478978856
 31
0.0
  0
LINE
  5
2C9D
330
1F
100
AcDbEntity
  8
SANINDUSA
100
AcDbLine
 10
4987.746105819768
 20
2962.380291462971
 30
0.0
 11
4987.788348942822
 21
2962.37933291225
 31
0.0
  0
LINE
  5
2C9E
330
1F
100
AcDbEntity
  8
SANINDUSA
100
AcDbLine
 10
4987.681122541255
 20
2962.3817659813
 30
0.0
 11
4987.723365694112
 21
2962.38080744548
 31
0.0
  0
LINE
  5
2C9F
330
1F
100
AcDbEntity
  8
SANINDUSA
100
AcDbLine
 10
4987.616139262741
 20
2962.383240499629
 30
0.0
 11
4987.658382415599
 21
2962.382281967534
 31
0.0
  0
LWPOLYLINE
  5
2CA0
330
1F
100
AcDbEntity
  8
SANINDUSA
100
AcDbPolyline
 90
        3
 70
   128
 43
0.0
 10
4987.551155984228
 20
2962.384715021683
 10
4987.579248964614
 20
2962.384077564908
 10
4987.593399137086
 20
2962.383756489588
  0
LINE
  5
2CA1
330
1F
100
AcDbEntity
  8
SANINDUSA
100
AcDbLine
 10
4987.486172705716
 20
2962.386189540012
 30
0.0
 11
4987.528415858573
 21
2962.385231007917
 31
0.0
  0
LINE
  5
2CA2
330
1F
100
AcDbEntity
  8
SANINDUSA
100
AcDbLine
 10
4987.421189442104
 20
2962.387664062066
 30
0.0
 11
4987.463432594961
 21
2962.386705529971
 31
0.0
  0
LINE
  5
2CA3
330
1F
100
AcDbEntity
  8
SANINDUSA
100
AcDbLine
 10
4987.382909446782
 20
2962.388532661928
 30
0.0
 11
4987.398449331349
 21
2962.388180052025
 31
0.0
  0
LINE
  5
2CCF
330
1F
100
AcDbEntity
  8
SANINDUSA
100
AcDbLine
 10
4987.825890809125
 20
2962.374480002655
 30
0.0
 11
4987.875643819398
 21
2962.373351157738
 31
0.0
  0
ARC
  5
2CD0
330
1F
100
AcDbEntity
  8
SANINDUSA
100
AcDbCircle
 10
4988.02290821149
 20
2962.458708224493
 30
0.0
 40
0.0854087794985297
100
AcDbArc
 50
272.0077316594243
 51
291.3512075312599
  0
LINE
  5
2CD1
330
1F
100
AcDbEntity
  8
SANINDUSA
100
AcDbLine
 10
4987.294116079635
 20
2962.386546422822
 30
0.0
 11
4987.382818728512
 21
2962.384533693178
 31
0.0
  0
ARC
  5
2CD2
330
1F
100
AcDbEntity
  8
SANINDUSA
100
AcDbCircle
 10
4988.045265682245
 20
2962.401514093756
 30
0.0
 40
0.0200001107273979
100
AcDbArc
 50
291.3523899833439
 51
349.9998931954471
  0
LINE
  5
2CD3
330
1F
100
AcDbEntity
  8
SANINDUSA
100
AcDbLine
 10
4988.06944813341
 20
2962.42348356489
 30
0.0
 11
4988.064961939877
 21
2962.398041074259
 31
0.0
  0
ARC
  5
2CD4
330
1F
100
AcDbEntity
  8
SANINDUSA
100
AcDbCircle
 10
4988.078310841257
 20
2962.421917405618
 30
0.0
 40
0.0089999999999999
100
AcDbArc
 50
90.0
 51
170.0000000033014
  0
LINE
  5
2CD5
330
1F
100
AcDbEntity
  8
SANINDUSA
100
AcDbLine
 10
4988.078310817307
 20
2962.430917405619
 30
0.0
 11
4988.111914664334
 21
2962.430917405619
 31
0.0
  0
ARC
  5
2CD6
330
1F
100
AcDbEntity
  8
SANINDUSA
100
AcDbCircle
 10
4988.111914669209
 20
2962.421917405618
 30
0.0
 40
0.009
100
AcDbArc
 50
1.000000009720081
 51
90.0
  0
LINE
  5
2CD7
330
1F
100
AcDbEntity
  8
SANINDUSA
100
AcDbLine
 10
4988.120913200249
 20
2962.422080006702
 30
0.0
 11
4988.122155338353
 21
2962.350917407407
 31
0.0
  0
LINE
  5
2CD8
330
1F
100
AcDbEntity
  8
SANINDUSA
100
AcDbLine
 10
4988.122155338353
 20
2962.350917407407
 30
0.0
 11
4988.1181547342
 21
2962.350917407407
 31
0.0
  0
LINE
  5
2CD9
330
1F
100
AcDbEntity
  8
SANINDUSA
100
AcDbLine
 10
4988.116913884706
 20
2962.422004667206
 30
0.0
 11
4988.1181547342
 21
2962.350917407407
 31
0.0
  0
ARC
  5
2CDA
330
1F
100
AcDbEntity
  8
SANINDUSA
100
AcDbCircle
 10
4988.111914669209
 20
2962.421917405618
 30
0.0
 40
0.005
100
AcDbArc
 50
1.000000009720081
 51
90.0
  0
LINE
  5
2CDB
330
1F
100
AcDbEntity
  8
SANINDUSA
100
AcDbLine
 10
4988.078310817307
 20
2962.426917405429
 30
0.0
 11
4988.111914664334
 21
2962.426917405429
 31
0.0
  0
ARC
  5
2CDC
330
1F
100
AcDbEntity
  8
SANINDUSA
100
AcDbCircle
 10
4988.078310841257
 20
2962.421917405618
 30
0.0
 40
0.005
100
AcDbArc
 50
90.0
 51
170.0000000033014
  0
LINE
  5
2CDD
330
1F
100
AcDbEntity
  8
SANINDUSA
100
AcDbLine
 10
4988.073386817998
 20
2962.422785646377
 30
0.0
 11
4988.068901210851
 21
2962.397346482708
 31
0.0
  0
ARC
  5
2CDE
330
1F
100
AcDbEntity
  8
SANINDUSA
100
AcDbCircle
 10
4988.045265847517
 20
2962.401514015287
 30
0.0
 40
0.0239999734937234
100
AcDbArc
 50
291.3520121480085
 51
350.0000462492243
  0
LINE
  5
2CDF
330
1F
100
AcDbEntity
  8
SANINDUSA
100
AcDbLine
 10
4988.025900572366
 20
2962.373352033181
 30
0.0
 11
4988.012851923532
 21
2962.372896366847
 31
0.0
  0
LINE
  5
2CE0
330
1F
100
AcDbEntity
  8
SANINDUSA
100
AcDbLine
 10
4988.012851923532
 20
2962.372896366847
 30
0.0
 11
4988.002498179501
 21
2962.361793340279
 31
0.0
  0
LINE
  5
2CE1
330
1F
100
AcDbEntity
  8
SANINDUSA
100
AcDbLine
 10
4988.002498179501
 20
2962.361793340279
 30
0.0
 11
4987.899019688195
 21
2962.361793340279
 31
0.0
  0
LINE
  5
2CE2
330
1F
100
AcDbEntity
  8
SANINDUSA
100
AcDbLine
 10
4987.899019688195
 20
2962.361793340279
 30
0.0
 11
4987.888665944165
 21
2962.372896366847
 31
0.0
  0
LINE
  5
2CE3
330
1F
100
AcDbEntity
  8
SANINDUSA
100
AcDbLine
 10
4987.888665944165
 20
2962.372896366847
 30
0.0
 11
4987.875643819398
 21
2962.373351109309
 31
0.0
  0
LINE
  5
2CE4
330
1F
100
AcDbEntity
  8
SANINDUSA
100
AcDbLine
 10
4987.810998290605
 20
2962.374817983342
 30
0.0
 11
4987.825890809125
 21
2962.374480002655
 31
0.0
  0
ARC
  5
2CE5
330
1F
100
AcDbEntity
  8
SANINDUSA
100
AcDbCircle
 10
4987.811179686624
 20
2962.382815627062
 30
0.0
 40
0.0079997005936999
100
AcDbArc
 50
217.3811695407971
 51
268.7006867319562
  0
LINE
  5
2CE6
330
1F
100
AcDbEntity
  8
SANINDUSA
100
AcDbLine
 10
4987.794569700784
 20
2962.378191520555
 30
0.0
 11
4987.804823010987
 21
2962.377958891077
 31
0.0
  0
ARC
  5
2CE7
330
1F
100
AcDbEntity
  8
SANINDUSA
100
AcDbCircle
 10
4987.788439679933
 20
2962.383331963451
 30
0.0
 40
0.0080000817988063
100
AcDbArc
 50
268.7003233784024
 51
320.0178598809828
  0
LINE
  5
2CE8
330
1F
100
AcDbEntity
  8
SANINDUSA
100
AcDbLine
 10
4987.746015041894
 20
2962.376292494221
 30
0.0
 11
4987.788258224553
 21
2962.375333939774
 31
0.0
  0
ARC
  5
2CE9
330
1F
100
AcDbEntity
  8
SANINDUSA
100
AcDbCircle
 10
4987.74619653966
 20
2962.38429048166
 30
0.0
 40
0.0080000465314064
100
AcDbArc
 50
217.3825088791109
 51
268.7000140249113
  0
LINE
  5
2CEA
330
1F
100
AcDbEntity
  8
SANINDUSA
100
AcDbLine
 10
4987.729586392468
 20
2962.379666038884
 30
0.0
 11
4987.739839702672
 21
2962.379433387054
 31
0.0
  0
ARC
  5
2CEB
330
1F
100
AcDbEntity
  8
SANINDUSA
100
AcDbCircle
 10
4987.723456469022
 20
2962.384806312137
 30
0.0
 40
0.0079998981600497
100
AcDbArc
 50
268.7000227813107
 51
320.0183425911684
  0
LINE
  5
2CEC
330
1F
100
AcDbEntity
  8
SANINDUSA
100
AcDbLine
 10
4987.681031793183
 20
2962.377767012549
 30
0.0
 11
4987.723274975842
 21
2962.376808473004
 31
0.0
  0
ARC
  5
2CED
330
1F
100
AcDbEntity
  8
SANINDUSA
100
AcDbCircle
 10
4987.681213300341
 20
2962.385765012691
 30
0.0
 40
0.0080000594442893
100
AcDbArc
 50
217.3825191241739
 51
268.6999488181266
  0
LINE
  5
2CEE
330
1F
100
AcDbEntity
  8
SANINDUSA
100
AcDbLine
 10
4987.664603113955
 20
2962.381140560938
 30
0.0
 11
4987.674856453961
 21
2962.380907909109
 31
0.0
  0
ARC
  5
2CEF
330
1F
100
AcDbEntity
  8
SANINDUSA
100
AcDbCircle
 10
4987.658473190509
 20
2962.386280834191
 30
0.0
 40
0.0079998981597226
100
AcDbArc
 50
268.7000227813107
 51
320.0183425911684
  0
LINE
  5
2CF0
330
1F
100
AcDbEntity
  8
SANINDUSA
100
AcDbLine
 10
4987.61604851467
 20
2962.379241530879
 30
0.0
 11
4987.658291697329
 21
2962.378282995059
 31
0.0
  0
ARC
  5
2CF1
330
1F
100
AcDbEntity
  8
SANINDUSA
100
AcDbCircle
 10
4987.616230012437
 20
2962.387239518317
 30
0.0
 40
0.0080000465311858
100
AcDbArc
 50
217.3825088474731
 51
268.7000140249113
  0
LINE
  5
2CF2
330
1F
100
AcDbEntity
  8
SANINDUSA
100
AcDbLine
 10
4987.599619865244
 20
2962.382615079267
 30
0.0
 11
4987.609873175448
 21
2962.382382423712
 31
0.0
  0
ARC
  5
2CF3
330
1F
100
AcDbEntity
  8
SANINDUSA
100
AcDbCircle
 10
4987.593489896614
 20
2962.387755460851
 30
0.0
 40
0.0080000023894105
100
AcDbArc
 50
268.7001499110086
 51
320.0179560321251
  0
LINE
  5
2CF4
330
1F
100
AcDbEntity
  8
SANINDUSA
100
AcDbLine
 10
4987.551065236157
 20
2962.380716049207
 30
0.0
 11
4987.593308418816
 21
2962.379757517112
 31
0.0
  0
ARC
  5
2CF5
330
1F
100
AcDbEntity
  8
SANINDUSA
100
AcDbCircle
 10
4987.551246743315
 20
2962.38871404935
 30
0.0
 40
0.008000059444489
100
AcDbArc
 50
217.3825191241739
 51
268.6999488702233
  0
LINE
  5
2CF6
330
1F
100
AcDbEntity
  8
SANINDUSA
100
AcDbLine
 10
4987.534636586731
 20
2962.384089601322
 30
0.0
 11
4987.544889896935
 21
2962.383856945766
 31
0.0
  0
ARC
  5
2CF7
330
1F
100
AcDbEntity
  8
SANINDUSA
100
AcDbCircle
 10
4987.528506618101
 20
2962.389229982905
 30
0.0
 40
0.0080000023891039
100
AcDbArc
 50
268.7001499110086
 51
320.0179560321251
  0
LINE
  5
2CF8
330
1F
100
AcDbEntity
  8
SANINDUSA
100
AcDbLine
 10
4987.486081987447
 20
2962.382190571262
 30
0.0
 11
4987.528325140303
 21
2962.381232039167
 31
0.0
  0
ARC
  5
2CF9
330
1F
100
AcDbEntity
  8
SANINDUSA
100
AcDbCircle
 10
4987.486263366314
 20
2962.390188324932
 30
0.0
 40
0.0079998101265692
100
AcDbArc
 50
217.3816954997996
 51
268.7008274139142
  0
LINE
  5
2CFA
330
1F
100
AcDbEntity
  8
SANINDUSA
100
AcDbLine
 10
4987.469653308219
 20
2962.38556411965
 30
0.0
 11
4987.479906648225
 21
2962.385331464095
 31
0.0
  0
ARC
  5
2CFB
330
1F
100
AcDbEntity
  8
SANINDUSA
100
AcDbCircle
 10
4987.463523338129
 20
2962.390704514884
 30
0.0
 40
0.0080000122785325
100
AcDbArc
 50
268.7001619512796
 51
320.0178878436296
  0
LINE
  5
2CFC
330
1F
100
AcDbEntity
  8
SANINDUSA
100
AcDbLine
 10
4987.421098694032
 20
2962.383665089591
 30
0.0
 11
4987.46334186179
 21
2962.382706561221
 31
0.0
  0
ARC
  5
2CFD
330
1F
100
AcDbEntity
  8
SANINDUSA
100
AcDbCircle
 10
4987.421280157493
 20
2962.391662973661
 30
0.0
 40
0.0079999424117148
100
AcDbArc
 50
217.3821133883998
 51
268.7002428474753
  0
LINE
  5
2CFE
330
1F
100
AcDbEntity
  8
SANINDUSA
100
AcDbLine
 10
4987.404670029706
 20
2962.387038641704
 30
0.0
 11
4987.414923369712
 21
2962.386805986149
 31
0.0
  0
ARC
  5
2CFF
330
1F
100
AcDbEntity
  8
SANINDUSA
100
AcDbCircle
 10
4987.398540061075
 20
2962.392179023288
 30
0.0
 40
0.0080000023890897
100
AcDbArc
 50
268.7001499110086
 51
320.0179560321251
  0
LINE
  5
2D00
330
1F
100
AcDbEntity
  8
SANINDUSA
100
AcDbLine
 10
4987.382818728512
 20
2962.384533693178
 30
0.0
 11
4987.398358583277
 21
2962.38418107955
 31
0.0
  0
ARC
  5
2D01
330
1F
100
AcDbEntity
  8
SANINDUSA
100
AcDbCircle
 10
4987.294660519783
 20
2962.410540248255
 30
0.0
 40
0.0240000015406928
100
AcDbArc
 50
190.0000002879994
 51
268.7001334922424
  0
LINE
  5
2D02
330
1F
100
AcDbEntity
  8
SANINDUSA
100
AcDbLine
 10
4987.271025132216
 20
2962.4063726916
 30
0.0
 11
4987.268131088292
 21
2962.422785646377
 31
0.0
  0
ARC
  5
2D03
330
1F
100
AcDbEntity
  8
SANINDUSA
100
AcDbCircle
 10
4987.263207047895
 20
2962.421917405618
 30
0.0
 40
0.0050000000000002
100
AcDbArc
 50
9.999999996698591
 51
90.0
  0
LINE
  5
2D04
330
1F
100
AcDbEntity
  8
SANINDUSA
100
AcDbLine
 10
4987.229603219605
 20
2962.426917405429
 30
0.0
 11
4987.263207048005
 21
2962.426917405429
 31
0.0
  0
ARC
  5
2D05
330
1F
100
AcDbEntity
  8
SANINDUSA
100
AcDbCircle
 10
4987.229603219945
 20
2962.421917405618
 30
0.0
 40
0.0050000000000001
100
AcDbArc
 50
90.0
 51
178.9999999902799
  0
LINE
  5
2D06
330
1F
100
AcDbEntity
  8
SANINDUSA
100
AcDbLine
 10
4987.223363148807
 20
2962.350917407407
 30
0.0
 11
4987.224603981537
 21
2962.422004667206
 31
0.0
  0
LINE
  5
2D07
330
1F
100
AcDbEntity
  8
SANINDUSA
100
AcDbLine
 10
4987.223363148807
 20
2962.350917407407
 30
0.0
 11
4987.219362539416
 21
2962.350917407407
 31
0.0
  0
LINE
  5
2D08
330
1F
100
AcDbEntity
  8
SANINDUSA
100
AcDbLine
 10
4987.219362539416
 20
2962.350917407407
 30
0.0
 11
4987.220604596567
 21
2962.422074813717
 31
0.0
  0
ARC
  5
2D09
330
1F
100
AcDbEntity
  8
SANINDUSA
100
AcDbCircle
 10
4987.229603219945
 20
2962.421917405618
 30
0.0
 40
0.009
100
AcDbArc
 50
90.0
 51
178.9999999902799
  0
LINE
  5
2D0A
330
1F
100
AcDbEntity
  8
SANINDUSA
100
AcDbLine
 10
4987.229603219605
 20
2962.430917405619
 30
0.0
 11
4987.263207048005
 21
2962.430917405619
 31
0.0
  0
ARC
  5
2D0B
330
1F
100
AcDbEntity
  8
SANINDUSA
100
AcDbCircle
 10
4987.263207047895
 20
2962.421917405618
 30
0.0
 40
0.009
100
AcDbArc
 50
9.999999996698591
 51
90.0
  0
LINE
  5
2D0C
330
1F
100
AcDbEntity
  8
SANINDUSA
100
AcDbLine
 10
4987.274918455796
 20
2962.407327652629
 30
0.0
 11
4987.272070317713
 21
2962.423480238994
 31
0.0
  0
ARC
  5
2D0D
330
1F
100
AcDbEntity
  8
SANINDUSA
100
AcDbCircle
 10
4987.294661948752
 20
2962.410543972367
 30
0.0
 40
0.0200037553154926
100
AcDbArc
 50
189.2525096017731
 51
268.6962851499503
  0
ARC
  5
2D0E
330
1F
100
AcDbEntity
  8
SANINDUSA
100
AcDbCircle
 10
4987.398540066831
 20
2962.392179030152
 30
0.0
 40
0.0040000073734267
100
AcDbArc
 50
268.7002008355869
 51
323.8501507281983
  0
ARC
  5
2D0F
330
1F
100
AcDbEntity
  8
SANINDUSA
100
AcDbCircle
 10
4987.404192421439
 20
2962.388049724658
 30
0.0
 40
0.0030000123741292
100
AcDbArc
 50
88.70023747854984
 51
143.850149425546
  0
LINE
  5
2D10
330
1F
100
AcDbEntity
  8
SANINDUSA
100
AcDbLine
 10
4987.40426047129
 20
2962.39104896514
 30
0.0
 11
4987.415514409369
 21
2962.39079360394
 31
0.0
  0
ARC
  5
2D11
330
1F
100
AcDbEntity
  8
SANINDUSA
100
AcDbCircle
 10
4987.41544635215
 20
2962.387794375047
 30
0.0
 40
0.0030000009570605
100
AcDbArc
 50
33.55008627007557
 51
88.70009174083804
  0
ARC
  5
2D12
330
1F
100
AcDbEntity
  8
SANINDUSA
100
AcDbCircle
 10
4987.421280203388
 20
2962.391663082607
 30
0.0
 40
0.0040000503615733
100
AcDbArc
 50
213.5504140310218
 51
268.6998451444
  0
ARC
  5
2D13
330
1F
100
AcDbEntity
  8
SANINDUSA
100
AcDbCircle
 10
4987.463523334053
 20
2962.390704495428
 30
0.0
 40
0.0039999947879851
100
AcDbArc
 50
268.7001450636422
 51
323.8503098753902
  0
ARC
  5
2D14
330
1F
100
AcDbEntity
  8
SANINDUSA
100
AcDbCircle
 10
4987.469175669155
 20
2962.386575229439
 30
0.0
 40
0.0029999859061425
100
AcDbArc
 50
88.6999223393588
 51
143.850326750028
  0
LINE
  5
2D15
330
1F
100
AcDbEntity
  8
SANINDUSA
100
AcDbLine
 10
4987.469243734903
 20
2962.389574443085
 30
0.0
 11
4987.480497687882
 21
2962.389319081886
 31
0.0
  0
ARC
  5
2D16
330
1F
100
AcDbEntity
  8
SANINDUSA
100
AcDbCircle
 10
4987.480429663619
 20
2962.386319940529
 30
0.0
 40
0.0029999126955714
100
AcDbArc
 50
33.54919807237096
 51
88.70068308340707
  0
ARC
  5
2D17
330
1F
100
AcDbEntity
  8
SANINDUSA
100
AcDbCircle
 10
4987.486263467001
 20
2962.390188560554
 30
0.0
 40
0.0040000503626965
100
AcDbArc
 50
213.5504140527361
 51
268.6998451444
  0
ARC
  5
2D18
330
1F
100
AcDbEntity
  8
SANINDUSA
100
AcDbCircle
 10
4987.528506592425
 20
2962.389230013342
 30
0.0
 40
0.0040000346270828
100
AcDbArc
 50
268.7002330479578
 51
323.8500177845997
  0
ARC
  5
2D19
330
1F
100
AcDbEntity
  8
SANINDUSA
100
AcDbCircle
 10
4987.53415898177
 20
2962.385100647397
 30
0.0
 40
0.003000048830705
100
AcDbArc
 50
88.70060098898489
 51
143.8497858343907
  0
LINE
  5
2D1A
330
1F
100
AcDbEntity
  8
SANINDUSA
100
AcDbLine
 10
4987.534227013416
 20
2962.388099924757
 30
0.0
 11
4987.545480966395
 21
2962.387844563557
 31
0.0
  0
ARC
  5
2D1B
330
1F
100
AcDbEntity
  8
SANINDUSA
100
AcDbCircle
 10
4987.545412942131
 20
2962.384845422199
 30
0.0
 40
0.0029999126968407
100
AcDbArc
 50
33.54919807237096
 51
88.70068303131025
  0
ARC
  5
2D1C
330
1F
100
AcDbEntity
  8
SANINDUSA
100
AcDbCircle
 10
4987.551246745514
 20
2962.388714042223
 30
0.0
 40
0.0040000503607385
100
AcDbArc
 50
213.5504140310218
 51
268.6998451444
  0
ARC
  5
2D1D
330
1F
100
AcDbEntity
  8
SANINDUSA
100
AcDbCircle
 10
4987.593489886094
 20
2962.387755469677
 30
0.0
 40
0.004000009641009
100
AcDbArc
 50
268.7000078218459
 51
323.8501396693864
  0
ARC
  5
2D1E
330
1F
100
AcDbEntity
  8
SANINDUSA
100
AcDbCircle
 10
4987.599142223871
 20
2962.383626199099
 30
0.0
 40
0.0029999759193625
100
AcDbArc
 50
88.69987386451219
 51
143.8505130377402
  0
LINE
  5
2D1F
330
1F
100
AcDbEntity
  8
SANINDUSA
100
AcDbLine
 10
4987.599210291929
 20
2962.386625402702
 30
0.0
 11
4987.610464215106
 21
2962.386370041503
 31
0.0
  0
ARC
  5
2D20
330
1F
100
AcDbEntity
  8
SANINDUSA
100
AcDbCircle
 10
4987.61039623681
 20
2962.38337092795
 30
0.0
 40
0.0029998838570397
100
AcDbArc
 50
33.54892614266671
 51
88.7015488041932
  0
ARC
  5
2D21
330
1F
100
AcDbEntity
  8
SANINDUSA
100
AcDbCircle
 10
4987.616230024027
 20
2962.38723952017
 30
0.0
 40
0.0040000503624709
100
AcDbArc
 50
213.5504140527361
 51
268.6998451444
  0
ARC
  5
2D22
330
1F
100
AcDbEntity
  8
SANINDUSA
100
AcDbCircle
 10
4987.658473165563
 20
2962.386280940323
 30
0.0
 40
0.004000002365718
100
AcDbArc
 50
268.6999917156605
 51
323.8502590848027
  0
ARC
  5
2D23
330
1F
100
AcDbEntity
  8
SANINDUSA
100
AcDbCircle
 10
4987.664125502384
 20
2962.382151680771
 30
0.0
 40
0.0029999759183888
100
AcDbArc
 50
88.69987386451219
 51
143.8505130377402
  0
LINE
  5
2D24
330
1F
100
AcDbEntity
  8
SANINDUSA
100
AcDbLine
 10
4987.664193570441
 20
2962.385150884373
 30
0.0
 11
4987.675447493619
 21
2962.384895526899
 31
0.0
  0
ARC
  5
2D25
330
1F
100
AcDbEntity
  8
SANINDUSA
100
AcDbCircle
 10
4987.675379408909
 20
2962.381896224982
 30
0.0
 40
0.0030000745852557
100
AcDbArc
 50
33.55074179196785
 51
88.69959849527408
  0
ARC
  5
2D26
330
1F
100
AcDbEntity
  8
SANINDUSA
100
AcDbCircle
 10
4987.68121330254
 20
2962.385765001841
 30
0.0
 40
0.0040000503612813
100
AcDbArc
 50
213.5504140310218
 51
268.6998451444
  0
ARC
  5
2D27
330
1F
100
AcDbEntity
  8
SANINDUSA
100
AcDbCircle
 10
4987.723456416068
 20
2962.384806421646
 30
0.0
 40
0.0040000051065756
100
AcDbArc
 50
268.700393849328
 51
323.8501617870104
  0
ARC
  5
2D28
330
1F
100
AcDbEntity
  8
SANINDUSA
100
AcDbCircle
 10
4987.729108810041
 20
2962.380677037239
 30
0.0
 40
0.0030000929793947
100
AcDbArc
 50
88.70048131267557
 51
143.8493612692839
  0
LINE
  5
2D29
330
1F
100
AcDbEntity
  8
SANINDUSA
100
AcDbLine
 10
4987.729176848954
 20
2962.383676358594
 30
0.0
 11
4987.740430801935
 21
2962.383421004845
 31
0.0
  0
ARC
  5
2D2A
330
1F
100
AcDbEntity
  8
SANINDUSA
100
AcDbCircle
 10
4987.740362760746
 20
2962.380421888353
 30
0.0
 40
0.0029998882204913
100
AcDbArc
 50
33.54893821076532
 51
88.70034912722397
  0
ARC
  5
2D2B
330
1F
100
AcDbEntity
  8
SANINDUSA
100
AcDbCircle
 10
4987.746196646964
 20
2962.384290658591
 30
0.0
 40
0.0040002268916811
100
AcDbArc
 50
213.5517462841503
 51
268.6989582083961
  0
ARC
  5
2D2C
330
1F
100
AcDbEntity
  8
SANINDUSA
100
AcDbCircle
 10
4987.78843970564
 20
2962.383331906997
 30
0.0
 40
0.0040000246095545
100
AcDbArc
 50
268.6998148081049
 51
323.8502345075091
  0
ARC
  5
2D2D
330
1F
100
AcDbEntity
  8
SANINDUSA
100
AcDbCircle
 10
4987.794092055658
 20
2962.379202647974
 30
0.0
 40
0.0029999640184231
100
AcDbArc
 50
88.70036638012999
 51
143.8507026816087
  0
LINE
  5
2D2E
330
1F
100
AcDbEntity
  8
SANINDUSA
100
AcDbLine
 10
4987.794160097664
 20
2962.382201840265
 30
0.0
 11
4987.805414050645
 21
2962.381946512593
 31
0.0
  0
ARC
  5
2D2F
330
1F
100
AcDbEntity
  8
SANINDUSA
100
AcDbCircle
 10
4987.805345874036
 20
2962.378947048634
 30
0.0
 40
0.0030002386728847
100
AcDbArc
 50
33.55229155269965
 51
88.69791422376442
  0
ARC
  5
2D30
330
1F
100
AcDbEntity
  8
SANINDUSA
100
AcDbCircle
 10
4987.811179781975
 20
2962.382815824938
 30
0.0
 40
0.0039998978958043
100
AcDbArc
 50
213.5491316978286
 51
268.7004802707394
  0
LINE
  5
2D31
330
1F
100
AcDbEntity
  8
SANINDUSA
100
AcDbLine
 10
4987.890461414879
 20
2962.376836107208
 30
0.0
 11
4987.875758915967
 21
2962.377349526717
 31
0.0
  0
LINE
  5
2D32
330
1F
100
AcDbEntity
  8
SANINDUSA
100
AcDbLine
 10
4987.90075895173
 20
2962.365793340934
 30
0.0
 11
4987.890461414879
 21
2962.376836107208
 31
0.0
  0
LINE
  5
2D33
330
1F
100
AcDbEntity
  8
SANINDUSA
100
AcDbLine
 10
4988.000758915966
 20
2962.365793340934
 30
0.0
 11
4987.90075895173
 21
2962.365793340934
 31
0.0
  0
LINE
  5
2D34
330
1F
100
AcDbEntity
  8
SANINDUSA
100
AcDbLine
 10
4988.011056512421
 20
2962.376836107208
 30
0.0
 11
4988.000758915966
 21
2962.365793340934
 31
0.0
  0
LINE
  5
2D35
330
1F
100
AcDbEntity
  8
SANINDUSA
100
AcDbLine
 10
4988.02575895173
 20
2962.377349526717
 30
0.0
 11
4988.011056512421
 21
2962.376836107208
 31
0.0
  0
LINE
  5
2D4B
330
1F
100
AcDbEntity
  8
SANINDUSA
100
AcDbLine
 10
4987.890461414879
 20
2962.376836107208
 30
0.0
 11
4988.011056512421
 21
2962.376836107208
 31
0.0
  0
LINE
  5
2F10
330
1F
100
AcDbEntity
  8
SANINDUSA
100
AcDbLine
 10
4987.263207048005
 20
2962.430917405619
 30
0.0
 11
4987.281918395138
 21
2962.430917405619
 31
0.0
  0
LINE
  5
2F12
330
1F
100
AcDbEntity
  8
SANINDUSA
100
AcDbLine
 10
4988.059599488801
 20
2962.430917405619
 30
0.0
 11
4988.078310817307
 21
2962.430917405619
 31
0.0
  0
LINE
  5
2F13
330
1F
100
AcDbEntity
  8
SANINDUSA
100
AcDbLine
 10
4987.281918395138
 20
2962.430917405619
 30
0.0
 11
4988.059599488801
 21
2962.430917405619
 31
0.0
  0
LINE
  5
2F19
330
1F
100
AcDbEntity
  8
SANINDUSA
100
AcDbLine
 10
4988.1181547342
 20
2962.350917407407
 30
0.0
 11
4988.117154866284
 21
2962.350917407407
 31
0.0
  0
LINE
  5
2F1B
330
1F
100
AcDbEntity
  8
SANINDUSA
100
AcDbLine
 10
4987.224362996467
 20
2962.350917407407
 30
0.0
 11
4987.223363148807
 21
2962.350917407407
 31
0.0
  0
LINE
  5
2F1C
330
1F
100
AcDbEntity
  8
SANINDUSA
100
AcDbLine
 10
4988.117154866284
 20
2962.350917407407
 30
0.0
 11
4987.224362996467
 21
2962.350917407407
 31
0.0
  0
ENDSEC
  0
SECTION
  2
OBJECTS
  0
DICTIONARY
  5
C
330
0
100
AcDbDictionary
281
     1
  3
ACAD_COLOR
350
EE6
  3
ACAD_GROUP
350
D
  3
ACAD_LAYOUT
350
1A
  3
ACAD_MATERIAL
350
EE5
  3
ACAD_MLINESTYLE
350
17
  3
ACAD_PLOTSETTINGS
350
19
  3
ACAD_PLOTSTYLENAME
350
E
  3
ACAD_TABLESTYLE
350
EE7
  3
ACDBHEADERROUNDTRIPXREC
350
369A
  3
AcDbVariableDictionary
350
3D
  3
ASE_INDEX_DICTIONARY
350
3676
  0
DICTIONARY
  5
1051
330
2
100
AcDbDictionary
280
     1
281
     1
  3
ACAD_LAYERFILTERS
360
1057
  3
ACLYDICTIONARY
360
1056
  0
DICTIONARY
  5
EE6
102
{ACAD_REACTORS
330
C
102
}
330
C
100
AcDbDictionary
281
     1
  0
DICTIONARY
  5
D
102
{ACAD_REACTORS
330
C
102
}
330
C
100
AcDbDictionary
281
     1
  0
DICTIONARY
  5
1A
102
{ACAD_REACTORS
330
C
102
}
330
C
100
AcDbDictionary
281
     1
  3
Layout1
350
1E
  3
Layout2
350
26
  3
Model
350
22
  0
DICTIONARY
  5
EE5
102
{ACAD_REACTORS
330
C
102
}
330
C
100
AcDbDictionary
281
     1
  0
DICTIONARY
  5
17
102
{ACAD_REACTORS
330
C
102
}
330
C
100
AcDbDictionary
281
     1
  3
Standard
350
18
  0
DICTIONARY
  5
19
102
{ACAD_REACTORS
330
C
102
}
330
C
100
AcDbDictionary
281
     1
  0
ACDBDICTIONARYWDFLT
  5
E
102
{ACAD_REACTORS
330
C
102
}
330
C
100
AcDbDictionary
281
     1
  3
Normal
350
F
100
AcDbDictionaryWithDefault
340
F
  0
DICTIONARY
  5
EE7
102
{ACAD_REACTORS
330
C
102
}
330
C
100
AcDbDictionary
281
     1
  3
Standard
350
EE8
  0
DICTIONARY
  5
369A
102
{ACAD_REACTORS
330
C
102
}
330
C
100
AcDbDictionary
281
     1
  0
DICTIONARY
  5
3D
102
{ACAD_REACTORS
330
C
102
}
330
C
100
AcDbDictionary
281
     1
  3
CTABLESTYLE
350
1049
  3
DIMASSOC
350
3F
  3
HIDETEXT
350
3E
  3
PROJECTNAME
350
3692
  0
DICTIONARY
  5
3676
102
{ACAD_REACTORS
330
C
102
}
330
C
100
AcDbDictionary
281
     1
  3
ASEBlockHierarchyIndexRecord
350
3677
1001
DCO15
1040
1598618970.312
  0
DICTIONARY
  5
1057
102
{ACAD_REACTORS
330
1051
102
}
330
1051
100
AcDbDictionary
281
     1
  0
DICTIONARY
  5
1056
102
{ACAD_REACTORS
330
1051
102
}
330
1051
100
AcDbDictionary
281
     1
1001
ACAD
1000
<All
  0
LAYOUT
  5
1E
102
{ACAD_XDICTIONARY
360
369B
102
}
102
{ACAD_REACTORS
330
1A
102
}
330
1A
100
AcDbPlotSettings
  1

  2
Ploter HP500
  4

  6

 40
0.0
 41
0.0
 42
0.0
 43
0.0
 44
0.0
 45
0.0
 46
0.0
 47
0.0
 48
0.0
 49
0.0
140
0.0
141
0.0
142
1.0
143
1.0
 70
   688
 72
     0
 73
     0
 74
     5
  7
sanindusa.ctb
 75
    16
147
1.0
148
0.0
149
0.0
100
AcDbLayout
  1
Layout1
 70
     1
 71
     1
 10
0.0
 20
0.0
 11
420.0
 21
297.0
 12
0.0
 22
0.0
 32
0.0
 14
1.000000000000000E+20
 24
1.000000000000000E+20
 34
1.000000000000000E+20
 15
-1.000000000000000E+20
 25
-1.000000000000000E+20
 35
-1.000000000000000E+20
146
0.0
 13
0.0
 23
0.0
 33
0.0
 16
1.0
 26
0.0
 36
0.0
 17
0.0
 27
1.0
 37
0.0
 76
     0
330
1B
  0
LAYOUT
  5
26
102
{ACAD_XDICTIONARY
360
369F
102
}
102
{ACAD_REACTORS
330
1A
102
}
330
1A
100
AcDbPlotSettings
  1

  2
Ploter HP500
  4

  6

 40
0.0
 41
0.0
 42
0.0
 43
0.0
 44
0.0
 45
0.0
 46
0.0
 47
0.0
 48
0.0
 49
0.0
140
0.0
141
0.0
142
1.0
143
1.0
 70
   688
 72
     0
 73
     0
 74
     5
  7
sanindusa.ctb
 75
    16
147
1.0
148
0.0
149
0.0
100
AcDbLayout
  1
Layout2
 70
     1
 71
     2
 10
0.0
 20
0.0
 11
12.0
 21
9.0
 12
0.0
 22
0.0
 32
0.0
 14
0.0
 24
0.0
 34
0.0
 15
0.0
 25
0.0
 35
0.0
146
0.0
 13
0.0
 23
0.0
 33
0.0
 16
1.0
 26
0.0
 36
0.0
 17
0.0
 27
1.0
 37
0.0
 76
     0
330
23
  0
LAYOUT
  5
22
102
{ACAD_XDICTIONARY
360
369D
102
}
102
{ACAD_REACTORS
330
1A
102
}
330
1A
100
AcDbPlotSettings
  1

  2
Ploter HP500
  4
User268
  6

 40
4.995333194732666
 41
16.97565841674804
 42
4.995330810546875
 43
16.97567749023437
 44
209.9733276367187
 45
296.9259948730469
 46
0.0
 47
0.0
 48
0.0
 49
0.0
140
0.0
141
0.0
142
1.0
143
1.0
 70
 11952
 72
     1
 73
     1
 74
     0
  7
sanindusa.ctb
 75
     0
147
1.0
148
-427.5957866592534
149
7.362384574453926
100
AcDbLayout
  1
Model
 70
     1
 71
     0
 10
0.0
 20
0.0
 11
12.0
 21
9.0
 12
0.0
 22
0.0
 32
0.0
 14
0.0
 24
0.0
 34
0.0
 15
0.0
 25
0.0
 35
0.0
146
0.0
 13
0.0
 23
0.0
 33
0.0
 16
1.0
 26
0.0
 36
0.0
 17
0.0
 27
1.0
 37
0.0
 76
     0
330
1F
  0
MLINESTYLE
  5
18
102
{ACAD_REACTORS
330
17
102
}
330
17
100
AcDbMlineStyle
  2
STANDARD
 70
     0
  3

 62
   256
 51
90.0
 52
90.0
 71
     2
 49
0.5
 62
   256
  6
BYLAYER
 49
-0.5
 62
   256
  6
BYLAYER
  0
ACDBPLACEHOLDER
  5
F
102
{ACAD_REACTORS
330
E
102
}
330
E
  0
TABLESTYLE
  5
EE8
102
{ACAD_REACTORS
330
EE7
102
}
330
EE7
100
AcDbTableStyle
  3
Standard
 70
     0
 71
     0
 40
1.5
 41
1.5
280
     0
281
     0
  7
Standard
140
4.5
170
     2
 62
     0
 63
     7
283
     0
274
    -2
284
     1
 64
     0
275
    -2
285
     1
 65
     0
276
    -2
286
     1
 66
     0
277
    -2
287
     1
 67
     0
278
    -2
288
     1
 68
     0
279
    -2
289
     1
 69
     0
  7
Standard
140
6.0
170
     5
 62
     0
 63
     7
283
     0
274
    -2
284
     1
 64
     0
275
    -2
285
     1
 65
     0
276
    -2
286
     1
 66
     0
277
    -2
287
     1
 67
     0
278
    -2
288
     1
 68
     0
279
    -2
289
     1
 69
     0
  7
Standard
140
4.5
170
     5
 62
     0
 63
     7
283
     0
274
    -2
284
     1
 64
     0
275
    -2
285
     1
 65
     0
276
    -2
286
     1
 66
     0
277
    -2
287
     1
 67
     0
278
    -2
288
     1
 68
     0
279
    -2
289
     1
 69
     0
  0
DICTIONARYVAR
  5
1049
102
{ACAD_REACTORS
330
3D
102
}
330
3D
100
DictionaryVariables
280
     0
  1
STANDARD
  0
DICTIONARYVAR
  5
3F
102
{ACAD_REACTORS
330
3D
102
}
330
3D
100
DictionaryVariables
280
     0
  1
2
  0
DICTIONARYVAR
  5
3E
102
{ACAD_REACTORS
330
3D
102
}
330
3D
100
DictionaryVariables
280
     0
  1
1
  0
DICTIONARYVAR
  5
3692
102
{ACAD_REACTORS
330
3D
102
}
330
3D
100
DictionaryVariables
280
     0
  1

  0
XRECORD
  5
3677
102
{ACAD_REACTORS
330
3676
102
}
330
3676
100
AcDbXrecord
280
     1
  0
DICTIONARY
  5
369B
330
1E
100
AcDbDictionary
280
     1
281
     1
  3
ACAD_XREC_ROUNDTRIP
360
369C
  0
DICTIONARY
  5
369F
330
26
100
AcDbDictionary
280
     1
281
     1
  3
ACAD_XREC_ROUNDTRIP
360
36A0
  0
DICTIONARY
  5
369D
330
22
100
AcDbDictionary
280
     1
281
     1
  3
ACAD_XREC_ROUNDTRIP
360
369E
  0
XRECORD
  5
369C
102
{ACAD_REACTORS
330
369B
102
}
330
369B
100
AcDbXrecord
280
     1
102
SHADEPLOT
 70
     0
102
SHADEPLOTRESLEVEL
 70
     2
102
SHADEPLOTCUSTOMDPI
 70
   300
  0
XRECORD
  5
36A0
102
{ACAD_REACTORS
330
369F
102
}
330
369F
100
AcDbXrecord
280
     1
102
SHADEPLOT
 70
     0
102
SHADEPLOTRESLEVEL
 70
     2
102
SHADEPLOTCUSTOMDPI
 70
   300
  0
XRECORD
  5
369E
102
{ACAD_REACTORS
330
369D
102
}
330
369D
100
AcDbXrecord
280
     1
102
SHADEPLOT
 70
     0
102
SHADEPLOTRESLEVEL
 70
     2
102
SHADEPLOTCUSTOMDPI
 70
   300
  0
ENDSEC
  0
EOF
