  0
SECTION
  2
HEADER
  9
$ACADVER
  1
AC1015
  9
$ACADMAINTVER
 70
    20
  9
$DWGCODEPAGE
  3
ANSI_1252
  9
$INSBASE
 10
0.0
 20
0.0
 30
0.0
  9
$EXTMIN
 10
5045.691111366221
 20
3078.361446347979
 30
0.0
  9
$EXTMAX
 10
5050.452663613396
 20
3079.262842753173
 30
0.0
  9
$LIMMIN
 10
0.0
 20
0.0
  9
$LIMMAX
 10
420.0
 20
297.0
  9
$ORTHOMODE
 70
     0
  9
$REGENMODE
 70
     1
  9
$FILLMODE
 70
     1
  9
$QTEXTMODE
 70
     0
  9
$MIRRTEXT
 70
     1
  9
$LTSCALE
 40
1.0
  9
$ATTMODE
 70
     1
  9
$TEXTSIZE
 40
2.5
  9
$TRACEWID
 40
1.0
  9
$TEXTSTYLE
  7
SANINDUSA
  9
$CLAYER
  8
0
  9
$CELTYPE
  6
ByLayer
  9
$CECOLOR
 62
   256
  9
$CELTSCALE
 40
1.0
  9
$DISPSILH
 70
     0
  9
$DIMSCALE
 40
1.0
  9
$DIMASZ
 40
2.0
  9
$DIMEXO
 40
1.0
  9
$DIMDLI
 40
1.0
  9
$DIMRND
 40
0.0
  9
$DIMDLE
 40
0.0
  9
$DIMEXE
 40
1.0
  9
$DIMTP
 40
0.0
  9
$DIMTM
 40
0.0
  9
$DIMTXT
 40
2.0
  9
$DIMCEN
 40
0.0
  9
$DIMTSZ
 40
0.0
  9
$DIMTOL
 70
     0
  9
$DIMLIM
 70
     0
  9
$DIMTIH
 70
     0
  9
$DIMTOH
 70
     0
  9
$DIMSE1
 70
     0
  9
$DIMSE2
 70
     0
  9
$DIMTAD
 70
     1
  9
$DIMZIN
 70
     8
  9
$DIMBLK
  1

  9
$DIMASO
 70
     1
  9
$DIMSHO
 70
     1
  9
$DIMPOST
  1

  9
$DIMAPOST
  1

  9
$DIMALT
 70
     0
  9
$DIMALTD
 70
     3
  9
$DIMALTF
 40
0.03937007874016
  9
$DIMLFAC
 40
1.0
  9
$DIMTOFL
 70
     1
  9
$DIMTVP
 40
0.0
  9
$DIMTIX
 70
     0
  9
$DIMSOXD
 70
     0
  9
$DIMSAH
 70
     0
  9
$DIMBLK1
  1

  9
$DIMBLK2
  1

  9
$DIMSTYLE
  2
SANINDUSA
  9
$DIMCLRD
 70
   256
  9
$DIMCLRE
 70
   256
  9
$DIMCLRT
 70
   256
  9
$DIMTFAC
 40
1.0
  9
$DIMGAP
 40
1.0
  9
$DIMJUST
 70
     0
  9
$DIMSD1
 70
     0
  9
$DIMSD2
 70
     0
  9
$DIMTOLJ
 70
     0
  9
$DIMTZIN
 70
     8
  9
$DIMALTZ
 70
     0
  9
$DIMALTTZ
 70
     0
  9
$DIMUPT
 70
     0
  9
$DIMDEC
 70
     1
  9
$DIMTDEC
 70
     1
  9
$DIMALTU
 70
     2
  9
$DIMALTTD
 70
     3
  9
$DIMTXSTY
  7
SANINDUSA
  9
$DIMAUNIT
 70
     0
  9
$DIMADEC
 70
     1
  9
$DIMALTRND
 40
0.0
  9
$DIMAZIN
 70
     0
  9
$DIMDSEP
 70
    44
  9
$DIMATFIT
 70
     3
  9
$DIMFRAC
 70
     0
  9
$DIMLDRBLK
  1

  9
$DIMLUNIT
 70
     2
  9
$DIMLWD
 70
    -1
  9
$DIMLWE
 70
    -1
  9
$DIMTMOVE
 70
     0
  9
$LUNITS
 70
     2
  9
$LUPREC
 70
     4
  9
$SKETCHINC
 40
1.0
  9
$FILLETRAD
 40
3.0
  9
$AUNITS
 70
     0
  9
$AUPREC
 70
     0
  9
$MENU
  1
.
  9
$ELEVATION
 40
0.0
  9
$PELEVATION
 40
0.0
  9
$THICKNESS
 40
0.0
  9
$LIMCHECK
 70
     0
  9
$CHAMFERA
 40
10.0
  9
$CHAMFERB
 40
10.0
  9
$CHAMFERC
 40
20.0
  9
$CHAMFERD
 40
0.0
  9
$SKPOLY
 70
     0
  9
$TDCREATE
 40
2454305.660046655
  9
$TDUCREATE
 40
2454305.660046655
  9
$TDUPDATE
 40
2454478.650053345
  9
$TDUUPDATE
 40
2454478.650053345
  9
$TDINDWG
 40
0.0278238889
  9
$TDUSRTIMER
 40
0.0278238889
  9
$USRTIMER
 70
     1
  9
$ANGBASE
 50
0.0
  9
$ANGDIR
 70
     0
  9
$PDMODE
 70
     0
  9
$PDSIZE
 40
0.0
  9
$PLINEWID
 40
0.0
  9
$SPLFRAME
 70
     0
  9
$SPLINETYPE
 70
     6
  9
$SPLINESEGS
 70
     8
  9
$HANDSEED
  5
3623
  9
$SURFTAB1
 70
     6
  9
$SURFTAB2
 70
     6
  9
$SURFTYPE
 70
     6
  9
$SURFU
 70
     6
  9
$SURFV
 70
     6
  9
$UCSBASE
  2

  9
$UCSNAME
  2

  9
$UCSORG
 10
0.0
 20
0.0
 30
0.0
  9
$UCSXDIR
 10
1.0
 20
0.0
 30
0.0
  9
$UCSYDIR
 10
0.0
 20
1.0
 30
0.0
  9
$UCSORTHOREF
  2

  9
$UCSORTHOVIEW
 70
     0
  9
$UCSORGTOP
 10
0.0
 20
0.0
 30
0.0
  9
$UCSORGBOTTOM
 10
0.0
 20
0.0
 30
0.0
  9
$UCSORGLEFT
 10
0.0
 20
0.0
 30
0.0
  9
$UCSORGRIGHT
 10
0.0
 20
0.0
 30
0.0
  9
$UCSORGFRONT
 10
0.0
 20
0.0
 30
0.0
  9
$UCSORGBACK
 10
0.0
 20
0.0
 30
0.0
  9
$PUCSBASE
  2

  9
$PUCSNAME
  2

  9
$PUCSORG
 10
0.0
 20
0.0
 30
0.0
  9
$PUCSXDIR
 10
1.0
 20
0.0
 30
0.0
  9
$PUCSYDIR
 10
0.0
 20
1.0
 30
0.0
  9
$PUCSORTHOREF
  2

  9
$PUCSORTHOVIEW
 70
     0
  9
$PUCSORGTOP
 10
0.0
 20
0.0
 30
0.0
  9
$PUCSORGBOTTOM
 10
0.0
 20
0.0
 30
0.0
  9
$PUCSORGLEFT
 10
0.0
 20
0.0
 30
0.0
  9
$PUCSORGRIGHT
 10
0.0
 20
0.0
 30
0.0
  9
$PUCSORGFRONT
 10
0.0
 20
0.0
 30
0.0
  9
$PUCSORGBACK
 10
0.0
 20
0.0
 30
0.0
  9
$USERI1
 70
     0
  9
$USERI2
 70
     0
  9
$USERI3
 70
     0
  9
$USERI4
 70
     0
  9
$USERI5
 70
     0
  9
$USERR1
 40
0.0
  9
$USERR2
 40
0.0
  9
$USERR3
 40
0.0
  9
$USERR4
 40
0.0
  9
$USERR5
 40
0.0
  9
$WORLDVIEW
 70
     1
  9
$SHADEDGE
 70
     3
  9
$SHADEDIF
 70
    70
  9
$TILEMODE
 70
     1
  9
$MAXACTVP
 70
    64
  9
$PINSBASE
 10
0.0
 20
0.0
 30
0.0
  9
$PLIMCHECK
 70
     0
  9
$PEXTMIN
 10
1.000000000000000E+20
 20
1.000000000000000E+20
 30
1.000000000000000E+20
  9
$PEXTMAX
 10
-1.000000000000000E+20
 20
-1.000000000000000E+20
 30
-1.000000000000000E+20
  9
$PLIMMIN
 10
0.0
 20
0.0
  9
$PLIMMAX
 10
420.0
 20
297.0
  9
$UNITMODE
 70
     0
  9
$VISRETAIN
 70
     1
  9
$PLINEGEN
 70
     0
  9
$PSLTSCALE
 70
     1
  9
$TREEDEPTH
 70
  3020
  9
$CMLSTYLE
  2
Standard
  9
$CMLJUST
 70
     0
  9
$CMLSCALE
 40
20.0
  9
$PROXYGRAPHICS
 70
     1
  9
$MEASUREMENT
 70
     1
  9
$CELWEIGHT
370
    -1
  9
$ENDCAPS
280
     0
  9
$JOINSTYLE
280
     0
  9
$LWDISPLAY
290
     0
  9
$INSUNITS
 70
     4
  9
$HYPERLINKBASE
  1

  9
$STYLESHEET
  1
sanindusa.ctb
  9
$XEDIT
290
     1
  9
$CEPSNTYPE
380
     0
  9
$PSTYLEMODE
290
     1
  9
$FINGERPRINTGUID
  2
{835050D0-56A2-453D-A2D0-6187BD8D6CEC}
  9
$VERSIONGUID
  2
{4A7C344A-6608-4F1E-9E46-DC542B407975}
  9
$EXTNAMES
290
     1
  9
$PSVPSCALE
 40
0.0
  9
$OLESTARTUP
290
     0
  0
ENDSEC
  0
SECTION
  2
CLASSES
  0
CLASS
  1
ACDBDICTIONARYWDFLT
  2
AcDbDictionaryWithDefault
  3
ObjectDBX Classes
 90
        0
280
     0
281
     0
  0
CLASS
  1
ACDBPLACEHOLDER
  2
AcDbPlaceHolder
  3
ObjectDBX Classes
 90
        0
280
     0
281
     0
  0
CLASS
  1
LAYOUT
  2
AcDbLayout
  3
ObjectDBX Classes
 90
        0
280
     0
281
     0
  0
CLASS
  1
DICTIONARYVAR
  2
AcDbDictionaryVar
  3
ObjectDBX Classes
 90
        0
280
     0
281
     0
  0
CLASS
  1
DIMASSOC
  2
AcDbDimAssoc
  3
"AcDbDimAssoc|Product Desc:     AcDim ARX App For Dimension|Company:          Autodesk, Inc.|WEB Address:      www.autodesk.com"
 90
    32768
280
     0
281
     0
  0
CLASS
  1
TABLESTYLE
  2
AcDbTableStyle
  3
ObjectDBX Classes
 90
     2047
280
     0
281
     0
  0
CLASS
  1
SORTENTSTABLE
  2
AcDbSortentsTable
  3
ObjectDBX Classes
 90
    32768
280
     0
281
     0
  0
ENDSEC
  0
SECTION
  2
TABLES
  0
TABLE
  2
VPORT
  5
8
330
0
100
AcDbSymbolTable
 70
     2
  0
VPORT
  5
361B
330
8
100
AcDbSymbolTableRecord
100
AcDbViewportTableRecord
  2
*Active
 70
     0
 10
0.0
 20
0.0
 11
1.0
 21
1.0
 12
5048.071887489808
 22
3078.824260238175
 13
0.0
 23
0.0
 14
10.0
 24
10.0
 15
10.0
 25
10.0
 16
0.0
 26
0.0
 36
1.0
 17
0.0
 27
0.0
 37
0.0
 40
3.025892977848531
 41
1.579579579579579
 42
50.0
 43
0.0
 44
0.0
 50
0.0
 51
0.0
 71
     0
 72
   100
 73
     1
 74
     2
 75
     0
 76
     0
 77
     0
 78
     0
281
     0
 65
     1
110
0.0
120
0.0
130
0.0
111
1.0
121
0.0
131
0.0
112
0.0
122
1.0
132
0.0
 79
     0
146
0.0
  0
ENDTAB
  0
TABLE
  2
LTYPE
  5
5
330
0
100
AcDbSymbolTable
 70
     5
  0
LTYPE
  5
14
330
5
100
AcDbSymbolTableRecord
100
AcDbLinetypeTableRecord
  2
ByBlock
 70
     0
  3

 72
    65
 73
     0
 40
0.0
  0
LTYPE
  5
15
330
5
100
AcDbSymbolTableRecord
100
AcDbLinetypeTableRecord
  2
ByLayer
 70
     0
  3

 72
    65
 73
     0
 40
0.0
  0
LTYPE
  5
16
330
5
100
AcDbSymbolTableRecord
100
AcDbLinetypeTableRecord
  2
Continuous
 70
     0
  3
Solid line
 72
    65
 73
     0
 40
0.0
  0
LTYPE
  5
2D
330
5
100
AcDbSymbolTableRecord
100
AcDbLinetypeTableRecord
  2
DASHDOT
 70
     0
  3
Dash dot __ . __ . __ . __ . __ . __ . __ . __
 72
    65
 73
     4
 40
25.4
 49
12.7
 74
     0
 49
-6.349999999999999
 74
     0
 49
0.0
 74
     0
 49
-6.349999999999999
 74
     0
  0
LTYPE
  5
2E
330
5
100
AcDbSymbolTableRecord
100
AcDbLinetypeTableRecord
  2
HIDDEN
 70
     0
  3
Hidden __ __ __ __ __ __ __ __ __ __ __ __ __ _
 72
    65
 73
     2
 40
9.524999999999998
 49
6.349999999999999
 74
     0
 49
-3.174999999999999
 74
     0
  0
LTYPE
  5
C75
330
5
100
AcDbSymbolTableRecord
100
AcDbLinetypeTableRecord
  2
AM_ISO02W050
 70
     0
  3
__ __ __ __ __ __ __ __ __ __ __ __ __ __ __
 72
    65
 73
     2
 40
7.5
 49
6.0
 74
     0
 49
-1.5
 74
     0
  0
LTYPE
  5
C76
330
5
100
AcDbSymbolTableRecord
100
AcDbLinetypeTableRecord
  2
AM_ISO08W050
 70
     0
  3
____ . ____ . ____ . ____ . ____ . ____ . ____
 72
    65
 73
     4
 40
18.0
 49
12.0
 74
     0
 49
-1.5
 74
     0
 49
3.0
 74
     0
 49
-1.5
 74
     0
  0
ENDTAB
  0
TABLE
  2
LAYER
  5
2
102
{ACAD_XDICTIONARY
360
1051
102
}
330
0
100
AcDbSymbolTable
 70
    16
  0
LAYER
  5
10
330
2
100
AcDbSymbolTableRecord
100
AcDbLayerTableRecord
  2
0
 70
     0
 62
     7
  6
Continuous
370
    -3
390
F
  0
LAYER
  5
2F
330
2
100
AcDbSymbolTableRecord
100
AcDbLayerTableRecord
  2
1
 70
     0
 62
     1
  6
Continuous
370
    -3
390
F
  0
LAYER
  5
30
330
2
100
AcDbSymbolTableRecord
100
AcDbLayerTableRecord
  2
2
 70
     0
 62
     2
  6
Continuous
370
    -3
390
F
  0
LAYER
  5
31
330
2
100
AcDbSymbolTableRecord
100
AcDbLayerTableRecord
  2
3
 70
     0
 62
     3
  6
Continuous
370
    -3
390
F
  0
LAYER
  5
32
330
2
100
AcDbSymbolTableRecord
100
AcDbLayerTableRecord
  2
4
 70
     0
 62
     4
  6
Continuous
370
    -3
390
F
  0
LAYER
  5
33
330
2
100
AcDbSymbolTableRecord
100
AcDbLayerTableRecord
  2
5
 70
     0
 62
     5
  6
Continuous
370
    -3
390
F
  0
LAYER
  5
34
330
2
100
AcDbSymbolTableRecord
100
AcDbLayerTableRecord
  2
6
 70
     0
 62
     6
  6
Continuous
370
    -3
390
F
  0
LAYER
  5
35
330
2
100
AcDbSymbolTableRecord
100
AcDbLayerTableRecord
  2
7
 70
     0
 62
     7
  6
Continuous
370
    -3
390
F
  0
LAYER
  5
36
330
2
100
AcDbSymbolTableRecord
100
AcDbLayerTableRecord
  2
cen
 70
     0
 62
     7
  6
DASHDOT
370
    -3
390
F
  0
LAYER
  5
37
330
2
100
AcDbSymbolTableRecord
100
AcDbLayerTableRecord
  2
hid
 70
     0
 62
     7
  6
HIDDEN
370
    -3
390
F
  0
LAYER
  5
5D6
330
2
100
AcDbSymbolTableRecord
100
AcDbLayerTableRecord
  2
hatch
 70
     0
 62
     9
  6
Continuous
370
    -3
390
F
  0
LAYER
  5
8AF
330
2
100
AcDbSymbolTableRecord
100
AcDbLayerTableRecord
  2
9
 70
     0
 62
     9
  6
Continuous
370
    -3
390
F
  0
LAYER
  5
8F8
330
2
100
AcDbSymbolTableRecord
100
AcDbLayerTableRecord
  2
leg fin
 70
     0
 62
     9
  6
Continuous
370
    -3
390
F
  0
LAYER
  5
91D
330
2
100
AcDbSymbolTableRecord
100
AcDbLayerTableRecord
  2
cotas
 70
     0
 62
     1
  6
Continuous
370
    -3
390
F
  0
LAYER
  5
92F
330
2
100
AcDbSymbolTableRecord
100
AcDbLayerTableRecord
  2
Defpoints
 70
     0
 62
     7
  6
Continuous
290
     0
370
    -3
390
F
  0
LAYER
  5
C7B
330
2
100
AcDbSymbolTableRecord
100
AcDbLayerTableRecord
  2
SANINDUSA
 70
     0
 62
     3
  6
Continuous
370
    -3
390
F
  0
ENDTAB
  0
TABLE
  2
STYLE
  5
3
330
0
100
AcDbSymbolTable
 70
     4
  0
STYLE
  5
11
330
3
100
AcDbSymbolTableRecord
100
AcDbTextStyleTableRecord
  2
Standard
 70
     0
 40
0.0
 41
1.0
 50
0.0
 71
     0
 42
2.5
  3
Avgardn.ttf
  4

1001
ACAD
1000
AvantGarde Bk BT
1071
       34
  0
STYLE
  5
2C
330
3
100
AcDbSymbolTableRecord
100
AcDbTextStyleTableRecord
  2

 70
     1
 40
0.0
 41
1.0
 50
0.0
 71
     0
 42
2.5
  3
ltypeshp.shx
  4

  0
STYLE
  5
91F
330
3
100
AcDbSymbolTableRecord
100
AcDbTextStyleTableRecord
  2
SANINDUSA
 70
     0
 40
0.0
 41
1.0
 50
0.0
 71
     0
 42
2.5
  3
verdana.TTF
  4

1001
ACAD
1000
Verdana
1071
       34
  0
STYLE
  5
C7C
330
3
100
AcDbSymbolTableRecord
100
AcDbTextStyleTableRecord
  2
futura
 70
     0
 40
0.0
 41
1.0
 50
0.0
 71
     0
 42
2.5
  3
ZURCHN.TTF
  4

1001
ACAD
1000
Zurich BT
1071
       34
  0
ENDTAB
  0
TABLE
  2
VIEW
  5
6
330
0
100
AcDbSymbolTable
 70
     0
  0
ENDTAB
  0
TABLE
  2
UCS
  5
7
330
0
100
AcDbSymbolTable
 70
     0
  0
ENDTAB
  0
TABLE
  2
APPID
  5
9
330
0
100
AcDbSymbolTable
 70
    10
  0
APPID
  5
12
330
9
100
AcDbSymbolTableRecord
100
AcDbRegAppTableRecord
  2
ACAD
 70
     0
  0
APPID
  5
3A
330
9
100
AcDbSymbolTableRecord
100
AcDbRegAppTableRecord
  2
DCO15
 70
     0
  0
APPID
  5
EEE
330
9
100
AcDbSymbolTableRecord
100
AcDbRegAppTableRecord
  2
ACAD_DSTYLE_DIMTEXT_FILL
 70
     0
  0
APPID
  5
EEF
330
9
100
AcDbSymbolTableRecord
100
AcDbRegAppTableRecord
  2
ACAD_DSTYLE_DIMEXT_LENGTH
 70
     0
  0
APPID
  5
EF0
330
9
100
AcDbSymbolTableRecord
100
AcDbRegAppTableRecord
  2
ACAD_DSTYLE_DIMEXT_ENABLED
 70
     0
  0
APPID
  5
EF1
330
9
100
AcDbSymbolTableRecord
100
AcDbRegAppTableRecord
  2
ACAD_DSTYLE_DIM_LINETYPE
 70
     0
  0
APPID
  5
EF2
330
9
100
AcDbSymbolTableRecord
100
AcDbRegAppTableRecord
  2
ACAD_DSTYLE_DIM_EXT1_LINETYPE
 70
     0
  0
APPID
  5
EF3
330
9
100
AcDbSymbolTableRecord
100
AcDbRegAppTableRecord
  2
ACAD_DSTYLE_DIM_EXT2_LINETYPE
 70
     0
  0
APPID
  5
FAF
330
9
100
AcDbSymbolTableRecord
100
AcDbRegAppTableRecord
  2
ACAD_DSTYLE_DIMJOGGED_JOGANGLE_SYMBOL
 70
     0
  0
APPID
  5
1013
330
9
100
AcDbSymbolTableRecord
100
AcDbRegAppTableRecord
  2
ACAD_DSTYLE_DIMARC_LENGTH_SYMBOL
 70
     0
  0
ENDTAB
  0
TABLE
  2
DIMSTYLE
  5
A
330
0
100
AcDbSymbolTable
 70
     3
100
AcDbDimStyleTable
 71
     1
340
921
  0
DIMSTYLE
105
45
330
A
100
AcDbSymbolTableRecord
100
AcDbDimStyleTableRecord
  2
STANDARD
 70
     0
289
     0
340
11
  0
DIMSTYLE
105
921
330
A
100
AcDbSymbolTableRecord
100
AcDbDimStyleTableRecord
  2
SANINDUSA
 70
     0
 41
2.0
 42
1.0
 43
1.0
 44
1.0
 73
     0
 74
     0
 77
     1
 78
     8
140
2.0
141
0.0
143
0.03937007874016
147
1.0
171
     3
172
     1
176
   256
177
   256
178
   256
179
     1
271
     1
272
     1
274
     3
278
    44
283
     0
284
     8
340
91F
371
    -1
372
    -1
1001
ACAD_DSTYLE_DIMEXT_LENGTH
1070
   378
1040
1.0
1001
ACAD_DSTYLE_DIMEXT_ENABLED
1070
   383
1070
     0
1001
ACAD_DSTYLE_DIMARC_LENGTH_SYMBOL
1070
   379
1070
     0
1001
ACAD_DSTYLE_DIMJOGGED_JOGANGLE_SYMBOL
1070
   384
1040
1.570796326794896
  0
DIMSTYLE
105
C7D
330
A
100
AcDbSymbolTableRecord
100
AcDbDimStyleTableRecord
  2
AM_ISO
 70
     0
  4
"
 41
2.5
 42
1.0
 43
10.0
 44
1.0
 47
0.1
 48
0.1
 73
     0
 74
     0
 77
     1
 78
     8
 79
     2
140
3.5
141
0.0
143
0.0393701
146
0.71
147
1.5
172
     1
176
   256
177
   256
178
     2
271
     2
272
     3
274
     4
283
     0
284
     8
340
11
371
    -1
372
    -1
  0
ENDTAB
  0
TABLE
  2
BLOCK_RECORD
  5
1
330
0
100
AcDbSymbolTable
 70
   139
  0
BLOCK_RECORD
  5
1F
330
1
100
AcDbSymbolTableRecord
100
AcDbBlockTableRecord
  2
*Model_Space
340
22
  0
BLOCK_RECORD
  5
1B
330
1
100
AcDbSymbolTableRecord
100
AcDbBlockTableRecord
  2
*Paper_Space
340
1E
  0
BLOCK_RECORD
  5
23
330
1
100
AcDbSymbolTableRecord
100
AcDbBlockTableRecord
  2
*Paper_Space0
340
26
  0
BLOCK_RECORD
  5
919
330
1
100
AcDbSymbolTableRecord
100
AcDbBlockTableRecord
  2
_DotSmall
340
0
  0
BLOCK_RECORD
  5
922
330
1
100
AcDbSymbolTableRecord
100
AcDbBlockTableRecord
  2
base para cotas
340
0
310
2800000020000000200000000100080000000000000400000000000000000000000000000000000000000000000080000080000000808000800000008000800080800000C0C0C000C0DCC000F0CAA6000020400000206000002080000020A0000020C0000020E00000400000004020000040400000406000004080000040A0
310
000040C0000040E00000600000006020000060400000606000006080000060A0000060C0000060E00000800000008020000080400000806000008080000080A0000080C0000080E00000A0000000A0200000A0400000A0600000A0800000A0A00000A0C00000A0E00000C0000000C0200000C0400000C0600000C0800000C0
310
A00000C0C00000C0E00000E0000000E0200000E0400000E0600000E0800000E0A00000E0C00000E0E00040000000400020004000400040006000400080004000A0004000C0004000E00040200000402020004020400040206000402080004020A0004020C0004020E000404000004040200040404000404060004040800040
310
40A0004040C0004040E00040600000406020004060400040606000406080004060A0004060C0004060E00040800000408020004080400040806000408080004080A0004080C0004080E00040A0000040A0200040A0400040A0600040A0800040A0A00040A0C00040A0E00040C0000040C0200040C0400040C0600040C08000
310
40C0A00040C0C00040C0E00040E0000040E0200040E0400040E0600040E0800040E0A00040E0C00040E0E00080000000800020008000400080006000800080008000A0008000C0008000E00080200000802020008020400080206000802080008020A0008020C0008020E00080400000804020008040400080406000804080
310
008040A0008040C0008040E00080600000806020008060400080606000806080008060A0008060C0008060E00080800000808020008080400080806000808080008080A0008080C0008080E00080A0000080A0200080A0400080A0600080A0800080A0A00080A0C00080A0E00080C0000080C0200080C0400080C0600080C0
310
800080C0A00080C0C00080C0E00080E0000080E0200080E0400080E0600080E0800080E0A00080E0C00080E0E000C0000000C0002000C0004000C0006000C0008000C000A000C000C000C000E000C0200000C0202000C0204000C0206000C0208000C020A000C020C000C020E000C0400000C0402000C0404000C0406000C0
310
408000C040A000C040C000C040E000C0600000C0602000C0604000C0606000C0608000C060A000C060C000C060E000C0800000C0802000C0804000C0806000C0808000C080A000C080C000C080E000C0A00000C0A02000C0A04000C0A06000C0A08000C0A0A000C0A0C000C0A0E000C0C00000C0C02000C0C04000C0C06000
310
C0C08000C0C0A000F0FBFF00A4A0A000808080000000FF0000FF000000FFFF00FF000000FF00FF00FFFF0000FFFFFF00A4A4A4A4A4A4A4A4A4A4A4A4A4A4A4A4A4A4A4A4A4A4A4A4A4A4A4A4A4A4A4A4A4A4A4A4A4A4A4A4A4A4A4A4A4A4A4A4A4A4A4A4A4A4A4A4A4A4A4A4A4A4A4A4A4A4A4A4A4A4A4A4A4A4A4A4A4A4A4
310
A4A4A4A4A4A4A4A4A4A4A4A4A4A4A4A4A4A4A4A4A4A4A4A4A4A4A4A4A4A4A4A4A4A4A4A4A4A4A4A4A4A4A4A4A4A4A4A4A4A4A4A4A4A4A4A4A4A4A4A4A4A4A4A4A4A4A4A4A4A4A4A4A4A4A4A4A4A4A4A4A4A4A4A4A4A4A4A4A4A4A4A4A4A4A4A4A4A4A4A4A4A4A4A4A4A4A4A4A4A4A4A4A4A4A4A4A4A4A4A4A4A4A4A4A4A4A4
310
A4A4A4A4A4A4A4A4A4A4A4A4A4A4A4A4A4A4A4A4A4A4A4A4A4A4A4A4A4A4A4A4A4A4A4A4A4A4A4A4A4A4A4A4A4A4A4A4A4A4A4A4A4A4A4A4A4A4A4A4A4A4A4A4A4A4A4A4A4A4A4A4A4A4A4A4A4A4A4A4A4A4A4A4A4A4A4A4A4A4A4A4A4A4A4A4A4A4A4A4A4A4A4A4A4A4A4A4A4A4A4A4A4A4A4A4A4A4A4A4A4A4A4A4A4A4A4
310
A4A4A4A4A4A4A4A4A4A4A4A4A4A4A4A4A4A4A4A4A4A4A4A4A4A4A4A4A4A4A4A4A4A4A4A4A4A4A4A4A4A4A4A4A4A4A4A4A4A4A4A4A4A4A4A4A4A4A4A4A4A4A4A4A4A4A4A4A4A4A4A4A4A4A4A4A4A4A4A4A4A4A4A4A4A4A4A4A4A4A4A4A4A4A4A4A4A4A4A4A4A4A4A4A4A4A4A4A4A4A4A4A4A4A4A4F9F9F9F9F9F9F9F9F9F9F9
310
F9F9F9F9F9F9F9F9F9F9F9F9F9F9F9F9F9F9F9A4A4F9F9F9F9F9F9F9F9F9F9F9F9F9F9F9F9F9F9F9F9F9F9F9F9F9F9F9F9F9F9A4A4F9F9F9F9F9F9F9F9F9F9F9F9F9F9F9F9F9F9F9F9F9F9F9F9F9F9F9F9F9F9A4A4F9A4A4A4A4A4A4A4A4A4A4A4A4A4A4A4A4A4A4A4A4A4A4A4A4A4A4A4A4F9A4A4A4A4A4A4A4A4A4A4A4A4
310
A4A4A4A4A4A4A4A4A4A4A4A4A4A4A4A4A4A4A4A4A4A4A4A4A4A4A4A4A4A4A4A4A4A4A4A4A4A4A4A4A4A4A4A4A4A4A4A4A4A4A4A4A4A4A4A4A4A4A4A4A4A4A4A4A4A4A4A4A4A4A4A4A4A4A4A4A4A4A4A4A4A4A4A4A4A4A4A4A4A4A4A4A4A4A4A4A4A4A4A4A4A4A4A4A4A4A4A4A4A4A4A4A4A4A4A4A4A4A4A4A4A4A4A4A4A4A4
310
A4A4A4A4A4A4A4A4A4A4A4A4A4A4A4A4A4A4A4A4A4A4A4A4A4A4A4A4A4A4A4A4A4A4A4A4A4A4A4A4A4A4A4A4A4A4A4A4A4A4A4A4A4A4A4A4A4A4A4A4A4A4A4A4A4A4A4A4A4A4A4A4A4A4A4A4A4A4A4A4A4A4A4A4A4A4A4A4A4A4A4A4A4A4A4A4A4A4A4A4A4A4A4A4A4A4A4A4A4A4A4A4A4A4A4A4A4A4A4A4A4A4A4A4A4A4A4
310
A4A4A4A4A4A4A4A4A4A4A4A4A4A4A4A4A4A4A4A4A4A4A4A4A4A4A4A4A4A4A4A4A4A4A4A4A4A4A4A4A4A4A4A4A4A4A4A4A4A4A4A4A4A4A4A4A4A4A4A4A4A4A4A4A4A4A4A4A4A4A4A4A4A4A4A4A4A4A4A4A4A4A4A4A4A4A4A4A4A4A4A4A4A4A4A4A4A4A4A4A4A4A4A4A4A4A4A4A4A4A4A4A4A4A4A4A4A4A4A4A4A4A4A4A4A4A4
310
A4A4A4A4A4A4A4A4A4A4A4A4A4A4A4A4A4A4A4A4A4A4A4A4A4A4A4A4A4A4A4A4A4A4A4A4A4A4A4A4A4A4A4A4A4A4A4A4A4A4A4A4A4A4A4A4
1001
ACAD
1000
DesignCenter Data
1002
{
1070
     1
1070
     4
1002
}
  0
BLOCK_RECORD
  5
AA8
330
1
100
AcDbSymbolTableRecord
100
AcDbBlockTableRecord
  2
_CLOSED
340
0
  0
BLOCK_RECORD
  5
B79
330
1
100
AcDbSymbolTableRecord
100
AcDbBlockTableRecord
  2
nota revisoes
340
0
1001
ACAD
1000
DesignCenter Data
1002
{
1070
     1
1070
     4
1002
}
  0
BLOCK_RECORD
  5
B8E
330
1
100
AcDbSymbolTableRecord
100
AcDbBlockTableRecord
  2
a3l
340
0
1001
ACAD
1000
DesignCenter Data
1002
{
1070
     1
1070
     4
1002
}
  0
BLOCK_RECORD
  5
B9E
330
1
100
AcDbSymbolTableRecord
100
AcDbBlockTableRecord
  2
legenda desenvolvimento
340
0
1001
ACAD
1000
DesignCenter Data
1002
{
1070
     1
1070
     4
1002
}
  0
ENDTAB
  0
ENDSEC
  0
SECTION
  2
BLOCKS
  0
BLOCK
  5
20
330
1F
100
AcDbEntity
  8
0
100
AcDbBlockBegin
  2
*Model_Space
 70
     0
 10
0.0
 20
0.0
 30
0.0
  3
*Model_Space
  1

  0
ENDBLK
  5
21
330
1F
100
AcDbEntity
  8
0
100
AcDbBlockEnd
  0
BLOCK
  5
1C
330
1B
100
AcDbEntity
 67
     1
  8
0
100
AcDbBlockBegin
  2
*Paper_Space
 70
     0
 10
0.0
 20
0.0
 30
0.0
  3
*Paper_Space
  1

  0
ENDBLK
  5
1D
330
1B
100
AcDbEntity
 67
     1
  8
0
100
AcDbBlockEnd
  0
BLOCK
  5
24
330
23
100
AcDbEntity
 67
     1
  8
0
100
AcDbBlockBegin
  2
*Paper_Space0
 70
     0
 10
0.0
 20
0.0
 30
0.0
  3
*Paper_Space0
  1

  0
ENDBLK
  5
25
330
23
100
AcDbEntity
 67
     1
  8
0
100
AcDbBlockEnd
  0
BLOCK
  5
91B
330
919
100
AcDbEntity
  8
0
100
AcDbBlockBegin
  2
_DotSmall
 70
     0
 10
0.0
 20
0.0
 30
0.0
  3
_DotSmall
  1

  0
LWPOLYLINE
  5
91A
330
919
100
AcDbEntity
  8
0
  6
ByBlock
 62
     0
100
AcDbPolyline
 90
        2
 70
     1
 43
0.5
 10
-0.0625
 20
0.0
 42
1.0
 10
0.0625
 20
0.0
 42
1.0
  0
ENDBLK
  5
91C
330
919
100
AcDbEntity
  8
0
100
AcDbBlockEnd
  0
BLOCK
  5
92A
330
922
100
AcDbEntity
  8
0
100
AcDbBlockBegin
  2
base para cotas
 70
     0
 10
0.0
 20
0.0
 30
0.0
  3
base para cotas
  1

  0
LINE
  5
B36
330
922
100
AcDbEntity
  8
cotas
100
AcDbLine
 10
0.0
 20
-30.0
 30
0.0
 11
327.1260136525398
 21
-30.0
 31
0.0
  0
LINE
  5
B37
330
922
100
AcDbEntity
  8
cotas
100
AcDbLine
 10
0.0
 20
-25.0
 30
0.0
 11
327.1260136525398
 21
-25.0
 31
0.0
  0
LINE
  5
B38
330
922
100
AcDbEntity
  8
cotas
100
AcDbLine
 10
0.0
 20
-20.0
 30
0.0
 11
327.1260136525398
 21
-20.0
 31
0.0
  0
LINE
  5
B39
330
922
100
AcDbEntity
  8
cotas
100
AcDbLine
 10
0.0
 20
-15.0
 30
0.0
 11
327.1260136525398
 21
-15.0
 31
0.0
  0
LINE
  5
B3A
330
922
100
AcDbEntity
  8
cotas
100
AcDbLine
 10
0.0
 20
-10.0
 30
0.0
 11
327.1260136525398
 21
-10.0
 31
0.0
  0
LINE
  5
B3B
330
922
100
AcDbEntity
  8
cotas
100
AcDbLine
 10
0.0
 20
0.0
 30
0.0
 11
0.0
 21
-30.0
 31
0.0
  0
LINE
  5
B3C
330
922
100
AcDbEntity
  8
cotas
100
AcDbLine
 10
327.1260136525398
 20
-30.0
 30
0.0
 11
327.1260136525398
 21
0.0
 31
0.0
  0
ENDBLK
  5
92B
330
922
100
AcDbEntity
  8
0
100
AcDbBlockEnd
  0
BLOCK
  5
AAD
330
AA8
100
AcDbEntity
  8
0
100
AcDbBlockBegin
  2
_CLOSED
 70
     0
 10
0.0
 20
0.0
 30
0.0
  3
_CLOSED
  1

  0
LINE
  5
AA9
330
AA8
100
AcDbEntity
  8
0
100
AcDbLine
 10
-1.0
 20
0.166667
 30
0.0
 11
0.0
 21
0.0
 31
0.0
  0
LINE
  5
AAA
330
AA8
100
AcDbEntity
  8
0
100
AcDbLine
 10
0.0
 20
0.0
 30
0.0
 11
-1.0
 21
-0.166667
 31
0.0
  0
LINE
  5
AAB
330
AA8
100
AcDbEntity
  8
0
100
AcDbLine
 10
-1.0
 20
0.166667
 30
0.0
 11
-1.0
 21
-0.166667
 31
0.0
  0
LINE
  5
AAC
330
AA8
100
AcDbEntity
  8
0
100
AcDbLine
 10
0.0
 20
0.0
 30
0.0
 11
-1.0
 21
0.0
 31
0.0
  0
ENDBLK
  5
AAE
330
AA8
100
AcDbEntity
  8
0
100
AcDbBlockEnd
  0
BLOCK
  5
B7C
330
B79
100
AcDbEntity
  8
0
100
AcDbBlockBegin
  2
nota revisoes
 70
     0
 10
0.0
 20
0.0
 30
0.0
  3
nota revisoes
  1

  0
CIRCLE
  5
B7A
330
B79
100
AcDbEntity
  8
4
100
AcDbCircle
 10
0.0
 20
0.0
 30
0.0
 40
13.69426055101189
  0
TEXT
  5
B7B
330
B79
100
AcDbEntity
  8
4
100
AcDbText
 10
-5.496248358154345
 20
-5.354545554066362
 30
0.0
 40
12.0
  1
1
  7
SANINDUSA
 72
     1
 11
-0.249774214433728
 21
-5.354545554066362
 31
0.0
100
AcDbText
  0
ENDBLK
  5
B7D
330
B79
100
AcDbEntity
  8
0
100
AcDbBlockEnd
  0
BLOCK
  5
B9C
330
B8E
100
AcDbEntity
  8
0
100
AcDbBlockBegin
  2
a3l
 70
     0
 10
0.0
 20
0.0
 30
0.0
  3
a3l
  1

  0
LINE
  5
B8F
330
B8E
100
AcDbEntity
  8
1
100
AcDbLine
 10
-364.2925296599447
 20
-362.1188951399395
 30
0.0
 11
-364.2925296599447
 21
-65.11889513993946
 31
0.0
  0
LINE
  5
B90
330
B8E
100
AcDbEntity
  8
4
100
AcDbLine
 10
-369.2925296599447
 20
-357.1188951399395
 30
0.0
 11
-369.2925296599447
 21
-70.11889513993946
 31
0.0
  0
LINE
  5
B91
330
B8E
100
AcDbEntity
  8
1
100
AcDbLine
 10
-784.2925296599446
 20
-65.11889513993946
 30
0.0
 11
-784.2925296599446
 21
-362.1188951399395
 31
0.0
  0
LINE
  5
B92
330
B8E
100
AcDbEntity
  8
4
100
AcDbLine
 10
-759.2925296599446
 20
-357.1188951399395
 30
0.0
 11
-759.2925296599446
 21
-70.11889513993946
 31
0.0
  0
LINE
  5
B93
330
B8E
100
AcDbEntity
  8
1
100
AcDbLine
 10
-784.2925296599446
 20
-362.1188951399395
 30
0.0
 11
-364.2925296599447
 21
-362.1188951399395
 31
0.0
  0
LINE
  5
B94
330
B8E
100
AcDbEntity
  8
4
100
AcDbLine
 10
-759.2925296599446
 20
-357.1188951399395
 30
0.0
 11
-369.2925296599447
 21
-357.1188951399395
 31
0.0
  0
LINE
  5
B95
330
B8E
100
AcDbEntity
  8
1
100
AcDbLine
 10
-654.2925296599446
 20
-357.1188951399395
 30
0.0
 11
-654.2925296599446
 21
-362.1188951399395
 31
0.0
  0
LINE
  5
B96
330
B8E
100
AcDbEntity
  8
1
100
AcDbLine
 10
-364.2925296599447
 20
-65.11889513993946
 30
0.0
 11
-784.2925296599446
 21
-65.11889513993946
 31
0.0
  0
LINE
  5
B97
330
B8E
100
AcDbEntity
  8
4
100
AcDbLine
 10
-369.2925296599447
 20
-70.11889513993946
 30
0.0
 11
-759.2925296599446
 21
-70.11889513993946
 31
0.0
  0
LINE
  5
B98
330
B8E
100
AcDbEntity
  8
1
100
AcDbLine
 10
-654.2925296599446
 20
-65.11889513993946
 30
0.0
 11
-654.2925296599446
 21
-70.11889513993946
 31
0.0
  0
LINE
  5
B99
330
B8E
100
AcDbEntity
  8
1
100
AcDbLine
 10
-549.2925296599446
 20
-70.11889513993946
 30
0.0
 11
-549.2925296599446
 21
-65.11889513993946
 31
0.0
  0
LINE
  5
B9A
330
B8E
100
AcDbEntity
  8
1
100
AcDbLine
 10
-369.2925296599447
 20
-65.11889513993946
 30
0.0
 11
-364.2925296599447
 21
-65.11889513993946
 31
0.0
  0
LINE
  5
B9B
330
B8E
100
AcDbEntity
  8
1
100
AcDbLine
 10
-549.2925296599446
 20
-357.1188951399395
 30
0.0
 11
-549.2925296599446
 21
-362.1188951399395
 31
0.0
  0
ENDBLK
  5
B9D
330
B8E
100
AcDbEntity
  8
0
100
AcDbBlockEnd
  0
BLOCK
  5
C13
330
B9E
100
AcDbEntity
  8
0
100
AcDbBlockBegin
  2
legenda desenvolvimento
 70
     2
 10
0.0
 20
0.0
 30
0.0
  3
legenda desenvolvimento
  1

  0
ATTDEF
  5
B9F
330
B9E
100
AcDbEntity
  8
1
100
AcDbText
 10
-108.606245802552
 20
55.5
 30
0.0
 40
4.0
  1
XXXXXXXXXXXXXX
 41
0.8
  7
SANINDUSA
 72
     4
 11
-87.5
 21
57.5
 31
0.0
100
AcDbAttributeDefinition
  3
Nome do Produto:
  2
PRODUTO
 70
     0
  0
ATTDEF
  5
BA0
330
B9E
100
AcDbEntity
  8
1
100
AcDbText
 10
-97.9997966101695
 20
41.25
 30
0.0
 40
3.0
  1
XXXXXXXXX
 41
0.8
  7
futura
 72
     4
 11
-87.5
 21
42.75
 31
0.0
100
AcDbAttributeDefinition
  3
Nome da Peça:
  2
PECA
 70
     0
  0
ATTDEF
  5
BA1
330
B9E
100
AcDbEntity
  8
1
100
AcDbText
 10
-133.4422431161853
 20
21.11745296763252
 30
0.0
 40
2.5
  1
X
 41
0.8
  7
SANINDUSA
 72
     4
 11
-132.5
 21
22.36745296763252
 31
0.0
100
AcDbAttributeDefinition
  3
Cod. TESTE:
  2
TESTE
 70
     0
  0
ATTDEF
  5
BA2
330
B9E
100
AcDbEntity
  8
1
100
AcDbText
 10
-124.3844862323707
 20
21.11745296763252
 30
0.0
 40
2.5
  1
XX
 41
0.8
  7
SANINDUSA
 72
     4
 11
-122.5
 21
22.36745296763252
 31
0.0
100
AcDbAttributeDefinition
  3
Cod. Ano:
  2
ANO
 70
     0
  0
ATTDEF
  5
BA3
330
B9E
100
AcDbEntity
  8
1
100
AcDbText
 10
-112.526889953052
 20
21.11745296763252
 30
0.0
 40
2.5
  1
XXX
 41
0.8
  7
SANINDUSA
 72
     4
 11
-109.700160604496
 21
22.36745296763252
 31
0.0
100
AcDbAttributeDefinition
  3
Cod. Sequência:
  2
SEQUENCIA
 70
     0
  0
ATTDEF
  5
BA4
330
B9E
100
AcDbEntity
  8
1
100
AcDbText
 10
-99.35382430979316
 20
21.11745296763252
 30
0.0
 40
2.5
  1
XX
 41
0.8
  7
SANINDUSA
 72
     4
 11
-97.46933807742244
 21
22.36745296763252
 31
0.0
100
AcDbAttributeDefinition
  3
Cod. Tipo:
  2
TIPO
 70
     0
  0
ATTDEF
  5
BA5
330
B9E
100
AcDbEntity
  8
1
100
AcDbText
 10
-87.42035911468438
 20
21.11745296763252
 30
0.0
 40
2.5
  1
XXX
 41
0.8
  7
SANINDUSA
 72
     4
 11
-84.59362976612828
 21
22.36745296763252
 31
0.0
100
AcDbAttributeDefinition
  3
Cod. Produto:
  2
PRODUTO
 70
     0
  0
ATTDEF
  5
BA6
330
B9E
100
AcDbEntity
  8
1
100
AcDbText
 10
-74.62051971917853
 20
21.11745296763252
 30
0.0
 40
2.5
  1
XXX
 41
0.8
  7
SANINDUSA
 72
     4
 11
-71.79379037062244
 21
22.36745296763252
 31
0.0
100
AcDbAttributeDefinition
  3
Cod. Peça:
  2
PECA
 70
     0
  0
ATTDEF
  5
BA7
330
B9E
100
AcDbEntity
  8
1
100
AcDbText
 10
-61.10603446650329
 20
21.11745296763252
 30
0.0
 40
2.5
  1
XX
 41
0.8
  7
SANINDUSA
 72
     4
 11
-59.22154823413257
 21
22.36745296763252
 31
0.0
100
AcDbAttributeDefinition
  3
Cod. Revisão:
  2
REV
 70
     0
  0
ATTDEF
  5
BA8
330
B9E
100
AcDbEntity
  8
1
100
AcDbText
 10
-48.43615325006194
 20
21.11745296763252
 30
0.0
 40
2.5
  1
XX
 41
0.8
  7
SANINDUSA
 72
     4
 11
-46.55166701769121
 21
22.36745296763252
 31
0.0
100
AcDbAttributeDefinition
  3
Cod. Alteração:
  2
ALT
 70
     0
  0
ATTDEF
  5
BA9
330
B9E
100
AcDbEntity
  8
1
100
AcDbText
 10
-35.19086635325722
 20
23.98875083948959
 30
0.0
 40
3.0
  1
1/XXX
 41
0.8
  7
SANINDUSA
 72
     4
 11
-30.0
 21
25.25
 31
0.0
100
AcDbAttributeDefinition
  3
Escala geral:
  2
ESCALA
 70
     0
  0
ATTDEF
  5
BAA
330
B9E
100
AcDbEntity
  8
1
100
AcDbText
 10
-15.65345869711215
 20
23.75
 30
0.0
 40
3.0
  1
XXXXX
 41
0.8
  7
SANINDUSA
 72
     4
 11
-10.0
 21
25.25
 31
0.0
100
AcDbAttributeDefinition
  3
Folha:
  2
FOLHA
 70
     0
  0
ATTDEF
  5
BAB
330
B9E
100
AcDbEntity
  8
1
100
AcDbText
 10
-178.5146998822042
 20
56.9531347542807
 30
0.0
 40
2.0
  1
xx
 41
0.8
  7
SANINDUSA
 72
     4
 11
-177.2123493113513
 21
57.70330265219877
 31
0.0
100
AcDbAttributeDefinition
  3
revisão
  2
REV.
 70
     0
  0
ATTDEF
  5
BAC
330
B9E
100
AcDbEntity
  8
1
100
AcDbText
 10
-172.7849640077129
 20
56.9531347542807
 30
0.0
 40
2.0
  1
xx
 41
0.8
  7
SANINDUSA
 72
     4
 11
-171.48261343686
 21
57.70330265219877
 31
0.0
100
AcDbAttributeDefinition
  3
alteração
  2
ALT.
 70
     0
  0
ATTDEF
  5
BAD
330
B9E
100
AcDbEntity
  8
1
100
AcDbText
 10
-168.007199951307
 20
56.70330265219877
 30
0.0
 40
2.0
  1
xx/xx/xxxx
 41
0.8
  7
SANINDUSA
 11
-168.007199951307
 21
57.70330265219877
 31
0.0
100
AcDbAttributeDefinition
  3
data
  2
DATA
 70
     0
 74
     2
  0
ATTDEF
  5
BAE
330
B9E
100
AcDbEntity
  8
1
100
AcDbText
 10
-168.5396372253371
 20
13.15916722632639
 30
0.0
 40
2.0
  1
XX/XX/XXXX
 41
0.8
  7
SANINDUSA
 72
     4
 11
-161.5099528734231
 21
14.0
 31
0.0
100
AcDbAttributeDefinition
  3
Data projecto
  2
DATA_PROJ
 70
     0
  0
ATTDEF
  5
BAF
330
B9E
100
AcDbEntity
  8
1
100
AcDbText
 10
-150.8658110728766
 20
13.24983210208193
 30
0.0
 40
2.0
  1
xxxxxxxx
 41
0.8
  7
SANINDUSA
 72
     4
 11
-145.6564087894649
 21
14.0
 31
0.0
100
AcDbAttributeDefinition
  3
nome de quem projectou
  2
NOME
 70
     0
  0
ATTDEF
  5
BB0
330
B9E
100
AcDbEntity
  8
1
100
AcDbText
 10
-168.5396372253371
 20
9.159167226326394
 30
0.0
 40
2.0
  1
XX/XX/XXXX
 41
0.8
  7
SANINDUSA
 72
     4
 11
-161.5099528734231
 21
10.0
 31
0.0
100
AcDbAttributeDefinition
  3
Data desenhou
  2
DATA_DES
 70
     0
  0
ATTDEF
  5
BB1
330
B9E
100
AcDbEntity
  8
1
100
AcDbText
 10
-151.516986358303
 20
9.249832102081933
 30
0.0
 40
2.0
  1
xxxxxxxxx
 41
0.8
  7
SANINDUSA
 72
     4
 11
-145.6564087894649
 21
10.0
 31
0.0
100
AcDbAttributeDefinition
  3
nome
  2
NOME
 70
     0
  0
ATTDEF
  5
BB2
330
B9E
100
AcDbEntity
  8
1
100
AcDbText
 10
-127.2924214135946
 20
14.1979876583216
 30
0.0
 40
2.0
  1
Vitreous China
 41
0.8
  7
SANINDUSA
 72
     4
 11
-119.231709526422
 21
15.22216495852308
 31
0.0
100
AcDbAttributeDefinition
  3
Nome do Material:
  2
MATERIAL
 70
     0
  0
ATTDEF
  5
BB3
330
B9E
100
AcDbEntity
  8
1
100
AcDbText
 10
-103.1563452122093
 20
14.38019043949261
 30
0.0
 40
2.0
  1
Branco
 41
0.8
  7
SANINDUSA
 72
     4
 11
-99.33418268702462
 21
15.35937109765245
 31
0.0
100
AcDbAttributeDefinition
  3
cor da peça
  2
COR
 70
     0
  0
ATTDEF
  5
BB4
330
B9E
100
AcDbEntity
  8
1
100
AcDbText
 10
-116.7235057085292
 20
5.975822699798522
 30
0.0
 40
2.0
  1
Vidrado
 41
0.8
  7
SANINDUSA
 72
     4
 11
-112.5
 21
7.0
 31
0.0
100
AcDbAttributeDefinition
  3
Tipo de acabamento:
  2
ACABAMENTO
 70
     0
  0
ATTDEF
  5
BB5
330
B9E
100
AcDbEntity
  8
1
100
AcDbText
 10
-79.18527869967246
 20
16.65066409850533
 30
0.0
 40
2.0
  1
XXXXXXX
 41
0.8
  7
SANINDUSA
 72
     4
 11
-73.90871724903445
 21
17.65066409850533
 31
0.0
100
AcDbAttributeDefinition
  3
Normas
  2
NORMAS
 70
     0
  0
ATTDEF
  5
BB6
330
B9E
100
AcDbEntity
  8
1
100
AcDbText
 10
-30.55312290127603
 20
14.0
 30
0.0
 40
2.0
  1
XXXXXXXXXXXXXX
 41
0.8
  7
SANINDUSA
 72
     4
 11
-20.0
 21
15.0
 31
0.0
100
AcDbAttributeDefinition
  3
Substitui o desenho:
  2
SUBSTITUI
 70
     0
  0
ATTDEF
  5
BB7
330
B9E
100
AcDbEntity
  8
1
100
AcDbText
 10
-31.30691739422431
 20
6.0
 30
0.0
 40
2.0
  1
XXXXXXXXXXXXXXX
 41
0.8
  7
SANINDUSA
 72
     4
 11
-20.0
 21
7.0
 31
0.0
100
AcDbAttributeDefinition
  3
Substituido por:
  2
SUBSTITUIDO
 70
     0
  0
ATTDEF
  5
BB8
330
B9E
100
AcDbEntity
  8
1
100
AcDbText
 10
-110.0220608548302
 20
1.478208457928303
 30
0.0
 40
2.0
  1
XXXXXXXXXXXXXXXXXXXXXXXXXXXXXXXXXX
 41
0.8
  7
SANINDUSA
 11
-110.0220608548302
 21
2.478208457928303
 31
0.0
100
AcDbAttributeDefinition
  3
Localização do desenho:
  2
LOC-DWG
 70
     0
 74
     2
  0
LINE
  5
BB9
330
B9E
100
AcDbEntity
  8
3
100
AcDbLine
 10
-135.0
 20
4.0
 30
0.0
 11
0.0000000000004547
 21
4.0
 31
0.0
  0
LINE
  5
BBA
330
B9E
100
AcDbEntity
  8
3
100
AcDbLine
 10
-90.00000000000046
 20
12.0
 30
0.0
 11
-135.0
 21
12.0
 31
0.0
  0
LINE
  5
BBB
330
B9E
100
AcDbEntity
  8
3
100
AcDbLine
 10
-135.0
 20
32.5
 30
0.0
 11
-40.0
 21
32.5
 31
0.0
  0
TEXT
  5
BBC
330
B9E
100
AcDbEntity
  8
1
100
AcDbText
 10
-134.0
 20
1.25
 30
0.0
 40
2.0
  1
Localização do des.:
 41
0.8
  7
SANINDUSA
 11
-134.0
 21
2.25
 31
0.0
100
AcDbText
 73
     2
  0
LINE
  5
BBD
330
B9E
100
AcDbEntity
  8
3
100
AcDbLine
 10
-180.0
 20
65.0
 30
0.0
 11
0.0
 21
65.0
 31
0.0
  0
LINE
  5
BBE
330
B9E
100
AcDbEntity
  8
leg fin
100
AcDbLine
 10
-40.0
 20
25.05956924886846
 30
0.0
 11
-135.0
 21
25.05956924886846
 31
0.0
  0
LINE
  5
BBF
330
B9E
100
AcDbEntity
  8
leg fin
100
AcDbLine
 10
-40.0
 20
28.5
 30
0.0
 11
-135.0
 21
28.5
 31
0.0
  0
LINE
  5
BC0
330
B9E
100
AcDbEntity
  8
3
100
AcDbLine
 10
-135.0
 20
50.0
 30
0.0
 11
-40.0
 21
50.0
 31
0.0
  0
TEXT
  5
BC1
330
B9E
100
AcDbEntity
  8
1
100
AcDbText
 10
-134.0
 20
29.75
 30
0.0
 40
2.0
  1
Desenho nº:
 41
0.8
  7
SANINDUSA
 11
-134.0
 21
30.75
 31
0.0
100
AcDbText
 73
     2
  0
TEXT
  5
BC2
330
B9E
100
AcDbEntity
  8
1
100
AcDbText
 10
-134.0
 20
9.25
 30
0.0
 40
2.0
  1
Acabamento:
 41
0.8
  7
SANINDUSA
 11
-134.0
 21
10.25
 31
0.0
100
AcDbText
 73
     2
  0
LINE
  5
BC3
330
B9E
100
AcDbEntity
  8
3
100
AcDbLine
 10
-180.0
 20
20.0
 30
0.0
 11
0.0
 21
20.0
 31
0.0
  0
LINE
  5
BC4
330
B9E
100
AcDbEntity
  8
1
100
AcDbLine
 10
-174.5810776056337
 20
55.5
 30
0.0
 11
-174.5810776056337
 21
65.0
 31
0.0
  0
LINE
  5
BC5
330
B9E
100
AcDbEntity
  8
1
100
AcDbLine
 10
-168.9210461879161
 20
55.5
 30
0.0
 11
-168.9210461879161
 21
65.0
 31
0.0
  0
LINE
  5
BC6
330
B9E
100
AcDbEntity
  8
1
100
AcDbLine
 10
-154.0988595589306
 20
55.5
 30
0.0
 11
-154.0988595589306
 21
65.0
 31
0.0
  0
LINE
  5
BC7
330
B9E
100
AcDbEntity
  8
3
100
AcDbLine
 10
-180.0
 20
65.0
 30
0.0
 11
-180.0
 21
0.0
 31
0.0
  0
LINE
  5
BC8
330
B9E
100
AcDbEntity
  8
3
100
AcDbLine
 10
-135.0
 20
0.0
 30
0.0
 11
-135.0
 21
65.0
 31
0.0
  0
TEXT
  5
BC9
330
B9E
100
AcDbEntity
  8
1
100
AcDbText
 10
-179.0
 20
9.75
 30
0.0
 40
1.5
  1
Des.
 41
0.8
  7
SANINDUSA
 11
-179.0
 21
10.5
 31
0.0
100
AcDbText
 73
     2
  0
LINE
  5
BCA
330
B9E
100
AcDbEntity
  8
1
100
AcDbLine
 10
-168.9210461879161
 20
20.0
 30
0.0
 11
-168.9210461879161
 21
0.0
 31
0.0
  0
LINE
  5
BCB
330
B9E
100
AcDbEntity
  8
1
100
AcDbLine
 10
-154.0988595589306
 20
20.0
 30
0.0
 11
-154.0988595589306
 21
0.0
 31
0.0
  0
LINE
  5
BCC
330
B9E
100
AcDbEntity
  8
1
100
AcDbLine
 10
-180.0
 20
4.0
 30
0.0
 11
-135.0
 21
4.0
 31
0.0
  0
LINE
  5
BCD
330
B9E
100
AcDbEntity
  8
1
100
AcDbLine
 10
-180.0
 20
8.0
 30
0.0
 11
-135.0
 21
8.0
 31
0.0
  0
TEXT
  5
BCE
330
B9E
100
AcDbEntity
  8
1
100
AcDbText
 10
-179.0
 20
1.73257823687436
 30
0.0
 40
1.5
  1
Aprov.
 41
0.8
  7
SANINDUSA
 11
-179.0
 21
2.48257823687436
 31
0.0
100
AcDbText
 73
     2
  0
TEXT
  5
BCF
330
B9E
100
AcDbEntity
  8
1
100
AcDbText
 10
-179.0
 20
5.75
 30
0.0
 40
1.5
  1
Ver.
 41
0.8
  7
SANINDUSA
 11
-179.0
 21
6.5
 31
0.0
100
AcDbText
 73
     2
  0
LINE
  5
BD0
330
B9E
100
AcDbEntity
  8
1
100
AcDbLine
 10
-180.0
 20
16.0
 30
0.0
 11
-135.0
 21
16.0
 31
0.0
  0
LINE
  5
BD1
330
B9E
100
AcDbEntity
  8
1
100
AcDbLine
 10
-180.0
 20
12.0
 30
0.0
 11
-135.0
 21
12.0
 31
0.0
  0
TEXT
  5
BD2
330
B9E
100
AcDbEntity
  8
1
100
AcDbText
 10
-179.0
 20
13.75
 30
0.0
 40
1.5
  1
Proj.
 41
0.8
  7
SANINDUSA
 11
-179.0
 21
14.5
 31
0.0
100
AcDbText
 73
     2
  0
TEXT
  5
BD3
330
B9E
100
AcDbEntity
  8
1
100
AcDbText
 10
-167.9210461879161
 20
17.75
 30
0.0
 40
1.5
  1
Data
 41
0.8
  7
SANINDUSA
 11
-167.9210461879161
 21
18.5
 31
0.0
100
AcDbText
 73
     2
  0
TEXT
  5
BD4
330
B9E
100
AcDbEntity
  8
1
100
AcDbText
 10
-153.0988595589306
 20
17.75
 30
0.0
 40
1.5
  1
Nome
 41
0.8
  7
SANINDUSA
 11
-153.0988595589306
 21
18.5
 31
0.0
100
AcDbText
 73
     2
  0
LINE
  5
BD5
330
B9E
100
AcDbEntity
  8
leg fin
100
AcDbLine
 10
-130.0
 20
20.0
 30
0.0
 11
-130.0
 21
28.5
 31
0.0
  0
TEXT
  5
BD6
330
B9E
100
AcDbEntity
  8
1
100
AcDbText
 10
-134.0
 20
17.25
 30
0.0
 40
2.0
  1
Material:
 41
0.8
  7
SANINDUSA
 11
-134.0
 21
18.25
 31
0.0
100
AcDbText
 73
     2
  0
TEXT
  5
BD7
330
B9E
100
AcDbEntity
  8
1
100
AcDbText
 10
-129.0
 20
26.43288406845113
 30
0.0
 40
1.5
  1
Ano:
 41
0.8
  7
SANINDUSA
 11
-129.0
 21
27.18288406845113
 31
0.0
100
AcDbText
 73
     2
  0
LINE
  5
BD8
330
B9E
100
AcDbEntity
  8
1
100
AcDbLine
 10
-180.0
 20
55.5
 30
0.0
 11
-135.0
 21
55.5
 31
0.0
  0
TEXT
  5
BD9
330
B9E
100
AcDbEntity
  8
1
100
AcDbText
 10
-179.0
 20
52.67772246885193
 30
0.0
 40
1.5
  1
descrição
 41
0.8
  7
SANINDUSA
 11
-179.0
 21
53.42772246885193
 31
0.0
100
AcDbText
 73
     2
  0
TEXT
  5
BDA
330
B9E
100
AcDbEntity
  8
1
100
AcDbText
 10
-134.0
 20
47.25
 30
0.0
 40
2.0
  1
Peça:
 41
0.8
  7
SANINDUSA
 11
-134.0
 21
48.25
 31
0.0
100
AcDbText
 73
     2
  0
LINE
  5
BDB
330
B9E
100
AcDbEntity
  8
1
100
AcDbLine
 10
-180.0
 20
59.5
 30
0.0
 11
-135.0
 21
59.5
 31
0.0
  0
TEXT
  5
BDC
330
B9E
100
AcDbEntity
  8
1
100
AcDbText
 10
-173.5810776056337
 20
62.75
 30
0.0
 40
1.5
  1
Alt.
 41
0.8
  7
SANINDUSA
 11
-173.5810776056337
 21
63.5
 31
0.0
100
AcDbText
 73
     2
  0
TEXT
  5
BDD
330
B9E
100
AcDbEntity
  8
1
100
AcDbText
 10
-179.0
 20
62.75
 30
0.0
 40
1.5
  1
Rev.
 41
0.8
  7
SANINDUSA
 11
-179.0
 21
63.5
 31
0.0
100
AcDbText
 73
     2
  0
TEXT
  5
BDE
330
B9E
100
AcDbEntity
  8
1
100
AcDbText
 10
-167.9210461879161
 20
62.75
 30
0.0
 40
1.5
  1
Data
 41
0.8
  7
SANINDUSA
 11
-167.9210461879161
 21
63.5
 31
0.0
100
AcDbText
 73
     2
  0
TEXT
  5
BDF
330
B9E
100
AcDbEntity
  8
1
100
AcDbText
 10
-153.0988595589306
 20
62.75
 30
0.0
 40
1.5
  1
Nome
 41
0.8
  7
SANINDUSA
 11
-153.0988595589306
 21
63.5
 31
0.0
100
AcDbText
 73
     2
  0
TEXT
  5
BE0
330
B9E
100
AcDbEntity
  8
1
100
AcDbText
 10
-134.0
 20
62.25
 30
0.0
 40
2.0
  1
Produto:
 41
0.8
  7
SANINDUSA
 11
-134.0
 21
63.25
 31
0.0
100
AcDbText
 73
     2
  0
LINE
  5
BE1
330
B9E
100
AcDbEntity
  8
3
100
AcDbLine
 10
-40.0
 20
4.0
 30
0.0
 11
-40.0
 21
65.0
 31
0.0
  0
LWPOLYLINE
  5
BE2
102
{ACAD_REACTORS
330
BEC
102
}
330
B9E
100
AcDbEntity
  8
9
100
AcDbPolyline
 90
       12
 70
     1
 43
0.0
 10
-3.038714600644652
 20
58.90010174665076
 10
-5.726962862472191
 20
58.90010174665076
 10
-5.726962862472191
 20
58.5001017466509
 10
-3.038748516195028
 20
58.5001017466509
 42
-0.4142135623731731
 10
-2.638748516194482
 20
58.1001017466508
 10
-2.638748516194482
 20
57.42799728675596
 10
-5.21497371544865
 20
57.42799728675596
 42
0.4142135623731289
 10
-6.014973715448377
 20
56.627997286756
 10
-6.014973715448377
 20
55.92380871629643
 42
0.4142135623731132
 10
-5.21497371544865
 20
55.12380871629648
 10
-2.23871460064447
 20
55.12380871629648
 10
-2.23871460064447
 20
58.10010174665103
 42
0.4142135623730717
  0
LWPOLYLINE
  5
BE3
102
{ACAD_REACTORS
330
BEC
102
}
330
B9E
100
AcDbEntity
  8
9
100
AcDbPolyline
 90
       20
 70
     1
 43
0.0
 10
-10.01531287095122
 20
57.82799728675581
 10
-10.01531287095122
 20
58.10010174665103
 42
-0.4142135623730744
 10
-9.615312870951584
 20
58.5001017466509
 10
-6.92703069357276
 20
58.5001017466509
 10
-6.92703069357276
 20
58.90010174665076
 10
-9.615346786501959
 20
58.90010174665076
 42
0.4142135623730883
 10
-10.41534678650168
 20
58.1001017466508
 10
-10.41534678650168
 20
57.82796337120567
 42
0.4142135623730717
 10
-9.615346786501959
 20
57.02796337120571
 10
-7.423079531965413
 20
57.02796337120571
 42
-0.4142135623730847
 10
-7.023079531965322
 20
56.62796337120562
 10
-7.023079531965322
 20
55.90786840766487
 42
-0.4142135623730744
 10
-7.423079531965413
 20
55.507868407665
 10
-10.41534678650168
 20
55.507868407665
 10
-10.41534678650168
 20
55.12380871629648
 10
-7.445787917283723
 20
55.12380871629648
 42
0.4114777732064574
 10
-6.645822882998345
 20
55.9163291493976
 10
-6.639238813324936
 20
56.62051771985716
 42
0.4169546541682913
 10
-7.439203847610315
 20
57.42799728675596
 10
-9.615312870951584
 20
57.42799728675596
 42
-0.4142135623731576
  0
LWPOLYLINE
  5
BE4
102
{ACAD_REACTORS
330
BEC
102
}
330
B9E
100
AcDbEntity
  8
9
100
AcDbPolyline
 90
       12
 70
     1
 43
0.0
 10
-14.41561811090378
 20
58.90010174665076
 10
-14.79964388672215
 20
58.90010174665076
 10
-14.79964388672215
 20
55.92380871629643
 42
0.4142135623731133
 10
-13.99964388672242
 20
55.12380871629648
 10
-11.8233508563676
 20
55.12380871629648
 42
0.4142135623730872
 10
-11.02335085636741
 20
55.92380871629643
 10
-11.02335085636741
 20
58.90010174665076
 10
-11.42338477191788
 20
58.90010174665076
 10
-11.42338477191788
 20
55.91567577726095
 42
-0.4131711701795318
 10
-11.82196067063523
 20
55.51567831234956
 10
-14.0141940096214
 20
55.50787335710947
 42
-0.4152567234624407
 10
-14.41561811090378
 20
55.90787082202087
  0
LWPOLYLINE
  5
BE5
102
{ACAD_REACTORS
330
BEC
102
}
330
B9E
100
AcDbEntity
  8
9
100
AcDbPolyline
 90
        6
 70
     1
 43
0.0
 10
-15.80771578768872
 20
55.507868407665
 10
-18.39994912667453
 20
55.507868407665
 42
-0.4142135623731731
 10
-18.79994912667462
 20
55.90786840766487
 10
-18.79994912667462
 20
58.10010174665103
 42
-0.4142135623730744
 10
-18.39994912667453
 20
58.5001017466509
 10
-15.80771578768872
 20
58.5001017466509
  0
LWPOLYLINE
  5
BE6
102
{ACAD_REACTORS
330
BEC
102
}
330
B9E
100
AcDbEntity
  8
9
100
AcDbPolyline
 90
        8
 70
     1
 43
0.0
 10
-15.4236900118708
 20
59.87619128370352
 10
-15.80771578768872
 20
59.87619128370352
 10
-15.80771578768872
 20
58.90010174665076
 10
-18.39176256411201
 20
58.90010174665076
 42
0.4131164467977967
 10
-19.19175694739761
 20
58.1030995310698
 10
-19.1999120763262
 20
55.92680650071542
 42
0.4153115297271718
 10
-18.39991769304061
 20
55.12380871629648
 10
-15.4236900118708
 20
55.12380871629648
  0
LWPOLYLINE
  5
BE7
102
{ACAD_REACTORS
330
BEC
102
}
330
B9E
100
AcDbEntity
  8
9
100
AcDbPolyline
 90
       10
 70
     1
 43
0.0
 10
-20.59201288790928
 20
58.90010174665076
 10
-23.56830591826338
 20
58.90010174665076
 10
-23.56830591826338
 20
55.12380871629648
 10
-23.18424622689509
 20
55.12380871629648
 10
-23.18424622689509
 20
58.5001017466509
 10
-20.59204680345965
 20
58.5001017466509
 42
-0.4142135623730898
 10
-20.19204680345956
 20
58.1001017466508
 10
-20.19204680345956
 20
55.12380871629648
 10
-19.79201288790909
 20
55.12380871629648
 10
-19.79201288790909
 20
58.10010174665103
 42
0.4142135623731132
  0
LWPOLYLINE
  5
BE8
102
{ACAD_REACTORS
330
BEC
102
}
330
B9E
100
AcDbEntity
  8
9
100
AcDbPolyline
 90
        4
 70
     1
 43
0.0
 10
-24.19231812786165
 20
58.90010174665076
 10
-24.57637781922995
 20
58.90010174665076
 10
-24.57637781922995
 20
55.12380871629648
 10
-24.19231812786165
 20
55.12380871629648
  0
LWPOLYLINE
  5
BE9
102
{ACAD_REACTORS
330
BEC
102
}
330
B9E
100
AcDbEntity
  8
9
100
AcDbPolyline
 90
       10
 70
     1
 43
0.0
 10
-28.57661522808212
 20
58.5001017466509
 10
-25.98444972019706
 20
58.5001017466509
 42
-0.4142135623731731
 10
-25.58444972019652
 20
58.1001017466508
 10
-25.58444972019652
 20
55.12380871629648
 10
-25.2004239443786
 20
55.12380871629648
 10
-25.2004239443786
 20
58.10010174665103
 42
0.4142135623730717
 10
-26.00042394437833
 20
58.90010174665076
 10
-28.97664914363259
 20
58.90010174665076
 10
-28.97664914363259
 20
55.12380871629648
 10
-28.57661522808212
 20
55.12380871629648
  0
LWPOLYLINE
  5
BEA
102
{ACAD_REACTORS
330
BEC
102
}
330
B9E
100
AcDbEntity
  8
9
100
AcDbPolyline
 90
       12
 70
     1
 43
0.0
 10
-29.58465321349832
 20
58.10010174665103
 42
0.4142135623730716
 10
-30.3846532134985
 20
58.90010174665076
 10
-33.07296930642724
 20
58.90010174665076
 10
-33.07296930642724
 20
58.5001017466509
 10
-30.38468712904842
 20
58.5001017466509
 42
-0.4142135623730067
 10
-29.98468712904878
 20
58.1001017466508
 10
-29.98468712904878
 20
57.42799728675618
 10
-32.56098015940324
 20
57.42799728675596
 42
0.4142135623731289
 10
-33.36098015940343
 20
56.627997286756
 10
-33.36098015940343
 20
55.92380871629643
 42
0.4142135623731132
 10
-32.56098015940324
 20
55.12380871629648
 10
-29.58465321349832
 20
55.12380871629648
  0
LWPOLYLINE
  5
BEB
102
{ACAD_REACTORS
330
BEC
102
}
330
B9E
100
AcDbEntity
  8
9
100
AcDbPolyline
 90
       20
 70
     1
 43
0.0
 10
-34.7850262845518
 20
57.42799728675596
 10
-36.96125148380543
 20
57.42799728675596
 42
-0.4142135623730898
 10
-37.36125148380552
 20
57.82799728675604
 10
-37.36125148380552
 20
58.10010174665103
 42
-0.4142135623730744
 10
-36.96125148380543
 20
58.5001017466509
 10
-34.27303713752781
 20
58.50010174665067
 10
-34.27303713752781
 20
58.90010174665076
 10
-36.96128539935535
 20
58.90010174665076
 42
0.4142135623731289
 10
-37.76128539935553
 20
58.1001017466508
 10
-37.76128539935553
 20
57.82796337120567
 42
0.4142135623730716
 10
-36.9612853993558
 20
57.02796337120571
 10
-34.76901814481926
 20
57.02796337120571
 42
-0.414213562373168
 10
-34.36901814481962
 20
56.62796337120562
 10
-34.36901814481962
 20
55.90786840766487
 42
-0.4142135623730744
 10
-34.76901814481926
 20
55.507868407665
 10
-37.76128539935553
 20
55.507868407665
 10
-37.76128539935553
 20
55.12380871629648
 10
-34.7850262845518
 20
55.12380871629648
 42
0.4142135623731289
 10
-33.98502628455162
 20
55.92380871629643
 10
-33.98502628455162
 20
56.627997286756
 42
0.4142135623731132
  0
HATCH
  5
BEC
330
B9E
100
AcDbEntity
  8
9
100
AcDbHatch
 10
0.0
 20
0.0
 30
0.0
210
0.0
220
0.0
230
1.0
  2
SOLID
 70
     1
 71
     1
 91
       13
 92
        7
 72
     1
 73
     1
 93
       20
 10
-34.36901814481962
 20
55.90786840766487
 42
-0.414213562372991
 10
-34.76901814481926
 20
55.507868407665
 42
0.0
 10
-37.76128539935553
 20
55.507868407665
 42
0.0
 10
-37.76128539935553
 20
55.12380871629648
 42
0.0
 10
-34.7850262845518
 20
55.12380871629648
 42
0.4142135623731705
 10
-33.98502628455162
 20
55.92380871629666
 42
0.0
 10
-33.98502628455162
 20
56.627997286756
 42
0.4142135623731547
 10
-34.7850262845518
 20
57.42799728675596
 42
0.0
 10
-36.96125148380543
 20
57.42799728675596
 42
-0.4142135623730898
 10
-37.36125148380552
 20
57.82799728675604
 42
0.0
 10
-37.36125148380552
 20
58.1001017466508
 42
-0.4142135623731575
 10
-36.96125148380543
 20
58.5001017466509
 42
0.0
 10
-34.27303713752781
 20
58.50010174665067
 42
0.0
 10
-34.27303713752781
 20
58.90010174665076
 42
0.0
 10
-36.96128539935535
 20
58.90010174665076
 42
0.4142135623731705
 10
-37.76128539935553
 20
58.10010174665058
 42
0.0
 10
-37.76128539935553
 20
57.82796337120544
 42
0.4142135623730299
 10
-36.9612853993558
 20
57.02796337120571
 42
0.0
 10
-34.76901814481926
 20
57.02796337120571
 42
-0.4142135623730015
 10
-34.36901814481962
 20
56.62796337120608
 42
0.0
 97
        1
330
BEB
 92
        7
 72
     1
 73
     1
 93
       12
 10
-33.36098015940343
 20
55.92380871629666
 42
0.4142135623731547
 10
-32.56098015940324
 20
55.12380871629648
 42
0.0
 10
-29.58465321349877
 20
55.12380871629648
 42
0.0
 10
-29.58465321349832
 20
58.10010174665058
 42
0.4142135623731964
 10
-30.3846532134985
 20
58.90010174665076
 42
0.0
 10
-33.07296930642724
 20
58.90010174665076
 42
0.0
 10
-33.07296930642724
 20
58.50010174665067
 42
0.0
 10
-30.38468712904887
 20
58.5001017466509
 42
-0.4142135623732564
 10
-29.98468712904878
 20
58.10010174665103
 42
0.0
 10
-29.98468712904923
 20
57.42799728675596
 42
0.0
 10
-32.56098015940324
 20
57.42799728675596
 42
0.4142135623731705
 10
-33.36098015940343
 20
56.627997286756
 42
0.0
 97
        1
330
BEA
 92
       22
 72
     1
 73
     1
 93
        6
 10
-32.97692046803468
 20
56.62796337120562
 42
-0.4142135623731576
 10
-32.57692046803459
 20
57.02796337120571
 42
0.0
 10
-29.98468712904878
 20
57.02796337120571
 42
0.0
 10
-29.98468712904878
 20
55.507868407665
 42
0.0
 10
-32.57692046803459
 20
55.507868407665
 42
-0.4142135623731731
 10
-32.97692046803468
 20
55.90786840766487
 42
0.0
 97
        1
330
C11
 92
        7
 72
     1
 73
     1
 93
       10
 10
-28.57661522808212
 20
58.5001017466509
 42
0.0
 10
-25.98444972019661
 20
58.5001017466509
 42
-0.4142135623730067
 10
-25.58444972019652
 20
58.10010174665058
 42
0.0
 10
-25.58444972019606
 20
55.12380871629648
 42
0.0
 10
-25.20042394437906
 20
55.12380871629648
 42
0.0
 10
-25.2004239443786
 20
58.1001017466508
 42
0.4142135623731134
 10
-26.00042394437833
 20
58.90010174665076
 42
0.0
 10
-28.97664914363259
 20
58.90010174665076
 42
0.0
 10
-28.97664914363259
 20
55.12380871629648
 42
0.0
 10
-28.57661522808212
 20
55.12380871629648
 42
0.0
 97
        1
330
BE9
 92
        7
 72
     0
 73
     1
 93
        4
 10
-24.57637781922995
 20
55.12380871629648
 10
-24.19231812786165
 20
55.12380871629648
 10
-24.19231812786165
 20
58.90010174665076
 10
-24.57637781922995
 20
58.90010174665076
 97
        1
330
BE8
 92
        7
 72
     0
 73
     1
 93
        4
 10
-24.19231812786165
 20
59.87619128370352
 10
-24.5763778192304
 20
59.87619128370352
 10
-24.5763778192304
 20
59.28412752246913
 10
-24.1923181278612
 20
59.28412752246913
 97
        1
330
C12
 92
        7
 72
     1
 73
     1
 93
       10
 10
-23.18424622689509
 20
58.5001017466509
 42
0.0
 10
-20.59204680345965
 20
58.5001017466509
 42
-0.4142135623730898
 10
-20.19204680345956
 20
58.1001017466508
 42
0.0
 10
-20.19204680345956
 20
55.12380871629648
 42
0.0
 10
-19.79201288790909
 20
55.12380871629648
 42
0.0
 10
-19.79201288790909
 20
58.1001017466508
 42
0.4142135623731547
 10
-20.59201288790928
 20
58.90010174665076
 42
0.0
 10
-23.56830591826338
 20
58.90010174665076
 42
0.0
 10
-23.56830591826338
 20
55.12380871629648
 42
0.0
 10
-23.18424622689463
 20
55.12380871629648
 42
0.0
 97
        1
330
BE7
 92
        7
 72
     1
 73
     1
 93
        8
 10
-19.1999120763262
 20
55.92680650071542
 42
0.4153115297271299
 10
-18.39991769304061
 20
55.12380871629648
 42
0.0
 10
-15.4236900118708
 20
55.12380871629648
 42
0.0
 10
-15.4236900118708
 20
59.87619128370352
 42
0.0
 10
-15.80771578768872
 20
59.87619128370352
 42
0.0
 10
-15.80771578768872
 20
58.90010174665076
 42
0.0
 10
-18.39176256411201
 20
58.90010174665076
 42
0.4131164467977965
 10
-19.19175694739761
 20
58.1030995310698
 42
0.0
 97
        1
330
BE6
 92
       22
 72
     1
 73
     1
 93
        6
 10
-18.79994912667462
 20
58.1001017466508
 42
-0.4142135623731575
 10
-18.39994912667453
 20
58.5001017466509
 42
0.0
 10
-15.80771578768872
 20
58.50010174665067
 42
0.0
 10
-15.80771578768827
 20
55.507868407665
 42
0.0
 10
-18.39994912667453
 20
55.507868407665
 42
-0.4142135623731731
 10
-18.79994912667462
 20
55.90786840766487
 42
0.0
 97
        1
330
BE5
 92
        7
 72
     1
 73
     1
 93
       12
 10
-14.79964388672215
 20
55.92380871629621
 42
0.4142135623729885
 10
-13.99964388672242
 20
55.12380871629648
 42
0.0
 10
-11.8233508563676
 20
55.12380871629648
 42
0.4142135623731289
 10
-11.02335085636741
 20
55.92380871629666
 42
0.0
 10
-11.02335085636741
 20
58.90010174665076
 42
0.0
 10
-11.42338477191788
 20
58.90010174665076
 42
0.0
 10
-11.42338477191788
 20
55.91567577726095
 42
-0.4131711701795319
 10
-11.82196067063523
 20
55.51567831234956
 42
0.0
 10
-14.01419400962095
 20
55.50787335710947
 42
-0.4152567234626918
 10
-14.41561811090378
 20
55.90787082202087
 42
0.0
 10
-14.41561811090378
 20
58.90010174665076
 42
0.0
 10
-14.7996438867226
 20
58.90010174665076
 42
0.0
 97
        1
330
BE4
 92
        7
 72
     1
 73
     1
 93
       20
 10
-7.423079531965413
 20
57.02796337120571
 42
-0.414213562373168
 10
-7.023079531965322
 20
56.62796337120562
 42
0.0
 10
-7.023079531965322
 20
55.90786840766487
 42
-0.4142135623731575
 10
-7.423079531965413
 20
55.507868407665
 42
0.0
 10
-10.41534678650168
 20
55.507868407665
 42
0.0
 10
-10.41534678650168
 20
55.12380871629648
 42
0.0
 10
-7.445787917283723
 20
55.12380871629648
 42
0.4114777732065809
 10
-6.645822882998345
 20
55.91632914939783
 42
0.0
 10
-6.639238813324936
 20
56.62051771985716
 42
0.4169546541682913
 10
-7.439203847610315
 20
57.42799728675596
 42
0.0
 10
-9.615312870951584
 20
57.42799728675596
 42
-0.4142135623729911
 10
-10.01531287095122
 20
57.82799728675581
 42
0.0
 10
-10.01531287095122
 20
58.10010174665103
 42
-0.414213562372991
 10
-9.615312870951584
 20
58.5001017466509
 42
0.0
 10
-6.92703069357276
 20
58.50010174665067
 42
0.0
 10
-6.927030693572305
 20
58.90010174665076
 42
0.0
 10
-9.615346786501959
 20
58.90010174665076
 42
0.4142135623730467
 10
-10.41534678650168
 20
58.10010174665103
 42
0.0
 10
-10.41534678650168
 20
57.82796337120544
 42
0.4142135623730301
 10
-9.615346786501959
 20
57.02796337120571
 42
0.0
 97
        1
330
BE3
 92
        7
 72
     1
 73
     1
 93
       12
 10
-5.21497371544865
 20
57.42799728675596
 42
0.4142135623730871
 10
-6.014973715448377
 20
56.627997286756
 42
0.0
 10
-6.014973715448377
 20
55.92380871629621
 42
0.4142135623730715
 10
-5.21497371544865
 20
55.12380871629648
 42
0.0
 10
-2.23871460064447
 20
55.12380871629648
 42
0.0
 10
-2.23871460064447
 20
58.10010174665058
 42
0.414213562373155
 10
-3.038714600644652
 20
58.90010174665076
 42
0.0
 10
-5.726962862471737
 20
58.90010174665076
 42
0.0
 10
-5.726962862472191
 20
58.5001017466509
 42
0.0
 10
-3.038748516194573
 20
58.5001017466509
 42
-0.4142135623730067
 10
-2.638748516194482
 20
58.10010174665058
 42
0.0
 10
-2.638748516194482
 20
57.42799728675596
 42
0.0
 97
        1
330
BE2
 92
       22
 72
     1
 73
     1
 93
        6
 10
-2.638748516194937
 20
57.02796337120571
 42
0.0
 10
-2.638748516194482
 20
55.50786840766477
 42
0.0
 10
-5.21497371544865
 20
55.507868407665
 42
-0.4142135623731731
 10
-5.614973715448741
 20
55.90786840766509
 42
0.0
 10
-5.614973715448741
 20
56.62796337120562
 42
-0.4142135623731576
 10
-5.21497371544865
 20
57.02796337120571
 42
0.0
 97
        1
330
C0D
 75
     0
 76
     1
 47
0.0407044778999864
 98
       13
 10
-34.18710075113677
 20
56.16907953933765
 10
-33.12851374392494
 20
56.49471602641233
 10
-33.12851374392494
 20
56.49471602641233
 10
-28.77202873835904
 20
57.51232930166111
 10
-24.41554807250941
 20
57.91937341678636
 10
-24.41554807250941
 20
59.384734621186
 10
-23.31624584658039
 20
58.3264175319116
 10
-19.04119127844888
 20
57.75655517324913
 10
-19.04119127844888
 20
57.75655517324913
 10
-14.64399105416578
 20
57.43091868617466
 10
-8.048195057457178
 20
57.22739662861204
 10
-4.017427461911665
 20
57.18669281458665
 10
-4.017427461911665
 20
57.18669281458665
  0
TEXT
  5
BED
330
B9E
100
AcDbEntity
  8
leg fin
100
AcDbText
 10
3.391127401597259
 20
2.107634911895729
 30
0.0
 40
1.5
  1
Este desenho é propriedade da Sanindusa, S.A., e não pode ser copiado nem divulgado sem nossa autorização.
 50
90.0
 41
0.8
  7
SANINDUSA
100
AcDbText
  0
LINE
  5
BEE
330
B9E
100
AcDbEntity
  8
3
100
AcDbLine
 10
-90.0
 20
4.0
 30
0.0
 11
-90.0
 21
12.0
 31
0.0
  0
TEXT
  5
BEF
330
B9E
100
AcDbEntity
  8
1
100
AcDbText
 10
-39.0
 20
9.25
 30
0.0
 40
2.0
  1
Substituido por:
 41
0.8
  7
SANINDUSA
 11
-39.0
 21
10.25
 31
0.0
100
AcDbText
 73
     2
  0
POINT
  5
BF0
330
B9E
100
AcDbEntity
  8
SANINDUSA
100
AcDbPoint
 10
0.0
 20
0.0
 30
0.0
  0
TEXT
  5
BF1
330
B9E
100
AcDbEntity
  8
1
100
AcDbText
 10
-89.0
 20
16.74927010445663
 30
0.0
 40
2.0
  1
Normas:
 41
0.8
  7
SANINDUSA
 11
-89.0
 21
17.74927010445663
 31
0.0
100
AcDbText
 73
     2
  0
LINE
  5
BF2
330
B9E
100
AcDbEntity
  8
3
100
AcDbLine
 10
-90.0
 20
12.0
 30
0.0
 11
-90.0
 21
20.0
 31
0.0
  0
LINE
  5
BF3
330
B9E
100
AcDbEntity
  8
3
100
AcDbLine
 10
-110.546019464768
 20
12.0
 30
0.0
 11
-110.546019464768
 21
20.0
 31
0.0
  0
TEXT
  5
BF4
330
B9E
100
AcDbEntity
  8
1
100
AcDbText
 10
-109.6177520618648
 20
17.25
 30
0.0
 40
2.0
  1
Cor:
 41
0.8
  7
SANINDUSA
 11
-109.6177520618648
 21
18.25
 31
0.0
100
AcDbText
 73
     2
  0
LINE
  5
BF5
330
B9E
100
AcDbEntity
  8
leg fin
100
AcDbLine
 10
-91.42857142857156
 20
20.0
 30
0.0
 11
-91.42857142857156
 21
28.5
 31
0.0
  0
LINE
  5
BF6
330
B9E
100
AcDbEntity
  8
leg fin
100
AcDbLine
 10
-104.2857142857142
 20
20.0
 30
0.0
 11
-104.2857142857142
 21
28.5
 31
0.0
  0
LINE
  5
BF7
330
B9E
100
AcDbEntity
  8
leg fin
100
AcDbLine
 10
-117.1428571428573
 20
20.0
 30
0.0
 11
-117.1428571428573
 21
28.5
 31
0.0
  0
POINT
  5
BF8
330
B9E
100
AcDbEntity
  8
SANINDUSA
100
AcDbPoint
 10
-117.1428571428573
 20
28.5
 30
0.0
  0
POINT
  5
BF9
330
B9E
100
AcDbEntity
  8
SANINDUSA
100
AcDbPoint
 10
-104.2857142857142
 20
28.5
 30
0.0
  0
POINT
  5
BFA
330
B9E
100
AcDbEntity
  8
SANINDUSA
100
AcDbPoint
 10
-91.42857142857156
 20
28.5
 30
0.0
  0
TEXT
  5
BFB
330
B9E
100
AcDbEntity
  8
1
100
AcDbText
 10
-116.200160604496
 20
26.43288406845113
 30
0.0
 40
1.5
  1
Nº Seq.:
 41
0.8
  7
SANINDUSA
 11
-116.200160604496
 21
27.18288406845113
 31
0.0
100
AcDbText
 73
     2
  0
TEXT
  5
BFC
330
B9E
100
AcDbEntity
  8
1
100
AcDbText
 10
-103.2106584078738
 20
26.43288406845113
 30
0.0
 40
1.5
  1
Tipo:
 41
0.8
  7
SANINDUSA
 11
-103.2106584078738
 21
27.18288406845113
 31
0.0
100
AcDbText
 73
     2
  0
TEXT
  5
BFD
330
B9E
100
AcDbEntity
  8
1
100
AcDbText
 10
-90.22114672289353
 20
26.43288406845113
 30
0.0
 40
1.5
  1
Prod.:
 41
0.8
  7
SANINDUSA
 11
-90.22114672289353
 21
27.18288406845113
 31
0.0
100
AcDbText
 73
     2
  0
TEXT
  5
BFE
330
B9E
100
AcDbEntity
  8
1
100
AcDbText
 10
-64.77320576346574
 20
26.43288406845113
 30
0.0
 40
1.5
  1
Rev.:
 41
0.8
  7
SANINDUSA
 11
-64.77320576346574
 21
27.18288406845113
 31
0.0
100
AcDbText
 73
     2
  0
LINE
  5
BFF
330
B9E
100
AcDbEntity
  8
leg fin
100
AcDbLine
 10
-52.85714285714266
 20
20.0
 30
0.0
 11
-52.85714285714266
 21
28.5
 31
0.0
  0
LINE
  5
C00
330
B9E
100
AcDbEntity
  8
leg fin
100
AcDbLine
 10
-65.71428571428578
 20
20.0
 30
0.0
 11
-65.71428571428578
 21
28.5
 31
0.0
  0
LINE
  5
C01
330
B9E
100
AcDbEntity
  8
leg fin
100
AcDbLine
 10
-78.57142857142844
 20
20.0
 30
0.0
 11
-78.57142857142844
 21
28.5
 31
0.0
  0
POINT
  5
C02
330
B9E
100
AcDbEntity
  8
SANINDUSA
100
AcDbPoint
 10
-78.57142857142844
 20
28.5
 30
0.0
  0
POINT
  5
C03
330
B9E
100
AcDbEntity
  8
SANINDUSA
100
AcDbPoint
 10
-65.71428571428578
 20
28.5
 30
0.0
  0
POINT
  5
C04
330
B9E
100
AcDbEntity
  8
SANINDUSA
100
AcDbPoint
 10
-52.85714285714266
 20
28.5
 30
0.0
  0
TEXT
  5
C05
330
B9E
100
AcDbEntity
  8
1
100
AcDbText
 10
-77.61097961686573
 20
26.43288406845113
 30
0.0
 40
1.5
  1
Peça:
 41
0.8
  7
SANINDUSA
 11
-77.61097961686573
 21
27.18288406845113
 31
0.0
100
AcDbText
 73
     2
  0
TEXT
  5
C06
330
B9E
100
AcDbEntity
  8
1
100
AcDbText
 10
-52.06538060077036
 20
26.43288406845113
 30
0.0
 40
1.5
  1
Alt.:
 41
0.8
  7
SANINDUSA
 11
-52.06538060077036
 21
27.18288406845113
 31
0.0
100
AcDbText
 73
     2
  0
LINE
  5
C07
330
B9E
100
AcDbEntity
  8
3
100
AcDbLine
 10
0.0
 20
12.0
 30
0.0
 11
-40.0
 21
12.0
 31
0.0
  0
LINE
  5
C08
330
B9E
100
AcDbEntity
  8
3
100
AcDbLine
 10
-40.0
 20
32.5
 30
0.0
 11
0.0
 21
32.5
 31
0.0
  0
TEXT
  5
C09
330
B9E
100
AcDbEntity
  8
1
100
AcDbText
 10
-19.0
 20
29.75
 30
0.0
 40
2.0
  1
Folha:
 41
0.8
  7
SANINDUSA
 11
-19.0
 21
30.75
 31
0.0
100
AcDbText
 73
     2
  0
LINE
  5
C0A
330
B9E
100
AcDbEntity
  8
3
100
AcDbLine
 10
-20.0
 20
32.5
 30
0.0
 11
-20.0
 21
20.0
 31
0.0
  0
TEXT
  5
C0B
330
B9E
100
AcDbEntity
  8
1
100
AcDbText
 10
-39.0
 20
29.75
 30
0.0
 40
2.0
  1
Escala:
 41
0.8
  7
SANINDUSA
 11
-39.0
 21
30.75
 31
0.0
100
AcDbText
 73
     2
  0
TEXT
  5
C0C
330
B9E
100
AcDbEntity
  8
1
100
AcDbText
 10
-39.0
 20
17.25
 30
0.0
 40
2.0
  1
Substitui:
 41
0.8
  7
SANINDUSA
 11
-39.0
 21
18.25
 31
0.0
100
AcDbText
 73
     2
  0
LWPOLYLINE
  5
C0D
102
{ACAD_REACTORS
330
BEC
102
}
330
B9E
100
AcDbEntity
  8
9
100
AcDbPolyline
 90
        6
 70
     1
 43
0.0
 10
-2.638748516194482
 20
57.02796337120571
 10
-2.638748516194482
 20
55.50786840766477
 10
-5.21497371544865
 20
55.507868407665
 42
-0.4142135623730898
 10
-5.614973715448741
 20
55.90786840766487
 10
-5.614973715448741
 20
56.62796337120562
 42
-0.4142135623731576
 10
-5.21497371544865
 20
57.02796337120571
  0
LINE
  5
C0E
330
B9E
100
AcDbEntity
  8
3
100
AcDbLine
 10
-40.0
 20
50.0
 30
0.0
 11
0.0
 21
50.0
 31
0.0
  0
ATTDEF
  5
C0F
330
B9E
100
AcDbEntity
  8
1
100
AcDbText
 10
-31.30691739422431
 20
40.25
 30
0.0
 40
2.0
  1
XXXXXXXXXXXXXXX
 41
0.8
  7
SANINDUSA
 72
     4
 11
-20.0
 21
41.25
 31
0.0
100
AcDbAttributeDefinition
  3
Observações:
  2
OBS
 70
     0
  0
TEXT
  5
C10
330
B9E
100
AcDbEntity
  8
1
100
AcDbText
 10
-39.0
 20
47.25
 30
0.0
 40
2.0
  1
Observações:
 41
0.8
  7
SANINDUSA
 11
-39.0
 21
48.25
 31
0.0
100
AcDbText
 73
     2
  0
LWPOLYLINE
  5
C11
102
{ACAD_REACTORS
330
BEC
102
}
330
B9E
100
AcDbEntity
  8
9
100
AcDbPolyline
 90
        6
 70
     1
 43
0.0
 10
-29.98468712904878
 20
57.02796337120571
 10
-29.98468712904878
 20
55.507868407665
 10
-32.57692046803459
 20
55.507868407665
 42
-0.4142135623731731
 10
-32.97692046803468
 20
55.90786840766487
 10
-32.97692046803468
 20
56.62796337120562
 42
-0.4142135623731576
 10
-32.57692046803459
 20
57.02796337120571
  0
LWPOLYLINE
  5
C12
102
{ACAD_REACTORS
330
BEC
102
}
330
B9E
100
AcDbEntity
  8
9
100
AcDbPolyline
 90
        4
 70
     1
 43
0.0
 10
-24.19231812786165
 20
59.87619128370352
 10
-24.57637781922995
 20
59.87619128370352
 10
-24.57637781922995
 20
59.28412752246913
 10
-24.19231812786165
 20
59.28412752246913
  0
ENDBLK
  5
C14
330
B9E
100
AcDbEntity
  8
0
100
AcDbBlockEnd
  0
ENDSEC
  0
SECTION
  2
ENTITIES
  0
ARC
  5
22D1
330
1F
100
AcDbEntity
  8
SANINDUSA
100
AcDbCircle
 10
5046.970048561943
 20
3078.82729716917
 30
0.0
 40
0.0239999961946377
100
AcDbArc
 50
189.9994398022094
 51
269.0682756826047
  0
ARC
  5
22D2
330
1F
100
AcDbEntity
  8
SANINDUSA
100
AcDbCircle
 10
5047.704165519871
 20
3078.827294517703
 30
0.0
 40
0.0239999990693242
100
AcDbArc
 50
270.6933779458203
 51
350.0001769935752
  0
LINE
  5
22D3
330
1F
100
AcDbEntity
  8
SANINDUSA
100
AcDbLine
 10
5047.262326528734
 20
3078.801570314134
 30
0.0
 11
5047.290014287945
 21
3078.800603436277
 31
0.0
  0
LINE
  5
22D4
330
1F
100
AcDbEntity
  8
SANINDUSA
100
AcDbLine
 10
5047.384200264313
 20
3078.800603436277
 30
0.0
 11
5047.412176935958
 21
3078.801580403178
 31
0.0
  0
LINE
  5
22D5
330
1F
100
AcDbEntity
  8
SANINDUSA
100
AcDbLine
 10
5047.290014287945
 20
3078.800603436277
 30
0.0
 11
5047.300368026629
 21
3078.78950041088
 31
0.0
  0
LINE
  5
22D6
330
1F
100
AcDbEntity
  8
SANINDUSA
100
AcDbLine
 10
5047.37384652563
 20
3078.78950041088
 30
0.0
 11
5047.384200264313
 21
3078.800603436277
 31
0.0
  0
LINE
  5
22D9
330
1F
100
AcDbEntity
  8
SANINDUSA
100
AcDbLine
 10
5046.891408312008
 20
3078.858941096771
 30
0.0
 11
5047.782806240251
 21
3078.858941096771
 31
0.0
  0
LINE
  5
22DC
330
1F
100
AcDbEntity
  8
SANINDUSA
100
AcDbLine
 10
5047.787261630017
 20
3078.890098168429
 30
0.0
 11
5047.787805478726
 21
3078.858941096771
 31
0.0
  0
LINE
  5
22DD
330
1F
100
AcDbEntity
  8
SANINDUSA
100
AcDbLine
 10
5047.782806240251
 20
3078.858941096771
 30
0.0
 11
5047.787805478726
 21
3078.858941096771
 31
0.0
  0
LINE
  5
22DF
330
1F
100
AcDbEntity
  8
SANINDUSA
100
AcDbLine
 10
5046.886409073533
 20
3078.858941096771
 30
0.0
 11
5046.886952922241
 21
3078.890098168429
 31
0.0
  0
LINE
  5
22E0
330
1F
100
AcDbEntity
  8
SANINDUSA
100
AcDbLine
 10
5046.886409073533
 20
3078.858941096771
 30
0.0
 11
5046.891408312008
 21
3078.858941096771
 31
0.0
  0
LINE
  5
22E1
330
1F
100
AcDbEntity
  8
SANINDUSA
100
AcDbLine
 10
5046.895951551498
 20
3078.898941096771
 30
0.0
 11
5047.778263000761
 21
3078.898941096771
 31
0.0
  0
ARC
  5
22E4
330
1F
100
AcDbEntity
  8
SANINDUSA
100
AcDbCircle
 10
5047.778263000761
 20
3078.889941096771
 30
0.0
 40
0.0090000000000001
100
AcDbArc
 50
1.000000009720081
 51
90.0
  0
ARC
  5
22E5
330
1F
100
AcDbEntity
  8
SANINDUSA
100
AcDbCircle
 10
5046.895951551498
 20
3078.889941096771
 30
0.0
 40
0.0090000000000001
100
AcDbArc
 50
90.0
 51
178.9999999902799
  0
LINE
  5
22E6
330
1F
100
AcDbEntity
  8
SANINDUSA
100
AcDbLine
 10
5046.94009864891
 20
3078.858941096771
 30
0.0
 11
5046.945046995432
 21
3078.830877629107
 31
0.0
  0
LINE
  5
22E7
330
1F
100
AcDbEntity
  8
SANINDUSA
100
AcDbLine
 10
5047.729168941113
 20
3078.83088547979
 30
0.0
 11
5047.734115903349
 21
3078.858941096771
 31
0.0
  0
LINE
  5
22F6
330
1F
100
AcDbEntity
  8
SANINDUSA
100
AcDbLine
 10
5046.945046995432
 20
3078.830877629107
 30
0.0
 11
5046.94640362586
 21
3078.823183795622
 31
0.0
  0
LINE
  5
22F7
330
1F
100
AcDbEntity
  8
SANINDUSA
100
AcDbLine
 10
5047.727814007117
 20
3078.823201267241
 30
0.0
 11
5047.729168941113
 21
3078.83088547979
 31
0.0
  0
LINE
  5
22F8
330
1F
100
AcDbEntity
  8
SANINDUSA
100
AcDbLine
 10
5047.337107276129
 20
3078.800603436277
 30
0.0
 11
5047.384200264313
 21
3078.800603436277
 31
0.0
  0
LINE
  5
22F9
330
1F
100
AcDbEntity
  8
SANINDUSA
100
AcDbLine
 10
5047.290014287945
 20
3078.800603436277
 30
0.0
 11
5047.337107276129
 21
3078.800603436277
 31
0.0
  0
LINE
  5
22FA
330
1F
100
AcDbEntity
  8
SANINDUSA
100
AcDbLine
 10
5047.337107276129
 20
3078.78950041088
 30
0.0
 11
5047.37384652563
 21
3078.78950041088
 31
0.0
  0
LINE
  5
22FB
330
1F
100
AcDbEntity
  8
SANINDUSA
100
AcDbLine
 10
5047.300368026629
 20
3078.78950041088
 30
0.0
 11
5047.337107276129
 21
3078.78950041088
 31
0.0
  0
ELLIPSE
  5
2318
330
1F
100
AcDbEntity
  8
SANINDUSA
100
AcDbEllipse
 10
5046.530068359873
 20
3079.200403341631
 30
0.0
 11
0.0076715688679884
 21
0.0076715688679884
 31
0.0
210
0.0
220
0.0
230
1.0
 40
0.9217238264485047
 41
5.512866274278633
 42
7.053504340080554
  0
LINE
  5
231A
330
1F
100
AcDbEntity
  8
SANINDUSA
100
AcDbLine
 10
5046.530650118192
 20
3079.21083317748
 30
0.0
 11
5045.752969019446
 21
3079.21083317748
 31
0.0
  0
ELLIPSE
  5
231C
330
1F
100
AcDbEntity
  8
SANINDUSA
100
AcDbEllipse
 10
5045.753550777764
 20
3079.200403341631
 30
0.0
 11
0.0076715688679883
 21
-0.0076715688679882
 31
0.0
210
0.0
220
0.0
230
1.0
 40
0.9217238264485308
 41
2.371273620688821
 42
3.911911686490734
  0
LINE
  5
231F
330
1F
100
AcDbEntity
  8
SANINDUSA
100
AcDbLine
 10
5046.540498195723
 20
3078.423304001203
 30
0.0
 11
5046.540498195723
 21
3079.20098509995
 31
0.0
  0
LINE
  5
2320
330
1F
100
AcDbEntity
  8
SANINDUSA
100
AcDbLine
 10
5045.743120941915
 20
3079.20098509995
 30
0.0
 11
5045.743120941915
 21
3078.423304001203
 31
0.0
  0
ELLIPSE
  5
2323
330
1F
100
AcDbEntity
  8
SANINDUSA
100
AcDbEllipse
 10
5046.530068359873
 20
3078.423885759521
 30
0.0
 11
-0.0076715688679883
 21
0.0076715688679883
 31
0.0
210
0.0
220
0.0
230
1.0
 40
0.9217238264485144
 41
2.371273620688834
 42
3.911911686490771
  0
ELLIPSE
  5
2324
330
1F
100
AcDbEntity
  8
SANINDUSA
100
AcDbEllipse
 10
5045.753550777764
 20
3078.423885759521
 30
0.0
 11
0.0076715688679883
 21
0.0076715688679883
 31
0.0
210
0.0
220
0.0
230
1.0
 40
0.9217238264485169
 41
2.371273620688821
 42
3.911911686490762
  0
LINE
  5
2326
330
1F
100
AcDbEntity
  8
SANINDUSA
100
AcDbLine
 10
5045.752969019446
 20
3078.413455923672
 30
0.0
 11
5046.530650118192
 21
3078.413455923672
 31
0.0
  0
LINE
  5
232D
330
1F
100
AcDbEntity
  8
SANINDUSA
100
AcDbLine
 10
5046.520749269412
 20
3079.2009323287
 30
0.0
 11
5046.530650118192
 21
3079.21083317748
 31
0.0
  0
LINE
  5
232E
330
1F
100
AcDbEntity
  8
SANINDUSA
100
AcDbLine
 10
5046.540498195723
 20
3079.20098509995
 30
0.0
 11
5046.530597346944
 21
3079.19108425117
 31
0.0
  0
LINE
  5
2330
330
1F
100
AcDbEntity
  8
SANINDUSA
100
AcDbLine
 10
5045.753021785055
 20
3079.19108425681
 30
0.0
 11
5045.743120941915
 21
3079.20098509995
 31
0.0
  0
LINE
  5
2331
330
1F
100
AcDbEntity
  8
SANINDUSA
100
AcDbLine
 10
5045.752969019446
 20
3079.21083317748
 30
0.0
 11
5045.762869862585
 21
3079.20093233434
 31
0.0
  0
ARC
  5
2332
330
1F
100
AcDbEntity
  8
SANINDUSA
100
AcDbCircle
 10
5046.519717515184
 20
3078.434236604211
 30
0.0
 40
0.0102210573549897
100
AcDbArc
 50
272.0544107740738
 51
357.9455892249921
  0
LINE
  5
2333
330
1F
100
AcDbEntity
  8
SANINDUSA
100
AcDbLine
 10
5046.529932002791
 20
3078.433870194133
 30
0.0
 11
5046.540498195723
 21
3078.423304001203
 31
0.0
  0
LINE
  5
2334
330
1F
100
AcDbEntity
  8
SANINDUSA
100
AcDbLine
 10
5046.530650118192
 20
3078.413455923672
 30
0.0
 11
5046.520083925262
 21
3078.424022116603
 31
0.0
  0
ARC
  5
2335
330
1F
100
AcDbEntity
  8
SANINDUSA
100
AcDbCircle
 10
5045.763903006742
 20
3078.434237988499
 30
0.0
 40
0.0102210573549765
100
AcDbArc
 50
182.0544107750078
 51
267.9455892259262
  0
LINE
  5
2336
330
1F
100
AcDbEntity
  8
SANINDUSA
100
AcDbLine
 10
5045.763536596663
 20
3078.42402350089
 30
0.0
 11
5045.752969019446
 21
3078.413455923672
 31
0.0
  0
LINE
  5
2337
330
1F
100
AcDbEntity
  8
SANINDUSA
100
AcDbLine
 10
5045.743120941915
 20
3078.423304001203
 30
0.0
 11
5045.753688519133
 21
3078.43387157842
 31
0.0
  0
LWPOLYLINE
  5
2339
330
1F
100
AcDbEntity
  8
SANINDUSA
100
AcDbPolyline
 90
        5
 70
   128
 43
0.0
 10
5045.762901252715
 20
3079.200902443807
 10
5045.86937242001
 20
3079.200902666041
 10
5046.090374205157
 20
3079.200886971745
 10
5046.438841313775
 20
3079.200904062543
 10
5046.520717880714
 20
3079.200902439469
  0
LWPOLYLINE
  5
233B
330
1F
100
AcDbEntity
  8
SANINDUSA
100
AcDbPolyline
 90
       11
 70
   128
 43
0.0
 10
5046.530597346944
 20
3079.19108425117
 10
5046.53008817238
 20
3079.018048635182
 10
5046.529741150067
 20
3078.897446856305
 10
5046.529654762075
 20
3078.86729637669
 10
5046.52874830996
 20
3078.589065826304
 10
5046.528641185666
 20
3078.563229791662
 10
5046.528563443133
 20
3078.537391046308
 10
5046.528598812804
 20
3078.511557383662
 10
5046.528827091134
 20
3078.485553277603
 10
5046.529271173936
 20
3078.4596270824
 10
5046.529932002791
 20
3078.433870194133
  0
LWPOLYLINE
  5
233C
330
1F
100
AcDbEntity
  8
SANINDUSA
100
AcDbPolyline
 90
       14
 70
   128
 43
0.0
 10
5045.753688519133
 20
3078.43387157842
 10
5045.754268587042
 20
3078.455779069158
 10
5045.754685908049
 20
3078.477809425903
 10
5045.754933653253
 20
3078.499361000111
 10
5045.755043113878
 20
3078.520954726423
 10
5045.755049327308
 20
3078.542576029122
 10
5045.75498733093
 20
3078.564210332492
 10
5045.75489216213
 20
3078.58584306082
 10
5045.754798858293
 20
3078.607459638388
 10
5045.754560242941
 20
3078.672434121072
 10
5045.754348632931
 20
3078.736642924745
 10
5045.753964703173
 20
3078.867296669411
 10
5045.753358103238
 20
3079.0775411425
 10
5045.753021785055
 20
3079.19108425681
  0
LINE
  5
233D
330
1F
100
AcDbEntity
  8
SANINDUSA
100
AcDbLine
 10
5045.763938799207
 20
3078.424302240288
 30
0.0
 11
5045.763536596663
 21
3078.42402350089
 31
0.0
  0
LWPOLYLINE
  5
233E
330
1F
100
AcDbEntity
  8
SANINDUSA
100
AcDbPolyline
 90
       12
 70
   128
 43
0.0
 10
5046.519682424803
 20
3078.424300398305
 10
5046.416991731266
 20
3078.424399777201
 10
5046.314304847821
 20
3078.424579685461
 10
5046.211635074198
 20
3078.42492108171
 10
5046.170556996866
 20
3078.425036041517
 10
5046.129469846391
 20
3078.425040827845
 10
5046.088381568909
 20
3078.424964360135
 10
5046.047300110561
 20
3078.424835557824
 10
5045.965155542947
 20
3078.424599536839
 10
5045.883003234417
 20
3078.424447845064
 10
5045.800848479506
 20
3078.424343186448
 10
5045.763938799207
 20
3078.424302240288
  0
LINE
  5
233F
330
1F
100
AcDbEntity
  8
SANINDUSA
100
AcDbLine
 10
5046.520083925262
 20
3078.424022116603
 30
0.0
 11
5046.519682424803
 21
3078.424300398305
 31
0.0
  0
ELLIPSE
  5
2341
330
1F
100
AcDbEntity
  8
SANINDUSA
100
AcDbEllipse
 10
5045.696112127862
 20
3079.257841991533
 30
0.0
 11
0.0035366109458463
 21
-0.0035366109458495
 31
0.0
210
0.0
220
0.0
230
1.0
 40
0.9996954598818728
 41
2.356346783440369
 42
3.926838523740132
  0
ELLIPSE
  5
2344
330
1F
100
AcDbEntity
  8
SANINDUSA
100
AcDbEllipse
 10
5046.587507009776
 20
3079.257841991533
 30
0.0
 11
0.0035366109458464
 21
0.0035366109458495
 31
0.0
210
0.0
220
0.0
230
1.0
 40
0.9996954598818653
 41
5.497939437029283
 42
7.068431177329062
  0
ELLIPSE
  5
2347
330
1F
100
AcDbEntity
  8
SANINDUSA
100
AcDbEllipse
 10
5045.696112127862
 20
3078.366447109619
 30
0.0
 11
0.0035366109458464
 21
0.0035366109458495
 31
0.0
210
0.0
220
0.0
230
1.0
 40
0.9996954598818794
 41
2.356346783439447
 42
3.926838523739239
  0
ELLIPSE
  5
234A
330
1F
100
AcDbEntity
  8
SANINDUSA
100
AcDbEllipse
 10
5046.587507009776
 20
3078.366447109619
 30
0.0
 11
0.0035366109458464
 21
-0.0035366109458496
 31
0.0
210
0.0
220
0.0
230
0.9999999999999998
 40
0.9996954598818597
 41
5.497939437030144
 42
7.068431177329921
  0
LINE
  5
234C
330
1F
100
AcDbEntity
  8
SANINDUSA
100
AcDbLine
 10
5046.58750853294
 20
3079.262842753173
 30
0.0
 11
5045.696110604698
 21
3079.262842753173
 31
0.0
  0
LINE
  5
234D
330
1F
100
AcDbEntity
  8
SANINDUSA
100
AcDbLine
 10
5046.592507771417
 20
3078.366445586455
 30
0.0
 11
5046.592507771417
 21
3079.257843514697
 31
0.0
  0
LINE
  5
234E
330
1F
100
AcDbEntity
  8
SANINDUSA
100
AcDbLine
 10
5045.691111366221
 20
3079.257843514697
 30
0.0
 11
5045.691111366221
 21
3078.366445586455
 31
0.0
  0
LINE
  5
234F
330
1F
100
AcDbEntity
  8
SANINDUSA
100
AcDbLine
 10
5045.696110604698
 20
3078.361446347979
 30
0.0
 11
5046.58750853294
 21
3078.361446347979
 31
0.0
  0
ARC
  5
235D
330
1F
100
AcDbEntity
  8
SANINDUSA
100
AcDbCircle
 10
5045.763319725043
 20
3079.190668350217
 30
0.0
 40
0.0102426456892213
100
AcDbArc
 50
92.34152136278281
 51
177.8236704194245
  0
ARC
  5
235E
330
1F
100
AcDbEntity
  8
SANINDUSA
100
AcDbCircle
 10
5046.520299410696
 20
3079.190668346697
 30
0.0
 40
0.0102426447761226
100
AcDbArc
 50
2.17632467783359
 51
87.65849136278173
  0
ARC
  5
236C
330
1F
100
AcDbEntity
  8
SANINDUSA
100
AcDbCircle
 10
5046.407311309048
 20
3079.077603875254
 30
0.0
 40
0.0025903367450173
100
AcDbArc
 50
0.0
 51
90.0001030739912
  0
LWPOLYLINE
  5
236F
330
1F
100
AcDbEntity
  8
SANINDUSA
100
AcDbPolyline
 90
        3
 70
   128
 43
0.0
 10
5046.396311766303
 20
3079.080194761318
 10
5046.404311755885
 20
3079.080194347084
 10
5046.407311304387
 20
3079.080194211999
  0
LWPOLYLINE
  5
2371
330
1F
100
AcDbEntity
  8
SANINDUSA
100
AcDbPolyline
 90
        3
 70
   128
 43
0.0
 10
5046.409901645792
 20
3079.077603920222
 10
5046.409901728035
 20
3079.069604875965
 10
5046.409901757245
 20
3079.066604737788
  0
ARC
  5
2373
330
1F
100
AcDbEntity
  8
SANINDUSA
100
AcDbCircle
 10
5046.396311613024
 20
3079.07760473859
 30
0.0
 40
0.0025900227324827
100
AcDbArc
 50
89.99660918877037
 51
180.0
  0
LWPOLYLINE
  5
2376
330
1F
100
AcDbEntity
  8
SANINDUSA
100
AcDbPolyline
 90
        3
 70
   128
 43
0.0
 10
5046.3937217824
 20
3079.066605665943
 10
5046.393721643486
 20
3079.074604694461
 10
5046.393721590295
 20
3079.077604828003
  0
ARC
  5
2377
330
1F
100
AcDbEntity
  8
SANINDUSA
100
AcDbCircle
 10
5045.876307357723
 20
3079.077605203635
 30
0.0
 40
0.0025904197005106
100
AcDbArc
 50
90.00119884744311
 51
180.0
  0
LWPOLYLINE
  5
2382
330
1F
100
AcDbEntity
  8
SANINDUSA
100
AcDbPolyline
 90
        3
 70
   128
 43
0.0
 10
5045.876307303521
 20
3079.080195623335
 10
5045.884307288556
 20
3079.080196116306
 10
5045.887306848761
 20
3079.080196320883
  0
LWPOLYLINE
  5
2385
330
1F
100
AcDbEntity
  8
SANINDUSA
100
AcDbPolyline
 90
        3
 70
   128
 43
0.0
 10
5045.873716782421
 20
3079.066606202579
 10
5045.873716894401
 20
3079.074605207609
 10
5045.873716938025
 20
3079.077605301647
  0
ARC
  5
2386
330
1F
100
AcDbEntity
  8
SANINDUSA
100
AcDbCircle
 10
5045.887307087703
 20
3079.077606405209
 30
0.0
 40
0.0025899156845003
100
AcDbArc
 50
0.0
 51
90.00528605949744
  0
LWPOLYLINE
  5
2388
330
1F
100
AcDbEntity
  8
SANINDUSA
100
AcDbPolyline
 90
        3
 70
   128
 43
0.0
 10
5045.889897003387
 20
3079.077606456909
 10
5045.889896831841
 20
3079.069607486478
 10
5045.889896768659
 20
3079.066607389775
  0
ARC
  5
2392
330
1F
100
AcDbEntity
  8
SANINDUSA
100
AcDbCircle
 10
5046.342313567743
 20
3079.077608822698
 30
0.0
 40
0.0025905710093326
100
AcDbArc
 50
0.0
 51
89.99927676242441
  0
LWPOLYLINE
  5
2395
330
1F
100
AcDbEntity
  8
SANINDUSA
100
AcDbPolyline
 90
        3
 70
   128
 43
0.0
 10
5046.331313857253
 20
3079.080200660482
 10
5046.339313811731
 20
3079.080199730516
 10
5046.342313600443
 20
3079.080199393707
  0
LWPOLYLINE
  5
2397
330
1F
100
AcDbEntity
  8
SANINDUSA
100
AcDbPolyline
 90
        3
 70
   128
 43
0.0
 10
5046.344904138751
 20
3079.077608893236
 10
5046.344904437543
 20
3079.069610008339
 10
5046.344904550246
 20
3079.066609991592
  0
ARC
  5
2399
330
1F
100
AcDbEntity
  8
SANINDUSA
100
AcDbCircle
 10
5046.407311675904
 20
3079.066604782752
 30
0.0
 40
0.0025900813425494
100
AcDbArc
 50
269.9973761468105
 51
0.0
  0
LWPOLYLINE
  5
239B
330
1F
100
AcDbEntity
  8
SANINDUSA
100
AcDbPolyline
 90
        3
 70
   128
 43
0.0
 10
5046.40731155729
 20
3079.064014701412
 10
5046.399311568513
 20
3079.064015104784
 10
5046.396312138508
 20
3079.064015278795
  0
ARC
  5
239D
330
1F
100
AcDbEntity
  8
SANINDUSA
100
AcDbCircle
 10
5046.396312207251
 20
3079.066605703646
 30
0.0
 40
0.0025904248514629
100
AcDbArc
 50
180.0
 51
269.9984795283539
  0
ARC
  5
239E
330
1F
100
AcDbEntity
  8
SANINDUSA
100
AcDbCircle
 10
5046.33131356905
 20
3079.077610875164
 30
0.0
 40
0.002589785334519
100
AcDbArc
 50
89.99362384705845
 51
180.0
  0
LWPOLYLINE
  5
23A1
330
1F
100
AcDbEntity
  8
SANINDUSA
100
AcDbPolyline
 90
        3
 70
   128
 43
0.0
 10
5046.328724247637
 20
3079.066612291519
 10
5046.328723909399
 20
3079.07461111518
 10
5046.328723783721
 20
3079.077611057121
  0
ARC
  5
23A3
330
1F
100
AcDbEntity
  8
SANINDUSA
100
AcDbCircle
 10
5045.87630677603
 20
3079.066606228872
 30
0.0
 40
0.0025899936085623
100
AcDbArc
 50
180.0
 51
270.0040457844347
  0
ARC
  5
23AC
330
1F
100
AcDbEntity
  8
SANINDUSA
100
AcDbCircle
 10
5045.941305292025
 20
3079.077610910911
 30
0.0
 40
0.0025906740887281
100
AcDbArc
 50
90.00236210361428
 51
180.0
  0
LWPOLYLINE
  5
23B0
330
1F
100
AcDbEntity
  8
SANINDUSA
100
AcDbPolyline
 90
        3
 70
   128
 43
0.0
 10
5045.887306387004
 20
3079.064016972723
 10
5045.879306407545
 20
3079.064016419989
 10
5045.876306958913
 20
3079.06401623527
  0
LWPOLYLINE
  5
23B1
330
1F
100
AcDbEntity
  8
SANINDUSA
100
AcDbPolyline
 90
        3
 70
   128
 43
0.0
 10
5045.94130518522
 20
3079.080201584997
 10
5045.949305133899
 20
3079.080202566856
 10
5045.952304988798
 20
3079.080202944391
  0
LWPOLYLINE
  5
23B4
330
1F
100
AcDbEntity
  8
SANINDUSA
100
AcDbPolyline
 90
        3
 70
   128
 43
0.0
 10
5045.938714175488
 20
3079.066612301539
 10
5045.938714497693
 20
3079.074611120141
 10
5045.938714617943
 20
3079.077611077794
  0
ARC
  5
23B5
330
1F
100
AcDbEntity
  8
SANINDUSA
100
AcDbCircle
 10
5045.887306269276
 20
3079.066607472105
 30
0.0
 40
0.0025904993838502
100
AcDbArc
 50
270.0026038428696
 51
0.0
  0
ARC
  5
23B6
330
1F
100
AcDbEntity
  8
SANINDUSA
100
AcDbCircle
 10
5045.952305406414
 20
3079.077613290442
 30
0.0
 40
0.0025896539826074
100
AcDbArc
 50
0.0
 51
90.00923966100282
  0
LWPOLYLINE
  5
23B8
330
1F
100
AcDbEntity
  8
SANINDUSA
100
AcDbPolyline
 90
        3
 70
   128
 43
0.0
 10
5045.954895060393
 20
3079.077613399352
 10
5045.954894705626
 20
3079.069614662508
 10
5045.954894571417
 20
3079.066614766512
  0
ARC
  5
23BA
330
1F
100
AcDbEntity
  8
SANINDUSA
100
AcDbCircle
 10
5046.34231476439
 20
3079.066610105722
 30
0.0
 40
0.0025897858587633
100
AcDbArc
 50
269.9937151962524
 51
0.0
  0
LWPOLYLINE
  5
23BC
330
1F
100
AcDbEntity
  8
SANINDUSA
100
AcDbPolyline
 90
        3
 70
   128
 43
0.0
 10
5046.342314480316
 20
3079.064020319879
 10
5046.334314538456
 20
3079.064021327365
 10
5046.331314814786
 20
3079.064021718638
  0
ARC
  5
23BE
330
1F
100
AcDbEntity
  8
SANINDUSA
100
AcDbCircle
 10
5046.331314907297
 20
3079.066612378297
 30
0.0
 40
0.0025906596613067
100
AcDbArc
 50
180.0
 51
269.9979539969066
  0
ARC
  5
23C7
330
1F
100
AcDbEntity
  8
SANINDUSA
100
AcDbCircle
 10
5046.277314428614
 20
3079.077617098454
 30
0.0
 40
0.002590610755544
100
AcDbArc
 50
0.0
 51
90.00138925814272
  0
LWPOLYLINE
  5
23CA
330
1F
100
AcDbEntity
  8
SANINDUSA
100
AcDbPolyline
 90
        3
 70
   128
 43
0.0
 10
5046.266314301679
 20
3079.080209195032
 10
5046.274314242761
 20
3079.080208115942
 10
5046.277314365799
 20
3079.080207709209
  0
LWPOLYLINE
  5
23CC
330
1F
100
AcDbEntity
  8
SANINDUSA
100
AcDbPolyline
 90
        3
 70
   128
 43
0.0
 10
5046.279905039366
 20
3079.07761723224
 10
5046.279905431326
 20
3079.069618670958
 10
5046.279905580647
 20
3079.066618961238
  0
ARC
  5
23CF
330
1F
100
AcDbEntity
  8
SANINDUSA
100
AcDbCircle
 10
5045.941303853876
 20
3079.06661237258
 30
0.0
 40
0.0025896783891908
100
AcDbArc
 50
180.0
 51
270.0085399251233
  0
LWPOLYLINE
  5
23D1
330
1F
100
AcDbEntity
  8
SANINDUSA
100
AcDbPolyline
 90
        3
 70
   128
 43
0.0
 10
5045.952303974426
 20
3079.064024193295
 10
5045.944304043817
 20
3079.064023094685
 10
5045.941304239867
 20
3079.064022694219
  0
ARC
  5
23D2
330
1F
100
AcDbEntity
  8
SANINDUSA
100
AcDbCircle
 10
5046.266313924538
 20
3079.077619474182
 30
0.0
 40
0.0025897208775421
100
AcDbArc
 50
89.99165600926009
 51
180.0
  0
LWPOLYLINE
  5
23D5
330
1F
100
AcDbEntity
  8
SANINDUSA
100
AcDbPolyline
 90
        3
 70
   128
 43
0.0
 10
5046.263724742221
 20
3079.066621719507
 10
5046.26372434875
 20
3079.074620190483
 10
5046.263724203682
 20
3079.077619800743
  0
ARC
  5
23D6
330
1F
100
AcDbEntity
  8
SANINDUSA
100
AcDbCircle
 10
5045.952303806931
 20
3079.066614957784
 30
0.0
 40
0.0025907644942419
100
AcDbArc
 50
270.0037042020209
 51
0.0
  0
ARC
  5
23D7
330
1F
100
AcDbEntity
  8
SANINDUSA
100
AcDbCircle
 10
5046.006304931063
 20
3079.077619414591
 30
0.0
 40
0.0025907401597392
100
AcDbArc
 50
90.00103490872906
 51
180.0
  0
LWPOLYLINE
  5
23E2
330
1F
100
AcDbEntity
  8
SANINDUSA
100
AcDbPolyline
 90
        3
 70
   128
 43
0.0
 10
5046.006304884267
 20
3079.08021015475
 10
5046.014304828446
 20
3079.08021121081
 10
5046.017305046785
 20
3079.080211600638
  0
LWPOLYLINE
  5
23E5
330
1F
100
AcDbEntity
  8
SANINDUSA
100
AcDbPolyline
 90
        3
 70
   128
 43
0.0
 10
5046.003713651842
 20
3079.066621588078
 10
5046.003714045635
 20
3079.074620060214
 10
5046.00371419092
 20
3079.077619715244
  0
ARC
  5
23E6
330
1F
100
AcDbEntity
  8
SANINDUSA
100
AcDbCircle
 10
5046.017305604237
 20
3079.0776220323
 30
0.0
 40
0.0025895683975044
100
AcDbArc
 50
0.0
 51
90.01233401731132
  0
LWPOLYLINE
  5
23E8
330
1F
100
AcDbEntity
  8
SANINDUSA
100
AcDbPolyline
 90
        3
 70
   128
 43
0.0
 10
5046.019895172629
 20
3079.077622222397
 10
5046.01989479269
 20
3079.069623852701
 10
5046.019894647543
 20
3079.066624284993
  0
ARC
  5
23EA
330
1F
100
AcDbEntity
  8
SANINDUSA
100
AcDbCircle
 10
5046.277315924196
 20
3079.066619222187
 30
0.0
 40
0.0025896564648079
100
AcDbArc
 50
269.9909677376261
 51
0.0
  0
LWPOLYLINE
  5
23EC
330
1F
100
AcDbEntity
  8
SANINDUSA
100
AcDbPolyline
 90
        3
 70
   128
 43
0.0
 10
5046.277315515954
 20
3079.064029565754
 10
5046.269315595951
 20
3079.06403077723
 10
5046.266315446913
 20
3079.064031229146
  0
ARC
  5
23F6
330
1F
100
AcDbEntity
  8
SANINDUSA
100
AcDbCircle
 10
5046.212313416922
 20
3079.077625336851
 30
0.0
 40
0.0025904255850669
100
AcDbArc
 50
0.0
 51
90.00569371765447
  0
LWPOLYLINE
  5
23F9
330
1F
100
AcDbEntity
  8
SANINDUSA
100
AcDbPolyline
 90
        3
 70
   128
 43
0.0
 10
5046.201312776007
 20
3079.080216831199
 10
5046.209312746793
 20
3079.080216065803
 10
5046.2123131595
 20
3079.080215762423
  0
LWPOLYLINE
  5
23FB
330
1F
100
AcDbEntity
  8
SANINDUSA
100
AcDbPolyline
 90
        3
 70
   128
 43
0.0
 10
5046.214903842497
 20
3079.077625547187
 10
5046.214904150678
 20
3079.069627358011
 10
5046.214904268572
 20
3079.066627959182
  0
ARC
  5
23FD
330
1F
100
AcDbEntity
  8
SANINDUSA
100
AcDbCircle
 10
5046.266315402688
 20
3079.066621889618
 30
0.0
 40
0.0025906604728457
100
AcDbArc
 50
180.0
 51
270.0009781086024
  0
ARC
  5
23FE
330
1F
100
AcDbEntity
  8
SANINDUSA
100
AcDbCircle
 10
5046.201312401154
 20
3079.077626948532
 30
0.0
 40
0.0025898826939792
100
AcDbArc
 50
89.99170712937727
 51
179.9898577641323
  0
LWPOLYLINE
  5
2401
330
1F
100
AcDbEntity
  8
SANINDUSA
100
AcDbPolyline
 90
        3
 70
   128
 43
0.0
 10
5046.198722881982
 20
3079.066629964867
 10
5046.198722616237
 20
3079.074628077925
 10
5046.1987225185
 20
3079.077627406981
  0
ARC
  5
2402
330
1F
100
AcDbEntity
  8
SANINDUSA
100
AcDbCircle
 10
5046.071306570992
 20
3079.077626982285
 30
0.0
 40
0.002590565765096
100
AcDbArc
 50
89.99769907376975
 51
179.9902124262108
  0
ARC
  5
240E
330
1F
100
AcDbEntity
  8
SANINDUSA
100
AcDbCircle
 10
5046.006303172454
 20
3079.066621742156
 30
0.0
 40
0.0025895206173149
100
AcDbArc
 50
180.0
 51
270.0125341205163
  0
LWPOLYLINE
  5
240F
330
1F
100
AcDbEntity
  8
SANINDUSA
100
AcDbPolyline
 90
        3
 70
   128
 43
0.0
 10
5046.071306675025
 20
3079.080217548048
 10
5046.079306655637
 20
3079.080218184804
 10
5046.082307146946
 20
3079.080218403186
  0
LWPOLYLINE
  5
2412
330
1F
100
AcDbEntity
  8
SANINDUSA
100
AcDbPolyline
 90
        3
 70
   128
 43
0.0
 10
5046.068715637151
 20
3079.066629955279
 10
5046.068715906578
 20
3079.074628062837
 10
5046.068716005265
 20
3079.077627424782
  0
LWPOLYLINE
  5
2414
330
1F
100
AcDbEntity
  8
SANINDUSA
100
AcDbPolyline
 90
        3
 70
   128
 43
0.0
 10
5046.017303923235
 20
3079.064033844428
 10
5046.009303997532
 20
3079.064032668569
 10
5046.006303738941
 20
3079.064032221601
  0
ARC
  5
2415
330
1F
100
AcDbEntity
  8
SANINDUSA
100
AcDbCircle
 10
5046.082307730548
 20
3079.077628669582
 30
0.0
 40
0.0025897336709708
100
AcDbArc
 50
0.0
 51
90.01291171109071
  0
LWPOLYLINE
  5
2417
330
1F
100
AcDbEntity
  8
SANINDUSA
100
AcDbPolyline
 90
        3
 70
   128
 43
0.0
 10
5046.084897464207
 20
3079.077628923665
 10
5046.084897254311
 20
3079.069630884386
 10
5046.084897173564
 20
3079.06663158256
  0
ARC
  5
2419
330
1F
100
AcDbEntity
  8
SANINDUSA
100
AcDbCircle
 10
5046.017303846617
 20
3079.066624645379
 30
0.0
 40
0.0025908009524182
100
AcDbArc
 50
270.0016944676302
 51
0.0
  0
ARC
  5
241A
330
1F
100
AcDbEntity
  8
SANINDUSA
100
AcDbCircle
 10
5046.147310820051
 20
3079.077629929166
 30
0.0
 40
0.0025900863885914
100
AcDbArc
 50
0.0
 51
90.01030500210875
  0
ARC
  5
2425
330
1F
100
AcDbEntity
  8
SANINDUSA
100
AcDbCircle
 10
5046.136309529612
 20
3079.077629969647
 30
0.0
 40
0.0025902113935582
100
AcDbArc
 50
89.9940399470717
 51
179.9887359095025
  0
LWPOLYLINE
  5
2428
330
1F
100
AcDbEntity
  8
SANINDUSA
100
AcDbPolyline
 90
        3
 70
   128
 43
0.0
 10
5046.136309799051
 20
3079.080220181027
 10
5046.144309798667
 20
3079.08022007813
 10
5046.147310354208
 20
3079.080220015513
  0
LWPOLYLINE
  5
2429
330
1F
100
AcDbEntity
  8
SANINDUSA
100
AcDbPolyline
 90
        3
 70
   128
 43
0.0
 10
5046.149900906428
 20
3079.077630189134
 10
5046.14990098635
 20
3079.069632223949
 10
5046.149901016769
 20
3079.066632983904
  0
LWPOLYLINE
  5
242C
330
1F
100
AcDbEntity
  8
SANINDUSA
100
AcDbPolyline
 90
        3
 70
   128
 43
0.0
 10
5046.133719333266
 20
3079.066633293237
 10
5046.133719322579
 20
3079.074631245307
 10
5046.13371931827
 20
3079.077630478839
  0
ARC
  5
242D
330
1F
100
AcDbEntity
  8
SANINDUSA
100
AcDbCircle
 10
5046.212314487409
 20
3079.06662838607
 30
0.0
 40
0.0025897811990326
100
AcDbArc
 50
269.9904517944518
 51
359.990555624044
  0
LWPOLYLINE
  5
242F
330
1F
100
AcDbEntity
  8
SANINDUSA
100
AcDbPolyline
 90
        3
 70
   128
 43
0.0
 10
5046.212314055828
 20
3079.064038604907
 10
5046.204314098026
 20
3079.064039494046
 10
5046.201313576517
 20
3079.064039808703
  0
ARC
  5
262A
330
1F
100
AcDbEntity
  8
SANINDUSA
100
AcDbCircle
 10
5046.201313286208
 20
3079.066630212925
 30
0.0
 40
0.0025904042388518
100
AcDbArc
 50
180.0
 51
270.0064211761609
  0
ARC
  5
262C
330
1F
100
AcDbEntity
  8
SANINDUSA
100
AcDbCircle
 10
5046.071305270888
 20
3079.066630194681
 30
0.0
 40
0.0025896337483162
100
AcDbArc
 50
180.0
 51
270.0140678281987
  0
LWPOLYLINE
  5
262E
330
1F
100
AcDbEntity
  8
SANINDUSA
100
AcDbPolyline
 90
        3
 70
   128
 43
0.0
 10
5046.08230649674
 20
3079.064041533045
 10
5046.074306521073
 20
3079.064040842613
 10
5046.071305906721
 20
3079.064040561011
  0
ARC
  5
262F
330
1F
100
AcDbEntity
  8
SANINDUSA
100
AcDbCircle
 10
5046.082306619475
 20
3079.06663208718
 30
0.0
 40
0.0025905541383248
100
AcDbArc
 50
269.9972854229387
 51
359.9888391919326
  0
ARC
  5
2630
330
1F
100
AcDbEntity
  8
SANINDUSA
100
AcDbCircle
 10
5046.407311756485
 20
3079.012607921115
 30
0.0
 40
0.0025903380398341
100
AcDbArc
 50
0.0
 51
89.99716744542814
  0
LWPOLYLINE
  5
263B
330
1F
100
AcDbEntity
  8
SANINDUSA
100
AcDbPolyline
 90
        3
 70
   128
 43
0.0
 10
5046.396312717532
 20
3079.015198873852
 10
5046.404312697831
 20
3079.015198403045
 10
5046.407311884546
 20
3079.015198259151
  0
LWPOLYLINE
  5
263D
330
1F
100
AcDbEntity
  8
SANINDUSA
100
AcDbPolyline
 90
        3
 70
   128
 43
0.0
 10
5046.409902094526
 20
3079.012607927186
 10
5046.409902108361
 20
3079.004608747573
 10
5046.409902110816
 20
3079.001608395988
  0
ARC
  5
263F
330
1F
100
AcDbEntity
  8
SANINDUSA
100
AcDbCircle
 10
5046.396312560087
 20
3079.012608890743
 30
0.0
 40
0.0025899831145892
100
AcDbArc
 50
89.99651700581118
 51
180.0
  0
LWPOLYLINE
  5
2642
330
1F
100
AcDbEntity
  8
SANINDUSA
100
AcDbPolyline
 90
        3
 70
   128
 43
0.0
 10
5046.393722700034
 20
3079.001609312482
 10
5046.393722612058
 20
3079.009608490129
 10
5046.393722576972
 20
3079.012608863125
  0
ARC
  5
2643
330
1F
100
AcDbEntity
  8
SANINDUSA
100
AcDbCircle
 10
5046.147310888319
 20
3079.06663351347
 30
0.0
 40
0.0025901285044839
100
AcDbArc
 50
269.9928127516658
 51
359.9882853646333
  0
ARC
  5
2646
330
1F
100
AcDbEntity
  8
SANINDUSA
100
AcDbCircle
 10
5046.136309333563
 20
3079.066633570429
 30
0.0
 40
0.0025900003121169
100
AcDbArc
 50
180.0
 51
270.0117047865376
  0
LWPOLYLINE
  5
2647
330
1F
100
AcDbEntity
  8
SANINDUSA
100
AcDbPolyline
 90
        3
 70
   128
 43
0.0
 10
5046.14731056341
 20
3079.064043384986
 10
5046.139310564504
 20
3079.064043539736
 10
5046.136309862666
 20
3079.064043570171
  0
ARC
  5
2648
330
1F
100
AcDbEntity
  8
SANINDUSA
100
AcDbCircle
 10
5045.876306618615
 20
3079.012609714757
 30
0.0
 40
0.0025903901393598
100
AcDbArc
 50
90.00345985725498
 51
180.0
  0
LWPOLYLINE
  5
2653
330
1F
100
AcDbEntity
  8
SANINDUSA
100
AcDbPolyline
 90
        3
 70
   128
 43
0.0
 10
5045.876306462192
 20
3079.015200104892
 10
5045.884306433855
 20
3079.015200672567
 10
5045.887305643955
 20
3079.015200917313
  0
LWPOLYLINE
  5
2656
330
1F
100
AcDbEntity
  8
SANINDUSA
100
AcDbPolyline
 90
        3
 70
   128
 43
0.0
 10
5045.87371616869
 20
3079.001610244882
 10
5045.873716210106
 20
3079.009609398016
 10
5045.873716228475
 20
3079.012609725697
  0
ARC
  5
2657
330
1F
100
AcDbEntity
  8
SANINDUSA
100
AcDbCircle
 10
5045.887305847452
 20
3079.012610999188
 30
0.0
 40
0.0025899181335892
100
AcDbArc
 50
0.0
 51
90.00450190508514
  0
LWPOLYLINE
  5
2659
330
1F
100
AcDbEntity
  8
SANINDUSA
100
AcDbPolyline
 90
        3
 70
   128
 43
0.0
 10
5045.889895765585
 20
3079.012610979335
 10
5045.889895643409
 20
3079.004611849208
 10
5045.889895599702
 20
3079.001611489788
  0
ARC
  5
265F
330
1F
100
AcDbEntity
  8
SANINDUSA
100
AcDbCircle
 10
5046.40731202504
 20
3079.001608323194
 30
0.0
 40
0.0025900857765741
100
AcDbArc
 50
269.9980045959184
 51
0.0
  0
LWPOLYLINE
  5
2661
330
1F
100
AcDbEntity
  8
SANINDUSA
100
AcDbPolyline
 90
        3
 70
   128
 43
0.0
 10
5046.407311934839
 20
3078.99901823742
 10
5046.39931195249
 20
3078.999018654076
 10
5046.39631292331
 20
3078.999018846231
  0
ARC
  5
2665
330
1F
100
AcDbEntity
  8
SANINDUSA
100
AcDbCircle
 10
5046.396313157398
 20
3079.001609303585
 30
0.0
 40
0.0025904573647856
100
AcDbArc
 50
180.0
 51
269.9948223818471
  0
ARC
  5
2669
330
1F
100
AcDbEntity
  8
SANINDUSA
100
AcDbCircle
 10
5045.876306212442
 20
3079.001610201203
 30
0.0
 40
0.0025900437521251
100
AcDbArc
 50
180.0
 51
270.0024680436668
  0
LWPOLYLINE
  5
266B
330
1F
100
AcDbEntity
  8
SANINDUSA
100
AcDbPolyline
 90
        3
 70
   128
 43
0.0
 10
5045.887305350905
 20
3078.99902097539
 10
5045.879305386413
 20
3078.999020354511
 10
5045.87630632401
 20
3078.999020157453
  0
ARC
  5
266C
330
1F
100
AcDbEntity
  8
SANINDUSA
100
AcDbCircle
 10
5046.342315888704
 20
3079.012614350698
 30
0.0
 40
0.0025907435772087
100
AcDbArc
 50
0.0
 51
89.99421785132055
  0
LWPOLYLINE
  5
2677
330
1F
100
AcDbEntity
  8
SANINDUSA
100
AcDbPolyline
 90
        3
 70
   128
 43
0.0
 10
5046.331316655949
 20
3079.015206918287
 10
5046.339316535653
 20
3079.0152055761
 10
5046.342316150155
 20
3079.015205094262
  0
LWPOLYLINE
  5
2679
330
1F
100
AcDbEntity
  8
SANINDUSA
100
AcDbPolyline
 90
        3
 70
   128
 43
0.0
 10
5046.34490663228
 20
3079.012614387306
 10
5046.344906947796
 20
3079.004615334338
 10
5046.344907066496
 20
3079.001615058245
  0
ARC
  5
267B
330
1F
100
AcDbEntity
  8
SANINDUSA
100
AcDbCircle
 10
5045.887305107926
 20
3079.001611467154
 30
0.0
 40
0.0025904917752356
100
AcDbArc
 50
270.0053741257484
 51
0.0
  0
ARC
  5
267E
330
1F
100
AcDbEntity
  8
SANINDUSA
100
AcDbCircle
 10
5046.331316268184
 20
3079.012617305318
 30
0.0
 40
0.002589612998617
100
AcDbArc
 50
89.9914206274497
 51
180.0
  0
LWPOLYLINE
  5
2681
330
1F
100
AcDbEntity
  8
SANINDUSA
100
AcDbPolyline
 90
        3
 70
   128
 43
0.0
 10
5046.328727172607
 20
3079.001618190373
 10
5046.328726795421
 20
3079.009617184054
 10
5046.328726655186
 20
3079.012617376172
  0
ARC
  5
2685
330
1F
100
AcDbEntity
  8
SANINDUSA
100
AcDbCircle
 10
5045.941302758439
 20
3079.012617161972
 30
0.0
 40
0.0025908135221675
100
AcDbArc
 50
90.00662065403838
 51
180.0
  0
LWPOLYLINE
  5
2692
330
1F
100
AcDbEntity
  8
SANINDUSA
100
AcDbPolyline
 90
        3
 70
   128
 43
0.0
 10
5045.941302459065
 20
3079.015207975477
 10
5045.949302325983
 20
3079.015209378202
 10
5045.952302039808
 20
3079.015209922123
  0
LWPOLYLINE
  5
2695
330
1F
100
AcDbEntity
  8
SANINDUSA
100
AcDbPolyline
 90
        3
 70
   128
 43
0.0
 10
5045.938711480689
 20
3079.001618016441
 10
5045.938711818549
 20
3079.009617019744
 10
5045.938711944918
 20
3079.012617248563
  0
ARC
  5
269E
330
1F
100
AcDbEntity
  8
SANINDUSA
100
AcDbCircle
 10
5045.952302520611
 20
3079.012620397719
 30
0.0
 40
0.0025895244481671
100
AcDbArc
 50
0.0
 51
90.01063824689223
  0
ARC
  5
26A0
330
1F
100
AcDbEntity
  8
SANINDUSA
100
AcDbCircle
 10
5046.342317427264
 20
3079.001615045483
 30
0.0
 40
0.0025896392323916
100
AcDbArc
 50
269.9920217187029
 51
0.0
  0
LWPOLYLINE
  5
26A2
330
1F
100
AcDbEntity
  8
SANINDUSA
100
AcDbPolyline
 90
        3
 70
   128
 43
0.0
 10
5045.954892045059
 20
3079.012620437569
 10
5045.954891653003
 20
3079.004621518087
 10
5045.954891504808
 20
3079.001621355352
  0
LWPOLYLINE
  5
26A4
330
1F
100
AcDbEntity
  8
SANINDUSA
100
AcDbPolyline
 90
        3
 70
   128
 43
0.0
 10
5046.342317066662
 20
3078.999025406276
 10
5046.334317206312
 20
3078.999026817803
 10
5046.331317694352
 20
3078.999027371045
  0
ARC
  5
26A8
330
1F
100
AcDbEntity
  8
SANINDUSA
100
AcDbCircle
 10
5046.331318044281
 20
3079.001618242698
 30
0.0
 40
0.0025908716756099
100
AcDbArc
 50
180.0
 51
269.9922614777708
  0
ARC
  5
26AB
330
1F
100
AcDbEntity
  8
SANINDUSA
100
AcDbCircle
 10
5045.941301062875
 20
3079.001618011957
 30
0.0
 40
0.0025895821840554
100
AcDbArc
 50
180.0
 51
270.009230906488
  0
LWPOLYLINE
  5
26AE
330
1F
100
AcDbEntity
  8
SANINDUSA
100
AcDbPolyline
 90
        3
 70
   128
 43
0.0
 10
5045.952300949193
 20
3078.999030524455
 10
5045.944301115329
 20
3078.999028985583
 10
5045.941301480081
 20
3078.999028429806
  0
ARC
  5
26B6
330
1F
100
AcDbEntity
  8
SANINDUSA
100
AcDbCircle
 10
5045.95230056752
 20
3079.001621461715
 30
0.0
 40
0.0025909372886747
100
AcDbArc
 50
270.0084402382929
 51
0.0
  0
ARC
  5
26BC
330
1F
100
AcDbEntity
  8
SANINDUSA
100
AcDbCircle
 10
5046.277317637461
 20
3079.012626589451
 30
0.0
 40
0.0025908835243936
100
AcDbArc
 50
0.0
 51
89.99638777249582
  0
LWPOLYLINE
  5
26C8
330
1F
100
AcDbEntity
  8
SANINDUSA
100
AcDbPolyline
 90
        3
 70
   128
 43
0.0
 10
5046.266317727861
 20
3079.015219756307
 10
5046.274317556974
 20
3079.015218096554
 10
5046.277317800805
 20
3079.01521747297
  0
LWPOLYLINE
  5
26CA
330
1F
100
AcDbEntity
  8
SANINDUSA
100
AcDbPolyline
 90
        3
 70
   128
 43
0.0
 10
5046.279908520983
 20
3079.012626710284
 10
5046.279909003387
 20
3079.004628009188
 10
5046.27990918779
 20
3079.001628118975
  0
ARC
  5
26CD
330
1F
100
AcDbEntity
  8
SANINDUSA
100
AcDbCircle
 10
5046.26631719562
 20
3079.012630257284
 30
0.0
 40
0.0025894990774936
100
AcDbArc
 50
89.98822350981255
 51
180.0
  0
LWPOLYLINE
  5
26D0
330
1F
100
AcDbEntity
  8
SANINDUSA
100
AcDbPolyline
 90
        3
 70
   128
 43
0.0
 10
5046.263728373725
 20
3079.001632185056
 10
5046.263727878411
 20
3079.009630779969
 10
5046.263727696556
 20
3079.012630530379
  0
ARC
  5
26D1
330
1F
100
AcDbEntity
  8
SANINDUSA
100
AcDbCircle
 10
5046.006301718827
 20
3079.012629695179
 30
0.0
 40
0.0025909944522216
100
AcDbArc
 50
90.00544770536164
 51
180.0
  0
LWPOLYLINE
  5
26DE
330
1F
100
AcDbEntity
  8
SANINDUSA
100
AcDbPolyline
 90
        3
 70
   128
 43
0.0
 10
5046.006301472473
 20
3079.015220689619
 10
5046.014301308389
 20
3079.01522231799
 10
5046.017301688483
 20
3079.015222922143
  0
LWPOLYLINE
  5
26E1
330
1F
100
AcDbEntity
  8
SANINDUSA
100
AcDbPolyline
 90
        3
 70
   128
 43
0.0
 10
5046.003710065132
 20
3079.00163147078
 10
5046.003710546811
 20
3079.009630102584
 10
5046.003710724388
 20
3079.012629957719
  0
ARC
  5
26E9
330
1F
100
AcDbEntity
  8
SANINDUSA
100
AcDbCircle
 10
5046.017302380576
 20
3079.012633545176
 30
0.0
 40
0.0025893770593108
100
AcDbArc
 50
0.0
 51
90.01531414808033
  0
LWPOLYLINE
  5
26ED
330
1F
100
AcDbEntity
  8
SANINDUSA
100
AcDbPolyline
 90
        3
 70
   128
 43
0.0
 10
5046.019891757632
 20
3079.012633698962
 10
5046.019891280456
 20
3079.004635189844
 10
5046.01989109795
 20
3079.001635448638
  0
ARC
  5
26EF
330
1F
100
AcDbEntity
  8
SANINDUSA
100
AcDbCircle
 10
5046.277319769232
 20
3079.001628299856
 30
0.0
 40
0.0025894185642145
100
AcDbArc
 50
269.9875876610424
 51
0.0
  0
LWPOLYLINE
  5
26F3
330
1F
100
AcDbEntity
  8
SANINDUSA
100
AcDbPolyline
 90
        3
 70
   128
 43
0.0
 10
5046.277319208272
 20
3078.999038881353
 10
5046.269319422734
 20
3078.999040708439
 10
5046.26631914947
 20
3078.999041392457
  0
ARC
  5
26FA
330
1F
100
AcDbEntity
  8
SANINDUSA
100
AcDbCircle
 10
5046.40731158551
 20
3078.94760984502
 30
0.0
 40
0.0025902770177882
100
AcDbArc
 50
0.0
 51
89.99456579118215
  0
LWPOLYLINE
  5
2705
330
1F
100
AcDbEntity
  8
SANINDUSA
100
AcDbPolyline
 90
        3
 70
   128
 43
0.0
 10
5046.396313146673
 20
3078.950200636626
 10
5046.404313124313
 20
3078.950200227577
 10
5046.407311831185
 20
3078.950200122026
  0
LWPOLYLINE
  5
2707
330
1F
100
AcDbEntity
  8
SANINDUSA
100
AcDbPolyline
 90
        3
 70
   128
 43
0.0
 10
5046.409901862528
 20
3078.9476098039
 10
5046.409901771448
 20
3078.939610476258
 10
5046.409901733176
 20
3078.936609929745
  0
ARC
  5
2709
330
1F
100
AcDbEntity
  8
SANINDUSA
100
AcDbCircle
 10
5046.396313019634
 20
3078.947610654535
 30
0.0
 40
0.0025899820936087
100
AcDbArc
 50
89.99718959226646
 51
180.0
  0
ARC
  5
270B
330
1F
100
AcDbEntity
  8
SANINDUSA
100
AcDbCircle
 10
5046.266319335944
 20
3079.001632354675
 30
0.0
 40
0.00259096222462
100
AcDbArc
 50
180.0
 51
269.9958763629149
  0
LWPOLYLINE
  5
270E
330
1F
100
AcDbEntity
  8
SANINDUSA
100
AcDbPolyline
 90
        3
 70
   128
 43
0.0
 10
5046.393723038577
 20
3078.936610536421
 10
5046.393723040467
 20
3078.944609878495
 10
5046.393723037546
 20
3078.947610490206
  0
ARC
  5
2711
330
1F
100
AcDbEntity
  8
SANINDUSA
100
AcDbCircle
 10
5046.006299391116
 20
3079.001631575126
 30
0.0
 40
0.0025893259863156
100
AcDbArc
 50
180.0
 51
270.0152315012866
  0
LWPOLYLINE
  5
2713
330
1F
100
AcDbEntity
  8
SANINDUSA
100
AcDbPolyline
 90
        3
 70
   128
 43
0.0
 10
5046.017300296011
 20
3078.999044702401
 10
5046.009300498572
 20
3078.999042922372
 10
5046.006300079461
 20
3078.999042249231
  0
ARC
  5
2714
330
1F
100
AcDbEntity
  8
SANINDUSA
100
AcDbCircle
 10
5045.876306484514
 20
3078.947611888656
 30
0.0
 40
0.002590294614138
100
AcDbArc
 50
90.00526214091211
 51
180.0
  0
LWPOLYLINE
  5
271F
330
1F
100
AcDbEntity
  8
SANINDUSA
100
AcDbPolyline
 90
        3
 70
   128
 43
0.0
 10
5045.876306246616
 20
3078.950202183259
 10
5045.884306212533
 20
3078.950202713654
 10
5045.887304941753
 20
3078.950202960255
  0
LWPOLYLINE
  5
2722
330
1F
100
AcDbEntity
  8
SANINDUSA
100
AcDbPolyline
 90
        3
 70
   128
 43
0.0
 10
5045.873716263415
 20
3078.936611916667
 10
5045.873716207399
 20
3078.944611234765
 10
5045.873716189902
 20
3078.947611792104
  0
ARC
  5
2725
330
1F
100
AcDbEntity
  8
SANINDUSA
100
AcDbCircle
 10
5045.887305063489
 20
3078.947612998714
 30
0.0
 40
0.0025899615428047
100
AcDbArc
 50
0.0
 51
90.00269310765565
  0
LWPOLYLINE
  5
2727
330
1F
100
AcDbEntity
  8
SANINDUSA
100
AcDbPolyline
 90
        3
 70
   128
 43
0.0
 10
5045.88989502503
 20
3078.947612897638
 10
5045.889894978283
 20
3078.939613586455
 10
5045.889894963732
 20
3078.936612968105
  0
ARC
  5
2729
330
1F
100
AcDbEntity
  8
SANINDUSA
100
AcDbCircle
 10
5046.407311596259
 20
3078.936609731711
 30
0.0
 40
0.0025901369246968
100
AcDbArc
 50
269.9994897889543
 51
0.0
  0
ARC
  5
272D
330
1F
100
AcDbEntity
  8
SANINDUSA
100
AcDbCircle
 10
5046.017300012726
 20
3079.001635787631
 30
0.0
 40
0.0025910852455413
100
AcDbArc
 50
270.0062641681054
 51
0.0
  0
ARC
  5
272E
330
1F
100
AcDbEntity
  8
SANINDUSA
100
AcDbCircle
 10
5046.212315978429
 20
3079.012639319371
 30
0.0
 40
0.0025906577899161
100
AcDbArc
 50
0.0
 51
90.00297335635341
  0
LWPOLYLINE
  5
2739
330
1F
100
AcDbEntity
  8
SANINDUSA
100
AcDbPolyline
 90
        3
 70
   128
 43
0.0
 10
5046.407311573194
 20
3078.934019594786
 10
5046.39931158883
 20
3078.93401988917
 10
5046.396313074448
 20
3078.934020051163
  0
LWPOLYLINE
  5
273B
330
1F
100
AcDbEntity
  8
SANINDUSA
100
AcDbPolyline
 90
        3
 70
   128
 43
0.0
 10
5046.201315168878
 20
3079.015231651442
 10
5046.209315081473
 20
3079.015230452363
 10
5046.212315843987
 20
3079.015229977157
  0
LWPOLYLINE
  5
273D
330
1F
100
AcDbEntity
  8
SANINDUSA
100
AcDbPolyline
 90
        3
 70
   128
 43
0.0
 10
5046.214906636208
 20
3079.012639547568
 10
5046.214907029145
 20
3079.004641302346
 10
5046.21490717963
 20
3079.001641852242
  0
ARC
  5
273F
330
1F
100
AcDbEntity
  8
SANINDUSA
100
AcDbCircle
 10
5046.396313459311
 20
3078.936610471867
 30
0.0
 40
0.0025904207332889
100
AcDbArc
 50
180.0
 51
269.9914874848457
  0
ARC
  5
2743
330
1F
100
AcDbEntity
  8
SANINDUSA
100
AcDbCircle
 10
5046.201314658857
 20
3079.012641895893
 30
0.0
 40
0.0025897555987197
100
AcDbArc
 50
89.98871626394945
 51
179.9894031546672
  0
LWPOLYLINE
  5
2747
330
1F
100
AcDbEntity
  8
SANINDUSA
100
AcDbPolyline
 90
        3
 70
   128
 43
0.0
 10
5046.198725371588
 20
3079.001644869559
 10
5046.198725028915
 20
3079.009643018779
 10
5046.198724903303
 20
3079.012642374836
  0
ARC
  5
274B
330
1F
100
AcDbEntity
  8
SANINDUSA
100
AcDbCircle
 10
5045.876306400327
 20
3078.936611797815
 30
0.0
 40
0.0025901369142253
100
AcDbArc
 50
180.0
 51
269.9998176142724
  0
ARC
  5
274C
330
1F
100
AcDbEntity
  8
SANINDUSA
100
AcDbCircle
 10
5046.071304344761
 20
3079.012641548446
 30
0.0
 40
0.0025908042188255
100
AcDbArc
 50
90.00008837891256
 51
179.989701485612
  0
LWPOLYLINE
  5
2758
330
1F
100
AcDbEntity
  8
SANINDUSA
100
AcDbPolyline
 90
        3
 70
   128
 43
0.0
 10
5045.887304894374
 20
3078.934022402228
 10
5045.879304935503
 20
3078.934021825127
 10
5045.876306392081
 20
3078.9340216609
  0
LWPOLYLINE
  5
2759
330
1F
100
AcDbEntity
  8
SANINDUSA
100
AcDbPolyline
 90
        3
 70
   128
 43
0.0
 10
5046.071304340766
 20
3079.015232352665
 10
5046.079304278406
 20
3079.015233390917
 10
5046.082305162123
 20
3079.015233748926
  0
LWPOLYLINE
  5
275C
330
1F
100
AcDbEntity
  8
SANINDUSA
100
AcDbPolyline
 90
        3
 70
   128
 43
0.0
 10
5046.068713043755
 20
3079.001644382221
 10
5046.068713407716
 20
3079.009642562754
 10
5046.068713540585
 20
3079.012642014103
  0
ARC
  5
2760
330
1F
100
AcDbEntity
  8
SANINDUSA
100
AcDbCircle
 10
5045.887304545389
 20
3078.936612820552
 30
0.0
 40
0.0025904183475716
100
AcDbArc
 50
270.0077189287877
 51
0.0
  0
ARC
  5
2761
330
1F
100
AcDbEntity
  8
SANINDUSA
100
AcDbCircle
 10
5046.08230587513
 20
3079.012644129081
 30
0.0
 40
0.0025896199423306
100
AcDbArc
 50
0.0
 51
90.01577542765906
  0
LWPOLYLINE
  5
2765
330
1F
100
AcDbEntity
  8
SANINDUSA
100
AcDbPolyline
 90
        3
 70
   128
 43
0.0
 10
5046.084895495059
 20
3079.012644394037
 10
5046.084895203747
 20
3079.004646306548
 10
5046.084895091194
 20
3079.001646944694
  0
ARC
  5
2769
330
1F
100
AcDbEntity
  8
SANINDUSA
100
AcDbCircle
 10
5046.342318304859
 20
3078.947617135472
 30
0.0
 40
0.0025909052834961
100
AcDbArc
 50
0.0
 51
89.988285520964
  0
LWPOLYLINE
  5
2774
330
1F
100
AcDbEntity
  8
SANINDUSA
100
AcDbPolyline
 90
        3
 70
   128
 43
0.0
 10
5046.331319732342
 20
3078.95021044148
 10
5046.339319491457
 20
3078.950208669186
 10
5046.342318834585
 20
3078.950208040701
  0
LWPOLYLINE
  5
2776
330
1F
100
AcDbEntity
  8
SANINDUSA
100
AcDbPolyline
 90
        3
 70
   128
 43
0.0
 10
5046.344909210142
 20
3078.947617124556
 10
5046.344909521806
 20
3078.939617869863
 10
5046.344909637693
 20
3078.936617292167
  0
ARC
  5
277A
330
1F
100
AcDbEntity
  8
SANINDUSA
100
AcDbCircle
 10
5046.147311425191
 20
3079.012646429609
 30
0.0
 40
0.0025901534152421
100
AcDbArc
 50
0.0
 51
90.01076596901439
  0
LWPOLYLINE
  5
2785
330
1F
100
AcDbEntity
  8
SANINDUSA
100
AcDbPolyline
 90
        3
 70
   128
 43
0.0
 10
5046.136309933825
 20
3079.015236804306
 10
5046.144309932822
 20
3079.015236671911
 10
5046.147310938497
 20
3079.015236582979
  0
ARC
  5
2787
330
1F
100
AcDbEntity
  8
SANINDUSA
100
AcDbCircle
 10
5046.136309626127
 20
3079.012646515952
 30
0.0
 40
0.0025902883734493
100
AcDbArc
 50
89.99319388572992
 51
179.9875009496585
  0
LWPOLYLINE
  5
2789
330
1F
100
AcDbEntity
  8
SANINDUSA
100
AcDbPolyline
 90
        3
 70
   128
 43
0.0
 10
5046.149901578591
 20
3079.012646723821
 10
5046.149901657773
 20
3079.00464875956
 10
5046.149901686842
 20
3079.001649529077
  0
LWPOLYLINE
  5
278C
330
1F
100
AcDbEntity
  8
SANINDUSA
100
AcDbPolyline
 90
        3
 70
   128
 43
0.0
 10
5046.133719317409
 20
3079.00164988418
 10
5046.133719333065
 20
3079.009647839368
 10
5046.133719337815
 20
3079.012647081023
  0
ARC
  5
278D
330
1F
100
AcDbEntity
  8
SANINDUSA
100
AcDbCircle
 10
5046.212317574328
 20
3079.001642281609
 30
0.0
 40
0.0025896053368946
100
AcDbArc
 50
269.9869406085721
 51
359.9905001266733
  0
ARC
  5
278F
330
1F
100
AcDbEntity
  8
SANINDUSA
100
AcDbCircle
 10
5046.331319248185
 20
3078.947621018725
 30
0.0
 40
0.0025894228004903
100
AcDbArc
 50
89.9892871312865
 51
180.0
  0
LWPOLYLINE
  5
2791
330
1F
100
AcDbEntity
  8
SANINDUSA
100
AcDbPolyline
 90
        3
 70
   128
 43
0.0
 10
5046.21231698408
 20
3078.999052676339
 10
5046.204317101183
 20
3078.999054041024
 10
5046.201316194451
 20
3078.999054524792
  0
LINE
  5
2795
330
1F
100
AcDbEntity
  8
SANINDUSA
100
AcDbLine
 10
5046.328730379077
 20
3078.936621232127
 30
0.0
 11
5046.328729825385
 21
3078.947620938949
 31
0.0
  0
ARC
  5
2798
330
1F
100
AcDbEntity
  8
SANINDUSA
100
AcDbCircle
 10
5045.941300096554
 20
3078.947620582854
 30
0.0
 40
0.0025909344211111
100
AcDbArc
 50
90.01136440265595
 51
180.0
  0
ARC
  5
27A3
330
1F
100
AcDbEntity
  8
SANINDUSA
100
AcDbCircle
 10
5046.201315997826
 20
3079.001645151037
 30
0.0
 40
0.0025906262524247
100
AcDbArc
 50
180.0
 51
270.0043487010743
  0
LWPOLYLINE
  5
27A4
330
1F
100
AcDbEntity
  8
SANINDUSA
100
AcDbPolyline
 90
        3
 70
   128
 43
0.0
 10
5045.941299582652
 20
3078.950211517224
 10
5045.949299320039
 20
3078.950213365458
 10
5045.952298806291
 20
3078.950214089688
  0
LINE
  5
27A7
330
1F
100
AcDbEntity
  8
SANINDUSA
100
AcDbLine
 10
5045.938708684706
 20
3078.936620827104
 30
0.0
 11
5045.938709162133
 21
3078.947620562668
 31
0.0
  0
ARC
  5
27AB
330
1F
100
AcDbEntity
  8
SANINDUSA
100
AcDbCircle
 10
5046.342320142476
 20
3078.936617119142
 30
0.0
 40
0.0025894952229647
100
AcDbArc
 50
269.9905729506878
 51
0.0
  0
LWPOLYLINE
  5
27AE
330
1F
100
AcDbEntity
  8
SANINDUSA
100
AcDbPolyline
 90
        3
 70
   128
 43
0.0
 10
5046.342319716418
 20
3078.934027623954
 10
5046.33431997956
 20
3078.934029436411
 10
5046.331320796535
 20
3078.934030155683
  0
ARC
  5
27B1
330
1F
100
AcDbEntity
  8
SANINDUSA
100
AcDbCircle
 10
5046.071302516391
 20
3079.001644619844
 30
0.0
 40
0.0025894726468151
100
AcDbArc
 50
180.0
 51
270.0173852683803
  0
LWPOLYLINE
  5
27B4
330
1F
100
AcDbEntity
  8
SANINDUSA
100
AcDbPolyline
 90
        3
 70
   128
 43
0.0
 10
5046.082304265137
 20
3078.999056708023
 10
5046.074304338257
 20
3078.999055597697
 10
5046.071303302115
 20
3078.999055147317
  0
ARC
  5
27B8
330
1F
100
AcDbEntity
  8
SANINDUSA
100
AcDbCircle
 10
5046.082304299203
 20
3079.001647500073
 30
0.0
 40
0.0025907920497749
100
AcDbArc
 50
269.9992466427242
 51
359.9877175457438
  0
ARC
  5
27BA
330
1F
100
AcDbEntity
  8
SANINDUSA
100
AcDbCircle
 10
5045.952299335196
 20
3078.947624707351
 30
0.0
 40
0.0025893823906065
100
AcDbArc
 50
0.0
 51
90.01170317112114
  0
LWPOLYLINE
  5
27BC
330
1F
100
AcDbEntity
  8
SANINDUSA
100
AcDbPolyline
 90
        3
 70
   128
 43
0.0
 10
5045.954888717585
 20
3078.947624661291
 10
5045.954888285654
 20
3078.939625523978
 10
5045.954888122571
 20
3078.936625079367
  0
ARC
  5
27BE
330
1F
100
AcDbEntity
  8
SANINDUSA
100
AcDbCircle
 10
5046.331321455685
 20
3078.936621232208
 30
0.0
 40
0.0025910766089271
100
AcDbArc
 50
180.0
 51
269.9854243578085
  0
ARC
  5
27C2
330
1F
100
AcDbEntity
  8
SANINDUSA
100
AcDbCircle
 10
5045.941298169922
 20
3078.936620732735
 30
0.0
 40
0.0025894852172092
100
AcDbArc
 50
180.0
 51
270.0094509678972
  0
LWPOLYLINE
  5
27C4
330
1F
100
AcDbEntity
  8
SANINDUSA
100
AcDbPolyline
 90
        3
 70
   128
 43
0.0
 10
5045.952297650202
 20
3078.934033974085
 10
5045.944297967029
 20
3078.934031964813
 10
5045.941298597059
 20
3078.934031247552
  0
ARC
  5
27C5
330
1F
100
AcDbEntity
  8
SANINDUSA
100
AcDbCircle
 10
5046.147311526596
 20
3079.001650121155
 30
0.0
 40
0.0025901603148917
100
AcDbArc
 50
269.9912459019207
 51
359.9869029068376
  0
LWPOLYLINE
  5
27C7
330
1F
100
AcDbEntity
  8
SANINDUSA
100
AcDbPolyline
 90
        3
 70
   128
 43
0.0
 10
5046.147311130852
 20
3078.99905996087
 10
5046.139311133426
 20
3078.999060154981
 10
5046.136309931892
 20
3078.999060184555
  0
ARC
  5
27CB
330
1F
100
AcDbEntity
  8
SANINDUSA
100
AcDbCircle
 10
5046.13630933336
 20
3079.001650200456
 30
0.0
 40
0.0025900159710643
100
AcDbArc
 50
180.0
 51
270.013240578622
  0
ARC
  5
27CE
330
1F
100
AcDbEntity
  8
SANINDUSA
100
AcDbCircle
 10
5045.952297025093
 20
3078.936625071487
 30
0.0
 40
0.0025910974777485
100
AcDbArc
 50
270.0138227538791
 51
0.0
  0
ARC
  5
27DB
330
1F
100
AcDbEntity
  8
SANINDUSA
100
AcDbCircle
 10
5046.407310523164
 20
3078.882610259923
 30
0.0
 40
0.0025901033493646
100
AcDbArc
 50
0.0
 51
89.9935511012087
  0
LWPOLYLINE
  5
27DE
330
1F
100
AcDbEntity
  8
SANINDUSA
100
AcDbPolyline
 90
        3
 70
   128
 43
0.0
 10
5046.396312697492
 20
3078.885200533207
 10
5046.404312685204
 20
3078.885200363294
 10
5046.407310814693
 20
3078.885200363256
  0
LWPOLYLINE
  5
27E0
330
1F
100
AcDbEntity
  8
SANINDUSA
100
AcDbPolyline
 90
        3
 70
   128
 43
0.0
 10
5046.409900626514
 20
3078.88261018258
 10
5046.409900392073
 20
3078.874610754128
 10
5046.409900299433
 20
3078.871610258599
  0
ARC
  5
27E3
330
1F
100
AcDbEntity
  8
SANINDUSA
100
AcDbCircle
 10
5046.39631263274
 20
3078.882610504008
 30
0.0
 40
0.0025900291998654
100
AcDbArc
 50
89.99856759460515
 51
180.0
  0
LWPOLYLINE
  5
27E6
330
1F
100
AcDbEntity
  8
SANINDUSA
100
AcDbPolyline
 90
        3
 70
   128
 43
0.0
 10
5046.393722414235
 20
3078.87161015351
 10
5046.393722555495
 20
3078.879609612322
 10
5046.393722603556
 20
3078.88261022498
  0
ARC
  5
27EA
330
1F
100
AcDbEntity
  8
SANINDUSA
100
AcDbCircle
 10
5045.876307152839
 20
3078.882612143924
 30
0.0
 40
0.0025901080961409
100
AcDbArc
 50
90.00596317954075
 51
180.0
  0
ARC
  5
27F5
330
1F
100
AcDbEntity
  8
SANINDUSA
100
AcDbCircle
 10
5046.277321624019
 20
3078.947633900491
 30
0.0
 40
0.0025912197505263
100
AcDbArc
 50
0.0
 51
89.98976492978913
  0
LWPOLYLINE
  5
2800
330
1F
100
AcDbEntity
  8
SANINDUSA
100
AcDbPolyline
 90
        3
 70
   128
 43
0.0
 10
5045.876306883268
 20
3078.885202252006
 10
5045.88430685802
 20
3078.885202591997
 10
5045.887304982222
 20
3078.885202784912
  0
LWPOLYLINE
  5
2802
330
1F
100
AcDbEntity
  8
SANINDUSA
100
AcDbPolyline
 90
        3
 70
   128
 43
0.0
 10
5046.266322069354
 20
3078.950228418904
 10
5046.274321674356
 20
3078.950226017659
 10
5046.277322086904
 20
3078.950225120201
  0
LWPOLYLINE
  5
2805
330
1F
100
AcDbEntity
  8
SANINDUSA
100
AcDbPolyline
 90
        3
 70
   128
 43
0.0
 10
5045.873717299215
 20
3078.871611935714
 10
5045.873717110811
 20
3078.879611375752
 10
5045.87371704475
 20
3078.882611954454
  0
LWPOLYLINE
  5
2806
330
1F
100
AcDbEntity
  8
SANINDUSA
100
AcDbPolyline
 90
        3
 70
   128
 43
0.0
 10
5046.279912843768
 20
3078.947633993071
 10
5046.279913439488
 20
3078.939635101381
 10
5046.27991366635
 20
3078.936634951209
  0
ARC
  5
2808
330
1F
100
AcDbEntity
  8
SANINDUSA
100
AcDbCircle
 10
5045.887304996522
 20
3078.882612749052
 30
0.0
 40
0.0025900358610136
100
AcDbArc
 50
0.0
 51
90.00031636107211
  0
LWPOLYLINE
  5
280C
330
1F
100
AcDbEntity
  8
SANINDUSA
100
AcDbPolyline
 90
        3
 70
   128
 43
0.0
 10
5045.889895032377
 20
3078.882612574135
 10
5045.889895103803
 20
3078.874613118551
 10
5045.889895135117
 20
3078.871612433511
  0
ARC
  5
280E
330
1F
100
AcDbEntity
  8
SANINDUSA
100
AcDbCircle
 10
5046.407310069446
 20
3078.87160997992
 30
0.0
 40
0.0025902300034021
100
AcDbArc
 50
270.001634749332
 51
0.0
  0
LWPOLYLINE
  5
2810
330
1F
100
AcDbEntity
  8
SANINDUSA
100
AcDbPolyline
 90
        3
 70
   128
 43
0.0
 10
5046.40731014335
 20
3078.869019749918
 10
5046.399310147002
 20
3078.869019736274
 10
5046.396312215936
 20
3078.869019798438
  0
ARC
  5
2812
330
1F
100
AcDbEntity
  8
SANINDUSA
100
AcDbCircle
 10
5046.396312665384
 20
3078.871610049551
 30
0.0
 40
0.0025902511518993
100
AcDbArc
 50
180.0
 51
269.9900583102643
  0
ARC
  5
2815
330
1F
100
AcDbEntity
  8
SANINDUSA
100
AcDbCircle
 10
5046.266321352177
 20
3078.947639213963
 30
0.0
 40
0.0025892050397783
100
AcDbArc
 50
89.98412983597937
 51
180.0
  0
LWPOLYLINE
  5
2818
330
1F
100
AcDbEntity
  8
SANINDUSA
100
AcDbPolyline
 90
        3
 70
   128
 43
0.0
 10
5046.263733011436
 20
3078.936640653236
 10
5046.263732379683
 20
3078.944639422364
 10
5046.263732147145
 20
3078.947639400136
  0
ARC
  5
281A
330
1F
100
AcDbEntity
  8
SANINDUSA
100
AcDbCircle
 10
5045.8763075505
 20
3078.87161176036
 30
0.0
 40
0.0025902512903491
100
AcDbArc
 50
180.0
 51
269.9968781816632
  0
LWPOLYLINE
  5
281D
330
1F
100
AcDbEntity
  8
SANINDUSA
100
AcDbPolyline
 90
        3
 70
   128
 43
0.0
 10
5045.887305297629
 20
3078.869021944996
 10
5045.87930532739
 20
3078.86902157731
 10
5045.876307409367
 20
3078.869021509073
  0
ARC
  5
2820
330
1F
100
AcDbEntity
  8
SANINDUSA
100
AcDbCircle
 10
5046.006297755486
 20
3078.9476377669
 30
0.0
 40
0.0025912889130674
100
AcDbArc
 50
90.01095257567541
 51
180.0
  0
LWPOLYLINE
  5
282B
330
1F
100
AcDbEntity
  8
SANINDUSA
100
AcDbPolyline
 90
        3
 70
   128
 43
0.0
 10
5046.006297260138
 20
3078.950229055765
 10
5046.014296882272
 20
3078.950231400456
 10
5046.017297471115
 20
3078.950232275099
  0
LWPOLYLINE
  5
282E
330
1F
100
AcDbEntity
  8
SANINDUSA
100
AcDbPolyline
 90
        3
 70
   128
 43
0.0
 10
5046.003705652053
 20
3078.936639093609
 10
5046.003706247294
 20
3078.944637922314
 10
5046.003706466581
 20
3078.947637972365
  0
ARC
  5
282F
330
1F
100
AcDbEntity
  8
SANINDUSA
100
AcDbCircle
 10
5045.887304896628
 20
3078.871612183466
 30
0.0
 40
0.0025902385016049
100
AcDbArc
 50
270.0088700954047
 51
0.0
  0
ARC
  5
2830
330
1F
100
AcDbEntity
  8
SANINDUSA
100
AcDbCircle
 10
5046.277324544385
 20
3078.93663501025
 30
0.0
 40
0.0025891219661277
100
AcDbArc
 50
269.9836883061686
 51
0.0
  0
LWPOLYLINE
  5
2833
330
1F
100
AcDbEntity
  8
SANINDUSA
100
AcDbPolyline
 90
        3
 70
   128
 43
0.0
 10
5046.277323807281
 20
3078.934045888389
 10
5046.269324282857
 20
3078.93404848613
 10
5046.266323849486
 20
3078.934049464384
  0
ARC
  5
283B
330
1F
100
AcDbEntity
  8
SANINDUSA
100
AcDbCircle
 10
5046.342320570488
 20
3078.882617193845
 30
0.0
 40
0.0025909787158008
100
AcDbArc
 50
0.0
 51
89.98229102299948
  0
ARC
  5
2846
330
1F
100
AcDbEntity
  8
SANINDUSA
100
AcDbCircle
 10
5046.017298324818
 20
3078.94764315101
 30
0.0
 40
0.0025891242297593
100
AcDbArc
 50
0.0
 51
90.01889193089448
  0
LWPOLYLINE
  5
2848
330
1F
100
AcDbEntity
  8
SANINDUSA
100
AcDbPolyline
 90
        3
 70
   128
 43
0.0
 10
5046.331322847919
 20
3078.88521104891
 10
5046.339322449085
 20
3078.885208916
 10
5046.342321371307
 20
3078.885208172437
  0
LWPOLYLINE
  5
284A
330
1F
100
AcDbEntity
  8
SANINDUSA
100
AcDbPolyline
 90
        3
 70
   128
 43
0.0
 10
5046.344911549204
 20
3078.882617140539
 10
5046.344911790043
 20
3078.874617706535
 10
5046.344911876536
 20
3078.871616996553
  0
LWPOLYLINE
  5
284C
330
1F
100
AcDbEntity
  8
SANINDUSA
100
AcDbPolyline
 90
        3
 70
   128
 43
0.0
 10
5046.019887449045
 20
3078.947643256604
 10
5046.019886844059
 20
3078.939644570424
 10
5046.01988661251
 20
3078.936644674823
  0
ARC
  5
2852
330
1F
100
AcDbEntity
  8
SANINDUSA
100
AcDbCircle
 10
5046.266324355237
 20
3078.93664080814
 30
0.0
 40
0.0025913438047883
100
AcDbArc
 50
180.0
 51
269.988817618307
  0
ARC
  5
2856
330
1F
100
AcDbEntity
  8
SANINDUSA
100
AcDbCircle
 10
5046.006294725723
 20
3078.936639135469
 30
0.0
 40
0.0025890736702332
100
AcDbArc
 50
180.0
 51
270.0183497241507
  0
LWPOLYLINE
  5
2858
330
1F
100
AcDbEntity
  8
SANINDUSA
100
AcDbPolyline
 90
        3
 70
   128
 43
0.0
 10
5046.017295735004
 20
3078.934053558183
 10
5046.009296186674
 20
3078.934051017579
 10
5046.006295554907
 20
3078.934050061931
  0
ARC
  5
285C
330
1F
100
AcDbEntity
  8
SANINDUSA
100
AcDbCircle
 10
5046.331322268231
 20
3078.882621807411
 30
0.0
 40
0.0025892415639618
100
AcDbArc
 50
89.98717244689293
 51
180.0
  0
LWPOLYLINE
  5
285F
330
1F
100
AcDbEntity
  8
SANINDUSA
100
AcDbPolyline
 90
        3
 70
   128
 43
0.0
 10
5046.328733526522
 20
3078.871621469316
 10
5046.328733165084
 20
3078.879620864055
 10
5046.32873302668
 20
3078.88262155564
  0
ARC
  5
2860
330
1F
100
AcDbEntity
  8
SANINDUSA
100
AcDbCircle
 10
5046.342322498399
 20
3078.87161666718
 30
0.0
 40
0.0025893781579846
100
AcDbArc
 50
269.9892168867275
 51
0.0
  0
LWPOLYLINE
  5
2862
330
1F
100
AcDbEntity
  8
SANINDUSA
100
AcDbPolyline
 90
        3
 70
   128
 43
0.0
 10
5046.342322011074
 20
3078.869027289068
 10
5046.334322420362
 20
3078.869029394083
 10
5046.331323732738
 20
3078.869030243983
  0
ARC
  5
2870
330
1F
100
AcDbEntity
  8
SANINDUSA
100
AcDbCircle
 10
5045.941297395192
 20
3078.882621202016
 30
0.0
 40
0.0025909938902724
100
AcDbArc
 50
90.01635030749389
 51
180.0
  0
LWPOLYLINE
  5
2873
330
1F
100
AcDbEntity
  8
SANINDUSA
100
AcDbPolyline
 90
        3
 70
   128
 43
0.0
 10
5045.941296655808
 20
3078.885212195801
 10
5045.949296213903
 20
3078.885214470899
 10
5045.952295337645
 20
3078.885215374256
  0
LWPOLYLINE
  5
2876
330
1F
100
AcDbEntity
  8
SANINDUSA
100
AcDbPolyline
 90
        3
 70
   128
 43
0.0
 10
5045.938705968094
 20
3078.871620974576
 10
5045.938706281448
 20
3078.879620381593
 10
5045.938706401305
 20
3078.882621069789
  0
ARC
  5
287C
330
1F
100
AcDbEntity
  8
SANINDUSA
100
AcDbCircle
 10
5046.017295189762
 20
3078.936644980891
 30
0.0
 40
0.0025914227658653
100
AcDbArc
 50
270.0120551755841
 51
0.0
  0
ARC
  5
2881
330
1F
100
AcDbEntity
  8
SANINDUSA
100
AcDbCircle
 10
5046.33132470209
 20
3078.87162141937
 30
0.0
 40
0.0025911755682901
100
AcDbArc
 50
180.0
 51
269.9785658203485
  0
ARC
  5
2886
330
1F
100
AcDbEntity
  8
SANINDUSA
100
AcDbCircle
 10
5045.952295910469
 20
3078.882626144914
 30
0.0
 40
0.0025892294056492
100
AcDbArc
 50
0.0
 51
90.01267575606361
  0
LWPOLYLINE
  5
2888
330
1F
100
AcDbEntity
  8
SANINDUSA
100
AcDbPolyline
 90
        3
 70
   128
 43
0.0
 10
5045.95488513987
 20
3078.882625998684
 10
5045.95488470233
 20
3078.874626657997
 10
5045.954884539524
 20
3078.871626013327
  0
ARC
  5
288C
330
1F
100
AcDbEntity
  8
SANINDUSA
100
AcDbCircle
 10
5045.941295357249
 20
3078.871620785377
 30
0.0
 40
0.0025893891622633
100
AcDbArc
 50
180.0
 51
270.0097035460801
  0
LWPOLYLINE
  5
288E
330
1F
100
AcDbEntity
  8
SANINDUSA
100
AcDbPolyline
 90
        3
 70
   128
 43
0.0
 10
5045.952294239256
 20
3078.869034697632
 10
5045.944294759681
 20
3078.869032255258
 10
5045.941295795785
 20
3078.869031396252
  0
ARC
  5
2895
330
1F
100
AcDbEntity
  8
SANINDUSA
100
AcDbCircle
 10
5046.212319305411
 20
3078.947652537074
 30
0.0
 40
0.0025909806193299
100
AcDbArc
 50
0.0
 51
89.99939989884568
  0
LWPOLYLINE
  5
28A1
330
1F
100
AcDbEntity
  8
SANINDUSA
100
AcDbPolyline
 90
        3
 70
   128
 43
0.0
 10
5046.201318289194
 20
3078.950246014682
 10
5046.209318079045
 20
3078.950244226978
 10
5046.212319332549
 20
3078.950243517693
  0
LWPOLYLINE
  5
28A3
330
1F
100
AcDbEntity
  8
SANINDUSA
100
AcDbPolyline
 90
        3
 70
   128
 43
0.0
 10
5046.214910286018
 20
3078.947652780849
 10
5046.214910821326
 20
3078.93965445561
 10
5046.214911027459
 20
3078.936654894763
  0
ARC
  5
28A9
330
1F
100
AcDbEntity
  8
SANINDUSA
100
AcDbCircle
 10
5045.952293354538
 20
3078.871625882471
 30
0.0
 40
0.0025911849889212
100
AcDbArc
 50
270.0195626935316
 51
0.0
  0
LWPOLYLINE
  5
28AA
330
1F
100
AcDbEntity
  8
SANINDUSA
100
AcDbPolyline
 90
        3
 70
   128
 43
0.0
 10
5046.396311049254
 20
3078.820201388337
 10
5046.404311050698
 20
3078.820201632168
 10
5046.407308621731
 20
3078.820201797819
  0
ARC
  5
28B7
330
1F
100
AcDbEntity
  8
SANINDUSA
100
AcDbCircle
 10
5046.407308452003
 20
3078.81761201329
 30
0.0
 40
0.0025897845350549
100
AcDbArc
 50
0.0
 51
89.99624499052647
  0
ARC
  5
28B9
330
1F
100
AcDbEntity
  8
SANINDUSA
100
AcDbCircle
 10
5046.396311053828
 20
3078.817611295086
 30
0.0
 40
0.0025900932506827
100
AcDbArc
 50
90.00010119802372
 51
180.0
  0
ARC
  5
28BC
330
1F
100
AcDbEntity
  8
SANINDUSA
100
AcDbCircle
 10
5046.201317608077
 20
3078.947656438738
 30
0.0
 40
0.0025895760334331
100
AcDbArc
 50
89.98492988402853
 51
179.988890911313
  0
LWPOLYLINE
  5
28BE
330
1F
100
AcDbEntity
  8
SANINDUSA
100
AcDbPolyline
 90
        3
 70
   128
 43
0.0
 10
5046.409898236538
 20
3078.817611944362
 10
5046.409897879581
 20
3078.80961258097
 10
5046.40989774356
 20
3078.806612774772
  0
LWPOLYLINE
  5
28C1
330
1F
100
AcDbEntity
  8
SANINDUSA
100
AcDbPolyline
 90
        3
 70
   128
 43
0.0
 10
5046.393720564077
 20
3078.80661167418
 10
5046.393720855466
 20
3078.814611078371
 10
5046.393720960593
 20
3078.817611016738
  0
LWPOLYLINE
  5
28C3
330
1F
100
AcDbEntity
  8
SANINDUSA
100
AcDbPolyline
 90
        3
 70
   128
 43
0.0
 10
5046.198728661245
 20
3078.936659327528
 10
5046.198728200404
 20
3078.944657525584
 10
5046.198728032091
 20
3078.947656940797
  0
ARC
  5
28C6
330
1F
100
AcDbEntity
  8
SANINDUSA
100
AcDbCircle
 10
5046.071301312923
 20
3078.947655154554
 30
0.0
 40
0.002591111782057
100
AcDbArc
 50
90.00335084270025
 51
179.9890723851186
  0
LWPOLYLINE
  5
28D1
330
1F
100
AcDbEntity
  8
SANINDUSA
100
AcDbPolyline
 90
        3
 70
   128
 43
0.0
 10
5046.071301161386
 20
3078.950246266332
 10
5046.079301000311
 20
3078.950247856793
 10
5046.082302399528
 20
3078.950248409265
  0
LWPOLYLINE
  5
28D4
330
1F
100
AcDbEntity
  8
SANINDUSA
100
AcDbPolyline
 90
        3
 70
   128
 43
0.0
 10
5046.068709533435
 20
3078.936657871182
 10
5046.068710022268
 20
3078.944656146398
 10
5046.068710201188
 20
3078.94765564874
  0
LWPOLYLINE
  5
28D7
330
1F
100
AcDbEntity
  8
SANINDUSA
100
AcDbPolyline
 90
        3
 70
   128
 43
0.0
 10
5045.876308634563
 20
3078.82020283486
 10
5045.884308629461
 20
3078.82020281408
 10
5045.88730610597
 20
3078.820202886887
  0
ARC
  5
28E3
330
1F
100
AcDbEntity
  8
SANINDUSA
100
AcDbCircle
 10
5045.876308831335
 20
3078.817613017156
 30
0.0
 40
0.00258981771158
100
AcDbArc
 50
90.00435328677264
 51
180.0
  0
LWPOLYLINE
  5
28E6
330
1F
100
AcDbEntity
  8
SANINDUSA
100
AcDbPolyline
 90
        3
 70
   128
 43
0.0
 10
5045.873719440098
 20
3078.806613402783
 10
5045.873719128105
 20
3078.814612808885
 10
5045.873719013632
 20
3078.817612819623
  0
ARC
  5
28E8
330
1F
100
AcDbEntity
  8
SANINDUSA
100
AcDbCircle
 10
5045.887306049581
 20
3078.817612807175
 30
0.0
 40
0.0025900797131258
100
AcDbArc
 50
0.0
 51
89.99875263795336
  0
ARC
  5
28EB
330
1F
100
AcDbEntity
  8
SANINDUSA
100
AcDbCircle
 10
5046.082303289364
 20
3078.947658961852
 30
0.0
 40
0.0025894475662919
100
AcDbArc
 50
0.0
 51
90.01968906078724
  0
LWPOLYLINE
  5
28ED
330
1F
100
AcDbEntity
  8
SANINDUSA
100
AcDbPolyline
 90
        3
 70
   128
 43
0.0
 10
5045.889896129286
 20
3078.817612612031
 10
5045.889896342123
 20
3078.80961315919
 10
5045.889896425647
 20
3078.806613047285
  0
LWPOLYLINE
  5
28EF
330
1F
100
AcDbEntity
  8
SANINDUSA
100
AcDbPolyline
 90
        3
 70
   128
 43
0.0
 10
5046.084892736915
 20
3078.947659240359
 10
5046.084892332604
 20
3078.939661087962
 10
5046.08489217711
 20
3078.936661702322
  0
LWPOLYLINE
  5
28F5
330
1F
100
AcDbEntity
  8
SANINDUSA
100
AcDbPolyline
 90
        3
 70
   128
 43
0.0
 10
5046.407307603499
 20
3078.804022258416
 10
5046.399307603392
 20
3078.80402179207
 10
5046.396310153887
 20
3078.804021692908
  0
ARC
  5
28F8
330
1F
100
AcDbEntity
  8
SANINDUSA
100
AcDbCircle
 10
5046.396310464476
 20
3078.806611593289
 30
0.0
 40
0.0025899003997821
100
AcDbArc
 50
180.0
 51
269.9931289043011
  0
ARC
  5
28F9
330
1F
100
AcDbEntity
  8
SANINDUSA
100
AcDbCircle
 10
5046.407307440023
 20
3078.806612561956
 30
0.0
 40
0.002590303545339
100
AcDbArc
 50
270.0036159794392
 51
0.0
  0
ARC
  5
28FA
330
1F
100
AcDbEntity
  8
SANINDUSA
100
AcDbCircle
 10
5046.212321674557
 20
3078.93665531954
 30
0.0
 40
0.002589352936731
100
AcDbArc
 50
269.9825222881072
 51
359.9906007775385
  0
LWPOLYLINE
  5
28FC
330
1F
100
AcDbEntity
  8
SANINDUSA
100
AcDbPolyline
 90
        3
 70
   128
 43
0.0
 10
5046.212320884693
 20
3078.934065966724
 10
5046.204321158841
 20
3078.93406799449
 10
5046.20131966905
 20
3078.934068711513
  0
LWPOLYLINE
  5
2901
330
1F
100
AcDbEntity
  8
SANINDUSA
100
AcDbPolyline
 90
        3
 70
   128
 43
0.0
 10
5045.887306815878
 20
3078.804022868299
 10
5045.879306822287
 20
3078.804022866125
 10
5045.876309516712
 20
3078.804022947718
  0
ARC
  5
2903
330
1F
100
AcDbEntity
  8
SANINDUSA
100
AcDbCircle
 10
5045.876309732963
 20
3078.806613240578
 30
0.0
 40
0.0025902928698056
100
AcDbArc
 50
180.0
 51
269.9952166476808
  0
ARC
  5
2904
330
1F
100
AcDbEntity
  8
SANINDUSA
100
AcDbCircle
 10
5045.887306485081
 20
3078.806612808856
 30
0.0
 40
0.0025899405773023
100
AcDbArc
 50
270.007318044955
 51
0.0
  0
ARC
  5
2905
330
1F
100
AcDbEntity
  8
SANINDUSA
100
AcDbCircle
 10
5046.201319599738
 20
3078.936659650026
 30
0.0
 40
0.0025909385141439
100
AcDbArc
 50
180.0
 51
270.001532717545
  0
ARC
  5
2906
330
1F
100
AcDbEntity
  8
SANINDUSA
100
AcDbCircle
 10
5046.147311977867
 20
3078.947662928723
 30
0.0
 40
0.0025902344998952
100
AcDbArc
 50
0.0
 51
90.01175590665576
  0
LWPOLYLINE
  5
2911
330
1F
100
AcDbEntity
  8
SANINDUSA
100
AcDbPolyline
 90
        3
 70
   128
 43
0.0
 10
5046.136309865484
 20
3078.950253407449
 10
5046.144309864462
 20
3078.950253272663
 10
5046.147311446406
 20
3078.950253163168
  0
ARC
  5
2913
330
1F
100
AcDbEntity
  8
SANINDUSA
100
AcDbCircle
 10
5046.136309523681
 20
3078.947663013962
 30
0.0
 40
0.0025903935099681
100
AcDbArc
 50
89.99243979890415
 51
179.9858455906871
  0
LWPOLYLINE
  5
2915
330
1F
100
AcDbEntity
  8
SANINDUSA
100
AcDbPolyline
 90
        3
 70
   128
 43
0.0
 10
5046.149902212345
 20
3078.947663267741
 10
5046.149902299679
 20
3078.939665303308
 10
5046.149902333581
 20
3078.936666059096
  0
ARC
  5
2918
330
1F
100
AcDbEntity
  8
SANINDUSA
100
AcDbCircle
 10
5046.071298776691
 20
3078.936658106088
 30
0.0
 40
0.0025892432678641
100
AcDbArc
 50
180.0
 51
270.0218573666786
  0
LWPOLYLINE
  5
291B
330
1F
100
AcDbEntity
  8
SANINDUSA
100
AcDbPolyline
 90
        3
 70
   128
 43
0.0
 10
5046.133719079158
 20
3078.936666459619
 10
5046.133719116728
 20
3078.944664417142
 10
5046.133719130249
 20
3078.947663653848
  0
LWPOLYLINE
  5
291D
330
1F
100
AcDbEntity
  8
SANINDUSA
100
AcDbPolyline
 90
        3
 70
   128
 43
0.0
 10
5046.082301167367
 20
3078.934071224153
 10
5046.074301350683
 20
3078.934069541391
 10
5046.071299764444
 20
3078.934068863009
  0
ARC
  5
291F
330
1F
100
AcDbEntity
  8
SANINDUSA
100
AcDbCircle
 10
5046.342322124921
 20
3078.817616947732
 30
0.0
 40
0.0025908421522588
100
AcDbArc
 50
0.0
 51
89.978713031695
  0
LWPOLYLINE
  5
292A
330
1F
100
AcDbEntity
  8
SANINDUSA
100
AcDbPolyline
 90
        3
 70
   128
 43
0.0
 10
5046.331325317669
 20
3078.820210842322
 10
5046.339324777788
 20
3078.82020856481
 10
5046.342323087491
 20
3078.820207789706
  0
LWPOLYLINE
  5
292C
330
1F
100
AcDbEntity
  8
SANINDUSA
100
AcDbPolyline
 90
        3
 70
   128
 43
0.0
 10
5046.344912967073
 20
3078.817616901533
 10
5046.344913035476
 20
3078.809617433201
 10
5046.344913053679
 20
3078.806617236765
  0
ARC
  5
292E
330
1F
100
AcDbEntity
  8
SANINDUSA
100
AcDbCircle
 10
5046.082301075415
 20
3078.936662325922
 30
0.0
 40
0.0025911017697334
100
AcDbArc
 50
270.0020332882027
 51
359.9862106487632
  0
ARC
  5
2931
330
1F
100
AcDbEntity
  8
SANINDUSA
100
AcDbCircle
 10
5046.277326457936
 20
3078.882638442581
 30
0.0
 40
0.0025915613283069
100
AcDbArc
 50
0.0
 51
89.98138295046308
  0
LWPOLYLINE
  5
293E
330
1F
100
AcDbEntity
  8
SANINDUSA
100
AcDbPolyline
 90
        3
 70
   128
 43
0.0
 10
5046.266327477718
 20
3078.885234481447
 10
5046.274326680705
 20
3078.885231215729
 10
5046.27732730001
 20
3078.885230003772
  0
LWPOLYLINE
  5
2940
330
1F
100
AcDbEntity
  8
SANINDUSA
100
AcDbPolyline
 90
        3
 70
   128
 43
0.0
 10
5046.279918019263
 20
3078.882638500735
 10
5046.279918695692
 20
3078.874639390238
 10
5046.279918950456
 20
3078.871639029813
  0
ARC
  5
2946
330
1F
100
AcDbEntity
  8
SANINDUSA
100
AcDbCircle
 10
5046.33132463293
 20
3078.817621746952
 30
0.0
 40
0.0025890954607121
100
AcDbArc
 50
89.98484697669065
 51
180.0
  0
ARC
  5
2948
330
1F
100
AcDbEntity
  8
SANINDUSA
100
AcDbCircle
 10
5046.342323755869
 20
3078.8066168507
 30
0.0
 40
0.0025892978393501
100
AcDbArc
 50
269.9875610327268
 51
0.0085428172359768
  0
LWPOLYLINE
  5
294B
330
1F
100
AcDbEntity
  8
SANINDUSA
100
AcDbPolyline
 90
        3
 70
   128
 43
0.0
 10
5046.32873581696
 20
3078.806621649377
 10
5046.328735619206
 20
3078.814621094168
 10
5046.328735537496
 20
3078.817621381054
  0
LWPOLYLINE
  5
294C
330
1F
100
AcDbEntity
  8
SANINDUSA
100
AcDbPolyline
 90
        3
 70
   128
 43
0.0
 10
5046.342323193728
 20
3078.804027552922
 10
5046.334323706021
 20
3078.804029691912
 10
5046.331325692115
 20
3078.804030576538
  0
ARC
  5
2950
330
1F
100
AcDbEntity
  8
SANINDUSA
100
AcDbCircle
 10
5045.941295116685
 20
3078.817620977247
 30
0.0
 40
0.0025908993490759
100
AcDbArc
 50
90.02036070929774
 51
180.0
  0
LWPOLYLINE
  5
295C
330
1F
100
AcDbEntity
  8
SANINDUSA
100
AcDbPolyline
 90
        3
 70
   128
 43
0.0
 10
5045.938703974996
 20
3078.80662103536
 10
5045.938704146328
 20
3078.814620497167
 10
5045.938704217342
 20
3078.8176208052
  0
LWPOLYLINE
  5
295D
330
1F
100
AcDbEntity
  8
SANINDUSA
100
AcDbPolyline
 90
        3
 70
   128
 43
0.0
 10
5045.941294195979
 20
3078.820211876433
 10
5045.949293563879
 20
3078.820214412564
 10
5045.952292140782
 20
3078.820215436979
  0
ARC
  5
295F
330
1F
100
AcDbEntity
  8
SANINDUSA
100
AcDbCircle
 10
5046.147312127459
 20
3078.936666739245
 30
0.0
 40
0.0025902062107055
100
AcDbArc
 50
269.9895049519614
 51
359.9849550011547
  0
LWPOLYLINE
  5
2961
330
1F
100
AcDbEntity
  8
SANINDUSA
100
AcDbPolyline
 90
        3
 70
   128
 43
0.0
 10
5046.147311653004
 20
3078.934076533078
 10
5046.139311656659
 20
3078.934076767522
 10
5046.136309806944
 20
3078.934076790299
  0
ARC
  5
2965
330
1F
100
AcDbEntity
  8
SANINDUSA
100
AcDbCircle
 10
5046.136309110966
 20
3078.936666822039
 30
0.0
 40
0.0025900318334915
100
AcDbArc
 50
180.0
 51
270.0153962216618
  0
ARC
  5
2966
330
1F
100
AcDbEntity
  8
SANINDUSA
100
AcDbCircle
 10
5046.266326535171
 20
3078.882645630428
 30
0.0
 40
0.0025888511894864
100
AcDbArc
 50
89.97913976221608
 51
180.0
  0
ARC
  5
2968
330
1F
100
AcDbEntity
  8
SANINDUSA
100
AcDbCircle
 10
5046.277330161906
 20
3078.871638934622
 30
0.0
 40
0.002588788551776
100
AcDbArc
 50
269.9790358544494
 51
0.0
  0
LWPOLYLINE
  5
296B
330
1F
100
AcDbEntity
  8
SANINDUSA
100
AcDbPolyline
 90
        3
 70
   128
 43
0.0
 10
5046.263738707028
 20
3078.871646509846
 10
5046.263737961219
 20
3078.879645491223
 10
5046.263737683982
 20
3078.882645685381
  0
LWPOLYLINE
  5
2970
330
1F
100
AcDbEntity
  8
SANINDUSA
100
AcDbPolyline
 90
        3
 70
   128
 43
0.0
 10
5046.277329214687
 20
3078.869050146243
 10
5046.269330137134
 20
3078.869053603029
 10
5046.266329524499
 20
3078.869054914675
  0
ARC
  5
297A
330
1F
100
AcDbEntity
  8
SANINDUSA
100
AcDbCircle
 10
5046.006292848604
 20
3078.882643468928
 30
0.0
 40
0.0025916087292197
100
AcDbArc
 50
90.01782924737074
 51
180.0
  0
LWPOLYLINE
  5
297D
330
1F
100
AcDbEntity
  8
SANINDUSA
100
AcDbPolyline
 90
        3
 70
   128
 43
0.0
 10
5046.00629204215
 20
3078.885235077532
 10
5046.014291275517
 20
3078.885238300783
 10
5046.017292153058
 20
3078.885239511081
  0
LWPOLYLINE
  5
2980
330
1F
100
AcDbEntity
  8
SANINDUSA
100
AcDbPolyline
 90
        3
 70
   128
 43
0.0
 10
5046.003700266516
 20
3078.87164434138
 10
5046.003700976428
 20
3078.879643372305
 10
5046.003701239879
 20
3078.8826435997
  0
ARC
  5
2983
330
1F
100
AcDbEntity
  8
SANINDUSA
100
AcDbCircle
 10
5046.331326842185
 20
3078.806621601508
 30
0.0
 40
0.0025910252259132
100
AcDbArc
 50
180.0
 51
269.9745682896323
  0
ARC
  5
2988
330
1F
100
AcDbEntity
  8
SANINDUSA
100
AcDbCircle
 10
5045.941293257192
 20
3078.806620784874
 30
0.0
 40
0.0025892822092872
100
AcDbArc
 50
180.0
 51
270.0113431938017
  0
LWPOLYLINE
  5
298B
330
1F
100
AcDbEntity
  8
SANINDUSA
100
AcDbPolyline
 90
        3
 70
   128
 43
0.0
 10
5045.952291431724
 20
3078.80403508781
 10
5045.944292152798
 20
3078.804032421799
 10
5045.941293769808
 20
3078.804031502715
  0
ARC
  5
298E
330
1F
100
AcDbEntity
  8
SANINDUSA
100
AcDbCircle
 10
5045.952292796787
 20
3078.817626364591
 30
0.0
 40
0.0025890724713031
100
AcDbArc
 50
0.0
 51
90.01451733086405
  0
LWPOLYLINE
  5
2990
330
1F
100
AcDbEntity
  8
SANINDUSA
100
AcDbPolyline
 90
        3
 70
   128
 43
0.0
 10
5045.954881869248
 20
3078.817626132348
 10
5045.954881541575
 20
3078.809626705252
 10
5045.954881425183
 20
3078.806626352771
  0
ARC
  5
2996
330
1F
100
AcDbEntity
  8
SANINDUSA
100
AcDbCircle
 10
5046.266330436369
 20
3078.87164664386
 30
0.0
 40
0.0025917293445354
100
AcDbArc
 50
180.0
 51
269.9798411656535
  0
ARC
  5
2997
330
1F
100
AcDbEntity
  8
SANINDUSA
100
AcDbCircle
 10
5046.017293204243
 20
3078.882650714342
 30
0.0
 40
0.0025887969528347
100
AcDbArc
 50
0.0
 51
90.02326507195144
  0
LWPOLYLINE
  5
2999
330
1F
100
AcDbEntity
  8
SANINDUSA
100
AcDbPolyline
 90
        3
 70
   128
 43
0.0
 10
5046.019882001195
 20
3078.882650753486
 10
5046.019881249372
 20
3078.874651880277
 10
5046.019880963359
 20
3078.871651826138
  0
ARC
  5
299C
330
1F
100
AcDbEntity
  8
SANINDUSA
100
AcDbCircle
 10
5046.006289032084
 20
3078.871644303232
 30
0.0
 40
0.0025887655691249
100
AcDbArc
 50
180.0
 51
270.022089309237
  0
LWPOLYLINE
  5
299E
330
1F
100
AcDbEntity
  8
SANINDUSA
100
AcDbPolyline
 90
        3
 70
   128
 43
0.0
 10
5046.017290048614
 20
3078.869060288237
 10
5046.009290946855
 20
3078.869056829864
 10
5046.006290030135
 20
3078.869055537856
  0
ARC
  5
29A1
330
1F
100
AcDbEntity
  8
SANINDUSA
100
AcDbCircle
 10
5045.952290339276
 20
3078.806626173493
 30
0.0
 40
0.0025910859130741
100
AcDbArc
 50
270.0241569382344
 51
0.0
  0
ARC
  5
29AA
330
1F
100
AcDbEntity
  8
SANINDUSA
100
AcDbCircle
 10
5046.017289168841
 20
3078.871652082616
 30
0.0
 40
0.0025917945286553
100
AcDbArc
 50
270.019448780606
 51
0.0
  0
ARC
  5
29B4
330
1F
100
AcDbEntity
  8
SANINDUSA
100
AcDbCircle
 10
5046.396308403999
 20
3078.752619618007
 30
0.0
 40
0.0025900885431046
100
AcDbArc
 50
90.00030072800973
 51
180.0
  0
LWPOLYLINE
  5
29B7
330
1F
100
AcDbEntity
  8
SANINDUSA
100
AcDbPolyline
 90
        3
 70
   128
 43
0.0
 10
5046.396308390405
 20
3078.75520970655
 10
5046.404308379685
 20
3078.755210381687
 10
5046.407305710146
 20
3078.755210702949
  0
LWPOLYLINE
  5
29BA
330
1F
100
AcDbEntity
  8
SANINDUSA
100
AcDbPolyline
 90
        3
 70
   128
 43
0.0
 10
5046.393717840436
 20
3078.74162251486
 10
5046.39371818513
 20
3078.749621383935
 10
5046.393718315457
 20
3078.752619597989
  0
ARC
  5
29BB
330
1F
100
AcDbEntity
  8
SANINDUSA
100
AcDbCircle
 10
5046.407305940229
 20
3078.752621348689
 30
0.0
 40
0.002589354270145
100
AcDbArc
 50
0.0
 51
90.00509116731832
  0
LWPOLYLINE
  5
29BD
330
1F
100
AcDbEntity
  8
SANINDUSA
100
AcDbPolyline
 90
        3
 70
   128
 43
0.0
 10
5046.409895294498
 20
3078.752621384547
 10
5046.409894971366
 20
3078.744622541786
 10
5046.409894856047
 20
3078.741624378595
  0
LWPOLYLINE
  5
29BF
330
1F
100
AcDbEntity
  8
SANINDUSA
100
AcDbPolyline
 90
        3
 70
   128
 43
0.0
 10
5045.87631120582
 20
3078.755210047198
 10
5045.884311207147
 20
3078.755209611123
 10
5045.887308287539
 20
3078.755209525982
  0
ARC
  5
29CA
330
1F
100
AcDbEntity
  8
SANINDUSA
100
AcDbCircle
 10
5045.887308331767
 20
3078.752619551869
 30
0.0
 40
0.0025899741143078
100
AcDbArc
 50
0.0
 51
90.0009784212637
  0
ARC
  5
29CC
330
1F
100
AcDbEntity
  8
SANINDUSA
100
AcDbCircle
 10
5045.876311164088
 20
3078.7526205556
 30
0.0
 40
0.0025894915981544
100
AcDbArc
 50
89.99907660711583
 51
180.0
  0
LWPOLYLINE
  5
29CF
330
1F
100
AcDbEntity
  8
SANINDUSA
100
AcDbPolyline
 90
        3
 70
   128
 43
0.0
 10
5045.88989830588
 20
3078.752619467775
 10
5045.889898630099
 20
3078.744620428192
 10
5045.889898751084
 20
3078.741622015042
  0
LWPOLYLINE
  5
29D2
330
1F
100
AcDbEntity
  8
SANINDUSA
100
AcDbPolyline
 90
        3
 70
   128
 43
0.0
 10
5045.873722112141
 20
3078.741623197842
 10
5045.87372179482
 20
3078.749622133553
 10
5045.87372167249
 20
3078.752620557425
  0
ARC
  5
29DC
330
1F
100
AcDbEntity
  8
SANINDUSA
100
AcDbCircle
 10
5046.396307219122
 20
3078.741622582
 30
0.0
 40
0.0025893786869163
100
AcDbArc
 50
180.0
 51
270.0036991473308
  0
LWPOLYLINE
  5
29DE
330
1F
100
AcDbEntity
  8
SANINDUSA
100
AcDbPolyline
 90
        3
 70
   128
 43
0.0
 10
5046.407304776721
 20
3078.739034292472
 10
5046.399304808112
 20
3078.739033453642
 10
5046.396307386299
 20
3078.739033203318
  0
ARC
  5
29E1
330
1F
100
AcDbEntity
  8
SANINDUSA
100
AcDbCircle
 10
5046.407304625138
 20
3078.74162452338
 30
0.0
 40
0.0025902309129529
100
AcDbArc
 50
270.0033529792188
 51
0.0
  0
LWPOLYLINE
  5
29E3
330
1F
100
AcDbEntity
  8
SANINDUSA
100
AcDbPolyline
 90
        3
 70
   128
 43
0.0
 10
5045.88730924947
 20
3078.739032494804
 10
5045.879309247577
 20
3078.739032895051
 10
5045.876312141391
 20
3078.739033118843
  0
ARC
  5
29E5
330
1F
100
AcDbEntity
  8
SANINDUSA
100
AcDbCircle
 10
5045.887309193599
 20
3078.74162205229
 30
0.0
 40
0.0025895574867732
100
AcDbArc
 50
270.0012362104621
 51
0.0
  0
ARC
  5
29E6
330
1F
100
AcDbEntity
  8
SANINDUSA
100
AcDbCircle
 10
5045.876312201625
 20
3078.741623208328
 30
0.0
 40
0.0025900894858482
100
AcDbArc
 50
180.0
 51
269.9986675419839
  0
ARC
  5
29ED
330
1F
100
AcDbEntity
  8
SANINDUSA
100
AcDbCircle
 10
5046.342322201251
 20
3078.752622941434
 30
0.0
 40
0.0025903661642857
100
AcDbArc
 50
0.0
 51
89.98153203777697
  0
LWPOLYLINE
  5
29F8
330
1F
100
AcDbEntity
  8
SANINDUSA
100
AcDbPolyline
 90
        3
 70
   128
 43
0.0
 10
5046.331326024833
 20
3078.755215990903
 10
5046.339325464237
 20
3078.75521397054
 10
5046.342323036197
 20
3078.755213307463
  0
LWPOLYLINE
  5
29FA
330
1F
100
AcDbEntity
  8
SANINDUSA
100
AcDbPolyline
 90
        3
 70
   128
 43
0.0
 10
5046.344912567415
 20
3078.752623020652
 10
5046.344912348516
 20
3078.744623922015
 10
5046.344912255911
 20
3078.741625417393
  0
ARC
  5
2A05
330
1F
100
AcDbEntity
  8
SANINDUSA
100
AcDbCircle
 10
5046.212323828875
 20
3078.88266430802
 30
0.0
 40
0.0025914024774944
100
AcDbArc
 50
0.0
 51
89.99413515242103
  0
LWPOLYLINE
  5
2A10
330
1F
100
AcDbEntity
  8
SANINDUSA
100
AcDbPolyline
 90
        3
 70
   128
 43
0.0
 10
5046.201322530617
 20
3078.885259320129
 10
5046.209322067987
 20
3078.885256733905
 10
5046.212324094134
 20
3078.885255710484
  0
LWPOLYLINE
  5
2A12
330
1F
100
AcDbEntity
  8
SANINDUSA
100
AcDbPolyline
 90
        3
 70
   128
 43
0.0
 10
5046.214915231341
 20
3078.882664563709
 10
5046.214915929543
 20
3078.874666099093
 10
5046.21491619602
 20
3078.871666392155
  0
ARC
  5
2A14
330
1F
100
AcDbEntity
  8
SANINDUSA
100
AcDbCircle
 10
5046.3313252055
 20
3078.752626970932
 30
0.0
 40
0.002589020100692
100
AcDbArc
 50
89.9818679401933
 51
180.0
  0
LWPOLYLINE
  5
2A17
330
1F
100
AcDbEntity
  8
SANINDUSA
100
AcDbPolyline
 90
        3
 70
   128
 43
0.0
 10
5046.32873601062
 20
3078.741628841877
 10
5046.328736147155
 20
3078.749627939879
 10
5046.328736185415
 20
3078.752626685053
  0
ARC
  5
2A25
330
1F
100
AcDbEntity
  8
SANINDUSA
100
AcDbCircle
 10
5045.941294216068
 20
3078.752625741464
 30
0.0
 40
0.0025905548765832
100
AcDbArc
 50
90.02088816886297
 51
180.0
  0
ARC
  5
2A28
330
1F
100
AcDbEntity
  8
SANINDUSA
100
AcDbCircle
 10
5046.277331720962
 20
3078.817641339151
 30
0.0
 40
0.0025917649231961
100
AcDbArc
 50
0.0
 51
89.97271806439066
  0
ARC
  5
2A33
330
1F
100
AcDbEntity
  8
SANINDUSA
100
AcDbCircle
 10
5046.342322991475
 20
3078.741625227709
 30
0.0
 40
0.0025892644420266
100
AcDbArc
 50
269.9849511449995
 51
0.0
  0
LWPOLYLINE
  5
2A35
330
1F
100
AcDbEntity
  8
SANINDUSA
100
AcDbPolyline
 90
        3
 70
   128
 43
0.0
 10
5045.941293271635
 20
3078.755216296168
 10
5045.949292552442
 20
3078.755218700045
 10
5045.952290405899
 20
3078.755219693398
  0
LWPOLYLINE
  5
2A38
330
1F
100
AcDbEntity
  8
SANINDUSA
100
AcDbPolyline
 90
        3
 70
   128
 43
0.0
 10
5045.938703822564
 20
3078.741627799943
 10
5045.938703696186
 20
3078.749626942969
 10
5045.938703661192
 20
3078.75262573675
  0
LWPOLYLINE
  5
2A39
330
1F
100
AcDbEntity
  8
SANINDUSA
100
AcDbPolyline
 90
        3
 70
   128
 43
0.0
 10
5046.279923485885
 20
3078.817641393804
 10
5046.279924120774
 20
3078.809642153818
 10
5046.279924354101
 20
3078.80664198359
  0
LWPOLYLINE
  5
2A3B
330
1F
100
AcDbEntity
  8
SANINDUSA
100
AcDbPolyline
 90
        3
 70
   128
 43
0.0
 10
5046.266333542387
 20
3078.820238709552
 10
5046.274332143426
 20
3078.820234610928
 10
5046.277332955056
 20
3078.820233103781
  0
LWPOLYLINE
  5
2A3E
330
1F
100
AcDbEntity
  8
SANINDUSA
100
AcDbPolyline
 90
        3
 70
   128
 43
0.0
 10
5046.3423223114
 20
3078.739035963356
 10
5046.334322786089
 20
3078.739037706764
 10
5046.331325487397
 20
3078.739038455469
  0
ARC
  5
2A47
330
1F
100
AcDbEntity
  8
SANINDUSA
100
AcDbCircle
 10
5046.201321622459
 20
3078.882669981729
 30
0.0
 40
0.0025893385584572
100
AcDbArc
 50
89.97990468800216
 51
179.9883595435128
  0
ARC
  5
2A51
330
1F
100
AcDbEntity
  8
SANINDUSA
100
AcDbCircle
 10
5046.071297246976
 20
3078.882667894222
 30
0.0
 40
0.0025914987294874
100
AcDbArc
 50
90.00775118500959
 51
179.9882821077454
  0
LWPOLYLINE
  5
2A55
330
1F
100
AcDbEntity
  8
SANINDUSA
100
AcDbPolyline
 90
        3
 70
   128
 43
0.0
 10
5046.198733141185
 20
3078.8716726741
 10
5046.198732513618
 20
3078.879670976764
 10
5046.198732283953
 20
3078.88267050772
  0
LWPOLYLINE
  5
2A58
330
1F
100
AcDbEntity
  8
SANINDUSA
100
AcDbPolyline
 90
        3
 70
   128
 43
0.0
 10
5046.071296896389
 20
3078.885259392928
 10
5046.079296530052
 20
3078.885261712467
 10
5046.082298648897
 20
3078.885262521346
  0
LWPOLYLINE
  5
2A5B
330
1F
100
AcDbEntity
  8
SANINDUSA
100
AcDbPolyline
 90
        3
 70
   128
 43
0.0
 10
5046.06870486657
 20
3078.871670503023
 10
5046.068705511629
 20
3078.879668871828
 10
5046.068705748301
 20
3078.882668424224
  0
ARC
  5
2A61
330
1F
100
AcDbEntity
  8
SANINDUSA
100
AcDbCircle
 10
5046.331326481026
 20
3078.741628925686
 30
0.0
 40
0.0025904704074052
100
AcDbArc
 50
180.0
 51
269.9780229882729
  0
ARC
  5
2A62
330
1F
100
AcDbEntity
  8
SANINDUSA
100
AcDbCircle
 10
5045.952291261423
 20
3078.752630781304
 30
0.0
 40
0.0025889122353964
100
AcDbArc
 50
0.0
 51
90.01893377539774
  0
ARC
  5
2A64
330
1F
100
AcDbEntity
  8
SANINDUSA
100
AcDbCircle
 10
5046.277335891759
 20
3078.806641753609
 30
0.0
 40
0.0025884623523814
100
AcDbArc
 50
269.9734500565595
 51
0.0
  0
ARC
  5
2A69
330
1F
100
AcDbEntity
  8
SANINDUSA
100
AcDbCircle
 10
5045.941292947408
 20
3078.741627599579
 30
0.0
 40
0.0025891248523221
100
AcDbArc
 50
180.0
 51
270.016597153561
  0
LWPOLYLINE
  5
2A6A
330
1F
100
AcDbEntity
  8
SANINDUSA
100
AcDbPolyline
 90
        3
 70
   128
 43
0.0
 10
5045.954880173646
 20
3078.752630541601
 10
5045.954880164789
 20
3078.744631358755
 10
5045.954880175719
 20
3078.741632385174
  0
ARC
  5
2A6C
330
1F
100
AcDbEntity
  8
SANINDUSA
100
AcDbCircle
 10
5046.21232716248
 20
3078.87166678873
 30
0.0
 40
0.0025890335694233
100
AcDbArc
 50
269.9767290917058
 51
359.9912234163662
  0
LWPOLYLINE
  5
2A6E
330
1F
100
AcDbEntity
  8
SANINDUSA
100
AcDbPolyline
 90
        3
 70
   128
 43
0.0
 10
5046.277334692308
 20
3078.804053291535
 10
5046.269336235052
 20
3078.804057505241
 10
5046.266335509578
 20
3078.804059120221
  0
LWPOLYLINE
  5
2A71
330
1F
100
AcDbEntity
  8
SANINDUSA
100
AcDbPolyline
 90
        3
 70
   128
 43
0.0
 10
5045.952290610995
 20
3078.739041708979
 10
5045.944291388231
 20
3078.73903928704
 10
5045.941293697413
 20
3078.739038474835
  0
LWPOLYLINE
  5
2A72
330
1F
100
AcDbEntity
  8
SANINDUSA
100
AcDbPolyline
 90
        3
 70
   128
 43
0.0
 10
5046.212326110934
 20
3078.869077755375
 10
5046.20432670198
 20
3078.869080648378
 10
5046.201324383527
 20
3078.869081677489
  0
ARC
  5
2A74
330
1F
100
AcDbEntity
  8
SANINDUSA
100
AcDbCircle
 10
5046.082299780212
 20
3078.882673305194
 30
0.0
 40
0.0025892163987936
100
AcDbArc
 50
0.0
 51
90.02503442210088
  0
LWPOLYLINE
  5
2A76
330
1F
100
AcDbEntity
  8
SANINDUSA
100
AcDbPolyline
 90
        3
 70
   128
 43
0.0
 10
5046.084888996594
 20
3078.88267359872
 10
5046.084888460334
 20
3078.874675387806
 10
5046.084888254665
 20
3078.871675985341
  0
ARC
  5
2A79
330
1F
100
AcDbEntity
  8
SANINDUSA
100
AcDbCircle
 10
5046.266332325455
 20
3078.817650235221
 30
0.0
 40
0.0025884746173052
100
AcDbArc
 50
89.97306324245544
 51
180.0
  0
LWPOLYLINE
  5
2A7C
330
1F
100
AcDbEntity
  8
SANINDUSA
100
AcDbPolyline
 90
        3
 70
   128
 43
0.0
 10
5046.263744878637
 20
3078.806650943297
 10
5046.263744133199
 20
3078.814650060328
 10
5046.26374385084
 20
3078.81765015189
  0
ARC
  5
2A7D
330
1F
100
AcDbEntity
  8
SANINDUSA
100
AcDbCircle
 10
5046.006287179202
 20
3078.817647551196
 30
0.0
 40
0.0025918439686203
100
AcDbArc
 50
90.02577933759972
 51
180.0
  0
LWPOLYLINE
  5
2A8A
330
1F
100
AcDbEntity
  8
SANINDUSA
100
AcDbPolyline
 90
        3
 70
   128
 43
0.0
 10
5046.003694350012
 20
3078.80664834814
 10
5046.003695064243
 20
3078.814647507212
 10
5046.003695335235
 20
3078.817647632126
  0
LWPOLYLINE
  5
2A8B
330
1F
100
AcDbEntity
  8
SANINDUSA
100
AcDbPolyline
 90
        3
 70
   128
 43
0.0
 10
5046.006286013042
 20
3078.820239394902
 10
5046.014284626398
 20
3078.820243530953
 10
5046.017285836011
 20
3078.820245097206
  0
ARC
  5
2A92
330
1F
100
AcDbEntity
  8
SANINDUSA
100
AcDbCircle
 10
5046.201324507082
 20
3078.871673043409
 30
0.0
 40
0.0025913659233019
100
AcDbArc
 50
180.0081655393273
 51
269.9972681223497
  0
ARC
  5
2A96
330
1F
100
AcDbEntity
  8
SANINDUSA
100
AcDbCircle
 10
5046.071293801549
 20
3078.871670732951
 30
0.0
 40
0.0025889349900214
100
AcDbArc
 50
180.0
 51
270.0277668732609
  0
ARC
  5
2A97
330
1F
100
AcDbEntity
  8
SANINDUSA
100
AcDbCircle
 10
5045.952289501047
 20
3078.741632383414
 30
0.0
 40
0.00259067467195
100
AcDbArc
 50
270.0245478169349
 51
0.0
  0
LWPOLYLINE
  5
2A99
330
1F
100
AcDbEntity
  8
SANINDUSA
100
AcDbPolyline
 90
        3
 70
   128
 43
0.0
 10
5046.082297022083
 20
3078.86908520978
 10
5046.074297430788
 20
3078.869082776413
 10
5046.071295056207
 20
3078.869081798265
  0
ARC
  5
2AA2
330
1F
100
AcDbEntity
  8
SANINDUSA
100
AcDbCircle
 10
5046.266336839392
 20
3078.806651080638
 30
0.0
 40
0.0025919607579816
100
AcDbArc
 50
180.0
 51
269.9706042135499
  0
ARC
  5
2AA4
330
1F
100
AcDbEntity
  8
SANINDUSA
100
AcDbCircle
 10
5046.006282790353
 20
3078.806648219978
 30
0.0
 40
0.0025884403435436
100
AcDbArc
 50
180.0
 51
270.0271446251899
  0
LWPOLYLINE
  5
2AA6
330
1F
100
AcDbEntity
  8
SANINDUSA
100
AcDbPolyline
 90
        3
 70
   128
 43
0.0
 10
5046.017283655476
 20
3078.804065748351
 10
5046.009285236329
 20
3078.804061393066
 10
5046.006284016661
 20
3078.804059779925
  0
LWPOLYLINE
  5
2AAF
330
1F
100
AcDbEntity
  8
SANINDUSA
100
AcDbPolyline
 90
        3
 70
   128
 43
0.0
 10
5046.136309680001
 20
3078.88527002399
 10
5046.144309679545
 20
3078.885269859132
 10
5046.1473121111
 20
3078.88526970669
  0
ARC
  5
2AB2
330
1F
100
AcDbEntity
  8
SANINDUSA
100
AcDbCircle
 10
5046.082296759466
 20
3078.871676705067
 30
0.0
 40
0.0025914952992799
100
AcDbArc
 50
270.0058062235954
 51
359.9840874964298
  0
ARC
  5
2AB3
330
1F
100
AcDbEntity
  8
SANINDUSA
100
AcDbCircle
 10
5046.147312710446
 20
3078.882679333547
 30
0.0
 40
0.0025903732118056
100
AcDbArc
 50
0.0087117845909981
 51
90.01325678489623
  0
ARC
  5
2AB7
330
1F
100
AcDbEntity
  8
SANINDUSA
100
AcDbCircle
 10
5046.136309295835
 20
3078.882679486023
 30
0.0
 40
0.0025905379954467
100
AcDbArc
 50
89.99150327423853
 51
179.9834843989185
  0
LWPOLYLINE
  5
2ABA
330
1F
100
AcDbEntity
  8
SANINDUSA
100
AcDbPolyline
 90
        3
 70
   128
 43
0.0
 10
5046.133718679429
 20
3078.871683041298
 10
5046.133718736744
 20
3078.879680999037
 10
5046.133718757947
 20
3078.882680232749
  0
ARC
  5
2ABD
330
1F
100
AcDbEntity
  8
SANINDUSA
100
AcDbCircle
 10
5046.017287138859
 20
3078.817656671988
 30
0.0
 40
0.0025884255456544
100
AcDbArc
 50
0.0
 51
90.02883904091509
  0
LWPOLYLINE
  5
2AC3
330
1F
100
AcDbEntity
  8
SANINDUSA
100
AcDbPolyline
 90
        3
 70
   128
 43
0.0
 10
5046.019875564404
 20
3078.817656624027
 10
5046.019874753503
 20
3078.809657613191
 10
5046.019874451232
 20
3078.806657590693
  0
ARC
  5
2ACB
330
1F
100
AcDbEntity
  8
SANINDUSA
100
AcDbCircle
 10
5046.017282388064
 20
3078.806657811219
 30
0.0
 40
0.0025920631787455
100
AcDbArc
 50
270.0280153347534
 51
0.0
  0
LWPOLYLINE
  5
2ACF
330
1F
100
AcDbEntity
  8
SANINDUSA
100
AcDbPolyline
 90
        3
 70
   128
 43
0.0
 10
5046.147312444405
 20
3078.869093066198
 10
5046.13931244997
 20
3078.869093390808
 10
5046.136309598928
 20
3078.869093411075
  0
ARC
  5
2AD1
330
1F
100
AcDbEntity
  8
SANINDUSA
100
AcDbCircle
 10
5046.147313030192
 20
3078.871683310872
 30
0.0
 40
0.0025902447397214
100
AcDbArc
 50
269.9870424840318
 51
359.9821647599637
  0
ARC
  5
2AD2
330
1F
100
AcDbEntity
  8
SANINDUSA
100
AcDbCircle
 10
5046.13630874072
 20
3078.87168347226
 30
0.0
 40
0.0025900613265581
100
AcDbArc
 50
180.0095341357879
 51
270.0189847391783
  0
ARC
  5
2ADE
330
1F
100
AcDbEntity
  8
SANINDUSA
100
AcDbCircle
 10
5045.88731112482
 20
3078.687643158675
 30
0.0
 40
0.0025895550306438
100
AcDbArc
 50
0.0
 51
90.01047675735589
  0
LWPOLYLINE
  5
2AE9
330
1F
100
AcDbEntity
  8
SANINDUSA
100
AcDbPolyline
 90
        3
 70
   128
 43
0.0
 10
5045.876313246999
 20
3078.690233445221
 10
5045.88431322956
 20
3078.690232881992
 10
5045.88731065131
 20
3078.690232713662
  0
LWPOLYLINE
  5
2AEB
330
1F
100
AcDbEntity
  8
SANINDUSA
100
AcDbPolyline
 90
        3
 70
   128
 43
0.0
 10
5045.88990067984
 20
3078.687643398516
 10
5045.889900937442
 20
3078.6796459663
 10
5045.889901026359
 20
3078.676649798712
  0
ARC
  5
2AED
330
1F
100
AcDbEntity
  8
SANINDUSA
100
AcDbCircle
 10
5045.876312789064
 20
3078.687644112232
 30
0.0
 40
0.0025893330291251
100
AcDbArc
 50
89.98986696157924
 51
179.9885395842879
  0
ARC
  5
2AF0
330
1F
100
AcDbEntity
  8
SANINDUSA
100
AcDbCircle
 10
5046.277336152361
 20
3078.752647002669
 30
0.0
 40
0.0025916080025488
100
AcDbArc
 50
0.0
 51
89.96695827020555
  0
ARC
  5
2AFC
330
1F
100
AcDbEntity
  8
SANINDUSA
100
AcDbCircle
 10
5046.396305849057
 20
3078.687645064749
 30
0.0
 40
0.0025899088681906
100
AcDbArc
 50
89.99703883743521
 51
179.9865012673968
  0
LWPOLYLINE
  5
2B08
330
1F
100
AcDbEntity
  8
SANINDUSA
100
AcDbPolyline
 90
        3
 70
   128
 43
0.0
 10
5045.873723505495
 20
3078.676650924634
 10
5045.873723479736
 20
3078.684648188321
 10
5045.873723456087
 20
3078.687644630151
  0
LWPOLYLINE
  5
2B09
330
1F
100
AcDbEntity
  8
SANINDUSA
100
AcDbPolyline
 90
        3
 70
   128
 43
0.0
 10
5046.27992776036
 20
3078.752647150286
 10
5046.279928082793
 20
3078.744648074052
 10
5046.279928187992
 20
3078.741648976209
  0
LWPOLYLINE
  5
2B0B
330
1F
100
AcDbEntity
  8
SANINDUSA
100
AcDbPolyline
 90
        3
 70
   128
 43
0.0
 10
5046.266338928916
 20
3078.755244803362
 10
5046.274336886452
 20
3078.755240260139
 10
5046.277337646909
 20
3078.75523861024
  0
LWPOLYLINE
  5
2B0D
330
1F
100
AcDbEntity
  8
SANINDUSA
100
AcDbPolyline
 90
        3
 70
   128
 43
0.0
 10
5046.396305982909
 20
3078.690234973613
 10
5046.404305935983
 20
3078.690235725813
 10
5046.407303776071
 20
3078.69023603876
  0
LWPOLYLINE
  5
2B11
330
1F
100
AcDbEntity
  8
SANINDUSA
100
AcDbPolyline
 90
        3
 70
   128
 43
0.0
 10
5046.393715727699
 20
3078.676652357858
 10
5046.393715874218
 20
3078.684649401992
 10
5046.393715940261
 20
3078.687645674925
  0
ARC
  5
2B17
330
1F
100
AcDbEntity
  8
SANINDUSA
100
AcDbCircle
 10
5046.407304701908
 20
3078.687647034102
 30
0.0
 40
0.0025890048238039
100
AcDbArc
 50
0.0
 51
90.02048916097061
  0
LWPOLYLINE
  5
2B1A
330
1F
100
AcDbEntity
  8
SANINDUSA
100
AcDbPolyline
 90
        3
 70
   128
 43
0.0
 10
5046.409893706718
 20
3078.687647307904
 10
5046.409893752024
 20
3078.679650157613
 10
5046.409893787537
 20
3078.676653785567
  0
ARC
  5
2B1E
330
1F
100
AcDbEntity
  8
SANINDUSA
100
AcDbCircle
 10
5046.34232008158
 20
3078.687645613526
 30
0.0
 40
0.0025895140488363
100
AcDbArc
 50
0.0081975349946404
 51
89.99451269087805
  0
LWPOLYLINE
  5
2B29
330
1F
100
AcDbEntity
  8
SANINDUSA
100
AcDbPolyline
 90
        3
 70
   128
 43
0.0
 10
5046.331323713765
 20
3078.690236767616
 10
5046.339323329486
 20
3078.690235509326
 10
5046.342320329582
 20
3078.690235127562
  0
LWPOLYLINE
  5
2B2B
330
1F
100
AcDbEntity
  8
SANINDUSA
100
AcDbPolyline
 90
        3
 70
   128
 43
0.0
 10
5046.344909595603
 20
3078.687645984015
 10
5046.344909046108
 20
3078.679648422736
 10
5046.344908830763
 20
3078.676652198289
  0
ARC
  5
2B31
330
1F
100
AcDbEntity
  8
SANINDUSA
100
AcDbCircle
 10
5046.277339933082
 20
3078.741648730347
 30
0.0
 40
0.0025882549214603
100
AcDbArc
 50
269.9670793222434
 51
0.0
  0
LWPOLYLINE
  5
2B35
330
1F
100
AcDbEntity
  8
SANINDUSA
100
AcDbPolyline
 90
        3
 70
   128
 43
0.0
 10
5046.277338445936
 20
3078.739060475852
 10
5046.269340542544
 20
3078.739064925811
 10
5046.266340020086
 20
3078.739066652903
  0
ARC
  5
2B39
330
1F
100
AcDbEntity
  8
SANINDUSA
100
AcDbCircle
 10
5045.941295979016
 20
3078.68764573867
 30
0.0
 40
0.0025899169301186
100
AcDbArc
 50
90.01487152396228
 51
179.9888983370175
  0
ARC
  5
2B44
330
1F
100
AcDbEntity
  8
SANINDUSA
100
AcDbCircle
 10
5046.331322727581
 20
3078.687647719827
 30
0.0
 40
0.0025890479769883
100
AcDbArc
 50
89.97817572330095
 51
180.0
  0
LWPOLYLINE
  5
2B46
330
1F
100
AcDbEntity
  8
SANINDUSA
100
AcDbPolyline
 90
        3
 70
   128
 43
0.0
 10
5045.941295306785
 20
3078.690235655513
 10
5045.949294747035
 20
3078.690237300004
 10
5045.952291898328
 20
3078.690238009769
  0
LWPOLYLINE
  5
2B49
330
1F
100
AcDbEntity
  8
SANINDUSA
100
AcDbPolyline
 90
        3
 70
   128
 43
0.0
 10
5045.938706827706
 20
3078.676651983541
 10
5045.938706259993
 20
3078.684649710901
 10
5045.938706062134
 20
3078.687646240488
  0
LWPOLYLINE
  5
2B4B
330
1F
100
AcDbEntity
  8
SANINDUSA
100
AcDbPolyline
 90
        3
 70
   128
 43
0.0
 10
5046.328732895716
 20
3078.676653668557
 10
5046.328733476276
 20
3078.684651290985
 10
5046.328733679608
 20
3078.687647841474
  0
ARC
  5
2B50
330
1F
100
AcDbEntity
  8
SANINDUSA
100
AcDbCircle
 10
5046.266337403491
 20
3078.752656623094
 30
0.0
 40
0.0025881807176018
100
AcDbArc
 50
89.9662309679145
 51
180.0
  0
ARC
  5
2B52
330
1F
100
AcDbEntity
  8
SANINDUSA
100
AcDbCircle
 10
5045.887311744234
 20
3078.676650487053
 30
0.0
 40
0.0025892822161136
100
AcDbArc
 50
269.9902632597179
 51
359.9847683163277
  0
LWPOLYLINE
  5
2B55
330
1F
100
AcDbEntity
  8
SANINDUSA
100
AcDbPolyline
 90
        3
 70
   128
 43
0.0
 10
5046.263749851969
 20
3078.74165819689
 10
5046.26374940581
 20
3078.749657178859
 10
5046.26374922278
 20
3078.752656457375
  0
LWPOLYLINE
  5
2B56
330
1F
100
AcDbEntity
  8
SANINDUSA
100
AcDbPolyline
 90
        3
 70
   128
 43
0.0
 10
5045.887311304216
 20
3078.674061204874
 10
5045.879311317421
 20
3078.67406167979
 10
5045.876313456439
 20
3078.67406188344
  0
ARC
  5
2B58
330
1F
100
AcDbEntity
  8
SANINDUSA
100
AcDbCircle
 10
5046.006281974978
 20
3078.752653422959
 30
0.0
 40
0.0025917994796047
100
AcDbArc
 50
90.03284782768298
 51
180.0
  0
ARC
  5
2B63
330
1F
100
AcDbEntity
  8
SANINDUSA
100
AcDbCircle
 10
5046.212329553483
 20
3078.81767470771
 30
0.0
 40
0.0025918237473254
100
AcDbArc
 50
0.0
 51
89.98737666680424
  0
LWPOLYLINE
  5
2B6F
330
1F
100
AcDbEntity
  8
SANINDUSA
100
AcDbPolyline
 90
        3
 70
   128
 43
0.0
 10
5046.003689554042
 20
3078.741655268257
 10
5046.003689995782
 20
3078.749654301045
 10
5046.003690175503
 20
3078.752653580481
  0
ARC
  5
2B70
330
1F
100
AcDbEntity
  8
SANINDUSA
100
AcDbCircle
 10
5045.876312946395
 20
3078.67665132432
 30
0.0
 40
0.0025894409303654
100
AcDbArc
 50
180.0088437536909
 51
270.0112855599078
  0
LWPOLYLINE
  5
2B71
330
1F
100
AcDbEntity
  8
SANINDUSA
100
AcDbPolyline
 90
        3
 70
   128
 43
0.0
 10
5046.006280489093
 20
3078.755245222013
 10
5046.014278374672
 20
3078.755249941246
 10
5046.017279765789
 20
3078.755251747383
  0
LWPOLYLINE
  5
2B74
330
1F
100
AcDbEntity
  8
SANINDUSA
100
AcDbPolyline
 90
        3
 70
   128
 43
0.0
 10
5046.201328119688
 20
3078.820271472584
 10
5046.209327185995
 20
3078.820267924801
 10
5046.212330124509
 20
3078.820266531394
  0
LWPOLYLINE
  5
2B76
330
1F
100
AcDbEntity
  8
SANINDUSA
100
AcDbPolyline
 90
        3
 70
   128
 43
0.0
 10
5046.214921377214
 20
3078.817674990146
 10
5046.214922198532
 20
3078.809676398368
 10
5046.214922509452
 20
3078.806676755089
  0
ARC
  5
2B79
330
1F
100
AcDbEntity
  8
SANINDUSA
100
AcDbCircle
 10
5046.396304602985
 20
3078.676652731607
 30
0.0
 40
0.0025888753131759
100
AcDbArc
 50
180.008271635717
 51
270.022077844992
  0
LWPOLYLINE
  5
2B7B
330
1F
100
AcDbEntity
  8
SANINDUSA
100
AcDbPolyline
 90
        3
 70
   128
 43
0.0
 10
5046.407303833101
 20
3078.674064787506
 10
5046.399303895586
 20
3078.674064097711
 10
5046.39630560056
 20
3078.674063856486
  0
ARC
  5
2B82
330
1F
100
AcDbEntity
  8
SANINDUSA
100
AcDbCircle
 10
5046.407303931472
 20
3078.676654643711
 30
0.0
 40
0.0025898562069879
100
AcDbArc
 50
269.9978237213869
 51
359.9810151044825
  0
ARC
  5
2B87
330
1F
100
AcDbEntity
  8
SANINDUSA
100
AcDbCircle
 10
5045.952293125917
 20
3078.687649236385
 30
0.0
 40
0.0025887736753893
100
AcDbArc
 50
0.0
 51
90.02716948176859
  0
LWPOLYLINE
  5
2B89
330
1F
100
AcDbEntity
  8
SANINDUSA
100
AcDbPolyline
 90
        3
 70
   128
 43
0.0
 10
5045.954881899591
 20
3078.687649141698
 10
5045.954882443441
 20
3078.679651150269
 10
5045.954882667285
 20
3078.676654416739
  0
ARC
  5
2B8E
330
1F
100
AcDbEntity
  8
SANINDUSA
100
AcDbCircle
 10
5046.342319518544
 20
3078.676652576233
 30
0.0
 40
0.0025893122460339
100
AcDbArc
 50
269.9815802918354
 51
359.9916369369242
  0
LWPOLYLINE
  5
2B92
330
1F
100
AcDbEntity
  8
SANINDUSA
100
AcDbPolyline
 90
        3
 70
   128
 43
0.0
 10
5046.342318686122
 20
3078.674063264121
 10
5046.334318954066
 20
3078.674064141916
 10
5046.331322050091
 20
3078.674064556675
  0
ARC
  5
2B95
330
1F
100
AcDbEntity
  8
SANINDUSA
100
AcDbCircle
 10
5046.26634161308
 20
3078.741658413532
 30
0.0
 40
0.0025917611188909
100
AcDbArc
 50
180.0
 51
269.9647838671701
  0
ARC
  5
2B97
330
1F
100
AcDbEntity
  8
SANINDUSA
100
AcDbCircle
 10
5046.006277719346
 20
3078.741655074881
 30
0.0
 40
0.0025881653103137
100
AcDbArc
 50
180.0
 51
270.0344296333065
  0
ARC
  5
2B98
330
1F
100
AcDbEntity
  8
SANINDUSA
100
AcDbCircle
 10
5046.20132691088
 20
3078.817682456497
 30
0.0
 40
0.0025890163690389
100
AcDbArc
 50
89.9732487027016
 51
179.9880887267573
  0
LWPOLYLINE
  5
2B9B
330
1F
100
AcDbEntity
  8
SANINDUSA
100
AcDbPolyline
 90
        3
 70
   128
 43
0.0
 10
5046.017278278213
 20
3078.739073491346
 10
5046.009280580921
 20
3078.739068674136
 10
5046.0062792746
 20
3078.739066910038
  0
ARC
  5
2B9C
330
1F
100
AcDbEntity
  8
SANINDUSA
100
AcDbCircle
 10
5046.07129195958
 20
3078.817679829346
 30
0.0
 40
0.0025919443423002
100
AcDbArc
 50
90.01357877388031
 51
179.9872149427664
  0
LWPOLYLINE
  5
2BA9
330
1F
100
AcDbEntity
  8
SANINDUSA
100
AcDbPolyline
 90
        3
 70
   128
 43
0.0
 10
5046.198738937863
 20
3078.806685101971
 10
5046.198738178105
 20
3078.814683501761
 10
5046.198737894567
 20
3078.81768299473
  0
LWPOLYLINE
  5
2BAA
330
1F
100
AcDbEntity
  8
SANINDUSA
100
AcDbPolyline
 90
        3
 70
   128
 43
0.0
 10
5046.071291345303
 20
3078.820271773615
 10
5046.079290587597
 20
3078.820275003593
 10
5046.082293740483
 20
3078.820276136589
  0
LWPOLYLINE
  5
2BAD
330
1F
100
AcDbEntity
  8
SANINDUSA
100
AcDbPolyline
 90
        3
 70
   128
 43
0.0
 10
5046.068698940842
 20
3078.80668237726
 10
5046.068699724316
 20
3078.814680831938
 10
5046.068700015302
 20
3078.817680407713
  0
ARC
  5
2BAF
330
1F
100
AcDbEntity
  8
SANINDUSA
100
AcDbCircle
 10
5045.941295777725
 20
3078.676652025837
 30
0.0
 40
0.00258895001955
100
AcDbArc
 50
180.0
 51
270.0262409819786
  0
ARC
  5
2BB0
330
1F
100
AcDbEntity
  8
SANINDUSA
100
AcDbCircle
 10
5046.212333871109
 20
3078.806677118283
 30
0.0
 40
0.0025886383688244
100
AcDbArc
 50
269.9693499206766
 51
0.0
  0
LWPOLYLINE
  5
2BB3
330
1F
100
AcDbEntity
  8
SANINDUSA
100
AcDbPolyline
 90
        3
 70
   128
 43
0.0
 10
5045.952293551039
 20
3078.674065027348
 10
5045.944294095213
 20
3078.674063544158
 10
5045.941296963442
 20
3078.67406307609
  0
ARC
  5
2BB5
330
1F
100
AcDbEntity
  8
SANINDUSA
100
AcDbCircle
 10
5046.331322386468
 20
3078.676654047433
 30
0.0
 40
0.002589490779633
100
AcDbArc
 50
180.0083834642219
 51
269.992557203205
  0
LWPOLYLINE
  5
2BB6
330
1F
100
AcDbEntity
  8
SANINDUSA
100
AcDbPolyline
 90
        3
 70
   128
 43
0.0
 10
5046.212332486331
 20
3078.804088480285
 10
5046.204333639228
 20
3078.80409236556
 10
5046.201330343199
 20
3078.804093755722
  0
ARC
  5
2BB8
330
1F
100
AcDbEntity
  8
SANINDUSA
100
AcDbCircle
 10
5046.017281391766
 20
3078.75266364472
 30
0.0
 40
0.0025881031730815
100
AcDbArc
 50
0.0
 51
90.03599611856262
  0
LWPOLYLINE
  5
2BBA
330
1F
100
AcDbEntity
  8
SANINDUSA
100
AcDbPolyline
 90
        3
 70
   128
 43
0.0
 10
5046.019869494937
 20
3078.752663516461
 10
5046.019868896516
 20
3078.744664573342
 10
5046.019868685553
 20
3078.741665197532
  0
ARC
  5
2BC8
330
1F
100
AcDbEntity
  8
SANINDUSA
100
AcDbCircle
 10
5045.952292774498
 20
3078.676654920067
 30
0.0
 40
0.0025898928345026
100
AcDbArc
 50
270.0171792767143
 51
359.9888647519891
  0
ARC
  5
2BC9
330
1F
100
AcDbEntity
  8
SANINDUSA
100
AcDbCircle
 10
5046.082295190764
 20
3078.817687214416
 30
0.0
 40
0.0025889225786512
100
AcDbArc
 50
0.0
 51
90.03209634624454
  0
LWPOLYLINE
  5
2BCB
330
1F
100
AcDbEntity
  8
SANINDUSA
100
AcDbPolyline
 90
        3
 70
   128
 43
0.0
 10
5046.084884113324
 20
3078.817687524953
 10
5046.084883428946
 20
3078.809689261784
 10
5046.084883167773
 20
3078.8066898385
  0
ARC
  5
2BD0
330
1F
100
AcDbEntity
  8
SANINDUSA
100
AcDbCircle
 10
5046.201330722343
 20
3078.806685540212
 30
0.0
 40
0.0025917845177893
100
AcDbArc
 50
180.0096880693486
 51
269.9916183856904
  0
ARC
  5
2BD2
330
1F
100
AcDbEntity
  8
SANINDUSA
100
AcDbCircle
 10
5046.07128751473
 20
3078.806682588184
 30
0.0
 40
0.0025885738963374
100
AcDbArc
 50
180.0
 51
270.035111703945
  0
LWPOLYLINE
  5
2BD4
330
1F
100
AcDbEntity
  8
SANINDUSA
100
AcDbPolyline
 90
        3
 70
   128
 43
0.0
 10
5046.08229169284
 20
3078.804098702966
 10
5046.074292521748
 20
3078.804095352236
 10
5046.071289101046
 20
3078.804094014774
  0
ARC
  5
2BD5
330
1F
100
AcDbEntity
  8
SANINDUSA
100
AcDbCircle
 10
5046.017276686272
 20
3078.741665490154
 30
0.0
 40
0.002591999296606
100
AcDbArc
 50
270.0351896087231
 51
0.0
  0
ARC
  5
2BD9
330
1F
100
AcDbEntity
  8
SANINDUSA
100
AcDbCircle
 10
5046.082291196261
 20
3078.806690674564
 30
0.0
 40
0.0025919716462874
100
AcDbArc
 50
270.0109769111421
 51
359.9815181504157
  0
LWPOLYLINE
  5
2BDD
330
1F
100
AcDbEntity
  8
SANINDUSA
100
AcDbPolyline
 90
        3
 70
   128
 43
0.0
 10
5046.13630954659
 20
3078.820286688963
 10
5046.144309546642
 20
3078.820286426063
 10
5046.147313177699
 20
3078.820286204209
  0
ARC
  5
2BE8
330
1F
100
AcDbEntity
  8
SANINDUSA
100
AcDbCircle
 10
5046.147313865497
 20
3078.817695628498
 30
0.0
 40
0.0025905758029021
100
AcDbArc
 50
0.0104392119469811
 51
90.01521201206951
  0
LWPOLYLINE
  5
2BEA
330
1F
100
AcDbEntity
  8
SANINDUSA
100
AcDbPolyline
 90
        3
 70
   128
 43
0.0
 10
5046.149904441257
 20
3078.817696100498
 10
5046.149904649642
 20
3078.809698122223
 10
5046.149904730348
 20
3078.806698861701
  0
ARC
  5
2BEC
330
1F
100
AcDbEntity
  8
SANINDUSA
100
AcDbCircle
 10
5046.13630909488
 20
3078.817696020041
 30
0.0
 40
0.0025906689608709
100
AcDbArc
 50
89.99000984777168
 51
179.9796910621998
  0
LWPOLYLINE
  5
2BEF
330
1F
100
AcDbEntity
  8
SANINDUSA
100
AcDbPolyline
 90
        3
 70
   128
 43
0.0
 10
5046.133718471833
 20
3078.80669981735
 10
5046.133718432741
 20
3078.81469776342
 10
5046.13371842608
 20
3078.817696938324
  0
ARC
  5
2BFA
330
1F
100
AcDbEntity
  8
SANINDUSA
100
AcDbCircle
 10
5046.277337472961
 20
3078.687664075924
 30
0.0
 40
0.0025909301433236
100
AcDbArc
 50
0.0088295276043597
 51
89.9698304289742
  0
LWPOLYLINE
  5
2C05
330
1F
100
AcDbEntity
  8
SANINDUSA
100
AcDbPolyline
 90
        3
 70
   128
 43
0.0
 10
5046.279928403072
 20
3078.687664475149
 10
5046.279928158611
 20
3078.679666362867
 10
5046.279928048043
 20
3078.676669218576
  0
LWPOLYLINE
  5
2C07
330
1F
100
AcDbEntity
  8
SANINDUSA
100
AcDbPolyline
 90
        3
 70
   128
 43
0.0
 10
5046.266340927923
 20
3078.690260698738
 10
5046.274338668425
 20
3078.690256502978
 10
5046.277338837237
 20
3078.690255005709
  0
LWPOLYLINE
  5
2C0A
330
1F
100
AcDbEntity
  8
SANINDUSA
100
AcDbPolyline
 90
        3
 70
   128
 43
0.0
 10
5046.147313693541
 20
3078.804109549155
 10
5046.13931370477
 20
3078.804110046519
 10
5046.136309722447
 20
3078.804110116115
  0
ARC
  5
2C0C
330
1F
100
AcDbEntity
  8
SANINDUSA
100
AcDbCircle
 10
5046.147314440219
 20
3078.806699839361
 30
0.0
 40
0.0025902903132169
100
AcDbArc
 50
269.9834839299267
 51
359.9783746540251
  0
ARC
  5
2C0F
330
1F
100
AcDbEntity
  8
SANINDUSA
100
AcDbCircle
 10
5046.136308685115
 20
3078.80670032924
 30
0.0
 40
0.0025902133327773
100
AcDbArc
 50
180.0113231574272
 51
270.0229458969015
  0
ARC
  5
2C20
330
1F
100
AcDbEntity
  8
SANINDUSA
100
AcDbCircle
 10
5046.277339837978
 20
3078.676669210562
 30
0.0
 40
0.0025882100653544
100
AcDbArc
 50
269.9617664770753
 51
0.0
  0
LWPOLYLINE
  5
2C22
330
1F
100
AcDbEntity
  8
SANINDUSA
100
AcDbPolyline
 90
        3
 70
   128
 43
0.0
 10
5046.277338110865
 20
3078.674081001072
 10
5046.269340225821
 20
3078.674084889338
 10
5046.266340502373
 20
3078.67408642843
  0
ARC
  5
2C25
330
1F
100
AcDbEntity
  8
SANINDUSA
100
AcDbCircle
 10
5046.006279690456
 20
3078.687668445189
 30
0.0
 40
0.002591315247889
100
AcDbArc
 50
90.03519487185313
 51
179.9894466145799
  0
ARC
  5
2C30
330
1F
100
AcDbEntity
  8
SANINDUSA
100
AcDbCircle
 10
5046.266339104112
 20
3078.68767262255
 30
0.0
 40
0.0025880768299553
100
AcDbArc
 50
89.95962380905018
 51
180.0
  0
LWPOLYLINE
  5
2C34
330
1F
100
AcDbEntity
  8
SANINDUSA
100
AcDbPolyline
 90
        3
 70
   128
 43
0.0
 10
5046.003688597515
 20
3078.676673029678
 10
5046.003688418906
 20
3078.684671264761
 10
5046.003688375253
 20
3078.687668922488
  0
LWPOLYLINE
  5
2C35
330
1F
100
AcDbEntity
  8
SANINDUSA
100
AcDbPolyline
 90
        3
 70
   128
 43
0.0
 10
5046.0062780987
 20
3078.690259759949
 10
5046.014275618089
 20
3078.690264250865
 10
5046.017276602107
 20
3078.690265995734
  0
LWPOLYLINE
  5
2C38
330
1F
100
AcDbEntity
  8
SANINDUSA
100
AcDbPolyline
 90
        3
 70
   128
 43
0.0
 10
5046.263750867345
 20
3078.676677029385
 10
5046.263750997027
 20
3078.684675120085
 10
5046.263751027282
 20
3078.687672610904
  0
ARC
  5
2C40
330
1F
100
AcDbEntity
  8
SANINDUSA
100
AcDbCircle
 10
5046.212335938473
 20
3078.752685543054
 30
0.0
 40
0.0025920989569825
100
AcDbArc
 50
0.0
 51
89.97962344919081
  0
LWPOLYLINE
  5
2C4C
330
1F
100
AcDbEntity
  8
SANINDUSA
100
AcDbPolyline
 90
        3
 70
   128
 43
0.0
 10
5046.214928037406
 20
3078.752685890716
 10
5046.214928764932
 20
3078.744687303594
 10
5046.214929024653
 20
3078.741687928568
  0
LWPOLYLINE
  5
2C4E
330
1F
100
AcDbEntity
  8
SANINDUSA
100
AcDbPolyline
 90
        3
 70
   128
 43
0.0
 10
5046.20133450873
 20
3078.755283830739
 10
5046.209332851546
 20
3078.755279375934
 10
5046.212336860321
 20
3078.755277641847
  0
ARC
  5
2C5D
330
1F
100
AcDbEntity
  8
SANINDUSA
100
AcDbCircle
 10
5046.006276629961
 20
3078.676672852271
 30
0.0
 40
0.0025880324522495
100
AcDbArc
 50
180.0
 51
270.0428741986517
  0
LWPOLYLINE
  5
2C60
330
1F
100
AcDbEntity
  8
SANINDUSA
100
AcDbPolyline
 90
        3
 70
   128
 43
0.0
 10
5046.017276745253
 20
3078.674090785048
 10
5046.009279269981
 20
3078.674086396998
 10
5046.006278566576
 20
3078.674084820543
  0
ARC
  5
2C61
330
1F
100
AcDbEntity
  8
SANINDUSA
100
AcDbCircle
 10
5046.266341906324
 20
3078.676677467066
 30
0.0
 40
0.0025910390160856
100
AcDbArc
 50
180.0096801746522
 51
269.9689543520335
  0
ARC
  5
2C63
330
1F
100
AcDbEntity
  8
SANINDUSA
100
AcDbCircle
 10
5046.017278612736
 20
3078.687678070024
 30
0.0
 40
0.002587926492066
100
AcDbArc
 50
0.0
 51
90.04451462847308
  0
LWPOLYLINE
  5
2C66
330
1F
100
AcDbEntity
  8
SANINDUSA
100
AcDbPolyline
 90
        3
 70
   128
 43
0.0
 10
5046.019866539225
 20
3078.687677933457
 10
5046.019866529507
 20
3078.679679620997
 10
5046.019866548395
 20
3078.676681681269
  0
ARC
  5
2C6A
330
1F
100
AcDbEntity
  8
SANINDUSA
100
AcDbCircle
 10
5046.212340674085
 20
3078.7416882306
 30
0.0
 40
0.0025883505837767
100
AcDbArc
 50
269.9609739327345
 51
0.0
  0
LWPOLYLINE
  5
2C6D
330
1F
100
AcDbEntity
  8
SANINDUSA
100
AcDbPolyline
 90
        3
 70
   128
 43
0.0
 10
5046.212338911075
 20
3078.739099880616
 10
5046.204340846923
 20
3078.739104532775
 10
5046.201336575546
 20
3078.739106215817
  0
ARC
  5
2C6F
330
1F
100
AcDbEntity
  8
SANINDUSA
100
AcDbCircle
 10
5046.201332938817
 20
3078.752695115667
 30
0.0
 40
0.0025887155472424
100
AcDbArc
 50
89.96525327601036
 51
179.9882329157102
  0
ARC
  5
2C71
330
1F
100
AcDbEntity
  8
SANINDUSA
100
AcDbCircle
 10
5046.071286006978
 20
3078.752691663573
 30
0.0
 40
0.0025922573764983
100
AcDbArc
 50
90.02046451284384
 51
179.9850610975344
  0
LWPOLYLINE
  5
2C7D
330
1F
100
AcDbEntity
  8
SANINDUSA
100
AcDbPolyline
 90
        3
 70
   128
 43
0.0
 10
5046.198745227176
 20
3078.741697767051
 10
5046.198744505737
 20
3078.749696174326
 10
5046.198744223325
 20
3078.752695647323
  0
LWPOLYLINE
  5
2C7E
330
1F
100
AcDbEntity
  8
SANINDUSA
100
AcDbPolyline
 90
        3
 70
   128
 43
0.0
 10
5046.071285081094
 20
3078.755283920785
 10
5046.079283716274
 20
3078.755287983952
 10
5046.082288057974
 20
3078.755289417101
  0
LWPOLYLINE
  5
2C81
330
1F
100
AcDbEntity
  8
SANINDUSA
100
AcDbPolyline
 90
        3
 70
   128
 43
0.0
 10
5046.068692751396
 20
3078.741694571863
 10
5046.068693474658
 20
3078.749693030836
 10
5046.06869374969
 20
3078.752692339461
  0
ARC
  5
2C88
330
1F
100
AcDbEntity
  8
SANINDUSA
100
AcDbCircle
 10
5046.017275087889
 20
3078.676682245085
 30
0.0
 40
0.0025914605671875
100
AcDbArc
 50
270.0366434316993
 51
359.9875343523009
  0
ARC
  5
2C8A
330
1F
100
AcDbEntity
  8
SANINDUSA
100
AcDbCircle
 10
5046.082289896939
 20
3078.752700749673
 30
0.0
 40
0.0025886680820952
100
AcDbArc
 50
0.0
 51
90.04070234882529
  0
LWPOLYLINE
  5
2C8C
330
1F
100
AcDbEntity
  8
SANINDUSA
100
AcDbPolyline
 90
        3
 70
   128
 43
0.0
 10
5046.084878565002
 20
3078.752701061713
 10
5046.084877901742
 20
3078.744702776175
 10
5046.084877651806
 20
3078.741703547227
  0
ARC
  5
2C8E
330
1F
100
AcDbEntity
  8
SANINDUSA
100
AcDbCircle
 10
5046.20133729017
 20
3078.741698278764
 30
0.0
 40
0.0025920630446788
100
AcDbArc
 50
180.011311041804
 51
269.9842037282586
  0
ARC
  5
2C90
330
1F
100
AcDbEntity
  8
SANINDUSA
100
AcDbCircle
 10
5046.071281011082
 20
3078.741694747948
 30
0.0
 40
0.0025882596910092
100
AcDbArc
 50
180.0
 51
270.0439547562444
  0
LWPOLYLINE
  5
2C92
330
1F
100
AcDbEntity
  8
SANINDUSA
100
AcDbPolyline
 90
        3
 70
   128
 43
0.0
 10
5046.082286098847
 20
3078.739112244154
 10
5046.074287532258
 20
3078.739108123354
 10
5046.071282996678
 20
3078.739106489018
  0
ARC
  5
2C98
330
1F
100
AcDbEntity
  8
SANINDUSA
100
AcDbCircle
 10
5046.082285346837
 20
3078.741704549208
 30
0.0
 40
0.0025923051621983
100
AcDbArc
 50
270.0166211242556
 51
359.977853968806
  0
LWPOLYLINE
  5
2CA9
330
1F
100
AcDbEntity
  8
SANINDUSA
100
AcDbPolyline
 90
        3
 70
   128
 43
0.0
 10
5046.136309412566
 20
3078.755303207273
 10
5046.144309414557
 20
3078.75530304647
 10
5046.147314596808
 20
3078.755302808137
  0
ARC
  5
2CAC
330
1F
100
AcDbEntity
  8
SANINDUSA
100
AcDbCircle
 10
5046.147315359922
 20
3078.752712114805
 30
0.0
 40
0.0025906934441894
100
AcDbArc
 50
0.0129348740775393
 51
90.01687703749857
  0
LWPOLYLINE
  5
2CAE
330
1F
100
AcDbEntity
  8
SANINDUSA
100
AcDbPolyline
 90
        3
 70
   128
 43
0.0
 10
5046.1499060533
 20
3078.75271269967
 10
5046.149906166558
 20
3078.744714740085
 10
5046.149906212622
 20
3078.741715475491
  0
ARC
  5
2CB0
330
1F
100
AcDbEntity
  8
SANINDUSA
100
AcDbCircle
 10
5046.136308845987
 20
3078.75271220918
 30
0.0
 40
0.0025909981540926
100
AcDbArc
 50
89.98747098628399
 51
179.9759533009226
  0
LWPOLYLINE
  5
2CB3
330
1F
100
AcDbEntity
  8
SANINDUSA
100
AcDbPolyline
 90
        3
 70
   128
 43
0.0
 10
5046.1337177242
 20
3078.741716238966
 10
5046.133717798023
 20
3078.749714203989
 10
5046.133717848061
 20
3078.752713296607
  0
LWPOLYLINE
  5
2CBD
330
1F
100
AcDbEntity
  8
SANINDUSA
100
AcDbPolyline
 90
        3
 70
   128
 43
0.0
 10
5046.147314760338
 20
3078.739126167408
 10
5046.139314774109
 20
3078.739126624164
 10
5046.136309230343
 20
3078.739126652498
  0
ARC
  5
2CBF
330
1F
100
AcDbEntity
  8
SANINDUSA
100
AcDbCircle
 10
5046.147315714854
 20
3078.741716665274
 30
0.0
 40
0.0025904980417463
100
AcDbArc
 50
269.9788883304417
 51
359.9736847870261
  0
ARC
  5
2CC0
330
1F
100
AcDbEntity
  8
SANINDUSA
100
AcDbCircle
 10
5046.136307929256
 20
3078.741716857301
 30
0.0
 40
0.0025902051308151
100
AcDbArc
 50
180.0136776790645
 51
270.0287802084847
  0
ARC
  5
2CC7
330
1F
100
AcDbEntity
  8
SANINDUSA
100
AcDbCircle
 10
5046.212340329374
 20
3078.687701159052
 30
0.0
 40
0.0025917711855297
100
AcDbArc
 50
0.0123989205793828
 51
89.97658855046546
  0
LWPOLYLINE
  5
2CD2
330
1F
100
AcDbEntity
  8
SANINDUSA
100
AcDbPolyline
 90
        3
 70
   128
 43
0.0
 10
5046.214932100499
 20
3078.687701719916
 10
5046.214932268295
 20
3078.679703601379
 10
5046.214932303012
 20
3078.676705569098
  0
LWPOLYLINE
  5
2CD4
330
1F
100
AcDbEntity
  8
SANINDUSA
100
AcDbPolyline
 90
        3
 70
   128
 43
0.0
 10
5046.201339044351
 20
3078.690299313129
 10
5046.209336789108
 20
3078.690294705717
 10
5046.212341388389
 20
3078.690292930021
  0
ARC
  5
2CDD
330
1F
100
AcDbEntity
  8
SANINDUSA
100
AcDbCircle
 10
5046.212343964914
 20
3078.676705977491
 30
0.0
 40
0.0025883381289167
100
AcDbArc
 50
269.9527475524392
 51
359.9909597647644
  0
LWPOLYLINE
  5
2CE1
330
1F
100
AcDbEntity
  8
SANINDUSA
100
AcDbPolyline
 90
        3
 70
   128
 43
0.0
 10
5046.212341830284
 20
3078.674117640243
 10
5046.204344236436
 20
3078.674122135445
 10
5046.20133968697
 20
3078.674123775364
  0
ARC
  5
2CE4
330
1F
100
AcDbEntity
  8
SANINDUSA
100
AcDbCircle
 10
5046.201337101257
 20
3078.687710666507
 30
0.0
 40
0.0025886473513995
100
AcDbArc
 50
89.95699255550604
 51
179.9862893351748
  0
ARC
  5
2CE6
330
1F
100
AcDbEntity
  8
SANINDUSA
100
AcDbCircle
 10
5046.071281279608
 20
3078.687706607767
 30
0.0
 40
0.0025921433706433
100
AcDbArc
 50
90.02640017868282
 51
179.9803869158914
  0
LWPOLYLINE
  5
2CF3
330
1F
100
AcDbEntity
  8
SANINDUSA
100
AcDbPolyline
 90
        3
 70
   128
 43
0.0
 10
5046.068688845167
 20
3078.676710811143
 10
5046.068689039696
 20
3078.684708966236
 10
5046.06868913639
 20
3078.687707495076
  0
LWPOLYLINE
  5
2CF4
330
1F
100
AcDbEntity
  8
SANINDUSA
100
AcDbPolyline
 90
        3
 70
   128
 43
0.0
 10
5046.071280085226
 20
3078.690298750862
 10
5046.079278114477
 20
3078.690303069662
 10
5046.08228318286
 20
3078.690304605317
  0
LWPOLYLINE
  5
2CF7
330
1F
100
AcDbEntity
  8
SANINDUSA
100
AcDbPolyline
 90
        3
 70
   128
 43
0.0
 10
5046.198748799245
 20
3078.676714756507
 10
5046.198748570372
 20
3078.684712782202
 10
5046.198748453979
 20
3078.687711285949
  0
ARC
  5
2CFB
330
1F
100
AcDbEntity
  8
SANINDUSA
100
AcDbCircle
 10
5046.071277071423
 20
3078.676710945818
 30
0.0
 40
0.0025882262593863
100
AcDbArc
 50
180.0
 51
270.0534718032832
  0
ARC
  5
2CFC
330
1F
100
AcDbEntity
  8
SANINDUSA
100
AcDbCircle
 10
5046.082285387095
 20
3078.687716000198
 30
0.0
 40
0.0025886060571233
100
AcDbArc
 50
0.0
 51
90.04878818805039
  0
ARC
  5
2CFE
330
1F
100
AcDbEntity
  8
SANINDUSA
100
AcDbCircle
 10
5046.201340462431
 20
3078.676715438525
 30
0.0
 40
0.0025916632770718
100
AcDbArc
 50
180.0150788704792
 51
269.9828563145562
  0
LWPOLYLINE
  5
2D01
330
1F
100
AcDbEntity
  8
SANINDUSA
100
AcDbPolyline
 90
        3
 70
   128
 43
0.0
 10
5046.08228266105
 20
3078.674128381055
 10
5046.074284569484
 20
3078.674124331192
 10
5046.071279486909
 20
3078.674122720686
  0
LWPOLYLINE
  5
2D02
330
1F
100
AcDbEntity
  8
SANINDUSA
100
AcDbPolyline
 90
        3
 70
   128
 43
0.0
 10
5046.084873993139
 20
3078.687716263149
 10
5046.084873798577
 20
3078.679718139547
 10
5046.08487375425
 20
3078.67671925466
  0
ARC
  5
2D08
330
1F
100
AcDbEntity
  8
SANINDUSA
100
AcDbCircle
 10
5046.082281703005
 20
3078.67672043239
 30
0.0
 40
0.0025920515118853
100
AcDbArc
 50
270.0211770157642
 51
359.9739669638201
  0
LWPOLYLINE
  5
2D0F
330
1F
100
AcDbEntity
  8
SANINDUSA
100
AcDbPolyline
 90
        3
 70
   128
 43
0.0
 10
5046.136310297908
 20
3078.690319972309
 10
5046.144310288204
 20
3078.690319586602
 10
5046.147316797738
 20
3078.690319300003
  0
ARC
  5
2D1A
330
1F
100
AcDbEntity
  8
SANINDUSA
100
AcDbCircle
 10
5046.147317575897
 20
3078.687728685783
 30
0.0
 40
0.0025906143369248
100
AcDbArc
 50
0.0161267286410854
 51
90.01721028229438
  0
LWPOLYLINE
  5
2D1C
330
1F
100
AcDbEntity
  8
SANINDUSA
100
AcDbPolyline
 90
        3
 70
   128
 43
0.0
 10
5046.14990819013
 20
3078.68772941495
 10
5046.149907889965
 20
3078.679731507931
 10
5046.149907741726
 20
3078.676732725052
  0
ARC
  5
2D1E
330
1F
100
AcDbEntity
  8
SANINDUSA
100
AcDbCircle
 10
5046.13630961604
 20
3078.687728698098
 30
0.0
 40
0.0025912743004534
100
AcDbArc
 50
89.98492316181195
 51
179.9718627273364
  0
LWPOLYLINE
  5
2D21
330
1F
100
AcDbEntity
  8
SANINDUSA
100
AcDbPolyline
 90
        3
 70
   128
 43
0.0
 10
5046.133717909143
 20
3078.676732300599
 10
5046.13371825303
 20
3078.684730311395
 10
5046.133718342051
 20
3078.687729970641
  0
LWPOLYLINE
  5
2D26
330
1F
100
AcDbEntity
  8
SANINDUSA
100
AcDbPolyline
 90
        3
 70
   128
 43
0.0
 10
5046.147315706976
 20
3078.67414314628
 10
5046.139315737715
 20
3078.674143069108
 10
5046.136309344351
 20
3078.67414289267
  0
ARC
  5
2D2A
330
1F
100
AcDbEntity
  8
SANINDUSA
100
AcDbCircle
 10
5046.147316869801
 20
3078.676734018267
 30
0.0
 40
0.0025908722482151
100
AcDbArc
 50
269.974284705851
 51
359.9714012392886
  0
ARC
  5
2D2C
330
1F
100
AcDbEntity
  8
SANINDUSA
100
AcDbCircle
 10
5046.136308029392
 20
3078.676733012683
 30
0.0
 40
0.0025901203463117
100
AcDbArc
 50
180.0157519520113
 51
270.0290880756327
  0
CIRCLE
  5
2D3D
330
1F
100
AcDbEntity
  8
SANINDUSA
100
AcDbCircle
 10
5046.141809568819
 20
3078.532144550576
 30
0.0
 40
0.0452975452584132
  0
ARC
  5
2D51
330
1F
100
AcDbEntity
  8
SANINDUSA
100
AcDbCircle
 10
5049.035623178658
 20
3078.867938835733
 30
0.0
 40
0.066461197400604
100
AcDbArc
 50
273.2255490501406
 51
292.5448082772299
  0
ARC
  5
2D52
330
1F
100
AcDbEntity
  8
SANINDUSA
100
AcDbCircle
 10
5049.051497990162
 20
3078.828536272354
 30
0.0
 40
0.0239999804870513
100
AcDbArc
 50
293.5425298900924
 51
349.9809132955584
  0
LINE
  5
2D53
330
1F
100
AcDbEntity
  8
SANINDUSA
100
AcDbLine
 10
5048.889105984625
 20
3078.801581979091
 30
0.0
 11
5048.917127784518
 21
3078.800603436277
 31
0.0
  0
LINE
  5
2D54
330
1F
100
AcDbEntity
  8
SANINDUSA
100
AcDbLine
 10
5049.011313760885
 20
3078.800603436277
 30
0.0
 11
5049.039362732186
 21
3078.801582927938
 31
0.0
  0
LINE
  5
2D55
330
1F
100
AcDbEntity
  8
SANINDUSA
100
AcDbLine
 10
5048.917127784518
 20
3078.800603436277
 30
0.0
 11
5048.927481523202
 21
3078.78950041088
 31
0.0
  0
LINE
  5
2D56
330
1F
100
AcDbEntity
  8
SANINDUSA
100
AcDbLine
 10
5049.000960022202
 20
3078.78950041088
 30
0.0
 11
5049.011313760885
 21
3078.800603436277
 31
0.0
  0
LINE
  5
2D59
330
1F
100
AcDbEntity
  8
SANINDUSA
100
AcDbLine
 10
5048.233522570104
 20
3078.858941096771
 30
0.0
 11
5048.23852180858
 21
3078.858941096771
 31
0.0
  0
LINE
  5
2D5A
330
1F
100
AcDbEntity
  8
SANINDUSA
100
AcDbLine
 10
5048.233522570104
 20
3078.858941096771
 30
0.0
 11
5048.234066418814
 21
3078.890098168429
 31
0.0
  0
LINE
  5
2D5D
330
1F
100
AcDbEntity
  8
SANINDUSA
100
AcDbLine
 10
5048.23852180858
 20
3078.858941096771
 30
0.0
 11
5049.129919736824
 21
3078.858941096771
 31
0.0
  0
LINE
  5
2D5F
330
1F
100
AcDbEntity
  8
SANINDUSA
100
AcDbLine
 10
5049.13437512659
 20
3078.890098168429
 30
0.0
 11
5049.134918975299
 21
3078.858941096771
 31
0.0
  0
LINE
  5
2D60
330
1F
100
AcDbEntity
  8
SANINDUSA
100
AcDbLine
 10
5049.129919736824
 20
3078.858941096771
 30
0.0
 11
5049.134918975299
 21
3078.858941096771
 31
0.0
  0
ARC
  5
2D61
330
1F
100
AcDbEntity
  8
SANINDUSA
100
AcDbCircle
 10
5048.24306504807
 20
3078.889941096771
 30
0.0
 40
0.0090000000000002
100
AcDbArc
 50
90.0
 51
178.9999999902799
  0
LINE
  5
2D63
330
1F
100
AcDbEntity
  8
SANINDUSA
100
AcDbLine
 10
5048.24306504807
 20
3078.898941096771
 30
0.0
 11
5049.125376497333
 21
3078.898941096771
 31
0.0
  0
ARC
  5
2D65
330
1F
100
AcDbEntity
  8
SANINDUSA
100
AcDbCircle
 10
5049.125376497333
 20
3078.889941096771
 30
0.0
 40
0.0090000000000001
100
AcDbArc
 50
1.000000009720081
 51
90.0
  0
LINE
  5
2D6D
330
1F
100
AcDbEntity
  8
SANINDUSA
100
AcDbLine
 10
5048.287212145483
 20
3078.858941096771
 30
0.0
 11
5048.291493757926
 21
3078.834658865964
 31
0.0
  0
LINE
  5
2D6E
330
1F
100
AcDbEntity
  8
SANINDUSA
100
AcDbLine
 10
5049.075131967386
 20
3078.824360846157
 30
0.0
 11
5049.08122939992
 21
3078.858941096771
 31
0.0
  0
ARC
  5
2D70
330
1F
100
AcDbEntity
  8
SANINDUSA
100
AcDbCircle
 10
5048.315171583176
 20
3078.838665483054
 30
0.0
 40
0.0240138484560852
100
AcDbArc
 50
190.0149577012646
 51
269.0020788781977
  0
LINE
  5
2D76
330
1F
100
AcDbEntity
  8
SANINDUSA
100
AcDbLine
 10
5048.917127784518
 20
3078.800603436277
 30
0.0
 11
5049.011313760885
 21
3078.800603436277
 31
0.0
  0
LINE
  5
2D77
330
1F
100
AcDbEntity
  8
SANINDUSA
100
AcDbLine
 10
5048.927481523202
 20
3078.78950041088
 30
0.0
 11
5049.000960022202
 21
3078.78950041088
 31
0.0
  0
ARC
  5
2DE5
330
1F
100
AcDbEntity
  8
SANINDUSA
100
AcDbCircle
 10
5050.3550368772
 20
3078.860736828824
 30
0.0
 40
0.0551902576135036
100
AcDbArc
 50
272.0025202619108
 51
293.8043103425773
  0
LWPOLYLINE
  5
2DE7
330
1F
100
AcDbEntity
  8
SANINDUSA
100
AcDbPolyline
 90
        3
 70
   128
 43
0.0
 10
5050.143209804708
 20
3078.807021935654
 10
5050.160959385015
 20
3078.806620708042
 10
5050.206965413014
 20
3078.805580507278
  0
LINE
  5
2DE8
330
1F
100
AcDbEntity
  8
SANINDUSA
100
AcDbLine
 10
5050.078226439437
 20
3078.808491341457
 30
0.0
 11
5050.12046967689
 21
3078.807536200979
 31
0.0
  0
LINE
  5
2DE9
330
1F
100
AcDbEntity
  8
SANINDUSA
100
AcDbLine
 10
5050.013243036303
 20
3078.809960651554
 30
0.0
 11
5050.055486267928
 21
3078.809005488718
 31
0.0
  0
LINE
  5
2DEA
330
1F
100
AcDbEntity
  8
SANINDUSA
100
AcDbLine
 10
5049.9482596469
 20
3078.811429997946
 30
0.0
 11
5049.990502883104
 21
3078.810474842045
 31
0.0
  0
LINE
  5
2DEB
330
1F
100
AcDbEntity
  8
SANINDUSA
100
AcDbLine
 10
5049.883276256358
 20
3078.812899337999
 30
0.0
 11
5049.925519492253
 21
3078.811944175737
 31
0.0
  0
LINE
  5
2DEC
330
1F
100
AcDbEntity
  8
SANINDUSA
100
AcDbLine
 10
5049.818292865637
 20
3078.814368675221
 30
0.0
 11
5049.860536102016
 21
3078.813413514517
 31
0.0
  0
LINE
  5
2DED
330
1F
100
AcDbEntity
  8
SANINDUSA
100
AcDbLine
 10
5049.753309475221
 20
3078.815838013309
 30
0.0
 11
5049.795552711438
 21
3078.814882852884
 31
0.0
  0
LINE
  5
2DEE
330
1F
100
AcDbEntity
  8
SANINDUSA
100
AcDbLine
 10
5049.632467729338
 20
3078.818570363537
 30
0.0
 11
5049.730569320819
 21
3078.816352190599
 31
0.0
  0
LINE
  5
2E27
330
1F
100
AcDbEntity
  8
SANINDUSA
100
AcDbLine
 10
5049.753219054316
 20
3078.811839034932
 30
0.0
 11
5049.795462290623
 21
3078.810883874076
 31
0.0
  0
LINE
  5
2E2B
330
1F
100
AcDbEntity
  8
SANINDUSA
100
AcDbLine
 10
5049.818202444569
 20
3078.810369696217
 30
0.0
 11
5049.860445681279
 21
3078.809414535202
 31
0.0
  0
LINE
  5
2E2F
330
1F
100
AcDbEntity
  8
SANINDUSA
100
AcDbLine
 10
5049.883185835496
 20
3078.808900358503
 30
0.0
 11
5049.925429071062
 21
3078.807945195729
 31
0.0
  0
LINE
  5
2E33
330
1F
100
AcDbEntity
  8
SANINDUSA
100
AcDbLine
 10
5049.948169225964
 20
3078.807431017489
 30
0.0
 11
5049.990412461855
 21
3078.806475860214
 31
0.0
  0
LINE
  5
2E37
330
1F
100
AcDbEntity
  8
SANINDUSA
100
AcDbLine
 10
5050.013152613171
 20
3078.805961668399
 30
0.0
 11
5050.055395840542
 21
3078.805006503516
 31
0.0
  0
LINE
  5
2E3B
330
1F
100
AcDbEntity
  8
SANINDUSA
100
AcDbLine
 10
5050.078136033007
 20
3078.804492356444
 30
0.0
 11
5050.120379268671
 21
3078.803537201751
 31
0.0
  0
LWPOLYLINE
  5
2E3F
330
1F
100
AcDbEntity
  8
SANINDUSA
100
AcDbPolyline
 90
        3
 70
   128
 43
0.0
 10
5050.14311937024
 20
3078.803022946751
 10
5050.158108725867
 20
3078.802684102251
 10
5050.206850682693
 20
3078.801582076061
  0
ARC
  5
2E40
330
1F
100
AcDbEntity
  8
SANINDUSA
100
AcDbCircle
 10
5050.355038125683
 20
3078.860731377564
 30
0.0
 40
0.0591847661276594
100
AcDbArc
 50
272.0036138895693
 51
293.8046127080027
  0
LINE
  5
2E41
330
1F
100
AcDbEntity
  8
SANINDUSA
100
AcDbLine
 10
5049.632377308536
 20
3078.814571385653
 30
0.0
 11
5049.730478899944
 21
3078.812353212406
 31
0.0
  0
ARC
  5
2E43
330
1F
100
AcDbEntity
  8
SANINDUSA
100
AcDbCircle
 10
5050.369243571501
 20
3078.828541734441
 30
0.0
 40
0.0200000000554967
100
AcDbArc
 50
293.7936360655158
 51
350.0000000289607
  0
LINE
  5
2E44
330
1F
100
AcDbEntity
  8
SANINDUSA
100
AcDbLine
 10
5050.400654037701
 20
3078.89150393037
 30
0.0
 11
5050.388939726616
 21
3078.825068770878
 31
0.0
  0
ARC
  5
2E46
330
1F
100
AcDbEntity
  8
SANINDUSA
100
AcDbCircle
 10
5050.409517307479
 20
3078.889941096771
 30
0.0
 40
0.0089999999999999
100
AcDbArc
 50
90.0
 51
170.0000000033014
  0
LINE
  5
2E47
330
1F
100
AcDbEntity
  8
SANINDUSA
100
AcDbLine
 10
5050.409517307479
 20
3078.898941096771
 30
0.0
 11
5050.443121135431
 21
3078.898941096771
 31
0.0
  0
ARC
  5
2E48
330
1F
100
AcDbEntity
  8
SANINDUSA
100
AcDbCircle
 10
5050.443121135431
 20
3078.889941096771
 30
0.0
 40
0.009
100
AcDbArc
 50
1.000000009720081
 51
90.0
  0
LINE
  5
2E49
330
1F
100
AcDbEntity
  8
SANINDUSA
100
AcDbLine
 10
5050.452119764687
 20
3078.890098168429
 30
0.0
 11
5050.452663613396
 21
3078.858941096771
 31
0.0
  0
LINE
  5
2E4A
330
1F
100
AcDbEntity
  8
SANINDUSA
100
AcDbLine
 10
5050.452663613396
 20
3078.858941096771
 30
0.0
 11
5050.448663004083
 21
3078.858941096771
 31
0.0
  0
LINE
  5
2E4B
330
1F
100
AcDbEntity
  8
SANINDUSA
100
AcDbLine
 10
5050.448120373907
 20
3078.890028358803
 30
0.0
 11
5050.448663004083
 21
3078.858941096771
 31
0.0
  0
ARC
  5
2E4C
330
1F
100
AcDbEntity
  8
SANINDUSA
100
AcDbCircle
 10
5050.443121135431
 20
3078.889941096771
 30
0.0
 40
0.005
100
AcDbArc
 50
1.000000009720081
 51
90.0
  0
LINE
  5
2E4D
330
1F
100
AcDbEntity
  8
SANINDUSA
100
AcDbLine
 10
5050.409517307479
 20
3078.894941096772
 30
0.0
 11
5050.443121135431
 21
3078.894941096772
 31
0.0
  0
ARC
  5
2E4E
330
1F
100
AcDbEntity
  8
SANINDUSA
100
AcDbCircle
 10
5050.409517307479
 20
3078.889941096771
 30
0.0
 40
0.005
100
AcDbArc
 50
90.0
 51
170.0000000033014
  0
LINE
  5
2E4F
330
1F
100
AcDbEntity
  8
SANINDUSA
100
AcDbLine
 10
5050.404593268715
 20
3078.890809337659
 30
0.0
 11
5050.392878957629
 21
3078.824374178174
 31
0.0
  0
ARC
  5
2E50
330
1F
100
AcDbEntity
  8
SANINDUSA
100
AcDbCircle
 10
5050.36924357149
 20
3078.828541734442
 30
0.0
 40
0.0240000000669771
100
AcDbArc
 50
293.793635097261
 51
350.0000000289607
  0
LINE
  5
2E51
330
1F
100
AcDbEntity
  8
SANINDUSA
100
AcDbLine
 10
5050.329058398983
 20
3078.800603436277
 30
0.0
 11
5050.357107370282
 21
3078.801582927938
 31
0.0
  0
LINE
  5
2E52
330
1F
100
AcDbEntity
  8
SANINDUSA
100
AcDbLine
 10
5050.318704660298
 20
3078.78950041088
 30
0.0
 11
5050.329058398983
 21
3078.800603436277
 31
0.0
  0
LINE
  5
2E53
330
1F
100
AcDbEntity
  8
SANINDUSA
100
AcDbLine
 10
5050.245226161298
 20
3078.78950041088
 30
0.0
 11
5050.318704660298
 21
3078.78950041088
 31
0.0
  0
LINE
  5
2E54
330
1F
100
AcDbEntity
  8
SANINDUSA
100
AcDbLine
 10
5050.234872422615
 20
3078.800603436277
 30
0.0
 11
5050.245226161298
 21
3078.78950041088
 31
0.0
  0
LINE
  5
2E55
330
1F
100
AcDbEntity
  8
SANINDUSA
100
AcDbLine
 10
5050.206850622723
 20
3078.801581979091
 30
0.0
 11
5050.234872422615
 21
3078.800603436277
 31
0.0
  0
ARC
  5
2E56
330
1F
100
AcDbEntity
  8
SANINDUSA
100
AcDbCircle
 10
5050.143300247384
 20
3078.811020895414
 30
0.0
 40
0.00799999371077
100
AcDbArc
 50
217.3864341553096
 51
268.704451461336
  0
LINE
  5
2E57
330
1F
100
AcDbEntity
  8
SANINDUSA
100
AcDbLine
 10
5050.126690464827
 20
3078.806395288036
 30
0.0
 11
5050.136943785134
 21
3078.806163397392
 31
0.0
  0
ARC
  5
2E58
330
1F
100
AcDbEntity
  8
SANINDUSA
100
AcDbCircle
 10
5050.120560079355
 20
3078.811535139216
 30
0.0
 40
0.0079999810114383
100
AcDbArc
 50
268.7049255246415
 51
320.0227850884576
  0
ARC
  5
2E59
330
1F
100
AcDbEntity
  8
SANINDUSA
100
AcDbCircle
 10
5050.078316847976
 20
3078.812490310067
 30
0.0
 40
0.0079999972628298
100
AcDbArc
 50
217.3870436087523
 51
268.704897430281
  0
LINE
  5
2E5A
330
1F
100
AcDbEntity
  8
SANINDUSA
100
AcDbLine
 10
5050.061707066138
 20
3078.807864566348
 30
0.0
 11
5050.071960434575
 21
3078.807632742273
 31
0.0
  0
ARC
  5
2E5C
330
1F
100
AcDbEntity
  8
SANINDUSA
100
AcDbCircle
 10
5050.01333346086
 20
3078.813959622031
 30
0.0
 40
0.0079999980116426
100
AcDbArc
 50
217.3867969300246
 51
268.7046631872845
  0
LINE
  5
2E5D
330
1F
100
AcDbEntity
  8
SANINDUSA
100
AcDbLine
 10
5049.996723679412
 20
3078.80933392628
 30
0.0
 11
5050.006977025948
 21
3078.80910208115
 31
0.0
  0
ARC
  5
2E5E
330
1F
100
AcDbEntity
  8
SANINDUSA
100
AcDbCircle
 10
5049.990593303164
 20
3078.814473812314
 30
0.0
 40
0.0079999963360372
100
AcDbArc
 50
268.7047085866478
 51
320.0225513528677
  0
ARC
  5
2E5F
330
1F
100
AcDbEntity
  8
SANINDUSA
100
AcDbCircle
 10
5049.948350068611
 20
3078.815428972227
 30
0.0
 40
0.0079999990033944
100
AcDbArc
 50
217.3868732328445
 51
268.7046994649799
  0
LINE
  5
2E60
330
1F
100
AcDbEntity
  8
SANINDUSA
100
AcDbLine
 10
5049.93174028919
 20
3078.810803260942
 30
0.0
 11
5049.941993639381
 21
3078.810571422277
 31
0.0
  0
ARC
  5
2E61
330
1F
100
AcDbEntity
  8
SANINDUSA
100
AcDbCircle
 10
5049.925609912852
 20
3078.815943149524
 30
0.0
 40
0.0079999980418642
100
AcDbArc
 50
268.7047054069705
 51
320.0225377617968
  0
ARC
  5
2E62
330
1F
100
AcDbEntity
  8
SANINDUSA
100
AcDbCircle
 10
5049.883366677736
 20
3078.816898313611
 30
0.0
 40
0.0079999993634195
100
AcDbArc
 50
217.3868820084106
 51
268.7047024362696
  0
LINE
  5
2E63
330
1F
100
AcDbEntity
  8
SANINDUSA
100
AcDbLine
 10
5049.86675689905
 20
3078.812272600468
 30
0.0
 11
5049.877010248964
 21
3078.812040762469
 31
0.0
  0
ARC
  5
2E64
330
1F
100
AcDbEntity
  8
SANINDUSA
100
AcDbCircle
 10
5049.860626522377
 20
3078.817412489665
 30
0.0
 40
0.0079999986937683
100
AcDbArc
 50
268.7047104633139
 51
320.0225359470733
  0
ARC
  5
2E65
330
1F
100
AcDbEntity
  8
SANINDUSA
100
AcDbCircle
 10
5049.81838328706
 20
3078.818367651514
 30
0.0
 40
0.0079999995591597
100
AcDbArc
 50
217.3868823419963
 51
268.7047006637974
  0
LINE
  5
2E66
330
1F
100
AcDbEntity
  8
SANINDUSA
100
AcDbLine
 10
5049.801773508413
 20
3078.813741938802
 30
0.0
 11
5049.812026858161
 21
3078.813510100217
 31
0.0
  0
ARC
  5
2E67
330
1F
100
AcDbEntity
  8
SANINDUSA
100
AcDbCircle
 10
5049.795643131979
 20
3078.818881828984
 30
0.0
 40
0.0079999991441651
100
AcDbArc
 50
268.7047087429385
 51
320.0225294551688
  0
ARC
  5
2E68
330
1F
100
AcDbEntity
  8
SANINDUSA
100
AcDbCircle
 10
5049.753399896248
 20
3078.819836990502
 30
0.0
 40
0.0079999998194867
100
AcDbArc
 50
217.3868899402487
 51
268.7047047297109
  0
LINE
  5
2E69
330
1F
100
AcDbEntity
  8
SANINDUSA
100
AcDbLine
 10
5049.736790117812
 20
3078.815211276574
 30
0.0
 11
5049.747043467786
 21
3078.814979438206
 31
0.0
  0
ARC
  5
2E6A
330
1F
100
AcDbEntity
  8
SANINDUSA
100
AcDbCircle
 10
5049.73065974158
 20
3078.820351167867
 30
0.0
 40
0.0079999997023707
100
AcDbArc
 50
268.7047068141755
 51
320.0225224094484
  0
ARC
  5
2E6B
330
1F
100
AcDbEntity
  8
SANINDUSA
100
AcDbCircle
 10
5049.632919833308
 20
3078.838565252953
 30
0.0
 40
0.0240000000232674
100
AcDbArc
 50
189.9999999710393
 51
268.7047071794428
  0
LINE
  5
2E6C
330
1F
100
AcDbEntity
  8
SANINDUSA
100
AcDbLine
 10
5049.609284447211
 20
3078.834397696696
 30
0.0
 11
5049.599337552884
 21
3078.890809337659
 31
0.0
  0
ARC
  5
2E6D
330
1F
100
AcDbEntity
  8
SANINDUSA
100
AcDbCircle
 10
5049.594413514117
 20
3078.889941096771
 30
0.0
 40
0.005
100
AcDbArc
 50
9.999999996698591
 51
90.0
  0
LINE
  5
2E6E
330
1F
100
AcDbEntity
  8
SANINDUSA
100
AcDbLine
 10
5049.560809686167
 20
3078.894941096772
 30
0.0
 11
5049.594413514117
 21
3078.894941096772
 31
0.0
  0
ARC
  5
2E6F
330
1F
100
AcDbEntity
  8
SANINDUSA
100
AcDbCircle
 10
5049.560809686167
 20
3078.889941096771
 30
0.0
 40
0.0050000000000001
100
AcDbArc
 50
90.0
 51
178.9999999902799
  0
LINE
  5
2E70
330
1F
100
AcDbEntity
  8
SANINDUSA
100
AcDbLine
 10
5049.555267817514
 20
3078.858941096771
 30
0.0
 11
5049.555810447691
 21
3078.890028358803
 31
0.0
  0
LINE
  5
2E71
330
1F
100
AcDbEntity
  8
SANINDUSA
100
AcDbLine
 10
5049.555267817514
 20
3078.858941096771
 30
0.0
 11
5049.551267208202
 21
3078.858941096771
 31
0.0
  0
LINE
  5
2E72
330
1F
100
AcDbEntity
  8
SANINDUSA
100
AcDbLine
 10
5049.551267208202
 20
3078.858941096771
 30
0.0
 11
5049.551811056911
 21
3078.890098168429
 31
0.0
  0
ARC
  5
2E73
330
1F
100
AcDbEntity
  8
SANINDUSA
100
AcDbCircle
 10
5049.560809686167
 20
3078.889941096771
 30
0.0
 40
0.0090000000000001
100
AcDbArc
 50
90.0
 51
178.9999999902799
  0
LINE
  5
2E74
330
1F
100
AcDbEntity
  8
SANINDUSA
100
AcDbLine
 10
5049.560809686167
 20
3078.898941096771
 30
0.0
 11
5049.594413514117
 21
3078.898941096771
 31
0.0
  0
ARC
  5
2E75
330
1F
100
AcDbEntity
  8
SANINDUSA
100
AcDbCircle
 10
5049.594413514117
 20
3078.889941096771
 30
0.0
 40
0.0089999999999999
100
AcDbArc
 50
9.999999996698591
 51
90.0
  0
LINE
  5
2E77
330
1F
100
AcDbEntity
  8
SANINDUSA
100
AcDbLine
 10
5049.613223678225
 20
3078.835092289397
 30
0.0
 11
5049.603276783896
 21
3078.89150393037
 31
0.0
  0
ARC
  5
2E78
330
1F
100
AcDbEntity
  8
SANINDUSA
100
AcDbCircle
 10
5049.632919833304
 20
3078.838565252954
 30
0.0
 40
0.0200000000194055
100
AcDbArc
 50
189.9999999710393
 51
268.7047072315396
  0
ARC
  5
2E79
330
1F
100
AcDbEntity
  8
SANINDUSA
100
AcDbCircle
 10
5049.73065974161
 20
3078.820351168341
 30
0.0
 40
0.0039999998625419
100
AcDbArc
 50
268.7047071794428
 51
323.8548057801974
  0
ARC
  5
2E7A
330
1F
100
AcDbEntity
  8
SANINDUSA
100
AcDbCircle
 10
5049.736312415601
 20
3078.816222333939
 30
0.0
 40
0.0029999999061276
100
AcDbArc
 50
88.70470749202413
 51
143.8548060196874
  0
LINE
  5
2E7B
330
1F
100
AcDbEntity
  8
SANINDUSA
100
AcDbLine
 10
5049.736380231177
 20
3078.819221567255
 30
0.0
 11
5049.747634196113
 21
3078.818967104086
 31
0.0
  0
ARC
  5
2E7C
330
1F
100
AcDbEntity
  8
SANINDUSA
100
AcDbCircle
 10
5049.747566380438
 20
3078.815967870749
 30
0.0
 40
0.0029999999286207
100
AcDbArc
 50
33.55460738466756
 51
88.70470561535803
  0
ARC
  5
2E7D
330
1F
100
AcDbEntity
  8
SANINDUSA
100
AcDbCircle
 10
5049.75339989616
 20
3078.819836991124
 30
0.0
 40
0.0039999999391115
100
AcDbArc
 50
213.5546072690115
 51
268.7047050422922
  0
ARC
  5
2E7E
330
1F
100
AcDbEntity
  8
SANINDUSA
100
AcDbCircle
 10
5049.795643132078
 20
3078.818881830374
 30
0.0
 40
0.0039999996069227
100
AcDbArc
 50
268.7047092644964
 51
323.8548132951406
  0
ARC
  5
2E7F
330
1F
100
AcDbEntity
  8
SANINDUSA
100
AcDbCircle
 10
5049.801295806251
 20
3078.814752996989
 30
0.0
 40
0.002999999709406
100
AcDbArc
 50
88.70470863874473
 51
143.8548137013039
  0
LINE
  5
2E80
330
1F
100
AcDbEntity
  8
SANINDUSA
100
AcDbLine
 10
5049.801363621762
 20
3078.817752230109
 30
0.0
 11
5049.812617586662
 21
3078.817497766712
 31
0.0
  0
ARC
  5
2E81
330
1F
100
AcDbEntity
  8
SANINDUSA
100
AcDbCircle
 10
5049.81254977076
 20
3078.814498533449
 30
0.0
 40
0.0029999998599986
100
AcDbArc
 50
33.55459956570597
 51
88.70470123745217
  0
ARC
  5
2E82
330
1F
100
AcDbEntity
  8
SANINDUSA
100
AcDbCircle
 10
5049.818383286877
 20
3078.818367652939
 30
0.0
 40
0.0039999998476252
100
AcDbArc
 50
213.5545994717632
 51
268.7047007679912
  0
ARC
  5
2E83
330
1F
100
AcDbEntity
  8
SANINDUSA
100
AcDbCircle
 10
5049.860626522538
 20
3078.817412491805
 30
0.0
 40
0.0039999994030755
100
AcDbArc
 50
268.7047108800891
 51
323.8548199346364
  0
ARC
  5
2E84
330
1F
100
AcDbEntity
  8
SANINDUSA
100
AcDbCircle
 10
5049.866279196895
 20
3078.81328365929
 30
0.0
 40
0.0029999995496226
100
AcDbArc
 50
88.70471103637973
 51
143.8548202890233
  0
LINE
  5
2E85
330
1F
100
AcDbEntity
  8
SANINDUSA
100
AcDbLine
 10
5049.866347012279
 20
3078.816282892253
 30
0.0
 11
5049.877600977207
 21
3078.816028429486
 31
0.0
  0
ARC
  5
2E86
330
1F
100
AcDbEntity
  8
SANINDUSA
100
AcDbCircle
 10
5049.87753316143
 20
3078.813029196271
 30
0.0
 40
0.0029999998094327
100
AcDbArc
 50
33.55459914650844
 51
88.70470368718406
  0
ARC
  5
2E87
330
1F
100
AcDbEntity
  8
SANINDUSA
100
AcDbCircle
 10
5049.883366677478
 20
3078.816898315651
 30
0.0
 40
0.0039999997794899
100
AcDbArc
 50
213.5545990020494
 51
268.7047024362696
  0
ARC
  5
2E88
330
1F
100
AcDbEntity
  8
SANINDUSA
100
AcDbCircle
 10
5049.925609913086
 20
3078.815943152717
 30
0.0
 40
0.0039999991030008
100
AcDbArc
 50
268.7047063453035
 51
323.8548225609785
  0
ARC
  5
2E89
330
1F
100
AcDbEntity
  8
SANINDUSA
100
AcDbCircle
 10
5049.931262587223
 20
3078.811814320781
 30
0.0
 40
0.0029999993300974
100
AcDbArc
 50
88.7047075962179
 51
143.8548232697524
  0
LINE
  5
2E8A
330
1F
100
AcDbEntity
  8
SANINDUSA
100
AcDbLine
 10
5049.931330402783
 20
3078.814813553522
 30
0.0
 11
5049.942584367771
 21
3078.814559090161
 31
0.0
  0
ARC
  5
2E8B
330
1F
100
AcDbEntity
  8
SANINDUSA
100
AcDbCircle
 10
5049.94251655179
 20
3078.811559857083
 30
0.0
 40
0.0029999996778834
100
AcDbArc
 50
33.55459087954637
 51
88.70469972546432
  0
ARC
  5
2E8C
330
1F
100
AcDbEntity
  8
SANINDUSA
100
AcDbCircle
 10
5049.94835006819
 20
3078.815428975473
 30
0.0
 40
0.0039999996579368
100
AcDbArc
 50
213.5545905977181
 51
268.7046999865378
  0
ARC
  5
2E8D
330
1F
100
AcDbEntity
  8
SANINDUSA
100
AcDbCircle
 10
5049.990593303577
 20
3078.814473818249
 30
0.0
 40
0.0039999983184532
100
AcDbArc
 50
268.7047112447673
 51
323.8548391750862
  0
ARC
  5
2E8E
330
1F
100
AcDbEntity
  8
SANINDUSA
100
AcDbCircle
 10
5049.996245977863
 20
3078.810344988795
 30
0.0
 40
0.0029999987698855
100
AcDbArc
 50
88.70469998653778
 51
143.8548410408778
  0
LINE
  5
2E8F
330
1F
100
AcDbEntity
  8
SANINDUSA
100
AcDbLine
 10
5049.996313793806
 20
3078.813344220966
 30
0.0
 11
5050.007567758903
 21
3078.813089750814
 31
0.0
  0
ARC
  5
2E90
330
1F
100
AcDbEntity
  8
SANINDUSA
100
AcDbCircle
 10
5050.007499939185
 20
3078.810090518218
 30
0.0
 40
0.0029999992804
100
AcDbArc
 50
33.55451750981383
 51
88.70462810781766
  0
ARC
  5
2E91
330
1F
100
AcDbEntity
  8
SANINDUSA
100
AcDbCircle
 10
5050.013333459958
 20
3078.813959628697
 30
0.0
 40
0.0039999993281778
100
AcDbArc
 50
213.5545165920996
 51
268.7046660016946
  0
ARC
  5
2E92
330
1F
100
AcDbEntity
  8
SANINDUSA
100
AcDbCircle
 10
5050.055576694688
 20
3078.813004463424
 30
0.0
 40
0.003999996962474
100
AcDbArc
 50
268.7046207065251
 51
323.8548157337691
  0
ARC
  5
2E93
330
1F
100
AcDbEntity
  8
SANINDUSA
100
AcDbCircle
 10
5050.06122936517
 20
3078.808875633037
 30
0.0
 40
0.0029999976042066
100
AcDbArc
 50
88.70468799777377
 51
143.8548151188519
  0
LINE
  5
2E94
330
1F
100
AcDbEntity
  8
SANINDUSA
100
AcDbLine
 10
5050.061297181716
 20
3078.811874864029
 30
0.0
 11
5050.07255115008
 21
3078.811620416348
 31
0.0
  0
ARC
  5
2E95
330
1F
100
AcDbEntity
  8
SANINDUSA
100
AcDbCircle
 10
5050.072483342908
 20
3078.808621183487
 30
0.0
 40
0.0029999992605946
100
AcDbArc
 50
33.55476142995388
 51
88.7048677718359
  0
ARC
  5
2E96
330
1F
100
AcDbEntity
  8
SANINDUSA
100
AcDbCircle
 10
5050.078316846923
 20
3078.812490318681
 30
0.0
 40
0.0039999990428338
100
AcDbArc
 50
213.5547613360111
 51
268.7048975344748
  0
ARC
  5
2E97
330
1F
100
AcDbEntity
  8
SANINDUSA
100
AcDbCircle
 10
5050.120560081817
 20
3078.811535170515
 30
0.0
 40
0.0039999912995381
100
AcDbArc
 50
268.7049317277054
 51
323.8550913981673
  0
ARC
  5
2E98
330
1F
100
AcDbEntity
  8
SANINDUSA
100
AcDbCircle
 10
5050.126212764112
 20
3078.807406373296
 30
0.0
 40
0.0029999932441358
100
AcDbArc
 50
88.70464702900221
 51
143.8550921797578
  0
LINE
  5
2E99
330
1F
100
AcDbEntity
  8
SANINDUSA
100
AcDbLine
 10
5050.126280582706
 20
3078.81040559988
 30
0.0
 11
5050.137534541541
 21
3078.810151074185
 31
0.0
  0
ARC
  5
2E9A
330
1F
100
AcDbEntity
  8
SANINDUSA
100
AcDbCircle
 10
5050.13746669938
 20
3078.807151840816
 30
0.0
 40
0.003000000560773
100
AcDbArc
 50
33.55411468107772
 51
88.70419996543358
  0
ARC
  5
2E9B
330
1F
100
AcDbEntity
  8
SANINDUSA
100
AcDbCircle
 10
5050.143300246529
 20
3078.81102091058
 30
0.0
 40
0.0039999975232314
100
AcDbArc
 50
213.5541238874671
 51
268.7044051236397
  0
LINE
  5
2E9C
330
1F
100
AcDbEntity
  8
SANINDUSA
100
AcDbLine
 10
5050.206965410799
 20
3078.805580408781
 30
0.0
 11
5050.23666786554
 21
3078.804543176206
 31
0.0
  0
LINE
  5
2E9D
330
1F
100
AcDbEntity
  8
SANINDUSA
100
AcDbLine
 10
5050.23666786554
 20
3078.804543176206
 30
0.0
 11
5050.246965410799
 21
3078.79350041088
 31
0.0
  0
LINE
  5
2E9E
330
1F
100
AcDbEntity
  8
SANINDUSA
100
AcDbLine
 10
5050.246965410799
 20
3078.79350041088
 30
0.0
 11
5050.316965410798
 21
3078.79350041088
 31
0.0
  0
LINE
  5
2E9F
330
1F
100
AcDbEntity
  8
SANINDUSA
100
AcDbLine
 10
5050.316965410798
 20
3078.79350041088
 30
0.0
 11
5050.327262956058
 21
3078.804543176206
 31
0.0
  0
LINE
  5
2EA0
330
1F
100
AcDbEntity
  8
SANINDUSA
100
AcDbLine
 10
5050.327262956058
 20
3078.804543176206
 30
0.0
 11
5050.356965410799
 21
3078.805580408781
 31
0.0
  0
LINE
  5
2EA1
330
1F
100
AcDbEntity
  8
SANINDUSA
100
AcDbLine
 10
5050.327262956058
 20
3078.804543176206
 30
0.0
 11
5050.23666786554
 21
3078.804543176206
 31
0.0
  0
LINE
  5
3079
330
1F
100
AcDbEntity
  8
SANINDUSA
100
AcDbLine
 10
5049.594413514117
 20
3078.898941096771
 30
0.0
 11
5049.613124861425
 21
3078.898941096771
 31
0.0
  0
LINE
  5
307B
330
1F
100
AcDbEntity
  8
SANINDUSA
100
AcDbLine
 10
5050.390805960173
 20
3078.898941096771
 30
0.0
 11
5050.409517307479
 21
3078.898941096771
 31
0.0
  0
LINE
  5
307C
330
1F
100
AcDbEntity
  8
SANINDUSA
100
AcDbLine
 10
5049.613124861425
 20
3078.898941096771
 30
0.0
 11
5050.390805960173
 21
3078.898941096771
 31
0.0
  0
LINE
  5
3082
330
1F
100
AcDbEntity
  8
SANINDUSA
100
AcDbLine
 10
5049.556267665209
 20
3078.858941096771
 30
0.0
 11
5049.555267817514
 21
3078.858941096771
 31
0.0
  0
LINE
  5
3084
330
1F
100
AcDbEntity
  8
SANINDUSA
100
AcDbLine
 10
5050.448663004083
 20
3078.858941096771
 30
0.0
 11
5050.447663156388
 21
3078.858941096771
 31
0.0
  0
LINE
  5
3085
330
1F
100
AcDbEntity
  8
SANINDUSA
100
AcDbLine
 10
5050.447663156388
 20
3078.858941096771
 30
0.0
 11
5050.398974038018
 21
3078.858941096771
 31
0.0
  0
LINE
  5
3086
330
1F
100
AcDbEntity
  8
SANINDUSA
100
AcDbLine
 10
5049.604956783579
 20
3078.858941096771
 30
0.0
 11
5049.556267665209
 21
3078.858941096771
 31
0.0
  0
LINE
  5
315A
330
1F
100
AcDbEntity
  8
SANINDUSA
100
AcDbLine
 10
5046.969658299445
 20
3078.803300346203
 30
0.0
 11
5047.262326528734
 21
3078.801570314134
 31
0.0
  0
LINE
  5
315B
330
1F
100
AcDbEntity
  8
SANINDUSA
100
AcDbLine
 10
5047.704455954256
 20
3078.803296276034
 30
0.0
 11
5047.412176935958
 21
3078.801580403178
 31
0.0
  0
LINE
  5
315C
330
1F
100
AcDbEntity
  8
SANINDUSA
100
AcDbLine
 10
5048.314753354906
 20
3078.814655276832
 30
0.0
 11
5048.889105984625
 21
3078.801581979091
 31
0.0
  0
CIRCLE
  5
3605
330
1F
100
AcDbEntity
  8
SANINDUSA
100
AcDbCircle
 10
5046.141809568819
 20
3078.532144550576
 30
0.0
 40
0.036241889522222
  0
LINE
  5
3606
330
1F
100
AcDbEntity
  8
SANINDUSA
100
AcDbLine
 10
5046.149903274806
 20
3078.871682504571
 30
0.0
 11
5046.149903083628
 21
3078.882679727412
 31
0.0
  0
ENDSEC
  0
SECTION
  2
OBJECTS
  0
DICTIONARY
  5
C
330
0
100
AcDbDictionary
281
     1
  3
ACAD_COLOR
350
EE6
  3
ACAD_GROUP
350
D
  3
ACAD_LAYOUT
350
1A
  3
ACAD_MATERIAL
350
EE5
  3
ACAD_MLINESTYLE
350
17
  3
ACAD_PLOTSETTINGS
350
19
  3
ACAD_PLOTSTYLENAME
350
E
  3
ACAD_TABLESTYLE
350
EE7
  3
ACDBHEADERROUNDTRIPXREC
350
361C
  3
AcDbVariableDictionary
350
3D
  3
ASE_INDEX_DICTIONARY
350
35EE
  0
DICTIONARY
  5
1051
330
2
100
AcDbDictionary
280
     1
281
     1
  3
ACAD_LAYERFILTERS
360
1057
  3
ACLYDICTIONARY
360
1056
  0
DICTIONARY
  5
EE6
102
{ACAD_REACTORS
330
C
102
}
330
C
100
AcDbDictionary
281
     1
  0
DICTIONARY
  5
D
102
{ACAD_REACTORS
330
C
102
}
330
C
100
AcDbDictionary
281
     1
  0
DICTIONARY
  5
1A
102
{ACAD_REACTORS
330
C
102
}
330
C
100
AcDbDictionary
281
     1
  3
Layout1
350
1E
  3
Layout2
350
26
  3
Model
350
22
  0
DICTIONARY
  5
EE5
102
{ACAD_REACTORS
330
C
102
}
330
C
100
AcDbDictionary
281
     1
  0
DICTIONARY
  5
17
102
{ACAD_REACTORS
330
C
102
}
330
C
100
AcDbDictionary
281
     1
  3
Standard
350
18
  0
DICTIONARY
  5
19
102
{ACAD_REACTORS
330
C
102
}
330
C
100
AcDbDictionary
281
     1
  0
ACDBDICTIONARYWDFLT
  5
E
102
{ACAD_REACTORS
330
C
102
}
330
C
100
AcDbDictionary
281
     1
  3
Normal
350
F
100
AcDbDictionaryWithDefault
340
F
  0
DICTIONARY
  5
EE7
102
{ACAD_REACTORS
330
C
102
}
330
C
100
AcDbDictionary
281
     1
  3
Standard
350
EE8
  0
DICTIONARY
  5
361C
102
{ACAD_REACTORS
330
C
102
}
330
C
100
AcDbDictionary
281
     1
  0
DICTIONARY
  5
3D
102
{ACAD_REACTORS
330
C
102
}
330
C
100
AcDbDictionary
281
     1
  3
CTABLESTYLE
350
1049
  3
DIMASSOC
350
3F
  3
HIDETEXT
350
3E
  3
PROJECTNAME
350
3614
  0
DICTIONARY
  5
35EE
102
{ACAD_REACTORS
330
C
102
}
330
C
100
AcDbDictionary
281
     1
  3
ASEBlockHierarchyIndexRecord
350
35EF
1001
DCO15
1040
1598617517.484
  0
DICTIONARY
  5
1057
102
{ACAD_REACTORS
330
1051
102
}
330
1051
100
AcDbDictionary
281
     1
  0
DICTIONARY
  5
1056
102
{ACAD_REACTORS
330
1051
102
}
330
1051
100
AcDbDictionary
281
     1
1001
ACAD
1000
<All
  0
LAYOUT
  5
1E
102
{ACAD_XDICTIONARY
360
361D
102
}
102
{ACAD_REACTORS
330
1A
102
}
330
1A
100
AcDbPlotSettings
  1

  2
Ploter HP500
  4

  6

 40
0.0
 41
0.0
 42
0.0
 43
0.0
 44
0.0
 45
0.0
 46
0.0
 47
0.0
 48
0.0
 49
0.0
140
0.0
141
0.0
142
1.0
143
1.0
 70
   688
 72
     0
 73
     0
 74
     5
  7
sanindusa.ctb
 75
    16
147
1.0
148
0.0
149
0.0
100
AcDbLayout
  1
Layout1
 70
     1
 71
     1
 10
0.0
 20
0.0
 11
420.0
 21
297.0
 12
0.0
 22
0.0
 32
0.0
 14
1.000000000000000E+20
 24
1.000000000000000E+20
 34
1.000000000000000E+20
 15
-1.000000000000000E+20
 25
-1.000000000000000E+20
 35
-1.000000000000000E+20
146
0.0
 13
0.0
 23
0.0
 33
0.0
 16
1.0
 26
0.0
 36
0.0
 17
0.0
 27
1.0
 37
0.0
 76
     0
330
1B
  0
LAYOUT
  5
26
102
{ACAD_XDICTIONARY
360
3621
102
}
102
{ACAD_REACTORS
330
1A
102
}
330
1A
100
AcDbPlotSettings
  1

  2
Ploter HP500
  4

  6

 40
0.0
 41
0.0
 42
0.0
 43
0.0
 44
0.0
 45
0.0
 46
0.0
 47
0.0
 48
0.0
 49
0.0
140
0.0
141
0.0
142
1.0
143
1.0
 70
   688
 72
     0
 73
     0
 74
     5
  7
sanindusa.ctb
 75
    16
147
1.0
148
0.0
149
0.0
100
AcDbLayout
  1
Layout2
 70
     1
 71
     2
 10
0.0
 20
0.0
 11
12.0
 21
9.0
 12
0.0
 22
0.0
 32
0.0
 14
0.0
 24
0.0
 34
0.0
 15
0.0
 25
0.0
 35
0.0
146
0.0
 13
0.0
 23
0.0
 33
0.0
 16
1.0
 26
0.0
 36
0.0
 17
0.0
 27
1.0
 37
0.0
 76
     0
330
23
  0
LAYOUT
  5
22
102
{ACAD_XDICTIONARY
360
361F
102
}
102
{ACAD_REACTORS
330
1A
102
}
330
1A
100
AcDbPlotSettings
  1

  2
Ploter HP500
  4
User268
  6

 40
4.995333194732666
 41
16.97565841674804
 42
4.995330810546875
 43
16.97567749023437
 44
209.9733276367187
 45
296.9259948730469
 46
0.0
 47
0.0
 48
0.0
 49
0.0
140
0.0
141
0.0
142
1.0
143
1.0
 70
 11952
 72
     1
 73
     1
 74
     0
  7
sanindusa.ctb
 75
     0
147
1.0
148
-427.5957866592534
149
7.362384574453926
100
AcDbLayout
  1
Model
 70
     1
 71
     0
 10
0.0
 20
0.0
 11
12.0
 21
9.0
 12
0.0
 22
0.0
 32
0.0
 14
0.0
 24
0.0
 34
0.0
 15
0.0
 25
0.0
 35
0.0
146
0.0
 13
0.0
 23
0.0
 33
0.0
 16
1.0
 26
0.0
 36
0.0
 17
0.0
 27
1.0
 37
0.0
 76
     0
330
1F
  0
MLINESTYLE
  5
18
102
{ACAD_REACTORS
330
17
102
}
330
17
100
AcDbMlineStyle
  2
STANDARD
 70
     0
  3

 62
   256
 51
90.0
 52
90.0
 71
     2
 49
0.5
 62
   256
  6
BYLAYER
 49
-0.5
 62
   256
  6
BYLAYER
  0
ACDBPLACEHOLDER
  5
F
102
{ACAD_REACTORS
330
E
102
}
330
E
  0
TABLESTYLE
  5
EE8
102
{ACAD_REACTORS
330
EE7
102
}
330
EE7
100
AcDbTableStyle
  3
Standard
 70
     0
 71
     0
 40
1.5
 41
1.5
280
     0
281
     0
  7
Standard
140
4.5
170
     2
 62
     0
 63
     7
283
     0
274
    -2
284
     1
 64
     0
275
    -2
285
     1
 65
     0
276
    -2
286
     1
 66
     0
277
    -2
287
     1
 67
     0
278
    -2
288
     1
 68
     0
279
    -2
289
     1
 69
     0
  7
Standard
140
6.0
170
     5
 62
     0
 63
     7
283
     0
274
    -2
284
     1
 64
     0
275
    -2
285
     1
 65
     0
276
    -2
286
     1
 66
     0
277
    -2
287
     1
 67
     0
278
    -2
288
     1
 68
     0
279
    -2
289
     1
 69
     0
  7
Standard
140
4.5
170
     5
 62
     0
 63
     7
283
     0
274
    -2
284
     1
 64
     0
275
    -2
285
     1
 65
     0
276
    -2
286
     1
 66
     0
277
    -2
287
     1
 67
     0
278
    -2
288
     1
 68
     0
279
    -2
289
     1
 69
     0
  0
DICTIONARYVAR
  5
1049
102
{ACAD_REACTORS
330
3D
102
}
330
3D
100
DictionaryVariables
280
     0
  1
STANDARD
  0
DICTIONARYVAR
  5
3F
102
{ACAD_REACTORS
330
3D
102
}
330
3D
100
DictionaryVariables
280
     0
  1
2
  0
DICTIONARYVAR
  5
3E
102
{ACAD_REACTORS
330
3D
102
}
330
3D
100
DictionaryVariables
280
     0
  1
1
  0
DICTIONARYVAR
  5
3614
102
{ACAD_REACTORS
330
3D
102
}
330
3D
100
DictionaryVariables
280
     0
  1

  0
XRECORD
  5
35EF
102
{ACAD_REACTORS
330
35EE
102
}
330
35EE
100
AcDbXrecord
280
     1
  0
DICTIONARY
  5
361D
330
1E
100
AcDbDictionary
280
     1
281
     1
  3
ACAD_XREC_ROUNDTRIP
360
361E
  0
DICTIONARY
  5
3621
330
26
100
AcDbDictionary
280
     1
281
     1
  3
ACAD_XREC_ROUNDTRIP
360
3622
  0
DICTIONARY
  5
361F
330
22
100
AcDbDictionary
280
     1
281
     1
  3
ACAD_XREC_ROUNDTRIP
360
3620
  0
XRECORD
  5
361E
102
{ACAD_REACTORS
330
361D
102
}
330
361D
100
AcDbXrecord
280
     1
102
SHADEPLOT
 70
     0
102
SHADEPLOTRESLEVEL
 70
     2
102
SHADEPLOTCUSTOMDPI
 70
   300
  0
XRECORD
  5
3622
102
{ACAD_REACTORS
330
3621
102
}
330
3621
100
AcDbXrecord
280
     1
102
SHADEPLOT
 70
     0
102
SHADEPLOTRESLEVEL
 70
     2
102
SHADEPLOTCUSTOMDPI
 70
   300
  0
XRECORD
  5
3620
102
{ACAD_REACTORS
330
361F
102
}
330
361F
100
AcDbXrecord
280
     1
102
SHADEPLOT
 70
     0
102
SHADEPLOTRESLEVEL
 70
     2
102
SHADEPLOTCUSTOMDPI
 70
   300
  0
ENDSEC
  0
EOF
