  0
SECTION
  2
HEADER
  9
$ACADVER
  1
AC1015
  9
$ACADMAINTVER
 70
    20
  9
$DWGCODEPAGE
  3
ANSI_1252
  9
$INSBASE
 10
0.0
 20
0.0
 30
0.0
  9
$EXTMIN
 10
4825.719480286196
 20
3130.039337952417
 30
0.0
  9
$EXTMAX
 10
4830.339520263315
 20
3130.94073435761
 30
0.0
  9
$LIMMIN
 10
0.0
 20
0.0
  9
$LIMMAX
 10
420.0
 20
297.0
  9
$ORTHOMODE
 70
     0
  9
$REGENMODE
 70
     1
  9
$FILLMODE
 70
     1
  9
$QTEXTMODE
 70
     0
  9
$MIRRTEXT
 70
     1
  9
$LTSCALE
 40
1.0
  9
$ATTMODE
 70
     1
  9
$TEXTSIZE
 40
2.5
  9
$TRACEWID
 40
1.0
  9
$TEXTSTYLE
  7
SANINDUSA
  9
$CLAYER
  8
0
  9
$CELTYPE
  6
ByLayer
  9
$CECOLOR
 62
   256
  9
$CELTSCALE
 40
1.0
  9
$DISPSILH
 70
     0
  9
$DIMSCALE
 40
1.0
  9
$DIMASZ
 40
2.0
  9
$DIMEXO
 40
1.0
  9
$DIMDLI
 40
1.0
  9
$DIMRND
 40
0.0
  9
$DIMDLE
 40
0.0
  9
$DIMEXE
 40
1.0
  9
$DIMTP
 40
0.0
  9
$DIMTM
 40
0.0
  9
$DIMTXT
 40
2.0
  9
$DIMCEN
 40
0.0
  9
$DIMTSZ
 40
0.0
  9
$DIMTOL
 70
     0
  9
$DIMLIM
 70
     0
  9
$DIMTIH
 70
     0
  9
$DIMTOH
 70
     0
  9
$DIMSE1
 70
     0
  9
$DIMSE2
 70
     0
  9
$DIMTAD
 70
     1
  9
$DIMZIN
 70
     8
  9
$DIMBLK
  1

  9
$DIMASO
 70
     1
  9
$DIMSHO
 70
     1
  9
$DIMPOST
  1

  9
$DIMAPOST
  1

  9
$DIMALT
 70
     0
  9
$DIMALTD
 70
     3
  9
$DIMALTF
 40
0.03937007874016
  9
$DIMLFAC
 40
1.0
  9
$DIMTOFL
 70
     1
  9
$DIMTVP
 40
0.0
  9
$DIMTIX
 70
     0
  9
$DIMSOXD
 70
     0
  9
$DIMSAH
 70
     0
  9
$DIMBLK1
  1

  9
$DIMBLK2
  1

  9
$DIMSTYLE
  2
SANINDUSA
  9
$DIMCLRD
 70
   256
  9
$DIMCLRE
 70
   256
  9
$DIMCLRT
 70
   256
  9
$DIMTFAC
 40
1.0
  9
$DIMGAP
 40
1.0
  9
$DIMJUST
 70
     0
  9
$DIMSD1
 70
     0
  9
$DIMSD2
 70
     0
  9
$DIMTOLJ
 70
     0
  9
$DIMTZIN
 70
     8
  9
$DIMALTZ
 70
     0
  9
$DIMALTTZ
 70
     0
  9
$DIMUPT
 70
     0
  9
$DIMDEC
 70
     1
  9
$DIMTDEC
 70
     1
  9
$DIMALTU
 70
     2
  9
$DIMALTTD
 70
     3
  9
$DIMTXSTY
  7
SANINDUSA
  9
$DIMAUNIT
 70
     0
  9
$DIMADEC
 70
     1
  9
$DIMALTRND
 40
0.0
  9
$DIMAZIN
 70
     0
  9
$DIMDSEP
 70
    44
  9
$DIMATFIT
 70
     3
  9
$DIMFRAC
 70
     0
  9
$DIMLDRBLK
  1

  9
$DIMLUNIT
 70
     2
  9
$DIMLWD
 70
    -1
  9
$DIMLWE
 70
    -1
  9
$DIMTMOVE
 70
     0
  9
$LUNITS
 70
     2
  9
$LUPREC
 70
     4
  9
$SKETCHINC
 40
1.0
  9
$FILLETRAD
 40
3.0
  9
$AUNITS
 70
     0
  9
$AUPREC
 70
     0
  9
$MENU
  1
.
  9
$ELEVATION
 40
0.0
  9
$PELEVATION
 40
0.0
  9
$THICKNESS
 40
0.0
  9
$LIMCHECK
 70
     0
  9
$CHAMFERA
 40
10.0
  9
$CHAMFERB
 40
10.0
  9
$CHAMFERC
 40
20.0
  9
$CHAMFERD
 40
0.0
  9
$SKPOLY
 70
     0
  9
$TDCREATE
 40
2454305.613576204
  9
$TDUCREATE
 40
2454305.613576204
  9
$TDUPDATE
 40
2454478.649762361
  9
$TDUUPDATE
 40
2454478.649762361
  9
$TDINDWG
 40
0.0464275926
  9
$TDUSRTIMER
 40
0.0464275926
  9
$USRTIMER
 70
     1
  9
$ANGBASE
 50
0.0
  9
$ANGDIR
 70
     0
  9
$PDMODE
 70
     0
  9
$PDSIZE
 40
0.0
  9
$PLINEWID
 40
0.0
  9
$SPLFRAME
 70
     0
  9
$SPLINETYPE
 70
     6
  9
$SPLINESEGS
 70
     8
  9
$HANDSEED
  5
35B8
  9
$SURFTAB1
 70
     6
  9
$SURFTAB2
 70
     6
  9
$SURFTYPE
 70
     6
  9
$SURFU
 70
     6
  9
$SURFV
 70
     6
  9
$UCSBASE
  2

  9
$UCSNAME
  2

  9
$UCSORG
 10
0.0
 20
0.0
 30
0.0
  9
$UCSXDIR
 10
1.0
 20
0.0
 30
0.0
  9
$UCSYDIR
 10
0.0
 20
1.0
 30
0.0
  9
$UCSORTHOREF
  2

  9
$UCSORTHOVIEW
 70
     0
  9
$UCSORGTOP
 10
0.0
 20
0.0
 30
0.0
  9
$UCSORGBOTTOM
 10
0.0
 20
0.0
 30
0.0
  9
$UCSORGLEFT
 10
0.0
 20
0.0
 30
0.0
  9
$UCSORGRIGHT
 10
0.0
 20
0.0
 30
0.0
  9
$UCSORGFRONT
 10
0.0
 20
0.0
 30
0.0
  9
$UCSORGBACK
 10
0.0
 20
0.0
 30
0.0
  9
$PUCSBASE
  2

  9
$PUCSNAME
  2

  9
$PUCSORG
 10
0.0
 20
0.0
 30
0.0
  9
$PUCSXDIR
 10
1.0
 20
0.0
 30
0.0
  9
$PUCSYDIR
 10
0.0
 20
1.0
 30
0.0
  9
$PUCSORTHOREF
  2

  9
$PUCSORTHOVIEW
 70
     0
  9
$PUCSORGTOP
 10
0.0
 20
0.0
 30
0.0
  9
$PUCSORGBOTTOM
 10
0.0
 20
0.0
 30
0.0
  9
$PUCSORGLEFT
 10
0.0
 20
0.0
 30
0.0
  9
$PUCSORGRIGHT
 10
0.0
 20
0.0
 30
0.0
  9
$PUCSORGFRONT
 10
0.0
 20
0.0
 30
0.0
  9
$PUCSORGBACK
 10
0.0
 20
0.0
 30
0.0
  9
$USERI1
 70
     0
  9
$USERI2
 70
     0
  9
$USERI3
 70
     0
  9
$USERI4
 70
     0
  9
$USERI5
 70
     0
  9
$USERR1
 40
0.0
  9
$USERR2
 40
0.0
  9
$USERR3
 40
0.0
  9
$USERR4
 40
0.0
  9
$USERR5
 40
0.0
  9
$WORLDVIEW
 70
     1
  9
$SHADEDGE
 70
     3
  9
$SHADEDIF
 70
    70
  9
$TILEMODE
 70
     1
  9
$MAXACTVP
 70
    64
  9
$PINSBASE
 10
0.0
 20
0.0
 30
0.0
  9
$PLIMCHECK
 70
     0
  9
$PEXTMIN
 10
1.000000000000000E+20
 20
1.000000000000000E+20
 30
1.000000000000000E+20
  9
$PEXTMAX
 10
-1.000000000000000E+20
 20
-1.000000000000000E+20
 30
-1.000000000000000E+20
  9
$PLIMMIN
 10
0.0
 20
0.0
  9
$PLIMMAX
 10
420.0
 20
297.0
  9
$UNITMODE
 70
     0
  9
$VISRETAIN
 70
     1
  9
$PLINEGEN
 70
     0
  9
$PSLTSCALE
 70
     1
  9
$TREEDEPTH
 70
  3020
  9
$CMLSTYLE
  2
Standard
  9
$CMLJUST
 70
     0
  9
$CMLSCALE
 40
20.0
  9
$PROXYGRAPHICS
 70
     1
  9
$MEASUREMENT
 70
     1
  9
$CELWEIGHT
370
    -1
  9
$ENDCAPS
280
     0
  9
$JOINSTYLE
280
     0
  9
$LWDISPLAY
290
     0
  9
$INSUNITS
 70
     4
  9
$HYPERLINKBASE
  1

  9
$STYLESHEET
  1
sanindusa.ctb
  9
$XEDIT
290
     1
  9
$CEPSNTYPE
380
     0
  9
$PSTYLEMODE
290
     1
  9
$FINGERPRINTGUID
  2
{9DB2C256-549F-462A-B0F3-24021A214C10}
  9
$VERSIONGUID
  2
{E0B77073-9B9B-4E01-8BE6-E407DA09B4F0}
  9
$EXTNAMES
290
     1
  9
$PSVPSCALE
 40
0.0
  9
$OLESTARTUP
290
     0
  0
ENDSEC
  0
SECTION
  2
CLASSES
  0
CLASS
  1
ACDBDICTIONARYWDFLT
  2
AcDbDictionaryWithDefault
  3
ObjectDBX Classes
 90
        0
280
     0
281
     0
  0
CLASS
  1
ACDBPLACEHOLDER
  2
AcDbPlaceHolder
  3
ObjectDBX Classes
 90
        0
280
     0
281
     0
  0
CLASS
  1
LAYOUT
  2
AcDbLayout
  3
ObjectDBX Classes
 90
        0
280
     0
281
     0
  0
CLASS
  1
DICTIONARYVAR
  2
AcDbDictionaryVar
  3
ObjectDBX Classes
 90
        0
280
     0
281
     0
  0
CLASS
  1
DIMASSOC
  2
AcDbDimAssoc
  3
"AcDbDimAssoc|Product Desc:     AcDim ARX App For Dimension|Company:          Autodesk, Inc.|WEB Address:      www.autodesk.com"
 90
    32768
280
     0
281
     0
  0
CLASS
  1
TABLESTYLE
  2
AcDbTableStyle
  3
ObjectDBX Classes
 90
     2047
280
     0
281
     0
  0
CLASS
  1
SORTENTSTABLE
  2
AcDbSortentsTable
  3
ObjectDBX Classes
 90
    32768
280
     0
281
     0
  0
ENDSEC
  0
SECTION
  2
TABLES
  0
TABLE
  2
VPORT
  5
8
330
0
100
AcDbSymbolTable
 70
     2
  0
VPORT
  5
35B0
330
8
100
AcDbSymbolTableRecord
100
AcDbViewportTableRecord
  2
*Active
 70
     0
 10
0.0
 20
0.0
 11
1.0
 21
1.0
 12
4828.029500274755
 22
3130.501791767081
 13
0.0
 23
0.0
 14
10.0
 24
10.0
 15
10.0
 25
10.0
 16
0.0
 26
0.0
 36
1.0
 17
0.0
 27
0.0
 37
0.0
 40
2.935964113895018
 41
1.579579579579579
 42
50.0
 43
0.0
 44
0.0
 50
0.0
 51
0.0
 71
     0
 72
   100
 73
     1
 74
     2
 75
     0
 76
     0
 77
     0
 78
     0
281
     0
 65
     1
110
0.0
120
0.0
130
0.0
111
1.0
121
0.0
131
0.0
112
0.0
122
1.0
132
0.0
 79
     0
146
0.0
  0
ENDTAB
  0
TABLE
  2
LTYPE
  5
5
330
0
100
AcDbSymbolTable
 70
     5
  0
LTYPE
  5
14
330
5
100
AcDbSymbolTableRecord
100
AcDbLinetypeTableRecord
  2
ByBlock
 70
     0
  3

 72
    65
 73
     0
 40
0.0
  0
LTYPE
  5
15
330
5
100
AcDbSymbolTableRecord
100
AcDbLinetypeTableRecord
  2
ByLayer
 70
     0
  3

 72
    65
 73
     0
 40
0.0
  0
LTYPE
  5
16
330
5
100
AcDbSymbolTableRecord
100
AcDbLinetypeTableRecord
  2
Continuous
 70
     0
  3
Solid line
 72
    65
 73
     0
 40
0.0
  0
LTYPE
  5
2D
330
5
100
AcDbSymbolTableRecord
100
AcDbLinetypeTableRecord
  2
DASHDOT
 70
     0
  3
Dash dot __ . __ . __ . __ . __ . __ . __ . __
 72
    65
 73
     4
 40
25.4
 49
12.7
 74
     0
 49
-6.349999999999999
 74
     0
 49
0.0
 74
     0
 49
-6.349999999999999
 74
     0
  0
LTYPE
  5
2E
330
5
100
AcDbSymbolTableRecord
100
AcDbLinetypeTableRecord
  2
HIDDEN
 70
     0
  3
Hidden __ __ __ __ __ __ __ __ __ __ __ __ __ _
 72
    65
 73
     2
 40
9.524999999999998
 49
6.349999999999999
 74
     0
 49
-3.174999999999999
 74
     0
  0
LTYPE
  5
C75
330
5
100
AcDbSymbolTableRecord
100
AcDbLinetypeTableRecord
  2
AM_ISO02W050
 70
     0
  3
__ __ __ __ __ __ __ __ __ __ __ __ __ __ __
 72
    65
 73
     2
 40
7.5
 49
6.0
 74
     0
 49
-1.5
 74
     0
  0
LTYPE
  5
C76
330
5
100
AcDbSymbolTableRecord
100
AcDbLinetypeTableRecord
  2
AM_ISO08W050
 70
     0
  3
____ . ____ . ____ . ____ . ____ . ____ . ____
 72
    65
 73
     4
 40
18.0
 49
12.0
 74
     0
 49
-1.5
 74
     0
 49
3.0
 74
     0
 49
-1.5
 74
     0
  0
ENDTAB
  0
TABLE
  2
LAYER
  5
2
102
{ACAD_XDICTIONARY
360
1051
102
}
330
0
100
AcDbSymbolTable
 70
    16
  0
LAYER
  5
10
330
2
100
AcDbSymbolTableRecord
100
AcDbLayerTableRecord
  2
0
 70
     0
 62
     7
  6
Continuous
370
    -3
390
F
  0
LAYER
  5
2F
330
2
100
AcDbSymbolTableRecord
100
AcDbLayerTableRecord
  2
1
 70
     0
 62
     1
  6
Continuous
370
    -3
390
F
  0
LAYER
  5
30
330
2
100
AcDbSymbolTableRecord
100
AcDbLayerTableRecord
  2
2
 70
     0
 62
     2
  6
Continuous
370
    -3
390
F
  0
LAYER
  5
31
330
2
100
AcDbSymbolTableRecord
100
AcDbLayerTableRecord
  2
3
 70
     0
 62
     3
  6
Continuous
370
    -3
390
F
  0
LAYER
  5
32
330
2
100
AcDbSymbolTableRecord
100
AcDbLayerTableRecord
  2
4
 70
     0
 62
     4
  6
Continuous
370
    -3
390
F
  0
LAYER
  5
33
330
2
100
AcDbSymbolTableRecord
100
AcDbLayerTableRecord
  2
5
 70
     0
 62
     5
  6
Continuous
370
    -3
390
F
  0
LAYER
  5
34
330
2
100
AcDbSymbolTableRecord
100
AcDbLayerTableRecord
  2
6
 70
     0
 62
     6
  6
Continuous
370
    -3
390
F
  0
LAYER
  5
35
330
2
100
AcDbSymbolTableRecord
100
AcDbLayerTableRecord
  2
7
 70
     0
 62
     7
  6
Continuous
370
    -3
390
F
  0
LAYER
  5
36
330
2
100
AcDbSymbolTableRecord
100
AcDbLayerTableRecord
  2
cen
 70
     0
 62
     7
  6
DASHDOT
370
    -3
390
F
  0
LAYER
  5
37
330
2
100
AcDbSymbolTableRecord
100
AcDbLayerTableRecord
  2
hid
 70
     0
 62
     7
  6
HIDDEN
370
    -3
390
F
  0
LAYER
  5
5D6
330
2
100
AcDbSymbolTableRecord
100
AcDbLayerTableRecord
  2
hatch
 70
     0
 62
     9
  6
Continuous
370
    -3
390
F
  0
LAYER
  5
8AF
330
2
100
AcDbSymbolTableRecord
100
AcDbLayerTableRecord
  2
9
 70
     0
 62
     9
  6
Continuous
370
    -3
390
F
  0
LAYER
  5
8F8
330
2
100
AcDbSymbolTableRecord
100
AcDbLayerTableRecord
  2
leg fin
 70
     0
 62
     9
  6
Continuous
370
    -3
390
F
  0
LAYER
  5
91D
330
2
100
AcDbSymbolTableRecord
100
AcDbLayerTableRecord
  2
cotas
 70
     0
 62
     1
  6
Continuous
370
    -3
390
F
  0
LAYER
  5
92F
330
2
100
AcDbSymbolTableRecord
100
AcDbLayerTableRecord
  2
Defpoints
 70
     0
 62
     7
  6
Continuous
290
     0
370
    -3
390
F
  0
LAYER
  5
C7B
330
2
100
AcDbSymbolTableRecord
100
AcDbLayerTableRecord
  2
SANINDUSA
 70
     0
 62
     3
  6
Continuous
370
    -3
390
F
  0
ENDTAB
  0
TABLE
  2
STYLE
  5
3
330
0
100
AcDbSymbolTable
 70
     4
  0
STYLE
  5
11
330
3
100
AcDbSymbolTableRecord
100
AcDbTextStyleTableRecord
  2
Standard
 70
     0
 40
0.0
 41
1.0
 50
0.0
 71
     0
 42
2.5
  3
Avgardn.ttf
  4

1001
ACAD
1000
AvantGarde Bk BT
1071
       34
  0
STYLE
  5
2C
330
3
100
AcDbSymbolTableRecord
100
AcDbTextStyleTableRecord
  2

 70
     1
 40
0.0
 41
1.0
 50
0.0
 71
     0
 42
2.5
  3
ltypeshp.shx
  4

  0
STYLE
  5
91F
330
3
100
AcDbSymbolTableRecord
100
AcDbTextStyleTableRecord
  2
SANINDUSA
 70
     0
 40
0.0
 41
1.0
 50
0.0
 71
     0
 42
2.5
  3
verdana.TTF
  4

1001
ACAD
1000
Verdana
1071
       34
  0
STYLE
  5
C7C
330
3
100
AcDbSymbolTableRecord
100
AcDbTextStyleTableRecord
  2
futura
 70
     0
 40
0.0
 41
1.0
 50
0.0
 71
     0
 42
2.5
  3
ZURCHN.TTF
  4

1001
ACAD
1000
Zurich BT
1071
       34
  0
ENDTAB
  0
TABLE
  2
VIEW
  5
6
330
0
100
AcDbSymbolTable
 70
     0
  0
ENDTAB
  0
TABLE
  2
UCS
  5
7
330
0
100
AcDbSymbolTable
 70
     0
  0
ENDTAB
  0
TABLE
  2
APPID
  5
9
330
0
100
AcDbSymbolTable
 70
    12
  0
APPID
  5
12
330
9
100
AcDbSymbolTableRecord
100
AcDbRegAppTableRecord
  2
ACAD
 70
     0
  0
APPID
  5
3A
330
9
100
AcDbSymbolTableRecord
100
AcDbRegAppTableRecord
  2
DCO15
 70
     0
  0
APPID
  5
EEE
330
9
100
AcDbSymbolTableRecord
100
AcDbRegAppTableRecord
  2
ACAD_DSTYLE_DIMTEXT_FILL
 70
     0
  0
APPID
  5
EEF
330
9
100
AcDbSymbolTableRecord
100
AcDbRegAppTableRecord
  2
ACAD_DSTYLE_DIMEXT_LENGTH
 70
     0
  0
APPID
  5
EF0
330
9
100
AcDbSymbolTableRecord
100
AcDbRegAppTableRecord
  2
ACAD_DSTYLE_DIMEXT_ENABLED
 70
     0
  0
APPID
  5
EF1
330
9
100
AcDbSymbolTableRecord
100
AcDbRegAppTableRecord
  2
ACAD_DSTYLE_DIM_LINETYPE
 70
     0
  0
APPID
  5
EF2
330
9
100
AcDbSymbolTableRecord
100
AcDbRegAppTableRecord
  2
ACAD_DSTYLE_DIM_EXT1_LINETYPE
 70
     0
  0
APPID
  5
EF3
330
9
100
AcDbSymbolTableRecord
100
AcDbRegAppTableRecord
  2
ACAD_DSTYLE_DIM_EXT2_LINETYPE
 70
     0
  0
APPID
  5
FAF
330
9
100
AcDbSymbolTableRecord
100
AcDbRegAppTableRecord
  2
ACAD_DSTYLE_DIMJOGGED_JOGANGLE_SYMBOL
 70
     0
  0
APPID
  5
1013
330
9
100
AcDbSymbolTableRecord
100
AcDbRegAppTableRecord
  2
ACAD_DSTYLE_DIMARC_LENGTH_SYMBOL
 70
     0
  0
APPID
  5
1352
330
9
100
AcDbSymbolTableRecord
100
AcDbRegAppTableRecord
  2
ACAD_PSEXT
 70
     0
  0
APPID
  5
358C
330
9
100
AcDbSymbolTableRecord
100
AcDbRegAppTableRecord
  2
ACAD_EXEMPT_FROM_CAD_STANDARDS
 70
     0
  0
ENDTAB
  0
TABLE
  2
DIMSTYLE
  5
A
330
0
100
AcDbSymbolTable
 70
     3
100
AcDbDimStyleTable
 71
     1
340
921
  0
DIMSTYLE
105
45
330
A
100
AcDbSymbolTableRecord
100
AcDbDimStyleTableRecord
  2
STANDARD
 70
     0
289
     0
340
11
  0
DIMSTYLE
105
921
330
A
100
AcDbSymbolTableRecord
100
AcDbDimStyleTableRecord
  2
SANINDUSA
 70
     0
 41
2.0
 42
1.0
 43
1.0
 44
1.0
 73
     0
 74
     0
 77
     1
 78
     8
140
2.0
141
0.0
143
0.03937007874016
147
1.0
171
     3
172
     1
176
   256
177
   256
178
   256
179
     1
271
     1
272
     1
274
     3
278
    44
283
     0
284
     8
340
91F
371
    -1
372
    -1
1001
ACAD_DSTYLE_DIMEXT_LENGTH
1070
   378
1040
1.0
1001
ACAD_DSTYLE_DIMEXT_ENABLED
1070
   383
1070
     0
1001
ACAD_DSTYLE_DIMARC_LENGTH_SYMBOL
1070
   379
1070
     0
1001
ACAD_DSTYLE_DIMJOGGED_JOGANGLE_SYMBOL
1070
   384
1040
1.570796326794896
  0
DIMSTYLE
105
C7D
330
A
100
AcDbSymbolTableRecord
100
AcDbDimStyleTableRecord
  2
AM_ISO
 70
     0
  4
"
 41
2.5
 42
1.0
 43
10.0
 44
1.0
 47
0.1
 48
0.1
 73
     0
 74
     0
 77
     1
 78
     8
 79
     2
140
3.5
141
0.0
143
0.0393701
146
0.71
147
1.5
172
     1
176
   256
177
   256
178
     2
271
     2
272
     3
274
     4
283
     0
284
     8
340
11
371
    -1
372
    -1
  0
ENDTAB
  0
TABLE
  2
BLOCK_RECORD
  5
1
330
0
100
AcDbSymbolTable
 70
     7
  0
BLOCK_RECORD
  5
1F
330
1
100
AcDbSymbolTableRecord
100
AcDbBlockTableRecord
  2
*Model_Space
340
22
  0
BLOCK_RECORD
  5
1B
330
1
100
AcDbSymbolTableRecord
100
AcDbBlockTableRecord
  2
*Paper_Space
340
1E
  0
BLOCK_RECORD
  5
23
330
1
100
AcDbSymbolTableRecord
100
AcDbBlockTableRecord
  2
*Paper_Space0
340
26
  0
BLOCK_RECORD
  5
919
330
1
100
AcDbSymbolTableRecord
100
AcDbBlockTableRecord
  2
_DotSmall
340
0
  0
BLOCK_RECORD
  5
922
330
1
100
AcDbSymbolTableRecord
100
AcDbBlockTableRecord
  2
base para cotas
340
0
310
2800000020000000200000000100080000000000000400000000000000000000000000000000000000000000000080000080000000808000800000008000800080800000C0C0C000C0DCC000F0CAA6000020400000206000002080000020A0000020C0000020E00000400000004020000040400000406000004080000040A0
310
000040C0000040E00000600000006020000060400000606000006080000060A0000060C0000060E00000800000008020000080400000806000008080000080A0000080C0000080E00000A0000000A0200000A0400000A0600000A0800000A0A00000A0C00000A0E00000C0000000C0200000C0400000C0600000C0800000C0
310
A00000C0C00000C0E00000E0000000E0200000E0400000E0600000E0800000E0A00000E0C00000E0E00040000000400020004000400040006000400080004000A0004000C0004000E00040200000402020004020400040206000402080004020A0004020C0004020E000404000004040200040404000404060004040800040
310
40A0004040C0004040E00040600000406020004060400040606000406080004060A0004060C0004060E00040800000408020004080400040806000408080004080A0004080C0004080E00040A0000040A0200040A0400040A0600040A0800040A0A00040A0C00040A0E00040C0000040C0200040C0400040C0600040C08000
310
40C0A00040C0C00040C0E00040E0000040E0200040E0400040E0600040E0800040E0A00040E0C00040E0E00080000000800020008000400080006000800080008000A0008000C0008000E00080200000802020008020400080206000802080008020A0008020C0008020E00080400000804020008040400080406000804080
310
008040A0008040C0008040E00080600000806020008060400080606000806080008060A0008060C0008060E00080800000808020008080400080806000808080008080A0008080C0008080E00080A0000080A0200080A0400080A0600080A0800080A0A00080A0C00080A0E00080C0000080C0200080C0400080C0600080C0
310
800080C0A00080C0C00080C0E00080E0000080E0200080E0400080E0600080E0800080E0A00080E0C00080E0E000C0000000C0002000C0004000C0006000C0008000C000A000C000C000C000E000C0200000C0202000C0204000C0206000C0208000C020A000C020C000C020E000C0400000C0402000C0404000C0406000C0
310
408000C040A000C040C000C040E000C0600000C0602000C0604000C0606000C0608000C060A000C060C000C060E000C0800000C0802000C0804000C0806000C0808000C080A000C080C000C080E000C0A00000C0A02000C0A04000C0A06000C0A08000C0A0A000C0A0C000C0A0E000C0C00000C0C02000C0C04000C0C06000
310
C0C08000C0C0A000F0FBFF00A4A0A000808080000000FF0000FF000000FFFF00FF000000FF00FF00FFFF0000FFFFFF00A4A4A4A4A4A4A4A4A4A4A4A4A4A4A4A4A4A4A4A4A4A4A4A4A4A4A4A4A4A4A4A4A4A4A4A4A4A4A4A4A4A4A4A4A4A4A4A4A4A4A4A4A4A4A4A4A4A4A4A4A4A4A4A4A4A4A4A4A4A4A4A4A4A4A4A4A4A4A4
310
A4A4A4A4A4A4A4A4A4A4A4A4A4A4A4A4A4A4A4A4A4A4A4A4A4A4A4A4A4A4A4A4A4A4A4A4A4A4A4A4A4A4A4A4A4A4A4A4A4A4A4A4A4A4A4A4A4A4A4A4A4A4A4A4A4A4A4A4A4A4A4A4A4A4A4A4A4A4A4A4A4A4A4A4A4A4A4A4A4A4A4A4A4A4A4A4A4A4A4A4A4A4A4A4A4A4A4A4A4A4A4A4A4A4A4A4A4A4A4A4A4A4A4A4A4A4A4
310
A4A4A4A4A4A4A4A4A4A4A4A4A4A4A4A4A4A4A4A4A4A4A4A4A4A4A4A4A4A4A4A4A4A4A4A4A4A4A4A4A4A4A4A4A4A4A4A4A4A4A4A4A4A4A4A4A4A4A4A4A4A4A4A4A4A4A4A4A4A4A4A4A4A4A4A4A4A4A4A4A4A4A4A4A4A4A4A4A4A4A4A4A4A4A4A4A4A4A4A4A4A4A4A4A4A4A4A4A4A4A4A4A4A4A4A4A4A4A4A4A4A4A4A4A4A4A4
310
A4A4A4A4A4A4A4A4A4A4A4A4A4A4A4A4A4A4A4A4A4A4A4A4A4A4A4A4A4A4A4A4A4A4A4A4A4A4A4A4A4A4A4A4A4A4A4A4A4A4A4A4A4A4A4A4A4A4A4A4A4A4A4A4A4A4A4A4A4A4A4A4A4A4A4A4A4A4A4A4A4A4A4A4A4A4A4A4A4A4A4A4A4A4A4A4A4A4A4A4A4A4A4A4A4A4A4A4A4A4A4A4A4A4A4A4F9F9F9F9F9F9F9F9F9F9F9
310
F9F9F9F9F9F9F9F9F9F9F9F9F9F9F9F9F9F9F9A4A4F9F9F9F9F9F9F9F9F9F9F9F9F9F9F9F9F9F9F9F9F9F9F9F9F9F9F9F9F9F9A4A4F9F9F9F9F9F9F9F9F9F9F9F9F9F9F9F9F9F9F9F9F9F9F9F9F9F9F9F9F9F9A4A4F9A4A4A4A4A4A4A4A4A4A4A4A4A4A4A4A4A4A4A4A4A4A4A4A4A4A4A4A4F9A4A4A4A4A4A4A4A4A4A4A4A4
310
A4A4A4A4A4A4A4A4A4A4A4A4A4A4A4A4A4A4A4A4A4A4A4A4A4A4A4A4A4A4A4A4A4A4A4A4A4A4A4A4A4A4A4A4A4A4A4A4A4A4A4A4A4A4A4A4A4A4A4A4A4A4A4A4A4A4A4A4A4A4A4A4A4A4A4A4A4A4A4A4A4A4A4A4A4A4A4A4A4A4A4A4A4A4A4A4A4A4A4A4A4A4A4A4A4A4A4A4A4A4A4A4A4A4A4A4A4A4A4A4A4A4A4A4A4A4A4
310
A4A4A4A4A4A4A4A4A4A4A4A4A4A4A4A4A4A4A4A4A4A4A4A4A4A4A4A4A4A4A4A4A4A4A4A4A4A4A4A4A4A4A4A4A4A4A4A4A4A4A4A4A4A4A4A4A4A4A4A4A4A4A4A4A4A4A4A4A4A4A4A4A4A4A4A4A4A4A4A4A4A4A4A4A4A4A4A4A4A4A4A4A4A4A4A4A4A4A4A4A4A4A4A4A4A4A4A4A4A4A4A4A4A4A4A4A4A4A4A4A4A4A4A4A4A4A4
310
A4A4A4A4A4A4A4A4A4A4A4A4A4A4A4A4A4A4A4A4A4A4A4A4A4A4A4A4A4A4A4A4A4A4A4A4A4A4A4A4A4A4A4A4A4A4A4A4A4A4A4A4A4A4A4A4A4A4A4A4A4A4A4A4A4A4A4A4A4A4A4A4A4A4A4A4A4A4A4A4A4A4A4A4A4A4A4A4A4A4A4A4A4A4A4A4A4A4A4A4A4A4A4A4A4A4A4A4A4A4A4A4A4A4A4A4A4A4A4A4A4A4A4A4A4A4A4
310
A4A4A4A4A4A4A4A4A4A4A4A4A4A4A4A4A4A4A4A4A4A4A4A4A4A4A4A4A4A4A4A4A4A4A4A4A4A4A4A4A4A4A4A4A4A4A4A4A4A4A4A4A4A4A4A4
1001
ACAD
1000
DesignCenter Data
1002
{
1070
     1
1070
     4
1002
}
  0
BLOCK_RECORD
  5
AA8
330
1
100
AcDbSymbolTableRecord
100
AcDbBlockTableRecord
  2
_CLOSED
340
0
  0
BLOCK_RECORD
  5
B79
330
1
100
AcDbSymbolTableRecord
100
AcDbBlockTableRecord
  2
nota revisoes
340
0
1001
ACAD
1000
DesignCenter Data
1002
{
1070
     1
1070
     4
1002
}
  0
BLOCK_RECORD
  5
B8E
330
1
100
AcDbSymbolTableRecord
100
AcDbBlockTableRecord
  2
a3l
340
0
1001
ACAD
1000
DesignCenter Data
1002
{
1070
     1
1070
     4
1002
}
  0
BLOCK_RECORD
  5
B9E
330
1
100
AcDbSymbolTableRecord
100
AcDbBlockTableRecord
  2
legenda desenvolvimento
340
0
1001
ACAD
1000
DesignCenter Data
1002
{
1070
     1
1070
     4
1002
}
  0
ENDTAB
  0
ENDSEC
  0
SECTION
  2
BLOCKS
  0
BLOCK
  5
20
330
1F
100
AcDbEntity
  8
0
100
AcDbBlockBegin
  2
*Model_Space
 70
     0
 10
0.0
 20
0.0
 30
0.0
  3
*Model_Space
  1

  0
ENDBLK
  5
21
330
1F
100
AcDbEntity
  8
0
100
AcDbBlockEnd
  0
BLOCK
  5
1C
330
1B
100
AcDbEntity
 67
     1
  8
0
100
AcDbBlockBegin
  2
*Paper_Space
 70
     0
 10
0.0
 20
0.0
 30
0.0
  3
*Paper_Space
  1

  0
ENDBLK
  5
1D
330
1B
100
AcDbEntity
 67
     1
  8
0
100
AcDbBlockEnd
  0
BLOCK
  5
24
330
23
100
AcDbEntity
 67
     1
  8
0
100
AcDbBlockBegin
  2
*Paper_Space0
 70
     0
 10
0.0
 20
0.0
 30
0.0
  3
*Paper_Space0
  1

  0
ENDBLK
  5
25
330
23
100
AcDbEntity
 67
     1
  8
0
100
AcDbBlockEnd
  0
BLOCK
  5
91B
330
919
100
AcDbEntity
  8
0
100
AcDbBlockBegin
  2
_DotSmall
 70
     0
 10
0.0
 20
0.0
 30
0.0
  3
_DotSmall
  1

  0
LWPOLYLINE
  5
91A
330
919
100
AcDbEntity
  8
0
  6
ByBlock
 62
     0
100
AcDbPolyline
 90
        2
 70
     1
 43
0.5
 10
-0.0625
 20
0.0
 42
1.0
 10
0.0625
 20
0.0
 42
1.0
  0
ENDBLK
  5
91C
330
919
100
AcDbEntity
  8
0
100
AcDbBlockEnd
  0
BLOCK
  5
92A
330
922
100
AcDbEntity
  8
0
100
AcDbBlockBegin
  2
base para cotas
 70
     0
 10
0.0
 20
0.0
 30
0.0
  3
base para cotas
  1

  0
LINE
  5
B36
330
922
100
AcDbEntity
  8
cotas
100
AcDbLine
 10
0.0
 20
-30.0
 30
0.0
 11
327.1260136525398
 21
-30.0
 31
0.0
  0
LINE
  5
B37
330
922
100
AcDbEntity
  8
cotas
100
AcDbLine
 10
0.0
 20
-25.0
 30
0.0
 11
327.1260136525398
 21
-25.0
 31
0.0
  0
LINE
  5
B38
330
922
100
AcDbEntity
  8
cotas
100
AcDbLine
 10
0.0
 20
-20.0
 30
0.0
 11
327.1260136525398
 21
-20.0
 31
0.0
  0
LINE
  5
B39
330
922
100
AcDbEntity
  8
cotas
100
AcDbLine
 10
0.0
 20
-15.0
 30
0.0
 11
327.1260136525398
 21
-15.0
 31
0.0
  0
LINE
  5
B3A
330
922
100
AcDbEntity
  8
cotas
100
AcDbLine
 10
0.0
 20
-10.0
 30
0.0
 11
327.1260136525398
 21
-10.0
 31
0.0
  0
LINE
  5
B3B
330
922
100
AcDbEntity
  8
cotas
100
AcDbLine
 10
0.0
 20
0.0
 30
0.0
 11
0.0
 21
-30.0
 31
0.0
  0
LINE
  5
B3C
330
922
100
AcDbEntity
  8
cotas
100
AcDbLine
 10
327.1260136525398
 20
-30.0
 30
0.0
 11
327.1260136525398
 21
0.0
 31
0.0
  0
ENDBLK
  5
92B
330
922
100
AcDbEntity
  8
0
100
AcDbBlockEnd
  0
BLOCK
  5
AAD
330
AA8
100
AcDbEntity
  8
0
100
AcDbBlockBegin
  2
_CLOSED
 70
     0
 10
0.0
 20
0.0
 30
0.0
  3
_CLOSED
  1

  0
LINE
  5
AA9
330
AA8
100
AcDbEntity
  8
0
100
AcDbLine
 10
-1.0
 20
0.166667
 30
0.0
 11
0.0
 21
0.0
 31
0.0
  0
LINE
  5
AAA
330
AA8
100
AcDbEntity
  8
0
100
AcDbLine
 10
0.0
 20
0.0
 30
0.0
 11
-1.0
 21
-0.166667
 31
0.0
  0
LINE
  5
AAB
330
AA8
100
AcDbEntity
  8
0
100
AcDbLine
 10
-1.0
 20
0.166667
 30
0.0
 11
-1.0
 21
-0.166667
 31
0.0
  0
LINE
  5
AAC
330
AA8
100
AcDbEntity
  8
0
100
AcDbLine
 10
0.0
 20
0.0
 30
0.0
 11
-1.0
 21
0.0
 31
0.0
  0
ENDBLK
  5
AAE
330
AA8
100
AcDbEntity
  8
0
100
AcDbBlockEnd
  0
BLOCK
  5
B7C
330
B79
100
AcDbEntity
  8
0
100
AcDbBlockBegin
  2
nota revisoes
 70
     0
 10
0.0
 20
0.0
 30
0.0
  3
nota revisoes
  1

  0
CIRCLE
  5
B7A
330
B79
100
AcDbEntity
  8
4
100
AcDbCircle
 10
0.0
 20
0.0
 30
0.0
 40
13.69426055101189
  0
TEXT
  5
B7B
330
B79
100
AcDbEntity
  8
4
100
AcDbText
 10
-5.496248358154345
 20
-5.354545554066362
 30
0.0
 40
12.0
  1
1
  7
SANINDUSA
 72
     1
 11
-0.249774214433728
 21
-5.354545554066362
 31
0.0
100
AcDbText
  0
ENDBLK
  5
B7D
330
B79
100
AcDbEntity
  8
0
100
AcDbBlockEnd
  0
BLOCK
  5
B9C
330
B8E
100
AcDbEntity
  8
0
100
AcDbBlockBegin
  2
a3l
 70
     0
 10
0.0
 20
0.0
 30
0.0
  3
a3l
  1

  0
LINE
  5
B8F
330
B8E
100
AcDbEntity
  8
1
100
AcDbLine
 10
-364.2925296599447
 20
-362.1188951399395
 30
0.0
 11
-364.2925296599447
 21
-65.11889513993946
 31
0.0
  0
LINE
  5
B90
330
B8E
100
AcDbEntity
  8
4
100
AcDbLine
 10
-369.2925296599447
 20
-357.1188951399395
 30
0.0
 11
-369.2925296599447
 21
-70.11889513993946
 31
0.0
  0
LINE
  5
B91
330
B8E
100
AcDbEntity
  8
1
100
AcDbLine
 10
-784.2925296599446
 20
-65.11889513993946
 30
0.0
 11
-784.2925296599446
 21
-362.1188951399395
 31
0.0
  0
LINE
  5
B92
330
B8E
100
AcDbEntity
  8
4
100
AcDbLine
 10
-759.2925296599446
 20
-357.1188951399395
 30
0.0
 11
-759.2925296599446
 21
-70.11889513993946
 31
0.0
  0
LINE
  5
B93
330
B8E
100
AcDbEntity
  8
1
100
AcDbLine
 10
-784.2925296599446
 20
-362.1188951399395
 30
0.0
 11
-364.2925296599447
 21
-362.1188951399395
 31
0.0
  0
LINE
  5
B94
330
B8E
100
AcDbEntity
  8
4
100
AcDbLine
 10
-759.2925296599446
 20
-357.1188951399395
 30
0.0
 11
-369.2925296599447
 21
-357.1188951399395
 31
0.0
  0
LINE
  5
B95
330
B8E
100
AcDbEntity
  8
1
100
AcDbLine
 10
-654.2925296599446
 20
-357.1188951399395
 30
0.0
 11
-654.2925296599446
 21
-362.1188951399395
 31
0.0
  0
LINE
  5
B96
330
B8E
100
AcDbEntity
  8
1
100
AcDbLine
 10
-364.2925296599447
 20
-65.11889513993946
 30
0.0
 11
-784.2925296599446
 21
-65.11889513993946
 31
0.0
  0
LINE
  5
B97
330
B8E
100
AcDbEntity
  8
4
100
AcDbLine
 10
-369.2925296599447
 20
-70.11889513993946
 30
0.0
 11
-759.2925296599446
 21
-70.11889513993946
 31
0.0
  0
LINE
  5
B98
330
B8E
100
AcDbEntity
  8
1
100
AcDbLine
 10
-654.2925296599446
 20
-65.11889513993946
 30
0.0
 11
-654.2925296599446
 21
-70.11889513993946
 31
0.0
  0
LINE
  5
B99
330
B8E
100
AcDbEntity
  8
1
100
AcDbLine
 10
-549.2925296599446
 20
-70.11889513993946
 30
0.0
 11
-549.2925296599446
 21
-65.11889513993946
 31
0.0
  0
LINE
  5
B9A
330
B8E
100
AcDbEntity
  8
1
100
AcDbLine
 10
-369.2925296599447
 20
-65.11889513993946
 30
0.0
 11
-364.2925296599447
 21
-65.11889513993946
 31
0.0
  0
LINE
  5
B9B
330
B8E
100
AcDbEntity
  8
1
100
AcDbLine
 10
-549.2925296599446
 20
-357.1188951399395
 30
0.0
 11
-549.2925296599446
 21
-362.1188951399395
 31
0.0
  0
ENDBLK
  5
B9D
330
B8E
100
AcDbEntity
  8
0
100
AcDbBlockEnd
  0
BLOCK
  5
C13
330
B9E
100
AcDbEntity
  8
0
100
AcDbBlockBegin
  2
legenda desenvolvimento
 70
     2
 10
0.0
 20
0.0
 30
0.0
  3
legenda desenvolvimento
  1

  0
ATTDEF
  5
B9F
330
B9E
100
AcDbEntity
  8
1
100
AcDbText
 10
-108.606245802552
 20
55.5
 30
0.0
 40
4.0
  1
XXXXXXXXXXXXXX
 41
0.8
  7
SANINDUSA
 72
     4
 11
-87.5
 21
57.5
 31
0.0
100
AcDbAttributeDefinition
  3
Nome do Produto:
  2
PRODUTO
 70
     0
  0
ATTDEF
  5
BA0
330
B9E
100
AcDbEntity
  8
1
100
AcDbText
 10
-97.9997966101695
 20
41.25
 30
0.0
 40
3.0
  1
XXXXXXXXX
 41
0.8
  7
futura
 72
     4
 11
-87.5
 21
42.75
 31
0.0
100
AcDbAttributeDefinition
  3
Nome da Peça:
  2
PECA
 70
     0
  0
ATTDEF
  5
BA1
330
B9E
100
AcDbEntity
  8
1
100
AcDbText
 10
-133.4422431161853
 20
21.11745296763252
 30
0.0
 40
2.5
  1
X
 41
0.8
  7
SANINDUSA
 72
     4
 11
-132.5
 21
22.36745296763252
 31
0.0
100
AcDbAttributeDefinition
  3
Cod. TESTE:
  2
TESTE
 70
     0
  0
ATTDEF
  5
BA2
330
B9E
100
AcDbEntity
  8
1
100
AcDbText
 10
-124.3844862323707
 20
21.11745296763252
 30
0.0
 40
2.5
  1
XX
 41
0.8
  7
SANINDUSA
 72
     4
 11
-122.5
 21
22.36745296763252
 31
0.0
100
AcDbAttributeDefinition
  3
Cod. Ano:
  2
ANO
 70
     0
  0
ATTDEF
  5
BA3
330
B9E
100
AcDbEntity
  8
1
100
AcDbText
 10
-112.526889953052
 20
21.11745296763252
 30
0.0
 40
2.5
  1
XXX
 41
0.8
  7
SANINDUSA
 72
     4
 11
-109.700160604496
 21
22.36745296763252
 31
0.0
100
AcDbAttributeDefinition
  3
Cod. Sequência:
  2
SEQUENCIA
 70
     0
  0
ATTDEF
  5
BA4
330
B9E
100
AcDbEntity
  8
1
100
AcDbText
 10
-99.35382430979316
 20
21.11745296763252
 30
0.0
 40
2.5
  1
XX
 41
0.8
  7
SANINDUSA
 72
     4
 11
-97.46933807742244
 21
22.36745296763252
 31
0.0
100
AcDbAttributeDefinition
  3
Cod. Tipo:
  2
TIPO
 70
     0
  0
ATTDEF
  5
BA5
330
B9E
100
AcDbEntity
  8
1
100
AcDbText
 10
-87.42035911468438
 20
21.11745296763252
 30
0.0
 40
2.5
  1
XXX
 41
0.8
  7
SANINDUSA
 72
     4
 11
-84.59362976612828
 21
22.36745296763252
 31
0.0
100
AcDbAttributeDefinition
  3
Cod. Produto:
  2
PRODUTO
 70
     0
  0
ATTDEF
  5
BA6
330
B9E
100
AcDbEntity
  8
1
100
AcDbText
 10
-74.62051971917853
 20
21.11745296763252
 30
0.0
 40
2.5
  1
XXX
 41
0.8
  7
SANINDUSA
 72
     4
 11
-71.79379037062244
 21
22.36745296763252
 31
0.0
100
AcDbAttributeDefinition
  3
Cod. Peça:
  2
PECA
 70
     0
  0
ATTDEF
  5
BA7
330
B9E
100
AcDbEntity
  8
1
100
AcDbText
 10
-61.10603446650329
 20
21.11745296763252
 30
0.0
 40
2.5
  1
XX
 41
0.8
  7
SANINDUSA
 72
     4
 11
-59.22154823413257
 21
22.36745296763252
 31
0.0
100
AcDbAttributeDefinition
  3
Cod. Revisão:
  2
REV
 70
     0
  0
ATTDEF
  5
BA8
330
B9E
100
AcDbEntity
  8
1
100
AcDbText
 10
-48.43615325006194
 20
21.11745296763252
 30
0.0
 40
2.5
  1
XX
 41
0.8
  7
SANINDUSA
 72
     4
 11
-46.55166701769121
 21
22.36745296763252
 31
0.0
100
AcDbAttributeDefinition
  3
Cod. Alteração:
  2
ALT
 70
     0
  0
ATTDEF
  5
BA9
330
B9E
100
AcDbEntity
  8
1
100
AcDbText
 10
-35.19086635325722
 20
23.98875083948959
 30
0.0
 40
3.0
  1
1/XXX
 41
0.8
  7
SANINDUSA
 72
     4
 11
-30.0
 21
25.25
 31
0.0
100
AcDbAttributeDefinition
  3
Escala geral:
  2
ESCALA
 70
     0
  0
ATTDEF
  5
BAA
330
B9E
100
AcDbEntity
  8
1
100
AcDbText
 10
-15.65345869711215
 20
23.75
 30
0.0
 40
3.0
  1
XXXXX
 41
0.8
  7
SANINDUSA
 72
     4
 11
-10.0
 21
25.25
 31
0.0
100
AcDbAttributeDefinition
  3
Folha:
  2
FOLHA
 70
     0
  0
ATTDEF
  5
BAB
330
B9E
100
AcDbEntity
  8
1
100
AcDbText
 10
-178.5146998822042
 20
56.9531347542807
 30
0.0
 40
2.0
  1
xx
 41
0.8
  7
SANINDUSA
 72
     4
 11
-177.2123493113513
 21
57.70330265219877
 31
0.0
100
AcDbAttributeDefinition
  3
revisão
  2
REV.
 70
     0
  0
ATTDEF
  5
BAC
330
B9E
100
AcDbEntity
  8
1
100
AcDbText
 10
-172.7849640077129
 20
56.9531347542807
 30
0.0
 40
2.0
  1
xx
 41
0.8
  7
SANINDUSA
 72
     4
 11
-171.48261343686
 21
57.70330265219877
 31
0.0
100
AcDbAttributeDefinition
  3
alteração
  2
ALT.
 70
     0
  0
ATTDEF
  5
BAD
330
B9E
100
AcDbEntity
  8
1
100
AcDbText
 10
-168.007199951307
 20
56.70330265219877
 30
0.0
 40
2.0
  1
xx/xx/xxxx
 41
0.8
  7
SANINDUSA
 11
-168.007199951307
 21
57.70330265219877
 31
0.0
100
AcDbAttributeDefinition
  3
data
  2
DATA
 70
     0
 74
     2
  0
ATTDEF
  5
BAE
330
B9E
100
AcDbEntity
  8
1
100
AcDbText
 10
-168.5396372253371
 20
13.15916722632639
 30
0.0
 40
2.0
  1
XX/XX/XXXX
 41
0.8
  7
SANINDUSA
 72
     4
 11
-161.5099528734231
 21
14.0
 31
0.0
100
AcDbAttributeDefinition
  3
Data projecto
  2
DATA_PROJ
 70
     0
  0
ATTDEF
  5
BAF
330
B9E
100
AcDbEntity
  8
1
100
AcDbText
 10
-150.8658110728766
 20
13.24983210208193
 30
0.0
 40
2.0
  1
xxxxxxxx
 41
0.8
  7
SANINDUSA
 72
     4
 11
-145.6564087894649
 21
14.0
 31
0.0
100
AcDbAttributeDefinition
  3
nome de quem projectou
  2
NOME
 70
     0
  0
ATTDEF
  5
BB0
330
B9E
100
AcDbEntity
  8
1
100
AcDbText
 10
-168.5396372253371
 20
9.159167226326394
 30
0.0
 40
2.0
  1
XX/XX/XXXX
 41
0.8
  7
SANINDUSA
 72
     4
 11
-161.5099528734231
 21
10.0
 31
0.0
100
AcDbAttributeDefinition
  3
Data desenhou
  2
DATA_DES
 70
     0
  0
ATTDEF
  5
BB1
330
B9E
100
AcDbEntity
  8
1
100
AcDbText
 10
-151.516986358303
 20
9.249832102081933
 30
0.0
 40
2.0
  1
xxxxxxxxx
 41
0.8
  7
SANINDUSA
 72
     4
 11
-145.6564087894649
 21
10.0
 31
0.0
100
AcDbAttributeDefinition
  3
nome
  2
NOME
 70
     0
  0
ATTDEF
  5
BB2
330
B9E
100
AcDbEntity
  8
1
100
AcDbText
 10
-127.2924214135946
 20
14.1979876583216
 30
0.0
 40
2.0
  1
Vitreous China
 41
0.8
  7
SANINDUSA
 72
     4
 11
-119.231709526422
 21
15.22216495852308
 31
0.0
100
AcDbAttributeDefinition
  3
Nome do Material:
  2
MATERIAL
 70
     0
  0
ATTDEF
  5
BB3
330
B9E
100
AcDbEntity
  8
1
100
AcDbText
 10
-103.1563452122093
 20
14.38019043949261
 30
0.0
 40
2.0
  1
Branco
 41
0.8
  7
SANINDUSA
 72
     4
 11
-99.33418268702462
 21
15.35937109765245
 31
0.0
100
AcDbAttributeDefinition
  3
cor da peça
  2
COR
 70
     0
  0
ATTDEF
  5
BB4
330
B9E
100
AcDbEntity
  8
1
100
AcDbText
 10
-116.7235057085292
 20
5.975822699798522
 30
0.0
 40
2.0
  1
Vidrado
 41
0.8
  7
SANINDUSA
 72
     4
 11
-112.5
 21
7.0
 31
0.0
100
AcDbAttributeDefinition
  3
Tipo de acabamento:
  2
ACABAMENTO
 70
     0
  0
ATTDEF
  5
BB5
330
B9E
100
AcDbEntity
  8
1
100
AcDbText
 10
-79.18527869967246
 20
16.65066409850533
 30
0.0
 40
2.0
  1
XXXXXXX
 41
0.8
  7
SANINDUSA
 72
     4
 11
-73.90871724903445
 21
17.65066409850533
 31
0.0
100
AcDbAttributeDefinition
  3
Normas
  2
NORMAS
 70
     0
  0
ATTDEF
  5
BB6
330
B9E
100
AcDbEntity
  8
1
100
AcDbText
 10
-30.55312290127603
 20
14.0
 30
0.0
 40
2.0
  1
XXXXXXXXXXXXXX
 41
0.8
  7
SANINDUSA
 72
     4
 11
-20.0
 21
15.0
 31
0.0
100
AcDbAttributeDefinition
  3
Substitui o desenho:
  2
SUBSTITUI
 70
     0
  0
ATTDEF
  5
BB7
330
B9E
100
AcDbEntity
  8
1
100
AcDbText
 10
-31.30691739422431
 20
6.0
 30
0.0
 40
2.0
  1
XXXXXXXXXXXXXXX
 41
0.8
  7
SANINDUSA
 72
     4
 11
-20.0
 21
7.0
 31
0.0
100
AcDbAttributeDefinition
  3
Substituido por:
  2
SUBSTITUIDO
 70
     0
  0
ATTDEF
  5
BB8
330
B9E
100
AcDbEntity
  8
1
100
AcDbText
 10
-110.0220608548302
 20
1.478208457928303
 30
0.0
 40
2.0
  1
XXXXXXXXXXXXXXXXXXXXXXXXXXXXXXXXXX
 41
0.8
  7
SANINDUSA
 11
-110.0220608548302
 21
2.478208457928303
 31
0.0
100
AcDbAttributeDefinition
  3
Localização do desenho:
  2
LOC-DWG
 70
     0
 74
     2
  0
LINE
  5
BB9
330
B9E
100
AcDbEntity
  8
3
100
AcDbLine
 10
-135.0
 20
4.0
 30
0.0
 11
0.0000000000004547
 21
4.0
 31
0.0
  0
LINE
  5
BBA
330
B9E
100
AcDbEntity
  8
3
100
AcDbLine
 10
-90.00000000000046
 20
12.0
 30
0.0
 11
-135.0
 21
12.0
 31
0.0
  0
LINE
  5
BBB
330
B9E
100
AcDbEntity
  8
3
100
AcDbLine
 10
-135.0
 20
32.5
 30
0.0
 11
-40.0
 21
32.5
 31
0.0
  0
TEXT
  5
BBC
330
B9E
100
AcDbEntity
  8
1
100
AcDbText
 10
-134.0
 20
1.25
 30
0.0
 40
2.0
  1
Localização do des.:
 41
0.8
  7
SANINDUSA
 11
-134.0
 21
2.25
 31
0.0
100
AcDbText
 73
     2
  0
LINE
  5
BBD
330
B9E
100
AcDbEntity
  8
3
100
AcDbLine
 10
-180.0
 20
65.0
 30
0.0
 11
0.0
 21
65.0
 31
0.0
  0
LINE
  5
BBE
330
B9E
100
AcDbEntity
  8
leg fin
100
AcDbLine
 10
-40.0
 20
25.05956924886846
 30
0.0
 11
-135.0
 21
25.05956924886846
 31
0.0
  0
LINE
  5
BBF
330
B9E
100
AcDbEntity
  8
leg fin
100
AcDbLine
 10
-40.0
 20
28.5
 30
0.0
 11
-135.0
 21
28.5
 31
0.0
  0
LINE
  5
BC0
330
B9E
100
AcDbEntity
  8
3
100
AcDbLine
 10
-135.0
 20
50.0
 30
0.0
 11
-40.0
 21
50.0
 31
0.0
  0
TEXT
  5
BC1
330
B9E
100
AcDbEntity
  8
1
100
AcDbText
 10
-134.0
 20
29.75
 30
0.0
 40
2.0
  1
Desenho nº:
 41
0.8
  7
SANINDUSA
 11
-134.0
 21
30.75
 31
0.0
100
AcDbText
 73
     2
  0
TEXT
  5
BC2
330
B9E
100
AcDbEntity
  8
1
100
AcDbText
 10
-134.0
 20
9.25
 30
0.0
 40
2.0
  1
Acabamento:
 41
0.8
  7
SANINDUSA
 11
-134.0
 21
10.25
 31
0.0
100
AcDbText
 73
     2
  0
LINE
  5
BC3
330
B9E
100
AcDbEntity
  8
3
100
AcDbLine
 10
-180.0
 20
20.0
 30
0.0
 11
0.0
 21
20.0
 31
0.0
  0
LINE
  5
BC4
330
B9E
100
AcDbEntity
  8
1
100
AcDbLine
 10
-174.5810776056337
 20
55.5
 30
0.0
 11
-174.5810776056337
 21
65.0
 31
0.0
  0
LINE
  5
BC5
330
B9E
100
AcDbEntity
  8
1
100
AcDbLine
 10
-168.9210461879161
 20
55.5
 30
0.0
 11
-168.9210461879161
 21
65.0
 31
0.0
  0
LINE
  5
BC6
330
B9E
100
AcDbEntity
  8
1
100
AcDbLine
 10
-154.0988595589306
 20
55.5
 30
0.0
 11
-154.0988595589306
 21
65.0
 31
0.0
  0
LINE
  5
BC7
330
B9E
100
AcDbEntity
  8
3
100
AcDbLine
 10
-180.0
 20
65.0
 30
0.0
 11
-180.0
 21
0.0
 31
0.0
  0
LINE
  5
BC8
330
B9E
100
AcDbEntity
  8
3
100
AcDbLine
 10
-135.0
 20
0.0
 30
0.0
 11
-135.0
 21
65.0
 31
0.0
  0
TEXT
  5
BC9
330
B9E
100
AcDbEntity
  8
1
100
AcDbText
 10
-179.0
 20
9.75
 30
0.0
 40
1.5
  1
Des.
 41
0.8
  7
SANINDUSA
 11
-179.0
 21
10.5
 31
0.0
100
AcDbText
 73
     2
  0
LINE
  5
BCA
330
B9E
100
AcDbEntity
  8
1
100
AcDbLine
 10
-168.9210461879161
 20
20.0
 30
0.0
 11
-168.9210461879161
 21
0.0
 31
0.0
  0
LINE
  5
BCB
330
B9E
100
AcDbEntity
  8
1
100
AcDbLine
 10
-154.0988595589306
 20
20.0
 30
0.0
 11
-154.0988595589306
 21
0.0
 31
0.0
  0
LINE
  5
BCC
330
B9E
100
AcDbEntity
  8
1
100
AcDbLine
 10
-180.0
 20
4.0
 30
0.0
 11
-135.0
 21
4.0
 31
0.0
  0
LINE
  5
BCD
330
B9E
100
AcDbEntity
  8
1
100
AcDbLine
 10
-180.0
 20
8.0
 30
0.0
 11
-135.0
 21
8.0
 31
0.0
  0
TEXT
  5
BCE
330
B9E
100
AcDbEntity
  8
1
100
AcDbText
 10
-179.0
 20
1.73257823687436
 30
0.0
 40
1.5
  1
Aprov.
 41
0.8
  7
SANINDUSA
 11
-179.0
 21
2.48257823687436
 31
0.0
100
AcDbText
 73
     2
  0
TEXT
  5
BCF
330
B9E
100
AcDbEntity
  8
1
100
AcDbText
 10
-179.0
 20
5.75
 30
0.0
 40
1.5
  1
Ver.
 41
0.8
  7
SANINDUSA
 11
-179.0
 21
6.5
 31
0.0
100
AcDbText
 73
     2
  0
LINE
  5
BD0
330
B9E
100
AcDbEntity
  8
1
100
AcDbLine
 10
-180.0
 20
16.0
 30
0.0
 11
-135.0
 21
16.0
 31
0.0
  0
LINE
  5
BD1
330
B9E
100
AcDbEntity
  8
1
100
AcDbLine
 10
-180.0
 20
12.0
 30
0.0
 11
-135.0
 21
12.0
 31
0.0
  0
TEXT
  5
BD2
330
B9E
100
AcDbEntity
  8
1
100
AcDbText
 10
-179.0
 20
13.75
 30
0.0
 40
1.5
  1
Proj.
 41
0.8
  7
SANINDUSA
 11
-179.0
 21
14.5
 31
0.0
100
AcDbText
 73
     2
  0
TEXT
  5
BD3
330
B9E
100
AcDbEntity
  8
1
100
AcDbText
 10
-167.9210461879161
 20
17.75
 30
0.0
 40
1.5
  1
Data
 41
0.8
  7
SANINDUSA
 11
-167.9210461879161
 21
18.5
 31
0.0
100
AcDbText
 73
     2
  0
TEXT
  5
BD4
330
B9E
100
AcDbEntity
  8
1
100
AcDbText
 10
-153.0988595589306
 20
17.75
 30
0.0
 40
1.5
  1
Nome
 41
0.8
  7
SANINDUSA
 11
-153.0988595589306
 21
18.5
 31
0.0
100
AcDbText
 73
     2
  0
LINE
  5
BD5
330
B9E
100
AcDbEntity
  8
leg fin
100
AcDbLine
 10
-130.0
 20
20.0
 30
0.0
 11
-130.0
 21
28.5
 31
0.0
  0
TEXT
  5
BD6
330
B9E
100
AcDbEntity
  8
1
100
AcDbText
 10
-134.0
 20
17.25
 30
0.0
 40
2.0
  1
Material:
 41
0.8
  7
SANINDUSA
 11
-134.0
 21
18.25
 31
0.0
100
AcDbText
 73
     2
  0
TEXT
  5
BD7
330
B9E
100
AcDbEntity
  8
1
100
AcDbText
 10
-129.0
 20
26.43288406845113
 30
0.0
 40
1.5
  1
Ano:
 41
0.8
  7
SANINDUSA
 11
-129.0
 21
27.18288406845113
 31
0.0
100
AcDbText
 73
     2
  0
LINE
  5
BD8
330
B9E
100
AcDbEntity
  8
1
100
AcDbLine
 10
-180.0
 20
55.5
 30
0.0
 11
-135.0
 21
55.5
 31
0.0
  0
TEXT
  5
BD9
330
B9E
100
AcDbEntity
  8
1
100
AcDbText
 10
-179.0
 20
52.67772246885193
 30
0.0
 40
1.5
  1
descrição
 41
0.8
  7
SANINDUSA
 11
-179.0
 21
53.42772246885193
 31
0.0
100
AcDbText
 73
     2
  0
TEXT
  5
BDA
330
B9E
100
AcDbEntity
  8
1
100
AcDbText
 10
-134.0
 20
47.25
 30
0.0
 40
2.0
  1
Peça:
 41
0.8
  7
SANINDUSA
 11
-134.0
 21
48.25
 31
0.0
100
AcDbText
 73
     2
  0
LINE
  5
BDB
330
B9E
100
AcDbEntity
  8
1
100
AcDbLine
 10
-180.0
 20
59.5
 30
0.0
 11
-135.0
 21
59.5
 31
0.0
  0
TEXT
  5
BDC
330
B9E
100
AcDbEntity
  8
1
100
AcDbText
 10
-173.5810776056337
 20
62.75
 30
0.0
 40
1.5
  1
Alt.
 41
0.8
  7
SANINDUSA
 11
-173.5810776056337
 21
63.5
 31
0.0
100
AcDbText
 73
     2
  0
TEXT
  5
BDD
330
B9E
100
AcDbEntity
  8
1
100
AcDbText
 10
-179.0
 20
62.75
 30
0.0
 40
1.5
  1
Rev.
 41
0.8
  7
SANINDUSA
 11
-179.0
 21
63.5
 31
0.0
100
AcDbText
 73
     2
  0
TEXT
  5
BDE
330
B9E
100
AcDbEntity
  8
1
100
AcDbText
 10
-167.9210461879161
 20
62.75
 30
0.0
 40
1.5
  1
Data
 41
0.8
  7
SANINDUSA
 11
-167.9210461879161
 21
63.5
 31
0.0
100
AcDbText
 73
     2
  0
TEXT
  5
BDF
330
B9E
100
AcDbEntity
  8
1
100
AcDbText
 10
-153.0988595589306
 20
62.75
 30
0.0
 40
1.5
  1
Nome
 41
0.8
  7
SANINDUSA
 11
-153.0988595589306
 21
63.5
 31
0.0
100
AcDbText
 73
     2
  0
TEXT
  5
BE0
330
B9E
100
AcDbEntity
  8
1
100
AcDbText
 10
-134.0
 20
62.25
 30
0.0
 40
2.0
  1
Produto:
 41
0.8
  7
SANINDUSA
 11
-134.0
 21
63.25
 31
0.0
100
AcDbText
 73
     2
  0
LINE
  5
BE1
330
B9E
100
AcDbEntity
  8
3
100
AcDbLine
 10
-40.0
 20
4.0
 30
0.0
 11
-40.0
 21
65.0
 31
0.0
  0
LWPOLYLINE
  5
BE2
102
{ACAD_REACTORS
330
BEC
102
}
330
B9E
100
AcDbEntity
  8
9
100
AcDbPolyline
 90
       12
 70
     1
 43
0.0
 10
-3.038714600644652
 20
58.90010174665076
 10
-5.726962862472191
 20
58.90010174665076
 10
-5.726962862472191
 20
58.5001017466509
 10
-3.038748516195028
 20
58.5001017466509
 42
-0.4142135623731731
 10
-2.638748516194482
 20
58.1001017466508
 10
-2.638748516194482
 20
57.42799728675596
 10
-5.21497371544865
 20
57.42799728675596
 42
0.4142135623731289
 10
-6.014973715448377
 20
56.627997286756
 10
-6.014973715448377
 20
55.92380871629643
 42
0.4142135623731132
 10
-5.21497371544865
 20
55.12380871629648
 10
-2.23871460064447
 20
55.12380871629648
 10
-2.23871460064447
 20
58.10010174665103
 42
0.4142135623730717
  0
LWPOLYLINE
  5
BE3
102
{ACAD_REACTORS
330
BEC
102
}
330
B9E
100
AcDbEntity
  8
9
100
AcDbPolyline
 90
       20
 70
     1
 43
0.0
 10
-10.01531287095122
 20
57.82799728675581
 10
-10.01531287095122
 20
58.10010174665103
 42
-0.4142135623730744
 10
-9.615312870951584
 20
58.5001017466509
 10
-6.92703069357276
 20
58.5001017466509
 10
-6.92703069357276
 20
58.90010174665076
 10
-9.615346786501959
 20
58.90010174665076
 42
0.4142135623730883
 10
-10.41534678650168
 20
58.1001017466508
 10
-10.41534678650168
 20
57.82796337120567
 42
0.4142135623730717
 10
-9.615346786501959
 20
57.02796337120571
 10
-7.423079531965413
 20
57.02796337120571
 42
-0.4142135623730847
 10
-7.023079531965322
 20
56.62796337120562
 10
-7.023079531965322
 20
55.90786840766487
 42
-0.4142135623730744
 10
-7.423079531965413
 20
55.507868407665
 10
-10.41534678650168
 20
55.507868407665
 10
-10.41534678650168
 20
55.12380871629648
 10
-7.445787917283723
 20
55.12380871629648
 42
0.4114777732064574
 10
-6.645822882998345
 20
55.9163291493976
 10
-6.639238813324936
 20
56.62051771985716
 42
0.4169546541682913
 10
-7.439203847610315
 20
57.42799728675596
 10
-9.615312870951584
 20
57.42799728675596
 42
-0.4142135623731576
  0
LWPOLYLINE
  5
BE4
102
{ACAD_REACTORS
330
BEC
102
}
330
B9E
100
AcDbEntity
  8
9
100
AcDbPolyline
 90
       12
 70
     1
 43
0.0
 10
-14.41561811090378
 20
58.90010174665076
 10
-14.79964388672215
 20
58.90010174665076
 10
-14.79964388672215
 20
55.92380871629643
 42
0.4142135623731133
 10
-13.99964388672242
 20
55.12380871629648
 10
-11.8233508563676
 20
55.12380871629648
 42
0.4142135623730872
 10
-11.02335085636741
 20
55.92380871629643
 10
-11.02335085636741
 20
58.90010174665076
 10
-11.42338477191788
 20
58.90010174665076
 10
-11.42338477191788
 20
55.91567577726095
 42
-0.4131711701795318
 10
-11.82196067063523
 20
55.51567831234956
 10
-14.0141940096214
 20
55.50787335710947
 42
-0.4152567234624407
 10
-14.41561811090378
 20
55.90787082202087
  0
LWPOLYLINE
  5
BE5
102
{ACAD_REACTORS
330
BEC
102
}
330
B9E
100
AcDbEntity
  8
9
100
AcDbPolyline
 90
        6
 70
     1
 43
0.0
 10
-15.80771578768872
 20
55.507868407665
 10
-18.39994912667453
 20
55.507868407665
 42
-0.4142135623731731
 10
-18.79994912667462
 20
55.90786840766487
 10
-18.79994912667462
 20
58.10010174665103
 42
-0.4142135623730744
 10
-18.39994912667453
 20
58.5001017466509
 10
-15.80771578768872
 20
58.5001017466509
  0
LWPOLYLINE
  5
BE6
102
{ACAD_REACTORS
330
BEC
102
}
330
B9E
100
AcDbEntity
  8
9
100
AcDbPolyline
 90
        8
 70
     1
 43
0.0
 10
-15.4236900118708
 20
59.87619128370352
 10
-15.80771578768872
 20
59.87619128370352
 10
-15.80771578768872
 20
58.90010174665076
 10
-18.39176256411201
 20
58.90010174665076
 42
0.4131164467977967
 10
-19.19175694739761
 20
58.1030995310698
 10
-19.1999120763262
 20
55.92680650071542
 42
0.4153115297271718
 10
-18.39991769304061
 20
55.12380871629648
 10
-15.4236900118708
 20
55.12380871629648
  0
LWPOLYLINE
  5
BE7
102
{ACAD_REACTORS
330
BEC
102
}
330
B9E
100
AcDbEntity
  8
9
100
AcDbPolyline
 90
       10
 70
     1
 43
0.0
 10
-20.59201288790928
 20
58.90010174665076
 10
-23.56830591826338
 20
58.90010174665076
 10
-23.56830591826338
 20
55.12380871629648
 10
-23.18424622689509
 20
55.12380871629648
 10
-23.18424622689509
 20
58.5001017466509
 10
-20.59204680345965
 20
58.5001017466509
 42
-0.4142135623730898
 10
-20.19204680345956
 20
58.1001017466508
 10
-20.19204680345956
 20
55.12380871629648
 10
-19.79201288790909
 20
55.12380871629648
 10
-19.79201288790909
 20
58.10010174665103
 42
0.4142135623731132
  0
LWPOLYLINE
  5
BE8
102
{ACAD_REACTORS
330
BEC
102
}
330
B9E
100
AcDbEntity
  8
9
100
AcDbPolyline
 90
        4
 70
     1
 43
0.0
 10
-24.19231812786165
 20
58.90010174665076
 10
-24.57637781922995
 20
58.90010174665076
 10
-24.57637781922995
 20
55.12380871629648
 10
-24.19231812786165
 20
55.12380871629648
  0
LWPOLYLINE
  5
BE9
102
{ACAD_REACTORS
330
BEC
102
}
330
B9E
100
AcDbEntity
  8
9
100
AcDbPolyline
 90
       10
 70
     1
 43
0.0
 10
-28.57661522808212
 20
58.5001017466509
 10
-25.98444972019706
 20
58.5001017466509
 42
-0.4142135623731731
 10
-25.58444972019652
 20
58.1001017466508
 10
-25.58444972019652
 20
55.12380871629648
 10
-25.2004239443786
 20
55.12380871629648
 10
-25.2004239443786
 20
58.10010174665103
 42
0.4142135623730717
 10
-26.00042394437833
 20
58.90010174665076
 10
-28.97664914363259
 20
58.90010174665076
 10
-28.97664914363259
 20
55.12380871629648
 10
-28.57661522808212
 20
55.12380871629648
  0
LWPOLYLINE
  5
BEA
102
{ACAD_REACTORS
330
BEC
102
}
330
B9E
100
AcDbEntity
  8
9
100
AcDbPolyline
 90
       12
 70
     1
 43
0.0
 10
-29.58465321349832
 20
58.10010174665103
 42
0.4142135623730716
 10
-30.3846532134985
 20
58.90010174665076
 10
-33.07296930642724
 20
58.90010174665076
 10
-33.07296930642724
 20
58.5001017466509
 10
-30.38468712904842
 20
58.5001017466509
 42
-0.4142135623730067
 10
-29.98468712904878
 20
58.1001017466508
 10
-29.98468712904878
 20
57.42799728675618
 10
-32.56098015940324
 20
57.42799728675596
 42
0.4142135623731289
 10
-33.36098015940343
 20
56.627997286756
 10
-33.36098015940343
 20
55.92380871629643
 42
0.4142135623731132
 10
-32.56098015940324
 20
55.12380871629648
 10
-29.58465321349832
 20
55.12380871629648
  0
LWPOLYLINE
  5
BEB
102
{ACAD_REACTORS
330
BEC
102
}
330
B9E
100
AcDbEntity
  8
9
100
AcDbPolyline
 90
       20
 70
     1
 43
0.0
 10
-34.7850262845518
 20
57.42799728675596
 10
-36.96125148380543
 20
57.42799728675596
 42
-0.4142135623730898
 10
-37.36125148380552
 20
57.82799728675604
 10
-37.36125148380552
 20
58.10010174665103
 42
-0.4142135623730744
 10
-36.96125148380543
 20
58.5001017466509
 10
-34.27303713752781
 20
58.50010174665067
 10
-34.27303713752781
 20
58.90010174665076
 10
-36.96128539935535
 20
58.90010174665076
 42
0.4142135623731289
 10
-37.76128539935553
 20
58.1001017466508
 10
-37.76128539935553
 20
57.82796337120567
 42
0.4142135623730716
 10
-36.9612853993558
 20
57.02796337120571
 10
-34.76901814481926
 20
57.02796337120571
 42
-0.414213562373168
 10
-34.36901814481962
 20
56.62796337120562
 10
-34.36901814481962
 20
55.90786840766487
 42
-0.4142135623730744
 10
-34.76901814481926
 20
55.507868407665
 10
-37.76128539935553
 20
55.507868407665
 10
-37.76128539935553
 20
55.12380871629648
 10
-34.7850262845518
 20
55.12380871629648
 42
0.4142135623731289
 10
-33.98502628455162
 20
55.92380871629643
 10
-33.98502628455162
 20
56.627997286756
 42
0.4142135623731132
  0
HATCH
  5
BEC
330
B9E
100
AcDbEntity
  8
9
100
AcDbHatch
 10
0.0
 20
0.0
 30
0.0
210
0.0
220
0.0
230
1.0
  2
SOLID
 70
     1
 71
     1
 91
       13
 92
        7
 72
     1
 73
     1
 93
       20
 10
-34.36901814481962
 20
55.90786840766487
 42
-0.414213562372991
 10
-34.76901814481926
 20
55.507868407665
 42
0.0
 10
-37.76128539935553
 20
55.507868407665
 42
0.0
 10
-37.76128539935553
 20
55.12380871629648
 42
0.0
 10
-34.7850262845518
 20
55.12380871629648
 42
0.4142135623731705
 10
-33.98502628455162
 20
55.92380871629666
 42
0.0
 10
-33.98502628455162
 20
56.627997286756
 42
0.4142135623731547
 10
-34.7850262845518
 20
57.42799728675596
 42
0.0
 10
-36.96125148380543
 20
57.42799728675596
 42
-0.4142135623730898
 10
-37.36125148380552
 20
57.82799728675604
 42
0.0
 10
-37.36125148380552
 20
58.1001017466508
 42
-0.4142135623731575
 10
-36.96125148380543
 20
58.5001017466509
 42
0.0
 10
-34.27303713752781
 20
58.50010174665067
 42
0.0
 10
-34.27303713752781
 20
58.90010174665076
 42
0.0
 10
-36.96128539935535
 20
58.90010174665076
 42
0.4142135623731705
 10
-37.76128539935553
 20
58.10010174665058
 42
0.0
 10
-37.76128539935553
 20
57.82796337120544
 42
0.4142135623730299
 10
-36.9612853993558
 20
57.02796337120571
 42
0.0
 10
-34.76901814481926
 20
57.02796337120571
 42
-0.4142135623730015
 10
-34.36901814481962
 20
56.62796337120608
 42
0.0
 97
        1
330
BEB
 92
        7
 72
     1
 73
     1
 93
       12
 10
-33.36098015940343
 20
55.92380871629666
 42
0.4142135623731547
 10
-32.56098015940324
 20
55.12380871629648
 42
0.0
 10
-29.58465321349877
 20
55.12380871629648
 42
0.0
 10
-29.58465321349832
 20
58.10010174665058
 42
0.4142135623731964
 10
-30.3846532134985
 20
58.90010174665076
 42
0.0
 10
-33.07296930642724
 20
58.90010174665076
 42
0.0
 10
-33.07296930642724
 20
58.50010174665067
 42
0.0
 10
-30.38468712904887
 20
58.5001017466509
 42
-0.4142135623732564
 10
-29.98468712904878
 20
58.10010174665103
 42
0.0
 10
-29.98468712904923
 20
57.42799728675596
 42
0.0
 10
-32.56098015940324
 20
57.42799728675596
 42
0.4142135623731705
 10
-33.36098015940343
 20
56.627997286756
 42
0.0
 97
        1
330
BEA
 92
       22
 72
     1
 73
     1
 93
        6
 10
-32.97692046803468
 20
56.62796337120562
 42
-0.4142135623731576
 10
-32.57692046803459
 20
57.02796337120571
 42
0.0
 10
-29.98468712904878
 20
57.02796337120571
 42
0.0
 10
-29.98468712904878
 20
55.507868407665
 42
0.0
 10
-32.57692046803459
 20
55.507868407665
 42
-0.4142135623731731
 10
-32.97692046803468
 20
55.90786840766487
 42
0.0
 97
        1
330
C11
 92
        7
 72
     1
 73
     1
 93
       10
 10
-28.57661522808212
 20
58.5001017466509
 42
0.0
 10
-25.98444972019661
 20
58.5001017466509
 42
-0.4142135623730067
 10
-25.58444972019652
 20
58.10010174665058
 42
0.0
 10
-25.58444972019606
 20
55.12380871629648
 42
0.0
 10
-25.20042394437906
 20
55.12380871629648
 42
0.0
 10
-25.2004239443786
 20
58.1001017466508
 42
0.4142135623731134
 10
-26.00042394437833
 20
58.90010174665076
 42
0.0
 10
-28.97664914363259
 20
58.90010174665076
 42
0.0
 10
-28.97664914363259
 20
55.12380871629648
 42
0.0
 10
-28.57661522808212
 20
55.12380871629648
 42
0.0
 97
        1
330
BE9
 92
        7
 72
     0
 73
     1
 93
        4
 10
-24.57637781922995
 20
55.12380871629648
 10
-24.19231812786165
 20
55.12380871629648
 10
-24.19231812786165
 20
58.90010174665076
 10
-24.57637781922995
 20
58.90010174665076
 97
        1
330
BE8
 92
        7
 72
     0
 73
     1
 93
        4
 10
-24.19231812786165
 20
59.87619128370352
 10
-24.5763778192304
 20
59.87619128370352
 10
-24.5763778192304
 20
59.28412752246913
 10
-24.1923181278612
 20
59.28412752246913
 97
        1
330
C12
 92
        7
 72
     1
 73
     1
 93
       10
 10
-23.18424622689509
 20
58.5001017466509
 42
0.0
 10
-20.59204680345965
 20
58.5001017466509
 42
-0.4142135623730898
 10
-20.19204680345956
 20
58.1001017466508
 42
0.0
 10
-20.19204680345956
 20
55.12380871629648
 42
0.0
 10
-19.79201288790909
 20
55.12380871629648
 42
0.0
 10
-19.79201288790909
 20
58.1001017466508
 42
0.4142135623731547
 10
-20.59201288790928
 20
58.90010174665076
 42
0.0
 10
-23.56830591826338
 20
58.90010174665076
 42
0.0
 10
-23.56830591826338
 20
55.12380871629648
 42
0.0
 10
-23.18424622689463
 20
55.12380871629648
 42
0.0
 97
        1
330
BE7
 92
        7
 72
     1
 73
     1
 93
        8
 10
-19.1999120763262
 20
55.92680650071542
 42
0.4153115297271299
 10
-18.39991769304061
 20
55.12380871629648
 42
0.0
 10
-15.4236900118708
 20
55.12380871629648
 42
0.0
 10
-15.4236900118708
 20
59.87619128370352
 42
0.0
 10
-15.80771578768872
 20
59.87619128370352
 42
0.0
 10
-15.80771578768872
 20
58.90010174665076
 42
0.0
 10
-18.39176256411201
 20
58.90010174665076
 42
0.4131164467977965
 10
-19.19175694739761
 20
58.1030995310698
 42
0.0
 97
        1
330
BE6
 92
       22
 72
     1
 73
     1
 93
        6
 10
-18.79994912667462
 20
58.1001017466508
 42
-0.4142135623731575
 10
-18.39994912667453
 20
58.5001017466509
 42
0.0
 10
-15.80771578768872
 20
58.50010174665067
 42
0.0
 10
-15.80771578768827
 20
55.507868407665
 42
0.0
 10
-18.39994912667453
 20
55.507868407665
 42
-0.4142135623731731
 10
-18.79994912667462
 20
55.90786840766487
 42
0.0
 97
        1
330
BE5
 92
        7
 72
     1
 73
     1
 93
       12
 10
-14.79964388672215
 20
55.92380871629621
 42
0.4142135623729885
 10
-13.99964388672242
 20
55.12380871629648
 42
0.0
 10
-11.8233508563676
 20
55.12380871629648
 42
0.4142135623731289
 10
-11.02335085636741
 20
55.92380871629666
 42
0.0
 10
-11.02335085636741
 20
58.90010174665076
 42
0.0
 10
-11.42338477191788
 20
58.90010174665076
 42
0.0
 10
-11.42338477191788
 20
55.91567577726095
 42
-0.4131711701795319
 10
-11.82196067063523
 20
55.51567831234956
 42
0.0
 10
-14.01419400962095
 20
55.50787335710947
 42
-0.4152567234626918
 10
-14.41561811090378
 20
55.90787082202087
 42
0.0
 10
-14.41561811090378
 20
58.90010174665076
 42
0.0
 10
-14.7996438867226
 20
58.90010174665076
 42
0.0
 97
        1
330
BE4
 92
        7
 72
     1
 73
     1
 93
       20
 10
-7.423079531965413
 20
57.02796337120571
 42
-0.414213562373168
 10
-7.023079531965322
 20
56.62796337120562
 42
0.0
 10
-7.023079531965322
 20
55.90786840766487
 42
-0.4142135623731575
 10
-7.423079531965413
 20
55.507868407665
 42
0.0
 10
-10.41534678650168
 20
55.507868407665
 42
0.0
 10
-10.41534678650168
 20
55.12380871629648
 42
0.0
 10
-7.445787917283723
 20
55.12380871629648
 42
0.4114777732065809
 10
-6.645822882998345
 20
55.91632914939783
 42
0.0
 10
-6.639238813324936
 20
56.62051771985716
 42
0.4169546541682913
 10
-7.439203847610315
 20
57.42799728675596
 42
0.0
 10
-9.615312870951584
 20
57.42799728675596
 42
-0.4142135623729911
 10
-10.01531287095122
 20
57.82799728675581
 42
0.0
 10
-10.01531287095122
 20
58.10010174665103
 42
-0.414213562372991
 10
-9.615312870951584
 20
58.5001017466509
 42
0.0
 10
-6.92703069357276
 20
58.50010174665067
 42
0.0
 10
-6.927030693572305
 20
58.90010174665076
 42
0.0
 10
-9.615346786501959
 20
58.90010174665076
 42
0.4142135623730467
 10
-10.41534678650168
 20
58.10010174665103
 42
0.0
 10
-10.41534678650168
 20
57.82796337120544
 42
0.4142135623730301
 10
-9.615346786501959
 20
57.02796337120571
 42
0.0
 97
        1
330
BE3
 92
        7
 72
     1
 73
     1
 93
       12
 10
-5.21497371544865
 20
57.42799728675596
 42
0.4142135623730871
 10
-6.014973715448377
 20
56.627997286756
 42
0.0
 10
-6.014973715448377
 20
55.92380871629621
 42
0.4142135623730715
 10
-5.21497371544865
 20
55.12380871629648
 42
0.0
 10
-2.23871460064447
 20
55.12380871629648
 42
0.0
 10
-2.23871460064447
 20
58.10010174665058
 42
0.414213562373155
 10
-3.038714600644652
 20
58.90010174665076
 42
0.0
 10
-5.726962862471737
 20
58.90010174665076
 42
0.0
 10
-5.726962862472191
 20
58.5001017466509
 42
0.0
 10
-3.038748516194573
 20
58.5001017466509
 42
-0.4142135623730067
 10
-2.638748516194482
 20
58.10010174665058
 42
0.0
 10
-2.638748516194482
 20
57.42799728675596
 42
0.0
 97
        1
330
BE2
 92
       22
 72
     1
 73
     1
 93
        6
 10
-2.638748516194937
 20
57.02796337120571
 42
0.0
 10
-2.638748516194482
 20
55.50786840766477
 42
0.0
 10
-5.21497371544865
 20
55.507868407665
 42
-0.4142135623731731
 10
-5.614973715448741
 20
55.90786840766509
 42
0.0
 10
-5.614973715448741
 20
56.62796337120562
 42
-0.4142135623731576
 10
-5.21497371544865
 20
57.02796337120571
 42
0.0
 97
        1
330
C0D
 75
     0
 76
     1
 47
0.0407044778999864
 98
       13
 10
-34.18710075113677
 20
56.16907953933765
 10
-33.12851374392494
 20
56.49471602641233
 10
-33.12851374392494
 20
56.49471602641233
 10
-28.77202873835904
 20
57.51232930166111
 10
-24.41554807250941
 20
57.91937341678636
 10
-24.41554807250941
 20
59.384734621186
 10
-23.31624584658039
 20
58.3264175319116
 10
-19.04119127844888
 20
57.75655517324913
 10
-19.04119127844888
 20
57.75655517324913
 10
-14.64399105416578
 20
57.43091868617466
 10
-8.048195057457178
 20
57.22739662861204
 10
-4.017427461911665
 20
57.18669281458665
 10
-4.017427461911665
 20
57.18669281458665
  0
TEXT
  5
BED
330
B9E
100
AcDbEntity
  8
leg fin
100
AcDbText
 10
3.391127401597259
 20
2.107634911895729
 30
0.0
 40
1.5
  1
Este desenho é propriedade da Sanindusa, S.A., e não pode ser copiado nem divulgado sem nossa autorização.
 50
90.0
 41
0.8
  7
SANINDUSA
100
AcDbText
  0
LINE
  5
BEE
330
B9E
100
AcDbEntity
  8
3
100
AcDbLine
 10
-90.0
 20
4.0
 30
0.0
 11
-90.0
 21
12.0
 31
0.0
  0
TEXT
  5
BEF
330
B9E
100
AcDbEntity
  8
1
100
AcDbText
 10
-39.0
 20
9.25
 30
0.0
 40
2.0
  1
Substituido por:
 41
0.8
  7
SANINDUSA
 11
-39.0
 21
10.25
 31
0.0
100
AcDbText
 73
     2
  0
POINT
  5
BF0
330
B9E
100
AcDbEntity
  8
SANINDUSA
100
AcDbPoint
 10
0.0
 20
0.0
 30
0.0
  0
TEXT
  5
BF1
330
B9E
100
AcDbEntity
  8
1
100
AcDbText
 10
-89.0
 20
16.74927010445663
 30
0.0
 40
2.0
  1
Normas:
 41
0.8
  7
SANINDUSA
 11
-89.0
 21
17.74927010445663
 31
0.0
100
AcDbText
 73
     2
  0
LINE
  5
BF2
330
B9E
100
AcDbEntity
  8
3
100
AcDbLine
 10
-90.0
 20
12.0
 30
0.0
 11
-90.0
 21
20.0
 31
0.0
  0
LINE
  5
BF3
330
B9E
100
AcDbEntity
  8
3
100
AcDbLine
 10
-110.546019464768
 20
12.0
 30
0.0
 11
-110.546019464768
 21
20.0
 31
0.0
  0
TEXT
  5
BF4
330
B9E
100
AcDbEntity
  8
1
100
AcDbText
 10
-109.6177520618648
 20
17.25
 30
0.0
 40
2.0
  1
Cor:
 41
0.8
  7
SANINDUSA
 11
-109.6177520618648
 21
18.25
 31
0.0
100
AcDbText
 73
     2
  0
LINE
  5
BF5
330
B9E
100
AcDbEntity
  8
leg fin
100
AcDbLine
 10
-91.42857142857156
 20
20.0
 30
0.0
 11
-91.42857142857156
 21
28.5
 31
0.0
  0
LINE
  5
BF6
330
B9E
100
AcDbEntity
  8
leg fin
100
AcDbLine
 10
-104.2857142857142
 20
20.0
 30
0.0
 11
-104.2857142857142
 21
28.5
 31
0.0
  0
LINE
  5
BF7
330
B9E
100
AcDbEntity
  8
leg fin
100
AcDbLine
 10
-117.1428571428573
 20
20.0
 30
0.0
 11
-117.1428571428573
 21
28.5
 31
0.0
  0
POINT
  5
BF8
330
B9E
100
AcDbEntity
  8
SANINDUSA
100
AcDbPoint
 10
-117.1428571428573
 20
28.5
 30
0.0
  0
POINT
  5
BF9
330
B9E
100
AcDbEntity
  8
SANINDUSA
100
AcDbPoint
 10
-104.2857142857142
 20
28.5
 30
0.0
  0
POINT
  5
BFA
330
B9E
100
AcDbEntity
  8
SANINDUSA
100
AcDbPoint
 10
-91.42857142857156
 20
28.5
 30
0.0
  0
TEXT
  5
BFB
330
B9E
100
AcDbEntity
  8
1
100
AcDbText
 10
-116.200160604496
 20
26.43288406845113
 30
0.0
 40
1.5
  1
Nº Seq.:
 41
0.8
  7
SANINDUSA
 11
-116.200160604496
 21
27.18288406845113
 31
0.0
100
AcDbText
 73
     2
  0
TEXT
  5
BFC
330
B9E
100
AcDbEntity
  8
1
100
AcDbText
 10
-103.2106584078738
 20
26.43288406845113
 30
0.0
 40
1.5
  1
Tipo:
 41
0.8
  7
SANINDUSA
 11
-103.2106584078738
 21
27.18288406845113
 31
0.0
100
AcDbText
 73
     2
  0
TEXT
  5
BFD
330
B9E
100
AcDbEntity
  8
1
100
AcDbText
 10
-90.22114672289353
 20
26.43288406845113
 30
0.0
 40
1.5
  1
Prod.:
 41
0.8
  7
SANINDUSA
 11
-90.22114672289353
 21
27.18288406845113
 31
0.0
100
AcDbText
 73
     2
  0
TEXT
  5
BFE
330
B9E
100
AcDbEntity
  8
1
100
AcDbText
 10
-64.77320576346574
 20
26.43288406845113
 30
0.0
 40
1.5
  1
Rev.:
 41
0.8
  7
SANINDUSA
 11
-64.77320576346574
 21
27.18288406845113
 31
0.0
100
AcDbText
 73
     2
  0
LINE
  5
BFF
330
B9E
100
AcDbEntity
  8
leg fin
100
AcDbLine
 10
-52.85714285714266
 20
20.0
 30
0.0
 11
-52.85714285714266
 21
28.5
 31
0.0
  0
LINE
  5
C00
330
B9E
100
AcDbEntity
  8
leg fin
100
AcDbLine
 10
-65.71428571428578
 20
20.0
 30
0.0
 11
-65.71428571428578
 21
28.5
 31
0.0
  0
LINE
  5
C01
330
B9E
100
AcDbEntity
  8
leg fin
100
AcDbLine
 10
-78.57142857142844
 20
20.0
 30
0.0
 11
-78.57142857142844
 21
28.5
 31
0.0
  0
POINT
  5
C02
330
B9E
100
AcDbEntity
  8
SANINDUSA
100
AcDbPoint
 10
-78.57142857142844
 20
28.5
 30
0.0
  0
POINT
  5
C03
330
B9E
100
AcDbEntity
  8
SANINDUSA
100
AcDbPoint
 10
-65.71428571428578
 20
28.5
 30
0.0
  0
POINT
  5
C04
330
B9E
100
AcDbEntity
  8
SANINDUSA
100
AcDbPoint
 10
-52.85714285714266
 20
28.5
 30
0.0
  0
TEXT
  5
C05
330
B9E
100
AcDbEntity
  8
1
100
AcDbText
 10
-77.61097961686573
 20
26.43288406845113
 30
0.0
 40
1.5
  1
Peça:
 41
0.8
  7
SANINDUSA
 11
-77.61097961686573
 21
27.18288406845113
 31
0.0
100
AcDbText
 73
     2
  0
TEXT
  5
C06
330
B9E
100
AcDbEntity
  8
1
100
AcDbText
 10
-52.06538060077036
 20
26.43288406845113
 30
0.0
 40
1.5
  1
Alt.:
 41
0.8
  7
SANINDUSA
 11
-52.06538060077036
 21
27.18288406845113
 31
0.0
100
AcDbText
 73
     2
  0
LINE
  5
C07
330
B9E
100
AcDbEntity
  8
3
100
AcDbLine
 10
0.0
 20
12.0
 30
0.0
 11
-40.0
 21
12.0
 31
0.0
  0
LINE
  5
C08
330
B9E
100
AcDbEntity
  8
3
100
AcDbLine
 10
-40.0
 20
32.5
 30
0.0
 11
0.0
 21
32.5
 31
0.0
  0
TEXT
  5
C09
330
B9E
100
AcDbEntity
  8
1
100
AcDbText
 10
-19.0
 20
29.75
 30
0.0
 40
2.0
  1
Folha:
 41
0.8
  7
SANINDUSA
 11
-19.0
 21
30.75
 31
0.0
100
AcDbText
 73
     2
  0
LINE
  5
C0A
330
B9E
100
AcDbEntity
  8
3
100
AcDbLine
 10
-20.0
 20
32.5
 30
0.0
 11
-20.0
 21
20.0
 31
0.0
  0
TEXT
  5
C0B
330
B9E
100
AcDbEntity
  8
1
100
AcDbText
 10
-39.0
 20
29.75
 30
0.0
 40
2.0
  1
Escala:
 41
0.8
  7
SANINDUSA
 11
-39.0
 21
30.75
 31
0.0
100
AcDbText
 73
     2
  0
TEXT
  5
C0C
330
B9E
100
AcDbEntity
  8
1
100
AcDbText
 10
-39.0
 20
17.25
 30
0.0
 40
2.0
  1
Substitui:
 41
0.8
  7
SANINDUSA
 11
-39.0
 21
18.25
 31
0.0
100
AcDbText
 73
     2
  0
LWPOLYLINE
  5
C0D
102
{ACAD_REACTORS
330
BEC
102
}
330
B9E
100
AcDbEntity
  8
9
100
AcDbPolyline
 90
        6
 70
     1
 43
0.0
 10
-2.638748516194482
 20
57.02796337120571
 10
-2.638748516194482
 20
55.50786840766477
 10
-5.21497371544865
 20
55.507868407665
 42
-0.4142135623730898
 10
-5.614973715448741
 20
55.90786840766487
 10
-5.614973715448741
 20
56.62796337120562
 42
-0.4142135623731576
 10
-5.21497371544865
 20
57.02796337120571
  0
LINE
  5
C0E
330
B9E
100
AcDbEntity
  8
3
100
AcDbLine
 10
-40.0
 20
50.0
 30
0.0
 11
0.0
 21
50.0
 31
0.0
  0
ATTDEF
  5
C0F
330
B9E
100
AcDbEntity
  8
1
100
AcDbText
 10
-31.30691739422431
 20
40.25
 30
0.0
 40
2.0
  1
XXXXXXXXXXXXXXX
 41
0.8
  7
SANINDUSA
 72
     4
 11
-20.0
 21
41.25
 31
0.0
100
AcDbAttributeDefinition
  3
Observações:
  2
OBS
 70
     0
  0
TEXT
  5
C10
330
B9E
100
AcDbEntity
  8
1
100
AcDbText
 10
-39.0
 20
47.25
 30
0.0
 40
2.0
  1
Observações:
 41
0.8
  7
SANINDUSA
 11
-39.0
 21
48.25
 31
0.0
100
AcDbText
 73
     2
  0
LWPOLYLINE
  5
C11
102
{ACAD_REACTORS
330
BEC
102
}
330
B9E
100
AcDbEntity
  8
9
100
AcDbPolyline
 90
        6
 70
     1
 43
0.0
 10
-29.98468712904878
 20
57.02796337120571
 10
-29.98468712904878
 20
55.507868407665
 10
-32.57692046803459
 20
55.507868407665
 42
-0.4142135623731731
 10
-32.97692046803468
 20
55.90786840766487
 10
-32.97692046803468
 20
56.62796337120562
 42
-0.4142135623731576
 10
-32.57692046803459
 20
57.02796337120571
  0
LWPOLYLINE
  5
C12
102
{ACAD_REACTORS
330
BEC
102
}
330
B9E
100
AcDbEntity
  8
9
100
AcDbPolyline
 90
        4
 70
     1
 43
0.0
 10
-24.19231812786165
 20
59.87619128370352
 10
-24.57637781922995
 20
59.87619128370352
 10
-24.57637781922995
 20
59.28412752246913
 10
-24.19231812786165
 20
59.28412752246913
  0
ENDBLK
  5
C14
330
B9E
100
AcDbEntity
  8
0
100
AcDbBlockEnd
  0
ENDSEC
  0
SECTION
  2
ENTITIES
  0
LINE
  5
2250
330
1F
100
AcDbEntity
  8
SANINDUSA
100
AcDbLine
 10
4826.899938533687
 20
3130.521369032253
 30
0.0
 11
4826.904937772044
 21
3130.521369032253
 31
0.0
  0
LINE
  5
2264
330
1F
100
AcDbEntity
  8
SANINDUSA
100
AcDbLine
 10
4828.205412557221
 20
3130.521369032253
 30
0.0
 11
4828.210411795579
 21
3130.521369032253
 31
0.0
  0
LINE
  5
2265
330
1F
100
AcDbEntity
  8
SANINDUSA
100
AcDbLine
 10
4829.4421244851
 20
3130.521369032253
 30
0.0
 11
4829.438123875767
 21
3130.521369032253
 31
0.0
  0
LWPOLYLINE
  5
2323
330
1F
100
AcDbEntity
  8
SANINDUSA
100
AcDbPolyline
 90
       31
 70
   128
 43
0.0
 10
4826.99036131423
 20
3130.425798505236
 10
4827.000126454943
 20
3130.42569564252
 10
4827.015050616079
 20
3130.425534382153
 10
4827.029066655748
 20
3130.42538073628
 10
4827.042174342984
 20
3130.42524161904
 10
4827.054373998159
 20
3130.425119369913
 10
4827.065897095912
 20
3130.425009786774
 10
4827.076914552563
 20
3130.424909785081
 10
4827.088449839466
 20
3130.424810409237
 10
4827.099373150581
 20
3130.424721911241
 10
4827.109684083574
 20
3130.42464286058
 10
4827.11971401047
 20
3130.424568995524
 10
4827.130513671749
 20
3130.424491136957
 10
4827.142160851472
 20
3130.424407437135
 10
4827.154655847662
 20
3130.424316927482
 10
4827.167999271267
 20
3130.42422001033
 10
4827.182191822641
 20
3130.42411980002
 10
4827.197191808337
 20
3130.424023434211
 10
4827.211513999813
 20
3130.423950031091
 10
4827.224874142521
 20
3130.423905715038
 10
4827.237271044367
 20
3130.423889085341
 10
4827.248704586142
 20
3130.423895135213
 10
4827.253000501507
 20
3130.423904061008
 10
4827.25714367997
 20
3130.42391754656
 10
4827.261133734101
 20
3130.423935547162
 10
4827.264935109727
 20
3130.42395836084
 10
4827.267622474544
 20
3130.423981487442
 10
4827.270013485067
 20
3130.424005731631
 10
4827.272107366436
 20
3130.424026623059
 10
4827.273903612011
 20
3130.424040183116
 10
4827.275567296856
 20
3130.424043625284
  0
ARC
  5
2325
330
1F
100
AcDbEntity
  8
SANINDUSA
100
AcDbCircle
 10
4827.710643684824
 20
3130.449811845769
 30
0.0
 40
0.0240148410105847
100
AcDbArc
 50
270.640493599591
 51
349.4524441218585
  0
ARC
  5
2326
330
1F
100
AcDbEntity
  8
SANINDUSA
100
AcDbCircle
 10
4826.990617091975
 20
3130.449803337805
 30
0.0
 40
0.0239997880212115
100
AcDbArc
 50
190.0492411226847
 51
269.3729046503416
  0
LINE
  5
2327
330
1F
100
AcDbEntity
  8
SANINDUSA
100
AcDbLine
 10
4827.275567147844
 20
3130.424043625284
 30
0.0
 11
4827.303543750161
 21
3130.423066660453
 31
0.0
  0
LINE
  5
2328
330
1F
100
AcDbEntity
  8
SANINDUSA
100
AcDbLine
 10
4827.397729728335
 20
3130.423066660453
 30
0.0
 11
4827.425706569069
 21
3130.424043640185
 31
0.0
  0
LINE
  5
2329
330
1F
100
AcDbEntity
  8
SANINDUSA
100
AcDbLine
 10
4827.303543750161
 20
3130.423066660453
 30
0.0
 11
4827.31389749419
 21
3130.411963641334
 31
0.0
  0
LINE
  5
232A
330
1F
100
AcDbEntity
  8
SANINDUSA
100
AcDbLine
 10
4827.387375984304
 20
3130.411963641334
 30
0.0
 11
4827.397729728335
 21
3130.423066660453
 31
0.0
  0
LINE
  5
232D
330
1F
100
AcDbEntity
  8
SANINDUSA
100
AcDbLine
 10
4826.904937772044
 20
3130.521369032253
 30
0.0
 11
4827.796335700863
 21
3130.521369032253
 31
0.0
  0
LINE
  5
2330
330
1F
100
AcDbEntity
  8
SANINDUSA
100
AcDbLine
 10
4827.800791088455
 20
3130.552526103024
 30
0.0
 11
4827.801334921234
 21
3130.521369032253
 31
0.0
  0
LINE
  5
2331
330
1F
100
AcDbEntity
  8
SANINDUSA
100
AcDbLine
 10
4827.796335700863
 20
3130.521369032253
 30
0.0
 11
4827.801334921234
 21
3130.521369032253
 31
0.0
  0
LINE
  5
2333
330
1F
100
AcDbEntity
  8
SANINDUSA
100
AcDbLine
 10
4826.899938533687
 20
3130.521369032253
 30
0.0
 11
4826.900482382385
 21
3130.552526103024
 31
0.0
  0
LINE
  5
2334
330
1F
100
AcDbEntity
  8
SANINDUSA
100
AcDbLine
 10
4826.909481011295
 20
3130.561369031358
 30
0.0
 11
4827.791792456024
 21
3130.561369031358
 31
0.0
  0
ARC
  5
2337
330
1F
100
AcDbEntity
  8
SANINDUSA
100
AcDbCircle
 10
4827.791792460899
 20
3130.552369031359
 30
0.0
 40
0.0090000000000001
100
AcDbArc
 50
1.000000009720081
 51
90.0
  0
ARC
  5
2338
330
1F
100
AcDbEntity
  8
SANINDUSA
100
AcDbCircle
 10
4826.909481011636
 20
3130.552369031359
 30
0.0
 40
0.0090000000000001
100
AcDbArc
 50
90.0
 51
178.9999999902799
  0
LINE
  5
2339
330
1F
100
AcDbEntity
  8
SANINDUSA
100
AcDbLine
 10
4826.953628107869
 20
3130.521369032253
 30
0.0
 11
4826.965639185124
 21
3130.453250847448
 31
0.0
  0
LINE
  5
233A
330
1F
100
AcDbEntity
  8
SANINDUSA
100
AcDbLine
 10
4827.735634449833
 20
3130.453251674462
 30
0.0
 11
4827.747645381801
 21
3130.521369032253
 31
0.0
  0
LWPOLYLINE
  5
2349
330
1F
100
AcDbEntity
  8
SANINDUSA
100
AcDbPolyline
 90
        6
 70
   128
 43
0.0
 10
4827.734252754563
 20
3130.445415891398
 10
4827.734272781723
 20
3130.445529251982
 10
4827.734483603352
 20
3130.446725114871
 10
4827.734748903626
 20
3130.448229573358
 10
4827.735131684654
 20
3130.450400538434
 10
4827.735634449833
 20
3130.453251674462
  0
LWPOLYLINE
  5
234A
330
1F
100
AcDbEntity
  8
SANINDUSA
100
AcDbPolyline
 90
        6
 70
   128
 43
0.0
 10
4826.965639185124
 20
3130.453250847448
 10
4826.966244485193
 20
3130.44981801479
 10
4826.966665018313
 20
3130.447433031787
 10
4826.966908570343
 20
3130.446051798452
 10
4826.966982912235
 20
3130.445630184997
 10
4826.966980200225
 20
3130.445645570446
  0
LINE
  5
234B
330
1F
100
AcDbEntity
  8
SANINDUSA
100
AcDbLine
 10
4827.350636724347
 20
3130.423066660453
 30
0.0
 11
4827.397729728335
 21
3130.423066660453
 31
0.0
  0
LINE
  5
234C
330
1F
100
AcDbEntity
  8
SANINDUSA
100
AcDbLine
 10
4827.303543750161
 20
3130.423066660453
 30
0.0
 11
4827.350636724347
 21
3130.423066660453
 31
0.0
  0
LINE
  5
234D
330
1F
100
AcDbEntity
  8
SANINDUSA
100
AcDbLine
 10
4827.350636724347
 20
3130.411963641334
 30
0.0
 11
4827.387375984304
 21
3130.411963641334
 31
0.0
  0
LINE
  5
234E
330
1F
100
AcDbEntity
  8
SANINDUSA
100
AcDbLine
 10
4827.31389749419
 20
3130.411963641334
 30
0.0
 11
4827.350636724347
 21
3130.411963641334
 31
0.0
  0
ELLIPSE
  5
236A
330
1F
100
AcDbEntity
  8
SANINDUSA
100
AcDbEllipse
 10
4826.558437279849
 20
3130.878294946068
 30
0.0
 11
0.0076715688679884
 21
0.0076715688679884
 31
0.0
210
0.0
220
0.0
230
0.9999999999999998
 40
0.9217238264484956
 41
5.512866274278627
 42
7.053504340080556
  0
LINE
  5
236C
330
1F
100
AcDbEntity
  8
SANINDUSA
100
AcDbLine
 10
4826.559019033018
 20
3130.888724781303
 30
0.0
 11
4825.781337939354
 21
3130.888724781303
 31
0.0
  0
ELLIPSE
  5
236E
330
1F
100
AcDbEntity
  8
SANINDUSA
100
AcDbEllipse
 10
4825.781919697739
 20
3130.878294946068
 30
0.0
 11
0.0076715688679883
 21
-0.0076715688679882
 31
0.0
210
0.0
220
0.0
230
1.0
 40
0.9217238264485239
 41
2.371273620688818
 42
3.911911686490751
  0
LINE
  5
2371
330
1F
100
AcDbEntity
  8
SANINDUSA
100
AcDbLine
 10
4826.568867091242
 20
3130.10119561079
 30
0.0
 11
4826.568867091242
 21
3130.878876704453
 31
0.0
  0
LINE
  5
2372
330
1F
100
AcDbEntity
  8
SANINDUSA
100
AcDbLine
 10
4825.771489862504
 20
3130.878876704453
 30
0.0
 11
4825.771489862504
 21
3130.10119561079
 31
0.0
  0
ELLIPSE
  5
2375
330
1F
100
AcDbEntity
  8
SANINDUSA
100
AcDbEllipse
 10
4826.558437279849
 20
3130.101777363959
 30
0.0
 11
-0.0076715688679883
 21
0.0076715688679884
 31
0.0
210
0.0
220
0.0
230
0.9999999999999998
 40
0.9217238264485111
 41
2.371273620688823
 42
3.911911686490777
  0
ELLIPSE
  5
2376
330
1F
100
AcDbEntity
  8
SANINDUSA
100
AcDbEllipse
 10
4825.781919697739
 20
3130.101777363959
 30
0.0
 11
0.0076715688679883
 21
0.0076715688679884
 31
0.0
210
0.0
220
0.0
230
1.0
 40
0.9217238264485109
 41
2.371273620688813
 42
3.911911686490762
  0
LINE
  5
2378
330
1F
100
AcDbEntity
  8
SANINDUSA
100
AcDbLine
 10
4825.781337939354
 20
3130.091347552566
 30
0.0
 11
4826.559019033018
 21
3130.091347552566
 31
0.0
  0
LINE
  5
237E
330
1F
100
AcDbEntity
  8
SANINDUSA
100
AcDbLine
 10
4826.542065147463
 20
3130.871770903198
 30
0.0
 11
4826.559019033018
 21
3130.888724781303
 31
0.0
  0
LINE
  5
237F
330
1F
100
AcDbEntity
  8
SANINDUSA
100
AcDbLine
 10
4826.568867091242
 20
3130.878876704453
 30
0.0
 11
4826.551913265291
 21
3130.861922830073
 31
0.0
  0
LINE
  5
2381
330
1F
100
AcDbEntity
  8
SANINDUSA
100
AcDbLine
 10
4825.788443703356
 20
3130.861922859875
 30
0.0
 11
4825.771489862504
 21
3130.878876704453
 31
0.0
  0
LINE
  5
2382
330
1F
100
AcDbEntity
  8
SANINDUSA
100
AcDbLine
 10
4825.781337939354
 20
3130.888724781303
 30
0.0
 11
4825.798291783932
 21
3130.871770940451
 31
0.0
  0
ARC
  5
2383
330
1F
100
AcDbEntity
  8
SANINDUSA
100
AcDbCircle
 10
4826.541022523553
 20
3130.119192120254
 30
0.0
 40
0.0102209754635315
100
AcDbArc
 50
272.0540880565829
 51
357.9459119685215
  0
LINE
  5
2384
330
1F
100
AcDbEntity
  8
SANINDUSA
100
AcDbLine
 10
4826.551236931386
 20
3130.118825770645
 30
0.0
 11
4826.568867091242
 21
3130.10119561079
 31
0.0
  0
LINE
  5
2385
330
1F
100
AcDbEntity
  8
SANINDUSA
100
AcDbLine
 10
4826.559019033018
 20
3130.091347552566
 30
0.0
 11
4826.541388873163
 21
3130.108977712421
 31
0.0
  0
ARC
  5
2386
330
1F
100
AcDbEntity
  8
SANINDUSA
100
AcDbCircle
 10
4825.798823231579
 20
3130.118969637403
 30
0.0
 40
0.0097041323852327
100
AcDbArc
 50
180.8487548191029
 51
273.5399578062172
  0
LWPOLYLINE
  5
238A
330
1F
100
AcDbEntity
  8
SANINDUSA
100
AcDbPolyline
 90
        5
 70
   128
 43
0.0
 10
4825.798323188129
 20
3130.87174103382
 10
4825.861468959751
 20
3130.871743149786
 10
4826.170178506675
 20
3130.871724188058
 10
4826.478888038698
 20
3130.871742784707
 10
4826.542033735814
 20
3130.871741004018
  0
LWPOLYLINE
  5
238C
330
1F
100
AcDbEntity
  8
SANINDUSA
100
AcDbPolyline
 90
       12
 70
   128
 43
0.0
 10
4825.78912016392
 20
3130.118825889854
 10
4825.78972547144
 20
3130.140186942844
 10
4825.79014600456
 20
3130.161719955234
 10
4825.79038955659
 20
3130.183347858219
 10
4825.790463891032
 20
3130.204993284969
 10
4825.790379841032
 20
3130.254839516906
 10
4825.790201846662
 20
3130.304679967193
 10
4825.789988149109
 20
3130.354518271713
 10
4825.789796989563
 20
3130.404358125953
 10
4825.78933009893
 20
3130.558689601449
 10
4825.788884621266
 20
3130.713023267416
 10
4825.788443703356
 20
3130.861922859875
  0
LWPOLYLINE
  5
238D
330
1F
100
AcDbEntity
  8
SANINDUSA
100
AcDbPolyline
 90
       13
 70
   128
 43
0.0
 10
4826.551913265291
 20
3130.861922830073
 10
4826.551693502966
 20
3130.788006074457
 10
4826.550790552202
 20
3130.479340351848
 10
4826.550286356511
 20
3130.325012720851
 10
4826.550163868967
 20
3130.299281574516
 10
4826.550014976564
 20
3130.273537970809
 10
4826.549886230531
 20
3130.247792757778
 10
4826.549824122492
 20
3130.222056664257
 10
4826.549875263276
 20
3130.196340538291
 10
4826.55008614451
 20
3130.170655108718
 10
4826.550351444783
 20
3130.153297818927
 10
4826.550734225812
 20
3130.13600704792
 10
4826.551236931386
 20
3130.118825770645
  0
LWPOLYLINE
  5
238F
330
1F
100
AcDbEntity
  8
SANINDUSA
100
AcDbPolyline
 90
       16
 70
   128
 43
0.0
 10
4826.540933970513
 20
3130.109284259109
 10
4826.418565157953
 20
3130.109402693538
 10
4826.363606993261
 20
3130.109500862388
 10
4826.308652226034
 20
3130.109642900257
 10
4826.272013608519
 20
3130.109808839588
 10
4826.235385183397
 20
3130.1100425494
 10
4826.19876027495
 20
3130.11029330614
 10
4826.181850169006
 20
3130.110371984271
 10
4826.164934370819
 20
3130.110380269317
 10
4826.131116423908
 20
3130.110248841075
 10
4826.097309921088
 20
3130.110024966029
 10
4826.063504252735
 20
3130.109790064125
 10
4826.029688898626
 20
3130.109625734119
 10
4825.952937770787
 20
3130.109446204929
 10
4825.876180816593
 20
3130.109344877033
 10
4825.799422409538
 20
3130.10928402069
  0
ELLIPSE
  5
2392
330
1F
100
AcDbEntity
  8
SANINDUSA
100
AcDbEllipse
 10
4825.724481047837
 20
3130.935733595971
 30
0.0
 11
0.0035366109458463
 21
-0.0035366109458495
 31
0.0
210
0.0
220
0.0
230
1.0
 40
0.9996954598818717
 41
2.356346783440366
 42
3.92683852374013
  0
ELLIPSE
  5
2395
330
1F
100
AcDbEntity
  8
SANINDUSA
100
AcDbEllipse
 10
4826.61587592975
 20
3130.935733595971
 30
0.0
 11
0.0035366109458462
 21
0.0035366109458495
 31
0.0
210
0.0
220
0.0
230
1.0
 40
0.9996954598819051
 41
5.497939437029282
 42
7.068431177329021
  0
ELLIPSE
  5
2398
330
1F
100
AcDbEntity
  8
SANINDUSA
100
AcDbEllipse
 10
4825.724481047837
 20
3130.044338714057
 30
0.0
 11
0.0035366109458464
 21
0.0035366109458496
 31
0.0
210
0.0
220
0.0
230
1.0
 40
0.9996954598818678
 41
2.356346783439433
 42
3.926838523739236
  0
ELLIPSE
  5
239B
330
1F
100
AcDbEntity
  8
SANINDUSA
100
AcDbEllipse
 10
4826.61587592975
 20
3130.044338714057
 30
0.0
 11
0.0035366109458462
 21
-0.0035366109458495
 31
0.0
210
0.0
220
0.0
230
1.0
 40
0.9996954598818696
 41
5.49793943703013
 42
7.06843117732994
  0
LINE
  5
239D
330
1F
100
AcDbEntity
  8
SANINDUSA
100
AcDbLine
 10
4826.61587745339
 20
3130.940734357594
 30
0.0
 11
4825.72447952457
 21
3130.940734357594
 31
0.0
  0
LINE
  5
239E
330
1F
100
AcDbEntity
  8
SANINDUSA
100
AcDbLine
 10
4826.620876673761
 20
3130.044337190418
 30
0.0
 11
4826.620876673761
 21
3130.935735119237
 31
0.0
  0
LINE
  5
239F
330
1F
100
AcDbEntity
  8
SANINDUSA
100
AcDbLine
 10
4825.719480286213
 20
3130.935735119237
 30
0.0
 11
4825.719480286213
 21
3130.044337190418
 31
0.0
  0
LINE
  5
23A0
330
1F
100
AcDbEntity
  8
SANINDUSA
100
AcDbLine
 10
4825.72447952457
 20
3130.039337970047
 30
0.0
 11
4826.61587745339
 21
3130.039337970047
 31
0.0
  0
ARC
  5
23AC
330
1F
100
AcDbEntity
  8
SANINDUSA
100
AcDbCircle
 10
4825.798741670053
 20
3130.861506935725
 30
0.0
 40
0.010242650583139
100
AcDbArc
 50
92.3415739343687
 51
177.8236927381682
  0
ARC
  5
23AF
330
1F
100
AcDbEntity
  8
SANINDUSA
100
AcDbCircle
 10
4826.541615217416
 20
3130.861506822783
 30
0.0
 40
0.0102427351430852
100
AcDbArc
 50
2.176796381456681
 51
87.65824118047893
  0
ARC
  5
23BD
330
1F
100
AcDbEntity
  8
SANINDUSA
100
AcDbCircle
 10
4825.90467683276
 20
3130.755341943385
 30
0.0
 40
0.0025903772375633
100
AcDbArc
 50
90.00009015065964
 51
180.0
  0
LWPOLYLINE
  5
23C0
330
1F
100
AcDbEntity
  8
SANINDUSA
100
AcDbPolyline
 90
        3
 70
   128
 43
0.0
 10
4825.904676828685
 20
3130.757932320623
 10
4825.912676815096
 20
3130.757932722954
 10
4825.915676403942
 20
3130.757932886867
  0
LWPOLYLINE
  5
23C3
330
1F
100
AcDbEntity
  8
SANINDUSA
100
AcDbPolyline
 90
        3
 70
   128
 43
0.0
 10
4825.902086306515
 20
3130.744343161969
 10
4825.902086410824
 20
3130.752342105298
 10
4825.902086455527
 20
3130.755342066674
  0
ARC
  5
23C4
330
1F
100
AcDbEntity
  8
SANINDUSA
100
AcDbCircle
 10
4825.915676642597
 20
3130.75534296099
 30
0.0
 40
0.0025899258888506
100
AcDbArc
 50
0.0
 51
90.00527964994189
  0
ARC
  5
23C6
330
1F
100
AcDbEntity
  8
SANINDUSA
100
AcDbCircle
 10
4826.435680391068
 20
3130.755342749914
 30
0.0
 40
0.0025903604711132
100
AcDbArc
 50
0.0
 51
90.00126945677477
  0
LWPOLYLINE
  5
23D1
330
1F
100
AcDbEntity
  8
SANINDUSA
100
AcDbPolyline
 90
        3
 70
   128
 43
0.0
 10
4825.918266568485
 20
3130.755343035249
 10
4825.918266404572
 20
3130.747344121723
 10
4825.918266344968
 20
3130.744344175248
  0
LWPOLYLINE
  5
23D3
330
1F
100
AcDbEntity
  8
SANINDUSA
100
AcDbPolyline
 90
        3
 70
   128
 43
0.0
 10
4826.424680773321
 20
3130.757933736233
 10
4826.432680729928
 20
3130.757933274297
 10
4826.435680333677
 20
3130.757933110384
  0
LWPOLYLINE
  5
23D5
330
1F
100
AcDbEntity
  8
SANINDUSA
100
AcDbPolyline
 90
        3
 70
   128
 43
0.0
 10
4826.438270751538
 20
3130.755342841534
 10
4826.438270870748
 20
3130.747343928008
 10
4826.438270930353
 20
3130.744343996434
  0
ARC
  5
23D7
330
1F
100
AcDbEntity
  8
SANINDUSA
100
AcDbCircle
 10
4826.424680524034
 20
3130.755343806086
 30
0.0
 40
0.0025899301591078
100
AcDbArc
 50
89.9944851766884
 51
180.0
  0
LWPOLYLINE
  5
23DA
330
1F
100
AcDbEntity
  8
SANINDUSA
100
AcDbPolyline
 90
        3
 70
   128
 43
0.0
 10
4826.422090832296
 20
3130.744345114021
 10
4826.422090653482
 20
3130.752343997745
 10
4826.422090593877
 20
3130.755343914418
  0
ARC
  5
23E3
330
1F
100
AcDbEntity
  8
SANINDUSA
100
AcDbCircle
 10
4825.969674771949
 20
3130.755346847932
 30
0.0
 40
0.0025905986905377
100
AcDbArc
 50
90.00136268193669
 51
180.0
  0
LWPOLYLINE
  5
23E6
330
1F
100
AcDbEntity
  8
SANINDUSA
100
AcDbPolyline
 90
        3
 70
   128
 43
0.0
 10
4825.969674710336
 20
3130.757937446623
 10
4825.977674666944
 20
3130.757938325791
 10
4825.980674479309
 20
3130.757938668518
  0
LWPOLYLINE
  5
23E9
330
1F
100
AcDbEntity
  8
SANINDUSA
100
AcDbPolyline
 90
        3
 70
   128
 43
0.0
 10
4825.967083756033
 20
3130.74434843698
 10
4825.967084054056
 20
3130.752347201495
 10
4825.967084173265
 20
3130.755347028761
  0
ARC
  5
23EA
330
1F
100
AcDbEntity
  8
SANINDUSA
100
AcDbCircle
 10
4826.370682273743
 20
3130.755347893558
 30
0.0
 40
0.0025905067387015
100
AcDbArc
 50
0.0
 51
90.00067091892686
  0
ARC
  5
23F6
330
1F
100
AcDbEntity
  8
SANINDUSA
100
AcDbCircle
 10
4825.904676286715
 20
3130.744343201136
 30
0.0
 40
0.0025899801998381
100
AcDbArc
 50
180.0
 51
270.0044076898295
  0
LWPOLYLINE
  5
23F7
330
1F
100
AcDbEntity
  8
SANINDUSA
100
AcDbPolyline
 90
        3
 70
   128
 43
0.0
 10
4826.359682385031
 20
3130.75793959239
 10
4826.367682341638
 20
3130.757938713221
 10
4826.37068224341
 20
3130.757938400297
  0
ARC
  5
23F9
330
1F
100
AcDbEntity
  8
SANINDUSA
100
AcDbCircle
 10
4825.980674889959
 20
3130.755348989162
 30
0.0
 40
0.0025896793883644
100
AcDbArc
 50
0.0
 51
90.00908551900565
  0
LWPOLYLINE
  5
23FB
330
1F
100
AcDbEntity
  8
SANINDUSA
100
AcDbPolyline
 90
        3
 70
   128
 43
0.0
 10
4826.373272780481
 20
3130.755347997336
 10
4826.373273078504
 20
3130.747349262624
 10
4826.373273197713
 20
3130.744349480061
  0
LWPOLYLINE
  5
23FE
330
1F
100
AcDbEntity
  8
SANINDUSA
100
AcDbPolyline
 90
        3
 70
   128
 43
0.0
 10
4825.915675956908
 20
3130.741753831892
 10
4825.907675970498
 20
3130.741753369955
 10
4825.904676485959
 20
3130.741753220944
  0
LWPOLYLINE
  5
23FF
330
1F
100
AcDbEntity
  8
SANINDUSA
100
AcDbPolyline
 90
        3
 70
   128
 43
0.0
 10
4825.983264569345
 20
3130.755349114923
 10
4825.98326424152
 20
3130.747350410013
 10
4825.98326412231
 20
3130.744350642352
  0
ARC
  5
2401
330
1F
100
AcDbEntity
  8
SANINDUSA
100
AcDbCircle
 10
4825.915675913411
 20
3130.744344263448
 30
0.0
 40
0.0025904315568734
100
AcDbArc
 50
270.0009620586584
 51
0.0
  0
ARC
  5
2402
330
1F
100
AcDbEntity
  8
SANINDUSA
100
AcDbCircle
 10
4826.435680916637
 20
3130.744344098923
 30
0.0
 40
0.0025900137172386
100
AcDbArc
 50
269.9963337863205
 51
0.0
  0
ARC
  5
2404
330
1F
100
AcDbEntity
  8
SANINDUSA
100
AcDbCircle
 10
4826.359682154667
 20
3130.755349762515
 30
0.0
 40
0.0025898298849184
100
AcDbArc
 50
89.99490356955069
 51
180.0
  0
LWPOLYLINE
  5
2406
330
1F
100
AcDbEntity
  8
SANINDUSA
100
AcDbPolyline
 90
        3
 70
   128
 43
0.0
 10
4826.435680750909
 20
3130.741754085211
 10
4826.427680734696
 20
3130.741754562049
 10
4826.424681250158
 20
3130.741754770665
  0
LWPOLYLINE
  5
2409
330
1F
100
AcDbEntity
  8
SANINDUSA
100
AcDbPolyline
 90
        3
 70
   128
 43
0.0
 10
4826.357092742028
 20
3130.744351655631
 10
4826.357092444006
 20
3130.752350300936
 10
4826.357092324796
 20
3130.755350038795
  0
ARC
  5
240A
330
1F
100
AcDbEntity
  8
SANINDUSA
100
AcDbCircle
 10
4826.424681234554
 20
3130.744345172924
 30
0.0
 40
0.0025904022589833
100
AcDbArc
 50
180.0
 51
270.0003451259068
  0
ARC
  5
240C
330
1F
100
AcDbEntity
  8
SANINDUSA
100
AcDbCircle
 10
4825.969673447938
 20
3130.744348515657
 30
0.0
 40
0.0025896919076
100
AcDbArc
 50
180.0
 51
270.0088084490255
  0
LWPOLYLINE
  5
240E
330
1F
100
AcDbEntity
  8
SANINDUSA
100
AcDbPolyline
 90
        3
 70
   128
 43
0.0
 10
4825.980673555437
 20
3130.741760164885
 10
4825.972673598829
 20
3130.741759181408
 10
4825.969673846069
 20
3130.741758823781
  0
ARC
  5
240F
330
1F
100
AcDbEntity
  8
SANINDUSA
100
AcDbCircle
 10
4826.370683434674
 20
3130.744349644782
 30
0.0
 40
0.0025897630435286
100
AcDbArc
 50
269.9921061893527
 51
0.0
  0
ARC
  5
2419
330
1F
100
AcDbEntity
  8
SANINDUSA
100
AcDbCircle
 10
4826.034674124782
 20
3130.755354600556
 30
0.0
 40
0.0025906989785065
100
AcDbArc
 50
90.00094387219586
 51
180.0
  0
LWPOLYLINE
  5
241C
330
1F
100
AcDbEntity
  8
SANINDUSA
100
AcDbPolyline
 90
        3
 70
   128
 43
0.0
 10
4826.034674082103
 20
3130.757945299534
 10
4826.042674038711
 20
3130.757946297912
 10
4826.045674149099
 20
3130.757946670441
  0
ARC
  5
241E
330
1F
100
AcDbEntity
  8
SANINDUSA
100
AcDbCircle
 10
4825.980673414979
 20
3130.744350872222
 30
0.0
 40
0.0025907073410457
100
AcDbArc
 50
270.0031063416052
 51
0.0
  0
LWPOLYLINE
  5
241F
330
1F
100
AcDbEntity
  8
SANINDUSA
100
AcDbPolyline
 90
        3
 70
   128
 43
0.0
 10
4826.370683077874
 20
3130.741759881763
 10
4826.362683121267
 20
3130.741760820536
 10
4826.359683338704
 20
3130.741761193065
  0
LWPOLYLINE
  5
2422
330
1F
100
AcDbEntity
  8
SANINDUSA
100
AcDbPolyline
 90
        3
 70
   128
 43
0.0
 10
4826.032082919184
 20
3130.744356900839
 10
4826.032083276811
 20
3130.75235535243
 10
4826.032083425823
 20
3130.755354911475
  0
ARC
  5
242B
330
1F
100
AcDbEntity
  8
SANINDUSA
100
AcDbCircle
 10
4826.305682812563
 20
3130.755355463341
 30
0.0
 40
0.002590506747563
100
AcDbArc
 50
0.0
 51
90.00198909874638
  0
LINE
  5
242E
330
1F
100
AcDbEntity
  8
SANINDUSA
100
AcDbLine
 10
4826.294682625833
 20
3130.757947281389
 30
0.0
 11
4826.30568272263
 21
3130.757945970087
 31
0.0
  0
LWPOLYLINE
  5
2430
330
1F
100
AcDbEntity
  8
SANINDUSA
100
AcDbPolyline
 90
        3
 70
   128
 43
0.0
 10
4826.308273319307
 20
3130.75535562673
 10
4826.308273676935
 20
3130.747357204942
 10
4826.308273796144
 20
3130.744357660799
  0
ARC
  5
2432
330
1F
100
AcDbEntity
  8
SANINDUSA
100
AcDbCircle
 10
4826.359683311451
 20
3130.744351762489
 30
0.0
 40
0.0025905694243468
100
AcDbArc
 50
180.0
 51
270.0006027587749
  0
ARC
  5
2433
330
1F
100
AcDbEntity
  8
SANINDUSA
100
AcDbCircle
 10
4826.045674744087
 20
3130.755357145656
 30
0.0
 40
0.002589524853611
100
AcDbArc
 50
0.0
 51
90.01316470615533
  0
LWPOLYLINE
  5
2435
330
1F
100
AcDbEntity
  8
SANINDUSA
100
AcDbPolyline
 90
        3
 70
   128
 43
0.0
 10
4826.048264268937
 20
3130.755357280759
 10
4826.048263941112
 20
3130.747358933477
 10
4826.048263792101
 20
3130.744359434037
  0
ARC
  5
2437
330
1F
100
AcDbEntity
  8
SANINDUSA
100
AcDbCircle
 10
4826.294682218912
 20
3130.755357568484
 30
0.0
 40
0.0025897129365658
100
AcDbArc
 50
89.99099712778306
 51
180.0
  0
LWPOLYLINE
  5
243A
330
1F
100
AcDbEntity
  8
SANINDUSA
100
AcDbPolyline
 90
        3
 70
   128
 43
0.0
 10
4826.292092923227
 20
3130.744360074787
 10
4826.292092625203
 20
3130.752358407168
 10
4826.292092505994
 20
3130.755357876806
  0
ARC
  5
243B
330
1F
100
AcDbEntity
  8
SANINDUSA
100
AcDbCircle
 10
4826.099675265468
 20
3130.755362010732
 30
0.0
 40
0.0025905903722895
100
AcDbArc
 50
89.9985414352808
 51
179.9899228497809
  0
LWPOLYLINE
  5
2446
330
1F
100
AcDbEntity
  8
SANINDUSA
100
AcDbPolyline
 90
        3
 70
   128
 43
0.0
 10
4826.099675331416
 20
3130.757952601103
 10
4826.107675317826
 20
3130.757953286557
 10
4826.110675726238
 20
3130.757953524975
  0
ARC
  5
2449
330
1F
100
AcDbEntity
  8
SANINDUSA
100
AcDbCircle
 10
4826.034672448184
 20
3130.744357055003
 30
0.0
 40
0.0025895290048378
100
AcDbArc
 50
180.0
 51
270.0124134332719
  0
ARC
  5
244A
330
1F
100
AcDbEntity
  8
SANINDUSA
100
AcDbCircle
 10
4826.240681727302
 20
3130.755362526628
 30
0.0
 40
0.0025904023131705
100
AcDbArc
 50
0.0
 51
90.00561774097173
  0
LWPOLYLINE
  5
2456
330
1F
100
AcDbEntity
  8
SANINDUSA
100
AcDbPolyline
 90
        3
 70
   128
 43
0.0
 10
4826.097084317508
 20
3130.744365036874
 10
4826.097084585729
 20
3130.752363145737
 10
4826.097084675136
 20
3130.755362466363
  0
LWPOLYLINE
  5
2457
330
1F
100
AcDbEntity
  8
SANINDUSA
100
AcDbPolyline
 90
        3
 70
   128
 43
0.0
 10
4826.229681078497
 20
3130.757953808097
 10
4826.237681035104
 20
3130.757953182249
 10
4826.240681473318
 20
3130.757952928929
  0
LWPOLYLINE
  5
245A
330
1F
100
AcDbEntity
  8
SANINDUSA
100
AcDbPolyline
 90
        3
 70
   128
 43
0.0
 10
4826.045673106017
 20
3130.741769045978
 10
4826.037673179212
 20
3130.741767943292
 10
4826.034673009219
 20
3130.741767526059
  0
LWPOLYLINE
  5
245B
330
1F
100
AcDbEntity
  8
SANINDUSA
100
AcDbPolyline
 90
        3
 70
   128
 43
0.0
 10
4826.243272129598
 20
3130.755362823991
 10
4826.243272368017
 20
3130.74736474493
 10
4826.243272487226
 20
3130.744365424304
  0
ARC
  5
245D
330
1F
100
AcDbEntity
  8
SANINDUSA
100
AcDbCircle
 10
4826.110676307813
 20
3130.755363807951
 30
0.0
 40
0.0025897170901825
100
AcDbArc
 50
0.0
 51
90.01286700053347
  0
ARC
  5
245F
330
1F
100
AcDbEntity
  8
SANINDUSA
100
AcDbCircle
 10
4826.305684150085
 20
3130.744357917155
 30
0.0
 40
0.0025896460711284
100
AcDbArc
 50
269.9908363677896
 51
0.0
  0
ARC
  5
2461
330
1F
100
AcDbEntity
  8
SANINDUSA
100
AcDbCircle
 10
4826.229680743469
 20
3130.755363844445
 30
0.0
 40
0.002589963673604
100
AcDbArc
 50
89.99258846932946
 51
179.9889507338305
  0
LWPOLYLINE
  5
2463
330
1F
100
AcDbEntity
  8
SANINDUSA
100
AcDbPolyline
 90
        3
 70
   128
 43
0.0
 10
4826.11326602489
 20
3130.755364075689
 10
4826.113265816275
 20
3130.747366041331
 10
4826.113265726867
 20
3130.744366750507
  0
LWPOLYLINE
  5
2465
330
1F
100
AcDbEntity
  8
SANINDUSA
100
AcDbPolyline
 90
        3
 70
   128
 43
0.0
 10
4826.30568373591
 20
3130.741768271116
 10
4826.297683779301
 20
3130.741769329099
 10
4826.294683639112
 20
3130.741769731431
  0
LWPOLYLINE
  5
2468
330
1F
100
AcDbEntity
  8
SANINDUSA
100
AcDbPolyline
 90
        3
 70
   128
 43
0.0
 10
4826.227091077868
 20
3130.74436704853
 10
4826.227090839449
 20
3130.752365067987
 10
4826.227090779844
 20
3130.75536434391
  0
ARC
  5
2469
330
1F
100
AcDbEntity
  8
SANINDUSA
100
AcDbCircle
 10
4826.045672992862
 20
3130.744359845246
 30
0.0
 40
0.00259079927125
100
AcDbArc
 50
270.0025024364052
 51
359.9909059088653
  0
ARC
  5
246A
330
1F
100
AcDbEntity
  8
SANINDUSA
100
AcDbCircle
 10
4826.294683471768
 20
3130.744360279975
 30
0.0
 40
0.0025905485499438
100
AcDbArc
 50
180.0
 51
270.0037011796289
  0
ARC
  5
246B
330
1F
100
AcDbEntity
  8
SANINDUSA
100
AcDbCircle
 10
4826.164677895988
 20
3130.755365710821
 30
0.0
 40
0.0025902728563694
100
AcDbArc
 50
89.99481378366285
 51
179.9887049560294
  0
ARC
  5
2476
330
1F
100
AcDbEntity
  8
SANINDUSA
100
AcDbCircle
 10
4826.175679188698
 20
3130.755366005752
 30
0.0
 40
0.0025899928668914
100
AcDbArc
 50
0.0
 51
90.01137987938738
  0
LWPOLYLINE
  5
2479
330
1F
100
AcDbEntity
  8
SANINDUSA
100
AcDbPolyline
 90
        3
 70
   128
 43
0.0
 10
4826.16467813045
 20
3130.757955983667
 10
4826.172678146663
 20
3130.757956013469
 10
4826.175678674283
 20
3130.757955998568
  0
LWPOLYLINE
  5
247B
330
1F
100
AcDbEntity
  8
SANINDUSA
100
AcDbPolyline
 90
        3
 70
   128
 43
0.0
 10
4826.162087563577
 20
3130.744369075088
 10
4826.162087593379
 20
3130.752367005138
 10
4826.162087623181
 20
3130.755366221456
  0
LWPOLYLINE
  5
247C
330
1F
100
AcDbEntity
  8
SANINDUSA
100
AcDbPolyline
 90
        3
 70
   128
 43
0.0
 10
4826.178269181553
 20
3130.755366266159
 10
4826.178269211355
 20
3130.747368351011
 10
4826.178269211355
 20
3130.744369134693
  0
ARC
  5
247F
330
1F
100
AcDbEntity
  8
SANINDUSA
100
AcDbCircle
 10
4826.09967395102
 20
3130.74436529554
 30
0.0
 40
0.0025896335247552
100
AcDbArc
 50
180.0
 51
270.0140568850553
  0
LWPOLYLINE
  5
2481
330
1F
100
AcDbEntity
  8
SANINDUSA
100
AcDbPolyline
 90
        3
 70
   128
 43
0.0
 10
4826.110675070587
 20
3130.741776690273
 10
4826.102675084176
 20
3130.741775960116
 10
4826.099674586359
 20
3130.741775662093
  0
ARC
  5
2482
330
1F
100
AcDbEntity
  8
SANINDUSA
100
AcDbCircle
 10
4826.240682623857
 20
3130.744365883094
 30
0.0
 40
0.0025898634098536
100
AcDbArc
 50
269.990370189863
 51
359.989850129987
  0
LWPOLYLINE
  5
2484
330
1F
100
AcDbEntity
  8
SANINDUSA
100
AcDbPolyline
 90
        3
 70
   128
 43
0.0
 10
4826.240682188573
 20
3130.74177601972
 10
4826.232682231966
 20
3130.741776749877
 10
4826.229681734147
 20
3130.741777003197
  0
ARC
  5
2486
330
1F
100
AcDbEntity
  8
SANINDUSA
100
AcDbCircle
 10
4826.110675144896
 20
3130.744367272296
 30
0.0
 40
0.0025905820235657
100
AcDbArc
 50
269.9983564961531
 51
359.988459621165
  0
ARC
  5
2487
330
1F
100
AcDbEntity
  8
SANINDUSA
100
AcDbCircle
 10
4826.229681346482
 20
3130.744367271794
 30
0.0
 40
0.0025902686258032
100
AcDbArc
 50
180.0
 51
270.0085749952929
  0
ARC
  5
2489
330
1F
100
AcDbEntity
  8
SANINDUSA
100
AcDbCircle
 10
4826.164677468705
 20
3130.744369337164
 30
0.0
 40
0.0025899051412788
100
AcDbArc
 50
180.0
 51
270.0126616863078
  0
ARC
  5
248A
330
1F
100
AcDbEntity
  8
SANINDUSA
100
AcDbCircle
 10
4826.175679005383
 20
3130.744369667897
 30
0.0
 40
0.0025902060260104
100
AcDbArc
 50
269.993335260726
 51
359.9882054275655
  0
LWPOLYLINE
  5
248C
330
1F
100
AcDbEntity
  8
SANINDUSA
100
AcDbPolyline
 90
        3
 70
   128
 43
0.0
 10
4826.175678704085
 20
3130.741779461889
 10
4826.167678717676
 20
3130.741779461889
 10
4826.164678041044
 20
3130.741779432086
  0
ARC
  5
248D
330
1F
100
AcDbEntity
  8
SANINDUSA
100
AcDbCircle
 10
4825.90467606264
 20
3130.690347797191
 30
0.0
 40
0.0025903521717788
100
AcDbArc
 50
90.00184298172348
 51
180.0
  0
LWPOLYLINE
  5
2498
330
1F
100
AcDbEntity
  8
SANINDUSA
100
AcDbPolyline
 90
        3
 70
   128
 43
0.0
 10
4825.90467597932
 20
3130.692938149361
 10
4825.912675950828
 20
3130.692938641099
 10
4825.915675226751
 20
3130.692938864617
  0
LWPOLYLINE
  5
249B
330
1F
100
AcDbEntity
  8
SANINDUSA
100
AcDbPolyline
 90
        3
 70
   128
 43
0.0
 10
4825.902085635963
 20
3130.679348633079
 10
4825.902085680667
 20
3130.687347695617
 10
4825.902085710469
 20
3130.690347850709
  0
ARC
  5
249C
330
1F
100
AcDbEntity
  8
SANINDUSA
100
AcDbCircle
 10
4825.915675418929
 20
3130.690348922063
 30
0.0
 40
0.0025899425608293
100
AcDbArc
 50
0.0
 51
90.00425146342669
  0
LINE
  5
249E
330
1F
100
AcDbEntity
  8
SANINDUSA
100
AcDbLine
 10
4825.91826536149
 20
3130.690348953395
 30
0.0
 11
4825.918265197578
 21
3130.679349765567
 31
0.0
  0
ARC
  5
24A0
330
1F
100
AcDbEntity
  8
SANINDUSA
100
AcDbCircle
 10
4826.43568126424
 20
3130.690348900485
 30
0.0
 40
0.0025903813681656
100
AcDbArc
 50
0.0
 51
89.99685207444899
  0
LWPOLYLINE
  5
24AB
330
1F
100
AcDbEntity
  8
SANINDUSA
100
AcDbPolyline
 90
        3
 70
   128
 43
0.0
 10
4826.424682084623
 20
3130.692940086512
 10
4826.432682041231
 20
3130.692939475565
 10
4826.435681406561
 20
3130.692939281849
  0
LWPOLYLINE
  5
24AD
330
1F
100
AcDbEntity
  8
SANINDUSA
100
AcDbPolyline
 90
        3
 70
   128
 43
0.0
 10
4826.438271645608
 20
3130.690348938494
 10
4826.438271764818
 20
3130.68234993556
 10
4826.438271764818
 20
3130.67934979537
  0
ARC
  5
24AF
330
1F
100
AcDbEntity
  8
SANINDUSA
100
AcDbCircle
 10
4826.424681852047
 20
3130.690350139654
 30
0.0
 40
0.0025899468686567
100
AcDbArc
 50
89.99485484650652
 51
180.0
  0
LWPOLYLINE
  5
24B5
330
1F
100
AcDbEntity
  8
SANINDUSA
100
AcDbPolyline
 90
        3
 70
   128
 43
0.0
 10
4826.422092143598
 20
3130.67935107687
 10
4826.422091964784
 20
3130.687350079803
 10
4826.422091905179
 20
3130.690350219993
  0
ARC
  5
24C0
330
1F
100
AcDbEntity
  8
SANINDUSA
100
AcDbCircle
 10
4825.904675674626
 20
3130.679348641308
 30
0.0
 40
0.0025900386635317
100
AcDbArc
 50
180.0
 51
270.0027846131806
  0
LWPOLYLINE
  5
24C2
330
1F
100
AcDbEntity
  8
SANINDUSA
100
AcDbPolyline
 90
        3
 70
   128
 43
0.0
 10
4825.915674913826
 20
3130.676759317903
 10
4825.907674942317
 20
3130.676758781461
 10
4825.904675800505
 20
3130.676758602647
  0
ARC
  5
24C3
330
1F
100
AcDbEntity
  8
SANINDUSA
100
AcDbCircle
 10
4825.915674724219
 20
3130.679349791254
 30
0.0
 40
0.002590473358169
100
AcDbArc
 50
270.0041936732044
 51
0.0
  0
ARC
  5
24C4
330
1F
100
AcDbEntity
  8
SANINDUSA
100
AcDbCircle
 10
4826.435681817962
 20
3130.679349771393
 30
0.0
 40
0.0025899468565085
100
AcDbArc
 50
269.9961732347703
 51
0.0
  0
LWPOLYLINE
  5
24CA
330
1F
100
AcDbEntity
  8
SANINDUSA
100
AcDbPolyline
 90
        3
 70
   128
 43
0.0
 10
4826.435681644979
 20
3130.676759824543
 10
4826.427681628767
 20
3130.676760390787
 10
4826.424682442251
 20
3130.676760629205
  0
ARC
  5
24CD
330
1F
100
AcDbEntity
  8
SANINDUSA
100
AcDbCircle
 10
4825.969672457713
 20
3130.690354379973
 30
0.0
 40
0.0025907282409229
100
AcDbArc
 50
90.00521644025996
 51
180.0
  0
ARC
  5
24DB
330
1F
100
AcDbEntity
  8
SANINDUSA
100
AcDbCircle
 10
4826.424682650344
 20
3130.679351135944
 30
0.0
 40
0.0025905067469691
100
AcDbArc
 50
180.0
 51
269.9953974701017
  0
LWPOLYLINE
  5
24DC
330
1F
100
AcDbEntity
  8
SANINDUSA
100
AcDbPolyline
 90
        3
 70
   128
 43
0.0
 10
4825.969672221842
 20
3130.692945108203
 10
4825.977672103944
 20
3130.692946359901
 10
4825.9806717971
 20
3130.692946851639
  0
LWPOLYLINE
  5
24DF
330
1F
100
AcDbEntity
  8
SANINDUSA
100
AcDbPolyline
 90
        3
 70
   128
 43
0.0
 10
4825.967081312242
 20
3130.679355517416
 10
4825.967081610265
 20
3130.687354430942
 10
4825.967081729475
 20
3130.690354496627
  0
ARC
  5
24EC
330
1F
100
AcDbEntity
  8
SANINDUSA
100
AcDbCircle
 10
4826.37068449076
 20
3130.690355835013
 30
0.0
 40
0.0025906739071729
100
AcDbArc
 50
0.0
 51
89.99565551985247
  0
LWPOLYLINE
  5
24F9
330
1F
100
AcDbEntity
  8
SANINDUSA
100
AcDbPolyline
 90
        3
 70
   128
 43
0.0
 10
4826.359685007634
 20
3130.692948207645
 10
4826.367684904638
 20
3130.692946955948
 10
4826.3706846872
 20
3130.692946508913
  0
LWPOLYLINE
  5
24FB
330
1F
100
AcDbEntity
  8
SANINDUSA
100
AcDbPolyline
 90
        3
 70
   128
 43
0.0
 10
4826.373275164667
 20
3130.690355912236
 10
4826.37327546269
 20
3130.682357058315
 10
4826.373275581899
 20
3130.679357037334
  0
ARC
  5
24FD
330
1F
100
AcDbEntity
  8
SANINDUSA
100
AcDbCircle
 10
4825.980672315289
 20
3130.690357339449
 30
0.0
 40
0.0025895122426607
100
AcDbArc
 50
0.0
 51
90.01146549645724
  0
LWPOLYLINE
  5
2501
330
1F
100
AcDbEntity
  8
SANINDUSA
100
AcDbPolyline
 90
        3
 70
   128
 43
0.0
 10
4825.983261827531
 20
3130.690357357649
 10
4825.983261469904
 20
3130.682358548431
 10
4825.983261350694
 20
3130.67935852745
  0
ARC
  5
2507
330
1F
100
AcDbEntity
  8
SANINDUSA
100
AcDbCircle
 10
4826.359684610159
 20
3130.690358544911
 30
0.0
 40
0.0025896627642625
100
AcDbArc
 50
89.99120593339169
 51
180.0
  0
LWPOLYLINE
  5
250C
330
1F
100
AcDbEntity
  8
SANINDUSA
100
AcDbPolyline
 90
        3
 70
   128
 43
0.0
 10
4826.357095424238
 20
3130.679359957961
 10
4826.35709506661
 20
3130.687358752279
 10
4826.3570949474
 20
3130.690358713655
  0
ARC
  5
26F6
330
1F
100
AcDbEntity
  8
SANINDUSA
100
AcDbCircle
 10
4825.969670924717
 20
3130.679355546464
 30
0.0
 40
0.0025896124759299
100
AcDbArc
 50
180.0
 51
270.008917672024
  0
LWPOLYLINE
  5
26F9
330
1F
100
AcDbEntity
  8
SANINDUSA
100
AcDbPolyline
 90
        3
 70
   128
 43
0.0
 10
4825.980670813623
 20
3130.676767811565
 10
4825.972670946423
 20
3130.676766440658
 10
4825.969671327772
 20
3130.676765934019
  0
ARC
  5
2700
330
1F
100
AcDbEntity
  8
SANINDUSA
100
AcDbCircle
 10
4826.370685919141
 20
3130.679357116665
 30
0.0
 40
0.0025896627582615
100
AcDbArc
 50
269.9912058812815
 51
0.0
  0
LWPOLYLINE
  5
2706
330
1F
100
AcDbEntity
  8
SANINDUSA
100
AcDbPolyline
 90
        3
 70
   128
 43
0.0
 10
4826.370685521665
 20
3130.676767453937
 10
4826.362685684267
 20
3130.676768765239
 10
4826.359685961309
 20
3130.676769271879
  0
ARC
  5
2708
330
1F
100
AcDbEntity
  8
SANINDUSA
100
AcDbCircle
 10
4825.980670434404
 20
3130.679358727835
 30
0.0
 40
0.0025909162974137
100
AcDbArc
 50
270.0083860957875
 51
0.0
  0
ARC
  5
270C
330
1F
100
AcDbEntity
  8
SANINDUSA
100
AcDbCircle
 10
4826.359686181724
 20
3130.679360029358
 30
0.0
 40
0.002590757488699
100
AcDbArc
 50
180.0
 51
269.9951254027071
  0
ARC
  5
270E
330
1F
100
AcDbEntity
  8
SANINDUSA
100
AcDbCircle
 10
4826.034671162661
 20
3130.690365760714
 30
0.0
 40
0.0025908660932519
100
AcDbArc
 50
90.00398059456479
 51
180.0
  0
LWPOLYLINE
  5
2719
330
1F
100
AcDbEntity
  8
SANINDUSA
100
AcDbPolyline
 90
        3
 70
   128
 43
0.0
 10
4826.034670982662
 20
3130.692956626801
 10
4826.042670849862
 20
3130.692958131819
 10
4826.045671109262
 20
3130.692958698062
  0
LWPOLYLINE
  5
271C
330
1F
100
AcDbEntity
  8
SANINDUSA
100
AcDbPolyline
 90
        3
 70
   128
 43
0.0
 10
4826.032079700532
 20
3130.679367706565
 10
4826.032080147567
 20
3130.687366262464
 10
4826.032080296579
 20
3130.690366000323
  0
ARC
  5
2720
330
1F
100
AcDbEntity
  8
SANINDUSA
100
AcDbCircle
 10
4826.305685562953
 20
3130.690366858787
 30
0.0
 40
0.0025907365907534
100
AcDbArc
 50
0.0
 51
89.99822397989362
  0
LINE
  5
272C
330
1F
100
AcDbEntity
  8
SANINDUSA
100
AcDbLine
 10
4826.294685546461
 20
3130.69295956233
 30
0.0
 11
4826.305685643259
 21
3130.692957595377
 31
0.0
  0
LWPOLYLINE
  5
272E
330
1F
100
AcDbEntity
  8
SANINDUSA
100
AcDbPolyline
 90
        3
 70
   128
 43
0.0
 10
4826.308276299539
 20
3130.690367013602
 10
4826.308276716772
 20
3130.682368502406
 10
4826.308276895585
 20
3130.679368749647
  0
ARC
  5
2736
330
1F
100
AcDbEntity
  8
SANINDUSA
100
AcDbCircle
 10
4826.04567175385
 20
3130.690369252688
 30
0.0
 40
0.0025894454550394
100
AcDbArc
 50
0.0
 51
90.01426256405254
  0
LWPOLYLINE
  5
2739
330
1F
100
AcDbEntity
  8
SANINDUSA
100
AcDbPolyline
 90
        3
 70
   128
 43
0.0
 10
4826.048261199298
 20
3130.690369442491
 10
4826.048260752264
 20
3130.682371005802
 10
4826.048260603251
 20
3130.679371342449
  0
ARC
  5
273D
330
1F
100
AcDbEntity
  8
SANINDUSA
100
AcDbCircle
 10
4826.294685005873
 20
3130.690369983116
 30
0.0
 40
0.0025895792700465
100
AcDbArc
 50
89.98803924811598
 51
180.0
  0
LWPOLYLINE
  5
2740
330
1F
100
AcDbEntity
  8
SANINDUSA
100
AcDbPolyline
 90
        3
 70
   128
 43
0.0
 10
4826.292095963064
 20
3130.679372236518
 10
4826.292095545831
 20
3130.687370658307
 10
4826.292095426622
 20
3130.690370291857
  0
ARC
  5
2749
330
1F
100
AcDbEntity
  8
SANINDUSA
100
AcDbCircle
 10
4826.034669062411
 20
3130.679367812781
 30
0.0
 40
0.0025893618808781
100
AcDbArc
 50
180.0
 51
270.0154527612353
  0
LWPOLYLINE
  5
274B
330
1F
100
AcDbEntity
  8
SANINDUSA
100
AcDbPolyline
 90
        3
 70
   128
 43
0.0
 10
4826.045669857564
 20
3130.676780715971
 10
4826.037670049968
 20
3130.676779076843
 10
4826.034669760766
 20
3130.676778450994
  0
ARC
  5
274E
330
1F
100
AcDbEntity
  8
SANINDUSA
100
AcDbCircle
 10
4826.305687299661
 20
3130.679369060175
 30
0.0
 40
0.0025895959438627
100
AcDbArc
 50
269.9897269935584
 51
0.0
  0
LWPOLYLINE
  5
2750
330
1F
100
AcDbEntity
  8
SANINDUSA
100
AcDbPolyline
 90
        3
 70
   128
 43
0.0
 10
4826.305686835351
 20
3130.676779464273
 10
4826.297686997953
 20
3130.676781043796
 10
4826.294686678949
 20
3130.676781639842
  0
ARC
  5
2754
330
1F
100
AcDbEntity
  8
SANINDUSA
100
AcDbCircle
 10
4826.045669636894
 20
3130.679371682341
 30
0.0
 40
0.0025909663791707
100
AcDbArc
 50
270.0048798083137
 51
0.0
  0
ARC
  5
2755
330
1F
100
AcDbEntity
  8
SANINDUSA
100
AcDbCircle
 10
4826.294686762338
 20
3130.679372439124
 30
0.0
 40
0.0025907992824924
100
AcDbArc
 50
180.0
 51
269.9981558197417
  0
ARC
  5
275A
330
1F
100
AcDbEntity
  8
SANINDUSA
100
AcDbCircle
 10
4826.099673141424
 20
3130.690376907447
 30
0.0
 40
0.0025907909163284
100
AcDbArc
 50
90.0003401233269
 51
179.9891135000719
  0
LWPOLYLINE
  5
2765
330
1F
100
AcDbEntity
  8
SANINDUSA
100
AcDbPolyline
 90
        3
 70
   128
 43
0.0
 10
4826.099673126044
 20
3130.692967698364
 10
4826.10767305285
 20
3130.692968741445
 10
4826.110673789087
 20
3130.692969113974
  0
ARC
  5
2767
330
1F
100
AcDbEntity
  8
SANINDUSA
100
AcDbCircle
 10
4825.904675804445
 20
3130.625351797966
 30
0.0
 40
0.0025902727905076
100
AcDbArc
 50
90.00371285231542
 51
180.0
  0
LWPOLYLINE
  5
2773
330
1F
100
AcDbEntity
  8
SANINDUSA
100
AcDbPolyline
 90
        3
 70
   128
 43
0.0
 10
4826.09708190352
 20
3130.679379836111
 10
4826.097082231346
 20
3130.687377989678
 10
4826.097082350555
 20
3130.690377399711
  0
LWPOLYLINE
  5
2775
330
1F
100
AcDbEntity
  8
SANINDUSA
100
AcDbPolyline
 90
        3
 70
   128
 43
0.0
 10
4825.904675636593
 20
3130.627942070751
 10
4825.912675623002
 20
3130.627942547588
 10
4825.915674496594
 20
3130.627942786007
  0
ARC
  5
2777
330
1F
100
AcDbEntity
  8
SANINDUSA
100
AcDbCircle
 10
4826.240683878328
 20
3130.690377703665
 30
0.0
 40
0.0025904566475076
100
AcDbArc
 50
0.0
 51
90.00573394673475
  0
LWPOLYLINE
  5
2783
330
1F
100
AcDbEntity
  8
SANINDUSA
100
AcDbPolyline
 90
        3
 70
   128
 43
0.0
 10
4825.902085591259
 20
3130.614352271347
 10
4825.902085546556
 20
3130.622351453094
 10
4825.902085531655
 20
3130.625351772098
  0
LWPOLYLINE
  5
2785
330
1F
100
AcDbEntity
  8
SANINDUSA
100
AcDbPolyline
 90
        3
 70
   128
 43
0.0
 10
4826.22968292624
 20
3130.692969501404
 10
4826.237682882848
 20
3130.69296854773
 10
4826.240683619085
 20
3130.6929681603
  0
LWPOLYLINE
  5
2787
330
1F
100
AcDbEntity
  8
SANINDUSA
100
AcDbPolyline
 90
        3
 70
   128
 43
0.0
 10
4826.24327433497
 20
3130.690377876548
 10
4826.243274692598
 20
3130.682379767685
 10
4826.243274811807
 20
3130.67938034275
  0
ARC
  5
2789
330
1F
100
AcDbEntity
  8
SANINDUSA
100
AcDbCircle
 10
4825.915674654821
 20
3130.625352839301
 30
0.0
 40
0.0025899467106644
100
AcDbArc
 50
0.0
 51
90.00350039899824
  0
ARC
  5
278B
330
1F
100
AcDbEntity
  8
SANINDUSA
100
AcDbCircle
 10
4826.11067450015
 20
3130.690379526471
 30
0.0
 40
0.0025895876007836
100
AcDbArc
 50
0.0
 51
90.01573264517281
  0
LWPOLYLINE
  5
278D
330
1F
100
AcDbEntity
  8
SANINDUSA
100
AcDbPolyline
 90
        3
 70
   128
 43
0.0
 10
4825.918264601532
 20
3130.625352755575
 10
4825.918264556828
 20
3130.617353573827
 10
4825.918264541927
 20
3130.614353195218
  0
LWPOLYLINE
  5
278F
330
1F
100
AcDbEntity
  8
SANINDUSA
100
AcDbPolyline
 90
        3
 70
   128
 43
0.0
 10
4826.11326408774
 20
3130.690379783897
 10
4826.113263819518
 20
3130.682381704835
 10
4826.113263730111
 20
3130.67938239911
  0
ARC
  5
2791
330
1F
100
AcDbEntity
  8
SANINDUSA
100
AcDbCircle
 10
4826.229682407416
 20
3130.690379721591
 30
0.0
 40
0.002589779865452
100
AcDbArc
 50
89.98852163231642
 51
179.9903798041962
  0
ARC
  5
2793
330
1F
100
AcDbEntity
  8
SANINDUSA
100
AcDbCircle
 10
4826.435681723257
 20
3130.625353161687
 30
0.0
 40
0.0025903395843221
100
AcDbArc
 50
0.0
 51
89.99513942035299
  0
LWPOLYLINE
  5
279E
330
1F
100
AcDbEntity
  8
SANINDUSA
100
AcDbPolyline
 90
        3
 70
   128
 43
0.0
 10
4826.424682978693
 20
3130.627944335727
 10
4826.4326829353
 20
3130.627943709879
 10
4826.435681943002
 20
3130.627943501262
  0
LINE
  5
27A0
330
1F
100
AcDbEntity
  8
SANINDUSA
100
AcDbLine
 10
4826.438272062841
 20
3130.625353172807
 30
0.0
 11
4826.438272062841
 21
3130.614353701858
 31
0.0
  0
LWPOLYLINE
  5
27A3
330
1F
100
AcDbEntity
  8
SANINDUSA
100
AcDbPolyline
 90
        3
 70
   128
 43
0.0
 10
4826.227092985216
 20
3130.679382786541
 10
4826.227092687193
 20
3130.6873808358
 10
4826.227092627588
 20
3130.690380156426
  0
ARC
  5
27A6
330
1F
100
AcDbEntity
  8
SANINDUSA
100
AcDbCircle
 10
4826.424682738862
 20
3130.625354455729
 30
0.0
 40
0.0025898800089588
100
AcDbArc
 50
89.99469424284404
 51
180.0
  0
LWPOLYLINE
  5
27A9
330
1F
100
AcDbEntity
  8
SANINDUSA
100
AcDbPolyline
 90
        3
 70
   128
 43
0.0
 10
4826.422092978063
 20
3130.614354893951
 10
4826.422092918459
 20
3130.622354045896
 10
4826.422092858854
 20
3130.625354394702
  0
ARC
  5
27AC
330
1F
100
AcDbEntity
  8
SANINDUSA
100
AcDbCircle
 10
4826.164677635022
 20
3130.690382544254
 30
0.0
 40
0.0025903397271071
100
AcDbArc
 50
89.99431519319102
 51
179.9875544928958
  0
ARC
  5
27B7
330
1F
100
AcDbEntity
  8
SANINDUSA
100
AcDbCircle
 10
4826.175679359673
 20
3130.690382898224
 30
0.0
 40
0.002590030509327
100
AcDbArc
 50
0.0
 51
90.01252484489945
  0
ARC
  5
27BD
330
1F
100
AcDbEntity
  8
SANINDUSA
100
AcDbCircle
 10
4825.904675688386
 20
3130.614352189032
 30
0.0
 40
0.0025900971289519
100
AcDbArc
 50
180.0
 51
270.0011616407546
  0
LWPOLYLINE
  5
27BE
330
1F
100
AcDbEntity
  8
SANINDUSA
100
AcDbPolyline
 90
        3
 70
   128
 43
0.0
 10
4826.164677892032
 20
3130.692972883968
 10
4826.172677878442
 20
3130.692972943573
 10
4826.175678793493
 20
3130.692972928671
  0
LWPOLYLINE
  5
27C0
330
1F
100
AcDbEntity
  8
SANINDUSA
100
AcDbPolyline
 90
        3
 70
   128
 43
0.0
 10
4826.162087235752
 20
3130.679385945587
 10
4826.162087265554
 20
3130.687383875637
 10
4826.162087295356
 20
3130.690383106856
  0
LWPOLYLINE
  5
27C1
330
1F
100
AcDbEntity
  8
SANINDUSA
100
AcDbPolyline
 90
        3
 70
   128
 43
0.0
 10
4826.178269390169
 20
3130.690383166461
 10
4826.178269419971
 20
3130.682385251312
 10
4826.178269449773
 20
3130.679386034993
  0
LWPOLYLINE
  5
27C4
330
1F
100
AcDbEntity
  8
SANINDUSA
100
AcDbPolyline
 90
        3
 70
   128
 43
0.0
 10
4825.915674436989
 20
3130.611762747554
 10
4825.90767446548
 20
3130.611762240915
 10
4825.9046757409
 20
3130.611762091903
  0
ARC
  5
27C7
330
1F
100
AcDbEntity
  8
SANINDUSA
100
AcDbCircle
 10
4825.91567418137
 20
3130.6143531081
 30
0.0
 40
0.0025903605583607
100
AcDbArc
 50
270.0056540096762
 51
0.0
  0
ARC
  5
27CA
330
1F
100
AcDbEntity
  8
SANINDUSA
100
AcDbCircle
 10
4826.435682032414
 20
3130.614353612442
 30
0.0
 40
0.0025900304272172
100
AcDbArc
 50
269.9967034561363
 51
0.0
  0
LWPOLYLINE
  5
27CC
330
1F
100
AcDbEntity
  8
SANINDUSA
100
AcDbPolyline
 90
        3
 70
   128
 43
0.0
 10
4826.435681883397
 20
3130.611763582019
 10
4826.42768192679
 20
3130.611764148263
 10
4826.424683097902
 20
3130.611764386682
  0
ARC
  5
27CF
330
1F
100
AcDbEntity
  8
SANINDUSA
100
AcDbCircle
 10
4826.099671365773
 20
3130.679380072481
 30
0.0
 40
0.002589462264419
100
AcDbArc
 50
180.0
 51
270.0178471732814
  0
LWPOLYLINE
  5
27D1
330
1F
100
AcDbEntity
  8
SANINDUSA
100
AcDbPolyline
 90
        3
 70
   128
 43
0.0
 10
4826.110672954622
 20
3130.676792160063
 10
4826.102673027816
 20
3130.676791057377
 10
4826.099672172371
 20
3130.676790610341
  0
ARC
  5
27D2
330
1F
100
AcDbEntity
  8
SANINDUSA
100
AcDbCircle
 10
4826.424683443039
 20
3130.614354851636
 30
0.0
 40
0.0025904649763526
100
AcDbArc
 50
180.0
 51
269.9923662714015
  0
ARC
  5
27D3
330
1F
100
AcDbEntity
  8
SANINDUSA
100
AcDbCircle
 10
4826.240685015264
 20
3130.67938088373
 30
0.0
 40
0.0025897965997789
100
AcDbArc
 50
269.9888915105804
 51
359.9880315358054
  0
LWPOLYLINE
  5
27D5
330
1F
100
AcDbEntity
  8
SANINDUSA
100
AcDbPolyline
 90
        3
 70
   128
 43
0.0
 10
4826.240684513154
 20
3130.676791087179
 10
4826.232684616151
 20
3130.676792219667
 10
4826.229683760705
 20
3130.676792607097
  0
ARC
  5
27D7
330
1F
100
AcDbEntity
  8
SANINDUSA
100
AcDbCircle
 10
4826.110672872385
 20
3130.679383017861
 30
0.0
 40
0.0025908577997859
100
AcDbArc
 50
270.0018185941462
 51
359.9863164324822
  0
ARC
  5
27D8
330
1F
100
AcDbEntity
  8
SANINDUSA
100
AcDbCircle
 10
4826.22968340009
 20
3130.679383021958
 30
0.0
 40
0.0025904148862643
100
AcDbArc
 50
180.0
 51
270.0079761968888
  0
ARC
  5
27D9
330
1F
100
AcDbEntity
  8
SANINDUSA
100
AcDbCircle
 10
4825.969670132248
 20
3130.625359464572
 30
0.0
 40
0.0025908912683389
100
AcDbArc
 50
90.01046904504525
 51
180.0
  0
LWPOLYLINE
  5
27E5
330
1F
100
AcDbEntity
  8
SANINDUSA
100
AcDbPolyline
 90
        3
 70
   128
 43
0.0
 10
4825.969669658842
 20
3130.627950355796
 10
4825.977669451538
 20
3130.627951994924
 10
4825.980668936076
 20
3130.627952620773
  0
LWPOLYLINE
  5
27E8
330
1F
100
AcDbEntity
  8
SANINDUSA
100
AcDbPolyline
 90
        3
 70
   128
 43
0.0
 10
4825.967078838649
 20
3130.61436013916
 10
4825.967079136672
 20
3130.6223592315
 10
4825.967079240981
 20
3130.625359550504
  0
ARC
  5
27EE
330
1F
100
AcDbEntity
  8
SANINDUSA
100
AcDbCircle
 10
4826.370686767355
 20
3130.625361332671
 30
0.0
 40
0.0025908411023398
100
AcDbArc
 50
0.0
 51
89.99064017285512
  0
LWPOLYLINE
  5
27FB
330
1F
100
AcDbEntity
  8
SANINDUSA
100
AcDbPolyline
 90
        3
 70
   128
 43
0.0
 10
4826.359687809053
 20
3130.627954408912
 10
4826.367687586847
 20
3130.627952769784
 10
4826.370687190595
 20
3130.627952173738
  0
LWPOLYLINE
  5
27FD
330
1F
100
AcDbEntity
  8
SANINDUSA
100
AcDbPolyline
 90
        3
 70
   128
 43
0.0
 10
4826.373277608457
 20
3130.625361398248
 10
4826.37327790648
 20
3130.617362365513
 10
4826.373278025689
 20
3130.614362076311
  0
ARC
  5
27FF
330
1F
100
AcDbEntity
  8
SANINDUSA
100
AcDbCircle
 10
4825.98066946994
 20
3130.625363183865
 30
0.0
 40
0.002589436963295
100
AcDbArc
 50
0.0
 51
90.01181265467096
  0
LWPOLYLINE
  5
2802
330
1F
100
AcDbEntity
  8
SANINDUSA
100
AcDbPolyline
 90
        3
 70
   128
 43
0.0
 10
4825.983258906904
 20
3130.625363186388
 10
4825.983258519474
 20
3130.617364153652
 10
4825.983258370462
 20
3130.614363894252
  0
ARC
  5
2807
330
1F
100
AcDbEntity
  8
SANINDUSA
100
AcDbCircle
 10
4826.164677157628
 20
3130.67938625421
 30
0.0
 40
0.0025899218955262
100
AcDbArc
 50
180.0
 51
270.0136096752327
  0
ARC
  5
2808
330
1F
100
AcDbEntity
  8
SANINDUSA
100
AcDbCircle
 10
4826.175679210354
 20
3130.679386631455
 30
0.0
 40
0.0025902394875547
100
AcDbArc
 50
269.9920975390583
 51
359.9868047312086
  0
LWPOLYLINE
  5
280A
330
1F
100
AcDbEntity
  8
SANINDUSA
100
AcDbPolyline
 90
        3
 70
   128
 43
0.0
 10
4826.175678853097
 20
3130.676796391992
 10
4826.167678866688
 20
3130.676796391992
 10
4826.164677772823
 20
3130.676796332388
  0
ARC
  5
280E
330
1F
100
AcDbEntity
  8
SANINDUSA
100
AcDbCircle
 10
4826.359687253948
 20
3130.625364963448
 30
0.0
 40
0.0025894455241897
100
AcDbArc
 50
89.98771736335246
 51
180.0
  0
LWPOLYLINE
  5
2811
330
1F
100
AcDbEntity
  8
SANINDUSA
100
AcDbPolyline
 90
        3
 70
   128
 43
0.0
 10
4826.35709828526
 20
3130.614365771799
 10
4826.357097927633
 20
3130.62236474493
 10
4826.357097808424
 20
3130.625364974527
  0
ARC
  5
2815
330
1F
100
AcDbEntity
  8
SANINDUSA
100
AcDbCircle
 10
4825.969668342428
 20
3130.614360059504
 30
0.0
 40
0.0025895037806926
100
AcDbArc
 50
180.0
 51
270.0100042740944
  0
LWPOLYLINE
  5
2817
330
1F
100
AcDbEntity
  8
SANINDUSA
100
AcDbPolyline
 90
        3
 70
   128
 43
0.0
 10
4825.980667922798
 20
3130.611772969751
 10
4825.972668174806
 20
3130.611771181611
 10
4825.969668794575
 20
3130.611770555763
  0
ARC
  5
2819
330
1F
100
AcDbEntity
  8
SANINDUSA
100
AcDbCircle
 10
4826.370688580164
 20
3130.614361938384
 30
0.0
 40
0.0025894455292423
100
AcDbArc
 50
269.9877174154627
 51
0.0
  0
LWPOLYLINE
  5
281B
330
1F
100
AcDbEntity
  8
SANINDUSA
100
AcDbPolyline
 90
        3
 70
   128
 43
0.0
 10
4826.37068802506
 20
3130.611772492914
 10
4826.362688247266
 20
3130.611774191646
 10
4826.359688762727
 20
3130.611774847297
  0
ARC
  5
281D
330
1F
100
AcDbEntity
  8
SANINDUSA
100
AcDbCircle
 10
4825.980667454143
 20
3130.614363886028
 30
0.0
 40
0.0025909163193385
100
AcDbArc
 50
270.0103638866427
 51
0.0
  0
ARC
  5
2822
330
1F
100
AcDbEntity
  8
SANINDUSA
100
AcDbCircle
 10
4826.359689251745
 20
3130.614365813736
 30
0.0
 40
0.0025909664845662
100
AcDbArc
 50
180.0
 51
269.9891860374801
  0
ARC
  5
282E
330
1F
100
AcDbEntity
  8
SANINDUSA
100
AcDbCircle
 10
4826.034667683367
 20
3130.625374919765
 30
0.0
 40
0.0025911418903421
100
AcDbArc
 50
90.00941970177295
 51
180.0
  0
LWPOLYLINE
  5
2839
330
1F
100
AcDbEntity
  8
SANINDUSA
100
AcDbPolyline
 90
        3
 70
   128
 43
0.0
 10
4826.034667257371
 20
3130.62796606162
 10
4826.042666945759
 20
3130.627968207388
 10
4826.045667383972
 20
3130.627968982248
  0
LWPOLYLINE
  5
283C
330
1F
100
AcDbEntity
  8
SANINDUSA
100
AcDbPolyline
 90
        3
 70
   128
 43
0.0
 10
4826.032075826231
 20
3130.61437644103
 10
4826.032076362672
 20
3130.622375175743
 10
4826.032076541486
 20
3130.625375137119
  0
ARC
  5
283D
330
1F
100
AcDbEntity
  8
SANINDUSA
100
AcDbCircle
 10
4826.305688825785
 20
3130.625376263302
 30
0.0
 40
0.0025910500369045
100
AcDbArc
 50
0.0
 51
89.99261103304929
  0
ARC
  5
2848
330
1F
100
AcDbEntity
  8
SANINDUSA
100
AcDbCircle
 10
4825.904676381266
 20
3130.560354322974
 30
0.0
 40
0.0025901641599188
100
AcDbArc
 50
90.00526547596541
 51
180.0
  0
LWPOLYLINE
  5
2853
330
1F
100
AcDbEntity
  8
SANINDUSA
100
AcDbPolyline
 90
        3
 70
   128
 43
0.0
 10
4826.294689063135
 20
3130.627970114736
 10
4826.302688781324
 20
3130.627968058376
 10
4826.305689159933
 20
3130.627967313318
  0
LWPOLYLINE
  5
2855
330
1F
100
AcDbEntity
  8
SANINDUSA
100
AcDbPolyline
 90
        3
 70
   128
 43
0.0
 10
4826.308279875817
 20
3130.625376418619
 10
4826.308280352655
 20
3130.617377713708
 10
4826.308280591073
 20
3130.614377782134
  0
LWPOLYLINE
  5
2857
330
1F
100
AcDbEntity
  8
SANINDUSA
100
AcDbPolyline
 90
        3
 70
   128
 43
0.0
 10
4825.904676143232
 20
3130.562944487123
 10
4825.91267611474
 20
3130.562944785146
 10
4825.915674496594
 20
3130.56294496396
  0
LWPOLYLINE
  5
285A
330
1F
100
AcDbEntity
  8
SANINDUSA
100
AcDbPolyline
 90
        3
 70
   128
 43
0.0
 10
4825.902086425724
 20
3130.549354657917
 10
4825.902086261812
 20
3130.557353929071
 10
4825.902086217109
 20
3130.560354248075
  0
ARC
  5
285C
330
1F
100
AcDbEntity
  8
SANINDUSA
100
AcDbCircle
 10
4825.915674562946
 20
3130.560354925373
 30
0.0
 40
0.0025900385874765
100
AcDbArc
 50
0.0
 51
90.00146784033619
  0
LWPOLYLINE
  5
285E
330
1F
100
AcDbEntity
  8
SANINDUSA
100
AcDbPolyline
 90
        3
 70
   128
 43
0.0
 10
4825.918264601532
 20
3130.560354814319
 10
4825.918264661137
 20
3130.552355513362
 10
4825.918264690939
 20
3130.549355134754
  0
ARC
  5
2861
330
1F
100
AcDbEntity
  8
SANINDUSA
100
AcDbCircle
 10
4826.045668214884
 20
3130.625379812661
 30
0.0
 40
0.0025891697197389
100
AcDbArc
 50
0.0
 51
90.01838729561697
  0
LWPOLYLINE
  5
2863
330
1F
100
AcDbEntity
  8
SANINDUSA
100
AcDbPolyline
 90
        3
 70
   128
 43
0.0
 10
4826.048257384601
 20
3130.625379935293
 10
4826.048256848159
 20
3130.617381319789
 10
4826.048256639543
 20
3130.614381507425
  0
ARC
  5
286D
330
1F
100
AcDbEntity
  8
SANINDUSA
100
AcDbCircle
 10
4826.435681389601
 20
3130.56035578085
 30
0.0
 40
0.0025902560066422
100
AcDbArc
 50
0.0
 51
89.9943511492343
  0
LWPOLYLINE
  5
2870
330
1F
100
AcDbEntity
  8
SANINDUSA
100
AcDbPolyline
 90
        3
 70
   128
 43
0.0
 10
4826.424683217111
 20
3130.562946722297
 10
4826.432683173719
 20
3130.562946185856
 10
4826.435681644979
 20
3130.562946036844
  0
LWPOLYLINE
  5
2872
330
1F
100
AcDbEntity
  8
SANINDUSA
100
AcDbPolyline
 90
        3
 70
   128
 43
0.0
 10
4826.438271645608
 20
3130.560355767994
 10
4826.438271526399
 20
3130.552356496839
 10
4826.438271466795
 20
3130.549356148033
  0
ARC
  5
2875
330
1F
100
AcDbEntity
  8
SANINDUSA
100
AcDbCircle
 10
4826.294688424508
 20
3130.625380752799
 30
0.0
 40
0.0025893620157335
100
AcDbArc
 50
89.98586885790066
 51
180.0
  0
ARC
  5
2877
330
1F
100
AcDbEntity
  8
SANINDUSA
100
AcDbCircle
 10
4826.424682977283
 20
3130.560356842289
 30
0.0
 40
0.0025898800198323
100
AcDbArc
 50
89.99469429495425
 51
180.0
  0
LWPOLYLINE
  5
287A
330
1F
100
AcDbEntity
  8
SANINDUSA
100
AcDbPolyline
 90
        3
 70
   128
 43
0.0
 10
4826.292099777761
 20
3130.614382610111
 10
4826.292099241319
 20
3130.622381195812
 10
4826.292099062506
 20
3130.625381008176
  0
LWPOLYLINE
  5
287C
330
1F
100
AcDbEntity
  8
SANINDUSA
100
AcDbPolyline
 90
        3
 70
   128
 43
0.0
 10
4826.422093037668
 20
3130.549356952695
 10
4826.422093097272
 20
3130.55735622385
 10
4826.422093097272
 20
3130.560356632261
  0
ARC
  5
2881
330
1F
100
AcDbEntity
  8
SANINDUSA
100
AcDbCircle
 10
4825.904676589691
 20
3130.549354523235
 30
0.0
 40
0.0025901639704479
100
AcDbArc
 50
180.0
 51
269.9996831178258
  0
ARC
  5
2883
330
1F
100
AcDbEntity
  8
SANINDUSA
100
AcDbCircle
 10
4826.034664979182
 20
3130.614376487303
 30
0.0
 40
0.0025891529530107
100
AcDbArc
 50
180.0
 51
270.0174393587736
  0
LWPOLYLINE
  5
2885
330
1F
100
AcDbEntity
  8
SANINDUSA
100
AcDbPolyline
 90
        3
 70
   128
 43
0.0
 10
4825.915674764814
 20
3130.546764746694
 10
4825.907674793306
 20
3130.546764418868
 10
4825.904676575365
 20
3130.546764359264
  0
LWPOLYLINE
  5
2887
330
1F
100
AcDbEntity
  8
SANINDUSA
100
AcDbPolyline
 90
        3
 70
   128
 43
0.0
 10
4826.045665834251
 20
3130.611790523319
 10
4826.037666235271
 20
3130.61178822854
 10
4826.034665767256
 20
3130.61178733447
  0
ARC
  5
2888
330
1F
100
AcDbEntity
  8
SANINDUSA
100
AcDbCircle
 10
4825.91567448498
 20
3130.549354952643
 30
0.0
 40
0.0025902059634416
100
AcDbArc
 50
270.006189963167
 51
0.0
  0
ARC
  5
288C
330
1F
100
AcDbEntity
  8
SANINDUSA
100
AcDbCircle
 10
4826.305691279206
 20
3130.614377987358
 30
0.0
 40
0.0025893118749078
100
AcDbArc
 50
269.9847591709865
 51
0.0
  0
LWPOLYLINE
  5
2890
330
1F
100
AcDbEntity
  8
SANINDUSA
100
AcDbPolyline
 90
        3
 70
   128
 43
0.0
 10
4826.305690590444
 20
3130.611788675575
 10
4826.297690931859
 20
3130.611790851145
 10
4826.29469055325
 20
3130.611791685609
  0
ARC
  5
2894
330
1F
100
AcDbEntity
  8
SANINDUSA
100
AcDbCircle
 10
4826.435681369517
 20
3130.549355976466
 30
0.0
 40
0.00259009728347
100
AcDbArc
 50
269.9995009405388
 51
0.0
  0
LWPOLYLINE
  5
2897
330
1F
100
AcDbEntity
  8
SANINDUSA
100
AcDbPolyline
 90
        3
 70
   128
 43
0.0
 10
4826.435681346956
 20
3130.546765879183
 10
4826.427681330743
 20
3130.546766296415
 10
4826.424683038297
 20
3130.546766505031
  0
ARC
  5
289F
330
1F
100
AcDbEntity
  8
SANINDUSA
100
AcDbCircle
 10
4826.42468341907
 20
3130.549356886406
 30
0.0
 40
0.0025903814031853
100
AcDbArc
 50
180.0
 51
269.9915777918389
  0
ARC
  5
28A0
330
1F
100
AcDbEntity
  8
SANINDUSA
100
AcDbCircle
 10
4826.045665363967
 20
3130.614381798868
 30
0.0
 40
0.0025912755921986
100
AcDbArc
 50
270.0103984357147
 51
0.0
  0
ARC
  5
28A5
330
1F
100
AcDbEntity
  8
SANINDUSA
100
AcDbCircle
 10
4826.294690911379
 20
3130.614382819211
 30
0.0
 40
0.0025911336265416
100
AcDbArc
 50
180.0
 51
269.9920809680123
  0
ARC
  5
28B2
330
1F
100
AcDbEntity
  8
SANINDUSA
100
AcDbCircle
 10
4825.969667822645
 20
3130.560362268332
 30
0.0
 40
0.0025908913454874
100
AcDbArc
 50
90.01409555082842
 51
180.0
  0
LWPOLYLINE
  5
28B5
330
1F
100
AcDbEntity
  8
SANINDUSA
100
AcDbPolyline
 90
        3
 70
   128
 43
0.0
 10
4825.96966718525
 20
3130.562953159599
 10
4825.977666828933
 20
3130.562955156355
 10
4825.980665985646
 20
3130.562955931215
  0
LWPOLYLINE
  5
28B8
330
1F
100
AcDbEntity
  8
SANINDUSA
100
AcDbPolyline
 90
        3
 70
   128
 43
0.0
 10
4825.967076573673
 20
3130.54936252573
 10
4825.967076826993
 20
3130.557361796884
 10
4825.9670769313
 20
3130.560362235097
  0
ARC
  5
28C7
330
1F
100
AcDbEntity
  8
SANINDUSA
100
AcDbCircle
 10
4826.370689058447
 20
3130.560364490444
 30
0.0
 40
0.0025908745915898
100
AcDbArc
 50
0.0
 51
89.98726343131947
  0
LWPOLYLINE
  5
28CC
330
1F
100
AcDbEntity
  8
SANINDUSA
100
AcDbPolyline
 90
        3
 70
   128
 43
0.0
 10
4826.359690670076
 20
3130.562958106784
 10
4826.367690328661
 20
3130.562956080226
 10
4826.370689634385
 20
3130.56295536497
  0
LWPOLYLINE
  5
28CE
330
1F
100
AcDbEntity
  8
SANINDUSA
100
AcDbPolyline
 90
        3
 70
   128
 43
0.0
 10
4826.373279933038
 20
3130.560364440469
 10
4826.373280231061
 20
3130.552365199117
 10
4826.373280350271
 20
3130.549364790706
  0
ARC
  5
28D2
330
1F
100
AcDbEntity
  8
SANINDUSA
100
AcDbCircle
 10
4825.980666572219
 20
3130.560366636431
 30
0.0
 40
0.0025892948496819
100
AcDbArc
 50
0.0
 51
90.01297966280594
  0
LWPOLYLINE
  5
28D5
330
1F
100
AcDbEntity
  8
SANINDUSA
100
AcDbPolyline
 90
        3
 70
   128
 43
0.0
 10
4825.983255867067
 20
3130.560366526632
 10
4825.983255509439
 20
3130.552367315082
 10
4825.98325539023
 20
3130.549366906671
  0
ARC
  5
28D8
330
1F
100
AcDbEntity
  8
SANINDUSA
100
AcDbCircle
 10
4826.099670398765
 20
3130.625391007175
 30
0.0
 40
0.0025910582978906
100
AcDbArc
 50
90.00361650054124
 51
179.9884735867109
  0
LWPOLYLINE
  5
28E4
330
1F
100
AcDbEntity
  8
SANINDUSA
100
AcDbPolyline
 90
        3
 70
   128
 43
0.0
 10
4826.099670235219
 20
3130.627982065468
 10
4826.107670072618
 20
3130.627983615188
 10
4826.110671226087
 20
3130.627984181432
  0
LWPOLYLINE
  5
28E7
330
1F
100
AcDbEntity
  8
SANINDUSA
100
AcDbPolyline
 90
        3
 70
   128
 43
0.0
 10
4826.097078744474
 20
3130.614393815784
 10
4826.097079191509
 20
3130.622392043857
 10
4826.09707934052
 20
3130.625391528396
  0
ARC
  5
28E9
330
1F
100
AcDbEntity
  8
SANINDUSA
100
AcDbCircle
 10
4826.240686474122
 20
3130.625391820414
 30
0.0
 40
0.0025908411011245
100
AcDbArc
 50
0.0
 51
90.00118576778092
  0
ARC
  5
28F5
330
1F
100
AcDbEntity
  8
SANINDUSA
100
AcDbCircle
 10
4825.969666043939
 20
3130.549362412564
 30
0.0
 40
0.0025894702691418
100
AcDbArc
 50
180.0
 51
270.0097568027119
  0
LWPOLYLINE
  5
28F6
330
1F
100
AcDbEntity
  8
SANINDUSA
100
AcDbPolyline
 90
        3
 70
   128
 43
0.0
 10
4826.229685370031
 20
3130.627984688072
 10
4826.237685267035
 20
3130.62798325756
 10
4826.240686420503
 20
3130.627982661514
  0
LWPOLYLINE
  5
28FA
330
1F
100
AcDbEntity
  8
SANINDUSA
100
AcDbPolyline
 90
        3
 70
   128
 43
0.0
 10
4826.243277315202
 20
3130.625392154245
 10
4826.243277732435
 20
3130.617393926172
 10
4826.243277911249
 20
3130.614394471435
  0
LWPOLYLINE
  5
28FD
330
1F
100
AcDbEntity
  8
SANINDUSA
100
AcDbPolyline
 90
        3
 70
   128
 43
0.0
 10
4825.980665091577
 20
3130.546775803356
 10
4825.972665492597
 20
3130.546773687391
 10
4825.969666484895
 20
3130.546772942333
  0
ARC
  5
28FF
330
1F
100
AcDbEntity
  8
SANINDUSA
100
AcDbCircle
 10
4826.359690083762
 20
3130.56036881174
 30
0.0
 40
0.0025892951109323
100
AcDbArc
 50
89.98702612142697
 51
180.0
  0
LWPOLYLINE
  5
2904
330
1F
100
AcDbEntity
  8
SANINDUSA
100
AcDbPolyline
 90
        3
 70
   128
 43
0.0
 10
4826.357101265493
 20
3130.549369141845
 10
4826.357100907865
 20
3130.557368293791
 10
4826.357100788656
 20
3130.560368672399
  0
ARC
  5
2906
330
1F
100
AcDbEntity
  8
SANINDUSA
100
AcDbCircle
 10
4826.110672117302
 20
3130.625394744332
 30
0.0
 40
0.0025894372543276
100
AcDbArc
 50
0.0
 51
90.01971964948642
  0
LWPOLYLINE
  5
2908
330
1F
100
AcDbEntity
  8
SANINDUSA
100
AcDbPolyline
 90
        3
 70
   128
 43
0.0
 10
4826.113261554542
 20
3130.625395015268
 10
4826.113261196915
 20
3130.617396876602
 10
4826.113261047902
 20
3130.614397511272
  0
ARC
  5
290A
330
1F
100
AcDbEntity
  8
SANINDUSA
100
AcDbCircle
 10
4826.229684784387
 20
3130.625394975079
 30
0.0
 40
0.0025897130599978
100
AcDbArc
 50
89.98704300513388
 51
179.9885611058033
  0
LWPOLYLINE
  5
290F
330
1F
100
AcDbEntity
  8
SANINDUSA
100
AcDbPolyline
 90
        3
 70
   128
 43
0.0
 10
4826.227095548215
 20
3130.614398047714
 10
4826.227095190588
 20
3130.622396126775
 10
4826.227095071378
 20
3130.625395492105
  0
ARC
  5
2910
330
1F
100
AcDbEntity
  8
SANINDUSA
100
AcDbCircle
 10
4826.370690888077
 20
3130.549364669461
 30
0.0
 40
0.0025894621960313
100
AcDbArc
 50
269.9894051088
 51
0.0
  0
LWPOLYLINE
  5
2914
330
1F
100
AcDbEntity
  8
SANINDUSA
100
AcDbPolyline
 90
        3
 70
   128
 43
0.0
 10
4826.370690409246
 20
3130.546775207309
 10
4826.362690750661
 20
3130.546777233867
 10
4826.359691564146
 20
3130.54677803853
  0
ARC
  5
2916
330
1F
100
AcDbEntity
  8
SANINDUSA
100
AcDbCircle
 10
4825.980664298254
 20
3130.54936689521
 30
0.0
 40
0.0025910919751473
100
AcDbArc
 50
270.0175424327759
 51
0.0
  0
ARC
  5
291C
330
1F
100
AcDbEntity
  8
SANINDUSA
100
AcDbCircle
 10
4826.359692307294
 20
3130.549369080225
 30
0.0
 40
0.0025910418014367
100
AcDbArc
 50
180.0
 51
269.9835667330511
  0
ARC
  5
291F
330
1F
100
AcDbEntity
  8
SANINDUSA
100
AcDbCircle
 10
4826.099667989524
 20
3130.614394013708
 30
0.0
 40
0.0025892450584404
100
AcDbArc
 50
180.0
 51
270.0213360561272
  0
LWPOLYLINE
  5
2921
330
1F
100
AcDbEntity
  8
SANINDUSA
100
AcDbPolyline
 90
        3
 70
   128
 43
0.0
 10
4826.110670123402
 20
3130.611807063608
 10
4826.102670286003
 20
3130.61180542448
 10
4826.09966895372
 20
3130.611804768829
  0
ARC
  5
2922
330
1F
100
AcDbEntity
  8
SANINDUSA
100
AcDbCircle
 10
4826.164677288271
 20
3130.625399344261
 30
0.0
 40
0.002590440022873
100
AcDbArc
 50
89.99389680032866
 51
179.9863258904846
  0
LWPOLYLINE
  5
292D
330
1F
100
AcDbEntity
  8
SANINDUSA
100
AcDbPolyline
 90
        3
 70
   128
 43
0.0
 10
4826.164677564207
 20
3130.627989784269
 10
4826.172677580419
 20
3130.627989873676
 10
4826.175679002108
 20
3130.627989843874
  0
ARC
  5
292F
330
1F
100
AcDbEntity
  8
SANINDUSA
100
AcDbCircle
 10
4826.175679562119
 20
3130.625399688033
 30
0.0
 40
0.0025901559008401
100
AcDbArc
 50
0.0
 51
90.01238774294002
  0
ARC
  5
2931
330
1F
100
AcDbEntity
  8
SANINDUSA
100
AcDbCircle
 10
4826.240688331923
 20
3130.614394973968
 30
0.0
 40
0.0025895793745522
100
AcDbArc
 50
269.9854033052852
 51
359.9888811927594
  0
LWPOLYLINE
  5
2934
330
1F
100
AcDbEntity
  8
SANINDUSA
100
AcDbPolyline
 90
        3
 70
   128
 43
0.0
 10
4826.162086788716
 20
3130.614402816085
 10
4826.162086848321
 20
3130.622400746136
 10
4826.162086848321
 20
3130.625399962454
  0
LWPOLYLINE
  5
2935
330
1F
100
AcDbEntity
  8
SANINDUSA
100
AcDbPolyline
 90
        3
 70
   128
 43
0.0
 10
4826.178269717995
 20
3130.62540005186
 10
4826.178269747797
 20
3130.61740212181
 10
4826.178269777599
 20
3130.614402905492
  0
LWPOLYLINE
  5
2938
330
1F
100
AcDbEntity
  8
SANINDUSA
100
AcDbPolyline
 90
        3
 70
   128
 43
0.0
 10
4826.240687672201
 20
3130.611805394678
 10
4826.232687834802
 20
3130.611807033805
 10
4826.229686502519
 20
3130.611807629852
  0
ARC
  5
293B
330
1F
100
AcDbEntity
  8
SANINDUSA
100
AcDbCircle
 10
4826.110669922799
 20
3130.614398188792
 30
0.0
 40
0.0025911251915062
100
AcDbArc
 50
270.0044357772315
 51
359.9850184713858
  0
ARC
  5
293D
330
1F
100
AcDbEntity
  8
SANINDUSA
100
AcDbCircle
 10
4826.229686255601
 20
3130.614398337242
 30
0.0
 40
0.0025907074015434
100
AcDbArc
 50
180.0
 51
270.005460837134
  0
LWPOLYLINE
  5
2940
330
1F
100
AcDbEntity
  8
SANINDUSA
100
AcDbPolyline
 90
        3
 70
   128
 43
0.0
 10
4825.904677573743
 20
3130.497947648553
 10
4825.912677575054
 20
3130.497947678356
 10
4825.91567546517
 20
3130.497947737961
  0
ARC
  5
294B
330
1F
100
AcDbEntity
  8
SANINDUSA
100
AcDbCircle
 10
4825.904677685529
 20
3130.495357789457
 30
0.0
 40
0.0025898590989145
100
AcDbArc
 50
90.00247309835698
 51
180.0
  0
LWPOLYLINE
  5
294E
330
1F
100
AcDbEntity
  8
SANINDUSA
100
AcDbPolyline
 90
        3
 70
   128
 43
0.0
 10
4825.90208816916
 20
3130.484358713417
 10
4825.90208791584
 20
3130.492357924966
 10
4825.902087826434
 20
3130.495357677726
  0
ARC
  5
294F
330
1F
100
AcDbEntity
  8
SANINDUSA
100
AcDbCircle
 10
4825.915675516618
 20
3130.49535769937
 30
0.0
 40
0.0025900385902489
100
AcDbArc
 50
0.0
 51
90.00113813905091
  0
LWPOLYLINE
  5
2951
330
1F
100
AcDbEntity
  8
SANINDUSA
100
AcDbPolyline
 90
        3
 70
   128
 43
0.0
 10
4825.918265555205
 20
3130.495357558517
 10
4825.91826573402
 20
3130.487358287363
 10
4825.918265808526
 20
3130.484358474998
  0
ARC
  5
2954
330
1F
100
AcDbEntity
  8
SANINDUSA
100
AcDbCircle
 10
4826.435680185849
 20
3130.495358871023
 30
0.0
 40
0.0025900888530809
100
AcDbArc
 50
0.0
 51
89.99277429433265
  0
LWPOLYLINE
  5
295F
330
1F
100
AcDbEntity
  8
SANINDUSA
100
AcDbPolyline
 90
        3
 70
   128
 43
0.0
 10
4826.424682501855
 20
3130.497949287681
 10
4826.432682458463
 20
3130.49794901946
 10
4826.435680512491
 20
3130.497948959856
  0
LWPOLYLINE
  5
2961
330
1F
100
AcDbEntity
  8
SANINDUSA
100
AcDbPolyline
 90
        3
 70
   128
 43
0.0
 10
4826.438270274701
 20
3130.495358929424
 10
4826.438270036283
 20
3130.48735965827
 10
4826.438269976678
 20
3130.484359845905
  0
ARC
  5
2963
330
1F
100
AcDbEntity
  8
SANINDUSA
100
AcDbCircle
 10
4826.424682388473
 20
3130.495359340827
 30
0.0
 40
0.0025899468571235
100
AcDbArc
 50
89.99749172725158
 51
180.0
  0
LWPOLYLINE
  5
2966
330
1F
100
AcDbEntity
  8
SANINDUSA
100
AcDbPolyline
 90
        3
 70
   128
 43
0.0
 10
4826.422092203203
 20
3130.484359965114
 10
4826.422092382017
 20
3130.492359236269
 10
4826.422092441621
 20
3130.495359167842
  0
ARC
  5
2968
330
1F
100
AcDbEntity
  8
SANINDUSA
100
AcDbCircle
 10
4826.164676727363
 20
3130.61440317126
 30
0.0
 40
0.0025899386709325
100
AcDbArc
 50
180.0
 51
270.0158758440331
  0
ARC
  5
2969
330
1F
100
AcDbEntity
  8
SANINDUSA
100
AcDbCircle
 10
4826.175679513091
 20
3130.614403556849
 30
0.0
 40
0.0025902645903002
100
AcDbArc
 50
269.9906749303634
 51
359.985592204796
  0
LWPOLYLINE
  5
296B
330
1F
100
AcDbEntity
  8
SANINDUSA
100
AcDbPolyline
 90
        3
 70
   128
 43
0.0
 10
4826.175679091516
 20
3130.611813292293
 10
4826.167679105106
 20
3130.611813292293
 10
4826.164677444997
 20
3130.611813232688
  0
LWPOLYLINE
  5
296D
330
1F
100
AcDbEntity
  8
SANINDUSA
100
AcDbPolyline
 90
        3
 70
   128
 43
0.0
 10
4825.915676076117
 20
3130.481768384962
 10
4825.907676074805
 20
3130.48176835516
 10
4825.904678288999
 20
3130.481768414764
  0
ARC
  5
296F
330
1F
100
AcDbEntity
  8
SANINDUSA
100
AcDbCircle
 10
4825.904678349876
 20
3130.484358595481
 30
0.0
 40
0.0025901807183645
100
AcDbArc
 50
180.0
 51
269.9986533680073
  0
ARC
  5
2970
330
1F
100
AcDbEntity
  8
SANINDUSA
100
AcDbCircle
 10
4825.91567586166
 20
3130.484358331822
 30
0.0
 40
0.0025899468688756
100
AcDbArc
 50
270.0047442696634
 51
0.0
  0
ARC
  5
297B
330
1F
100
AcDbEntity
  8
SANINDUSA
100
AcDbCircle
 10
4826.034663492508
 20
3130.560381884697
 30
0.0
 40
0.0025914511787934
100
AcDbArc
 50
90.01625687388749
 51
180.0
  0
ARC
  5
297E
330
1F
100
AcDbEntity
  8
SANINDUSA
100
AcDbCircle
 10
4826.435679879399
 20
3130.48435967434
 30
0.0
 40
0.0025900972861919
100
AcDbArc
 50
269.9981824480579
 51
0.0
  0
LWPOLYLINE
  5
2980
330
1F
100
AcDbEntity
  8
SANINDUSA
100
AcDbPolyline
 90
        3
 70
   128
 43
0.0
 10
4826.034662757221
 20
3130.562973335771
 10
4826.042662147584
 20
3130.562976196794
 10
4826.045662764612
 20
3130.56297729948
  0
LWPOLYLINE
  5
2983
330
1F
100
AcDbEntity
  8
SANINDUSA
100
AcDbPolyline
 90
        3
 70
   128
 43
0.0
 10
4826.032071236673
 20
3130.549383029727
 10
4826.032071832719
 20
3130.557381973056
 10
4826.032072041336
 20
3130.560382053642
  0
LWPOLYLINE
  5
2986
330
1F
100
AcDbEntity
  8
SANINDUSA
100
AcDbPolyline
 90
        3
 70
   128
 43
0.0
 10
4826.435679797235
 20
3130.481769577055
 10
4826.427679840627
 20
3130.481769666462
 10
4826.424681965414
 20
3130.481769785671
  0
ARC
  5
2988
330
1F
100
AcDbEntity
  8
SANINDUSA
100
AcDbCircle
 10
4826.42468228374
 20
3130.484359866191
 30
0.0
 40
0.0025900805395197
100
AcDbArc
 50
180.0
 51
269.9929582433684
  0
ARC
  5
298B
330
1F
100
AcDbEntity
  8
SANINDUSA
100
AcDbCircle
 10
4826.305692800723
 20
3130.560383429546
 30
0.0
 40
0.002591426240956
100
AcDbArc
 50
0.0
 51
89.98429440002404
  0
LWPOLYLINE
  5
2998
330
1F
100
AcDbEntity
  8
SANINDUSA
100
AcDbPolyline
 90
        3
 70
   128
 43
0.0
 10
4826.294693533483
 20
3130.562978640585
 10
4826.30269295365
 20
3130.562975868969
 10
4826.305693511072
 20
3130.56297485569
  0
LWPOLYLINE
  5
299A
330
1F
100
AcDbEntity
  8
SANINDUSA
100
AcDbPolyline
 90
        3
 70
   128
 43
0.0
 10
4826.308284226957
 20
3130.560383633165
 10
4826.308284763399
 20
3130.552384749441
 10
4826.308285001817
 20
3130.549384668855
  0
ARC
  5
29A4
330
1F
100
AcDbEntity
  8
SANINDUSA
100
AcDbCircle
 10
4826.045663752042
 20
3130.560388405679
 30
0.0
 40
0.0025888939894241
100
AcDbArc
 50
0.0
 51
90.02185319786233
  0
ARC
  5
29A7
330
1F
100
AcDbEntity
  8
SANINDUSA
100
AcDbCircle
 10
4825.969666030256
 20
3130.495364614482
 30
0.0
 40
0.0025907827886893
100
AcDbArc
 50
90.01696807403549
 51
180.0
  0
LWPOLYLINE
  5
29B2
330
1F
100
AcDbEntity
  8
SANINDUSA
100
AcDbPolyline
 90
        3
 70
   128
 43
0.0
 10
4826.048252646032
 20
3130.560388431339
 10
4826.048252020183
 20
3130.552389666824
 10
4826.048251751962
 20
3130.549389705448
  0
LWPOLYLINE
  5
29B4
330
1F
100
AcDbEntity
  8
SANINDUSA
100
AcDbPolyline
 90
        3
 70
   128
 43
0.0
 10
4825.969665262999
 20
3130.497955397157
 10
4825.977664802375
 20
3130.497957542925
 10
4825.980663452449
 20
3130.497958436994
  0
LINE
  5
29B7
330
1F
100
AcDbEntity
  8
SANINDUSA
100
AcDbLine
 10
4825.967075083557
 20
3130.484365210323
 30
0.0
 11
4825.967075247469
 21
3130.49536453226
 31
0.0
  0
ARC
  5
29B9
330
1F
100
AcDbEntity
  8
SANINDUSA
100
AcDbCircle
 10
4826.034660097157
 20
3130.54938299209
 30
0.0
 40
0.0025888604845648
100
AcDbArc
 50
180.0
 51
270.0212758688315
  0
ARC
  5
29BB
330
1F
100
AcDbEntity
  8
SANINDUSA
100
AcDbCircle
 10
4826.294692670439
 20
3130.560389562741
 30
0.0
 40
0.0025890779874711
100
AcDbArc
 50
89.98090103523498
 51
180.0
  0
LWPOLYLINE
  5
29BF
330
1F
100
AcDbEntity
  8
SANINDUSA
100
AcDbPolyline
 90
        3
 70
   128
 43
0.0
 10
4826.04566094667
 20
3130.546798363714
 10
4826.037661675516
 20
3130.546795264272
 10
4826.034661058488
 20
3130.546794131784
  0
LWPOLYLINE
  5
29C1
330
1F
100
AcDbEntity
  8
SANINDUSA
100
AcDbPolyline
 90
        3
 70
   128
 43
0.0
 10
4826.292104486528
 20
3130.549391046552
 10
4826.292103830876
 20
3130.557389811067
 10
4826.292103592458
 20
3130.560389742641
  0
ARC
  5
29C5
330
1F
100
AcDbEntity
  8
SANINDUSA
100
AcDbCircle
 10
4826.370690864294
 20
3130.49536677559
 30
0.0
 40
0.0025909164878957
100
AcDbArc
 50
0.0
 51
89.9810647134063
  0
ARC
  5
29D0
330
1F
100
AcDbEntity
  8
SANINDUSA
100
AcDbCircle
 10
4826.305695990701
 20
3130.549384722277
 30
0.0
 40
0.0025890111169025
100
AcDbArc
 50
269.9807398583535
 51
0.0
  0
LWPOLYLINE
  5
29D4
330
1F
100
AcDbEntity
  8
SANINDUSA
100
AcDbPolyline
 90
        3
 70
   128
 43
0.0
 10
4826.35969329268
 20
3130.497960761575
 10
4826.367692772451
 20
3130.497958496599
 10
4826.370691720548
 20
3130.497957691936
  0
LWPOLYLINE
  5
29D6
330
1F
100
AcDbEntity
  8
SANINDUSA
100
AcDbPolyline
 90
        3
 70
   128
 43
0.0
 10
4826.373281780782
 20
3130.49536682704
 10
4826.373281959597
 20
3130.487367526083
 10
4826.373282019201
 20
3130.484367475299
  0
LWPOLYLINE
  5
29D8
330
1F
100
AcDbEntity
  8
SANINDUSA
100
AcDbPolyline
 90
        3
 70
   128
 43
0.0
 10
4826.305695120397
 20
3130.546795711307
 10
4826.297695819441
 20
3130.546798661737
 10
4826.294695262017
 20
3130.546799794225
  0
ARC
  5
29DA
330
1F
100
AcDbEntity
  8
SANINDUSA
100
AcDbCircle
 10
4825.980664042737
 20
3130.495369175729
 30
0.0
 40
0.0025892613321031
100
AcDbArc
 50
0.0
 51
90.01306204904846
  0
LWPOLYLINE
  5
29DE
330
1F
100
AcDbEntity
  8
SANINDUSA
100
AcDbPolyline
 90
        3
 70
   128
 43
0.0
 10
4825.983253304067
 20
3130.495369062213
 10
4825.983253035847
 20
3130.487369791059
 10
4825.983252976242
 20
3130.484369710473
  0
ARC
  5
29E2
330
1F
100
AcDbEntity
  8
SANINDUSA
100
AcDbCircle
 10
4825.969664453496
 20
3130.484365026621
 30
0.0
 40
0.0025893699464905
100
AcDbArc
 50
180.0
 51
270.0116474131998
  0
LWPOLYLINE
  5
29E4
330
1F
100
AcDbEntity
  8
SANINDUSA
100
AcDbPolyline
 90
        3
 70
   128
 43
0.0
 10
4825.980662945809
 20
3130.481778696565
 10
4825.972663466039
 20
3130.481776431589
 10
4825.969664979878
 20
3130.481775656728
  0
ARC
  5
29E8
330
1F
100
AcDbEntity
  8
SANINDUSA
100
AcDbCircle
 10
4826.045660183867
 20
3130.549389931707
 30
0.0
 40
0.0025915681046886
100
AcDbArc
 50
270.0168644268288
 51
0.0
  0
ARC
  5
29EA
330
1F
100
AcDbEntity
  8
SANINDUSA
100
AcDbCircle
 10
4826.359692639536
 20
3130.495371533379
 30
0.0
 40
0.0025892282790461
100
AcDbArc
 50
89.98554692102681
 51
180.0
  0
LWPOLYLINE
  5
29ED
330
1F
100
AcDbEntity
  8
SANINDUSA
100
AcDbPolyline
 90
        3
 70
   128
 43
0.0
 10
4826.357103828493
 20
3130.484372064857
 10
4826.357103530469
 20
3130.492371306209
 10
4826.35710341126
 20
3130.495371416597
  0
ARC
  5
29F1
330
1F
100
AcDbEntity
  8
SANINDUSA
100
AcDbCircle
 10
4826.294695862571
 20
3130.549391170203
 30
0.0
 40
0.002591376046824
100
AcDbArc
 50
180.0
 51
269.9867216414722
  0
ARC
  5
29F2
330
1F
100
AcDbEntity
  8
SANINDUSA
100
AcDbCircle
 10
4826.370692724058
 20
3130.48436721678
 30
0.0
 40
0.0025892951555523
100
AcDbArc
 50
269.9857079415707
 51
0.0
  0
LWPOLYLINE
  5
29F4
330
1F
100
AcDbEntity
  8
SANINDUSA
100
AcDbPolyline
 90
        3
 70
   128
 43
0.0
 10
4826.370692078176
 20
3130.481777921705
 10
4826.362692598405
 20
3130.481780127077
 10
4826.359693888726
 20
3130.481781021146
  0
ARC
  5
29F6
330
1F
100
AcDbEntity
  8
SANINDUSA
100
AcDbCircle
 10
4825.98066199278
 20
3130.484369679852
 30
0.0
 40
0.0025909834616556
100
AcDbArc
 50
270.0210748276343
 51
0.0
  0
ARC
  5
29FF
330
1F
100
AcDbEntity
  8
SANINDUSA
100
AcDbCircle
 10
4826.359694862041
 20
3130.484372054512
 30
0.0
 40
0.0025910335484992
100
AcDbArc
 50
180.0
 51
269.9784770245409
  0
LWPOLYLINE
  5
2A1A
330
1F
100
AcDbEntity
  8
SANINDUSA
100
AcDbPolyline
 90
        3
 70
   128
 43
0.0
 10
4825.904679600301
 20
3130.432957157879
 10
4825.912679601612
 20
3130.43295691946
 10
4825.915677283111
 20
3130.432956859855
  0
ARC
  5
2A25
330
1F
100
AcDbEntity
  8
SANINDUSA
100
AcDbCircle
 10
4826.099666776521
 20
3130.560404108962
 30
0.0
 40
0.0025914593751348
100
AcDbArc
 50
90.00918874933034
 51
179.9875147849183
  0
ARC
  5
2A29
330
1F
100
AcDbEntity
  8
SANINDUSA
100
AcDbCircle
 10
4825.915677459857
 20
3130.430366946571
 30
0.0
 40
0.0025899132902551
100
AcDbArc
 50
0.0
 51
90.00391008945367
  0
ARC
  5
2A2B
330
1F
100
AcDbEntity
  8
SANINDUSA
100
AcDbCircle
 10
4825.904679390343
 20
3130.430367620535
 30
0.0
 40
0.0025895373513644
100
AcDbArc
 50
89.99535447918026
 51
180.0
  0
LWPOLYLINE
  5
2A2D
330
1F
100
AcDbEntity
  8
SANINDUSA
100
AcDbPolyline
 90
        3
 70
   128
 43
0.0
 10
4826.099666360917
 20
3130.562995568304
 10
4826.107666019503
 20
3130.562997773675
 10
4826.11066779882
 20
3130.562998548536
  0
LWPOLYLINE
  5
2A30
330
1F
100
AcDbEntity
  8
SANINDUSA
100
AcDbPolyline
 90
        3
 70
   128
 43
0.0
 10
4826.097074542346
 20
3130.549406811981
 10
4826.097075108591
 20
3130.557405129461
 10
4826.097075317207
 20
3130.560404673604
  0
LWPOLYLINE
  5
2A31
330
1F
100
AcDbEntity
  8
SANINDUSA
100
AcDbPolyline
 90
        3
 70
   128
 43
0.0
 10
4825.918267373147
 20
3130.43036691883
 10
4825.918267626467
 20
3130.422368094711
 10
4825.918267715874
 20
3130.419369802265
  0
LWPOLYLINE
  5
2A34
330
1F
100
AcDbEntity
  8
SANINDUSA
100
AcDbPolyline
 90
        3
 70
   128
 43
0.0
 10
4825.902090136114
 20
3130.419370577125
 10
4825.902089927497
 20
3130.427369282035
 10
4825.902089852991
 20
3130.430367634086
  0
ARC
  5
2A39
330
1F
100
AcDbEntity
  8
SANINDUSA
100
AcDbCircle
 10
4826.240690123865
 20
3130.560405188107
 30
0.0
 40
0.0025911252569871
100
AcDbArc
 50
0.0
 51
89.99753810533771
  0
LWPOLYLINE
  5
2A44
330
1F
100
AcDbEntity
  8
SANINDUSA
100
AcDbPolyline
 90
        3
 70
   128
 43
0.0
 10
4826.229688767496
 20
3130.562999233989
 10
4826.237688485685
 20
3130.562997147827
 10
4826.2406902352
 20
3130.562996313362
  0
LWPOLYLINE
  5
2A47
330
1F
100
AcDbEntity
  8
SANINDUSA
100
AcDbPolyline
 90
        3
 70
   128
 43
0.0
 10
4826.243281249109
 20
3130.560405448465
 10
4826.243281845155
 20
3130.552407160787
 10
4826.24328202397
 20
3130.549407616643
  0
LWPOLYLINE
  5
2A51
330
1F
100
AcDbEntity
  8
SANINDUSA
100
AcDbPolyline
 90
        3
 70
   128
 43
0.0
 10
4826.424680832925
 20
3130.432957455902
 10
4826.432680849137
 20
3130.432957515506
 10
4826.435678545538
 20
3130.432957634715
  0
ARC
  5
2A54
330
1F
100
AcDbEntity
  8
SANINDUSA
100
AcDbCircle
 10
4826.435678501961
 20
3130.430367888532
 30
0.0
 40
0.0025897461843326
100
AcDbArc
 50
0.0
 51
89.99903590904347
  0
ARC
  5
2A56
330
1F
100
AcDbEntity
  8
SANINDUSA
100
AcDbCircle
 10
4826.424680702828
 20
3130.430367525768
 30
0.0
 40
0.0025899301369479
100
AcDbArc
 50
89.99712190110649
 51
180.0
  0
LWPOLYLINE
  5
2A58
330
1F
100
AcDbEntity
  8
SANINDUSA
100
AcDbPolyline
 90
        3
 70
   128
 43
0.0
 10
4826.438268248144
 20
3130.430367991714
 10
4826.438268009725
 20
3130.422369167594
 10
4826.438267890516
 20
3130.419370696334
  0
LWPOLYLINE
  5
2A5B
330
1F
100
AcDbEntity
  8
SANINDUSA
100
AcDbPolyline
 90
        3
 70
   128
 43
0.0
 10
4826.422090415063
 20
3130.419370159893
 10
4826.422090653482
 20
3130.427369043617
 10
4826.422090772691
 20
3130.430367574482
  0
ARC
  5
2A5C
330
1F
100
AcDbEntity
  8
SANINDUSA
100
AcDbCircle
 10
4826.110668919179
 20
3130.560409370476
 30
0.0
 40
0.0025891783020919
100
AcDbArc
 50
0.0
 51
90.02479237016279
  0
LWPOLYLINE
  5
2A5F
330
1F
100
AcDbEntity
  8
SANINDUSA
100
AcDbPolyline
 90
        3
 70
   128
 43
0.0
 10
4826.113258097473
 20
3130.560409590988
 10
4826.113257620636
 20
3130.552411422519
 10
4826.11325741202
 20
3130.549411997585
  0
ARC
  5
2A61
330
1F
100
AcDbEntity
  8
SANINDUSA
100
AcDbCircle
 10
4826.22968805547
 20
3130.560409587771
 30
0.0
 40
0.0025896463161854
100
AcDbArc
 50
89.98424651073763
 51
179.9854221691799
  0
LWPOLYLINE
  5
2A65
330
1F
100
AcDbEntity
  8
SANINDUSA
100
AcDbPolyline
 90
        3
 70
   128
 43
0.0
 10
4826.227099124494
 20
3130.549412683038
 10
4826.227098588052
 20
3130.557410851507
 10
4826.227098409238
 20
3130.560410246639
  0
LWPOLYLINE
  5
2A6D
330
1F
100
AcDbEntity
  8
SANINDUSA
100
AcDbPolyline
 90
        3
 70
   128
 43
0.0
 10
4825.915678013268
 20
3130.416780278472
 10
4825.907678011957
 20
3130.416780516891
 10
4825.904680211249
 20
3130.416780695705
  0
ARC
  5
2A6F
330
1F
100
AcDbEntity
  8
SANINDUSA
100
AcDbCircle
 10
4825.915678086604
 20
3130.419369907743
 30
0.0
 40
0.002589629271555
100
AcDbArc
 50
269.9983773923464
 51
0.0
  0
ARC
  5
2A70
330
1F
100
AcDbEntity
  8
SANINDUSA
100
AcDbCircle
 10
4825.904680082885
 20
3130.419370642475
 30
0.0
 40
0.002589946773096
100
AcDbArc
 50
180.0
 51
270.0028396936704
  0
ARC
  5
2A76
330
1F
100
AcDbEntity
  8
SANINDUSA
100
AcDbCircle
 10
4826.0996634867
 20
3130.549406977311
 30
0.0
 40
0.0025889443586838
100
AcDbArc
 50
180.0
 51
270.0273336810523
  0
LWPOLYLINE
  5
2A78
330
1F
100
AcDbEntity
  8
SANINDUSA
100
AcDbPolyline
 90
        3
 70
   128
 43
0.0
 10
4826.435677770677
 20
3130.416780814914
 10
4826.42767781407
 20
3130.416780576496
 10
4826.42468011767
 20
3130.416780576496
  0
ARC
  5
2A7A
330
1F
100
AcDbEntity
  8
SANINDUSA
100
AcDbCircle
 10
4826.43567791024
 20
3130.419370795187
 30
0.0
 40
0.002589980276199
100
AcDbArc
 50
269.9969125222901
 51
0.0
  0
LWPOLYLINE
  5
2A7C
330
1F
100
AcDbEntity
  8
SANINDUSA
100
AcDbPolyline
 90
        3
 70
   128
 43
0.0
 10
4826.110666308704
 20
3130.5468212817
 10
4826.102666679922
 20
3130.546818957118
 10
4826.09966472179
 20
3130.546818033247
  0
ARC
  5
2A7D
330
1F
100
AcDbEntity
  8
SANINDUSA
100
AcDbCircle
 10
4826.424680111138
 20
3130.419370272573
 30
0.0
 40
0.0025896960778304
100
AcDbArc
 50
180.0
 51
270.0001445016065
  0
ARC
  5
2A7E
330
1F
100
AcDbEntity
  8
SANINDUSA
100
AcDbCircle
 10
4826.24069281216
 20
3130.549408049573
 30
0.0
 40
0.0025892118442256
100
AcDbArc
 50
269.9785875503037
 51
359.9904197727251
  0
LWPOLYLINE
  5
2A80
330
1F
100
AcDbEntity
  8
SANINDUSA
100
AcDbPolyline
 90
        3
 70
   128
 43
0.0
 10
4826.240691844525
 20
3130.546818837909
 10
4826.232692245546
 20
3130.546821192293
 10
4826.229690198007
 20
3130.546821996956
  0
ARC
  5
2A82
330
1F
100
AcDbEntity
  8
SANINDUSA
100
AcDbCircle
 10
4826.0346586922
 20
3130.495387581541
 30
0.0
 40
0.0025915682491065
100
AcDbArc
 50
90.021480036641
 51
180.0
  0
LWPOLYLINE
  5
2A90
330
1F
100
AcDbEntity
  8
SANINDUSA
100
AcDbPolyline
 90
        3
 70
   128
 43
0.0
 10
4826.03206631929
 20
3130.484388664751
 10
4826.032066915336
 20
3130.492387697487
 10
4826.032067123953
 20
3130.495387658863
  0
LWPOLYLINE
  5
2A91
330
1F
100
AcDbEntity
  8
SANINDUSA
100
AcDbPolyline
 90
        3
 70
   128
 43
0.0
 10
4826.034657720629
 20
3130.497979149608
 10
4826.042656634155
 20
3130.497982815294
 10
4826.045657429996
 20
3130.497984186201
  0
ARC
  5
2A93
330
1F
100
AcDbEntity
  8
SANINDUSA
100
AcDbCircle
 10
4825.969665667972
 20
3130.430371818786
 30
0.0
 40
0.0025904652081641
100
AcDbArc
 50
90.01719673363311
 51
180.0
  0
LWPOLYLINE
  5
2A9E
330
1F
100
AcDbEntity
  8
SANINDUSA
100
AcDbPolyline
 90
        3
 70
   128
 43
0.0
 10
4825.969664890471
 20
3130.432962283878
 10
4825.977664385143
 20
3130.432964191227
 10
4825.980662409368
 20
3130.432965025692
  0
LWPOLYLINE
  5
2AA1
330
1F
100
AcDbEntity
  8
SANINDUSA
100
AcDbPolyline
 90
        3
 70
   128
 43
0.0
 10
4825.967075470988
 20
3130.419374332218
 10
4825.967075277272
 20
3130.427373275546
 10
4825.967075202766
 20
3130.430371925621
  0
ARC
  5
2AA6
330
1F
100
AcDbEntity
  8
SANINDUSA
100
AcDbCircle
 10
4826.110665994519
 20
3130.549412699275
 30
0.0
 40
0.0025914175940293
100
AcDbArc
 50
270.0069465512825
 51
359.9844857747626
  0
ARC
  5
2AA9
330
1F
100
AcDbEntity
  8
SANINDUSA
100
AcDbCircle
 10
4826.305697386201
 20
3130.495389328808
 30
0.0
 40
0.0025916687423281
100
AcDbArc
 50
0.0
 51
89.97761704972324
  0
ARC
  5
2AB4
330
1F
100
AcDbEntity
  8
SANINDUSA
100
AcDbCircle
 10
4826.229690207969
 20
3130.549413080462
 30
0.0
 40
0.0025910835058486
100
AcDbArc
 50
180.0087888816427
 51
269.9997797301513
  0
LWPOLYLINE
  5
2AB5
330
1F
100
AcDbEntity
  8
SANINDUSA
100
AcDbPolyline
 90
        3
 70
   128
 43
0.0
 10
4826.294698719087
 20
3130.497985855131
 10
4826.30269772202
 20
3130.497982308654
 10
4826.305698398653
 20
3130.497980997352
  0
LWPOLYLINE
  5
2AB7
330
1F
100
AcDbEntity
  8
SANINDUSA
100
AcDbPolyline
 90
        3
 70
   128
 43
0.0
 10
4826.308289054933
 20
3130.495389566211
 10
4826.308289591374
 20
3130.487390563278
 10
4826.308289829793
 20
3130.484390631704
  0
LWPOLYLINE
  5
2AC1
330
1F
100
AcDbEntity
  8
SANINDUSA
100
AcDbPolyline
 90
        3
 70
   128
 43
0.0
 10
4826.164677146974
 20
3130.56300668457
 10
4826.172677163186
 20
3130.563006773977
 10
4826.17567927033
 20
3130.563006744174
  0
ARC
  5
2AC4
330
1F
100
AcDbEntity
  8
SANINDUSA
100
AcDbCircle
 10
4826.164676880781
 20
3130.560416085781
 30
0.0
 40
0.0025905988029453
100
AcDbArc
 50
89.99411264081134
 51
179.9841340829684
  0
ARC
  5
2AC6
330
1F
100
AcDbEntity
  8
SANINDUSA
100
AcDbCircle
 10
4826.175679945867
 20
3130.560416554877
 30
0.0
 40
0.0025901893857089
100
AcDbArc
 50
0.0081288276862441
 51
90.01494307127529
  0
LWPOLYLINE
  5
2ACA
330
1F
100
AcDbEntity
  8
SANINDUSA
100
AcDbPolyline
 90
        3
 70
   128
 43
0.0
 10
4826.162086162868
 20
3130.549419656782
 10
4826.162086222473
 20
3130.557417586832
 10
4826.162086282078
 20
3130.56041680315
  0
LWPOLYLINE
  5
2ACC
330
1F
100
AcDbEntity
  8
SANINDUSA
100
AcDbPolyline
 90
        3
 70
   128
 43
0.0
 10
4826.178270135226
 20
3130.560416922359
 10
4826.178270224634
 20
3130.552418992309
 10
4826.178270224634
 20
3130.549419775991
  0
ARC
  5
2AD0
330
1F
100
AcDbEntity
  8
SANINDUSA
100
AcDbCircle
 10
4826.370691835371
 20
3130.430373649868
 30
0.0
 40
0.0025904818535514
100
AcDbArc
 50
0.0
 51
89.9840830931247
  0
LWPOLYLINE
  5
2ADB
330
1F
100
AcDbEntity
  8
SANINDUSA
100
AcDbPolyline
 90
        3
 70
   128
 43
0.0
 10
4826.359694782796
 20
3130.432967111854
 10
4826.367694202962
 20
3130.432964906483
 10
4826.370692555013
 20
3130.432964131622
  0
LWPOLYLINE
  5
2ADD
330
1F
100
AcDbEntity
  8
SANINDUSA
100
AcDbPolyline
 90
        3
 70
   128
 43
0.0
 10
4826.373282317224
 20
3130.43037371376
 10
4826.37328225762
 20
3130.422374710827
 10
4826.373282198015
 20
3130.419375881939
  0
ARC
  5
2AE1
330
1F
100
AcDbEntity
  8
SANINDUSA
100
AcDbCircle
 10
4825.980663209598
 20
3130.430375914818
 30
0.0
 40
0.0025891109975493
100
AcDbArc
 50
0.0
 51
90.0177087164495
  0
LWPOLYLINE
  5
2AE3
330
1F
100
AcDbEntity
  8
SANINDUSA
100
AcDbPolyline
 90
        3
 70
   128
 43
0.0
 10
4825.98325232059
 20
3130.430375740318
 10
4825.983252409997
 20
3130.422376737384
 10
4825.983252469602
 20
3130.419377848892
  0
ARC
  5
2AE6
330
1F
100
AcDbEntity
  8
SANINDUSA
100
AcDbCircle
 10
4826.034654929123
 20
3130.4843885552
 30
0.0
 40
0.0025886098355243
100
AcDbArc
 50
180.0
 51
270.0255064885202
  0
ARC
  5
2AE7
330
1F
100
AcDbEntity
  8
SANINDUSA
100
AcDbCircle
 10
4826.045658620446
 20
3130.495395584912
 30
0.0
 40
0.0025886015623673
100
AcDbArc
 50
0.0
 51
90.02634926700311
  0
LWPOLYLINE
  5
2AEA
330
1F
100
AcDbEntity
  8
SANINDUSA
100
AcDbPolyline
 90
        3
 70
   128
 43
0.0
 10
4826.045655582252
 20
3130.48180519083
 10
4826.037656817737
 20
3130.481801376133
 10
4826.034656081501
 20
3130.481799945621
  0
ARC
  5
2AEE
330
1F
100
AcDbEntity
  8
SANINDUSA
100
AcDbCircle
 10
4825.969664782541
 20
3130.419374179489
 30
0.0
 40
0.0025893115590964
100
AcDbArc
 50
180.0
 51
270.0159071622668
  0
LWPOLYLINE
  5
2AEF
330
1F
100
AcDbEntity
  8
SANINDUSA
100
AcDbPolyline
 90
        3
 70
   128
 43
0.0
 10
4826.048247222009
 20
3130.495395556478
 10
4826.048246536555
 20
3130.487396672754
 10
4826.048246298137
 20
3130.484396770982
  0
LWPOLYLINE
  5
2AF4
330
1F
100
AcDbEntity
  8
SANINDUSA
100
AcDbPolyline
 90
        3
 70
   128
 43
0.0
 10
4825.980662856403
 20
3130.41678743103
 10
4825.972663376631
 20
3130.416785523681
 10
4825.969665501419
 20
3130.41678486803
  0
ARC
  5
2AF6
330
1F
100
AcDbEntity
  8
SANINDUSA
100
AcDbCircle
 10
4826.359693962623
 20
3130.430378050731
 30
0.0
 40
0.0025890612528074
100
AcDbArc
 50
89.98184964951127
 51
180.0
  0
ARC
  5
2AFA
330
1F
100
AcDbEntity
  8
SANINDUSA
100
AcDbCircle
 10
4826.305701202882
 20
3130.484390509437
 30
0.0
 40
0.0025886269137512
100
AcDbArc
 50
269.9748716752907
 51
0.0
  0
ARC
  5
2AFC
330
1F
100
AcDbEntity
  8
SANINDUSA
100
AcDbCircle
 10
4826.294697674532
 20
3130.495397078079
 30
0.0
 40
0.0025887772628152
100
AcDbArc
 50
89.97688151408301
 51
180.0
  0
LINE
  5
2B00
330
1F
100
AcDbEntity
  8
SANINDUSA
100
AcDbLine
 10
4826.357104901376
 20
3130.419379935054
 30
0.0
 11
4826.357104901376
 21
3130.430377886085
 31
0.0
  0
LWPOLYLINE
  5
2B01
330
1F
100
AcDbEntity
  8
SANINDUSA
100
AcDbPolyline
 90
        3
 70
   128
 43
0.0
 10
4826.305700067583
 20
3130.481801882772
 10
4826.297701183858
 20
3130.481805548458
 10
4826.294700566831
 20
3130.481806949167
  0
LWPOLYLINE
  5
2B04
330
1F
100
AcDbEntity
  8
SANINDUSA
100
AcDbPolyline
 90
        3
 70
   128
 43
0.0
 10
4826.292109850946
 20
3130.484398469715
 10
4826.292109195295
 20
3130.492397353439
 10
4826.292108897272
 20
3130.495397195606
  0
ARC
  5
2B06
330
1F
100
AcDbEntity
  8
SANINDUSA
100
AcDbCircle
 10
4826.370692919573
 20
3130.419375815318
 30
0.0
 40
0.0025892784430473
100
AcDbArc
 50
269.9853383238581
 51
0.0
  0
LWPOLYLINE
  5
2B08
330
1F
100
AcDbEntity
  8
SANINDUSA
100
AcDbPolyline
 90
        3
 70
   128
 43
0.0
 10
4826.37069225699
 20
3130.41678653696
 10
4826.36269277722
 20
3130.416788563518
 10
4826.359694663587
 20
3130.416789397983
  0
ARC
  5
2B0D
330
1F
100
AcDbEntity
  8
SANINDUSA
100
AcDbCircle
 10
4825.980661954199
 20
3130.419377946278
 30
0.0
 40
0.0025905154047418
100
AcDbArc
 50
270.0199545102064
 51
0.0
  0
ARC
  5
2B11
330
1F
100
AcDbEntity
  8
SANINDUSA
100
AcDbCircle
 10
4826.164676051469
 20
3130.549420021454
 30
0.0
 40
0.0025898886270797
100
AcDbArc
 50
180.0
 51
270.020279834251
  0
LWPOLYLINE
  5
2B13
330
1F
100
AcDbEntity
  8
SANINDUSA
100
AcDbPolyline
 90
        3
 70
   128
 43
0.0
 10
4826.175679419342
 20
3130.546830192594
 10
4826.16767940313
 20
3130.546830222396
 10
4826.16467696816
 20
3130.546830132989
  0
ARC
  5
2B14
330
1F
100
AcDbEntity
  8
SANINDUSA
100
AcDbCircle
 10
4826.175679868193
 20
3130.54942054911
 30
0.0
 40
0.0025903565553433
100
AcDbArc
 50
269.9900719110329
 51
359.9828994618142
  0
ARC
  5
2B17
330
1F
100
AcDbEntity
  8
SANINDUSA
100
AcDbCircle
 10
4826.045654504287
 20
3130.484396984464
 30
0.0
 40
0.0025917938583171
100
AcDbArc
 50
270.0238301550947
 51
0.0
  0
ARC
  5
2B19
330
1F
100
AcDbEntity
  8
SANINDUSA
100
AcDbCircle
 10
4826.359695550447
 20
3130.419380046906
 30
0.0
 40
0.002590649074027
100
AcDbArc
 50
180.0
 51
269.9803858736962
  0
ARC
  5
2B1C
330
1F
100
AcDbEntity
  8
SANINDUSA
100
AcDbCircle
 10
4826.294701553063
 20
3130.484398651102
 30
0.0
 40
0.0025917021230582
100
AcDbArc
 50
180.0
 51
269.9781969842642
  0
ARC
  5
2B42
330
1F
100
AcDbEntity
  8
SANINDUSA
100
AcDbCircle
 10
4826.034654486626
 20
3130.430394948669
 30
0.0
 40
0.002591535003934
100
AcDbArc
 50
90.02799303158708
 51
180.0
  0
ARC
  5
2B45
330
1F
100
AcDbEntity
  8
SANINDUSA
100
AcDbCircle
 10
4826.09966202755
 20
3130.495416459943
 30
0.0
 40
0.0025917767979974
100
AcDbArc
 50
90.01291072099679
 51
179.9877482647106
  0
LWPOLYLINE
  5
2B51
330
1F
100
AcDbEntity
  8
SANINDUSA
100
AcDbPolyline
 90
        3
 70
   128
 43
0.0
 10
4826.032062504593
 20
3130.419396922378
 10
4826.032062832418
 20
3130.427395806102
 10
4826.032062951627
 20
3130.430395111828
  0
LWPOLYLINE
  5
2B52
330
1F
100
AcDbEntity
  8
SANINDUSA
100
AcDbPolyline
 90
        3
 70
   128
 43
0.0
 10
4826.034653220478
 20
3130.432986483364
 10
4826.042651627364
 20
3130.432990596084
 10
4826.045652363601
 20
3130.432992145805
  0
LWPOLYLINE
  5
2B54
330
1F
100
AcDbEntity
  8
SANINDUSA
100
AcDbPolyline
 90
        3
 70
   128
 43
0.0
 10
4826.099661443534
 20
3130.498008236675
 10
4826.107660744491
 20
3130.49801124671
 10
4826.110663358274
 20
3130.498012319593
  0
LWPOLYLINE
  5
2B57
330
1F
100
AcDbEntity
  8
SANINDUSA
100
AcDbPolyline
 90
        3
 70
   128
 43
0.0
 10
4826.09706932694
 20
3130.484419092922
 10
4826.097070012393
 20
3130.492417499809
 10
4826.097070250813
 20
3130.49541701415
  0
ARC
  5
2B5B
330
1F
100
AcDbEntity
  8
SANINDUSA
100
AcDbCircle
 10
4825.915679457071
 20
3130.365391446958
 30
0.0
 40
0.0025894956201823
100
AcDbArc
 50
0.0
 51
90.0124932661142
  0
LWPOLYLINE
  5
2B66
330
1F
100
AcDbEntity
  8
SANINDUSA
100
AcDbPolyline
 90
        3
 70
   128
 43
0.0
 10
4825.904680643382
 20
3130.367981180934
 10
4825.912680644695
 20
3130.36798100212
 10
4825.915678892436
 20
3130.367980942516
  0
LWPOLYLINE
  5
2B69
330
1F
100
AcDbEntity
  8
SANINDUSA
100
AcDbPolyline
 90
        3
 70
   128
 43
0.0
 10
4826.424678806367
 20
3130.367979929237
 10
4826.43267882258
 20
3130.367980167656
 10
4826.435676817003
 20
3130.367980286865
  0
ARC
  5
2B74
330
1F
100
AcDbEntity
  8
SANINDUSA
100
AcDbCircle
 10
4826.424678583261
 20
3130.365390032454
 30
0.0
 40
0.00258989679258
100
AcDbArc
 50
89.99506427743124
 51
179.9877920893944
  0
LWPOLYLINE
  5
2B77
330
1F
100
AcDbEntity
  8
SANINDUSA
100
AcDbPolyline
 90
        3
 70
   128
 43
0.0
 10
4825.918268952671
 20
3130.365391776352
 10
4825.918269012276
 20
3130.357394501953
 10
4825.918269027177
 20
3130.354397997646
  0
ARC
  5
2B79
330
1F
100
AcDbEntity
  8
SANINDUSA
100
AcDbCircle
 10
4825.904680105177
 20
3130.365391614205
 30
0.0
 40
0.0025895667848196
100
AcDbArc
 50
89.98809187942482
 51
179.9884991728225
  0
ARC
  5
2B7B
330
1F
100
AcDbEntity
  8
SANINDUSA
100
AcDbCircle
 10
4826.240694730548
 20
3130.495417664994
 30
0.0
 40
0.002591584989206
100
AcDbArc
 50
0.0093316615778877
 51
89.99132839237885
  0
ARC
  5
2B86
330
1F
100
AcDbEntity
  8
SANINDUSA
100
AcDbCircle
 10
4826.435677470238
 20
3130.365391058751
 30
0.0
 40
0.0025892281963311
100
AcDbArc
 50
0.0
 51
90.01445511127121
  0
LWPOLYLINE
  5
2B89
330
1F
100
AcDbEntity
  8
SANINDUSA
100
AcDbPolyline
 90
        3
 70
   128
 43
0.0
 10
4826.422088388506
 20
3130.35439650753
 10
4826.422088626924
 20
3130.362393841533
 10
4826.422088686529
 20
3130.365390584258
  0
LWPOLYLINE
  5
2B8A
330
1F
100
AcDbEntity
  8
SANINDUSA
100
AcDbPolyline
 90
        3
 70
   128
 43
0.0
 10
4826.229693118635
 20
3130.498013243465
 10
4826.237692538801
 20
3130.498010382442
 10
4826.240695122781
 20
3130.498009249954
  0
LWPOLYLINE
  5
2B8C
330
1F
100
AcDbEntity
  8
SANINDUSA
100
AcDbPolyline
 90
        3
 70
   128
 43
0.0
 10
4826.243286315503
 20
3130.495418087034
 10
4826.243286971155
 20
3130.487419709949
 10
4826.243287209574
 20
3130.484420195608
  0
LWPOLYLINE
  5
2B8F
330
1F
100
AcDbEntity
  8
SANINDUSA
100
AcDbPolyline
 90
        3
 70
   128
 43
0.0
 10
4825.902090314928
 20
3130.35439805725
 10
4825.902090493741
 20
3130.36239521244
 10
4825.902090538445
 20
3130.365392133979
  0
LWPOLYLINE
  5
2B90
330
1F
100
AcDbEntity
  8
SANINDUSA
100
AcDbPolyline
 90
        3
 70
   128
 43
0.0
 10
4826.438266698423
 20
3130.365391299514
 10
4826.438266638819
 20
3130.357393905906
 10
4826.438266638819
 20
3130.354397103576
  0
ARC
  5
2BA1
330
1F
100
AcDbEntity
  8
SANINDUSA
100
AcDbCircle
 10
4826.305701852148
 20
3130.430397313871
 30
0.0
 40
0.0025914347176232
100
AcDbArc
 50
0.0
 51
89.97488204522104
  0
LWPOLYLINE
  5
2BA4
330
1F
100
AcDbEntity
  8
SANINDUSA
100
AcDbPolyline
 90
        3
 70
   128
 43
0.0
 10
4826.308293286863
 20
3130.430397436409
 10
4826.308293704095
 20
3130.422398552684
 10
4826.308293823305
 20
3130.419399366168
  0
LWPOLYLINE
  5
2BA6
330
1F
100
AcDbEntity
  8
SANINDUSA
100
AcDbPolyline
 90
        3
 70
   128
 43
0.0
 10
4826.294703785482
 20
3130.432994351177
 10
4826.302702251973
 20
3130.432990238456
 10
4826.305702988211
 20
3130.43298874834
  0
ARC
  5
2BB0
330
1F
100
AcDbEntity
  8
SANINDUSA
100
AcDbCircle
 10
4826.110664725542
 20
3130.495423358754
 30
0.0
 40
0.0025889612004907
100
AcDbArc
 50
0.0
 51
90.03025873160657
  0
LWPOLYLINE
  5
2BB2
330
1F
100
AcDbEntity
  8
SANINDUSA
100
AcDbPolyline
 90
        3
 70
   128
 43
0.0
 10
4826.113253686729
 20
3130.495423630266
 10
4826.113253090682
 20
3130.487425402193
 10
4826.113252852263
 20
3130.484425977258
  0
ARC
  5
2BB6
330
1F
100
AcDbEntity
  8
SANINDUSA
100
AcDbCircle
 10
4826.229692105965
 20
3130.495423897999
 30
0.0
 40
0.0025893456644793
100
AcDbArc
 50
89.97759214103558
 51
179.9861407168662
  0
ARC
  5
2BB9
330
1F
100
AcDbEntity
  8
SANINDUSA
100
AcDbCircle
 10
4826.034650947381
 20
3130.419396794701
 30
0.0
 40
0.0025884427924816
100
AcDbArc
 50
180.0
 51
270.0298654037021
  0
LWPOLYLINE
  5
2BBC
330
1F
100
AcDbEntity
  8
SANINDUSA
100
AcDbPolyline
 90
        3
 70
   128
 43
0.0
 10
4826.227103594842
 20
3130.484426930932
 10
4826.227102998796
 20
3130.492425159006
 10
4826.227102760377
 20
3130.495424524335
  0
LWPOLYLINE
  5
2BBE
330
1F
100
AcDbEntity
  8
SANINDUSA
100
AcDbPolyline
 90
        3
 70
   128
 43
0.0
 10
4826.045651141706
 20
3130.416814074306
 10
4826.03765288383
 20
3130.416809842377
 10
4826.034652296605
 20
3130.41680835226
  0
ARC
  5
2BC2
330
1F
100
AcDbEntity
  8
SANINDUSA
100
AcDbCircle
 10
4825.969668061072
 20
3130.365393090967
 30
0.0
 40
0.0025897589326235
100
AcDbArc
 50
90.00948650706288
 51
179.9868863879021
  0
ARC
  5
2BCF
330
1F
100
AcDbEntity
  8
SANINDUSA
100
AcDbCircle
 10
4826.04565391317
 20
3130.430403903821
 30
0.0
 40
0.002588242447896
100
AcDbArc
 50
0.0
 51
90.03430274494188
  0
LWPOLYLINE
  5
2BD1
330
1F
100
AcDbEntity
  8
SANINDUSA
100
AcDbPolyline
 90
        3
 70
   128
 43
0.0
 10
4825.969667632285
 20
3130.367982849865
 10
4825.977667305771
 20
3130.367983863143
 10
4825.980664853158
 20
3130.367984339981
  0
ARC
  5
2BD4
330
1F
100
AcDbEntity
  8
SANINDUSA
100
AcDbCircle
 10
4826.099657995678
 20
3130.484419280533
 30
0.0
 40
0.0025886687455276
100
AcDbArc
 50
180.0
 51
270.0327772704433
  0
LWPOLYLINE
  5
2BD6
330
1F
100
AcDbEntity
  8
SANINDUSA
100
AcDbPolyline
 90
        3
 70
   128
 43
0.0
 10
4825.967079211178
 20
3130.354399368553
 10
4825.967078540626
 20
3130.362396940975
 10
4825.967078302207
 20
3130.3653936837
  0
LINE
  5
2BD7
330
1F
100
AcDbEntity
  8
SANINDUSA
100
AcDbLine
 10
4826.048242155614
 20
3130.430403754501
 30
0.0
 11
4826.048241499964
 21
3130.419405505447
 31
0.0
  0
LWPOLYLINE
  5
2BDA
330
1F
100
AcDbEntity
  8
SANINDUSA
100
AcDbPolyline
 90
        3
 70
   128
 43
0.0
 10
4826.110661570135
 20
3130.48183496335
 10
4826.10266229898
 20
3130.481831834106
 10
4826.099659476581
 20
3130.481830612211
  0
ARC
  5
2BDE
330
1F
100
AcDbEntity
  8
SANINDUSA
100
AcDbCircle
 10
4826.240698298342
 20
3130.484420625853
 30
0.0
 40
0.0025889112670999
100
AcDbArc
 50
269.9719329198036
 51
359.9904781361658
  0
ARC
  5
2BE0
330
1F
100
AcDbEntity
  8
SANINDUSA
100
AcDbCircle
 10
4826.305705363282
 20
3130.419399255717
 30
0.0
 40
0.0025884600241728
100
AcDbArc
 50
269.9698565882949
 51
0.0
  0
LWPOLYLINE
  5
2BE2
330
1F
100
AcDbEntity
  8
SANINDUSA
100
AcDbPolyline
 90
        3
 70
   128
 43
0.0
 10
4826.240697030129
 20
3130.481831714897
 10
4826.232697788778
 20
3130.48183484414
 10
4826.229694906774
 20
3130.481835946826
  0
ARC
  5
2BE4
330
1F
100
AcDbEntity
  8
SANINDUSA
100
AcDbCircle
 10
4826.370690646848
 20
3130.365393384862
 30
0.0
 40
0.002589763043126
100
AcDbArc
 50
0.0
 51
89.99338851735814
  0
LWPOLYLINE
  5
2BF0
330
1F
100
AcDbEntity
  8
SANINDUSA
100
AcDbPolyline
 90
        3
 70
   128
 43
0.0
 10
4826.305704001489
 20
3130.416810796051
 10
4826.297705654207
 20
3130.416814908771
 10
4826.294705037179
 20
3130.416816458492
  0
LWPOLYLINE
  5
2BF2
330
1F
100
AcDbEntity
  8
SANINDUSA
100
AcDbPolyline
 90
        3
 70
   128
 43
0.0
 10
4826.359693650308
 20
3130.36798523405
 10
4826.367693130078
 20
3130.36798368433
 10
4826.370690945688
 20
3130.367983147888
  0
LINE
  5
2BF4
330
1F
100
AcDbEntity
  8
SANINDUSA
100
AcDbLine
 10
4826.373280409876
 20
3130.3653936837
 30
0.0
 11
4826.373279754225
 21
3130.354398891716
 31
0.0
  0
ARC
  5
2BF8
330
1F
100
AcDbEntity
  8
SANINDUSA
100
AcDbCircle
 10
4826.294702423687
 20
3130.430405891514
 30
0.0
 40
0.0025884600208569
100
AcDbArc
 50
89.96985653618475
 51
180.0
  0
LWPOLYLINE
  5
2BFB
330
1F
100
AcDbEntity
  8
SANINDUSA
100
AcDbPolyline
 90
        3
 70
   128
 43
0.0
 10
4826.292114678922
 20
3130.419407830028
 10
4826.29211414248
 20
3130.427406594543
 10
4826.292113963667
 20
3130.430405900268
  0
ARC
  5
2BFF
330
1F
100
AcDbEntity
  8
SANINDUSA
100
AcDbCircle
 10
4826.424677616699
 20
3130.354396927153
 30
0.0
 40
0.0025892282273664
100
AcDbArc
 50
180.0092856222098
 51
270.0131359934315
  0
LWPOLYLINE
  5
2C03
330
1F
100
AcDbEntity
  8
SANINDUSA
100
AcDbPolyline
 90
        3
 70
   128
 43
0.0
 10
4826.435676578584
 20
3130.351808056621
 10
4826.427676562372
 20
3130.351807758598
 10
4826.424678210321
 20
3130.351807698993
  0
ARC
  5
2C04
330
1F
100
AcDbEntity
  8
SANINDUSA
100
AcDbCircle
 10
4825.980665880758
 20
3130.365395128737
 30
0.0
 40
0.0025892114477784
100
AcDbArc
 50
0.0
 51
90.02273943624294
  0
ARC
  5
2C06
330
1F
100
AcDbEntity
  8
SANINDUSA
100
AcDbCircle
 10
4825.915679389424
 20
3130.354398767331
 30
0.0
 40
0.0025896378661086
100
AcDbArc
 50
269.9899931725054
 51
359.9829706964652
  0
ARC
  5
2C08
330
1F
100
AcDbEntity
  8
SANINDUSA
100
AcDbCircle
 10
4826.4356769092
 20
3130.354397786307
 30
0.0
 40
0.0025897297074223
100
AcDbArc
 50
269.9926853422085
 51
359.9848951004728
  0
LWPOLYLINE
  5
2C09
330
1F
100
AcDbEntity
  8
SANINDUSA
100
AcDbPolyline
 90
        3
 70
   128
 43
0.0
 10
4825.91567893714
 20
3130.351809129505
 10
4825.907678935829
 20
3130.351809129505
 10
4825.904680255952
 20
3130.35180918911
  0
LWPOLYLINE
  5
2C0B
330
1F
100
AcDbEntity
  8
SANINDUSA
100
AcDbPolyline
 90
        3
 70
   128
 43
0.0
 10
4825.983255092206
 20
3130.365395114211
 10
4825.983255807462
 20
3130.357397303371
 10
4825.983256075684
 20
3130.354400381832
  0
ARC
  5
2C0D
330
1F
100
AcDbEntity
  8
SANINDUSA
100
AcDbCircle
 10
4825.904679559883
 20
3130.354398433998
 30
0.0
 40
0.002589244982371
100
AcDbArc
 50
180.0083367995313
 51
270.0154028917682
  0
ARC
  5
2C12
330
1F
100
AcDbEntity
  8
SANINDUSA
100
AcDbCircle
 10
4826.110661075546
 20
3130.484426740133
 30
0.0
 40
0.0025917768306311
100
AcDbArc
 50
270.0109337638857
 51
359.9831353126202
  0
ARC
  5
2C13
330
1F
100
AcDbEntity
  8
SANINDUSA
100
AcDbCircle
 10
4826.35969254179
 20
3130.365396222965
 30
0.0
 40
0.0025890113223118
100
AcDbArc
 50
89.97546807667701
 51
180.0
  0
LINE
  5
2C16
330
1F
100
AcDbEntity
  8
SANINDUSA
100
AcDbLine
 10
4826.357102874818
 20
3130.354401097088
 30
0.0
 11
4826.357103530469
 21
3130.365396306304
 31
0.0
  0
ARC
  5
2C17
330
1F
100
AcDbEntity
  8
SANINDUSA
100
AcDbCircle
 10
4826.229695004247
 20
3130.484427356264
 30
0.0
 40
0.002591409439047
100
AcDbArc
 50
180.0094050588047
 51
269.9978448781313
  0
ARC
  5
2C18
330
1F
100
AcDbEntity
  8
SANINDUSA
100
AcDbCircle
 10
4826.045649823019
 20
3130.419405750927
 30
0.0
 40
0.0025916769562387
100
AcDbArc
 50
270.0291530049566
 51
0.0
  0
ARC
  5
2C20
330
1F
100
AcDbEntity
  8
SANINDUSA
100
AcDbCircle
 10
4825.969668489605
 20
3130.354399540189
 30
0.0
 40
0.0025892784332608
100
AcDbArc
 50
180.0
 51
270.0245540180491
  0
ARC
  5
2C21
330
1F
100
AcDbEntity
  8
SANINDUSA
100
AcDbCircle
 10
4826.294706230608
 20
3130.41940800991
 30
0.0
 40
0.0025915516925337
100
AcDbArc
 50
180.0
 51
269.9736148811656
  0
LWPOLYLINE
  5
2C23
330
1F
100
AcDbEntity
  8
SANINDUSA
100
AcDbPolyline
 90
        3
 70
   128
 43
0.0
 10
4825.980666939321
 20
3130.351811275272
 10
4825.972667221132
 20
3130.351810500412
 10
4825.969669599238
 20
3130.351810261993
  0
LWPOLYLINE
  5
2C2C
330
1F
100
AcDbEntity
  8
SANINDUSA
100
AcDbPolyline
 90
        3
 70
   128
 43
0.0
 10
4826.164676550927
 20
3130.498023555068
 10
4826.17267656714
 20
3130.49802370408
 10
4826.17567965776
 20
3130.498023644475
  0
ARC
  5
2C30
330
1F
100
AcDbEntity
  8
SANINDUSA
100
AcDbCircle
 10
4826.16467627666
 20
3130.495432755695
 30
0.0
 40
0.0025907993888132
100
AcDbArc
 50
89.99393458022918
 51
179.981017527607
  0
ARC
  5
2C32
330
1F
100
AcDbEntity
  8
SANINDUSA
100
AcDbCircle
 10
4826.175680399789
 20
3130.495433313053
 30
0.0
 40
0.0025903315284256
100
AcDbArc
 50
0.0106128431663067
 51
90.01641299607888
  0
ARC
  5
2C34
330
1F
100
AcDbEntity
  8
SANINDUSA
100
AcDbCircle
 10
4826.370690525687
 20
3130.354399132717
 30
0.0
 40
0.0025892285487437
100
AcDbArc
 50
269.9776388838986
 51
0.0
  0
LWPOLYLINE
  5
2C37
330
1F
100
AcDbEntity
  8
SANINDUSA
100
AcDbPolyline
 90
        3
 70
   128
 43
0.0
 10
4826.162085328403
 20
3130.484436467676
 10
4826.162085417809
 20
3130.492434397726
 10
4826.162085477415
 20
3130.495433614044
  0
LWPOLYLINE
  5
2C38
330
1F
100
AcDbEntity
  8
SANINDUSA
100
AcDbPolyline
 90
        3
 70
   128
 43
0.0
 10
4826.178270731273
 20
3130.495433792857
 10
4826.178270790878
 20
3130.487435862808
 10
4826.17827082068
 20
3130.48443664649
  0
LWPOLYLINE
  5
2C3C
330
1F
100
AcDbEntity
  8
SANINDUSA
100
AcDbPolyline
 90
        3
 70
   128
 43
0.0
 10
4826.370689515176
 20
3130.351809904365
 10
4826.362689916196
 20
3130.351811096458
 10
4826.359692279401
 20
3130.3518116329
  0
ARC
  5
2C3F
330
1F
100
AcDbEntity
  8
SANINDUSA
100
AcDbCircle
 10
4825.980666421261
 20
3130.354400929699
 30
0.0
 40
0.0025896544793152
100
AcDbArc
 50
270.0114620050734
 51
359.9878780451804
  0
ARC
  5
2C40
330
1F
100
AcDbEntity
  8
SANINDUSA
100
AcDbCircle
 10
4826.359692721461
 20
3130.354401479533
 30
0.0
 40
0.002589846671121
100
AcDbArc
 50
180.0084610823757
 51
269.9902202166868
  0
LWPOLYLINE
  5
2C42
330
1F
100
AcDbEntity
  8
SANINDUSA
100
AcDbPolyline
 90
        3
 70
   128
 43
0.0
 10
4826.175679776969
 20
3130.481847122697
 10
4826.167679790559
 20
3130.481847122697
 10
4826.164676312509
 20
3130.481847003488
  0
ARC
  5
2C44
330
1F
100
AcDbEntity
  8
SANINDUSA
100
AcDbCircle
 10
4826.164675250527
 20
3130.484436925435
 30
0.0
 40
0.0025899221646762
100
AcDbArc
 50
180.0101276189546
 51
270.0234937836668
  0
ARC
  5
2C45
330
1F
100
AcDbEntity
  8
SANINDUSA
100
AcDbCircle
 10
4826.175680330477
 20
3130.484437613021
 30
0.0
 40
0.0025904903832796
100
AcDbArc
 50
269.9877576445423
 51
359.9786225162507
  0
ARC
  5
2C54
330
1F
100
AcDbEntity
  8
SANINDUSA
100
AcDbCircle
 10
4826.034653162821
 20
3130.365409477351
 30
0.0
 40
0.0025910755058696
100
AcDbArc
 50
90.0323346462755
 51
179.9894208721376
  0
LWPOLYLINE
  5
2C62
330
1F
100
AcDbEntity
  8
SANINDUSA
100
AcDbPolyline
 90
        3
 70
   128
 43
0.0
 10
4826.032062504593
 20
3130.354413673667
 10
4826.032062176767
 20
3130.362411961345
 10
4826.03206208736
 20
3130.365409955768
  0
LWPOLYLINE
  5
2C63
330
1F
100
AcDbEntity
  8
SANINDUSA
100
AcDbPolyline
 90
        3
 70
   128
 43
0.0
 10
4826.03465170056
 20
3130.368000552444
 10
4826.04264989883
 20
3130.368004307536
 10
4826.045649890009
 20
3130.368005797653
  0
ARC
  5
2C6C
330
1F
100
AcDbEntity
  8
SANINDUSA
100
AcDbCircle
 10
4826.305703845856
 20
3130.365412780601
 30
0.0
 40
0.0025910503616496
100
AcDbArc
 50
0.0087084755928344
 51
89.97415192903128
  0
LWPOLYLINE
  5
2C78
330
1F
100
AcDbEntity
  8
SANINDUSA
100
AcDbPolyline
 90
        3
 70
   128
 43
0.0
 10
4826.294706527296
 20
3130.368009195118
 10
4826.302704695764
 20
3130.368005261211
 10
4826.305705014767
 20
3130.3680038307
  0
LWPOLYLINE
  5
2C7A
330
1F
100
AcDbEntity
  8
SANINDUSA
100
AcDbPolyline
 90
        3
 70
   128
 43
0.0
 10
4826.308294896188
 20
3130.365413174419
 10
4826.308294776978
 20
3130.357414946346
 10
4826.30829465777
 20
3130.354417011528
  0
ARC
  5
2C7F
330
1F
100
AcDbEntity
  8
SANINDUSA
100
AcDbCircle
 10
4826.099656916285
 20
3130.430428875239
 30
0.0
 40
0.002592119389954
100
AcDbArc
 50
90.02113965273808
 51
179.9847909582122
  0
LWPOLYLINE
  5
2C8A
330
1F
100
AcDbEntity
  8
SANINDUSA
100
AcDbPolyline
 90
        3
 70
   128
 43
0.0
 10
4826.099655959907
 20
3130.433020994453
 10
4826.107654813829
 20
3130.433024749545
 10
4826.110658321681
 20
3130.433026060848
  0
LWPOLYLINE
  5
2C8D
330
1F
100
AcDbEntity
  8
SANINDUSA
100
AcDbPolyline
 90
        3
 70
   128
 43
0.0
 10
4826.097063962522
 20
3130.4194318507
 10
4826.097064558569
 20
3130.427430257587
 10
4826.097064796987
 20
3130.430429563312
  0
ARC
  5
2C96
330
1F
100
AcDbEntity
  8
SANINDUSA
100
AcDbCircle
 10
4826.240700004167
 20
3130.430430749233
 30
0.0
 40
0.002591735392801
100
AcDbArc
 50
0.0093604003571667
 51
89.98800386528015
  0
LWPOLYLINE
  5
2CA1
330
1F
100
AcDbEntity
  8
SANINDUSA
100
AcDbPolyline
 90
        3
 70
   128
 43
0.0
 10
4826.22969806582
 20
3130.433027491359
 10
4826.237697009149
 20
3130.433023915081
 10
4826.240700546804
 20
3130.433022484569
  0
LWPOLYLINE
  5
2CA3
330
1F
100
AcDbEntity
  8
SANINDUSA
100
AcDbPolyline
 90
        3
 70
   128
 43
0.0
 10
4826.243291739526
 20
3130.430431172638
 10
4826.243292335573
 20
3130.422432825355
 10
4826.243292573991
 20
3130.419433579235
  0
ARC
  5
2CAA
330
1F
100
AcDbEntity
  8
SANINDUSA
100
AcDbCircle
 10
4826.034651014401
 20
3130.354413493673
 30
0.0
 40
0.0025885098148173
100
AcDbArc
 50
180.0
 51
270.034977780688
  0
ARC
  5
2CAB
330
1F
100
AcDbEntity
  8
SANINDUSA
100
AcDbCircle
 10
4826.045651588458
 20
3130.365417555632
 30
0.0
 40
0.0025882425788942
100
AcDbArc
 50
0.0
 51
90.03759850779438
  0
LWPOLYLINE
  5
2CAE
330
1F
100
AcDbEntity
  8
SANINDUSA
100
AcDbPolyline
 90
        3
 70
   128
 43
0.0
 10
4826.045650307241
 20
3130.351829931526
 10
4826.037652138772
 20
3130.351826295643
 10
4826.034652594628
 20
3130.35182498434
  0
LWPOLYLINE
  5
2CB2
330
1F
100
AcDbEntity
  8
SANINDUSA
100
AcDbPolyline
 90
        3
 70
   128
 43
0.0
 10
4826.048239831033
 20
3130.365417406349
 10
4826.048239890639
 20
3130.357419059067
 10
4826.048239950242
 20
3130.354420647411
  0
ARC
  5
2CBC
330
1F
100
AcDbEntity
  8
SANINDUSA
100
AcDbCircle
 10
4826.11066004187
 20
3130.43043733393
 30
0.0
 40
0.0025887274898694
100
AcDbArc
 50
0.0
 51
90.03807260656898
  0
LWPOLYLINE
  5
2CBF
330
1F
100
AcDbEntity
  8
SANINDUSA
100
AcDbPolyline
 90
        3
 70
   128
 43
0.0
 10
4826.113248769345
 20
3130.430437609939
 10
4826.1132481733
 20
3130.422439381866
 10
4826.113247964683
 20
3130.419440016536
  0
ARC
  5
2CC1
330
1F
100
AcDbEntity
  8
SANINDUSA
100
AcDbCircle
 10
4826.305706247627
 20
3130.35441691067
 30
0.0
 40
0.0025884101450129
100
AcDbArc
 50
269.9647937681076
 51
0.0
  0
ARC
  5
2CC3
330
1F
100
AcDbEntity
  8
SANINDUSA
100
AcDbCircle
 10
4826.29470491288
 20
3130.365420869011
 30
0.0
 40
0.002588326610037
100
AcDbArc
 50
89.96426297343813
 51
180.0
  0
LWPOLYLINE
  5
2CC6
330
1F
100
AcDbEntity
  8
SANINDUSA
100
AcDbPolyline
 90
        3
 70
   128
 43
0.0
 10
4826.305704657141
 20
3130.351828501015
 10
4826.297706429067
 20
3130.351832196502
 10
4826.294706408086
 20
3130.351833627014
  0
LINE
  5
2CC9
330
1F
100
AcDbEntity
  8
SANINDUSA
100
AcDbLine
 10
4826.29211658627
 20
3130.354424402503
 30
0.0
 11
4826.29211658627
 21
3130.365420863418
 31
0.0
  0
ARC
  5
2CCB
330
1F
100
AcDbEntity
  8
SANINDUSA
100
AcDbCircle
 10
4826.099652372502
 20
3130.419431987943
 30
0.0
 40
0.0025884099841121
100
AcDbArc
 50
180.0
 51
270.0404873420507
  0
ARC
  5
2CCC
330
1F
100
AcDbEntity
  8
SANINDUSA
100
AcDbCircle
 10
4826.229696700299
 20
3130.430438379704
 30
0.0
 40
0.0025891120159627
100
AcDbArc
 50
89.96978170592285
 51
179.9866970193996
  0
LWPOLYLINE
  5
2CCF
330
1F
100
AcDbEntity
  8
SANINDUSA
100
AcDbPolyline
 90
        3
 70
   128
 43
0.0
 10
4826.110656652751
 20
3130.416848823814
 10
4826.102657888236
 20
3130.416845068721
 10
4826.09965420157
 20
3130.416843578605
  0
LWPOLYLINE
  5
2CD2
330
1F
100
AcDbEntity
  8
SANINDUSA
100
AcDbPolyline
 90
        3
 70
   128
 43
0.0
 10
4826.227108363214
 20
3130.419441566257
 10
4826.227107767167
 20
3130.42743979433
 10
4826.227107588354
 20
3130.430438980846
  0
ARC
  5
2CD5
330
1F
100
AcDbEntity
  8
SANINDUSA
100
AcDbCircle
 10
4826.2407038964
 20
3130.419434043906
 30
0.0
 40
0.0025886776324483
100
AcDbArc
 50
269.9654399348197
 51
359.989715320872
  0
LWPOLYLINE
  5
2CD8
330
1F
100
AcDbEntity
  8
SANINDUSA
100
AcDbPolyline
 90
        3
 70
   128
 43
0.0
 10
4826.240702334943
 20
3130.416845366744
 10
4826.232703570429
 20
3130.416849121837
 10
4826.229699675145
 20
3130.416850492744
  0
ARC
  5
2CE0
330
1F
100
AcDbEntity
  8
SANINDUSA
100
AcDbCircle
 10
4826.045648782868
 20
3130.354421098491
 30
0.0
 40
0.0025911674136408
100
AcDbArc
 50
270.0337068646029
 51
359.9900257413848
  0
ARC
  5
2CE5
330
1F
100
AcDbEntity
  8
SANINDUSA
100
AcDbCircle
 10
4826.110655845468
 20
3130.419440943069
 30
0.0
 40
0.0025921193804218
100
AcDbArc
 50
270.0178440466691
 51
359.979519828049
  0
ARC
  5
2CE6
330
1F
100
AcDbEntity
  8
SANINDUSA
100
AcDbCircle
 10
4826.294707586394
 20
3130.354424626879
 30
0.0
 40
0.0025910001328652
100
AcDbArc
 50
180.0
 51
269.9739436445045
  0
ARC
  5
2CE8
330
1F
100
AcDbEntity
  8
SANINDUSA
100
AcDbCircle
 10
4826.229699881197
 20
3130.419442010758
 30
0.0
 40
0.0025915180219642
100
AcDbArc
 50
180.0098281676405
 51
269.9954444214009
  0
LWPOLYLINE
  5
2CEE
330
1F
100
AcDbEntity
  8
SANINDUSA
100
AcDbPolyline
 90
        3
 70
   128
 43
0.0
 10
4826.164675835672
 20
3130.433040425567
 10
4826.172675822082
 20
3130.433040663986
 10
4826.175680015388
 20
3130.433040604381
  0
ARC
  5
2CF9
330
1F
100
AcDbEntity
  8
SANINDUSA
100
AcDbCircle
 10
4826.164675451946
 20
3130.43044946741
 30
0.0
 40
0.0025909581857474
100
AcDbArc
 50
89.9915144258229
 51
179.9788253552597
  0
ARC
  5
2CFB
330
1F
100
AcDbEntity
  8
SANINDUSA
100
AcDbCircle
 10
4826.175680899141
 20
3130.430450206105
 30
0.0
 40
0.0025903984271806
100
AcDbArc
 50
0.0114320938146722
 51
90.01954732101223
  0
LWPOLYLINE
  5
2CFE
330
1F
100
AcDbEntity
  8
SANINDUSA
100
AcDbPolyline
 90
        3
 70
   128
 43
0.0
 10
4826.162084285321
 20
3130.419453248768
 10
4826.162084434333
 20
3130.427451178817
 10
4826.162084493938
 20
3130.430450424938
  0
LWPOLYLINE
  5
2CFF
330
1F
100
AcDbEntity
  8
SANINDUSA
100
AcDbPolyline
 90
        3
 70
   128
 43
0.0
 10
4826.178271297518
 20
3130.430450722961
 10
4826.178271357122
 20
3130.422452792911
 10
4826.178271357122
 20
3130.419453606395
  0
LWPOLYLINE
  5
2D04
330
1F
100
AcDbEntity
  8
SANINDUSA
100
AcDbPolyline
 90
        3
 70
   128
 43
0.0
 10
4826.175680074992
 20
3130.416864082603
 10
4826.16768005878
 20
3130.416864022998
 10
4826.164675478044
 20
3130.416863844184
  0
ARC
  5
2D06
330
1F
100
AcDbEntity
  8
SANINDUSA
100
AcDbCircle
 10
4826.164674232655
 20
3130.419453791275
 30
0.0
 40
0.0025899473907057
100
AcDbArc
 50
180.012001580231
 51
270.0275509285341
  0
ARC
  5
2D07
330
1F
100
AcDbEntity
  8
SANINDUSA
100
AcDbCircle
 10
4826.175680841742
 20
3130.41945459806
 30
0.0
 40
0.0025905155704805
100
AcDbArc
 50
269.9830414100219
 51
359.9780668390096
  0
ARC
  5
2D1D
330
1F
100
AcDbEntity
  8
SANINDUSA
100
AcDbCircle
 10
4826.099652674431
 20
3130.365443639706
 30
0.0
 40
0.0025919604766335
100
AcDbArc
 50
90.02289790339338
 51
179.9830332287273
  0
LWPOLYLINE
  5
2D29
330
1F
100
AcDbEntity
  8
SANINDUSA
100
AcDbPolyline
 90
        3
 70
   128
 43
0.0
 10
4826.097060326638
 20
3130.354447529106
 10
4826.09706059486
 20
3130.362445697574
 10
4826.097060714069
 20
3130.365444407253
  0
LWPOLYLINE
  5
2D2A
330
1F
100
AcDbEntity
  8
SANINDUSA
100
AcDbPolyline
 90
        3
 70
   128
 43
0.0
 10
4826.09965163857
 20
3130.368035599975
 10
4826.107649985853
 20
3130.368039653091
 10
4826.110654208961
 20
3130.368041083603
  0
ARC
  5
2D2D
330
1F
100
AcDbEntity
  8
SANINDUSA
100
AcDbCircle
 10
4826.240704133611
 20
3130.365446682817
 30
0.0
 40
0.0025917186891438
100
AcDbArc
 50
0.011625552968077
 51
89.98310274374164
  0
LWPOLYLINE
  5
2D38
330
1F
100
AcDbEntity
  8
SANINDUSA
100
AcDbPolyline
 90
        3
 70
   128
 43
0.0
 10
4826.229702059332
 20
3130.368043825416
 10
4826.237700585427
 20
3130.368039951114
 10
4826.240704897943
 20
3130.368038401393
  0
LWPOLYLINE
  5
2D3A
330
1F
100
AcDbEntity
  8
SANINDUSA
100
AcDbPolyline
 90
        3
 70
   128
 43
0.0
 10
4826.243295852247
 20
3130.365447208671
 10
4826.24329615027
 20
3130.357449159412
 10
4826.243296209875
 20
3130.354450390129
  0
ARC
  5
2D3F
330
1F
100
AcDbEntity
  8
SANINDUSA
100
AcDbCircle
 10
4826.110656234111
 20
3130.365452423449
 30
0.0
 40
0.0025886609460929
100
AcDbArc
 50
0.0
 51
90.04482338154385
  0
LWPOLYLINE
  5
2D43
330
1F
100
AcDbEntity
  8
SANINDUSA
100
AcDbPolyline
 90
        3
 70
   128
 43
0.0
 10
4826.113244895044
 20
3130.365452692299
 10
4826.113244626823
 20
3130.357454583434
 10
4826.113244537416
 20
3130.354455635337
  0
ARC
  5
2D46
330
1F
100
AcDbEntity
  8
SANINDUSA
100
AcDbCircle
 10
4826.099648670135
 20
3130.354447718819
 30
0.0
 40
0.0025883435034588
100
AcDbArc
 50
180.0
 51
270.0478974679461
  0
LWPOLYLINE
  5
2D4A
330
1F
100
AcDbEntity
  8
SANINDUSA
100
AcDbPolyline
 90
        3
 70
   128
 43
0.0
 10
4826.110653493706
 20
3130.351864740638
 10
4826.102655116621
 20
3130.351860866336
 10
4826.099650833907
 20
3130.35185937622
  0
ARC
  5
2D4C
330
1F
100
AcDbEntity
  8
SANINDUSA
100
AcDbCircle
 10
4826.229700529741
 20
3130.365454579827
 30
0.0
 40
0.0025892460411664
100
AcDbArc
 50
89.96615269836512
 51
179.9810956668767
  0
LWPOLYLINE
  5
2D4F
330
1F
100
AcDbEntity
  8
SANINDUSA
100
AcDbPolyline
 90
        3
 70
   128
 43
0.0
 10
4826.227111641469
 20
3130.354458436756
 10
4826.227111403051
 20
3130.36245642641
 10
4826.227111283841
 20
3130.365455434112
  0
ARC
  5
2D50
330
1F
100
AcDbEntity
  8
SANINDUSA
100
AcDbCircle
 10
4826.240707615379
 20
3130.354450771478
 30
0.0
 40
0.0025885945241487
100
AcDbArc
 50
269.9583224604904
 51
359.991559240605
  0
LWPOLYLINE
  5
2D52
330
1F
100
AcDbEntity
  8
SANINDUSA
100
AcDbPolyline
 90
        3
 70
   128
 43
0.0
 10
4826.240705732408
 20
3130.351862177639
 10
4826.232707385126
 20
3130.351866111545
 10
4826.229702834192
 20
3130.351867542057
  0
ARC
  5
2D54
330
1F
100
AcDbEntity
  8
SANINDUSA
100
AcDbCircle
 10
4826.110652577111
 20
3130.354456701
 30
0.0
 40
0.0025919605238202
100
AcDbArc
 50
270.0202614914589
 51
359.9764433193069
  0
ARC
  5
2D59
330
1F
100
AcDbEntity
  8
SANINDUSA
100
AcDbCircle
 10
4826.2297031929
 20
3130.354459093547
 30
0.0
 40
0.002591551514863
100
AcDbArc
 50
180.0145213694116
 51
269.9920693995427
  0
LWPOLYLINE
  5
2D5E
330
1F
100
AcDbEntity
  8
SANINDUSA
100
AcDbPolyline
 90
        3
 70
   128
 43
0.0
 10
4826.164674762789
 20
3130.368057236462
 10
4826.172674749198
 20
3130.368057594089
 10
4826.175679955784
 20
3130.368057594089
  0
ARC
  5
2D69
330
1F
100
AcDbEntity
  8
SANINDUSA
100
AcDbCircle
 10
4826.16467443778
 20
3130.365466010904
 30
0.0
 40
0.0025912255773625
100
AcDbArc
 50
89.9928135854291
 51
179.9755509579773
  0
LWPOLYLINE
  5
2D6C
330
1F
100
AcDbEntity
  8
SANINDUSA
100
AcDbPolyline
 90
        3
 70
   128
 43
0.0
 10
4826.162083003822
 20
3130.354469940452
 10
4826.162083152834
 20
3130.362467870502
 10
4826.162083212437
 20
3130.365467116623
  0
ARC
  5
2D6D
330
1F
100
AcDbEntity
  8
SANINDUSA
100
AcDbCircle
 10
4826.175680975348
 20
3130.365467212441
 30
0.0
 40
0.002590381848222
100
AcDbArc
 50
0.0137011026023075
 51
90.02255142259661
  0
LWPOLYLINE
  5
2D6F
330
1F
100
AcDbEntity
  8
SANINDUSA
100
AcDbPolyline
 90
        3
 70
   128
 43
0.0
 10
4826.178271357122
 20
3130.365467831878
 10
4826.178271297518
 20
3130.357469901828
 10
4826.178271237913
 20
3130.354470774917
  0
LWPOLYLINE
  5
2D74
330
1F
100
AcDbEntity
  8
SANINDUSA
100
AcDbPolyline
 90
        3
 70
   128
 43
0.0
 10
4826.17567965776
 20
3130.351881131915
 10
4826.167679641548
 20
3130.351880893497
 10
4826.164674285951
 20
3130.351880595474
  0
ARC
  5
2D76
330
1F
100
AcDbEntity
  8
SANINDUSA
100
AcDbCircle
 10
4826.164672901105
 20
3130.354470492446
 30
0.0
 40
0.0025898973424582
100
AcDbArc
 50
180.0122116625404
 51
270.0306366870019
  0
ARC
  5
2D77
330
1F
100
AcDbEntity
  8
SANINDUSA
100
AcDbCircle
 10
4826.175680455128
 20
3130.354471914828
 30
0.0
 40
0.0025907830353843
100
AcDbArc
 50
269.9823660095851
 51
359.9747905917921
  0
CIRCLE
  5
2D8E
330
1F
100
AcDbEntity
  8
SANINDUSA
100
AcDbCircle
 10
4826.170178488794
 20
3130.210036155014
 30
0.0
 40
0.045297545258413
  0
CIRCLE
  5
2D8F
330
1F
100
AcDbEntity
  8
SANINDUSA
100
AcDbCircle
 10
4826.170178488794
 20
3130.210036155014
 30
0.0
 40
0.0349999999999999
  0
ARC
  5
2D9A
330
1F
100
AcDbEntity
  8
SANINDUSA
100
AcDbCircle
 10
4830.242629745989
 20
3130.462129183818
 30
0.0
 40
0.0341065772459989
100
AcDbArc
 50
272.0034242492321
 51
295.8339330013639
  0
LINE
  5
2D9C
330
1F
100
AcDbEntity
  8
SANINDUSA
100
AcDbLine
 10
4830.026219832539
 20
3130.429586559225
 30
0.0
 11
4830.093822049737
 21
3130.428043663193
 31
0.0
  0
LINE
  5
2D9D
330
1F
100
AcDbEntity
  8
SANINDUSA
100
AcDbLine
 10
4829.961236762643
 20
3130.431069716502
 30
0.0
 11
4830.003479826093
 21
3130.430105581571
 31
0.0
  0
LWPOLYLINE
  5
2D9E
330
1F
100
AcDbEntity
  8
SANINDUSA
100
AcDbPolyline
 90
        3
 70
   128
 43
0.0
 10
4829.896253692747
 20
3130.432552873779
 10
4829.911167639137
 20
3130.432212486554
 10
4829.938496726394
 20
3130.431588723947
  0
LINE
  5
2D9F
330
1F
100
AcDbEntity
  8
SANINDUSA
100
AcDbLine
 10
4829.83127062285
 20
3130.434036031056
 30
0.0
 11
4829.873513656497
 21
3130.433071881224
 31
0.0
  0
LINE
  5
2DA0
330
1F
100
AcDbEntity
  8
SANINDUSA
100
AcDbLine
 10
4829.766287552953
 20
3130.435519173432
 30
0.0
 11
4829.808530586601
 21
3130.434555038501
 31
0.0
  0
LWPOLYLINE
  5
2DA1
330
1F
100
AcDbEntity
  8
SANINDUSA
100
AcDbPolyline
 90
        3
 70
   128
 43
0.0
 10
4829.701304483056
 20
3130.437002330709
 10
4829.716568368316
 20
3130.436653956462
 10
4829.743547516704
 20
3130.436038195778
  0
LINE
  5
2DA2
330
1F
100
AcDbEntity
  8
SANINDUSA
100
AcDbLine
 10
4829.636321398258
 20
3130.438485487986
 30
0.0
 11
4829.678564431906
 21
3130.437521345605
 31
0.0
  0
LINE
  5
2DA3
330
1F
100
AcDbEntity
  8
SANINDUSA
100
AcDbLine
 10
4829.526373843492
 20
3130.440994895686
 30
0.0
 11
4829.613581347108
 21
3130.439004495431
 31
0.0
  0
LINE
  5
2E03
330
1F
100
AcDbEntity
  8
SANINDUSA
100
AcDbLine
 10
4829.636230128646
 20
3130.434486522962
 30
0.0
 11
4829.678473162294
 21
3130.43352238803
 31
0.0
  0
LWPOLYLINE
  5
2E07
330
1F
100
AcDbEntity
  8
SANINDUSA
100
AcDbPolyline
 90
        3
 70
   128
 43
0.0
 10
4829.701213198543
 20
3130.433003380586
 10
4829.739284950138
 20
3130.432134434272
 10
4829.74345623219
 20
3130.432039230753
  0
LINE
  5
2E0B
330
1F
100
AcDbEntity
  8
SANINDUSA
100
AcDbLine
 10
4829.76619626844
 20
3130.431520223309
 30
0.0
 11
4829.808439302087
 21
3130.430556073476
 31
0.0
  0
LINE
  5
2E0F
330
1F
100
AcDbEntity
  8
SANINDUSA
100
AcDbLine
 10
4829.831179368138
 20
3130.430037066032
 30
0.0
 11
4829.873422401786
 21
3130.4290729311
 31
0.0
  0
LINE
  5
2E13
330
1F
100
AcDbEntity
  8
SANINDUSA
100
AcDbLine
 10
4829.896162438036
 20
3130.428553908754
 30
0.0
 11
4829.938405471683
 21
3130.427589773823
 31
0.0
  0
LINE
  5
2E18
330
1F
100
AcDbEntity
  8
SANINDUSA
100
AcDbLine
 10
4829.961145507932
 20
3130.427070766379
 30
0.0
 11
4830.003388511777
 21
3130.426106616546
 31
0.0
  0
LINE
  5
2E1D
330
1F
100
AcDbEntity
  8
SANINDUSA
100
AcDbLine
 10
4830.026128577829
 20
3130.425587609102
 30
0.0
 11
4830.093706655145
 21
3130.42404524951
 31
0.0
  0
ARC
  5
2E1E
330
1F
100
AcDbEntity
  8
SANINDUSA
100
AcDbCircle
 10
4830.242632814269
 20
3130.462116892882
 30
0.0
 40
0.0380941820082332
100
AcDbArc
 50
272.005910750219
 51
295.8380666964503
  0
LINE
  5
2E1F
330
1F
100
AcDbEntity
  8
SANINDUSA
100
AcDbLine
 10
4829.52628257388
 20
3130.436995938111
 30
0.0
 11
4829.613490077496
 21
3130.435005545307
 31
0.0
  0
LINE
  5
2E22
330
1F
100
AcDbEntity
  8
SANINDUSA
100
AcDbLine
 10
4830.093706655145
 20
3130.424045234609
 30
0.0
 11
4830.12172906363
 21
3130.423066660453
 31
0.0
  0
LINE
  5
2E23
330
1F
100
AcDbEntity
  8
SANINDUSA
100
AcDbLine
 10
4830.215915071607
 20
3130.423066660453
 30
0.0
 11
4830.243966209531
 21
3130.424046232987
 31
0.0
  0
ARC
  5
2E24
330
1F
100
AcDbEntity
  8
SANINDUSA
100
AcDbCircle
 10
4830.248775967818
 20
3130.449432018703
 30
0.0
 40
0.0200000524070725
100
AcDbArc
 50
295.8367884174739
 51
350.0001304050329
  0
LINE
  5
2E25
330
1F
100
AcDbEntity
  8
SANINDUSA
100
AcDbLine
 10
4830.287510680795
 20
3130.553931865066
 30
0.0
 11
4830.268472174953
 21
3130.44595904868
 31
0.0
  0
ARC
  5
2E27
330
1F
100
AcDbEntity
  8
SANINDUSA
100
AcDbCircle
 10
4830.296373975027
 20
3130.552369031359
 30
0.0
 40
0.0090000000000003
100
AcDbArc
 50
90.0
 51
170.0000000033014
  0
LINE
  5
2E28
330
1F
100
AcDbEntity
  8
SANINDUSA
100
AcDbLine
 10
4830.296373951078
 20
3130.561369031358
 30
0.0
 11
4830.329977798104
 21
3130.561369031358
 31
0.0
  0
ARC
  5
2E29
330
1F
100
AcDbEntity
  8
SANINDUSA
100
AcDbCircle
 10
4830.329977802979
 20
3130.552369031359
 30
0.0
 40
0.0090000000000003
100
AcDbArc
 50
1.000000009720081
 51
90.0
  0
LINE
  5
2E2A
330
1F
100
AcDbEntity
  8
SANINDUSA
100
AcDbLine
 10
4830.338976430535
 20
3130.552526103024
 30
0.0
 11
4830.339520263315
 21
3130.521369032253
 31
0.0
  0
LINE
  5
2E2B
330
1F
100
AcDbEntity
  8
SANINDUSA
100
AcDbLine
 10
4830.339520263315
 20
3130.521369032253
 30
0.0
 11
4830.335519659161
 21
3130.521369032253
 31
0.0
  0
LINE
  5
2E2C
330
1F
100
AcDbEntity
  8
SANINDUSA
100
AcDbLine
 10
4830.334977018476
 20
3130.552456292946
 30
0.0
 11
4830.335519659161
 21
3130.521369032253
 31
0.0
  0
ARC
  5
2E2D
330
1F
100
AcDbEntity
  8
SANINDUSA
100
AcDbCircle
 10
4830.329977802979
 20
3130.552369031359
 30
0.0
 40
0.005
100
AcDbArc
 50
1.000000009720081
 51
90.0
  0
LINE
  5
2E2E
330
1F
100
AcDbEntity
  8
SANINDUSA
100
AcDbLine
 10
4830.296373951078
 20
3130.557369031169
 30
0.0
 11
4830.329977798104
 21
3130.557369031169
 31
0.0
  0
ARC
  5
2E2F
330
1F
100
AcDbEntity
  8
SANINDUSA
100
AcDbCircle
 10
4830.296373975027
 20
3130.552369031359
 30
0.0
 40
0.005
100
AcDbArc
 50
90.0
 51
170.0000000033014
  0
LINE
  5
2E30
330
1F
100
AcDbEntity
  8
SANINDUSA
100
AcDbLine
 10
4830.291449951769
 20
3130.553237272117
 30
0.0
 11
4830.272411393762
 21
3130.4452644956
 31
0.0
  0
ARC
  5
2E31
330
1F
100
AcDbEntity
  8
SANINDUSA
100
AcDbCircle
 10
4830.248775975302
 20
3130.449431981104
 30
0.0
 40
0.024000019607842
100
AcDbArc
 50
295.8367032561773
 51
350.0001797782867
  0
LINE
  5
2E32
330
1F
100
AcDbEntity
  8
SANINDUSA
100
AcDbLine
 10
4830.205561327577
 20
3130.411963641334
 30
0.0
 11
4830.215915071607
 21
3130.423066660453
 31
0.0
  0
LINE
  5
2E33
330
1F
100
AcDbEntity
  8
SANINDUSA
100
AcDbLine
 10
4830.132082807661
 20
3130.411963641334
 30
0.0
 11
4830.205561327577
 21
3130.411963641334
 31
0.0
  0
LINE
  5
2E34
330
1F
100
AcDbEntity
  8
SANINDUSA
100
AcDbLine
 10
4830.12172906363
 20
3130.423066660453
 30
0.0
 11
4830.132082807661
 21
3130.411963641334
 31
0.0
  0
ARC
  5
2E35
330
1F
100
AcDbEntity
  8
SANINDUSA
100
AcDbCircle
 10
4830.026311098256
 20
3130.433585489655
 30
0.0
 40
0.007999962941175
100
AcDbArc
 50
217.3745827394456
 51
268.6926742261803
  0
LINE
  5
2E36
330
1F
100
AcDbEntity
  8
SANINDUSA
100
AcDbLine
 10
4830.009700345636
 20
3130.428963333059
 30
0.0
 11
4830.019953655839
 21
3130.428729325224
 31
0.0
  0
ARC
  5
2E37
330
1F
100
AcDbEntity
  8
SANINDUSA
100
AcDbCircle
 10
4830.003571075613
 20
3130.434104513865
 30
0.0
 40
0.0079999806934548
100
AcDbArc
 50
268.6923661745146
 51
320.0103550661432
  0
ARC
  5
2E38
330
1F
100
AcDbEntity
  8
SANINDUSA
100
AcDbCircle
 10
4829.961328028359
 20
3130.435068646932
 30
0.0
 40
0.0079999629412342
100
AcDbArc
 50
217.3745827394456
 51
268.6926742261803
  0
LINE
  5
2E39
330
1F
100
AcDbEntity
  8
SANINDUSA
100
AcDbLine
 10
4829.944717275739
 20
3130.430446490337
 30
0.0
 11
4829.954970585943
 21
3130.430212482501
 31
0.0
  0
ARC
  5
2E3A
330
1F
100
AcDbEntity
  8
SANINDUSA
100
AcDbCircle
 10
4829.938588008332
 20
3130.435587667266
 30
0.0
 40
0.0079999761973506
100
AcDbArc
 50
268.6925601792789
 51
320.0103643136127
  0
ARC
  5
2E3B
330
1F
100
AcDbEntity
  8
SANINDUSA
100
AcDbCircle
 10
4829.896345029425
 20
3130.436551928783
 30
0.0
 40
0.0080001039993732
100
AcDbArc
 50
217.3750680396881
 51
268.6921889537863
  0
LINE
  5
2E3C
330
1F
100
AcDbEntity
  8
SANINDUSA
100
AcDbLine
 10
4829.879734205842
 20
3130.431929647614
 30
0.0
 11
4829.889987516046
 21
3130.431695624877
 31
0.0
  0
ARC
  5
2E3D
330
1F
100
AcDbEntity
  8
SANINDUSA
100
AcDbCircle
 10
4829.873604938436
 20
3130.437070824543
 30
0.0
 40
0.0079999761969532
100
AcDbArc
 50
268.6925601792789
 51
320.0103643136127
  0
ARC
  5
2E3E
330
1F
100
AcDbEntity
  8
SANINDUSA
100
AcDbCircle
 10
4829.831361888565
 20
3130.438034946585
 30
0.0
 40
0.0079999629405647
100
AcDbArc
 50
217.3745827394456
 51
268.6926742261803
  0
LINE
  5
2E3F
330
1F
100
AcDbEntity
  8
SANINDUSA
100
AcDbLine
 10
4829.814751135946
 20
3130.433412804891
 30
0.0
 11
4829.825004446149
 21
3130.433178782154
 31
0.0
  0
ARC
  5
2E40
330
1F
100
AcDbEntity
  8
SANINDUSA
100
AcDbCircle
 10
4829.808621808602
 20
3130.438554070626
 30
0.0
 40
0.008000079189807
100
AcDbArc
 50
268.6927929120608
 51
320.010152902678
  0
ARC
  5
2E41
330
1F
100
AcDbEntity
  8
SANINDUSA
100
AcDbCircle
 10
4829.766378907818
 20
3130.439518337658
 30
0.0
 40
0.0080001993902366
100
AcDbArc
 50
217.3753962113473
 51
268.6918607821159
  0
LINE
  5
2E42
330
1F
100
AcDbEntity
  8
SANINDUSA
100
AcDbLine
 10
4829.749768066049
 20
3130.434895947267
 30
0.0
 11
4829.760021346451
 21
3130.434661939431
 31
0.0
  0
ARC
  5
2E43
330
1F
100
AcDbEntity
  8
SANINDUSA
100
AcDbCircle
 10
4829.743638796026
 20
3130.440037128073
 30
0.0
 40
0.0079999806936455
100
AcDbArc
 50
268.6923661745146
 51
320.0103550661432
  0
ARC
  5
2E44
330
1F
100
AcDbEntity
  8
SANINDUSA
100
AcDbCircle
 10
4829.70139571897
 20
3130.44100126114
 30
0.0
 40
0.0079999629413608
100
AcDbArc
 50
217.3745827394456
 51
268.6926742261803
  0
LINE
  5
2E45
330
1F
100
AcDbEntity
  8
SANINDUSA
100
AcDbLine
 10
4829.684784981251
 20
3130.436379104544
 30
0.0
 11
4829.695038276554
 21
3130.436145096708
 31
0.0
  0
ARC
  5
2E46
330
1F
100
AcDbEntity
  8
SANINDUSA
100
AcDbCircle
 10
4829.678655712537
 20
3130.441520283412
 30
0.0
 40
0.0079999784452864
100
AcDbArc
 50
268.6924631768968
 51
320.0103596898779
  0
ARC
  5
2E47
330
1F
100
AcDbEntity
  8
SANINDUSA
100
AcDbCircle
 10
4829.636412649072
 20
3130.442484403515
 30
0.0
 40
0.0079999629412072
100
AcDbArc
 50
217.3745827394456
 51
268.6926742261803
  0
LINE
  5
2E48
330
1F
100
AcDbEntity
  8
SANINDUSA
100
AcDbLine
 10
4829.619801911355
 20
3130.437862261821
 30
0.0
 11
4829.630055206656
 21
3130.437628239084
 31
0.0
  0
ARC
  5
2E49
330
1F
100
AcDbEntity
  8
SANINDUSA
100
AcDbCircle
 10
4829.613672641332
 20
3130.443003442627
 30
0.0
 40
0.0079999806931759
100
AcDbArc
 50
268.6923661745146
 51
320.0103550661432
  0
ARC
  5
2E4A
330
1F
100
AcDbEntity
  8
SANINDUSA
100
AcDbCircle
 10
4829.526830191074
 20
3130.460989683253
 30
0.0
 40
0.0239999935526629
100
AcDbArc
 50
190.000003175348
 51
268.6925464186316
  0
LINE
  5
2E4B
330
1F
100
AcDbEntity
  8
SANINDUSA
100
AcDbLine
 10
4829.503194811582
 20
3130.456822126795
 30
0.0
 11
4829.486194222063
 21
3130.553237272117
 31
0.0
  0
ARC
  5
2E4C
330
1F
100
AcDbEntity
  8
SANINDUSA
100
AcDbCircle
 10
4829.481270181667
 20
3130.552369031359
 30
0.0
 40
0.005
100
AcDbArc
 50
9.999999996698591
 51
90.0
  0
LINE
  5
2E4D
330
1F
100
AcDbEntity
  8
SANINDUSA
100
AcDbLine
 10
4829.447666353375
 20
3130.557369031169
 30
0.0
 11
4829.481270181775
 21
3130.557369031169
 31
0.0
  0
ARC
  5
2E4E
330
1F
100
AcDbEntity
  8
SANINDUSA
100
AcDbCircle
 10
4829.447666353715
 20
3130.552369031359
 30
0.0
 40
0.005
100
AcDbArc
 50
90.0
 51
178.9999999902799
  0
LINE
  5
2E4F
330
1F
100
AcDbEntity
  8
SANINDUSA
100
AcDbLine
 10
4829.4421244851
 20
3130.521369032253
 30
0.0
 11
4829.442667115309
 21
3130.552456292946
 31
0.0
  0
LINE
  5
2E50
330
1F
100
AcDbEntity
  8
SANINDUSA
100
AcDbLine
 10
4829.438123875767
 20
3130.521369032253
 30
0.0
 11
4829.438667724466
 21
3130.552526103024
 31
0.0
  0
ARC
  5
2E51
330
1F
100
AcDbEntity
  8
SANINDUSA
100
AcDbCircle
 10
4829.447666353715
 20
3130.552369031359
 30
0.0
 40
0.0090000000000001
100
AcDbArc
 50
90.0
 51
178.9999999902799
  0
LINE
  5
2E52
330
1F
100
AcDbEntity
  8
SANINDUSA
100
AcDbLine
 10
4829.447666353375
 20
3130.561369031358
 30
0.0
 11
4829.481270181775
 21
3130.561369031358
 31
0.0
  0
ARC
  5
2E53
330
1F
100
AcDbEntity
  8
SANINDUSA
100
AcDbCircle
 10
4829.481270181667
 20
3130.552369031359
 30
0.0
 40
0.0090000000000001
100
AcDbArc
 50
9.999999996698591
 51
90.0
  0
LINE
  5
2E55
330
1F
100
AcDbEntity
  8
SANINDUSA
100
AcDbLine
 10
4829.50713404606
 20
3130.457516717778
 30
0.0
 11
4829.490133452058
 21
3130.553931865066
 31
0.0
  0
ARC
  5
2E56
330
1F
100
AcDbEntity
  8
SANINDUSA
100
AcDbCircle
 10
4829.526830192854
 20
3130.460989680321
 30
0.0
 40
0.0199999916834668
100
AcDbArc
 50
189.9999887567023
 51
268.6925413622848
  0
ARC
  5
2E57
330
1F
100
AcDbEntity
  8
SANINDUSA
100
AcDbCircle
 10
4829.613672622413
 20
3130.443003447831
 30
0.0
 40
0.0039999939351115
100
AcDbArc
 50
268.6924620822728
 51
323.8427343347329
  0
ARC
  5
2E58
330
1F
100
AcDbEntity
  8
SANINDUSA
100
AcDbCircle
 10
4829.61932441616
 20
3130.438873427881
 30
0.0
 40
0.002999994447068
100
AcDbArc
 50
88.69242642974059
 51
143.8427010337006
  0
LINE
  5
2E59
330
1F
100
AcDbEntity
  8
SANINDUSA
100
AcDbLine
 10
4829.61939287448
 20
3130.441872641135
 30
0.0
 11
4829.630646782756
 21
3130.441615782369
 31
0.0
  0
ARC
  5
2E5A
330
1F
100
AcDbEntity
  8
SANINDUSA
100
AcDbCircle
 10
4829.630578336605
 20
3130.438616586768
 30
0.0
 40
0.0029999765216084
100
AcDbArc
 50
33.5421205206122
 51
88.69265113488372
  0
ARC
  5
2E5B
330
1F
100
AcDbEntity
  8
SANINDUSA
100
AcDbCircle
 10
4829.636412676975
 20
3130.442484477393
 30
0.0
 40
0.0040000310095681
100
AcDbArc
 50
213.5427639673251
 51
268.6924253351166
  0
ARC
  5
2E5C
330
1F
100
AcDbEntity
  8
SANINDUSA
100
AcDbCircle
 10
4829.6786557053
 20
3130.441520312606
 30
0.0
 40
0.0040000084892127
100
AcDbArc
 50
268.6924942425465
 51
323.8424954844993
  0
ARC
  5
2E5D
330
1F
100
AcDbEntity
  8
SANINDUSA
100
AcDbCircle
 10
4829.684307499508
 20
3130.437390272714
 30
0.0
 40
0.0029999920307907
100
AcDbArc
 50
88.69268240951454
 51
143.8427171995645
  0
LINE
  5
2E5E
330
1F
100
AcDbEntity
  8
SANINDUSA
100
AcDbLine
 10
4829.684375944377
 20
3130.440389483858
 30
0.0
 11
4829.695629852653
 21
3130.440132632543
 31
0.0
  0
ARC
  5
2E5F
330
1F
100
AcDbEntity
  8
SANINDUSA
100
AcDbCircle
 10
4829.695561373533
 20
3130.437133349403
 30
0.0
 40
0.0030000647901021
100
AcDbArc
 50
33.54300879809624
 51
88.69205979053575
  0
ARC
  5
2E60
330
1F
100
AcDbEntity
  8
SANINDUSA
100
AcDbCircle
 10
4829.701395750845
 20
3130.4410012911
 30
0.0
 40
0.0040000017513773
100
AcDbArc
 50
213.542415105144
 51
268.6925723237414
  0
ARC
  5
2E61
330
1F
100
AcDbEntity
  8
SANINDUSA
100
AcDbCircle
 10
4829.743638771346
 20
3130.440037200774
 30
0.0
 40
0.0040000460454297
100
AcDbArc
 50
268.6927751896907
 51
323.8422145366737
  0
ARC
  5
2E62
330
1F
100
AcDbEntity
  8
SANINDUSA
100
AcDbCircle
 10
4829.749290566113
 20
3130.435907159748
 30
0.0
 40
0.0029999555950032
100
AcDbArc
 50
88.69231900267967
 51
143.8430806337506
  0
LINE
  5
2E63
330
1F
100
AcDbEntity
  8
SANINDUSA
100
AcDbLine
 10
4829.749359029174
 20
3130.438906334032
 30
0.0
 11
4829.76061292255
 21
3130.438649475265
 31
0.0
  0
ARC
  5
2E64
330
1F
100
AcDbEntity
  8
SANINDUSA
100
AcDbCircle
 10
4829.760544432501
 20
3130.435650163106
 30
0.0
 40
0.003000094051893
100
AcDbArc
 50
33.54347399818119
 51
88.69186380550472
  0
ARC
  5
2E65
330
1F
100
AcDbEntity
  8
SANINDUSA
100
AcDbCircle
 10
4829.766378838865
 20
3130.43951815747
 30
0.0
 40
0.0040000258059813
100
AcDbArc
 50
213.5424650179963
 51
268.6923205661734
  0
ARC
  5
2E66
330
1F
100
AcDbEntity
  8
SANINDUSA
100
AcDbCircle
 10
4829.808621841244
 20
3130.438554043496
 30
0.0
 40
0.0040000460445181
100
AcDbArc
 50
268.6927751375941
 51
323.8422145366737
  0
ARC
  5
2E67
330
1F
100
AcDbEntity
  8
SANINDUSA
100
AcDbCircle
 10
4829.81427363601
 20
3130.434424002471
 30
0.0
 40
0.0029999555946819
100
AcDbArc
 50
88.69231894998842
 51
143.8430806337506
  0
LINE
  5
2E68
330
1F
100
AcDbEntity
  8
SANINDUSA
100
AcDbLine
 10
4829.814342099071
 20
3130.437423176755
 30
0.0
 11
4829.825596022249
 21
3130.437166325439
 31
0.0
  0
ARC
  5
2E69
330
1F
100
AcDbEntity
  8
SANINDUSA
100
AcDbCircle
 10
4829.825527609066
 20
3130.434167217375
 30
0.0
 40
0.0029998882549186
100
AcDbArc
 50
33.54123219969522
 51
88.69324253132822
  0
ARC
  5
2E6A
330
1F
100
AcDbEntity
  8
SANINDUSA
100
AcDbCircle
 10
4829.831361901567
 20
3130.438035020465
 30
0.0
 40
0.0040000310109807
100
AcDbArc
 50
213.5427639673251
 51
268.6924253351166
  0
ARC
  5
2E6B
330
1F
100
AcDbEntity
  8
SANINDUSA
100
AcDbCircle
 10
4829.873604948641
 20
3130.437070810235
 30
0.0
 40
0.003999970935745
100
AcDbArc
 50
268.6922132954023
 51
323.8427763805427
  0
ARC
  5
2E6C
330
1F
100
AcDbEntity
  8
SANINDUSA
100
AcDbCircle
 10
4829.879256704174
 20
3130.432940866883
 30
0.0
 40
0.0029999413995167
100
AcDbArc
 50
88.69227964890784
 51
143.843395570345
  0
LINE
  5
2E6D
330
1F
100
AcDbEntity
  8
SANINDUSA
100
AcDbLine
 10
4829.879325168968
 20
3130.435940026928
 30
0.0
 11
4829.890579092145
 21
3130.435683175612
 31
0.0
  0
ARC
  5
2E6E
330
1F
100
AcDbEntity
  8
SANINDUSA
100
AcDbCircle
 10
4829.890510623954
 20
3130.432683921491
 30
0.0
 40
0.0030000355300327
100
AcDbArc
 50
33.54254364852155
 51
88.69225572406492
  0
ARC
  5
2E6F
330
1F
100
AcDbEntity
  8
SANINDUSA
100
AcDbCircle
 10
4829.896344905526
 20
3130.436551688108
 30
0.0
 40
0.0039998544740518
100
AcDbArc
 50
213.5414315041277
 51
268.6933123770923
  0
ARC
  5
2E70
330
1F
100
AcDbEntity
  8
SANINDUSA
100
AcDbCircle
 10
4829.938587909959
 20
3130.435587910233
 30
0.0
 40
0.0040002256675658
100
AcDbArc
 50
268.6938522232058
 51
323.8411428596502
  0
ARC
  5
2E71
330
1F
100
AcDbEntity
  8
SANINDUSA
100
AcDbCircle
 10
4829.944239770956
 20
3130.431457754851
 30
0.0
 40
0.0029998969187329
100
AcDbArc
 50
88.69163143739914
 51
143.8434925444911
  0
LINE
  5
2E72
330
1F
100
AcDbEntity
  8
SANINDUSA
100
AcDbLine
 10
4829.944308268666
 20
3130.434456869651
 30
0.0
 11
4829.955562162042
 21
3130.434200018335
 31
0.0
  0
ARC
  5
2E73
330
1F
100
AcDbEntity
  8
SANINDUSA
100
AcDbCircle
 10
4829.955493671993
 20
3130.431200706175
 30
0.0
 40
0.0030000940517709
100
AcDbArc
 50
33.54347399818119
 51
88.69186380550472
  0
ARC
  5
2E74
330
1F
100
AcDbEntity
  8
SANINDUSA
100
AcDbCircle
 10
4829.961327953568
 20
3130.435068472804
 30
0.0
 40
0.0039997959628251
100
AcDbArc
 50
213.5407337580486
 51
268.6936064076272
  0
ARC
  5
2E75
330
1F
100
AcDbEntity
  8
SANINDUSA
100
AcDbCircle
 10
4830.003571118236
 20
3130.434104510581
 30
0.0
 40
0.0039999709348188
100
AcDbArc
 50
268.6922132954023
 51
323.8427763805427
  0
ARC
  5
2E76
330
1F
100
AcDbEntity
  8
SANINDUSA
100
AcDbCircle
 10
4830.009222840852
 20
3130.429974597573
 30
0.0
 40
0.0029998969189212
100
AcDbArc
 50
88.69163138530252
 51
143.8434925444911
  0
LINE
  5
2E77
330
1F
100
AcDbEntity
  8
SANINDUSA
100
AcDbLine
 10
4830.009291338563
 20
3130.432973712374
 30
0.0
 11
4830.020545231938
 21
3130.432716861058
 31
0.0
  0
ARC
  5
2E78
330
1F
100
AcDbEntity
  8
SANINDUSA
100
AcDbCircle
 10
4830.02047674189
 20
3130.429717548898
 30
0.0
 40
0.003000094052033
100
AcDbArc
 50
33.54347399818119
 51
88.69186380550472
  0
ARC
  5
2E79
330
1F
100
AcDbEntity
  8
SANINDUSA
100
AcDbCircle
 10
4830.026311023464
 20
3130.433585315526
 30
0.0
 40
0.0039997959623954
100
AcDbArc
 50
213.5407337580486
 51
268.6936064076272
  0
LINE
  5
2E7A
330
1F
100
AcDbEntity
  8
SANINDUSA
100
AcDbLine
 10
4830.093822049737
 20
3130.42804363339
 30
0.0
 11
4830.123524534345
 21
3130.427006408263
 31
0.0
  0
LINE
  5
2E7B
330
1F
100
AcDbEntity
  8
SANINDUSA
100
AcDbLine
 10
4830.123524534345
 20
3130.427006408263
 30
0.0
 11
4830.133822071196
 21
3130.415963634539
 31
0.0
  0
LINE
  5
2E7C
330
1F
100
AcDbEntity
  8
SANINDUSA
100
AcDbLine
 10
4830.133822071196
 20
3130.415963634539
 30
0.0
 11
4830.203822064042
 21
3130.415963634539
 31
0.0
  0
LINE
  5
2E7D
330
1F
100
AcDbEntity
  8
SANINDUSA
100
AcDbLine
 10
4830.203822064042
 20
3130.415963634539
 30
0.0
 11
4830.214119600892
 21
3130.427006408263
 31
0.0
  0
LINE
  5
2E7E
330
1F
100
AcDbEntity
  8
SANINDUSA
100
AcDbLine
 10
4830.214119600892
 20
3130.427006408263
 30
0.0
 11
4830.2438220855
 21
3130.42804363339
 31
0.0
  0
LINE
  5
2E7F
330
1F
100
AcDbEntity
  8
SANINDUSA
100
AcDbLine
 10
4830.214119600892
 20
3130.427006408263
 30
0.0
 11
4830.123524534345
 21
3130.427006408263
 31
0.0
  0
LINE
  5
304F
330
1F
100
AcDbEntity
  8
SANINDUSA
100
AcDbLine
 10
4829.481270181775
 20
3130.561369031358
 30
0.0
 11
4829.499981528909
 21
3130.561369031358
 31
0.0
  0
LINE
  5
3051
330
1F
100
AcDbEntity
  8
SANINDUSA
100
AcDbLine
 10
4830.277662622571
 20
3130.561369031358
 30
0.0
 11
4830.296373951078
 21
3130.561369031358
 31
0.0
  0
LINE
  5
3052
330
1F
100
AcDbEntity
  8
SANINDUSA
100
AcDbLine
 10
4829.499981528909
 20
3130.561369031358
 30
0.0
 11
4830.277662622571
 21
3130.561369031358
 31
0.0
  0
LINE
  5
3058
330
1F
100
AcDbEntity
  8
SANINDUSA
100
AcDbLine
 10
4829.44312433276
 20
3130.521369032253
 30
0.0
 11
4829.4421244851
 21
3130.521369032253
 31
0.0
  0
LINE
  5
305A
330
1F
100
AcDbEntity
  8
SANINDUSA
100
AcDbLine
 10
4830.335519659161
 20
3130.521369032253
 30
0.0
 11
4830.33451985085
 21
3130.521369032253
 31
0.0
  0
LINE
  5
305B
330
1F
100
AcDbEntity
  8
SANINDUSA
100
AcDbLine
 10
4830.33451985085
 20
3130.521369032253
 30
0.0
 11
4830.285830723882
 21
3130.521369032253
 31
0.0
  0
LINE
  5
305C
330
1F
100
AcDbEntity
  8
SANINDUSA
100
AcDbLine
 10
4829.49181344995
 20
3130.521369032253
 30
0.0
 11
4829.44312433276
 21
3130.521369032253
 31
0.0
  0
LINE
  5
30F3
330
1F
100
AcDbEntity
  8
SANINDUSA
100
AcDbLine
 10
4827.747645340823
 20
3130.521369032253
 30
0.0
 11
4827.735634263568
 21
3130.453250847448
 31
0.0
  0
LWPOLYLINE
  5
30F4
330
1F
100
AcDbEntity
  8
SANINDUSA
100
AcDbPolyline
 90
       31
 70
   128
 43
0.0
 10
4827.710912134462
 20
3130.425798505236
 10
4827.701146993749
 20
3130.42569564252
 10
4827.686222832614
 20
3130.425534382153
 10
4827.672206792944
 20
3130.42538073628
 10
4827.659099105709
 20
3130.42524161904
 10
4827.646899450535
 20
3130.425119369913
 10
4827.63537635278
 20
3130.425009786774
 10
4827.62435889613
 20
3130.424909785081
 10
4827.612823609226
 20
3130.424810409237
 10
4827.601900298112
 20
3130.424721911241
 10
4827.591589365118
 20
3130.42464286058
 10
4827.581559438222
 20
3130.424568995524
 10
4827.570759776943
 20
3130.424491136957
 10
4827.559112597221
 20
3130.424407437135
 10
4827.54661760103
 20
3130.424316927482
 10
4827.533274177426
 20
3130.42422001033
 10
4827.519081626051
 20
3130.42411980002
 10
4827.504081640356
 20
3130.424023434211
 10
4827.489759448879
 20
3130.423950031091
 10
4827.476399306172
 20
3130.423905715038
 10
4827.464002404326
 20
3130.423889085341
 10
4827.45256886255
 20
3130.423895135213
 10
4827.448272947186
 20
3130.423904061008
 10
4827.444129768722
 20
3130.42391754656
 10
4827.440139714592
 20
3130.423935547162
 10
4827.436338338965
 20
3130.42395836084
 10
4827.433650974148
 20
3130.423981487442
 10
4827.431259963625
 20
3130.424005731631
 10
4827.429166082256
 20
3130.424026623059
 10
4827.427369836681
 20
3130.424040183116
 10
4827.425706151837
 20
3130.424043625284
  0
LINE
  5
30F5
330
1F
100
AcDbEntity
  8
SANINDUSA
100
AcDbLine
 10
4827.747645340823
 20
3130.521369032253
 30
0.0
 11
4827.735634263568
 21
3130.453250847448
 31
0.0
  0
ARC
  5
30F7
330
1F
100
AcDbEntity
  8
SANINDUSA
100
AcDbCircle
 10
4829.016064896722
 20
3130.449432316453
 30
0.0
 40
0.0239998697372862
100
AcDbArc
 50
295.8483027519246
 51
350.0138921654742
  0
ARC
  5
30F8
330
1F
100
AcDbEntity
  8
SANINDUSA
100
AcDbCircle
 10
4829.010250195896
 20
3130.460625437288
 30
0.0
 40
0.0365715876967986
100
AcDbArc
 50
271.4087288425297
 51
296.3933777659006
  0
LINE
  5
30F9
330
1F
100
AcDbEntity
  8
SANINDUSA
100
AcDbLine
 10
4828.860995313533
 20
3130.424045229751
 30
0.0
 11
4828.889017771634
 21
3130.423066663951
 31
0.0
  0
LINE
  5
30FA
330
1F
100
AcDbEntity
  8
SANINDUSA
100
AcDbLine
 10
4828.983203748002
 20
3130.423066663951
 30
0.0
 11
4829.011254900098
 21
3130.424046231767
 31
0.0
  0
LINE
  5
30FB
330
1F
100
AcDbEntity
  8
SANINDUSA
100
AcDbLine
 10
4828.889017771634
 20
3130.423066663951
 30
0.0
 11
4828.899371510319
 21
3130.411963638554
 31
0.0
  0
LINE
  5
30FC
330
1F
100
AcDbEntity
  8
SANINDUSA
100
AcDbLine
 10
4828.972850009318
 20
3130.411963638554
 30
0.0
 11
4828.983203748002
 21
3130.423066663951
 31
0.0
  0
LINE
  5
30FF
330
1F
100
AcDbEntity
  8
SANINDUSA
100
AcDbLine
 10
4828.205412557221
 20
3130.521369032253
 30
0.0
 11
4828.20595640593
 21
3130.552526103911
 31
0.0
  0
LINE
  5
3102
330
1F
100
AcDbEntity
  8
SANINDUSA
100
AcDbLine
 10
4828.210411795697
 20
3130.521369032253
 30
0.0
 11
4829.101809723939
 21
3130.521369032253
 31
0.0
  0
LINE
  5
3104
330
1F
100
AcDbEntity
  8
SANINDUSA
100
AcDbLine
 10
4829.106265113706
 20
3130.552526103911
 30
0.0
 11
4829.106808962415
 21
3130.521369032253
 31
0.0
  0
LINE
  5
3105
330
1F
100
AcDbEntity
  8
SANINDUSA
100
AcDbLine
 10
4829.101809723939
 20
3130.521369032253
 30
0.0
 11
4829.106808962415
 21
3130.521369032253
 31
0.0
  0
ARC
  5
3106
330
1F
100
AcDbEntity
  8
SANINDUSA
100
AcDbCircle
 10
4828.214955035186
 20
3130.552369032253
 30
0.0
 40
0.0090000000000001
100
AcDbArc
 50
90.0
 51
178.9999999902799
  0
LINE
  5
3108
330
1F
100
AcDbEntity
  8
SANINDUSA
100
AcDbLine
 10
4828.214955035186
 20
3130.561369032253
 30
0.0
 11
4829.09726648445
 21
3130.561369032253
 31
0.0
  0
ARC
  5
310A
330
1F
100
AcDbEntity
  8
SANINDUSA
100
AcDbCircle
 10
4829.09726648445
 20
3130.552369032253
 30
0.0
 40
0.0090000000000001
100
AcDbArc
 50
1.000000009720081
 51
90.0
  0
LINE
  5
310C
330
1F
100
AcDbEntity
  8
SANINDUSA
100
AcDbLine
 10
4828.259102132599
 20
3130.521369032253
 30
0.0
 11
4828.270436746723
 21
3130.457087241233
 31
0.0
  0
LINE
  5
310D
330
1F
100
AcDbEntity
  8
SANINDUSA
100
AcDbLine
 10
4829.041108313962
 20
3130.453250851887
 30
0.0
 11
4829.053119387038
 21
3130.521369032253
 31
0.0
  0
ARC
  5
3115
330
1F
100
AcDbEntity
  8
SANINDUSA
100
AcDbCircle
 10
4828.294098254999
 20
3130.461084728132
 30
0.0
 40
0.0239961931134152
100
AcDbArc
 50
190.0003996843242
 51
269.0426995396936
  0
LINE
  5
3117
330
1F
100
AcDbEntity
  8
SANINDUSA
100
AcDbLine
 10
4829.040802125746
 20
3130.451514372218
 30
0.0
 11
4829.041108313962
 21
3130.453250851887
 31
0.0
  0
LINE
  5
3119
330
1F
100
AcDbEntity
  8
SANINDUSA
100
AcDbLine
 10
4829.040802125746
 20
3130.451514372218
 30
0.0
 11
4829.039705891567
 21
3130.445297319252
 31
0.0
  0
LINE
  5
311E
330
1F
100
AcDbEntity
  8
SANINDUSA
100
AcDbLine
 10
4828.889017771634
 20
3130.423066663951
 30
0.0
 11
4828.983203748002
 21
3130.423066663951
 31
0.0
  0
LINE
  5
311F
330
1F
100
AcDbEntity
  8
SANINDUSA
100
AcDbLine
 10
4828.899371510319
 20
3130.411963638554
 30
0.0
 11
4828.972850009318
 21
3130.411963638554
 31
0.0
  0
LINE
  5
3125
330
1F
100
AcDbEntity
  8
SANINDUSA
100
AcDbLine
 10
4828.293675642754
 20
3130.437092297908
 30
0.0
 11
4828.860995313533
 21
3130.424045229751
 31
0.0
  0
LINE
  5
3589
330
1F
100
AcDbEntity
  8
SANINDUSA
100
AcDbLine
 10
4825.78133793942
 20
3130.09134752811
 30
0.0
 11
4825.799422409538
 21
3130.10928402069
 31
0.0
  0
LINE
  5
358A
330
1F
100
AcDbEntity
  8
SANINDUSA
100
AcDbLine
 10
4825.771489862504
 20
3130.10119561079
 30
0.0
 11
4825.78912016392
 21
3130.118825889855
 31
0.0
  0
ENDSEC
  0
SECTION
  2
OBJECTS
  0
DICTIONARY
  5
C
330
0
100
AcDbDictionary
281
     1
  3
ACAD_COLOR
350
EE6
  3
ACAD_GROUP
350
D
  3
ACAD_LAYOUT
350
1A
  3
ACAD_MATERIAL
350
EE5
  3
ACAD_MLINESTYLE
350
17
  3
ACAD_PLOTSETTINGS
350
19
  3
ACAD_PLOTSTYLENAME
350
E
  3
ACAD_TABLESTYLE
350
EE7
  3
ACDBHEADERROUNDTRIPXREC
350
35B1
  3
AcDbVariableDictionary
350
3D
  3
ASE_INDEX_DICTIONARY
350
3576
  0
DICTIONARY
  5
1051
330
2
100
AcDbDictionary
280
     1
281
     1
  3
ACAD_LAYERFILTERS
360
1057
  3
ACLYDICTIONARY
360
1056
  0
DICTIONARY
  5
EE6
102
{ACAD_REACTORS
330
C
102
}
330
C
100
AcDbDictionary
281
     1
  0
DICTIONARY
  5
D
102
{ACAD_REACTORS
330
C
102
}
330
C
100
AcDbDictionary
281
     1
  0
DICTIONARY
  5
1A
102
{ACAD_REACTORS
330
C
102
}
330
C
100
AcDbDictionary
281
     1
  3
Layout1
350
1E
  3
Layout2
350
26
  3
Model
350
22
  0
DICTIONARY
  5
EE5
102
{ACAD_REACTORS
330
C
102
}
330
C
100
AcDbDictionary
281
     1
  0
DICTIONARY
  5
17
102
{ACAD_REACTORS
330
C
102
}
330
C
100
AcDbDictionary
281
     1
  3
Standard
350
18
  0
DICTIONARY
  5
19
102
{ACAD_REACTORS
330
C
102
}
330
C
100
AcDbDictionary
281
     1
  0
ACDBDICTIONARYWDFLT
  5
E
102
{ACAD_REACTORS
330
C
102
}
330
C
100
AcDbDictionary
281
     1
  3
Normal
350
F
100
AcDbDictionaryWithDefault
340
F
  0
DICTIONARY
  5
EE7
102
{ACAD_REACTORS
330
C
102
}
330
C
100
AcDbDictionary
281
     1
  3
Standard
350
EE8
  0
DICTIONARY
  5
35B1
102
{ACAD_REACTORS
330
C
102
}
330
C
100
AcDbDictionary
281
     1
  0
DICTIONARY
  5
3D
102
{ACAD_REACTORS
330
C
102
}
330
C
100
AcDbDictionary
281
     1
  3
CTABLESTYLE
350
1049
  3
DIMASSOC
350
3F
  3
HIDETEXT
350
3E
  3
PROJECTNAME
350
359A
  0
DICTIONARY
  5
3576
102
{ACAD_REACTORS
330
C
102
}
330
C
100
AcDbDictionary
281
     1
  3
ASEBlockHierarchyIndexRecord
350
3577
1001
DCO15
1040
1598615072.843
  0
DICTIONARY
  5
1057
102
{ACAD_REACTORS
330
1051
102
}
330
1051
100
AcDbDictionary
281
     1
  0
DICTIONARY
  5
1056
102
{ACAD_REACTORS
330
1051
102
}
330
1051
100
AcDbDictionary
281
     1
1001
ACAD
1000
<All
  0
LAYOUT
  5
1E
102
{ACAD_XDICTIONARY
360
35B2
102
}
102
{ACAD_REACTORS
330
1A
102
}
330
1A
100
AcDbPlotSettings
  1

  2
Ploter HP500
  4

  6

 40
0.0
 41
0.0
 42
0.0
 43
0.0
 44
0.0
 45
0.0
 46
0.0
 47
0.0
 48
0.0
 49
0.0
140
0.0
141
0.0
142
1.0
143
1.0
 70
   688
 72
     0
 73
     0
 74
     5
  7
sanindusa.ctb
 75
    16
147
1.0
148
0.0
149
0.0
100
AcDbLayout
  1
Layout1
 70
     1
 71
     1
 10
0.0
 20
0.0
 11
420.0
 21
297.0
 12
0.0
 22
0.0
 32
0.0
 14
1.000000000000000E+20
 24
1.000000000000000E+20
 34
1.000000000000000E+20
 15
-1.000000000000000E+20
 25
-1.000000000000000E+20
 35
-1.000000000000000E+20
146
0.0
 13
0.0
 23
0.0
 33
0.0
 16
1.0
 26
0.0
 36
0.0
 17
0.0
 27
1.0
 37
0.0
 76
     0
330
1B
  0
LAYOUT
  5
26
102
{ACAD_XDICTIONARY
360
35B6
102
}
102
{ACAD_REACTORS
330
1A
102
}
330
1A
100
AcDbPlotSettings
  1

  2
Ploter HP500
  4

  6

 40
0.0
 41
0.0
 42
0.0
 43
0.0
 44
0.0
 45
0.0
 46
0.0
 47
0.0
 48
0.0
 49
0.0
140
0.0
141
0.0
142
1.0
143
1.0
 70
   688
 72
     0
 73
     0
 74
     5
  7
sanindusa.ctb
 75
    16
147
1.0
148
0.0
149
0.0
100
AcDbLayout
  1
Layout2
 70
     1
 71
     2
 10
0.0
 20
0.0
 11
12.0
 21
9.0
 12
0.0
 22
0.0
 32
0.0
 14
0.0
 24
0.0
 34
0.0
 15
0.0
 25
0.0
 35
0.0
146
0.0
 13
0.0
 23
0.0
 33
0.0
 16
1.0
 26
0.0
 36
0.0
 17
0.0
 27
1.0
 37
0.0
 76
     0
330
23
  0
LAYOUT
  5
22
102
{ACAD_XDICTIONARY
360
35B4
102
}
102
{ACAD_REACTORS
330
1A
102
}
330
1A
100
AcDbPlotSettings
  1

  2
Ploter HP500
  4
User268
  6

 40
4.995333194732666
 41
16.97565841674804
 42
4.995330810546875
 43
16.97567749023437
 44
209.9733276367187
 45
296.9259948730469
 46
0.0
 47
0.0
 48
0.0
 49
0.0
140
0.0
141
0.0
142
1.0
143
1.0
 70
 11952
 72
     1
 73
     1
 74
     0
  7
sanindusa.ctb
 75
     0
147
1.0
148
-427.5957866592534
149
7.362384574453926
100
AcDbLayout
  1
Model
 70
     1
 71
     0
 10
0.0
 20
0.0
 11
12.0
 21
9.0
 12
0.0
 22
0.0
 32
0.0
 14
0.0
 24
0.0
 34
0.0
 15
0.0
 25
0.0
 35
0.0
146
0.0
 13
0.0
 23
0.0
 33
0.0
 16
1.0
 26
0.0
 36
0.0
 17
0.0
 27
1.0
 37
0.0
 76
     0
330
1F
  0
MLINESTYLE
  5
18
102
{ACAD_REACTORS
330
17
102
}
330
17
100
AcDbMlineStyle
  2
STANDARD
 70
     0
  3

 62
   256
 51
90.0
 52
90.0
 71
     2
 49
0.5
 62
   256
  6
BYLAYER
 49
-0.5
 62
   256
  6
BYLAYER
  0
ACDBPLACEHOLDER
  5
F
102
{ACAD_REACTORS
330
E
102
}
330
E
  0
TABLESTYLE
  5
EE8
102
{ACAD_REACTORS
330
EE7
102
}
330
EE7
100
AcDbTableStyle
  3
Standard
 70
     0
 71
     0
 40
1.5
 41
1.5
280
     0
281
     0
  7
Standard
140
4.5
170
     2
 62
     0
 63
     7
283
     0
274
    -2
284
     1
 64
     0
275
    -2
285
     1
 65
     0
276
    -2
286
     1
 66
     0
277
    -2
287
     1
 67
     0
278
    -2
288
     1
 68
     0
279
    -2
289
     1
 69
     0
  7
Standard
140
6.0
170
     5
 62
     0
 63
     7
283
     0
274
    -2
284
     1
 64
     0
275
    -2
285
     1
 65
     0
276
    -2
286
     1
 66
     0
277
    -2
287
     1
 67
     0
278
    -2
288
     1
 68
     0
279
    -2
289
     1
 69
     0
  7
Standard
140
4.5
170
     5
 62
     0
 63
     7
283
     0
274
    -2
284
     1
 64
     0
275
    -2
285
     1
 65
     0
276
    -2
286
     1
 66
     0
277
    -2
287
     1
 67
     0
278
    -2
288
     1
 68
     0
279
    -2
289
     1
 69
     0
  0
DICTIONARYVAR
  5
1049
102
{ACAD_REACTORS
330
3D
102
}
330
3D
100
DictionaryVariables
280
     0
  1
STANDARD
  0
DICTIONARYVAR
  5
3F
102
{ACAD_REACTORS
330
3D
102
}
330
3D
100
DictionaryVariables
280
     0
  1
2
  0
DICTIONARYVAR
  5
3E
102
{ACAD_REACTORS
330
3D
102
}
330
3D
100
DictionaryVariables
280
     0
  1
1
  0
DICTIONARYVAR
  5
359A
102
{ACAD_REACTORS
330
3D
102
}
330
3D
100
DictionaryVariables
280
     0
  1

  0
XRECORD
  5
3577
102
{ACAD_REACTORS
330
3576
102
}
330
3576
100
AcDbXrecord
280
     1
  0
DICTIONARY
  5
35B2
330
1E
100
AcDbDictionary
280
     1
281
     1
  3
ACAD_XREC_ROUNDTRIP
360
35B3
  0
DICTIONARY
  5
35B6
330
26
100
AcDbDictionary
280
     1
281
     1
  3
ACAD_XREC_ROUNDTRIP
360
35B7
  0
DICTIONARY
  5
35B4
330
22
100
AcDbDictionary
280
     1
281
     1
  3
ACAD_XREC_ROUNDTRIP
360
35B5
  0
XRECORD
  5
35B3
102
{ACAD_REACTORS
330
35B2
102
}
330
35B2
100
AcDbXrecord
280
     1
102
SHADEPLOT
 70
     0
102
SHADEPLOTRESLEVEL
 70
     2
102
SHADEPLOTCUSTOMDPI
 70
   300
  0
XRECORD
  5
35B7
102
{ACAD_REACTORS
330
35B6
102
}
330
35B6
100
AcDbXrecord
280
     1
102
SHADEPLOT
 70
     0
102
SHADEPLOTRESLEVEL
 70
     2
102
SHADEPLOTCUSTOMDPI
 70
   300
  0
XRECORD
  5
35B5
102
{ACAD_REACTORS
330
35B4
102
}
330
35B4
100
AcDbXrecord
280
     1
102
SHADEPLOT
 70
     0
102
SHADEPLOTRESLEVEL
 70
     2
102
SHADEPLOTCUSTOMDPI
 70
   300
  0
ENDSEC
  0
EOF
