  0
SECTION
  2
HEADER
  9
$ACADVER
  1
AC1015
  9
$ACADMAINTVER
 70
    20
  9
$DWGCODEPAGE
  3
ANSI_1252
  9
$INSBASE
 10
0.0
 20
0.0
 30
0.0
  9
$EXTMIN
 10
5042.565862846037
 20
3154.982376488497
 30
0.0
  9
$EXTMAX
 10
5047.008701601015
 20
3155.783772911824
 30
0.0
  9
$LIMMIN
 10
0.0
 20
0.0
  9
$LIMMAX
 10
420.0
 20
297.0
  9
$ORTHOMODE
 70
     0
  9
$REGENMODE
 70
     1
  9
$FILLMODE
 70
     1
  9
$QTEXTMODE
 70
     0
  9
$MIRRTEXT
 70
     1
  9
$LTSCALE
 40
1.0
  9
$ATTMODE
 70
     1
  9
$TEXTSIZE
 40
2.5
  9
$TRACEWID
 40
1.0
  9
$TEXTSTYLE
  7
SANINDUSA
  9
$CLAYER
  8
0
  9
$CELTYPE
  6
ByLayer
  9
$CECOLOR
 62
   256
  9
$CELTSCALE
 40
1.0
  9
$DISPSILH
 70
     0
  9
$DIMSCALE
 40
1.0
  9
$DIMASZ
 40
2.0
  9
$DIMEXO
 40
1.0
  9
$DIMDLI
 40
1.0
  9
$DIMRND
 40
0.0
  9
$DIMDLE
 40
0.0
  9
$DIMEXE
 40
1.0
  9
$DIMTP
 40
0.0
  9
$DIMTM
 40
0.0
  9
$DIMTXT
 40
2.0
  9
$DIMCEN
 40
0.0
  9
$DIMTSZ
 40
0.0
  9
$DIMTOL
 70
     0
  9
$DIMLIM
 70
     0
  9
$DIMTIH
 70
     0
  9
$DIMTOH
 70
     0
  9
$DIMSE1
 70
     0
  9
$DIMSE2
 70
     0
  9
$DIMTAD
 70
     1
  9
$DIMZIN
 70
     8
  9
$DIMBLK
  1

  9
$DIMASO
 70
     1
  9
$DIMSHO
 70
     1
  9
$DIMPOST
  1

  9
$DIMAPOST
  1

  9
$DIMALT
 70
     0
  9
$DIMALTD
 70
     3
  9
$DIMALTF
 40
0.03937007874016
  9
$DIMLFAC
 40
1.0
  9
$DIMTOFL
 70
     1
  9
$DIMTVP
 40
0.0
  9
$DIMTIX
 70
     0
  9
$DIMSOXD
 70
     0
  9
$DIMSAH
 70
     0
  9
$DIMBLK1
  1

  9
$DIMBLK2
  1

  9
$DIMSTYLE
  2
SANINDUSA
  9
$DIMCLRD
 70
   256
  9
$DIMCLRE
 70
   256
  9
$DIMCLRT
 70
   256
  9
$DIMTFAC
 40
1.0
  9
$DIMGAP
 40
1.0
  9
$DIMJUST
 70
     0
  9
$DIMSD1
 70
     0
  9
$DIMSD2
 70
     0
  9
$DIMTOLJ
 70
     0
  9
$DIMTZIN
 70
     8
  9
$DIMALTZ
 70
     0
  9
$DIMALTTZ
 70
     0
  9
$DIMUPT
 70
     0
  9
$DIMDEC
 70
     1
  9
$DIMTDEC
 70
     1
  9
$DIMALTU
 70
     2
  9
$DIMALTTD
 70
     3
  9
$DIMTXSTY
  7
SANINDUSA
  9
$DIMAUNIT
 70
     0
  9
$DIMADEC
 70
     1
  9
$DIMALTRND
 40
0.0
  9
$DIMAZIN
 70
     0
  9
$DIMDSEP
 70
    44
  9
$DIMATFIT
 70
     3
  9
$DIMFRAC
 70
     0
  9
$DIMLDRBLK
  1

  9
$DIMLUNIT
 70
     2
  9
$DIMLWD
 70
    -1
  9
$DIMLWE
 70
    -1
  9
$DIMTMOVE
 70
     0
  9
$LUNITS
 70
     2
  9
$LUPREC
 70
     4
  9
$SKETCHINC
 40
1.0
  9
$FILLETRAD
 40
3.0
  9
$AUNITS
 70
     0
  9
$AUPREC
 70
     0
  9
$MENU
  1
.
  9
$ELEVATION
 40
0.0
  9
$PELEVATION
 40
0.0
  9
$THICKNESS
 40
0.0
  9
$LIMCHECK
 70
     0
  9
$CHAMFERA
 40
10.0
  9
$CHAMFERB
 40
10.0
  9
$CHAMFERC
 40
20.0
  9
$CHAMFERD
 40
0.0
  9
$SKPOLY
 70
     0
  9
$TDCREATE
 40
2454305.530999340
  9
$TDUCREATE
 40
2454305.530999340
  9
$TDUPDATE
 40
2454478.643073449
  9
$TDUUPDATE
 40
2454478.643073449
  9
$TDINDWG
 40
0.0389142014
  9
$TDUSRTIMER
 40
0.0389142014
  9
$USRTIMER
 70
     1
  9
$ANGBASE
 50
0.0
  9
$ANGDIR
 70
     0
  9
$PDMODE
 70
     0
  9
$PDSIZE
 40
0.0
  9
$PLINEWID
 40
0.0
  9
$SPLFRAME
 70
     0
  9
$SPLINETYPE
 70
     6
  9
$SPLINESEGS
 70
     8
  9
$HANDSEED
  5
2FAC
  9
$SURFTAB1
 70
     6
  9
$SURFTAB2
 70
     6
  9
$SURFTYPE
 70
     6
  9
$SURFU
 70
     6
  9
$SURFV
 70
     6
  9
$UCSBASE
  2

  9
$UCSNAME
  2

  9
$UCSORG
 10
0.0
 20
0.0
 30
0.0
  9
$UCSXDIR
 10
1.0
 20
0.0
 30
0.0
  9
$UCSYDIR
 10
0.0
 20
1.0
 30
0.0
  9
$UCSORTHOREF
  2

  9
$UCSORTHOVIEW
 70
     0
  9
$UCSORGTOP
 10
0.0
 20
0.0
 30
0.0
  9
$UCSORGBOTTOM
 10
0.0
 20
0.0
 30
0.0
  9
$UCSORGLEFT
 10
0.0
 20
0.0
 30
0.0
  9
$UCSORGRIGHT
 10
0.0
 20
0.0
 30
0.0
  9
$UCSORGFRONT
 10
0.0
 20
0.0
 30
0.0
  9
$UCSORGBACK
 10
0.0
 20
0.0
 30
0.0
  9
$PUCSBASE
  2

  9
$PUCSNAME
  2

  9
$PUCSORG
 10
0.0
 20
0.0
 30
0.0
  9
$PUCSXDIR
 10
1.0
 20
0.0
 30
0.0
  9
$PUCSYDIR
 10
0.0
 20
1.0
 30
0.0
  9
$PUCSORTHOREF
  2

  9
$PUCSORTHOVIEW
 70
     0
  9
$PUCSORGTOP
 10
0.0
 20
0.0
 30
0.0
  9
$PUCSORGBOTTOM
 10
0.0
 20
0.0
 30
0.0
  9
$PUCSORGLEFT
 10
0.0
 20
0.0
 30
0.0
  9
$PUCSORGRIGHT
 10
0.0
 20
0.0
 30
0.0
  9
$PUCSORGFRONT
 10
0.0
 20
0.0
 30
0.0
  9
$PUCSORGBACK
 10
0.0
 20
0.0
 30
0.0
  9
$USERI1
 70
     0
  9
$USERI2
 70
     0
  9
$USERI3
 70
     0
  9
$USERI4
 70
     0
  9
$USERI5
 70
     0
  9
$USERR1
 40
0.0
  9
$USERR2
 40
0.0
  9
$USERR3
 40
0.0
  9
$USERR4
 40
0.0
  9
$USERR5
 40
0.0
  9
$WORLDVIEW
 70
     1
  9
$SHADEDGE
 70
     3
  9
$SHADEDIF
 70
    70
  9
$TILEMODE
 70
     1
  9
$MAXACTVP
 70
    64
  9
$PINSBASE
 10
0.0
 20
0.0
 30
0.0
  9
$PLIMCHECK
 70
     0
  9
$PEXTMIN
 10
1.000000000000000E+20
 20
1.000000000000000E+20
 30
1.000000000000000E+20
  9
$PEXTMAX
 10
-1.000000000000000E+20
 20
-1.000000000000000E+20
 30
-1.000000000000000E+20
  9
$PLIMMIN
 10
0.0
 20
0.0
  9
$PLIMMAX
 10
420.0
 20
297.0
  9
$UNITMODE
 70
     0
  9
$VISRETAIN
 70
     1
  9
$PLINEGEN
 70
     0
  9
$PSLTSCALE
 70
     1
  9
$TREEDEPTH
 70
  3020
  9
$CMLSTYLE
  2
Standard
  9
$CMLJUST
 70
     0
  9
$CMLSCALE
 40
20.0
  9
$PROXYGRAPHICS
 70
     1
  9
$MEASUREMENT
 70
     1
  9
$CELWEIGHT
370
    -1
  9
$ENDCAPS
280
     0
  9
$JOINSTYLE
280
     0
  9
$LWDISPLAY
290
     0
  9
$INSUNITS
 70
     4
  9
$HYPERLINKBASE
  1

  9
$STYLESHEET
  1
sanindusa.ctb
  9
$XEDIT
290
     1
  9
$CEPSNTYPE
380
     0
  9
$PSTYLEMODE
290
     1
  9
$FINGERPRINTGUID
  2
{4984E6E5-322B-4DB2-9A7D-D36E219E1D24}
  9
$VERSIONGUID
  2
{28B1C258-19ED-48F2-9DE0-98124556414D}
  9
$EXTNAMES
290
     1
  9
$PSVPSCALE
 40
0.0
  9
$OLESTARTUP
290
     0
  0
ENDSEC
  0
SECTION
  2
CLASSES
  0
CLASS
  1
ACDBDICTIONARYWDFLT
  2
AcDbDictionaryWithDefault
  3
ObjectDBX Classes
 90
        0
280
     0
281
     0
  0
CLASS
  1
ACDBPLACEHOLDER
  2
AcDbPlaceHolder
  3
ObjectDBX Classes
 90
        0
280
     0
281
     0
  0
CLASS
  1
LAYOUT
  2
AcDbLayout
  3
ObjectDBX Classes
 90
        0
280
     0
281
     0
  0
CLASS
  1
DICTIONARYVAR
  2
AcDbDictionaryVar
  3
ObjectDBX Classes
 90
        0
280
     0
281
     0
  0
CLASS
  1
DIMASSOC
  2
AcDbDimAssoc
  3
"AcDbDimAssoc|Product Desc:     AcDim ARX App For Dimension|Company:          Autodesk, Inc.|WEB Address:      www.autodesk.com"
 90
    32768
280
     0
281
     0
  0
CLASS
  1
TABLESTYLE
  2
AcDbTableStyle
  3
ObjectDBX Classes
 90
     2047
280
     0
281
     0
  0
CLASS
  1
SORTENTSTABLE
  2
AcDbSortentsTable
  3
ObjectDBX Classes
 90
    32768
280
     0
281
     0
  0
ENDSEC
  0
SECTION
  2
TABLES
  0
TABLE
  2
VPORT
  5
8
330
0
100
AcDbSymbolTable
 70
     2
  0
VPORT
  5
2FA4
330
8
100
AcDbSymbolTableRecord
100
AcDbViewportTableRecord
  2
*Active
 70
     0
 10
0.0
 20
0.0
 11
1.0
 21
1.0
 12
5044.787282223526
 22
3155.394379426774
 13
0.0
 23
0.0
 14
10.0
 24
10.0
 15
10.0
 25
10.0
 16
0.0
 26
0.0
 36
1.0
 17
0.0
 27
0.0
 37
0.0
 40
2.823355471607173
 41
1.579579579579579
 42
50.0
 43
0.0
 44
0.0
 50
0.0
 51
0.0
 71
     0
 72
   100
 73
     1
 74
     2
 75
     0
 76
     0
 77
     0
 78
     0
281
     0
 65
     1
110
0.0
120
0.0
130
0.0
111
1.0
121
0.0
131
0.0
112
0.0
122
1.0
132
0.0
 79
     0
146
0.0
  0
ENDTAB
  0
TABLE
  2
LTYPE
  5
5
330
0
100
AcDbSymbolTable
 70
     5
  0
LTYPE
  5
14
330
5
100
AcDbSymbolTableRecord
100
AcDbLinetypeTableRecord
  2
ByBlock
 70
     0
  3

 72
    65
 73
     0
 40
0.0
  0
LTYPE
  5
15
330
5
100
AcDbSymbolTableRecord
100
AcDbLinetypeTableRecord
  2
ByLayer
 70
     0
  3

 72
    65
 73
     0
 40
0.0
  0
LTYPE
  5
16
330
5
100
AcDbSymbolTableRecord
100
AcDbLinetypeTableRecord
  2
Continuous
 70
     0
  3
Solid line
 72
    65
 73
     0
 40
0.0
  0
LTYPE
  5
2D
330
5
100
AcDbSymbolTableRecord
100
AcDbLinetypeTableRecord
  2
DASHDOT
 70
     0
  3
Dash dot __ . __ . __ . __ . __ . __ . __ . __
 72
    65
 73
     4
 40
25.4
 49
12.7
 74
     0
 49
-6.349999999999999
 74
     0
 49
0.0
 74
     0
 49
-6.349999999999999
 74
     0
  0
LTYPE
  5
2E
330
5
100
AcDbSymbolTableRecord
100
AcDbLinetypeTableRecord
  2
HIDDEN
 70
     0
  3
Hidden __ __ __ __ __ __ __ __ __ __ __ __ __ _
 72
    65
 73
     2
 40
9.524999999999998
 49
6.349999999999999
 74
     0
 49
-3.174999999999999
 74
     0
  0
LTYPE
  5
C75
330
5
100
AcDbSymbolTableRecord
100
AcDbLinetypeTableRecord
  2
AM_ISO02W050
 70
     0
  3
__ __ __ __ __ __ __ __ __ __ __ __ __ __ __
 72
    65
 73
     2
 40
7.5
 49
6.0
 74
     0
 49
-1.5
 74
     0
  0
LTYPE
  5
C76
330
5
100
AcDbSymbolTableRecord
100
AcDbLinetypeTableRecord
  2
AM_ISO08W050
 70
     0
  3
____ . ____ . ____ . ____ . ____ . ____ . ____
 72
    65
 73
     4
 40
18.0
 49
12.0
 74
     0
 49
-1.5
 74
     0
 49
3.0
 74
     0
 49
-1.5
 74
     0
  0
ENDTAB
  0
TABLE
  2
LAYER
  5
2
102
{ACAD_XDICTIONARY
360
1051
102
}
330
0
100
AcDbSymbolTable
 70
    16
  0
LAYER
  5
10
330
2
100
AcDbSymbolTableRecord
100
AcDbLayerTableRecord
  2
0
 70
     0
 62
     7
  6
Continuous
370
    -3
390
F
  0
LAYER
  5
2F
330
2
100
AcDbSymbolTableRecord
100
AcDbLayerTableRecord
  2
1
 70
     0
 62
     1
  6
Continuous
370
    -3
390
F
  0
LAYER
  5
30
330
2
100
AcDbSymbolTableRecord
100
AcDbLayerTableRecord
  2
2
 70
     0
 62
     2
  6
Continuous
370
    -3
390
F
  0
LAYER
  5
31
330
2
100
AcDbSymbolTableRecord
100
AcDbLayerTableRecord
  2
3
 70
     0
 62
     3
  6
Continuous
370
    -3
390
F
  0
LAYER
  5
32
330
2
100
AcDbSymbolTableRecord
100
AcDbLayerTableRecord
  2
4
 70
     0
 62
     4
  6
Continuous
370
    -3
390
F
  0
LAYER
  5
33
330
2
100
AcDbSymbolTableRecord
100
AcDbLayerTableRecord
  2
5
 70
     0
 62
     5
  6
Continuous
370
    -3
390
F
  0
LAYER
  5
34
330
2
100
AcDbSymbolTableRecord
100
AcDbLayerTableRecord
  2
6
 70
     0
 62
     6
  6
Continuous
370
    -3
390
F
  0
LAYER
  5
35
330
2
100
AcDbSymbolTableRecord
100
AcDbLayerTableRecord
  2
7
 70
     0
 62
     7
  6
Continuous
370
    -3
390
F
  0
LAYER
  5
36
330
2
100
AcDbSymbolTableRecord
100
AcDbLayerTableRecord
  2
cen
 70
     0
 62
     7
  6
DASHDOT
370
    -3
390
F
  0
LAYER
  5
37
330
2
100
AcDbSymbolTableRecord
100
AcDbLayerTableRecord
  2
hid
 70
     0
 62
     7
  6
HIDDEN
370
    -3
390
F
  0
LAYER
  5
5D6
330
2
100
AcDbSymbolTableRecord
100
AcDbLayerTableRecord
  2
hatch
 70
     0
 62
     9
  6
Continuous
370
    -3
390
F
  0
LAYER
  5
8AF
330
2
100
AcDbSymbolTableRecord
100
AcDbLayerTableRecord
  2
9
 70
     0
 62
     9
  6
Continuous
370
    -3
390
F
  0
LAYER
  5
8F8
330
2
100
AcDbSymbolTableRecord
100
AcDbLayerTableRecord
  2
leg fin
 70
     0
 62
     9
  6
Continuous
370
    -3
390
F
  0
LAYER
  5
91D
330
2
100
AcDbSymbolTableRecord
100
AcDbLayerTableRecord
  2
cotas
 70
     0
 62
     1
  6
Continuous
370
    -3
390
F
  0
LAYER
  5
92F
330
2
100
AcDbSymbolTableRecord
100
AcDbLayerTableRecord
  2
Defpoints
 70
     0
 62
     7
  6
Continuous
290
     0
370
    -3
390
F
  0
LAYER
  5
C7B
330
2
100
AcDbSymbolTableRecord
100
AcDbLayerTableRecord
  2
SANINDUSA
 70
     0
 62
     3
  6
Continuous
370
    -3
390
F
  0
ENDTAB
  0
TABLE
  2
STYLE
  5
3
330
0
100
AcDbSymbolTable
 70
     4
  0
STYLE
  5
11
330
3
100
AcDbSymbolTableRecord
100
AcDbTextStyleTableRecord
  2
Standard
 70
     0
 40
0.0
 41
1.0
 50
0.0
 71
     0
 42
2.5
  3
Avgardn.ttf
  4

1001
ACAD
1000
AvantGarde Bk BT
1071
       34
  0
STYLE
  5
2C
330
3
100
AcDbSymbolTableRecord
100
AcDbTextStyleTableRecord
  2

 70
     1
 40
0.0
 41
1.0
 50
0.0
 71
     0
 42
2.5
  3
ltypeshp.shx
  4

  0
STYLE
  5
91F
330
3
100
AcDbSymbolTableRecord
100
AcDbTextStyleTableRecord
  2
SANINDUSA
 70
     0
 40
0.0
 41
1.0
 50
0.0
 71
     0
 42
2.5
  3
verdana.TTF
  4

1001
ACAD
1000
Verdana
1071
       34
  0
STYLE
  5
C7C
330
3
100
AcDbSymbolTableRecord
100
AcDbTextStyleTableRecord
  2
futura
 70
     0
 40
0.0
 41
1.0
 50
0.0
 71
     0
 42
2.5
  3
ZURCHN.TTF
  4

1001
ACAD
1000
Zurich BT
1071
       34
  0
ENDTAB
  0
TABLE
  2
VIEW
  5
6
330
0
100
AcDbSymbolTable
 70
     0
  0
ENDTAB
  0
TABLE
  2
UCS
  5
7
330
0
100
AcDbSymbolTable
 70
     0
  0
ENDTAB
  0
TABLE
  2
APPID
  5
9
330
0
100
AcDbSymbolTable
 70
    11
  0
APPID
  5
12
330
9
100
AcDbSymbolTableRecord
100
AcDbRegAppTableRecord
  2
ACAD
 70
     0
  0
APPID
  5
3A
330
9
100
AcDbSymbolTableRecord
100
AcDbRegAppTableRecord
  2
DCO15
 70
     0
  0
APPID
  5
EEE
330
9
100
AcDbSymbolTableRecord
100
AcDbRegAppTableRecord
  2
ACAD_DSTYLE_DIMTEXT_FILL
 70
     0
  0
APPID
  5
EEF
330
9
100
AcDbSymbolTableRecord
100
AcDbRegAppTableRecord
  2
ACAD_DSTYLE_DIMEXT_LENGTH
 70
     0
  0
APPID
  5
EF0
330
9
100
AcDbSymbolTableRecord
100
AcDbRegAppTableRecord
  2
ACAD_DSTYLE_DIMEXT_ENABLED
 70
     0
  0
APPID
  5
EF1
330
9
100
AcDbSymbolTableRecord
100
AcDbRegAppTableRecord
  2
ACAD_DSTYLE_DIM_LINETYPE
 70
     0
  0
APPID
  5
EF2
330
9
100
AcDbSymbolTableRecord
100
AcDbRegAppTableRecord
  2
ACAD_DSTYLE_DIM_EXT1_LINETYPE
 70
     0
  0
APPID
  5
EF3
330
9
100
AcDbSymbolTableRecord
100
AcDbRegAppTableRecord
  2
ACAD_DSTYLE_DIM_EXT2_LINETYPE
 70
     0
  0
APPID
  5
FAF
330
9
100
AcDbSymbolTableRecord
100
AcDbRegAppTableRecord
  2
ACAD_DSTYLE_DIMJOGGED_JOGANGLE_SYMBOL
 70
     0
  0
APPID
  5
1013
330
9
100
AcDbSymbolTableRecord
100
AcDbRegAppTableRecord
  2
ACAD_DSTYLE_DIMARC_LENGTH_SYMBOL
 70
     0
  0
APPID
  5
1327
330
9
100
AcDbSymbolTableRecord
100
AcDbRegAppTableRecord
  2
ACAD_PSEXT
 70
     0
  0
ENDTAB
  0
TABLE
  2
DIMSTYLE
  5
A
330
0
100
AcDbSymbolTable
 70
     3
100
AcDbDimStyleTable
 71
     1
340
921
  0
DIMSTYLE
105
45
330
A
100
AcDbSymbolTableRecord
100
AcDbDimStyleTableRecord
  2
STANDARD
 70
     0
289
     0
340
11
  0
DIMSTYLE
105
921
330
A
100
AcDbSymbolTableRecord
100
AcDbDimStyleTableRecord
  2
SANINDUSA
 70
     0
 41
2.0
 42
1.0
 43
1.0
 44
1.0
 73
     0
 74
     0
 77
     1
 78
     8
140
2.0
141
0.0
143
0.03937007874016
147
1.0
171
     3
172
     1
176
   256
177
   256
178
   256
179
     1
271
     1
272
     1
274
     3
278
    44
283
     0
284
     8
340
91F
371
    -1
372
    -1
1001
ACAD_DSTYLE_DIMEXT_LENGTH
1070
   378
1040
1.0
1001
ACAD_DSTYLE_DIMEXT_ENABLED
1070
   383
1070
     0
1001
ACAD_DSTYLE_DIMARC_LENGTH_SYMBOL
1070
   379
1070
     0
1001
ACAD_DSTYLE_DIMJOGGED_JOGANGLE_SYMBOL
1070
   384
1040
1.570796326794896
  0
DIMSTYLE
105
C7D
330
A
100
AcDbSymbolTableRecord
100
AcDbDimStyleTableRecord
  2
AM_ISO
 70
     0
  4
"
 41
2.5
 42
1.0
 43
10.0
 44
1.0
 47
0.1
 48
0.1
 73
     0
 74
     0
 77
     1
 78
     8
 79
     2
140
3.5
141
0.0
143
0.0393701
146
0.71
147
1.5
172
     1
176
   256
177
   256
178
     2
271
     2
272
     3
274
     4
283
     0
284
     8
340
11
371
    -1
372
    -1
  0
ENDTAB
  0
TABLE
  2
BLOCK_RECORD
  5
1
330
0
100
AcDbSymbolTable
 70
   131
  0
BLOCK_RECORD
  5
1F
330
1
100
AcDbSymbolTableRecord
100
AcDbBlockTableRecord
  2
*Model_Space
340
22
  0
BLOCK_RECORD
  5
1B
330
1
100
AcDbSymbolTableRecord
100
AcDbBlockTableRecord
  2
*Paper_Space
340
1E
  0
BLOCK_RECORD
  5
23
330
1
100
AcDbSymbolTableRecord
100
AcDbBlockTableRecord
  2
*Paper_Space0
340
26
  0
BLOCK_RECORD
  5
919
330
1
100
AcDbSymbolTableRecord
100
AcDbBlockTableRecord
  2
_DotSmall
340
0
  0
BLOCK_RECORD
  5
922
330
1
100
AcDbSymbolTableRecord
100
AcDbBlockTableRecord
  2
base para cotas
340
0
310
2800000020000000200000000100080000000000000400000000000000000000000000000000000000000000000080000080000000808000800000008000800080800000C0C0C000C0DCC000F0CAA6000020400000206000002080000020A0000020C0000020E00000400000004020000040400000406000004080000040A0
310
000040C0000040E00000600000006020000060400000606000006080000060A0000060C0000060E00000800000008020000080400000806000008080000080A0000080C0000080E00000A0000000A0200000A0400000A0600000A0800000A0A00000A0C00000A0E00000C0000000C0200000C0400000C0600000C0800000C0
310
A00000C0C00000C0E00000E0000000E0200000E0400000E0600000E0800000E0A00000E0C00000E0E00040000000400020004000400040006000400080004000A0004000C0004000E00040200000402020004020400040206000402080004020A0004020C0004020E000404000004040200040404000404060004040800040
310
40A0004040C0004040E00040600000406020004060400040606000406080004060A0004060C0004060E00040800000408020004080400040806000408080004080A0004080C0004080E00040A0000040A0200040A0400040A0600040A0800040A0A00040A0C00040A0E00040C0000040C0200040C0400040C0600040C08000
310
40C0A00040C0C00040C0E00040E0000040E0200040E0400040E0600040E0800040E0A00040E0C00040E0E00080000000800020008000400080006000800080008000A0008000C0008000E00080200000802020008020400080206000802080008020A0008020C0008020E00080400000804020008040400080406000804080
310
008040A0008040C0008040E00080600000806020008060400080606000806080008060A0008060C0008060E00080800000808020008080400080806000808080008080A0008080C0008080E00080A0000080A0200080A0400080A0600080A0800080A0A00080A0C00080A0E00080C0000080C0200080C0400080C0600080C0
310
800080C0A00080C0C00080C0E00080E0000080E0200080E0400080E0600080E0800080E0A00080E0C00080E0E000C0000000C0002000C0004000C0006000C0008000C000A000C000C000C000E000C0200000C0202000C0204000C0206000C0208000C020A000C020C000C020E000C0400000C0402000C0404000C0406000C0
310
408000C040A000C040C000C040E000C0600000C0602000C0604000C0606000C0608000C060A000C060C000C060E000C0800000C0802000C0804000C0806000C0808000C080A000C080C000C080E000C0A00000C0A02000C0A04000C0A06000C0A08000C0A0A000C0A0C000C0A0E000C0C00000C0C02000C0C04000C0C06000
310
C0C08000C0C0A000F0FBFF00A4A0A000808080000000FF0000FF000000FFFF00FF000000FF00FF00FFFF0000FFFFFF00A4A4A4A4A4A4A4A4A4A4A4A4A4A4A4A4A4A4A4A4A4A4A4A4A4A4A4A4A4A4A4A4A4A4A4A4A4A4A4A4A4A4A4A4A4A4A4A4A4A4A4A4A4A4A4A4A4A4A4A4A4A4A4A4A4A4A4A4A4A4A4A4A4A4A4A4A4A4A4
310
A4A4A4A4A4A4A4A4A4A4A4A4A4A4A4A4A4A4A4A4A4A4A4A4A4A4A4A4A4A4A4A4A4A4A4A4A4A4A4A4A4A4A4A4A4A4A4A4A4A4A4A4A4A4A4A4A4A4A4A4A4A4A4A4A4A4A4A4A4A4A4A4A4A4A4A4A4A4A4A4A4A4A4A4A4A4A4A4A4A4A4A4A4A4A4A4A4A4A4A4A4A4A4A4A4A4A4A4A4A4A4A4A4A4A4A4A4A4A4A4A4A4A4A4A4A4A4
310
A4A4A4A4A4A4A4A4A4A4A4A4A4A4A4A4A4A4A4A4A4A4A4A4A4A4A4A4A4A4A4A4A4A4A4A4A4A4A4A4A4A4A4A4A4A4A4A4A4A4A4A4A4A4A4A4A4A4A4A4A4A4A4A4A4A4A4A4A4A4A4A4A4A4A4A4A4A4A4A4A4A4A4A4A4A4A4A4A4A4A4A4A4A4A4A4A4A4A4A4A4A4A4A4A4A4A4A4A4A4A4A4A4A4A4A4A4A4A4A4A4A4A4A4A4A4A4
310
A4A4A4A4A4A4A4A4A4A4A4A4A4A4A4A4A4A4A4A4A4A4A4A4A4A4A4A4A4A4A4A4A4A4A4A4A4A4A4A4A4A4A4A4A4A4A4A4A4A4A4A4A4A4A4A4A4A4A4A4A4A4A4A4A4A4A4A4A4A4A4A4A4A4A4A4A4A4A4A4A4A4A4A4A4A4A4A4A4A4A4A4A4A4A4A4A4A4A4A4A4A4A4A4A4A4A4A4A4A4A4A4A4A4A4A4F9F9F9F9F9F9F9F9F9F9F9
310
F9F9F9F9F9F9F9F9F9F9F9F9F9F9F9F9F9F9F9A4A4F9F9F9F9F9F9F9F9F9F9F9F9F9F9F9F9F9F9F9F9F9F9F9F9F9F9F9F9F9F9A4A4F9F9F9F9F9F9F9F9F9F9F9F9F9F9F9F9F9F9F9F9F9F9F9F9F9F9F9F9F9F9A4A4F9A4A4A4A4A4A4A4A4A4A4A4A4A4A4A4A4A4A4A4A4A4A4A4A4A4A4A4A4F9A4A4A4A4A4A4A4A4A4A4A4A4
310
A4A4A4A4A4A4A4A4A4A4A4A4A4A4A4A4A4A4A4A4A4A4A4A4A4A4A4A4A4A4A4A4A4A4A4A4A4A4A4A4A4A4A4A4A4A4A4A4A4A4A4A4A4A4A4A4A4A4A4A4A4A4A4A4A4A4A4A4A4A4A4A4A4A4A4A4A4A4A4A4A4A4A4A4A4A4A4A4A4A4A4A4A4A4A4A4A4A4A4A4A4A4A4A4A4A4A4A4A4A4A4A4A4A4A4A4A4A4A4A4A4A4A4A4A4A4A4
310
A4A4A4A4A4A4A4A4A4A4A4A4A4A4A4A4A4A4A4A4A4A4A4A4A4A4A4A4A4A4A4A4A4A4A4A4A4A4A4A4A4A4A4A4A4A4A4A4A4A4A4A4A4A4A4A4A4A4A4A4A4A4A4A4A4A4A4A4A4A4A4A4A4A4A4A4A4A4A4A4A4A4A4A4A4A4A4A4A4A4A4A4A4A4A4A4A4A4A4A4A4A4A4A4A4A4A4A4A4A4A4A4A4A4A4A4A4A4A4A4A4A4A4A4A4A4A4
310
A4A4A4A4A4A4A4A4A4A4A4A4A4A4A4A4A4A4A4A4A4A4A4A4A4A4A4A4A4A4A4A4A4A4A4A4A4A4A4A4A4A4A4A4A4A4A4A4A4A4A4A4A4A4A4A4A4A4A4A4A4A4A4A4A4A4A4A4A4A4A4A4A4A4A4A4A4A4A4A4A4A4A4A4A4A4A4A4A4A4A4A4A4A4A4A4A4A4A4A4A4A4A4A4A4A4A4A4A4A4A4A4A4A4A4A4A4A4A4A4A4A4A4A4A4A4A4
310
A4A4A4A4A4A4A4A4A4A4A4A4A4A4A4A4A4A4A4A4A4A4A4A4A4A4A4A4A4A4A4A4A4A4A4A4A4A4A4A4A4A4A4A4A4A4A4A4A4A4A4A4A4A4A4A4
1001
ACAD
1000
DesignCenter Data
1002
{
1070
     1
1070
     4
1002
}
  0
BLOCK_RECORD
  5
AA8
330
1
100
AcDbSymbolTableRecord
100
AcDbBlockTableRecord
  2
_CLOSED
340
0
  0
BLOCK_RECORD
  5
B79
330
1
100
AcDbSymbolTableRecord
100
AcDbBlockTableRecord
  2
nota revisoes
340
0
1001
ACAD
1000
DesignCenter Data
1002
{
1070
     1
1070
     4
1002
}
  0
BLOCK_RECORD
  5
B8E
330
1
100
AcDbSymbolTableRecord
100
AcDbBlockTableRecord
  2
a3l
340
0
1001
ACAD
1000
DesignCenter Data
1002
{
1070
     1
1070
     4
1002
}
  0
BLOCK_RECORD
  5
B9E
330
1
100
AcDbSymbolTableRecord
100
AcDbBlockTableRecord
  2
legenda desenvolvimento
340
0
1001
ACAD
1000
DesignCenter Data
1002
{
1070
     1
1070
     4
1002
}
  0
ENDTAB
  0
ENDSEC
  0
SECTION
  2
BLOCKS
  0
BLOCK
  5
20
330
1F
100
AcDbEntity
  8
0
100
AcDbBlockBegin
  2
*Model_Space
 70
     0
 10
0.0
 20
0.0
 30
0.0
  3
*Model_Space
  1

  0
ENDBLK
  5
21
330
1F
100
AcDbEntity
  8
0
100
AcDbBlockEnd
  0
BLOCK
  5
1C
330
1B
100
AcDbEntity
 67
     1
  8
0
100
AcDbBlockBegin
  2
*Paper_Space
 70
     0
 10
0.0
 20
0.0
 30
0.0
  3
*Paper_Space
  1

  0
ENDBLK
  5
1D
330
1B
100
AcDbEntity
 67
     1
  8
0
100
AcDbBlockEnd
  0
BLOCK
  5
24
330
23
100
AcDbEntity
 67
     1
  8
0
100
AcDbBlockBegin
  2
*Paper_Space0
 70
     0
 10
0.0
 20
0.0
 30
0.0
  3
*Paper_Space0
  1

  0
ENDBLK
  5
25
330
23
100
AcDbEntity
 67
     1
  8
0
100
AcDbBlockEnd
  0
BLOCK
  5
91B
330
919
100
AcDbEntity
  8
0
100
AcDbBlockBegin
  2
_DotSmall
 70
     0
 10
0.0
 20
0.0
 30
0.0
  3
_DotSmall
  1

  0
LWPOLYLINE
  5
91A
330
919
100
AcDbEntity
  8
0
  6
ByBlock
 62
     0
100
AcDbPolyline
 90
        2
 70
     1
 43
0.5
 10
-0.0625
 20
0.0
 42
1.0
 10
0.0625
 20
0.0
 42
1.0
  0
ENDBLK
  5
91C
330
919
100
AcDbEntity
  8
0
100
AcDbBlockEnd
  0
BLOCK
  5
92A
330
922
100
AcDbEntity
  8
0
100
AcDbBlockBegin
  2
base para cotas
 70
     0
 10
0.0
 20
0.0
 30
0.0
  3
base para cotas
  1

  0
LINE
  5
B36
330
922
100
AcDbEntity
  8
cotas
100
AcDbLine
 10
0.0
 20
-30.0
 30
0.0
 11
327.1260136525398
 21
-30.0
 31
0.0
  0
LINE
  5
B37
330
922
100
AcDbEntity
  8
cotas
100
AcDbLine
 10
0.0
 20
-25.0
 30
0.0
 11
327.1260136525398
 21
-25.0
 31
0.0
  0
LINE
  5
B38
330
922
100
AcDbEntity
  8
cotas
100
AcDbLine
 10
0.0
 20
-20.0
 30
0.0
 11
327.1260136525398
 21
-20.0
 31
0.0
  0
LINE
  5
B39
330
922
100
AcDbEntity
  8
cotas
100
AcDbLine
 10
0.0
 20
-15.0
 30
0.0
 11
327.1260136525398
 21
-15.0
 31
0.0
  0
LINE
  5
B3A
330
922
100
AcDbEntity
  8
cotas
100
AcDbLine
 10
0.0
 20
-10.0
 30
0.0
 11
327.1260136525398
 21
-10.0
 31
0.0
  0
LINE
  5
B3B
330
922
100
AcDbEntity
  8
cotas
100
AcDbLine
 10
0.0
 20
0.0
 30
0.0
 11
0.0
 21
-30.0
 31
0.0
  0
LINE
  5
B3C
330
922
100
AcDbEntity
  8
cotas
100
AcDbLine
 10
327.1260136525398
 20
-30.0
 30
0.0
 11
327.1260136525398
 21
0.0
 31
0.0
  0
ENDBLK
  5
92B
330
922
100
AcDbEntity
  8
0
100
AcDbBlockEnd
  0
BLOCK
  5
AAD
330
AA8
100
AcDbEntity
  8
0
100
AcDbBlockBegin
  2
_CLOSED
 70
     0
 10
0.0
 20
0.0
 30
0.0
  3
_CLOSED
  1

  0
LINE
  5
AA9
330
AA8
100
AcDbEntity
  8
0
100
AcDbLine
 10
-1.0
 20
0.166667
 30
0.0
 11
0.0
 21
0.0
 31
0.0
  0
LINE
  5
AAA
330
AA8
100
AcDbEntity
  8
0
100
AcDbLine
 10
0.0
 20
0.0
 30
0.0
 11
-1.0
 21
-0.166667
 31
0.0
  0
LINE
  5
AAB
330
AA8
100
AcDbEntity
  8
0
100
AcDbLine
 10
-1.0
 20
0.166667
 30
0.0
 11
-1.0
 21
-0.166667
 31
0.0
  0
LINE
  5
AAC
330
AA8
100
AcDbEntity
  8
0
100
AcDbLine
 10
0.0
 20
0.0
 30
0.0
 11
-1.0
 21
0.0
 31
0.0
  0
ENDBLK
  5
AAE
330
AA8
100
AcDbEntity
  8
0
100
AcDbBlockEnd
  0
BLOCK
  5
B7C
330
B79
100
AcDbEntity
  8
0
100
AcDbBlockBegin
  2
nota revisoes
 70
     0
 10
0.0
 20
0.0
 30
0.0
  3
nota revisoes
  1

  0
CIRCLE
  5
B7A
330
B79
100
AcDbEntity
  8
4
100
AcDbCircle
 10
0.0
 20
0.0
 30
0.0
 40
13.69426055101189
  0
TEXT
  5
B7B
330
B79
100
AcDbEntity
  8
4
100
AcDbText
 10
-5.496248358154345
 20
-5.354545554066362
 30
0.0
 40
12.0
  1
1
  7
SANINDUSA
 72
     1
 11
-0.249774214433728
 21
-5.354545554066362
 31
0.0
100
AcDbText
  0
ENDBLK
  5
B7D
330
B79
100
AcDbEntity
  8
0
100
AcDbBlockEnd
  0
BLOCK
  5
B9C
330
B8E
100
AcDbEntity
  8
0
100
AcDbBlockBegin
  2
a3l
 70
     0
 10
0.0
 20
0.0
 30
0.0
  3
a3l
  1

  0
LINE
  5
B8F
330
B8E
100
AcDbEntity
  8
1
100
AcDbLine
 10
-364.2925296599447
 20
-362.1188951399395
 30
0.0
 11
-364.2925296599447
 21
-65.11889513993946
 31
0.0
  0
LINE
  5
B90
330
B8E
100
AcDbEntity
  8
4
100
AcDbLine
 10
-369.2925296599447
 20
-357.1188951399395
 30
0.0
 11
-369.2925296599447
 21
-70.11889513993946
 31
0.0
  0
LINE
  5
B91
330
B8E
100
AcDbEntity
  8
1
100
AcDbLine
 10
-784.2925296599446
 20
-65.11889513993946
 30
0.0
 11
-784.2925296599446
 21
-362.1188951399395
 31
0.0
  0
LINE
  5
B92
330
B8E
100
AcDbEntity
  8
4
100
AcDbLine
 10
-759.2925296599446
 20
-357.1188951399395
 30
0.0
 11
-759.2925296599446
 21
-70.11889513993946
 31
0.0
  0
LINE
  5
B93
330
B8E
100
AcDbEntity
  8
1
100
AcDbLine
 10
-784.2925296599446
 20
-362.1188951399395
 30
0.0
 11
-364.2925296599447
 21
-362.1188951399395
 31
0.0
  0
LINE
  5
B94
330
B8E
100
AcDbEntity
  8
4
100
AcDbLine
 10
-759.2925296599446
 20
-357.1188951399395
 30
0.0
 11
-369.2925296599447
 21
-357.1188951399395
 31
0.0
  0
LINE
  5
B95
330
B8E
100
AcDbEntity
  8
1
100
AcDbLine
 10
-654.2925296599446
 20
-357.1188951399395
 30
0.0
 11
-654.2925296599446
 21
-362.1188951399395
 31
0.0
  0
LINE
  5
B96
330
B8E
100
AcDbEntity
  8
1
100
AcDbLine
 10
-364.2925296599447
 20
-65.11889513993946
 30
0.0
 11
-784.2925296599446
 21
-65.11889513993946
 31
0.0
  0
LINE
  5
B97
330
B8E
100
AcDbEntity
  8
4
100
AcDbLine
 10
-369.2925296599447
 20
-70.11889513993946
 30
0.0
 11
-759.2925296599446
 21
-70.11889513993946
 31
0.0
  0
LINE
  5
B98
330
B8E
100
AcDbEntity
  8
1
100
AcDbLine
 10
-654.2925296599446
 20
-65.11889513993946
 30
0.0
 11
-654.2925296599446
 21
-70.11889513993946
 31
0.0
  0
LINE
  5
B99
330
B8E
100
AcDbEntity
  8
1
100
AcDbLine
 10
-549.2925296599446
 20
-70.11889513993946
 30
0.0
 11
-549.2925296599446
 21
-65.11889513993946
 31
0.0
  0
LINE
  5
B9A
330
B8E
100
AcDbEntity
  8
1
100
AcDbLine
 10
-369.2925296599447
 20
-65.11889513993946
 30
0.0
 11
-364.2925296599447
 21
-65.11889513993946
 31
0.0
  0
LINE
  5
B9B
330
B8E
100
AcDbEntity
  8
1
100
AcDbLine
 10
-549.2925296599446
 20
-357.1188951399395
 30
0.0
 11
-549.2925296599446
 21
-362.1188951399395
 31
0.0
  0
ENDBLK
  5
B9D
330
B8E
100
AcDbEntity
  8
0
100
AcDbBlockEnd
  0
BLOCK
  5
C13
330
B9E
100
AcDbEntity
  8
0
100
AcDbBlockBegin
  2
legenda desenvolvimento
 70
     2
 10
0.0
 20
0.0
 30
0.0
  3
legenda desenvolvimento
  1

  0
ATTDEF
  5
B9F
330
B9E
100
AcDbEntity
  8
1
100
AcDbText
 10
-108.606245802552
 20
55.5
 30
0.0
 40
4.0
  1
XXXXXXXXXXXXXX
 41
0.8
  7
SANINDUSA
 72
     4
 11
-87.5
 21
57.5
 31
0.0
100
AcDbAttributeDefinition
  3
Nome do Produto:
  2
PRODUTO
 70
     0
  0
ATTDEF
  5
BA0
330
B9E
100
AcDbEntity
  8
1
100
AcDbText
 10
-97.9997966101695
 20
41.25
 30
0.0
 40
3.0
  1
XXXXXXXXX
 41
0.8
  7
futura
 72
     4
 11
-87.5
 21
42.75
 31
0.0
100
AcDbAttributeDefinition
  3
Nome da Peça:
  2
PECA
 70
     0
  0
ATTDEF
  5
BA1
330
B9E
100
AcDbEntity
  8
1
100
AcDbText
 10
-133.4422431161853
 20
21.11745296763252
 30
0.0
 40
2.5
  1
X
 41
0.8
  7
SANINDUSA
 72
     4
 11
-132.5
 21
22.36745296763252
 31
0.0
100
AcDbAttributeDefinition
  3
Cod. TESTE:
  2
TESTE
 70
     0
  0
ATTDEF
  5
BA2
330
B9E
100
AcDbEntity
  8
1
100
AcDbText
 10
-124.3844862323707
 20
21.11745296763252
 30
0.0
 40
2.5
  1
XX
 41
0.8
  7
SANINDUSA
 72
     4
 11
-122.5
 21
22.36745296763252
 31
0.0
100
AcDbAttributeDefinition
  3
Cod. Ano:
  2
ANO
 70
     0
  0
ATTDEF
  5
BA3
330
B9E
100
AcDbEntity
  8
1
100
AcDbText
 10
-112.526889953052
 20
21.11745296763252
 30
0.0
 40
2.5
  1
XXX
 41
0.8
  7
SANINDUSA
 72
     4
 11
-109.700160604496
 21
22.36745296763252
 31
0.0
100
AcDbAttributeDefinition
  3
Cod. Sequência:
  2
SEQUENCIA
 70
     0
  0
ATTDEF
  5
BA4
330
B9E
100
AcDbEntity
  8
1
100
AcDbText
 10
-99.35382430979316
 20
21.11745296763252
 30
0.0
 40
2.5
  1
XX
 41
0.8
  7
SANINDUSA
 72
     4
 11
-97.46933807742244
 21
22.36745296763252
 31
0.0
100
AcDbAttributeDefinition
  3
Cod. Tipo:
  2
TIPO
 70
     0
  0
ATTDEF
  5
BA5
330
B9E
100
AcDbEntity
  8
1
100
AcDbText
 10
-87.42035911468438
 20
21.11745296763252
 30
0.0
 40
2.5
  1
XXX
 41
0.8
  7
SANINDUSA
 72
     4
 11
-84.59362976612828
 21
22.36745296763252
 31
0.0
100
AcDbAttributeDefinition
  3
Cod. Produto:
  2
PRODUTO
 70
     0
  0
ATTDEF
  5
BA6
330
B9E
100
AcDbEntity
  8
1
100
AcDbText
 10
-74.62051971917853
 20
21.11745296763252
 30
0.0
 40
2.5
  1
XXX
 41
0.8
  7
SANINDUSA
 72
     4
 11
-71.79379037062244
 21
22.36745296763252
 31
0.0
100
AcDbAttributeDefinition
  3
Cod. Peça:
  2
PECA
 70
     0
  0
ATTDEF
  5
BA7
330
B9E
100
AcDbEntity
  8
1
100
AcDbText
 10
-61.10603446650329
 20
21.11745296763252
 30
0.0
 40
2.5
  1
XX
 41
0.8
  7
SANINDUSA
 72
     4
 11
-59.22154823413257
 21
22.36745296763252
 31
0.0
100
AcDbAttributeDefinition
  3
Cod. Revisão:
  2
REV
 70
     0
  0
ATTDEF
  5
BA8
330
B9E
100
AcDbEntity
  8
1
100
AcDbText
 10
-48.43615325006194
 20
21.11745296763252
 30
0.0
 40
2.5
  1
XX
 41
0.8
  7
SANINDUSA
 72
     4
 11
-46.55166701769121
 21
22.36745296763252
 31
0.0
100
AcDbAttributeDefinition
  3
Cod. Alteração:
  2
ALT
 70
     0
  0
ATTDEF
  5
BA9
330
B9E
100
AcDbEntity
  8
1
100
AcDbText
 10
-35.19086635325722
 20
23.98875083948959
 30
0.0
 40
3.0
  1
1/XXX
 41
0.8
  7
SANINDUSA
 72
     4
 11
-30.0
 21
25.25
 31
0.0
100
AcDbAttributeDefinition
  3
Escala geral:
  2
ESCALA
 70
     0
  0
ATTDEF
  5
BAA
330
B9E
100
AcDbEntity
  8
1
100
AcDbText
 10
-15.65345869711215
 20
23.75
 30
0.0
 40
3.0
  1
XXXXX
 41
0.8
  7
SANINDUSA
 72
     4
 11
-10.0
 21
25.25
 31
0.0
100
AcDbAttributeDefinition
  3
Folha:
  2
FOLHA
 70
     0
  0
ATTDEF
  5
BAB
330
B9E
100
AcDbEntity
  8
1
100
AcDbText
 10
-178.5146998822042
 20
56.9531347542807
 30
0.0
 40
2.0
  1
xx
 41
0.8
  7
SANINDUSA
 72
     4
 11
-177.2123493113513
 21
57.70330265219877
 31
0.0
100
AcDbAttributeDefinition
  3
revisão
  2
REV.
 70
     0
  0
ATTDEF
  5
BAC
330
B9E
100
AcDbEntity
  8
1
100
AcDbText
 10
-172.7849640077129
 20
56.9531347542807
 30
0.0
 40
2.0
  1
xx
 41
0.8
  7
SANINDUSA
 72
     4
 11
-171.48261343686
 21
57.70330265219877
 31
0.0
100
AcDbAttributeDefinition
  3
alteração
  2
ALT.
 70
     0
  0
ATTDEF
  5
BAD
330
B9E
100
AcDbEntity
  8
1
100
AcDbText
 10
-168.007199951307
 20
56.70330265219877
 30
0.0
 40
2.0
  1
xx/xx/xxxx
 41
0.8
  7
SANINDUSA
 11
-168.007199951307
 21
57.70330265219877
 31
0.0
100
AcDbAttributeDefinition
  3
data
  2
DATA
 70
     0
 74
     2
  0
ATTDEF
  5
BAE
330
B9E
100
AcDbEntity
  8
1
100
AcDbText
 10
-168.5396372253371
 20
13.15916722632639
 30
0.0
 40
2.0
  1
XX/XX/XXXX
 41
0.8
  7
SANINDUSA
 72
     4
 11
-161.5099528734231
 21
14.0
 31
0.0
100
AcDbAttributeDefinition
  3
Data projecto
  2
DATA_PROJ
 70
     0
  0
ATTDEF
  5
BAF
330
B9E
100
AcDbEntity
  8
1
100
AcDbText
 10
-150.8658110728766
 20
13.24983210208193
 30
0.0
 40
2.0
  1
xxxxxxxx
 41
0.8
  7
SANINDUSA
 72
     4
 11
-145.6564087894649
 21
14.0
 31
0.0
100
AcDbAttributeDefinition
  3
nome de quem projectou
  2
NOME
 70
     0
  0
ATTDEF
  5
BB0
330
B9E
100
AcDbEntity
  8
1
100
AcDbText
 10
-168.5396372253371
 20
9.159167226326394
 30
0.0
 40
2.0
  1
XX/XX/XXXX
 41
0.8
  7
SANINDUSA
 72
     4
 11
-161.5099528734231
 21
10.0
 31
0.0
100
AcDbAttributeDefinition
  3
Data desenhou
  2
DATA_DES
 70
     0
  0
ATTDEF
  5
BB1
330
B9E
100
AcDbEntity
  8
1
100
AcDbText
 10
-151.516986358303
 20
9.249832102081933
 30
0.0
 40
2.0
  1
xxxxxxxxx
 41
0.8
  7
SANINDUSA
 72
     4
 11
-145.6564087894649
 21
10.0
 31
0.0
100
AcDbAttributeDefinition
  3
nome
  2
NOME
 70
     0
  0
ATTDEF
  5
BB2
330
B9E
100
AcDbEntity
  8
1
100
AcDbText
 10
-127.2924214135946
 20
14.1979876583216
 30
0.0
 40
2.0
  1
Vitreous China
 41
0.8
  7
SANINDUSA
 72
     4
 11
-119.231709526422
 21
15.22216495852308
 31
0.0
100
AcDbAttributeDefinition
  3
Nome do Material:
  2
MATERIAL
 70
     0
  0
ATTDEF
  5
BB3
330
B9E
100
AcDbEntity
  8
1
100
AcDbText
 10
-103.1563452122093
 20
14.38019043949261
 30
0.0
 40
2.0
  1
Branco
 41
0.8
  7
SANINDUSA
 72
     4
 11
-99.33418268702462
 21
15.35937109765245
 31
0.0
100
AcDbAttributeDefinition
  3
cor da peça
  2
COR
 70
     0
  0
ATTDEF
  5
BB4
330
B9E
100
AcDbEntity
  8
1
100
AcDbText
 10
-116.7235057085292
 20
5.975822699798522
 30
0.0
 40
2.0
  1
Vidrado
 41
0.8
  7
SANINDUSA
 72
     4
 11
-112.5
 21
7.0
 31
0.0
100
AcDbAttributeDefinition
  3
Tipo de acabamento:
  2
ACABAMENTO
 70
     0
  0
ATTDEF
  5
BB5
330
B9E
100
AcDbEntity
  8
1
100
AcDbText
 10
-79.18527869967246
 20
16.65066409850533
 30
0.0
 40
2.0
  1
XXXXXXX
 41
0.8
  7
SANINDUSA
 72
     4
 11
-73.90871724903445
 21
17.65066409850533
 31
0.0
100
AcDbAttributeDefinition
  3
Normas
  2
NORMAS
 70
     0
  0
ATTDEF
  5
BB6
330
B9E
100
AcDbEntity
  8
1
100
AcDbText
 10
-30.55312290127603
 20
14.0
 30
0.0
 40
2.0
  1
XXXXXXXXXXXXXX
 41
0.8
  7
SANINDUSA
 72
     4
 11
-20.0
 21
15.0
 31
0.0
100
AcDbAttributeDefinition
  3
Substitui o desenho:
  2
SUBSTITUI
 70
     0
  0
ATTDEF
  5
BB7
330
B9E
100
AcDbEntity
  8
1
100
AcDbText
 10
-31.30691739422431
 20
6.0
 30
0.0
 40
2.0
  1
XXXXXXXXXXXXXXX
 41
0.8
  7
SANINDUSA
 72
     4
 11
-20.0
 21
7.0
 31
0.0
100
AcDbAttributeDefinition
  3
Substituido por:
  2
SUBSTITUIDO
 70
     0
  0
ATTDEF
  5
BB8
330
B9E
100
AcDbEntity
  8
1
100
AcDbText
 10
-110.0220608548302
 20
1.478208457928303
 30
0.0
 40
2.0
  1
XXXXXXXXXXXXXXXXXXXXXXXXXXXXXXXXXX
 41
0.8
  7
SANINDUSA
 11
-110.0220608548302
 21
2.478208457928303
 31
0.0
100
AcDbAttributeDefinition
  3
Localização do desenho:
  2
LOC-DWG
 70
     0
 74
     2
  0
LINE
  5
BB9
330
B9E
100
AcDbEntity
  8
3
100
AcDbLine
 10
-135.0
 20
4.0
 30
0.0
 11
0.0000000000004547
 21
4.0
 31
0.0
  0
LINE
  5
BBA
330
B9E
100
AcDbEntity
  8
3
100
AcDbLine
 10
-90.00000000000046
 20
12.0
 30
0.0
 11
-135.0
 21
12.0
 31
0.0
  0
LINE
  5
BBB
330
B9E
100
AcDbEntity
  8
3
100
AcDbLine
 10
-135.0
 20
32.5
 30
0.0
 11
-40.0
 21
32.5
 31
0.0
  0
TEXT
  5
BBC
330
B9E
100
AcDbEntity
  8
1
100
AcDbText
 10
-134.0
 20
1.25
 30
0.0
 40
2.0
  1
Localização do des.:
 41
0.8
  7
SANINDUSA
 11
-134.0
 21
2.25
 31
0.0
100
AcDbText
 73
     2
  0
LINE
  5
BBD
330
B9E
100
AcDbEntity
  8
3
100
AcDbLine
 10
-180.0
 20
65.0
 30
0.0
 11
0.0
 21
65.0
 31
0.0
  0
LINE
  5
BBE
330
B9E
100
AcDbEntity
  8
leg fin
100
AcDbLine
 10
-40.0
 20
25.05956924886846
 30
0.0
 11
-135.0
 21
25.05956924886846
 31
0.0
  0
LINE
  5
BBF
330
B9E
100
AcDbEntity
  8
leg fin
100
AcDbLine
 10
-40.0
 20
28.5
 30
0.0
 11
-135.0
 21
28.5
 31
0.0
  0
LINE
  5
BC0
330
B9E
100
AcDbEntity
  8
3
100
AcDbLine
 10
-135.0
 20
50.0
 30
0.0
 11
-40.0
 21
50.0
 31
0.0
  0
TEXT
  5
BC1
330
B9E
100
AcDbEntity
  8
1
100
AcDbText
 10
-134.0
 20
29.75
 30
0.0
 40
2.0
  1
Desenho nº:
 41
0.8
  7
SANINDUSA
 11
-134.0
 21
30.75
 31
0.0
100
AcDbText
 73
     2
  0
TEXT
  5
BC2
330
B9E
100
AcDbEntity
  8
1
100
AcDbText
 10
-134.0
 20
9.25
 30
0.0
 40
2.0
  1
Acabamento:
 41
0.8
  7
SANINDUSA
 11
-134.0
 21
10.25
 31
0.0
100
AcDbText
 73
     2
  0
LINE
  5
BC3
330
B9E
100
AcDbEntity
  8
3
100
AcDbLine
 10
-180.0
 20
20.0
 30
0.0
 11
0.0
 21
20.0
 31
0.0
  0
LINE
  5
BC4
330
B9E
100
AcDbEntity
  8
1
100
AcDbLine
 10
-174.5810776056337
 20
55.5
 30
0.0
 11
-174.5810776056337
 21
65.0
 31
0.0
  0
LINE
  5
BC5
330
B9E
100
AcDbEntity
  8
1
100
AcDbLine
 10
-168.9210461879161
 20
55.5
 30
0.0
 11
-168.9210461879161
 21
65.0
 31
0.0
  0
LINE
  5
BC6
330
B9E
100
AcDbEntity
  8
1
100
AcDbLine
 10
-154.0988595589306
 20
55.5
 30
0.0
 11
-154.0988595589306
 21
65.0
 31
0.0
  0
LINE
  5
BC7
330
B9E
100
AcDbEntity
  8
3
100
AcDbLine
 10
-180.0
 20
65.0
 30
0.0
 11
-180.0
 21
0.0
 31
0.0
  0
LINE
  5
BC8
330
B9E
100
AcDbEntity
  8
3
100
AcDbLine
 10
-135.0
 20
0.0
 30
0.0
 11
-135.0
 21
65.0
 31
0.0
  0
TEXT
  5
BC9
330
B9E
100
AcDbEntity
  8
1
100
AcDbText
 10
-179.0
 20
9.75
 30
0.0
 40
1.5
  1
Des.
 41
0.8
  7
SANINDUSA
 11
-179.0
 21
10.5
 31
0.0
100
AcDbText
 73
     2
  0
LINE
  5
BCA
330
B9E
100
AcDbEntity
  8
1
100
AcDbLine
 10
-168.9210461879161
 20
20.0
 30
0.0
 11
-168.9210461879161
 21
0.0
 31
0.0
  0
LINE
  5
BCB
330
B9E
100
AcDbEntity
  8
1
100
AcDbLine
 10
-154.0988595589306
 20
20.0
 30
0.0
 11
-154.0988595589306
 21
0.0
 31
0.0
  0
LINE
  5
BCC
330
B9E
100
AcDbEntity
  8
1
100
AcDbLine
 10
-180.0
 20
4.0
 30
0.0
 11
-135.0
 21
4.0
 31
0.0
  0
LINE
  5
BCD
330
B9E
100
AcDbEntity
  8
1
100
AcDbLine
 10
-180.0
 20
8.0
 30
0.0
 11
-135.0
 21
8.0
 31
0.0
  0
TEXT
  5
BCE
330
B9E
100
AcDbEntity
  8
1
100
AcDbText
 10
-179.0
 20
1.73257823687436
 30
0.0
 40
1.5
  1
Aprov.
 41
0.8
  7
SANINDUSA
 11
-179.0
 21
2.48257823687436
 31
0.0
100
AcDbText
 73
     2
  0
TEXT
  5
BCF
330
B9E
100
AcDbEntity
  8
1
100
AcDbText
 10
-179.0
 20
5.75
 30
0.0
 40
1.5
  1
Ver.
 41
0.8
  7
SANINDUSA
 11
-179.0
 21
6.5
 31
0.0
100
AcDbText
 73
     2
  0
LINE
  5
BD0
330
B9E
100
AcDbEntity
  8
1
100
AcDbLine
 10
-180.0
 20
16.0
 30
0.0
 11
-135.0
 21
16.0
 31
0.0
  0
LINE
  5
BD1
330
B9E
100
AcDbEntity
  8
1
100
AcDbLine
 10
-180.0
 20
12.0
 30
0.0
 11
-135.0
 21
12.0
 31
0.0
  0
TEXT
  5
BD2
330
B9E
100
AcDbEntity
  8
1
100
AcDbText
 10
-179.0
 20
13.75
 30
0.0
 40
1.5
  1
Proj.
 41
0.8
  7
SANINDUSA
 11
-179.0
 21
14.5
 31
0.0
100
AcDbText
 73
     2
  0
TEXT
  5
BD3
330
B9E
100
AcDbEntity
  8
1
100
AcDbText
 10
-167.9210461879161
 20
17.75
 30
0.0
 40
1.5
  1
Data
 41
0.8
  7
SANINDUSA
 11
-167.9210461879161
 21
18.5
 31
0.0
100
AcDbText
 73
     2
  0
TEXT
  5
BD4
330
B9E
100
AcDbEntity
  8
1
100
AcDbText
 10
-153.0988595589306
 20
17.75
 30
0.0
 40
1.5
  1
Nome
 41
0.8
  7
SANINDUSA
 11
-153.0988595589306
 21
18.5
 31
0.0
100
AcDbText
 73
     2
  0
LINE
  5
BD5
330
B9E
100
AcDbEntity
  8
leg fin
100
AcDbLine
 10
-130.0
 20
20.0
 30
0.0
 11
-130.0
 21
28.5
 31
0.0
  0
TEXT
  5
BD6
330
B9E
100
AcDbEntity
  8
1
100
AcDbText
 10
-134.0
 20
17.25
 30
0.0
 40
2.0
  1
Material:
 41
0.8
  7
SANINDUSA
 11
-134.0
 21
18.25
 31
0.0
100
AcDbText
 73
     2
  0
TEXT
  5
BD7
330
B9E
100
AcDbEntity
  8
1
100
AcDbText
 10
-129.0
 20
26.43288406845113
 30
0.0
 40
1.5
  1
Ano:
 41
0.8
  7
SANINDUSA
 11
-129.0
 21
27.18288406845113
 31
0.0
100
AcDbText
 73
     2
  0
LINE
  5
BD8
330
B9E
100
AcDbEntity
  8
1
100
AcDbLine
 10
-180.0
 20
55.5
 30
0.0
 11
-135.0
 21
55.5
 31
0.0
  0
TEXT
  5
BD9
330
B9E
100
AcDbEntity
  8
1
100
AcDbText
 10
-179.0
 20
52.67772246885193
 30
0.0
 40
1.5
  1
descrição
 41
0.8
  7
SANINDUSA
 11
-179.0
 21
53.42772246885193
 31
0.0
100
AcDbText
 73
     2
  0
TEXT
  5
BDA
330
B9E
100
AcDbEntity
  8
1
100
AcDbText
 10
-134.0
 20
47.25
 30
0.0
 40
2.0
  1
Peça:
 41
0.8
  7
SANINDUSA
 11
-134.0
 21
48.25
 31
0.0
100
AcDbText
 73
     2
  0
LINE
  5
BDB
330
B9E
100
AcDbEntity
  8
1
100
AcDbLine
 10
-180.0
 20
59.5
 30
0.0
 11
-135.0
 21
59.5
 31
0.0
  0
TEXT
  5
BDC
330
B9E
100
AcDbEntity
  8
1
100
AcDbText
 10
-173.5810776056337
 20
62.75
 30
0.0
 40
1.5
  1
Alt.
 41
0.8
  7
SANINDUSA
 11
-173.5810776056337
 21
63.5
 31
0.0
100
AcDbText
 73
     2
  0
TEXT
  5
BDD
330
B9E
100
AcDbEntity
  8
1
100
AcDbText
 10
-179.0
 20
62.75
 30
0.0
 40
1.5
  1
Rev.
 41
0.8
  7
SANINDUSA
 11
-179.0
 21
63.5
 31
0.0
100
AcDbText
 73
     2
  0
TEXT
  5
BDE
330
B9E
100
AcDbEntity
  8
1
100
AcDbText
 10
-167.9210461879161
 20
62.75
 30
0.0
 40
1.5
  1
Data
 41
0.8
  7
SANINDUSA
 11
-167.9210461879161
 21
63.5
 31
0.0
100
AcDbText
 73
     2
  0
TEXT
  5
BDF
330
B9E
100
AcDbEntity
  8
1
100
AcDbText
 10
-153.0988595589306
 20
62.75
 30
0.0
 40
1.5
  1
Nome
 41
0.8
  7
SANINDUSA
 11
-153.0988595589306
 21
63.5
 31
0.0
100
AcDbText
 73
     2
  0
TEXT
  5
BE0
330
B9E
100
AcDbEntity
  8
1
100
AcDbText
 10
-134.0
 20
62.25
 30
0.0
 40
2.0
  1
Produto:
 41
0.8
  7
SANINDUSA
 11
-134.0
 21
63.25
 31
0.0
100
AcDbText
 73
     2
  0
LINE
  5
BE1
330
B9E
100
AcDbEntity
  8
3
100
AcDbLine
 10
-40.0
 20
4.0
 30
0.0
 11
-40.0
 21
65.0
 31
0.0
  0
LWPOLYLINE
  5
BE2
102
{ACAD_REACTORS
330
BEC
102
}
330
B9E
100
AcDbEntity
  8
9
100
AcDbPolyline
 90
       12
 70
     1
 43
0.0
 10
-3.038714600644652
 20
58.90010174665076
 10
-5.726962862472191
 20
58.90010174665076
 10
-5.726962862472191
 20
58.5001017466509
 10
-3.038748516195028
 20
58.5001017466509
 42
-0.4142135623731731
 10
-2.638748516194482
 20
58.1001017466508
 10
-2.638748516194482
 20
57.42799728675596
 10
-5.21497371544865
 20
57.42799728675596
 42
0.4142135623731289
 10
-6.014973715448377
 20
56.627997286756
 10
-6.014973715448377
 20
55.92380871629643
 42
0.4142135623731132
 10
-5.21497371544865
 20
55.12380871629648
 10
-2.23871460064447
 20
55.12380871629648
 10
-2.23871460064447
 20
58.10010174665103
 42
0.4142135623730717
  0
LWPOLYLINE
  5
BE3
102
{ACAD_REACTORS
330
BEC
102
}
330
B9E
100
AcDbEntity
  8
9
100
AcDbPolyline
 90
       20
 70
     1
 43
0.0
 10
-10.01531287095122
 20
57.82799728675581
 10
-10.01531287095122
 20
58.10010174665103
 42
-0.4142135623730744
 10
-9.615312870951584
 20
58.5001017466509
 10
-6.92703069357276
 20
58.5001017466509
 10
-6.92703069357276
 20
58.90010174665076
 10
-9.615346786501959
 20
58.90010174665076
 42
0.4142135623730883
 10
-10.41534678650168
 20
58.1001017466508
 10
-10.41534678650168
 20
57.82796337120567
 42
0.4142135623730717
 10
-9.615346786501959
 20
57.02796337120571
 10
-7.423079531965413
 20
57.02796337120571
 42
-0.4142135623730847
 10
-7.023079531965322
 20
56.62796337120562
 10
-7.023079531965322
 20
55.90786840766487
 42
-0.4142135623730744
 10
-7.423079531965413
 20
55.507868407665
 10
-10.41534678650168
 20
55.507868407665
 10
-10.41534678650168
 20
55.12380871629648
 10
-7.445787917283723
 20
55.12380871629648
 42
0.4114777732064574
 10
-6.645822882998345
 20
55.9163291493976
 10
-6.639238813324936
 20
56.62051771985716
 42
0.4169546541682913
 10
-7.439203847610315
 20
57.42799728675596
 10
-9.615312870951584
 20
57.42799728675596
 42
-0.4142135623731576
  0
LWPOLYLINE
  5
BE4
102
{ACAD_REACTORS
330
BEC
102
}
330
B9E
100
AcDbEntity
  8
9
100
AcDbPolyline
 90
       12
 70
     1
 43
0.0
 10
-14.41561811090378
 20
58.90010174665076
 10
-14.79964388672215
 20
58.90010174665076
 10
-14.79964388672215
 20
55.92380871629643
 42
0.4142135623731133
 10
-13.99964388672242
 20
55.12380871629648
 10
-11.8233508563676
 20
55.12380871629648
 42
0.4142135623730872
 10
-11.02335085636741
 20
55.92380871629643
 10
-11.02335085636741
 20
58.90010174665076
 10
-11.42338477191788
 20
58.90010174665076
 10
-11.42338477191788
 20
55.91567577726095
 42
-0.4131711701795318
 10
-11.82196067063523
 20
55.51567831234956
 10
-14.0141940096214
 20
55.50787335710947
 42
-0.4152567234624407
 10
-14.41561811090378
 20
55.90787082202087
  0
LWPOLYLINE
  5
BE5
102
{ACAD_REACTORS
330
BEC
102
}
330
B9E
100
AcDbEntity
  8
9
100
AcDbPolyline
 90
        6
 70
     1
 43
0.0
 10
-15.80771578768872
 20
55.507868407665
 10
-18.39994912667453
 20
55.507868407665
 42
-0.4142135623731731
 10
-18.79994912667462
 20
55.90786840766487
 10
-18.79994912667462
 20
58.10010174665103
 42
-0.4142135623730744
 10
-18.39994912667453
 20
58.5001017466509
 10
-15.80771578768872
 20
58.5001017466509
  0
LWPOLYLINE
  5
BE6
102
{ACAD_REACTORS
330
BEC
102
}
330
B9E
100
AcDbEntity
  8
9
100
AcDbPolyline
 90
        8
 70
     1
 43
0.0
 10
-15.4236900118708
 20
59.87619128370352
 10
-15.80771578768872
 20
59.87619128370352
 10
-15.80771578768872
 20
58.90010174665076
 10
-18.39176256411201
 20
58.90010174665076
 42
0.4131164467977967
 10
-19.19175694739761
 20
58.1030995310698
 10
-19.1999120763262
 20
55.92680650071542
 42
0.4153115297271718
 10
-18.39991769304061
 20
55.12380871629648
 10
-15.4236900118708
 20
55.12380871629648
  0
LWPOLYLINE
  5
BE7
102
{ACAD_REACTORS
330
BEC
102
}
330
B9E
100
AcDbEntity
  8
9
100
AcDbPolyline
 90
       10
 70
     1
 43
0.0
 10
-20.59201288790928
 20
58.90010174665076
 10
-23.56830591826338
 20
58.90010174665076
 10
-23.56830591826338
 20
55.12380871629648
 10
-23.18424622689509
 20
55.12380871629648
 10
-23.18424622689509
 20
58.5001017466509
 10
-20.59204680345965
 20
58.5001017466509
 42
-0.4142135623730898
 10
-20.19204680345956
 20
58.1001017466508
 10
-20.19204680345956
 20
55.12380871629648
 10
-19.79201288790909
 20
55.12380871629648
 10
-19.79201288790909
 20
58.10010174665103
 42
0.4142135623731132
  0
LWPOLYLINE
  5
BE8
102
{ACAD_REACTORS
330
BEC
102
}
330
B9E
100
AcDbEntity
  8
9
100
AcDbPolyline
 90
        4
 70
     1
 43
0.0
 10
-24.19231812786165
 20
58.90010174665076
 10
-24.57637781922995
 20
58.90010174665076
 10
-24.57637781922995
 20
55.12380871629648
 10
-24.19231812786165
 20
55.12380871629648
  0
LWPOLYLINE
  5
BE9
102
{ACAD_REACTORS
330
BEC
102
}
330
B9E
100
AcDbEntity
  8
9
100
AcDbPolyline
 90
       10
 70
     1
 43
0.0
 10
-28.57661522808212
 20
58.5001017466509
 10
-25.98444972019706
 20
58.5001017466509
 42
-0.4142135623731731
 10
-25.58444972019652
 20
58.1001017466508
 10
-25.58444972019652
 20
55.12380871629648
 10
-25.2004239443786
 20
55.12380871629648
 10
-25.2004239443786
 20
58.10010174665103
 42
0.4142135623730717
 10
-26.00042394437833
 20
58.90010174665076
 10
-28.97664914363259
 20
58.90010174665076
 10
-28.97664914363259
 20
55.12380871629648
 10
-28.57661522808212
 20
55.12380871629648
  0
LWPOLYLINE
  5
BEA
102
{ACAD_REACTORS
330
BEC
102
}
330
B9E
100
AcDbEntity
  8
9
100
AcDbPolyline
 90
       12
 70
     1
 43
0.0
 10
-29.58465321349832
 20
58.10010174665103
 42
0.4142135623730716
 10
-30.3846532134985
 20
58.90010174665076
 10
-33.07296930642724
 20
58.90010174665076
 10
-33.07296930642724
 20
58.5001017466509
 10
-30.38468712904842
 20
58.5001017466509
 42
-0.4142135623730067
 10
-29.98468712904878
 20
58.1001017466508
 10
-29.98468712904878
 20
57.42799728675618
 10
-32.56098015940324
 20
57.42799728675596
 42
0.4142135623731289
 10
-33.36098015940343
 20
56.627997286756
 10
-33.36098015940343
 20
55.92380871629643
 42
0.4142135623731132
 10
-32.56098015940324
 20
55.12380871629648
 10
-29.58465321349832
 20
55.12380871629648
  0
LWPOLYLINE
  5
BEB
102
{ACAD_REACTORS
330
BEC
102
}
330
B9E
100
AcDbEntity
  8
9
100
AcDbPolyline
 90
       20
 70
     1
 43
0.0
 10
-34.7850262845518
 20
57.42799728675596
 10
-36.96125148380543
 20
57.42799728675596
 42
-0.4142135623730898
 10
-37.36125148380552
 20
57.82799728675604
 10
-37.36125148380552
 20
58.10010174665103
 42
-0.4142135623730744
 10
-36.96125148380543
 20
58.5001017466509
 10
-34.27303713752781
 20
58.50010174665067
 10
-34.27303713752781
 20
58.90010174665076
 10
-36.96128539935535
 20
58.90010174665076
 42
0.4142135623731289
 10
-37.76128539935553
 20
58.1001017466508
 10
-37.76128539935553
 20
57.82796337120567
 42
0.4142135623730716
 10
-36.9612853993558
 20
57.02796337120571
 10
-34.76901814481926
 20
57.02796337120571
 42
-0.414213562373168
 10
-34.36901814481962
 20
56.62796337120562
 10
-34.36901814481962
 20
55.90786840766487
 42
-0.4142135623730744
 10
-34.76901814481926
 20
55.507868407665
 10
-37.76128539935553
 20
55.507868407665
 10
-37.76128539935553
 20
55.12380871629648
 10
-34.7850262845518
 20
55.12380871629648
 42
0.4142135623731289
 10
-33.98502628455162
 20
55.92380871629643
 10
-33.98502628455162
 20
56.627997286756
 42
0.4142135623731132
  0
HATCH
  5
BEC
330
B9E
100
AcDbEntity
  8
9
100
AcDbHatch
 10
0.0
 20
0.0
 30
0.0
210
0.0
220
0.0
230
1.0
  2
SOLID
 70
     1
 71
     1
 91
       13
 92
        7
 72
     1
 73
     1
 93
       20
 10
-34.36901814481962
 20
55.90786840766487
 42
-0.414213562372991
 10
-34.76901814481926
 20
55.507868407665
 42
0.0
 10
-37.76128539935553
 20
55.507868407665
 42
0.0
 10
-37.76128539935553
 20
55.12380871629648
 42
0.0
 10
-34.7850262845518
 20
55.12380871629648
 42
0.4142135623731705
 10
-33.98502628455162
 20
55.92380871629666
 42
0.0
 10
-33.98502628455162
 20
56.627997286756
 42
0.4142135623731547
 10
-34.7850262845518
 20
57.42799728675596
 42
0.0
 10
-36.96125148380543
 20
57.42799728675596
 42
-0.4142135623730898
 10
-37.36125148380552
 20
57.82799728675604
 42
0.0
 10
-37.36125148380552
 20
58.1001017466508
 42
-0.4142135623731575
 10
-36.96125148380543
 20
58.5001017466509
 42
0.0
 10
-34.27303713752781
 20
58.50010174665067
 42
0.0
 10
-34.27303713752781
 20
58.90010174665076
 42
0.0
 10
-36.96128539935535
 20
58.90010174665076
 42
0.4142135623731705
 10
-37.76128539935553
 20
58.10010174665058
 42
0.0
 10
-37.76128539935553
 20
57.82796337120544
 42
0.4142135623730299
 10
-36.9612853993558
 20
57.02796337120571
 42
0.0
 10
-34.76901814481926
 20
57.02796337120571
 42
-0.4142135623730015
 10
-34.36901814481962
 20
56.62796337120608
 42
0.0
 97
        1
330
BEB
 92
        7
 72
     1
 73
     1
 93
       12
 10
-33.36098015940343
 20
55.92380871629666
 42
0.4142135623731547
 10
-32.56098015940324
 20
55.12380871629648
 42
0.0
 10
-29.58465321349877
 20
55.12380871629648
 42
0.0
 10
-29.58465321349832
 20
58.10010174665058
 42
0.4142135623731964
 10
-30.3846532134985
 20
58.90010174665076
 42
0.0
 10
-33.07296930642724
 20
58.90010174665076
 42
0.0
 10
-33.07296930642724
 20
58.50010174665067
 42
0.0
 10
-30.38468712904887
 20
58.5001017466509
 42
-0.4142135623732564
 10
-29.98468712904878
 20
58.10010174665103
 42
0.0
 10
-29.98468712904923
 20
57.42799728675596
 42
0.0
 10
-32.56098015940324
 20
57.42799728675596
 42
0.4142135623731705
 10
-33.36098015940343
 20
56.627997286756
 42
0.0
 97
        1
330
BEA
 92
       22
 72
     1
 73
     1
 93
        6
 10
-32.97692046803468
 20
56.62796337120562
 42
-0.4142135623731576
 10
-32.57692046803459
 20
57.02796337120571
 42
0.0
 10
-29.98468712904878
 20
57.02796337120571
 42
0.0
 10
-29.98468712904878
 20
55.507868407665
 42
0.0
 10
-32.57692046803459
 20
55.507868407665
 42
-0.4142135623731731
 10
-32.97692046803468
 20
55.90786840766487
 42
0.0
 97
        1
330
C11
 92
        7
 72
     1
 73
     1
 93
       10
 10
-28.57661522808212
 20
58.5001017466509
 42
0.0
 10
-25.98444972019661
 20
58.5001017466509
 42
-0.4142135623730067
 10
-25.58444972019652
 20
58.10010174665058
 42
0.0
 10
-25.58444972019606
 20
55.12380871629648
 42
0.0
 10
-25.20042394437906
 20
55.12380871629648
 42
0.0
 10
-25.2004239443786
 20
58.1001017466508
 42
0.4142135623731134
 10
-26.00042394437833
 20
58.90010174665076
 42
0.0
 10
-28.97664914363259
 20
58.90010174665076
 42
0.0
 10
-28.97664914363259
 20
55.12380871629648
 42
0.0
 10
-28.57661522808212
 20
55.12380871629648
 42
0.0
 97
        1
330
BE9
 92
        7
 72
     0
 73
     1
 93
        4
 10
-24.57637781922995
 20
55.12380871629648
 10
-24.19231812786165
 20
55.12380871629648
 10
-24.19231812786165
 20
58.90010174665076
 10
-24.57637781922995
 20
58.90010174665076
 97
        1
330
BE8
 92
        7
 72
     0
 73
     1
 93
        4
 10
-24.19231812786165
 20
59.87619128370352
 10
-24.5763778192304
 20
59.87619128370352
 10
-24.5763778192304
 20
59.28412752246913
 10
-24.1923181278612
 20
59.28412752246913
 97
        1
330
C12
 92
        7
 72
     1
 73
     1
 93
       10
 10
-23.18424622689509
 20
58.5001017466509
 42
0.0
 10
-20.59204680345965
 20
58.5001017466509
 42
-0.4142135623730898
 10
-20.19204680345956
 20
58.1001017466508
 42
0.0
 10
-20.19204680345956
 20
55.12380871629648
 42
0.0
 10
-19.79201288790909
 20
55.12380871629648
 42
0.0
 10
-19.79201288790909
 20
58.1001017466508
 42
0.4142135623731547
 10
-20.59201288790928
 20
58.90010174665076
 42
0.0
 10
-23.56830591826338
 20
58.90010174665076
 42
0.0
 10
-23.56830591826338
 20
55.12380871629648
 42
0.0
 10
-23.18424622689463
 20
55.12380871629648
 42
0.0
 97
        1
330
BE7
 92
        7
 72
     1
 73
     1
 93
        8
 10
-19.1999120763262
 20
55.92680650071542
 42
0.4153115297271299
 10
-18.39991769304061
 20
55.12380871629648
 42
0.0
 10
-15.4236900118708
 20
55.12380871629648
 42
0.0
 10
-15.4236900118708
 20
59.87619128370352
 42
0.0
 10
-15.80771578768872
 20
59.87619128370352
 42
0.0
 10
-15.80771578768872
 20
58.90010174665076
 42
0.0
 10
-18.39176256411201
 20
58.90010174665076
 42
0.4131164467977965
 10
-19.19175694739761
 20
58.1030995310698
 42
0.0
 97
        1
330
BE6
 92
       22
 72
     1
 73
     1
 93
        6
 10
-18.79994912667462
 20
58.1001017466508
 42
-0.4142135623731575
 10
-18.39994912667453
 20
58.5001017466509
 42
0.0
 10
-15.80771578768872
 20
58.50010174665067
 42
0.0
 10
-15.80771578768827
 20
55.507868407665
 42
0.0
 10
-18.39994912667453
 20
55.507868407665
 42
-0.4142135623731731
 10
-18.79994912667462
 20
55.90786840766487
 42
0.0
 97
        1
330
BE5
 92
        7
 72
     1
 73
     1
 93
       12
 10
-14.79964388672215
 20
55.92380871629621
 42
0.4142135623729885
 10
-13.99964388672242
 20
55.12380871629648
 42
0.0
 10
-11.8233508563676
 20
55.12380871629648
 42
0.4142135623731289
 10
-11.02335085636741
 20
55.92380871629666
 42
0.0
 10
-11.02335085636741
 20
58.90010174665076
 42
0.0
 10
-11.42338477191788
 20
58.90010174665076
 42
0.0
 10
-11.42338477191788
 20
55.91567577726095
 42
-0.4131711701795319
 10
-11.82196067063523
 20
55.51567831234956
 42
0.0
 10
-14.01419400962095
 20
55.50787335710947
 42
-0.4152567234626918
 10
-14.41561811090378
 20
55.90787082202087
 42
0.0
 10
-14.41561811090378
 20
58.90010174665076
 42
0.0
 10
-14.7996438867226
 20
58.90010174665076
 42
0.0
 97
        1
330
BE4
 92
        7
 72
     1
 73
     1
 93
       20
 10
-7.423079531965413
 20
57.02796337120571
 42
-0.414213562373168
 10
-7.023079531965322
 20
56.62796337120562
 42
0.0
 10
-7.023079531965322
 20
55.90786840766487
 42
-0.4142135623731575
 10
-7.423079531965413
 20
55.507868407665
 42
0.0
 10
-10.41534678650168
 20
55.507868407665
 42
0.0
 10
-10.41534678650168
 20
55.12380871629648
 42
0.0
 10
-7.445787917283723
 20
55.12380871629648
 42
0.4114777732065809
 10
-6.645822882998345
 20
55.91632914939783
 42
0.0
 10
-6.639238813324936
 20
56.62051771985716
 42
0.4169546541682913
 10
-7.439203847610315
 20
57.42799728675596
 42
0.0
 10
-9.615312870951584
 20
57.42799728675596
 42
-0.4142135623729911
 10
-10.01531287095122
 20
57.82799728675581
 42
0.0
 10
-10.01531287095122
 20
58.10010174665103
 42
-0.414213562372991
 10
-9.615312870951584
 20
58.5001017466509
 42
0.0
 10
-6.92703069357276
 20
58.50010174665067
 42
0.0
 10
-6.927030693572305
 20
58.90010174665076
 42
0.0
 10
-9.615346786501959
 20
58.90010174665076
 42
0.4142135623730467
 10
-10.41534678650168
 20
58.10010174665103
 42
0.0
 10
-10.41534678650168
 20
57.82796337120544
 42
0.4142135623730301
 10
-9.615346786501959
 20
57.02796337120571
 42
0.0
 97
        1
330
BE3
 92
        7
 72
     1
 73
     1
 93
       12
 10
-5.21497371544865
 20
57.42799728675596
 42
0.4142135623730871
 10
-6.014973715448377
 20
56.627997286756
 42
0.0
 10
-6.014973715448377
 20
55.92380871629621
 42
0.4142135623730715
 10
-5.21497371544865
 20
55.12380871629648
 42
0.0
 10
-2.23871460064447
 20
55.12380871629648
 42
0.0
 10
-2.23871460064447
 20
58.10010174665058
 42
0.414213562373155
 10
-3.038714600644652
 20
58.90010174665076
 42
0.0
 10
-5.726962862471737
 20
58.90010174665076
 42
0.0
 10
-5.726962862472191
 20
58.5001017466509
 42
0.0
 10
-3.038748516194573
 20
58.5001017466509
 42
-0.4142135623730067
 10
-2.638748516194482
 20
58.10010174665058
 42
0.0
 10
-2.638748516194482
 20
57.42799728675596
 42
0.0
 97
        1
330
BE2
 92
       22
 72
     1
 73
     1
 93
        6
 10
-2.638748516194937
 20
57.02796337120571
 42
0.0
 10
-2.638748516194482
 20
55.50786840766477
 42
0.0
 10
-5.21497371544865
 20
55.507868407665
 42
-0.4142135623731731
 10
-5.614973715448741
 20
55.90786840766509
 42
0.0
 10
-5.614973715448741
 20
56.62796337120562
 42
-0.4142135623731576
 10
-5.21497371544865
 20
57.02796337120571
 42
0.0
 97
        1
330
C0D
 75
     0
 76
     1
 47
0.0407044778999864
 98
       13
 10
-34.18710075113677
 20
56.16907953933765
 10
-33.12851374392494
 20
56.49471602641233
 10
-33.12851374392494
 20
56.49471602641233
 10
-28.77202873835904
 20
57.51232930166111
 10
-24.41554807250941
 20
57.91937341678636
 10
-24.41554807250941
 20
59.384734621186
 10
-23.31624584658039
 20
58.3264175319116
 10
-19.04119127844888
 20
57.75655517324913
 10
-19.04119127844888
 20
57.75655517324913
 10
-14.64399105416578
 20
57.43091868617466
 10
-8.048195057457178
 20
57.22739662861204
 10
-4.017427461911665
 20
57.18669281458665
 10
-4.017427461911665
 20
57.18669281458665
  0
TEXT
  5
BED
330
B9E
100
AcDbEntity
  8
leg fin
100
AcDbText
 10
3.391127401597259
 20
2.107634911895729
 30
0.0
 40
1.5
  1
Este desenho é propriedade da Sanindusa, S.A., e não pode ser copiado nem divulgado sem nossa autorização.
 50
90.0
 41
0.8
  7
SANINDUSA
100
AcDbText
  0
LINE
  5
BEE
330
B9E
100
AcDbEntity
  8
3
100
AcDbLine
 10
-90.0
 20
4.0
 30
0.0
 11
-90.0
 21
12.0
 31
0.0
  0
TEXT
  5
BEF
330
B9E
100
AcDbEntity
  8
1
100
AcDbText
 10
-39.0
 20
9.25
 30
0.0
 40
2.0
  1
Substituido por:
 41
0.8
  7
SANINDUSA
 11
-39.0
 21
10.25
 31
0.0
100
AcDbText
 73
     2
  0
POINT
  5
BF0
330
B9E
100
AcDbEntity
  8
SANINDUSA
100
AcDbPoint
 10
0.0
 20
0.0
 30
0.0
  0
TEXT
  5
BF1
330
B9E
100
AcDbEntity
  8
1
100
AcDbText
 10
-89.0
 20
16.74927010445663
 30
0.0
 40
2.0
  1
Normas:
 41
0.8
  7
SANINDUSA
 11
-89.0
 21
17.74927010445663
 31
0.0
100
AcDbText
 73
     2
  0
LINE
  5
BF2
330
B9E
100
AcDbEntity
  8
3
100
AcDbLine
 10
-90.0
 20
12.0
 30
0.0
 11
-90.0
 21
20.0
 31
0.0
  0
LINE
  5
BF3
330
B9E
100
AcDbEntity
  8
3
100
AcDbLine
 10
-110.546019464768
 20
12.0
 30
0.0
 11
-110.546019464768
 21
20.0
 31
0.0
  0
TEXT
  5
BF4
330
B9E
100
AcDbEntity
  8
1
100
AcDbText
 10
-109.6177520618648
 20
17.25
 30
0.0
 40
2.0
  1
Cor:
 41
0.8
  7
SANINDUSA
 11
-109.6177520618648
 21
18.25
 31
0.0
100
AcDbText
 73
     2
  0
LINE
  5
BF5
330
B9E
100
AcDbEntity
  8
leg fin
100
AcDbLine
 10
-91.42857142857156
 20
20.0
 30
0.0
 11
-91.42857142857156
 21
28.5
 31
0.0
  0
LINE
  5
BF6
330
B9E
100
AcDbEntity
  8
leg fin
100
AcDbLine
 10
-104.2857142857142
 20
20.0
 30
0.0
 11
-104.2857142857142
 21
28.5
 31
0.0
  0
LINE
  5
BF7
330
B9E
100
AcDbEntity
  8
leg fin
100
AcDbLine
 10
-117.1428571428573
 20
20.0
 30
0.0
 11
-117.1428571428573
 21
28.5
 31
0.0
  0
POINT
  5
BF8
330
B9E
100
AcDbEntity
  8
SANINDUSA
100
AcDbPoint
 10
-117.1428571428573
 20
28.5
 30
0.0
  0
POINT
  5
BF9
330
B9E
100
AcDbEntity
  8
SANINDUSA
100
AcDbPoint
 10
-104.2857142857142
 20
28.5
 30
0.0
  0
POINT
  5
BFA
330
B9E
100
AcDbEntity
  8
SANINDUSA
100
AcDbPoint
 10
-91.42857142857156
 20
28.5
 30
0.0
  0
TEXT
  5
BFB
330
B9E
100
AcDbEntity
  8
1
100
AcDbText
 10
-116.200160604496
 20
26.43288406845113
 30
0.0
 40
1.5
  1
Nº Seq.:
 41
0.8
  7
SANINDUSA
 11
-116.200160604496
 21
27.18288406845113
 31
0.0
100
AcDbText
 73
     2
  0
TEXT
  5
BFC
330
B9E
100
AcDbEntity
  8
1
100
AcDbText
 10
-103.2106584078738
 20
26.43288406845113
 30
0.0
 40
1.5
  1
Tipo:
 41
0.8
  7
SANINDUSA
 11
-103.2106584078738
 21
27.18288406845113
 31
0.0
100
AcDbText
 73
     2
  0
TEXT
  5
BFD
330
B9E
100
AcDbEntity
  8
1
100
AcDbText
 10
-90.22114672289353
 20
26.43288406845113
 30
0.0
 40
1.5
  1
Prod.:
 41
0.8
  7
SANINDUSA
 11
-90.22114672289353
 21
27.18288406845113
 31
0.0
100
AcDbText
 73
     2
  0
TEXT
  5
BFE
330
B9E
100
AcDbEntity
  8
1
100
AcDbText
 10
-64.77320576346574
 20
26.43288406845113
 30
0.0
 40
1.5
  1
Rev.:
 41
0.8
  7
SANINDUSA
 11
-64.77320576346574
 21
27.18288406845113
 31
0.0
100
AcDbText
 73
     2
  0
LINE
  5
BFF
330
B9E
100
AcDbEntity
  8
leg fin
100
AcDbLine
 10
-52.85714285714266
 20
20.0
 30
0.0
 11
-52.85714285714266
 21
28.5
 31
0.0
  0
LINE
  5
C00
330
B9E
100
AcDbEntity
  8
leg fin
100
AcDbLine
 10
-65.71428571428578
 20
20.0
 30
0.0
 11
-65.71428571428578
 21
28.5
 31
0.0
  0
LINE
  5
C01
330
B9E
100
AcDbEntity
  8
leg fin
100
AcDbLine
 10
-78.57142857142844
 20
20.0
 30
0.0
 11
-78.57142857142844
 21
28.5
 31
0.0
  0
POINT
  5
C02
330
B9E
100
AcDbEntity
  8
SANINDUSA
100
AcDbPoint
 10
-78.57142857142844
 20
28.5
 30
0.0
  0
POINT
  5
C03
330
B9E
100
AcDbEntity
  8
SANINDUSA
100
AcDbPoint
 10
-65.71428571428578
 20
28.5
 30
0.0
  0
POINT
  5
C04
330
B9E
100
AcDbEntity
  8
SANINDUSA
100
AcDbPoint
 10
-52.85714285714266
 20
28.5
 30
0.0
  0
TEXT
  5
C05
330
B9E
100
AcDbEntity
  8
1
100
AcDbText
 10
-77.61097961686573
 20
26.43288406845113
 30
0.0
 40
1.5
  1
Peça:
 41
0.8
  7
SANINDUSA
 11
-77.61097961686573
 21
27.18288406845113
 31
0.0
100
AcDbText
 73
     2
  0
TEXT
  5
C06
330
B9E
100
AcDbEntity
  8
1
100
AcDbText
 10
-52.06538060077036
 20
26.43288406845113
 30
0.0
 40
1.5
  1
Alt.:
 41
0.8
  7
SANINDUSA
 11
-52.06538060077036
 21
27.18288406845113
 31
0.0
100
AcDbText
 73
     2
  0
LINE
  5
C07
330
B9E
100
AcDbEntity
  8
3
100
AcDbLine
 10
0.0
 20
12.0
 30
0.0
 11
-40.0
 21
12.0
 31
0.0
  0
LINE
  5
C08
330
B9E
100
AcDbEntity
  8
3
100
AcDbLine
 10
-40.0
 20
32.5
 30
0.0
 11
0.0
 21
32.5
 31
0.0
  0
TEXT
  5
C09
330
B9E
100
AcDbEntity
  8
1
100
AcDbText
 10
-19.0
 20
29.75
 30
0.0
 40
2.0
  1
Folha:
 41
0.8
  7
SANINDUSA
 11
-19.0
 21
30.75
 31
0.0
100
AcDbText
 73
     2
  0
LINE
  5
C0A
330
B9E
100
AcDbEntity
  8
3
100
AcDbLine
 10
-20.0
 20
32.5
 30
0.0
 11
-20.0
 21
20.0
 31
0.0
  0
TEXT
  5
C0B
330
B9E
100
AcDbEntity
  8
1
100
AcDbText
 10
-39.0
 20
29.75
 30
0.0
 40
2.0
  1
Escala:
 41
0.8
  7
SANINDUSA
 11
-39.0
 21
30.75
 31
0.0
100
AcDbText
 73
     2
  0
TEXT
  5
C0C
330
B9E
100
AcDbEntity
  8
1
100
AcDbText
 10
-39.0
 20
17.25
 30
0.0
 40
2.0
  1
Substitui:
 41
0.8
  7
SANINDUSA
 11
-39.0
 21
18.25
 31
0.0
100
AcDbText
 73
     2
  0
LWPOLYLINE
  5
C0D
102
{ACAD_REACTORS
330
BEC
102
}
330
B9E
100
AcDbEntity
  8
9
100
AcDbPolyline
 90
        6
 70
     1
 43
0.0
 10
-2.638748516194482
 20
57.02796337120571
 10
-2.638748516194482
 20
55.50786840766477
 10
-5.21497371544865
 20
55.507868407665
 42
-0.4142135623730898
 10
-5.614973715448741
 20
55.90786840766487
 10
-5.614973715448741
 20
56.62796337120562
 42
-0.4142135623731576
 10
-5.21497371544865
 20
57.02796337120571
  0
LINE
  5
C0E
330
B9E
100
AcDbEntity
  8
3
100
AcDbLine
 10
-40.0
 20
50.0
 30
0.0
 11
0.0
 21
50.0
 31
0.0
  0
ATTDEF
  5
C0F
330
B9E
100
AcDbEntity
  8
1
100
AcDbText
 10
-31.30691739422431
 20
40.25
 30
0.0
 40
2.0
  1
XXXXXXXXXXXXXXX
 41
0.8
  7
SANINDUSA
 72
     4
 11
-20.0
 21
41.25
 31
0.0
100
AcDbAttributeDefinition
  3
Observações:
  2
OBS
 70
     0
  0
TEXT
  5
C10
330
B9E
100
AcDbEntity
  8
1
100
AcDbText
 10
-39.0
 20
47.25
 30
0.0
 40
2.0
  1
Observações:
 41
0.8
  7
SANINDUSA
 11
-39.0
 21
48.25
 31
0.0
100
AcDbText
 73
     2
  0
LWPOLYLINE
  5
C11
102
{ACAD_REACTORS
330
BEC
102
}
330
B9E
100
AcDbEntity
  8
9
100
AcDbPolyline
 90
        6
 70
     1
 43
0.0
 10
-29.98468712904878
 20
57.02796337120571
 10
-29.98468712904878
 20
55.507868407665
 10
-32.57692046803459
 20
55.507868407665
 42
-0.4142135623731731
 10
-32.97692046803468
 20
55.90786840766487
 10
-32.97692046803468
 20
56.62796337120562
 42
-0.4142135623731576
 10
-32.57692046803459
 20
57.02796337120571
  0
LWPOLYLINE
  5
C12
102
{ACAD_REACTORS
330
BEC
102
}
330
B9E
100
AcDbEntity
  8
9
100
AcDbPolyline
 90
        4
 70
     1
 43
0.0
 10
-24.19231812786165
 20
59.87619128370352
 10
-24.57637781922995
 20
59.87619128370352
 10
-24.57637781922995
 20
59.28412752246913
 10
-24.19231812786165
 20
59.28412752246913
  0
ENDBLK
  5
C14
330
B9E
100
AcDbEntity
  8
0
100
AcDbBlockEnd
  0
ENDSEC
  0
SECTION
  2
ENTITIES
  0
LINE
  5
1F62
330
1F
100
AcDbEntity
  8
SANINDUSA
100
AcDbLine
 10
5043.617587737774
 20
3155.390616054819
 30
0.0
 11
5043.62258697613
 21
3155.390616054819
 31
0.0
  0
LINE
  5
1F7A
330
1F
100
AcDbEntity
  8
SANINDUSA
100
AcDbLine
 10
5044.932030977764
 20
3155.390616054819
 30
0.0
 11
5044.937030216122
 21
3155.390616054819
 31
0.0
  0
LINE
  5
1F7B
330
1F
100
AcDbEntity
  8
SANINDUSA
100
AcDbLine
 10
5046.211305787037
 20
3155.390616054819
 30
0.0
 11
5046.207305177705
 21
3155.390616054819
 31
0.0
  0
LWPOLYLINE
  5
2038
330
1F
100
AcDbEntity
  8
SANINDUSA
100
AcDbPolyline
 90
       34
 70
   128
 43
0.0
 10
5044.093200878566
 20
3155.29517613648
 10
5044.09416736788
 20
3155.295164215551
 10
5044.095393495029
 20
3155.295147421942
 10
5044.096678630775
 20
3155.295130553827
 10
5044.09801586098
 20
3155.295114535079
 10
5044.102264390653
 20
3155.295065569863
 10
5044.106866524881
 20
3155.295018571601
 10
5044.113551722233
 20
3155.294965523467
 10
5044.120863424009
 20
3155.294929417954
 10
5044.128800736134
 20
3155.294914114461
 10
5044.137363181775
 20
3155.294921073303
 10
5044.146550641721
 20
3155.294950100766
 10
5044.15634821481
 20
3155.295000049458
 10
5044.165889249509
 20
3155.295062395916
 10
5044.174669073289
 20
3155.295129287229
 10
5044.18460641927
 20
3155.295214372859
 10
5044.193346427148
 20
3155.295295971618
 10
5044.20088921613
 20
3155.295370313511
 10
5044.207235024636
 20
3155.295434790835
 10
5044.210081384843
 20
3155.295464071617
 10
5044.212706492608
 20
3155.29549117683
 10
5044.215906129544
 20
3155.295524242506
 10
5044.219842062657
 20
3155.295564922676
 10
5044.224514470761
 20
3155.295613291845
 10
5044.229923234647
 20
3155.295669499026
 10
5044.237385855382
 20
3155.295747655616
 10
5044.245909021562
 20
3155.29583804606
 10
5044.255492613976
 20
3155.295941445217
 10
5044.266136692232
 20
3155.29605889617
 10
5044.277841435139
 20
3155.296191784725
 10
5044.290369497006
 20
3155.29633915721
 10
5044.303920791811
 20
3155.296505692587
 10
5044.318495379155
 20
3155.296694654212
 10
5044.328956828778
 20
3155.296839314685
  0
ARC
  5
2039
330
1F
100
AcDbEntity
  8
SANINDUSA
100
AcDbCircle
 10
5043.707951859018
 20
3155.320834860211
 30
0.0
 40
0.0240000208506629
100
AcDbArc
 50
190.0002492779134
 51
269.2050175855881
  0
ARC
  5
203A
330
1F
100
AcDbEntity
  8
SANINDUSA
100
AcDbCircle
 10
5044.328620023168
 20
3155.320834868589
 30
0.0
 40
0.0240000200411078
100
AcDbArc
 50
270.79505787719
 51
349.999760428601
  0
LINE
  5
203B
330
1F
100
AcDbEntity
  8
SANINDUSA
100
AcDbLine
 10
5043.943420843547
 20
3155.295174393044
 30
0.0
 11
5043.971192942326
 21
3155.294204565869
 31
0.0
  0
LINE
  5
203C
330
1F
100
AcDbEntity
  8
SANINDUSA
100
AcDbLine
 10
5044.0653789205
 20
3155.294204565869
 30
0.0
 11
5044.093200878566
 21
3155.29517613648
 31
0.0
  0
LINE
  5
203D
330
1F
100
AcDbEntity
  8
SANINDUSA
100
AcDbLine
 10
5043.971192942326
 20
3155.294204565869
 30
0.0
 11
5043.981546686357
 21
3155.28310154675
 31
0.0
  0
LINE
  5
203E
330
1F
100
AcDbEntity
  8
SANINDUSA
100
AcDbLine
 10
5044.05502517647
 20
3155.28310154675
 30
0.0
 11
5044.0653789205
 21
3155.294204565869
 31
0.0
  0
LINE
  5
2041
330
1F
100
AcDbEntity
  8
SANINDUSA
100
AcDbLine
 10
5043.617587737774
 20
3155.390616054819
 30
0.0
 11
5043.618131586472
 21
3155.42177312559
 31
0.0
  0
LINE
  5
2044
330
1F
100
AcDbEntity
  8
SANINDUSA
100
AcDbLine
 10
5043.62258697613
 20
3155.390616054819
 30
0.0
 11
5044.413984881108
 21
3155.390616054819
 31
0.0
  0
LINE
  5
2046
330
1F
100
AcDbEntity
  8
SANINDUSA
100
AcDbLine
 10
5044.4184402687
 20
3155.42177312559
 30
0.0
 11
5044.418984161084
 21
3155.390616054819
 31
0.0
  0
LINE
  5
2047
330
1F
100
AcDbEntity
  8
SANINDUSA
100
AcDbLine
 10
5044.413984881108
 20
3155.390616054819
 30
0.0
 11
5044.418984161084
 21
3155.390616054819
 31
0.0
  0
LINE
  5
2048
330
1F
100
AcDbEntity
  8
SANINDUSA
100
AcDbLine
 10
5043.627130215382
 20
3155.430616053925
 30
0.0
 11
5044.409441636269
 21
3155.430616053925
 31
0.0
  0
ARC
  5
204B
330
1F
100
AcDbEntity
  8
SANINDUSA
100
AcDbCircle
 10
5044.409441664987
 20
3155.421616053925
 30
0.0
 40
0.0089999999999999
100
AcDbArc
 50
1.000000009720081
 51
90.0
  0
ARC
  5
204C
330
1F
100
AcDbEntity
  8
SANINDUSA
100
AcDbCircle
 10
5043.627130215723
 20
3155.421616053925
 30
0.0
 40
0.009
100
AcDbArc
 50
90.0
 51
178.9999999902799
  0
LINE
  5
204D
330
1F
100
AcDbEntity
  8
SANINDUSA
100
AcDbLine
 10
5043.671277311956
 20
3155.390616054819
 30
0.0
 11
5043.683255703514
 21
3155.322683233008
 31
0.0
  0
LINE
  5
204E
330
1F
100
AcDbEntity
  8
SANINDUSA
100
AcDbLine
 10
5044.353316174214
 20
3155.322683240459
 30
0.0
 11
5044.365294562047
 21
3155.390616054819
 31
0.0
  0
LWPOLYLINE
  5
205C
330
1F
100
AcDbEntity
  8
SANINDUSA
100
AcDbPolyline
 90
        5
 70
   128
 43
0.0
 10
5043.683255703514
 20
3155.322683233008
 10
5043.683837042515
 20
3155.319386276588
 10
5043.684186757868
 20
3155.317402961836
 10
5043.68431792534
 20
3155.316659073517
 10
5043.684318238264
 20
3155.316657300279
  0
LWPOLYLINE
  5
205D
330
1F
100
AcDbEntity
  8
SANINDUSA
100
AcDbPolyline
 90
        5
 70
   128
 43
0.0
 10
5044.352253602212
 20
3155.316657128916
 10
5044.352253900235
 20
3155.316658894703
 10
5044.352385149663
 20
3155.317403028891
 10
5044.352734850114
 20
3155.319386328743
 10
5044.353316174214
 20
3155.322683240459
  0
LINE
  5
205E
330
1F
100
AcDbEntity
  8
SANINDUSA
100
AcDbLine
 10
5044.018285946314
 20
3155.294204565869
 30
0.0
 11
5044.0653789205
 21
3155.294204565869
 31
0.0
  0
LINE
  5
205F
330
1F
100
AcDbEntity
  8
SANINDUSA
100
AcDbLine
 10
5043.971192942326
 20
3155.294204565869
 30
0.0
 11
5044.018285946314
 21
3155.294204565869
 31
0.0
  0
LINE
  5
2060
330
1F
100
AcDbEntity
  8
SANINDUSA
100
AcDbLine
 10
5044.018285946314
 20
3155.28310154675
 30
0.0
 11
5044.05502517647
 21
3155.28310154675
 31
0.0
  0
LINE
  5
2061
330
1F
100
AcDbEntity
  8
SANINDUSA
100
AcDbLine
 10
5043.981546686357
 20
3155.28310154675
 30
0.0
 11
5044.018285946314
 21
3155.28310154675
 31
0.0
  0
ELLIPSE
  5
207C
330
1F
100
AcDbEntity
  8
SANINDUSA
100
AcDbEllipse
 10
5042.628302257579
 20
3155.721333500282
 30
0.0
 11
0.0076715688679883
 21
-0.0076715688679883
 31
0.0
210
0.0
220
0.0
230
1.0
 40
0.9217238264485128
 41
2.371273620688822
 42
3.911911686490753
  0
LINE
  5
207F
330
1F
100
AcDbEntity
  8
SANINDUSA
100
AcDbLine
 10
5043.305401569016
 20
3155.731763335516
 30
0.0
 11
5042.627720499194
 21
3155.731763335516
 31
0.0
  0
ELLIPSE
  5
2081
330
1F
100
AcDbEntity
  8
SANINDUSA
100
AcDbEllipse
 10
5043.304819839688
 20
3155.721333500282
 30
0.0
 11
0.0076715688679883
 21
0.0076715688679883
 31
0.0
210
0.0
220
0.0
230
1.0
 40
0.9217238264485219
 41
5.512866274278642
 42
7.053504340080557
  0
LINE
  5
2082
330
1F
100
AcDbEntity
  8
SANINDUSA
100
AcDbLine
 10
5042.617872422344
 20
3155.721915258666
 30
0.0
 11
5042.617872422344
 21
3155.044234188845
 31
0.0
  0
LINE
  5
2085
330
1F
100
AcDbEntity
  8
SANINDUSA
100
AcDbLine
 10
5043.315249686845
 20
3155.044234188845
 30
0.0
 11
5043.315249686845
 21
3155.721915258666
 31
0.0
  0
ELLIPSE
  5
2087
330
1F
100
AcDbEntity
  8
SANINDUSA
100
AcDbEllipse
 10
5043.304819839688
 20
3155.044815918172
 30
0.0
 11
-0.0076715688679882
 21
0.0076715688679883
 31
0.0
210
0.0
220
0.0
230
1.0
 40
0.9217238264485239
 41
2.371273620688834
 42
3.911911686490767
  0
ELLIPSE
  5
2088
330
1F
100
AcDbEntity
  8
SANINDUSA
100
AcDbEllipse
 10
5042.628302257579
 20
3155.044815918172
 30
0.0
 11
0.0076715688679883
 21
0.0076715688679883
 31
0.0
210
0.0
220
0.0
230
1.0
 40
0.9217238264485152
 41
2.37127362068882
 42
3.91191168649077
  0
LINE
  5
208A
330
1F
100
AcDbEntity
  8
SANINDUSA
100
AcDbLine
 10
5042.627720499194
 20
3155.034386071017
 30
0.0
 11
5043.305401569016
 21
3155.034386071017
 31
0.0
  0
LINE
  5
2091
330
1F
100
AcDbEntity
  8
SANINDUSA
100
AcDbLine
 10
5043.288447564251
 20
3155.7148093084
 30
0.0
 11
5043.305401569016
 21
3155.731763335516
 31
0.0
  0
LINE
  5
2092
330
1F
100
AcDbEntity
  8
SANINDUSA
100
AcDbLine
 10
5043.315249686845
 20
3155.721915258666
 30
0.0
 11
5043.298295622475
 21
3155.704961227824
 31
0.0
  0
LINE
  5
2094
330
1F
100
AcDbEntity
  8
SANINDUSA
100
AcDbLine
 10
5042.634826442011
 20
3155.704961235275
 30
0.0
 11
5042.617872422344
 21
3155.721915258666
 31
0.0
  0
LINE
  5
2095
330
1F
100
AcDbEntity
  8
SANINDUSA
100
AcDbLine
 10
5042.627720499194
 20
3155.731763335516
 30
0.0
 11
5042.644674522586
 21
3155.71480931585
 31
0.0
  0
LINE
  5
209A
330
1F
100
AcDbEntity
  8
SANINDUSA
100
AcDbLine
 10
5042.645318118639
 20
3155.051983686735
 30
0.0
 11
5042.627720499194
 21
3155.034386071017
 31
0.0
  0
LINE
  5
209B
330
1F
100
AcDbEntity
  8
SANINDUSA
100
AcDbLine
 10
5042.617872422344
 20
3155.044234188845
 30
0.0
 11
5042.635470038064
 21
3155.061831804564
 31
0.0
  0
LWPOLYLINE
  5
209D
330
1F
100
AcDbEntity
  8
SANINDUSA
100
AcDbPolyline
 90
        5
 70
   128
 43
0.0
 10
5042.644705904431
 20
3155.714779431571
 10
5042.712467154271
 20
3155.714779498627
 10
5042.966561054594
 20
3155.714760395338
 10
5043.220654969818
 20
3155.714779424121
 10
5043.288416212209
 20
3155.714779424121
  0
LWPOLYLINE
  5
209F
330
1F
100
AcDbEntity
  8
SANINDUSA
100
AcDbPolyline
 90
       11
 70
   128
 43
0.0
 10
5043.298295622475
 20
3155.704961227824
 10
5043.298070257313
 20
3155.62932017689
 10
5043.297330206044
 20
3155.37526199465
 10
5043.296906595833
 20
3155.247039767554
 10
5043.296792750961
 20
3155.221389325907
 10
5043.296671515115
 20
3155.195731552889
 10
5043.296588545448
 20
3155.170074495127
 10
5043.296589797146
 20
3155.144426020433
 10
5043.296720986969
 20
3155.118794056227
 10
5043.297070747025
 20
3155.090249809076
 10
5043.297652071125
 20
3155.061831804564
  0
LWPOLYLINE
  5
20A0
330
1F
100
AcDbEntity
  8
SANINDUSA
100
AcDbPolyline
 90
       11
 70
   128
 43
0.0
 10
5042.635470038064
 20
3155.061831804564
 10
5042.636051384516
 20
3155.090249689867
 10
5042.636401092417
 20
3155.118793817808
 10
5042.636532259888
 20
3155.144416960528
 10
5042.636533496685
 20
3155.170056613734
 10
5042.636450594074
 20
3155.195704790404
 10
5042.636329343326
 20
3155.221353622725
 10
5042.636215535708
 20
3155.246995242884
 10
5042.635791567869
 20
3155.375261964848
 10
5042.635051762469
 20
3155.629320161989
 10
5042.634826442011
 20
3155.704961235275
  0
LWPOLYLINE
  5
20A2
330
1F
100
AcDbEntity
  8
SANINDUSA
100
AcDbPolyline
 90
       13
 70
   128
 43
0.0
 10
5043.287504201538
 20
3155.052204760363
 10
5043.229864423878
 20
3155.052282902052
 10
5043.177200441963
 20
3155.052421006014
 10
5043.124542182095
 20
3155.052640291502
 10
5043.071885531552
 20
3155.052876385501
 10
5043.019226496823
 20
3155.053065093806
 10
5042.966561084397
 20
3155.053142281821
 10
5042.946301704056
 20
3155.053089174082
 10
5042.926049595482
 20
3155.05296942835
 10
5042.872052049048
 20
3155.052682431986
 10
5042.818036502011
 20
3155.052501829912
 10
5042.764015322335
 20
3155.052382799437
 10
5042.645617870397
 20
3155.052204760363
  0
ELLIPSE
  5
20A5
330
1F
100
AcDbEntity
  8
SANINDUSA
100
AcDbEllipse
 10
5042.570863607677
 20
3155.778772150183
 30
0.0
 11
0.0035366109458463
 21
-0.0035366109458495
 31
0.0
210
0.0
220
0.0
230
1.0
 40
0.9996954598818703
 41
2.356346783440365
 42
3.926838523740102
  0
ELLIPSE
  5
20A8
330
1F
100
AcDbEntity
  8
SANINDUSA
100
AcDbEllipse
 10
5043.362258489591
 20
3155.778772150183
 30
0.0
 11
0.0035366109458472
 21
0.0035366109458485
 31
0.0
210
0.0
220
0.0
230
1.0
 40
0.9996954598819055
 41
5.497939437029592
 42
7.068431177329331
  0
ELLIPSE
  5
20AB
330
1F
100
AcDbEntity
  8
SANINDUSA
100
AcDbEllipse
 10
5042.570863607677
 20
3154.98737726827
 30
0.0
 11
0.0035366109458474
 21
0.0035366109458485
 31
0.0
210
0.0
220
0.0
230
1.0
 40
0.9996954598818705
 41
2.356346783439751
 42
3.926838523739524
  0
ELLIPSE
  5
20AE
330
1F
100
AcDbEntity
  8
SANINDUSA
100
AcDbEllipse
 10
5043.362258489591
 20
3154.98737726827
 30
0.0
 11
0.0035366109458464
 21
-0.0035366109458495
 31
0.0
210
0.0
220
0.0
230
1.0
 40
0.9996954598818804
 41
5.497939437030171
 42
7.068431177329927
  0
LINE
  5
20B0
330
1F
100
AcDbEntity
  8
SANINDUSA
100
AcDbLine
 10
5043.362259989388
 20
3155.783772911807
 30
0.0
 11
5042.57086208441
 21
3155.783772911807
 31
0.0
  0
LINE
  5
20B1
330
1F
100
AcDbEntity
  8
SANINDUSA
100
AcDbLine
 10
5042.565862846053
 20
3155.77877367345
 30
0.0
 11
5042.565862846053
 21
3154.987375768473
 31
0.0
  0
LINE
  5
20B2
330
1F
100
AcDbEntity
  8
SANINDUSA
100
AcDbLine
 10
5043.367259269364
 20
3154.987375768473
 30
0.0
 11
5043.367259269364
 21
3155.77877367345
 31
0.0
  0
LINE
  5
20B3
330
1F
100
AcDbEntity
  8
SANINDUSA
100
AcDbLine
 10
5042.57086208441
 20
3154.982376488497
 30
0.0
 11
5043.362259989388
 21
3154.982376488497
 31
0.0
  0
ARC
  5
20BF
330
1F
100
AcDbEntity
  8
SANINDUSA
100
AcDbCircle
 10
5042.64512435699
 20
3155.704545346381
 30
0.0
 40
0.0102426364891181
100
AcDbArc
 50
92.34141277895082
 51
177.8236368632002
  0
ARC
  5
20C2
330
1F
100
AcDbEntity
  8
SANINDUSA
100
AcDbCircle
 10
5043.287997769756
 20
3155.704545379991
 30
0.0
 40
0.0102425950493854
100
AcDbArc
 50
2.176142082362037
 51
87.65863431605119
  0
ARC
  5
20C6
330
1F
100
AcDbEntity
  8
SANINDUSA
100
AcDbCircle
 10
5043.286741482104
 20
3155.062517119757
 30
0.0
 40
0.0103405269306448
100
AcDbArc
 50
274.2299902201588
 51
356.4604061592793
  0
ARC
  5
20C7
330
1F
100
AcDbEntity
  8
SANINDUSA
100
AcDbCircle
 10
5042.646380654372
 20
3155.062517151729
 30
0.0
 40
0.0103405635765146
100
AcDbArc
 50
183.5397587994167
 51
265.7696662185912
  0
ARC
  5
20CA
330
1F
100
AcDbEntity
  8
SANINDUSA
100
AcDbCircle
 10
5042.733559078549
 20
3155.616076886208
 30
0.0
 40
0.0025904190258321
100
AcDbArc
 50
90.00035528739742
 51
180.0
  0
ARC
  5
20D5
330
1F
100
AcDbEntity
  8
SANINDUSA
100
AcDbCircle
 10
5043.19956311009
 20
3155.61607706997
 30
0.0
 40
0.0025903395719736
100
AcDbArc
 50
0.0
 51
90.00041328605895
  0
LWPOLYLINE
  5
20DE
330
1F
100
AcDbEntity
  8
SANINDUSA
100
AcDbPolyline
 90
        3
 70
   128
 43
0.0
 10
5042.733559062487
 20
3155.618667305233
 10
5042.741559048899
 20
3155.618667811872
 10
5042.744558622844
 20
3155.618668020489
  0
LWPOLYLINE
  5
20E0
330
1F
100
AcDbEntity
  8
SANINDUSA
100
AcDbPolyline
 90
        3
 70
   128
 43
0.0
 10
5042.730968480714
 20
3155.605077997567
 10
5042.730968614824
 20
3155.613076925995
 10
5042.730968659527
 20
3155.616077006581
  0
LWPOLYLINE
  5
20E3
330
1F
100
AcDbEntity
  8
SANINDUSA
100
AcDbPolyline
 90
        3
 70
   128
 43
0.0
 10
5043.188563471443
 20
3155.618668139698
 10
5043.196563487656
 20
3155.618667603257
 10
5043.199563091405
 20
3155.618667409541
  0
LWPOLYLINE
  5
20E4
330
1F
100
AcDbEntity
  8
SANINDUSA
100
AcDbPolyline
 90
        3
 70
   128
 43
0.0
 10
5043.202153449662
 20
3155.616077110888
 10
5043.202153628476
 20
3155.608078197362
 10
5043.202153628476
 20
3155.605078116777
  0
ARC
  5
20E6
330
1F
100
AcDbEntity
  8
SANINDUSA
100
AcDbCircle
 10
5042.744558873486
 20
3155.616078136403
 30
0.0
 40
0.0025898840983223
100
AcDbArc
 50
0.0
 51
90.00554494301162
  0
ARC
  5
20E9
330
1F
100
AcDbEntity
  8
SANINDUSA
100
AcDbCircle
 10
5043.188563331888
 20
3155.616078159414
 30
0.0
 40
0.0025899802883472
100
AcDbArc
 50
89.99691273073089
 51
180.0
  0
LWPOLYLINE
  5
20EA
330
1F
100
AcDbEntity
  8
SANINDUSA
100
AcDbPolyline
 90
        3
 70
   128
 43
0.0
 10
5042.747148757584
 20
3155.616078198673
 10
5042.747148548968
 20
3155.608079314949
 10
5042.747148474462
 20
3155.605079234364
  0
LWPOLYLINE
  5
20EC
330
1F
100
AcDbEntity
  8
SANINDUSA
100
AcDbPolyline
 90
        3
 70
   128
 43
0.0
 10
5043.185973649627
 20
3155.605079368474
 10
5043.185973411209
 20
3155.613078252198
 10
5043.185973351604
 20
3155.616078317883
  0
ARC
  5
20F0
330
1F
100
AcDbEntity
  8
SANINDUSA
100
AcDbCircle
 10
5042.798557131663
 20
3155.616082779514
 30
0.0
 40
0.0025906948005159
100
AcDbArc
 50
90.00151088336792
 51
180.0
  0
ARC
  5
20FB
330
1F
100
AcDbEntity
  8
SANINDUSA
100
AcDbCircle
 10
5043.134565129787
 20
3155.616083080795
 30
0.0
 40
0.0025905276304928
100
AcDbArc
 50
0.0
 51
90.00152708964256
  0
LWPOLYLINE
  5
2104
330
1F
100
AcDbEntity
  8
SANINDUSA
100
AcDbPolyline
 90
        3
 70
   128
 43
0.0
 10
5042.798557063348
 20
3155.618673474314
 10
5042.806557019956
 20
3155.618674502494
 10
5042.809556891925
 20
3155.618674889924
  0
LWPOLYLINE
  5
2106
330
1F
100
AcDbEntity
  8
SANINDUSA
100
AcDbPolyline
 90
        3
 70
   128
 43
0.0
 10
5042.795965915329
 20
3155.605084375264
 10
5042.795966302759
 20
3155.613083050373
 10
5042.79596643687
 20
3155.616082967045
  0
LWPOLYLINE
  5
2109
330
1F
100
AcDbEntity
  8
SANINDUSA
100
AcDbPolyline
 90
        3
 70
   128
 43
0.0
 10
5043.123565202362
 20
3155.618675024035
 10
5043.13156515897
 20
3155.618673980953
 10
5043.134565060742
 20
3155.618673608425
  0
LWPOLYLINE
  5
210A
330
1F
100
AcDbEntity
  8
SANINDUSA
100
AcDbPolyline
 90
        3
 70
   128
 43
0.0
 10
5043.137155657418
 20
3155.616083101155
 10
5043.137156015045
 20
3155.608084426047
 10
5043.13715619386
 20
3155.605084509375
  0
ARC
  5
210C
330
1F
100
AcDbEntity
  8
SANINDUSA
100
AcDbCircle
 10
5042.733558419122
 20
3155.605078009844
 30
0.0
 40
0.0025899384089711
100
AcDbArc
 50
180.0
 51
270.0046729828993
  0
ARC
  5
210E
330
1F
100
AcDbEntity
  8
SANINDUSA
100
AcDbCircle
 10
5043.199563648194
 20
3155.605078170931
 30
0.0
 40
0.0025899802823392
100
AcDbArc
 50
269.9969127307309
 51
0.0
  0
LWPOLYLINE
  5
2110
330
1F
100
AcDbEntity
  8
SANINDUSA
100
AcDbPolyline
 90
        3
 70
   128
 43
0.0
 10
5042.744558071501
 20
3155.602488831403
 10
5042.736558085091
 20
3155.602488250258
 10
5042.733558630354
 20
3155.602488071444
  0
LWPOLYLINE
  5
2112
330
1F
100
AcDbEntity
  8
SANINDUSA
100
AcDbPolyline
 90
        3
 70
   128
 43
0.0
 10
5043.199563508636
 20
3155.602488190653
 10
5043.191563492424
 20
3155.602488727095
 10
5043.18856406749
 20
3155.602488950612
  0
ARC
  5
2114
330
1F
100
AcDbEntity
  8
SANINDUSA
100
AcDbCircle
 10
5042.809557318179
 20
3155.616085285777
 30
0.0
 40
0.0025896041822564
100
AcDbArc
 50
0.0
 51
90.00943100968791
  0
ARC
  5
2116
330
1F
100
AcDbEntity
  8
SANINDUSA
100
AcDbCircle
 10
5042.744557967687
 20
3155.605079338177
 30
0.0
 40
0.0025905067761762
100
AcDbArc
 50
270.002296079981
 51
0.0
  0
ARC
  5
2118
330
1F
100
AcDbEntity
  8
SANINDUSA
100
AcDbCircle
 10
5043.123564847769
 20
3155.616085378015
 30
0.0
 40
0.0025896460439758
100
AcDbArc
 50
89.99215465184558
 51
180.0
  0
ARC
  5
2119
330
1F
100
AcDbEntity
  8
SANINDUSA
100
AcDbCircle
 10
5043.188564093676
 20
3155.605079394661
 30
0.0
 40
0.0025904440485748
100
AcDbArc
 50
180.0
 51
269.9994207950391
  0
LWPOLYLINE
  5
211A
330
1F
100
AcDbEntity
  8
SANINDUSA
100
AcDbPolyline
 90
        3
 70
   128
 43
0.0
 10
5042.812146922357
 20
3155.616085440638
 10
5042.812146490224
 20
3155.608086854936
 10
5042.812146341212
 20
3155.605087027671
  0
LWPOLYLINE
  5
211C
330
1F
100
AcDbEntity
  8
SANINDUSA
100
AcDbPolyline
 90
        3
 70
   128
 43
0.0
 10
5043.120975738175
 20
3155.605087161781
 10
5043.120975320942
 20
3155.613085762384
 10
5043.120975201733
 20
3155.616085574748
  0
ARC
  5
211E
330
1F
100
AcDbEntity
  8
SANINDUSA
100
AcDbCircle
 10
5042.798555511128
 20
3155.60508444724
 30
0.0
 40
0.0025895957998243
100
AcDbArc
 50
180.0
 51
270.0089570152305
  0
ARC
  5
2120
330
1F
100
AcDbEntity
  8
SANINDUSA
100
AcDbCircle
 10
5043.134566497697
 20
3155.605084696635
 30
0.0
 40
0.0025896961691069
100
AcDbArc
 50
269.9932638176285
 51
0.0
  0
LWPOLYLINE
  5
2122
330
1F
100
AcDbEntity
  8
SANINDUSA
100
AcDbPolyline
 90
        3
 70
   128
 43
0.0
 10
5042.80955567003
 20
3155.602496445896
 10
5042.801555743224
 20
3155.602495283606
 10
5042.798555915958
 20
3155.602494851472
  0
LWPOLYLINE
  5
2124
330
1F
100
AcDbEntity
  8
SANINDUSA
100
AcDbPolyline
 90
        3
 70
   128
 43
0.0
 10
5043.134566193231
 20
3155.602495000484
 10
5043.126566236622
 20
3155.602496147873
 10
5043.123566394456
 20
3155.602496594908
  0
ARC
  5
2128
330
1F
100
AcDbEntity
  8
SANINDUSA
100
AcDbCircle
 10
5042.863556973154
 20
3155.61609150379
 30
0.0
 40
0.0025907324068532
100
AcDbArc
 50
89.99970578576625
 51
180.0
  0
ARC
  5
2133
330
1F
100
AcDbEntity
  8
SANINDUSA
100
AcDbCircle
 10
5043.06956519817
 20
3155.616091700048
 30
0.0
 40
0.0025906404601694
100
AcDbArc
 50
0.0
 51
90.00298669656663
  0
LWPOLYLINE
  5
213C
330
1F
100
AcDbEntity
  8
SANINDUSA
100
AcDbPolyline
 90
        3
 70
   128
 43
0.0
 10
5042.863556986458
 20
3155.618682236197
 10
5042.871556943066
 20
3155.618683279278
 10
5042.874557202465
 20
3155.618683651807
  0
LWPOLYLINE
  5
213F
330
1F
100
AcDbEntity
  8
SANINDUSA
100
AcDbPolyline
 90
        3
 70
   128
 43
0.0
 10
5043.058564847118
 20
3155.618683756115
 10
5043.066564803726
 20
3155.618682742836
 10
5043.069565063126
 20
3155.618682340505
  0
LWPOLYLINE
  5
2140
330
1F
100
AcDbEntity
  8
SANINDUSA
100
AcDbPolyline
 90
        3
 70
   128
 43
0.0
 10
5042.860965644724
 20
3155.605094061019
 10
5042.860966091759
 20
3155.613092318894
 10
5042.860966240771
 20
3155.616091848137
  0
LWPOLYLINE
  5
2142
330
1F
100
AcDbEntity
  8
SANINDUSA
100
AcDbPolyline
 90
        3
 70
   128
 43
0.0
 10
5043.072155838616
 20
3155.616091967346
 10
5043.072156255848
 20
3155.608093724372
 10
5043.072156434663
 20
3155.605094180228
  0
ARC
  5
2144
330
1F
100
AcDbEntity
  8
SANINDUSA
100
AcDbCircle
 10
5042.80955554614
 20
3155.605087240973
 30
0.0
 40
0.002590795079394
100
AcDbArc
 50
270.0027397984019
 51
0.0
  0
ARC
  5
2145
330
1F
100
AcDbEntity
  8
SANINDUSA
100
AcDbCircle
 10
5043.123566483086
 20
3155.605087339825
 30
0.0
 40
0.0025907449179496
100
AcDbArc
 50
180.0
 51
269.9980398745292
  0
ARC
  5
2146
330
1F
100
AcDbEntity
  8
SANINDUSA
100
AcDbCircle
 10
5042.874557818335
 20
3155.616094147902
 30
0.0
 40
0.0025895039780009
100
AcDbArc
 50
0.0
 51
90.01362681949681
  0
ARC
  5
2149
330
1F
100
AcDbEntity
  8
SANINDUSA
100
AcDbCircle
 10
5043.058564448557
 20
3155.616094034834
 30
0.0
 40
0.0025897213120545
100
AcDbArc
 50
89.99118211902697
 51
179.9906855347905
  0
LWPOLYLINE
  5
214A
330
1F
100
AcDbEntity
  8
SANINDUSA
100
AcDbPolyline
 90
        3
 70
   128
 43
0.0
 10
5042.877147322304
 20
3155.616094366433
 10
5042.877146905071
 20
3155.608096227767
 10
5042.87714675606
 20
3155.605096787932
  0
LWPOLYLINE
  5
214C
330
1F
100
AcDbEntity
  8
SANINDUSA
100
AcDbPolyline
 90
        3
 70
   128
 43
0.0
 10
5043.055975323326
 20
3155.60509689224
 10
5043.055974906094
 20
3155.613095030906
 10
5043.05597472728
 20
3155.616094455841
  0
ARC
  5
2150
330
1F
100
AcDbEntity
  8
SANINDUSA
100
AcDbCircle
 10
5042.928558951647
 20
3155.616098478493
 30
0.0
 40
0.0025904483311783
100
AcDbArc
 50
89.99605869653187
 51
179.9891090707043
  0
ARC
  5
215B
330
1F
100
AcDbEntity
  8
SANINDUSA
100
AcDbCircle
 10
5043.004563345022
 20
3155.61609874054
 30
0.0
 40
0.0025902310167318
100
AcDbArc
 50
0.0
 51
90.00940714321302
  0
LWPOLYLINE
  5
2164
330
1F
100
AcDbEntity
  8
SANINDUSA
100
AcDbPolyline
 90
        3
 70
   128
 43
0.0
 10
5042.928559129841
 20
3155.618688926818
 10
5042.936559146053
 20
3155.618689388754
 10
5042.939559673674
 20
3155.618689537766
  0
LWPOLYLINE
  5
2167
330
1F
100
AcDbEntity
  8
SANINDUSA
100
AcDbPolyline
 90
        3
 70
   128
 43
0.0
 10
5042.993562405712
 20
3155.618689567568
 10
5043.001562392123
 20
3155.618689150335
 10
5043.004562919743
 20
3155.618688971522
  0
LINE
  5
2168
330
1F
100
AcDbEntity
  8
SANINDUSA
100
AcDbLine
 10
5042.925968175538
 20
3155.605101884129
 30
0.0
 11
5042.925968503363
 21
3155.616098970892
 31
0.0
  0
LWPOLYLINE
  5
216A
330
1F
100
AcDbEntity
  8
SANINDUSA
100
AcDbPolyline
 90
        3
 70
   128
 43
0.0
 10
5043.007153576024
 20
3155.616099015596
 10
5043.00715378464
 20
3155.608101160052
 10
5043.007153874047
 20
3155.605101928832
  0
ARC
  5
216C
330
1F
100
AcDbEntity
  8
SANINDUSA
100
AcDbCircle
 10
5042.93956025217
 20
3155.616099758055
 30
0.0
 40
0.0025897797753346
100
AcDbArc
 50
0.0
 51
90.01279852771615
  0
ARC
  5
216F
330
1F
100
AcDbEntity
  8
SANINDUSA
100
AcDbCircle
 10
5042.993562048143
 20
3155.61609953705
 30
0.0
 40
0.002590030542496
100
AcDbArc
 50
89.99208998307819
 51
179.9884607415344
  0
LWPOLYLINE
  5
2170
330
1F
100
AcDbEntity
  8
SANINDUSA
100
AcDbPolyline
 90
        3
 70
   128
 43
0.0
 10
5042.942150031931
 20
3155.616100028874
 10
5042.94214988292
 20
3155.608102232935
 10
5042.942149853118
 20
3155.605103046419
  0
LWPOLYLINE
  5
2172
330
1F
100
AcDbEntity
  8
SANINDUSA
100
AcDbPolyline
 90
        3
 70
   128
 43
0.0
 10
5042.990972196466
 20
3155.605103091123
 10
5042.990972077258
 20
3155.613100887062
 10
5042.990972017653
 20
3155.616100058677
  0
ARC
  5
2174
330
1F
100
AcDbEntity
  8
SANINDUSA
100
AcDbCircle
 10
5042.863555086004
 20
3155.605094246661
 30
0.0
 40
0.0025894412873735
100
AcDbArc
 50
180.0
 51
270.0136953965285
  0
ARC
  5
2176
330
1F
100
AcDbEntity
  8
SANINDUSA
100
AcDbCircle
 10
5043.069566822016
 20
3155.605094537288
 30
0.0
 40
0.0025896126698485
100
AcDbArc
 50
269.9900969760425
 51
0.0
  0
LWPOLYLINE
  5
2178
330
1F
100
AcDbEntity
  8
SANINDUSA
100
AcDbPolyline
 90
        3
 70
   128
 43
0.0
 10
5042.874555980571
 20
3155.602506429674
 10
5042.866556053764
 20
3155.602505252482
 10
5042.863555704958
 20
3155.602504805448
  0
LWPOLYLINE
  5
217A
330
1F
100
AcDbEntity
  8
SANINDUSA
100
AcDbPolyline
 90
        3
 70
   128
 43
0.0
 10
5043.069566374428
 20
3155.602504924657
 10
5043.06156641782
 20
3155.602506101849
 10
5043.058566069014
 20
3155.602506533983
  0
ARC
  5
217C
330
1F
100
AcDbEntity
  8
SANINDUSA
100
AcDbCircle
 10
5042.874555956824
 20
3155.605097228947
 30
0.0
 40
0.0025907992728359
100
AcDbArc
 50
270.0005251145651
 51
359.9902465062863
  0
ARC
  5
217D
330
1F
100
AcDbEntity
  8
SANINDUSA
100
AcDbCircle
 10
5043.058565892764
 20
3155.605097103423
 30
0.0
 40
0.0025905694469197
100
AcDbArc
 50
180.0
 51
270.0038981041059
  0
ARC
  5
217E
330
1F
100
AcDbEntity
  8
SANINDUSA
100
AcDbCircle
 10
5042.928557850852
 20
3155.605102184598
 30
0.0
 40
0.0025896753316778
100
AcDbArc
 50
180.0
 51
270.0144505255731
  0
ARC
  5
2180
330
1F
100
AcDbEntity
  8
SANINDUSA
100
AcDbCircle
 10
5043.0045639856
 20
3155.605102442512
 30
0.0
 40
0.0025898884972064
100
AcDbArc
 50
269.9902657610079
 51
359.9886359360604
  0
LWPOLYLINE
  5
2182
330
1F
100
AcDbEntity
  8
SANINDUSA
100
AcDbPolyline
 90
        3
 70
   128
 43
0.0
 10
5042.939559196837
 20
3155.602513194802
 10
5042.931559210426
 20
3155.602512717964
 10
5042.928558503993
 20
3155.602512509348
  0
LWPOLYLINE
  5
2184
330
1F
100
AcDbEntity
  8
SANINDUSA
100
AcDbPolyline
 90
        3
 70
   128
 43
0.0
 10
5043.004563545592
 20
3155.602512554052
 10
5042.996563559182
 20
3155.602513075592
 10
5042.993562852747
 20
3155.602513239505
  0
ARC
  5
2186
330
1F
100
AcDbEntity
  8
SANINDUSA
100
AcDbCircle
 10
5042.939559404819
 20
3155.60510364316
 30
0.0
 40
0.0025904483669747
100
AcDbArc
 50
269.995399815061
 51
359.9868006666124
  0
ARC
  5
2187
330
1F
100
AcDbEntity
  8
SANINDUSA
100
AcDbCircle
 10
5042.993562339751
 20
3155.605103382756
 30
0.0
 40
0.002590143301488
100
AcDbArc
 50
180.0
 51
270.0113478316101
  0
ARC
  5
2191
330
1F
100
AcDbEntity
  8
SANINDUSA
100
AcDbCircle
 10
5042.733558213035
 20
3155.551081971143
 30
0.0
 40
0.0025903730715313
100
AcDbArc
 50
90.00329404257374
 51
180.0
  0
ARC
  5
219C
330
1F
100
AcDbEntity
  8
SANINDUSA
100
AcDbCircle
 10
5043.199563923656
 20
3155.551082147655
 30
0.0
 40
0.0025903604705614
100
AcDbArc
 50
0.0
 51
89.99731429199384
  0
LWPOLYLINE
  5
219E
330
1F
100
AcDbEntity
  8
SANINDUSA
100
AcDbPolyline
 90
        3
 70
   128
 43
0.0
 10
5042.73355806411
 20
3155.55367234421
 10
5042.741558035618
 20
3155.553672925355
 10
5042.744557192333
 20
3155.553673178675
  0
LWPOLYLINE
  5
21A0
330
1F
100
AcDbEntity
  8
SANINDUSA
100
AcDbPolyline
 90
        3
 70
   128
 43
0.0
 10
5042.730967780358
 20
3155.540082604411
 10
5042.730967825062
 20
3155.54808168185
 10
5042.730967839964
 20
3155.551081985953
  0
LWPOLYLINE
  5
21A3
330
1F
100
AcDbEntity
  8
SANINDUSA
100
AcDbPolyline
 90
        3
 70
   128
 43
0.0
 10
5043.188564961559
 20
3155.553673342588
 10
5043.196564918168
 20
3155.553672701838
 10
5043.199564045078
 20
3155.553672508123
  0
LWPOLYLINE
  5
21A4
330
1F
100
AcDbEntity
  8
SANINDUSA
100
AcDbPolyline
 90
        3
 70
   128
 43
0.0
 10
5043.202154284127
 20
3155.551082149865
 10
5043.202154343731
 20
3155.543083087327
 10
5043.202154343731
 20
3155.540082768323
  0
ARC
  5
21A6
330
1F
100
AcDbEntity
  8
SANINDUSA
100
AcDbCircle
 10
5042.744557404873
 20
3155.551083286287
 30
0.0
 40
0.0025898923972635
100
AcDbArc
 50
0.0
 51
90.00470200828491
  0
ARC
  5
21A9
330
1F
100
AcDbEntity
  8
SANINDUSA
100
AcDbCircle
 10
5043.188564721728
 20
3155.551083462591
 30
0.0
 40
0.0025898800079038
100
AcDbArc
 50
89.99469424284404
 51
180.0
  0
LWPOLYLINE
  5
21AA
330
1F
100
AcDbEntity
  8
SANINDUSA
100
AcDbPolyline
 90
        3
 70
   128
 43
0.0
 10
5042.74714729727
 20
3155.551083282353
 10
5042.747147148259
 20
3155.543084234717
 10
5042.747147103555
 20
3155.54008388591
  0
LWPOLYLINE
  5
21AC
330
1F
100
AcDbEntity
  8
SANINDUSA
100
AcDbPolyline
 90
        3
 70
   128
 43
0.0
 10
5043.185975020534
 20
3155.540084064724
 10
5043.185974901326
 20
3155.548083112361
 10
5043.185974841721
 20
3155.551083461168
  0
ARC
  5
21BA
330
1F
100
AcDbEntity
  8
SANINDUSA
100
AcDbCircle
 10
5042.733557823171
 20
3155.540082572086
 30
0.0
 40
0.0025900428131251
100
AcDbArc
 50
180.0
 51
270.0023631979286
  0
ARC
  5
21BC
330
1F
100
AcDbEntity
  8
SANINDUSA
100
AcDbCircle
 10
5043.199564396874
 20
3155.540082654943
 30
0.0
 40
0.0025899468598447
100
AcDbArc
 50
269.9961732347703
 51
0.0
  0
LWPOLYLINE
  5
21BE
330
1F
100
AcDbEntity
  8
SANINDUSA
100
AcDbPolyline
 90
        3
 70
   128
 43
0.0
 10
5042.744556864507
 20
3155.53749336374
 10
5042.736556907899
 20
3155.537492737892
 10
5042.73355793
 20
3155.537492529275
  0
LWPOLYLINE
  5
21C0
330
1F
100
AcDbEntity
  8
SANINDUSA
100
AcDbPolyline
 90
        3
 70
   128
 43
0.0
 10
5043.199564223892
 20
3155.537492708089
 10
5043.191564267285
 20
3155.537493289234
 10
5043.188565259583
 20
3155.537493557455
  0
ARC
  5
21C2
330
1F
100
AcDbEntity
  8
SANINDUSA
100
AcDbCircle
 10
5042.744556588391
 20
3155.540083878889
 30
0.0
 40
0.0025905151638057
100
AcDbArc
 50
270.0061070037165
 51
0.0
  0
ARC
  5
21C3
330
1F
100
AcDbEntity
  8
SANINDUSA
100
AcDbCircle
 10
5043.188565485492
 20
3155.540084022403
 30
0.0
 40
0.0025904649579545
100
AcDbArc
 50
180.0
 51
269.9950033605985
  0
ARC
  5
21DF
330
1F
100
AcDbEntity
  8
SANINDUSA
100
AcDbCircle
 10
5042.798554088538
 20
3155.551090012274
 30
0.0
 40
0.0025908703204018
100
AcDbArc
 50
90.00704008910501
 51
180.0
  0
ARC
  5
21EE
330
1F
100
AcDbEntity
  8
SANINDUSA
100
AcDbCircle
 10
5043.134568118581
 20
3155.551090318813
 30
0.0
 40
0.0025907574867087
100
AcDbArc
 50
0.0
 51
89.99512540270712
  0
LWPOLYLINE
  5
21F0
330
1F
100
AcDbEntity
  8
SANINDUSA
100
AcDbPolyline
 90
        3
 70
   128
 43
0.0
 10
5042.798553770191
 20
3155.553680882575
 10
5042.806553637393
 20
3155.553682432296
 10
5042.809553345449
 20
3155.553683043244
  0
LWPOLYLINE
  5
21F4
330
1F
100
AcDbEntity
  8
SANINDUSA
100
AcDbPolyline
 90
        3
 70
   128
 43
0.0
 10
5042.795962651975
 20
3155.540091008665
 10
5042.795963054306
 20
3155.548089892389
 10
5042.795963218219
 20
3155.551090107085
  0
LWPOLYLINE
  5
21F9
330
1F
100
AcDbEntity
  8
SANINDUSA
100
AcDbPolyline
 90
        3
 70
   128
 43
0.0
 10
5043.123568719036
 20
3155.553683236959
 10
5043.13156861604
 20
3155.553681642534
 10
5043.134568338997
 20
3155.55368107629
  0
LWPOLYLINE
  5
21FA
330
1F
100
AcDbEntity
  8
SANINDUSA
100
AcDbPolyline
 90
        3
 70
   128
 43
0.0
 10
5043.137158876068
 20
3155.551090300801
 10
5043.137159293301
 20
3155.543091431978
 10
5043.137159472115
 20
3155.540091217281
  0
ARC
  5
2200
330
1F
100
AcDbEntity
  8
SANINDUSA
100
AcDbCircle
 10
5042.809553878705
 20
3155.55109363553
 30
0.0
 40
0.0025894077679319
100
AcDbArc
 50
0.0
 51
90.01179936656823
  0
ARC
  5
2203
330
1F
100
AcDbEntity
  8
SANINDUSA
100
AcDbCircle
 10
5043.123568307048
 20
3155.551093707949
 30
0.0
 40
0.0025895290419026
100
AcDbArc
 50
89.99088436129456
 51
180.0
  0
LINE
  5
2204
330
1F
100
AcDbEntity
  8
SANINDUSA
100
AcDbLine
 10
5042.812143286473
 20
3155.551093683364
 30
0.0
 11
5042.812142630822
 21
3155.54009479356
 31
0.0
  0
LINE
  5
2206
330
1F
100
AcDbEntity
  8
SANINDUSA
100
AcDbLine
 10
5043.120979433663
 20
3155.540095002177
 30
0.0
 11
5043.120978778012
 21
3155.55109389198
 31
0.0
  0
ARC
  5
2214
330
1F
100
AcDbEntity
  8
SANINDUSA
100
AcDbCircle
 10
5042.798552118188
 20
3155.540091010651
 30
0.0
 40
0.0025894662142969
100
AcDbArc
 50
180.0
 51
270.0101761856722
  0
ARC
  5
221A
330
1F
100
AcDbEntity
  8
SANINDUSA
100
AcDbCircle
 10
5043.134569943081
 20
3155.540091282095
 30
0.0
 40
0.0025895290339885
100
AcDbArc
 50
269.9908843091844
 51
0.0
  0
LWPOLYLINE
  5
2220
330
1F
100
AcDbEntity
  8
SANINDUSA
100
AcDbPolyline
 90
        3
 70
   128
 43
0.0
 10
5042.809552004344
 20
3155.537503898861
 10
5042.801552181847
 20
3155.537502170326
 10
5042.798552578099
 20
3155.537501544478
  0
LWPOLYLINE
  5
2224
330
1F
100
AcDbEntity
  8
SANINDUSA
100
AcDbPolyline
 90
        3
 70
   128
 43
0.0
 10
5043.13456953109
 20
3155.537501753094
 10
5043.126569693692
 20
3155.537503451826
 10
5043.123570089943
 20
3155.537504107477
  0
ARC
  5
2230
330
1F
100
AcDbEntity
  8
SANINDUSA
100
AcDbCircle
 10
5042.809551605893
 20
3155.540094923763
 30
0.0
 40
0.0025910249330015
100
AcDbArc
 50
270.0088110024257
 51
0.0
  0
ARC
  5
2231
330
1F
100
AcDbEntity
  8
SANINDUSA
100
AcDbCircle
 10
5043.123570471141
 20
3155.540095144933
 30
0.0
 40
0.0025910374829933
100
AcDbArc
 50
180.0
 51
269.99157054852
  0
ARC
  5
2254
330
1F
100
AcDbEntity
  8
SANINDUSA
100
AcDbCircle
 10
5042.863553318622
 20
3155.551103788486
 30
0.0
 40
0.0025910415816896
100
AcDbArc
 50
90.00390659806972
 51
180.0
  0
ARC
  5
2258
330
1F
100
AcDbEntity
  8
SANINDUSA
100
AcDbCircle
 10
5043.069568910572
 20
3155.551104146922
 30
0.0
 40
0.0025908619543419
100
AcDbArc
 50
0.0
 51
89.99940609996043
  0
LWPOLYLINE
  5
2261
330
1F
100
AcDbEntity
  8
SANINDUSA
100
AcDbPolyline
 90
        3
 70
   128
 43
0.0
 10
5042.863553141959
 20
3155.553694830062
 10
5042.871552979357
 20
3155.553696558597
 10
5042.874553506977
 20
3155.553697184446
  0
LWPOLYLINE
  5
2263
330
1F
100
AcDbEntity
  8
SANINDUSA
100
AcDbPolyline
 90
        3
 70
   128
 43
0.0
 10
5042.860961532004
 20
3155.540105969431
 10
5042.860962098248
 20
3155.548104376318
 10
5042.860962277062
 20
3155.551104114177
  0
LWPOLYLINE
  5
2266
330
1F
100
AcDbEntity
  8
SANINDUSA
100
AcDbPolyline
 90
        3
 70
   128
 43
0.0
 10
5043.058568542607
 20
3155.553697348358
 10
5043.066568380005
 20
3155.553695649626
 10
5043.069568937428
 20
3155.553695008876
  0
LWPOLYLINE
  5
2267
330
1F
100
AcDbEntity
  8
SANINDUSA
100
AcDbPolyline
 90
        3
 70
   128
 43
0.0
 10
5043.072159772522
 20
3155.55110427809
 10
5043.072160308964
 20
3155.543105886104
 10
5043.072160547382
 20
3155.540106148245
  0
ARC
  5
226F
330
1F
100
AcDbEntity
  8
SANINDUSA
100
AcDbCircle
 10
5042.874554230362
 20
3155.551107847684
 30
0.0
 40
0.0025893368625432
100
AcDbArc
 50
0.0
 51
90.0160067448775
  0
ARC
  5
2272
330
1F
100
AcDbEntity
  8
SANINDUSA
100
AcDbCircle
 10
5043.058567994771
 20
3155.551107835983
 30
0.0
 40
0.0025895124328233
100
AcDbArc
 50
89.98787854022742
 51
179.990691188748
  0
LWPOLYLINE
  5
2273
330
1F
100
AcDbEntity
  8
SANINDUSA
100
AcDbPolyline
 90
        3
 70
   128
 43
0.0
 10
5042.877143567212
 20
3155.551108107688
 10
5042.87714303077
 20
3155.543109849813
 10
5042.877142822153
 20
3155.540110260965
  0
LWPOLYLINE
  5
2275
330
1F
100
AcDbEntity
  8
SANINDUSA
100
AcDbPolyline
 90
        3
 70
   128
 43
0.0
 10
5043.055979227431
 20
3155.540110424878
 10
5043.055978690989
 20
3155.548108682754
 10
5043.055978482373
 20
3155.5511082567
  0
ARC
  5
2283
330
1F
100
AcDbEntity
  8
SANINDUSA
100
AcDbCircle
 10
5042.863550676665
 20
3155.540106067007
 30
0.0
 40
0.0025891446628932
100
AcDbArc
 50
180.0
 51
270.0182823977572
  0
ARC
  5
2287
330
1F
100
AcDbEntity
  8
SANINDUSA
100
AcDbCircle
 10
5043.069571135265
 20
3155.540106513367
 30
0.0
 40
0.0025894121441218
100
AcDbArc
 50
269.9869780237063
 51
0.0
  0
LWPOLYLINE
  5
228B
330
1F
100
AcDbEntity
  8
SANINDUSA
100
AcDbPolyline
 90
        3
 70
   128
 43
0.0
 10
5042.874551897652
 20
3155.53751954508
 10
5042.866552090056
 20
3155.537517652633
 10
5042.863551502831
 20
3155.537516922476
  0
LWPOLYLINE
  5
228E
330
1F
100
AcDbEntity
  8
SANINDUSA
100
AcDbPolyline
 90
        3
 70
   128
 43
0.0
 10
5043.069570546753
 20
3155.53751710129
 10
5043.061570768959
 20
3155.537519023539
 10
5043.058570151932
 20
3155.537519723894
  0
ARC
  5
2297
330
1F
100
AcDbEntity
  8
SANINDUSA
100
AcDbCircle
 10
5042.733558180017
 20
3155.486084852671
 30
0.0
 40
0.0025902059438701
100
AcDbArc
 50
90.00487115801917
 51
180.0
  0
ARC
  5
22A2
330
1F
100
AcDbEntity
  8
SANINDUSA
100
AcDbCircle
 10
5043.199563867113
 20
3155.486084969434
 30
0.0
 40
0.0025902978044579
100
AcDbArc
 50
0.0
 51
89.99342666203007
  0
LWPOLYLINE
  5
22AB
330
1F
100
AcDbEntity
  8
SANINDUSA
100
AcDbPolyline
 90
        3
 70
   128
 43
0.0
 10
5042.733557959802
 20
3155.488675058605
 10
5042.741557931311
 20
3155.488675535443
 10
5042.744556506879
 20
3155.488675773861
  0
LWPOLYLINE
  5
22AD
330
1F
100
AcDbEntity
  8
SANINDUSA
100
AcDbPolyline
 90
        3
 70
   128
 43
0.0
 10
5042.730968123085
 20
3155.475085050585
 10
5042.730968003876
 20
3155.483084291937
 10
5042.730967974073
 20
3155.486084759953
  0
LWPOLYLINE
  5
22B0
330
1F
100
AcDbEntity
  8
SANINDUSA
100
AcDbPolyline
 90
        3
 70
   128
 43
0.0
 10
5043.18856561721
 20
3155.48867601228
 10
5043.196565633423
 20
3155.488675416233
 10
5043.199564164288
 20
3155.488675267222
  0
LWPOLYLINE
  5
22B1
330
1F
100
AcDbEntity
  8
SANINDUSA
100
AcDbPolyline
 90
        3
 70
   128
 43
0.0
 10
5043.202154164918
 20
3155.486084938767
 10
5043.202154105313
 20
3155.478085727217
 10
5043.202154045708
 20
3155.475085259201
  0
ARC
  5
22B3
330
1F
100
AcDbEntity
  8
SANINDUSA
100
AcDbCircle
 10
5042.74455666043
 20
3155.486085852279
 30
0.0
 40
0.0025899215866257
100
AcDbArc
 50
0.0
 51
90.00339696023415
  0
ARC
  5
22B6
330
1F
100
AcDbEntity
  8
SANINDUSA
100
AcDbCircle
 10
5043.188565520535
 20
3155.486086048721
 30
0.0
 40
0.0025899635607168
100
AcDbArc
 50
89.99786134495701
 51
180.0
  0
LWPOLYLINE
  5
22B7
330
1F
100
AcDbEntity
  8
SANINDUSA
100
AcDbPolyline
 90
        3
 70
   128
 43
0.0
 10
5042.747146582015
 20
3155.486085743429
 10
5042.747146567113
 20
3155.478086502077
 10
5042.747146567113
 20
3155.475085944655
  0
ARC
  5
22B9
330
1F
100
AcDbEntity
  8
SANINDUSA
100
AcDbCircle
 10
5042.874551646892
 20
3155.540110720371
 30
0.0
 40
0.0025911753025156
100
AcDbArc
 50
270.005544786681
 51
359.989841114912
  0
LWPOLYLINE
  5
22BA
330
1F
100
AcDbEntity
  8
SANINDUSA
100
AcDbPolyline
 90
        3
 70
   128
 43
0.0
 10
5043.185975616581
 20
3155.475086183073
 10
5043.185975556976
 20
3155.483085394623
 10
5043.185975556976
 20
3155.486085952046
  0
ARC
  5
22BC
330
1F
100
AcDbEntity
  8
SANINDUSA
100
AcDbCircle
 10
5043.058570198034
 20
3155.540110694512
 30
0.0
 40
0.0025909706180342
100
AcDbArc
 50
180.0
 51
269.9989805158925
  0
ARC
  5
22BF
330
1F
100
AcDbEntity
  8
SANINDUSA
100
AcDbCircle
 10
5042.928557103063
 20
3155.55111545412
 30
0.0
 40
0.0025907157276529
100
AcDbArc
 50
89.99801783191124
 51
179.9874802097962
  0
ARC
  5
22CA
330
1F
100
AcDbEntity
  8
SANINDUSA
100
AcDbCircle
 10
5043.004565238389
 20
3155.551115850377
 30
0.0
 40
0.0025903940073087
100
AcDbArc
 50
0.0
 51
90.00909729591247
  0
LWPOLYLINE
  5
22D3
330
1F
100
AcDbEntity
  8
SANINDUSA
100
AcDbPolyline
 90
        3
 70
   128
 43
0.0
 10
5042.92855719269
 20
3155.553706169845
 10
5042.9365571791
 20
3155.553706959607
 10
5042.939558243162
 20
3155.553707212927
  0
LWPOLYLINE
  5
22D6
330
1F
100
AcDbEntity
  8
SANINDUSA
100
AcDbPolyline
 90
        3
 70
   128
 43
0.0
 10
5042.993563776619
 20
3155.55370725763
 10
5043.00156376303
 20
3155.553706557276
 10
5043.004564827092
 20
3155.553706244351
  0
LWPOLYLINE
  5
22D7
330
1F
100
AcDbEntity
  8
SANINDUSA
100
AcDbPolyline
 90
        3
 70
   128
 43
0.0
 10
5042.925965940363
 20
3155.540118873837
 10
5042.925966268189
 20
3155.548116759183
 10
5042.925966387398
 20
3155.551116020204
  0
LWPOLYLINE
  5
22D9
330
1F
100
AcDbEntity
  8
SANINDUSA
100
AcDbPolyline
 90
        3
 70
   128
 43
0.0
 10
5043.007155632384
 20
3155.551116109612
 10
5043.007155960209
 20
3155.543118224265
 10
5043.007156079418
 20
3155.540118948342
  0
ARC
  5
22DB
330
1F
100
AcDbEntity
  8
SANINDUSA
100
AcDbCircle
 10
5042.939558977852
 20
3155.551117500039
 30
0.0
 40
0.0025897129922786
100
AcDbArc
 50
0.0
 51
90.01625458103843
  0
ARC
  5
22DE
330
1F
100
AcDbEntity
  8
SANINDUSA
100
AcDbCircle
 10
5042.993563359474
 20
3155.551117227069
 30
0.0
 40
0.0025900305949531
100
AcDbArc
 50
89.9907720637938
 51
179.9861523113871
  0
LWPOLYLINE
  5
22DF
330
1F
100
AcDbEntity
  8
SANINDUSA
100
AcDbPolyline
 90
        3
 70
   128
 43
0.0
 10
5042.942148690826
 20
3155.551117808344
 10
5042.942148482211
 20
3155.543119997503
 10
5042.942148422606
 20
3155.540120810988
  0
LWPOLYLINE
  5
22E1
330
1F
100
AcDbEntity
  8
SANINDUSA
100
AcDbPolyline
 90
        3
 70
   128
 43
0.0
 10
5042.990973597176
 20
3155.540120855691
 10
5042.99097338856
 20
3155.548118666532
 10
5042.990973328954
 20
3155.551117853047
  0
ARC
  5
22E6
330
1F
100
AcDbEntity
  8
SANINDUSA
100
AcDbCircle
 10
5042.733558278675
 20
3155.475084937327
 30
0.0
 40
0.0025901555923131
100
AcDbArc
 50
180.0
 51
269.9995387725498
  0
ARC
  5
22EB
330
1F
100
AcDbEntity
  8
SANINDUSA
100
AcDbCircle
 10
5043.199564015285
 20
3155.475085020784
 30
0.0
 40
0.002590030434213
100
AcDbArc
 50
269.9980220007279
 51
0.0
  0
LWPOLYLINE
  5
22ED
330
1F
100
AcDbEntity
  8
SANINDUSA
100
AcDbPolyline
 90
        3
 70
   128
 43
0.0
 10
5042.744556566484
 20
3155.472495437386
 10
5042.736556609876
 20
3155.472494930746
 10
5042.733558257825
 20
3155.472494781735
  0
LWPOLYLINE
  5
22EF
330
1F
100
AcDbEntity
  8
SANINDUSA
100
AcDbPolyline
 90
        3
 70
   128
 43
0.0
 10
5043.199563925869
 20
3155.472494990351
 10
5043.191563969262
 20
3155.472495437386
 10
5043.18856561721
 20
3155.472495675804
  0
ARC
  5
22F6
330
1F
100
AcDbEntity
  8
SANINDUSA
100
AcDbCircle
 10
5042.744556164727
 20
3155.475085839743
 30
0.0
 40
0.0025904023882439
100
AcDbArc
 50
270.008886249569
 51
0.0
  0
ARC
  5
22FA
330
1F
100
AcDbEntity
  8
SANINDUSA
100
AcDbCircle
 10
5043.188566039784
 20
3155.475086098974
 30
0.0
 40
0.0025904232041454
100
AcDbArc
 50
180.0
 51
269.9906534088477
  0
ARC
  5
22FF
330
1F
100
AcDbEntity
  8
SANINDUSA
100
AcDbCircle
 10
5042.928555440289
 20
3155.540119162759
 30
0.0
 40
0.0025894999420408
100
AcDbArc
 50
180.0
 51
270.0196510203377
  0
ARC
  5
2301
330
1F
100
AcDbEntity
  8
SANINDUSA
100
AcDbCircle
 10
5043.004566257766
 20
3155.540119559137
 30
0.0
 40
0.0025898217243578
100
AcDbArc
 50
269.9874691103166
 51
359.9864871194758
  0
LWPOLYLINE
  5
2305
330
1F
100
AcDbEntity
  8
SANINDUSA
100
AcDbPolyline
 90
        3
 70
   128
 43
0.0
 10
5042.939557587511
 20
3155.53753082526
 10
5042.931557630904
 20
3155.537530005696
 10
5042.928556328423
 20
3155.537529662969
  0
LWPOLYLINE
  5
2307
330
1F
100
AcDbEntity
  8
SANINDUSA
100
AcDbPolyline
 90
        3
 70
   128
 43
0.0
 10
5043.004565691359
 20
3155.537529737475
 10
5042.996565734751
 20
3155.537530616643
 10
5042.993564402468
 20
3155.537530884864
  0
ARC
  5
230F
330
1F
100
AcDbEntity
  8
SANINDUSA
100
AcDbCircle
 10
5042.798550865403
 20
3155.486094102105
 30
0.0
 40
0.0025909999452809
100
AcDbArc
 50
90.01254230181869
 51
180.0
  0
ARC
  5
2318
330
1F
100
AcDbEntity
  8
SANINDUSA
100
AcDbCircle
 10
5042.939557740342
 20
3155.540121507612
 30
0.0
 40
0.0025906823569627
100
AcDbArc
 50
269.9966199755834
 51
359.984593382352
  0
ARC
  5
2319
330
1F
100
AcDbEntity
  8
SANINDUSA
100
AcDbCircle
 10
5042.993563949409
 20
3155.540121237086
 30
0.0
 40
0.0025903522615628
100
AcDbArc
 50
180.0084362779171
 51
270.0100211578015
  0
LWPOLYLINE
  5
231A
330
1F
100
AcDbEntity
  8
SANINDUSA
100
AcDbPolyline
 90
        3
 70
   128
 43
0.0
 10
5042.798550298221
 20
3155.488685101988
 10
5042.806549986607
 20
3155.488687217953
 10
5042.809549396641
 20
3155.488688052418
  0
LWPOLYLINE
  5
231C
330
1F
100
AcDbEntity
  8
SANINDUSA
100
AcDbPolyline
 90
        3
 70
   128
 43
0.0
 10
5042.795959314116
 20
3155.475094468119
 10
5042.795959716446
 20
3155.483093590262
 10
5042.795959865458
 20
3155.486094088079
  0
ARC
  5
2320
330
1F
100
AcDbEntity
  8
SANINDUSA
100
AcDbCircle
 10
5043.134571131501
 20
3155.486094228259
 30
0.0
 40
0.0025911420357957
100
AcDbArc
 50
0.0
 51
89.98530502542969
  0
LWPOLYLINE
  5
232C
330
1F
100
AcDbEntity
  8
SANINDUSA
100
AcDbPolyline
 90
        3
 70
   128
 43
0.0
 10
5043.123572712548
 20
3155.488688320639
 10
5043.131572371132
 20
3155.488686145069
 10
5043.134571796066
 20
3155.488685370209
  0
LWPOLYLINE
  5
232F
330
1F
100
AcDbEntity
  8
SANINDUSA
100
AcDbPolyline
 90
        3
 70
   128
 43
0.0
 10
5043.137162273533
 20
3155.4860943563
 10
5043.137162631161
 20
3155.478095234158
 10
5043.137162809975
 20
3155.47509473634
  0
ARC
  5
233B
330
1F
100
AcDbEntity
  8
SANINDUSA
100
AcDbCircle
 10
5042.80955000534
 20
3155.486098824472
 30
0.0
 40
0.0025892280177683
100
AcDbArc
 50
0.0
 51
90.01346960299166
  0
ARC
  5
233E
330
1F
100
AcDbEntity
  8
SANINDUSA
100
AcDbCircle
 10
5043.123572118975
 20
3155.486099092464
 30
0.0
 40
0.0025892282433456
100
AcDbArc
 50
89.9868651008828
 51
180.0
  0
LWPOLYLINE
  5
233F
330
1F
100
AcDbEntity
  8
SANINDUSA
100
AcDbPolyline
 90
        3
 70
   128
 43
0.0
 10
5042.812139233358
 20
3155.486098796846
 10
5042.812138711817
 20
3155.478099764111
 10
5042.812138518102
 20
3155.475099325898
  0
LWPOLYLINE
  5
2341
330
1F
100
AcDbEntity
  8
SANINDUSA
100
AcDbPolyline
 90
        3
 70
   128
 43
0.0
 10
5043.120983605987
 20
3155.475099623921
 10
5043.120983069546
 20
3155.483098656656
 10
5043.120982890732
 20
3155.486099065067
  0
ARC
  5
2349
330
1F
100
AcDbEntity
  8
SANINDUSA
100
AcDbCircle
 10
5042.798548642353
 20
3155.475094332126
 30
0.0
 40
0.002589328241848
100
AcDbArc
 50
180.0
 51
270.010921726428
  0
ARC
  5
2479
330
1F
100
AcDbEntity
  8
SANINDUSA
100
AcDbCircle
 10
5043.134573498202
 20
3155.475094583879
 30
0.0
 40
0.0025893117770096
100
AcDbArc
 50
269.9887138668799
 51
0.0
  0
LWPOLYLINE
  5
247B
330
1F
100
AcDbEntity
  8
SANINDUSA
100
AcDbPolyline
 90
        3
 70
   128
 43
0.0
 10
5042.809548010833
 20
3155.472508133175
 10
5042.801548396952
 20
3155.472505838397
 10
5042.79854913593
 20
3155.472505003932
  0
LWPOLYLINE
  5
247D
330
1F
100
AcDbEntity
  8
SANINDUSA
100
AcDbPolyline
 90
        3
 70
   128
 43
0.0
 10
5043.13457298816
 20
3155.472505272152
 10
5043.126573329575
 20
3155.472507537128
 10
5043.123574083455
 20
3155.472508401396
  0
ARC
  5
2481
330
1F
100
AcDbEntity
  8
SANINDUSA
100
AcDbCircle
 10
5042.809547296648
 20
3155.47509935453
 30
0.0
 40
0.0025912214535171
100
AcDbArc
 50
270.0157916860433
 51
0.0
  0
ARC
  5
2484
330
1F
100
AcDbEntity
  8
SANINDUSA
100
AcDbCircle
 10
5043.123574823285
 20
3155.475099618588
 30
0.0
 40
0.0025912172970597
100
AcDbArc
 50
180.0
 51
269.9836411985426
  0
ARC
  5
248F
330
1F
100
AcDbEntity
  8
SANINDUSA
100
AcDbCircle
 10
5042.73355931147
 20
3155.421086957149
 30
0.0
 40
0.0025899217893311
100
AcDbArc
 50
90.00418950438772
 51
180.0
  0
LWPOLYLINE
  5
2498
330
1F
100
AcDbEntity
  8
SANINDUSA
100
AcDbPolyline
 90
        3
 70
   128
 43
0.0
 10
5042.733559122092
 20
3155.423676878931
 10
5042.741559108502
 20
3155.423677057745
 10
5042.744556998617
 20
3155.423677206757
  0
ARC
  5
249C
330
1F
100
AcDbEntity
  8
SANINDUSA
100
AcDbCircle
 10
5043.199562705158
 20
3155.421087028519
 30
0.0
 40
0.0025900888516225
100
AcDbArc
 50
0.0
 51
89.99277434644286
  0
LWPOLYLINE
  5
24A5
330
1F
100
AcDbEntity
  8
SANINDUSA
100
AcDbPolyline
 90
        3
 70
   128
 43
0.0
 10
5042.730969747312
 20
3155.410087407353
 10
5042.730969479091
 20
3155.418086678507
 10
5042.730969389684
 20
3155.421086818697
  0
LWPOLYLINE
  5
24A8
330
1F
100
AcDbEntity
  8
SANINDUSA
100
AcDbPolyline
 90
        3
 70
   128
 43
0.0
 10
5043.188565199979
 20
3155.423677445175
 10
5043.196565156586
 20
3155.423677147152
 10
5043.1995630318
 20
3155.42367711735
  0
LWPOLYLINE
  5
24A9
330
1F
100
AcDbEntity
  8
SANINDUSA
100
AcDbPolyline
 90
        3
 70
   128
 43
0.0
 10
5043.202152794011
 20
3155.421087027313
 10
5043.202152555592
 20
3155.413087756159
 10
5043.202152436382
 20
3155.410087615969
  0
ARC
  5
24AB
330
1F
100
AcDbEntity
  8
SANINDUSA
100
AcDbCircle
 10
5042.744557022118
 20
3155.42108718492
 30
0.0
 40
0.002590021836942
100
AcDbArc
 50
0.0
 51
90.00051990354434
  0
LWPOLYLINE
  5
24AF
330
1F
100
AcDbEntity
  8
SANINDUSA
100
AcDbPolyline
 90
        3
 70
   128
 43
0.0
 10
5042.74714704395
 20
3155.421087027313
 10
5042.747147207863
 20
3155.413087726357
 10
5042.747147267468
 20
3155.410087466957
  0
ARC
  5
24B2
330
1F
100
AcDbEntity
  8
SANINDUSA
100
AcDbCircle
 10
5043.188564952901
 20
3155.421087632009
 30
0.0
 40
0.0025898131782392
100
AcDbArc
 50
89.99453379551464
 51
180.0
  0
LWPOLYLINE
  5
24B5
330
1F
100
AcDbEntity
  8
SANINDUSA
100
AcDbPolyline
 90
        3
 70
   128
 43
0.0
 10
5043.185974901326
 20
3155.410087735178
 10
5043.185975080139
 20
3155.418087036135
 10
5043.185975139744
 20
3155.421087295534
  0
ARC
  5
24B9
330
1F
100
AcDbEntity
  8
SANINDUSA
100
AcDbCircle
 10
5042.86354866173
 20
3155.486113767529
 30
0.0
 40
0.002591451079595
100
AcDbArc
 50
90.01164204584853
 51
180.0
  0
LWPOLYLINE
  5
24C3
330
1F
100
AcDbEntity
  8
SANINDUSA
100
AcDbPolyline
 90
        3
 70
   128
 43
0.0
 10
5042.863548135168
 20
3155.488705218556
 10
5042.871547734148
 20
3155.488707870962
 10
5042.874548619397
 20
3155.488708824636
  0
ARC
  5
24C7
330
1F
100
AcDbEntity
  8
SANINDUSA
100
AcDbCircle
 10
5043.069573538155
 20
3155.486114156233
 30
0.0
 40
0.0025913007651221
100
AcDbArc
 50
0.0
 51
89.99233953886502
  0
LINE
  5
24D0
330
1F
100
AcDbEntity
  8
SANINDUSA
100
AcDbLine
 10
5042.86095622719
 20
3155.475115478756
 30
0.0
 11
5042.860957210667
 21
3155.486114055636
 31
0.0
  0
ARC
  5
24D3
330
1F
100
AcDbEntity
  8
SANINDUSA
100
AcDbCircle
 10
5042.73355997812
 20
3155.410087250103
 30
0.0
 40
0.0025902308124153
100
AcDbArc
 50
180.0
 51
269.9975453486566
  0
LWPOLYLINE
  5
24D6
330
1F
100
AcDbEntity
  8
SANINDUSA
100
AcDbPolyline
 90
        3
 70
   128
 43
0.0
 10
5043.058573430188
 20
3155.488709033253
 10
5043.066573029168
 20
3155.488706440451
 10
5043.069573884613
 20
3155.488705456974
  0
LWPOLYLINE
  5
24D7
330
1F
100
AcDbEntity
  8
SANINDUSA
100
AcDbPolyline
 90
        3
 70
   128
 43
0.0
 10
5043.072164838918
 20
3155.486114294054
 10
5043.072165554173
 20
3155.478115678551
 10
5043.072165792591
 20
3155.475115717175
  0
ARC
  5
24D9
330
1F
100
AcDbEntity
  8
SANINDUSA
100
AcDbCircle
 10
5043.199562339101
 20
3155.410087355006
 30
0.0
 40
0.0025900972940074
100
AcDbArc
 50
269.999500992649
 51
0.0
  0
LWPOLYLINE
  5
24DB
330
1F
100
AcDbEntity
  8
SANINDUSA
100
AcDbPolyline
 90
        3
 70
   128
 43
0.0
 10
5042.744557535059
 20
3155.407497198107
 10
5042.73655756355
 20
3155.407497019293
 10
5042.73355986715
 20
3155.407497019293
  0
LWPOLYLINE
  5
24DD
330
1F
100
AcDbEntity
  8
SANINDUSA
100
AcDbPolyline
 90
        3
 70
   128
 43
0.0
 10
5043.199562316544
 20
3155.407497257712
 10
5043.191562300331
 20
3155.407497347118
 10
5043.188564663537
 20
3155.407497466328
  0
ARC
  5
24DF
330
1F
100
AcDbEntity
  8
SANINDUSA
100
AcDbCircle
 10
5042.744557170133
 20
3155.410087295422
 30
0.0
 40
0.0025900973409752
100
AcDbArc
 50
270.0080726007725
 51
0.0
  0
ARC
  5
24E0
330
1F
100
AcDbEntity
  8
SANINDUSA
100
AcDbCircle
 10
5043.188565115579
 20
3155.410087680543
 30
0.0
 40
0.002590214254228
100
AcDbArc
 50
180.0
 51
269.9900007805957
  0
ARC
  5
24E9
330
1F
100
AcDbEntity
  8
SANINDUSA
100
AcDbCircle
 10
5042.874549607895
 20
3155.486119872296
 30
0.0
 40
0.0025889525298281
100
AcDbArc
 50
0.0
 51
90.02187633480291
  0
ARC
  5
24EC
330
1F
100
AcDbEntity
  8
SANINDUSA
100
AcDbCircle
 10
5043.058572579122
 20
3155.486119913613
 30
0.0
 40
0.0025891197796335
100
AcDbArc
 50
89.98116638043356
 51
180.0
  0
LWPOLYLINE
  5
24ED
330
1F
100
AcDbEntity
  8
SANINDUSA
100
AcDbPolyline
 90
        3
 70
   128
 43
0.0
 10
5042.877138560421
 20
3155.4861200161
 10
5042.877137845166
 20
3155.47812157941
 10
5042.877137547143
 20
3155.475121826651
  0
LWPOLYLINE
  5
24F1
330
1F
100
AcDbEntity
  8
SANINDUSA
100
AcDbPolyline
 90
        3
 70
   128
 43
0.0
 10
5043.05598447264
 20
3155.475122035267
 10
5043.055983727581
 20
3155.483120471956
 10
5043.05598345936
 20
3155.486120224717
  0
ARC
  5
24FF
330
1F
100
AcDbEntity
  8
SANINDUSA
100
AcDbCircle
 10
5042.863545079379
 20
3155.475115552031
 30
0.0
 40
0.0025888521900505
100
AcDbArc
 50
180.0
 51
270.0214595052205
  0
ARC
  5
2501
330
1F
100
AcDbEntity
  8
SANINDUSA
100
AcDbCircle
 10
5043.069576865022
 20
3155.47511586586
 30
0.0
 40
0.0025889275736762
100
AcDbArc
 50
269.9802093764056
 51
0.0
  0
LWPOLYLINE
  5
2503
330
1F
100
AcDbEntity
  8
SANINDUSA
100
AcDbPolyline
 90
        3
 70
   128
 43
0.0
 10
5042.874546503432
 20
3155.472530633928
 10
5042.866547023661
 20
3155.472527772906
 10
5042.863546049005
 20
3155.472526700022
  0
LWPOLYLINE
  5
2505
330
1F
100
AcDbEntity
  8
SANINDUSA
100
AcDbPolyline
 90
        3
 70
   128
 43
0.0
 10
5043.069575970775
 20
3155.47252693844
 10
5043.061576491005
 20
3155.472529799463
 10
5043.058575516351
 20
3155.472530872347
  0
ARC
  5
250A
330
1F
100
AcDbEntity
  8
SANINDUSA
100
AcDbCircle
 10
5042.798547855532
 20
3155.421095892535
 30
0.0
 40
0.0025910001110674
100
AcDbArc
 50
90.01847718572935
 51
180.0
  0
LWPOLYLINE
  5
2515
330
1F
100
AcDbEntity
  8
SANINDUSA
100
AcDbPolyline
 90
        3
 70
   128
 43
0.0
 10
5042.798547019966
 20
3155.423686892512
 10
5042.806546499736
 20
3155.423689455511
 10
5042.809545388229
 20
3155.42369046879
  0
LWPOLYLINE
  5
2517
330
1F
100
AcDbEntity
  8
SANINDUSA
100
AcDbPolyline
 90
        3
 70
   128
 43
0.0
 10
5042.79595643819
 20
3155.410096109631
 10
5042.795956736214
 20
3155.418095410587
 10
5042.795956855424
 20
3155.421095789196
  0
ARC
  5
251B
330
1F
100
AcDbEntity
  8
SANINDUSA
100
AcDbCircle
 10
5043.134574211912
 20
3155.421096148825
 30
0.0
 40
0.0025910418532106
100
AcDbArc
 50
0.0
 51
89.98092953952578
  0
LWPOLYLINE
  5
2526
330
1F
100
AcDbEntity
  8
SANINDUSA
100
AcDbPolyline
 90
        3
 70
   128
 43
0.0
 10
5043.123576706059
 20
3155.423690766813
 10
5043.131576126224
 20
3155.423688114407
 10
5043.134575074322
 20
3155.423687190535
  0
LWPOLYLINE
  5
2527
330
1F
100
AcDbEntity
  8
SANINDUSA
100
AcDbPolyline
 90
        3
 70
   128
 43
0.0
 10
5043.137165253765
 20
3155.421096087219
 10
5043.137165551788
 20
3155.413096816065
 10
5043.137165670998
 20
3155.410096437456
  0
ARC
  5
252D
330
1F
100
AcDbEntity
  8
SANINDUSA
100
AcDbCircle
 10
5042.874545937355
 20
3155.475122243688
 30
0.0
 40
0.0025916098210565
100
AcDbArc
 50
270.0125149439602
 51
359.9907800627148
  0
ARC
  5
252E
330
1F
100
AcDbEntity
  8
SANINDUSA
100
AcDbCircle
 10
5043.058575898782
 20
3155.475122298475
 30
0.0
 40
0.0025914261560049
100
AcDbArc
 50
180.0
 51
269.9915445455266
  0
ARC
  5
2533
330
1F
100
AcDbEntity
  8
SANINDUSA
100
AcDbCircle
 10
5042.809546103404
 20
3155.421101466549
 30
0.0
 40
0.0025890023400585
100
AcDbArc
 50
0.0
 51
90.01582712098333
  0
LWPOLYLINE
  5
2535
330
1F
100
AcDbEntity
  8
SANINDUSA
100
AcDbPolyline
 90
        3
 70
   128
 43
0.0
 10
5042.812135105736
 20
3155.421101272823
 10
5042.8121346438
 20
3155.413102061274
 10
5042.812134479888
 20
3155.410101682665
  0
ARC
  5
2538
330
1F
100
AcDbEntity
  8
SANINDUSA
100
AcDbCircle
 10
5043.12357586412
 20
3155.421101906265
 30
0.0
 40
0.0025888606851666
100
AcDbArc
 50
89.98136648363825
 51
180.0
  0
ARC
  5
2539
330
1F
100
AcDbEntity
  8
SANINDUSA
100
AcDbCircle
 10
5042.79854568274
 20
3155.410095949548
 30
0.0
 40
0.0025892445548043
100
AcDbArc
 50
180.0
 51
270.0117847236001
  0
LWPOLYLINE
  5
253B
330
1F
100
AcDbEntity
  8
SANINDUSA
100
AcDbPolyline
 90
        3
 70
   128
 43
0.0
 10
5043.1209875995
 20
3155.41010201049
 10
5043.120987182266
 20
3155.41810122204
 10
5043.120987003453
 20
3155.421101600649
  0
LWPOLYLINE
  5
253D
330
1F
100
AcDbEntity
  8
SANINDUSA
100
AcDbPolyline
 90
        3
 70
   128
 43
0.0
 10
5042.809544255741
 20
3155.407510370733
 10
5042.801544880278
 20
3155.40750762892
 10
5042.798546215303
 20
3155.407506705048
  0
ARC
  5
253F
330
1F
100
AcDbEntity
  8
SANINDUSA
100
AcDbCircle
 10
5043.134576509613
 20
3155.410096164401
 30
0.0
 40
0.0025891613996533
100
AcDbArc
 50
269.9867042887735
 51
0.0
  0
LWPOLYLINE
  5
2541
330
1F
100
AcDbEntity
  8
SANINDUSA
100
AcDbPolyline
 90
        3
 70
   128
 43
0.0
 10
5043.134575908787
 20
3155.407507003071
 10
5043.126576488621
 20
3155.407509625675
 10
5043.123577838547
 20
3155.407510668757
  0
ARC
  5
254D
330
1F
100
AcDbEntity
  8
SANINDUSA
100
AcDbCircle
 10
5042.928554423617
 20
3155.486131964214
 30
0.0
 40
0.0025910165267153
100
AcDbArc
 50
89.99939718911488
 51
179.9861022334661
  0
ARC
  5
2558
330
1F
100
AcDbEntity
  8
SANINDUSA
100
AcDbCircle
 10
5043.004567833627
 20
3155.486132350758
 30
0.0
 40
0.002590749207948
100
AcDbArc
 50
0.0
 51
90.00651356756183
  0
LWPOLYLINE
  5
2563
330
1F
100
AcDbEntity
  8
SANINDUSA
100
AcDbPolyline
 90
        3
 70
   128
 43
0.0
 10
5042.928554450877
 20
3155.48872298074
 10
5042.936554377682
 20
3155.48872426224
 10
5042.939556246407
 20
3155.488724679472
  0
ARC
  5
2565
330
1F
100
AcDbEntity
  8
SANINDUSA
100
AcDbCircle
 10
5042.80954330005
 20
3155.410101550398
 30
0.0
 40
0.0025911798404604
100
AcDbArc
 50
270.0211320967585
 51
0.0
  0
LWPOLYLINE
  5
2566
330
1F
100
AcDbEntity
  8
SANINDUSA
100
AcDbPolyline
 90
        3
 70
   128
 43
0.0
 10
5042.92596281112
 20
3155.475135327103
 10
5042.925963258154
 20
3155.483133257153
 10
5042.925963407166
 20
3155.48613259268
  0
LWPOLYLINE
  5
2569
330
1F
100
AcDbEntity
  8
SANINDUSA
100
AcDbPolyline
 90
        3
 70
   128
 43
0.0
 10
5042.993565743572
 20
3155.488724739077
 10
5043.001565670378
 20
3155.488723576786
 10
5043.004567539103
 20
3155.488723099949
  0
LWPOLYLINE
  5
256C
330
1F
100
AcDbEntity
  8
SANINDUSA
100
AcDbPolyline
 90
        3
 70
   128
 43
0.0
 10
5043.007158582813
 20
3155.486132682087
 10
5043.007159000047
 20
3155.478134752037
 10
5043.00715917886
 20
3155.47513541651
  0
ARC
  5
256E
330
1F
100
AcDbEntity
  8
SANINDUSA
100
AcDbCircle
 10
5043.12357893398
 20
3155.410102003007
 30
0.0
 40
0.0025913344812779
100
AcDbArc
 50
180.0
 51
269.9757793830863
  0
ARC
  5
256F
330
1F
100
AcDbEntity
  8
SANINDUSA
100
AcDbCircle
 10
5042.939557095493
 20
3155.486134991591
 30
0.0
 40
0.0025896880209914
100
AcDbArc
 50
0.0095663659597453
 51
90.01878567817774
  0
ARC
  5
2572
330
1F
100
AcDbEntity
  8
SANINDUSA
100
AcDbCircle
 10
5042.993565161885
 20
3155.486134783665
 30
0.0
 40
0.0025899554773337
100
AcDbArc
 50
89.98713169671136
 51
179.9845176662228
  0
LWPOLYLINE
  5
2573
330
1F
100
AcDbEntity
  8
SANINDUSA
100
AcDbPolyline
 90
        3
 70
   128
 43
0.0
 10
5042.942146783478
 20
3155.486135423901
 10
5042.942146485454
 20
3155.478137583258
 10
5042.942146366246
 20
3155.47513836694
  0
LWPOLYLINE
  5
2575
330
1F
100
AcDbEntity
  8
SANINDUSA
100
AcDbPolyline
 90
        3
 70
   128
 43
0.0
 10
5042.990975593932
 20
3155.475138426544
 10
5042.990975325711
 20
3155.483136267188
 10
5042.990975206501
 20
3155.486135483505
  0
LWPOLYLINE
  5
2586
330
1F
100
AcDbEntity
  8
SANINDUSA
100
AcDbPolyline
 90
        3
 70
   128
 43
0.0
 10
5042.733561342366
 20
3155.358683169605
 10
5042.741561343677
 20
3155.358682960989
 10
5042.744558742054
 20
3155.358682960989
  0
ARC
  5
2589
330
1F
100
AcDbEntity
  8
SANINDUSA
100
AcDbCircle
 10
5042.733561314276
 20
3155.356093569595
 30
0.0
 40
0.0025896000111796
100
AcDbArc
 50
89.99937853366045
 51
180.0
  0
LWPOLYLINE
  5
2593
330
1F
100
AcDbEntity
  8
SANINDUSA
100
AcDbPolyline
 90
        3
 70
   128
 43
0.0
 10
5043.188563411838
 20
3155.358683199408
 10
5043.196563428051
 20
3155.358683288815
 10
5043.199560826428
 20
3155.358683378222
  0
ARC
  5
2595
330
1F
100
AcDbEntity
  8
SANINDUSA
100
AcDbCircle
 10
5042.744558857428
 20
3155.356093031032
 30
0.0
 40
0.0025899299593451
100
AcDbArc
 50
0.0
 51
90.00255241009448
  0
ARC
  5
2598
330
1F
100
AcDbEntity
  8
SANINDUSA
100
AcDbCircle
 10
5043.199560806834
 20
3155.356093715626
 30
0.0
 40
0.002589662595861
100
AcDbArc
 50
0.0
 51
89.99956649518038
  0
LWPOLYLINE
  5
259A
330
1F
100
AcDbEntity
  8
SANINDUSA
100
AcDbPolyline
 90
        3
 70
   128
 43
0.0
 10
5042.730972101695
 20
3155.345095813992
 10
5042.730971818573
 20
3155.353094727518
 10
5042.730971714266
 20
3155.356093526604
  0
LWPOLYLINE
  5
259C
330
1F
100
AcDbEntity
  8
SANINDUSA
100
AcDbPolyline
 90
        3
 70
   128
 43
0.0
 10
5042.747148787387
 20
3155.356092930557
 10
5042.747149055607
 20
3155.348093897822
 10
5042.747149159915
 20
3155.345095128538
  0
ARC
  5
259F
330
1F
100
AcDbEntity
  8
SANINDUSA
100
AcDbCircle
 10
5043.18856327449
 20
3155.356093336125
 30
0.0
 40
0.0025898632865404
100
AcDbArc
 50
89.99696145377523
 51
180.0
  0
LWPOLYLINE
  5
25A1
330
1F
100
AcDbEntity
  8
SANINDUSA
100
AcDbPolyline
 90
        3
 70
   128
 43
0.0
 10
5043.202150469429
 20
3155.35609373522
 10
5043.202150171406
 20
3155.348094762089
 10
5043.202150111802
 20
3155.345095992806
  0
ARC
  5
25A3
330
1F
100
AcDbEntity
  8
SANINDUSA
100
AcDbCircle
 10
5042.92855211477
 20
3155.475135643196
 30
0.0
 40
0.0025893036708162
100
AcDbArc
 50
180.0
 51
270.0239956571223
  0
ARC
  5
25A5
330
1F
100
AcDbEntity
  8
SANINDUSA
100
AcDbCircle
 10
5043.004569574347
 20
3155.475136063427
 30
0.0
 40
0.0025896045930342
100
AcDbArc
 50
269.9820044168375
 51
359.9856867587653
  0
LWPOLYLINE
  5
25A7
330
1F
100
AcDbEntity
  8
SANINDUSA
100
AcDbPolyline
 90
        3
 70
   128
 43
0.0
 10
5043.185973053581
 20
3155.345095337155
 10
5043.185973292001
 20
3155.353094340088
 10
5043.185973411209
 20
3155.356093168976
  0
LWPOLYLINE
  5
25A9
330
1F
100
AcDbEntity
  8
SANINDUSA
100
AcDbPolyline
 90
        3
 70
   128
 43
0.0
 10
5042.939555292733
 20
3155.472548217299
 10
5042.931555395729
 20
3155.472546905996
 10
5042.928553199179
 20
3155.472546339752
  0
LWPOLYLINE
  5
25AB
330
1F
100
AcDbEntity
  8
SANINDUSA
100
AcDbPolyline
 90
        3
 70
   128
 43
0.0
 10
5043.004568760999
 20
3155.472546458962
 10
5042.996568893798
 20
3155.472547859671
 10
5042.993566667444
 20
3155.472548306706
  0
ARC
  5
25AD
330
1F
100
AcDbEntity
  8
SANINDUSA
100
AcDbCircle
 10
5042.9395554584
 20
3155.47513912525
 30
0.0
 40
0.0025909079559966
100
AcDbArc
 50
269.996336391831
 51
359.9832306222016
  0
ARC
  5
25AE
330
1F
100
AcDbEntity
  8
SANINDUSA
100
AcDbCircle
 10
5042.993566150968
 20
3155.475138863728
 30
0.0
 40
0.0025905570739378
100
AcDbArc
 50
180.0096701955475
 51
270.0114229745285
  0
LWPOLYLINE
  5
25AF
330
1F
100
AcDbEntity
  8
SANINDUSA
100
AcDbPolyline
 90
        3
 70
   128
 43
0.0
 10
5042.744559561618
 20
3155.342505455735
 10
5042.736559560307
 20
3155.342505604746
 10
5042.73356216193
 20
3155.342505753758
  0
ARC
  5
25B2
330
1F
100
AcDbEntity
  8
SANINDUSA
100
AcDbCircle
 10
5042.733562148726
 20
3155.345095800789
 30
0.0
 40
0.0025900470309761
100
AcDbArc
 50
180.0
 51
270.0002920777152
  0
ARC
  5
25B3
330
1F
100
AcDbEntity
  8
SANINDUSA
100
AcDbCircle
 10
5042.744559467966
 20
3155.345095147683
 30
0.0
 40
0.0025896919498274
100
AcDbArc
 50
270.0020720060871
 51
0.0
  0
LWPOLYLINE
  5
25B4
330
1F
100
AcDbEntity
  8
SANINDUSA
100
AcDbPolyline
 90
        3
 70
   128
 43
0.0
 10
5043.199560051568
 20
3155.342505932571
 10
5043.191560035355
 20
3155.34250566435
 10
5043.188562636978
 20
3155.34250566435
  0
ARC
  5
25B7
330
1F
100
AcDbEntity
  8
SANINDUSA
100
AcDbCircle
 10
5043.19956004796
 20
3155.345095996413
 30
0.0
 40
0.0025900638409466
100
AcDbArc
 50
270.0000797807283
 51
0.0
  0
ARC
  5
25BA
330
1F
100
AcDbEntity
  8
SANINDUSA
100
AcDbCircle
 10
5043.188562707864
 20
3155.345095318633
 30
0.0
 40
0.0025896542833526
100
AcDbArc
 50
180.0
 51
269.9984316390728
  0
ARC
  5
25D2
330
1F
100
AcDbEntity
  8
SANINDUSA
100
AcDbCircle
 10
5042.798546009197
 20
3155.356100334094
 30
0.0
 40
0.0025907034950974
100
AcDbArc
 50
90.02081735108564
 51
180.0
  0
LWPOLYLINE
  5
25D4
330
1F
100
AcDbEntity
  8
SANINDUSA
100
AcDbPolyline
 90
        3
 70
   128
 43
0.0
 10
5042.798545067913
 20
3155.358691037418
 10
5042.80654436887
 20
3155.35869363022
 10
5042.809542497404
 20
3155.358694703104
  0
LWPOLYLINE
  5
25D6
330
1F
100
AcDbEntity
  8
SANINDUSA
100
AcDbPolyline
 90
        3
 70
   128
 43
0.0
 10
5042.795955290801
 20
3155.345102102282
 10
5042.795955290801
 20
3155.35310116482
 10
5042.795955305702
 20
3155.356100291731
  0
ARC
  5
25E1
330
1F
100
AcDbEntity
  8
SANINDUSA
100
AcDbCircle
 10
5043.134575996645
 20
3155.356100469203
 30
0.0
 40
0.0025908664494618
100
AcDbArc
 50
0.0
 51
89.9768985020094
  0
ARC
  5
25E5
330
1F
100
AcDbEntity
  8
SANINDUSA
100
AcDbCircle
 10
5042.863542732835
 20
3155.42112142745
 30
0.0
 40
0.0025918104659778
100
AcDbArc
 50
90.01958536147068
 51
180.0
  0
LWPOLYLINE
  5
25EF
330
1F
100
AcDbEntity
  8
SANINDUSA
100
AcDbPolyline
 90
        3
 70
   128
 43
0.0
 10
5043.123579626687
 20
3155.358695001127
 10
5043.131578868038
 20
3155.358692259314
 10
5043.134577041275
 20
3155.358691335442
  0
LINE
  5
25F0
330
1F
100
AcDbEntity
  8
SANINDUSA
100
AcDbLine
 10
5043.137166863091
 20
3155.356100589755
 30
0.0
 11
5043.137166863091
 21
3155.345102370503
 31
0.0
  0
LWPOLYLINE
  5
25F4
330
1F
100
AcDbEntity
  8
SANINDUSA
100
AcDbPolyline
 90
        3
 70
   128
 43
0.0
 10
5042.863541846879
 20
3155.423713237765
 10
5042.871540939219
 20
3155.423716933253
 10
5042.874542271501
 20
3155.423718333962
  0
LWPOLYLINE
  5
25F6
330
1F
100
AcDbEntity
  8
SANINDUSA
100
AcDbPolyline
 90
        3
 70
   128
 43
0.0
 10
5042.860949789889
 20
3155.410122812512
 10
5042.860950624354
 20
3155.418121636631
 10
5042.860950922377
 20
3155.42112162781
  0
ARC
  5
25FA
330
1F
100
AcDbEntity
  8
SANINDUSA
100
AcDbCircle
 10
5043.069579345218
 20
3155.42112178372
 30
0.0
 40
0.0025917521910596
100
AcDbArc
 50
0.0
 51
89.98236121544616
  0
LWPOLYLINE
  5
2606
330
1F
100
AcDbEntity
  8
SANINDUSA
100
AcDbPolyline
 90
        3
 70
   128
 43
0.0
 10
5043.058579748279
 20
3155.423718602183
 10
5043.066578870423
 20
3155.423714906695
 10
5043.069580143101
 20
3155.423713535788
  0
LWPOLYLINE
  5
2607
330
1F
100
AcDbEntity
  8
SANINDUSA
100
AcDbPolyline
 90
        3
 70
   128
 43
0.0
 10
5043.072171097405
 20
3155.421121925833
 10
5043.07217193187
 20
3155.413123101713
 10
5043.072172229893
 20
3155.410123110535
  0
ARC
  5
260F
330
1F
100
AcDbEntity
  8
SANINDUSA
100
AcDbCircle
 10
5042.809543354671
 20
3155.356105842999
 30
0.0
 40
0.0025888602466853
100
AcDbArc
 50
0.0
 51
90.01897275383113
  0
LWPOLYLINE
  5
2611
330
1F
100
AcDbEntity
  8
SANINDUSA
100
AcDbPolyline
 90
        3
 70
   128
 43
0.0
 10
5042.812132214911
 20
3155.356105656149
 10
5042.812132036097
 20
3155.348106563808
 10
5042.812131991393
 20
3155.345107287886
  0
ARC
  5
2615
330
1F
100
AcDbEntity
  8
SANINDUSA
100
AcDbCircle
 10
5043.123578701243
 20
3155.356106224116
 30
0.0
 40
0.0025887771771455
100
AcDbArc
 50
89.9795177696866
 51
180.0
  0
ARC
  5
2616
330
1F
100
AcDbEntity
  8
SANINDUSA
100
AcDbCircle
 10
5042.798544343216
 20
3155.345101899023
 30
0.0
 40
0.0025890524217539
100
AcDbArc
 50
180.0
 51
270.0166971009431
  0
LWPOLYLINE
  5
2619
330
1F
100
AcDbEntity
  8
SANINDUSA
100
AcDbPolyline
 90
        3
 70
   128
 43
0.0
 10
5043.120990102894
 20
3155.345107585909
 10
5043.120989983685
 20
3155.35310667825
 10
5043.12098992408
 20
3155.356105954172
  0
LWPOLYLINE
  5
261B
330
1F
100
AcDbEntity
  8
SANINDUSA
100
AcDbPolyline
 90
        3
 70
   128
 43
0.0
 10
5042.809542244084
 20
3155.342516422989
 10
5042.801543002731
 20
3155.34251374078
 10
5042.798545097716
 20
3155.34251284671
  0
ARC
  5
261D
330
1F
100
AcDbEntity
  8
SANINDUSA
100
AcDbCircle
 10
5043.134577868701
 20
3155.345102109202
 30
0.0
 40
0.0025889944033873
100
AcDbArc
 50
269.9816886289604
 51
0.0
  0
ARC
  5
261F
330
1F
100
AcDbEntity
  8
SANINDUSA
100
AcDbCircle
 10
5042.87454350003
 20
3155.421129740963
 30
0.0
 40
0.0025885932908628
100
AcDbArc
 50
0.0
 51
90.02719220181671
  0
LWPOLYLINE
  5
2621
330
1F
100
AcDbEntity
  8
SANINDUSA
100
AcDbPolyline
 90
        3
 70
   128
 43
0.0
 10
5043.134577041275
 20
3155.342513114931
 10
5043.126577740319
 20
3155.342515677931
 10
5043.123579865105
 20
3155.342516721012
  0
ARC
  5
2624
330
1F
100
AcDbEntity
  8
SANINDUSA
100
AcDbCircle
 10
5043.058578661983
 20
3155.421129866879
 30
0.0
 40
0.0025887355316961
100
AcDbArc
 50
89.97595728735317
 51
180.0
  0
LWPOLYLINE
  5
2625
330
1F
100
AcDbEntity
  8
SANINDUSA
100
AcDbPolyline
 90
        3
 70
   128
 43
0.0
 10
5042.877132093317
 20
3155.421129883053
 10
5042.877131199247
 20
3155.413131237747
 10
5042.877130871422
 20
3155.410131425383
  0
LWPOLYLINE
  5
2627
330
1F
100
AcDbEntity
  8
SANINDUSA
100
AcDbPolyline
 90
        3
 70
   128
 43
0.0
 10
5043.055991118557
 20
3155.410131693603
 10
5043.05599025429
 20
3155.418130309107
 10
5043.055989926465
 20
3155.421130121471
  0
ARC
  5
2629
330
1F
100
AcDbEntity
  8
SANINDUSA
100
AcDbCircle
 10
5042.863538266095
 20
3155.410122807716
 30
0.0
 40
0.0025884762061154
100
AcDbArc
 50
180.0
 51
270.0271462927164
  0
ARC
  5
262D
330
1F
100
AcDbEntity
  8
SANINDUSA
100
AcDbCircle
 10
5043.069583736649
 20
3155.410123122786
 30
0.0
 40
0.0025884932446309
100
AcDbArc
 50
269.973231037343
 51
0.0
  0
LWPOLYLINE
  5
262F
330
1F
100
AcDbEntity
  8
SANINDUSA
100
AcDbPolyline
 90
        3
 70
   128
 43
0.0
 10
5042.874539797909
 20
3155.407539785626
 10
5042.86654085458
 20
3155.407535821917
 10
5042.863539492495
 20
3155.4075343318
  0
LWPOLYLINE
  5
2633
330
1F
100
AcDbEntity
  8
SANINDUSA
100
AcDbPolyline
 90
        3
 70
   128
 43
0.0
 10
5043.069582527287
 20
3155.407534629824
 10
5043.06158361376
 20
3155.407538563731
 10
5043.058582221873
 20
3155.407540053847
  0
ARC
  5
2637
330
1F
100
AcDbEntity
  8
SANINDUSA
100
AcDbCircle
 10
5042.809541170841
 20
3155.345107243319
 30
0.0
 40
0.0025908205523008
100
AcDbArc
 50
270.0237346370702
 51
0.0
  0
ARC
  5
2638
330
1F
100
AcDbEntity
  8
SANINDUSA
100
AcDbCircle
 10
5043.123581086438
 20
3155.345107704271
 30
0.0
 40
0.0025909835466506
100
AcDbArc
 50
180.0
 51
269.9729920077846
  0
ARC
  5
2643
330
1F
100
AcDbEntity
  8
SANINDUSA
100
AcDbCircle
 10
5042.874538835405
 20
3155.410131821494
 30
0.0
 40
0.0025920360468081
100
AcDbArc
 50
270.0212757125009
 51
359.9912432964103
  0
ARC
  5
2644
330
1F
100
AcDbEntity
  8
SANINDUSA
100
AcDbCircle
 10
5043.058583037903
 20
3155.410131973079
 30
0.0
 40
0.0025919193613884
100
AcDbArc
 50
180.0
 51
269.9819612174772
  0
LWPOLYLINE
  5
2662
330
1F
100
AcDbEntity
  8
SANINDUSA
100
AcDbPolyline
 90
        3
 70
   128
 43
0.0
 10
5042.733562966592
 20
3155.293704003813
 10
5042.741562967904
 20
3155.293703765395
 10
5042.744560694106
 20
3155.293703735592
  0
ARC
  5
266C
330
1F
100
AcDbEntity
  8
SANINDUSA
100
AcDbCircle
 10
5042.744561215901
 20
3155.291114256801
 30
0.0
 40
0.0025894788438458
100
AcDbArc
 50
0.0
 51
90.01154543351981
  0
ARC
  5
2670
330
1F
100
AcDbEntity
  8
SANINDUSA
100
AcDbCircle
 10
5042.928550689335
 20
3155.421147770793
 30
0.0
 40
0.0025914844027217
100
AcDbArc
 50
90.00315199014721
 51
179.983667644472
  0
LWPOLYLINE
  5
267B
330
1F
100
AcDbEntity
  8
SANINDUSA
100
AcDbPolyline
 90
        3
 70
   128
 43
0.0
 10
5043.18856150449
 20
3155.293703884604
 10
5043.196561461098
 20
3155.293704033615
 10
5043.199559217103
 20
3155.293704123022
  0
ARC
  5
2685
330
1F
100
AcDbEntity
  8
SANINDUSA
100
AcDbCircle
 10
5042.733562675227
 20
3155.291114324317
 30
0.0
 40
0.0025896795130991
100
AcDbArc
 50
89.99355365460887
 51
179.9886426843322
  0
ARC
  5
2687
330
1F
100
AcDbEntity
  8
SANINDUSA
100
AcDbCircle
 10
5043.188561250164
 20
3155.291114138272
 30
0.0
 40
0.0025897463445136
100
AcDbArc
 50
89.99437329607255
 51
179.9898017195953
  0
ARC
  5
268A
330
1F
100
AcDbEntity
  8
SANINDUSA
100
AcDbCircle
 10
5043.004571546288
 20
3155.421148195323
 30
0.0
 40
0.0025912088861468
100
AcDbArc
 50
0.0095843960914342
 51
90.00359727187456
  0
LINE
  5
2693
330
1F
100
AcDbEntity
  8
SANINDUSA
100
AcDbLine
 10
5042.747150694735
 20
3155.291114480021
 30
0.0
 11
5042.747150858648
 21
3155.280120313885
 31
0.0
  0
LWPOLYLINE
  5
2695
330
1F
100
AcDbEntity
  8
SANINDUSA
100
AcDbPolyline
 90
        3
 70
   128
 43
0.0
 10
5042.928550546772
 20
3155.423739255192
 10
5042.936550324566
 20
3155.423741222145
 10
5042.939553355582
 20
3155.423741847994
  0
LWPOLYLINE
  5
2697
330
1F
100
AcDbEntity
  8
SANINDUSA
100
AcDbPolyline
 90
        3
 70
   128
 43
0.0
 10
5042.925958370574
 20
3155.41015115452
 10
5042.925958996423
 20
3155.418149173977
 10
5042.925959205039
 20
3155.421148509504
  0
ARC
  5
2699
330
1F
100
AcDbEntity
  8
SANINDUSA
100
AcDbCircle
 10
5043.199559772302
 20
3155.291114677638
 30
0.0
 40
0.0025894454441825
100
AcDbArc
 50
0.0
 51
90.01228472105582
  0
LWPOLYLINE
  5
269C
330
1F
100
AcDbEntity
  8
SANINDUSA
100
AcDbPolyline
 90
        3
 70
   128
 43
0.0
 10
5042.993568604596
 20
3155.423741937401
 10
5043.001568412192
 20
3155.423740179064
 10
5043.004571383602
 20
3155.423739404203
  0
LWPOLYLINE
  5
269D
330
1F
100
AcDbEntity
  8
SANINDUSA
100
AcDbPolyline
 90
        3
 70
   128
 43
0.0
 10
5042.730972831853
 20
3155.280120462896
 10
5042.730972965962
 20
3155.288118005516
 10
5042.730972995765
 20
3155.291114837649
  0
LWPOLYLINE
  5
269F
330
1F
100
AcDbEntity
  8
SANINDUSA
100
AcDbPolyline
 90
        3
 70
   128
 43
0.0
 10
5043.007162755139
 20
3155.421148628714
 10
5043.007163351185
 20
3155.413150639059
 10
5043.007163589604
 20
3155.410151303532
  0
LWPOLYLINE
  5
26A1
330
1F
100
AcDbEntity
  8
SANINDUSA
100
AcDbPolyline
 90
        3
 70
   128
 43
0.0
 10
5043.185971325047
 20
3155.280120433094
 10
5043.185971444256
 20
3155.288117975714
 10
5043.185971503861
 20
3155.29111459923
  0
LWPOLYLINE
  5
26A3
330
1F
100
AcDbEntity
  8
SANINDUSA
100
AcDbPolyline
 90
        3
 70
   128
 43
0.0
 10
5043.202149217732
 20
3155.291114956858
 10
5043.202149277337
 20
3155.283117324831
 10
5043.202149336941
 20
3155.280120552304
  0
ARC
  5
26A9
330
1F
100
AcDbEntity
  8
SANINDUSA
100
AcDbCircle
 10
5042.939554524259
 20
3155.421152360617
 30
0.0
 40
0.0025894876407629
100
AcDbArc
 50
0.0097452081907485
 51
90.02585849300922
  0
ARC
  5
26AC
330
1F
100
AcDbEntity
  8
SANINDUSA
100
AcDbCircle
 10
5042.993567790475
 20
3155.421152065435
 30
0.0
 40
0.0025898720942221
100
AcDbArc
 50
89.98198920065751
 51
179.9817479303823
  0
LWPOLYLINE
  5
26AE
330
1F
100
AcDbEntity
  8
SANINDUSA
100
AcDbPolyline
 90
        3
 70
   128
 43
0.0
 10
5042.942144011862
 20
3155.421152801039
 10
5042.942143624432
 20
3155.413154930594
 10
5042.942143445618
 20
3155.410155714275
  0
LWPOLYLINE
  5
26B1
330
1F
100
AcDbEntity
  8
SANINDUSA
100
AcDbPolyline
 90
        3
 70
   128
 43
0.0
 10
5042.990978484756
 20
3155.410155803683
 10
5042.990978067525
 20
3155.418153674128
 10
5042.990977918513
 20
3155.421152890446
  0
ARC
  5
26B9
330
1F
100
AcDbEntity
  8
SANINDUSA
100
AcDbCircle
 10
5042.928547390332
 20
3155.410151514385
 30
0.0
 40
0.0025890197834429
100
AcDbArc
 50
180.0
 51
270.0315999964462
  0
ARC
  5
26BB
330
1F
100
AcDbEntity
  8
SANINDUSA
100
AcDbCircle
 10
5043.004574177094
 20
3155.410152056408
 30
0.0
 40
0.0025894126197714
100
AcDbArc
 50
269.9764357633274
 51
359.9833405747355
  0
LWPOLYLINE
  5
26C1
330
1F
100
AcDbEntity
  8
SANINDUSA
100
AcDbPolyline
 90
        3
 70
   128
 43
0.0
 10
5042.93955204428
 20
3155.407565326216
 10
5042.931552296288
 20
3155.407563359263
 10
5042.928548818238
 20
3155.407562494995
  0
LWPOLYLINE
  5
26C3
330
1F
100
AcDbEntity
  8
SANINDUSA
100
AcDbPolyline
 90
        3
 70
   128
 43
0.0
 10
5043.004573112138
 20
3155.407562644007
 10
5042.996573393948
 20
3155.407564759972
 10
5042.993569886096
 20
3155.407565445425
  0
ARC
  5
26C5
330
1F
100
AcDbEntity
  8
SANINDUSA
100
AcDbCircle
 10
5042.744561262737
 20
3155.280121011927
 30
0.0
 40
0.0025895960040975
100
AcDbArc
 50
269.9930235895686
 51
359.9845555763976
  0
LWPOLYLINE
  5
26C7
330
1F
100
AcDbEntity
  8
SANINDUSA
100
AcDbPolyline
 90
        3
 70
   128
 43
0.0
 10
5042.744560947426
 20
3155.277531415941
 10
5042.736560946114
 20
3155.277531475546
 10
5042.733562728173
 20
3155.277531475546
  0
ARC
  5
26D2
330
1F
100
AcDbEntity
  8
SANINDUSA
100
AcDbCircle
 10
5042.863536433054
 20
3155.356128981494
 30
0.0
 40
0.0025919777931422
100
AcDbArc
 50
90.02921183738697
 51
180.0
  0
ARC
  5
26D4
330
1F
100
AcDbEntity
  8
SANINDUSA
100
AcDbCircle
 10
5042.733562193756
 20
3155.280120837423
 30
0.0
 40
0.0025893619316543
100
AcDbArc
 50
180.0082873990547
 51
270.0118252132308
  0
ARC
  5
26D5
330
1F
100
AcDbEntity
  8
SANINDUSA
100
AcDbCircle
 10
5043.188560553244
 20
3155.280120763287
 30
0.0
 40
0.002589228218471
100
AcDbArc
 50
180.0
 51
270.0144548507202
  0
LWPOLYLINE
  5
26D7
330
1F
100
AcDbEntity
  8
SANINDUSA
100
AcDbPolyline
 90
        3
 70
   128
 43
0.0
 10
5043.199559455521
 20
3155.277531594756
 10
5043.191559439309
 20
3155.277531535151
 10
5043.188561206466
 20
3155.277531535151
  0
LWPOLYLINE
  5
26D9
330
1F
100
AcDbEntity
  8
SANINDUSA
100
AcDbPolyline
 90
        3
 70
   128
 43
0.0
 10
5042.860943561203
 20
3155.345130980732
 10
5042.860944187052
 20
3155.353129804852
 10
5042.860944455274
 20
3155.356129229786
  0
LWPOLYLINE
  5
26DB
330
1F
100
AcDbEntity
  8
SANINDUSA
100
AcDbPolyline
 90
        3
 70
   128
 43
0.0
 10
5042.863535111553
 20
3155.35872095895
 10
5042.871533458836
 20
3155.358725548508
 10
5042.874535148747
 20
3155.358727306845
  0
ARC
  5
26DD
330
1F
100
AcDbEntity
  8
SANINDUSA
100
AcDbCircle
 10
5043.199559741045
 20
3155.280121190715
 30
0.0
 40
0.0025895959748031
100
AcDbArc
 50
269.9936826794828
 51
359.98587409497
  0
ARC
  5
26E0
330
1F
100
AcDbEntity
  8
SANINDUSA
100
AcDbCircle
 10
5043.069585649745
 20
3155.356129282885
 30
0.0
 40
0.0025919445775997
100
AcDbArc
 50
0.0
 51
89.97283958540654
  0
ARC
  5
26EB
330
1F
100
AcDbEntity
  8
SANINDUSA
100
AcDbCircle
 10
5042.798546714983
 20
3155.29111846566
 30
0.0
 40
0.0025900682115939
100
AcDbArc
 50
90.0163277437748
 51
179.990595879179
  0
LWPOLYLINE
  5
26F4
330
1F
100
AcDbEntity
  8
SANINDUSA
100
AcDbPolyline
 90
        3
 70
   128
 43
0.0
 10
5043.072177594311
 20
3155.356129527809
 10
5043.072178249962
 20
3155.34813070369
 10
5043.07217848838
 20
3155.345131278755
  0
LWPOLYLINE
  5
26F7
330
1F
100
AcDbEntity
  8
SANINDUSA
100
AcDbPolyline
 90
        3
 70
   128
 43
0.0
 10
5043.058586841233
 20
3155.358727575066
 10
5043.066585188515
 20
3155.358722955706
 10
5043.069586878426
 20
3155.358721227171
  0
LWPOLYLINE
  5
26F8
330
1F
100
AcDbEntity
  8
SANINDUSA
100
AcDbPolyline
 90
        3
 70
   128
 43
0.0
 10
5042.798545976884
 20
3155.293708533766
 10
5042.806545352346
 20
3155.293710560324
 10
5042.809542631514
 20
3155.293711424591
  0
LWPOLYLINE
  5
26FA
330
1F
100
AcDbEntity
  8
SANINDUSA
100
AcDbPolyline
 90
        3
 70
   128
 43
0.0
 10
5042.795957257755
 20
3155.280124188187
 10
5042.795956795819
 20
3155.288122058632
 10
5042.795956646807
 20
3155.291118890764
  0
ARC
  5
26FE
330
1F
100
AcDbEntity
  8
SANINDUSA
100
AcDbCircle
 10
5043.134575520119
 20
3155.291118770391
 30
0.0
 40
0.0025899720822092
100
AcDbArc
 50
0.0
 51
89.98480888412309
  0
LWPOLYLINE
  5
2708
330
1F
100
AcDbEntity
  8
SANINDUSA
100
AcDbPolyline
 90
        3
 70
   128
 43
0.0
 10
5043.123579507477
 20
3155.293711633208
 10
5043.131578808434
 20
3155.293709457638
 10
5043.13457620681
 20
3155.293708742382
  0
LWPOLYLINE
  5
2709
330
1F
100
AcDbEntity
  8
SANINDUSA
100
AcDbPolyline
 90
        3
 70
   128
 43
0.0
 10
5043.137165492184
 20
3155.291119069578
 10
5043.137165074952
 20
3155.283121109726
 10
5043.137164896137
 20
3155.280124337199
  0
ARC
  5
270B
330
1F
100
AcDbEntity
  8
SANINDUSA
100
AcDbCircle
 10
5042.939552111722
 20
3155.410156660285
 30
0.0
 40
0.002591334069707
100
AcDbArc
 50
269.9985088142906
 51
359.9790832226443
  0
ARC
  5
270C
330
1F
100
AcDbEntity
  8
SANINDUSA
100
AcDbCircle
 10
5042.993569392829
 20
3155.410156353509
 30
0.0
 40
0.0025909081308142
100
AcDbArc
 50
180.0121589530663
 51
270.0109081777741
  0
ARC
  5
2719
330
1F
100
AcDbEntity
  8
SANINDUSA
100
AcDbCircle
 10
5042.809543913248
 20
3155.29112284012
 30
0.0
 40
0.0025885847881893
100
AcDbArc
 50
0.0
 51
90.02836994476494
  0
ARC
  5
271E
330
1F
100
AcDbEntity
  8
SANINDUSA
100
AcDbCircle
 10
5043.123578269767
 20
3155.291122989791
 30
0.0
 40
0.002588643712277
100
AcDbArc
 50
89.97260514155811
 51
180.0
  0
LWPOLYLINE
  5
271F
330
1F
100
AcDbEntity
  8
SANINDUSA
100
AcDbPolyline
 90
        3
 70
   128
 43
0.0
 10
5042.812132498033
 20
3155.291122705462
 10
5042.812132855661
 20
3155.2831246264
 10
5042.812133004673
 20
3155.280127555849
  0
LWPOLYLINE
  5
2721
330
1F
100
AcDbEntity
  8
SANINDUSA
100
AcDbPolyline
 90
        3
 70
   128
 43
0.0
 10
5043.12098914922
 20
3155.280127734663
 10
5043.120989506848
 20
3155.288125724318
 10
5043.120989626057
 20
3155.291122914078
  0
ARC
  5
2724
330
1F
100
AcDbEntity
  8
SANINDUSA
100
AcDbCircle
 10
5042.863531678293
 20
3155.345130884848
 30
0.0
 40
0.0025881170916047
100
AcDbArc
 50
180.0
 51
270.0351001875912
  0
ARC
  5
2727
330
1F
100
AcDbEntity
  8
SANINDUSA
100
AcDbCircle
 10
5043.069590312246
 20
3155.345131241915
 30
0.0
 40
0.0025881761354437
100
AcDbArc
 50
269.9648882439448
 51
0.0
  0
LWPOLYLINE
  5
2729
330
1F
100
AcDbEntity
  8
SANINDUSA
100
AcDbPolyline
 90
        3
 70
   128
 43
0.0
 10
5042.874533062584
 20
3155.34254929495
 10
5042.866534923918
 20
3155.342544526579
 10
5042.863533263809
 20
3155.342542768242
  0
LWPOLYLINE
  5
272B
330
1F
100
AcDbEntity
  8
SANINDUSA
100
AcDbPolyline
 90
        3
 70
   128
 43
0.0
 10
5043.06958872617
 20
3155.342543066265
 10
5043.061590587504
 20
3155.342547775032
 10
5043.058588957197
 20
3155.342549563171
  0
ARC
  5
272D
330
1F
100
AcDbEntity
  8
SANINDUSA
100
AcDbCircle
 10
5042.874536815153
 20
3155.356139181774
 30
0.0
 40
0.0025881256072189
100
AcDbArc
 50
0.0
 51
90.03689079890557
  0
ARC
  5
2730
330
1F
100
AcDbEntity
  8
SANINDUSA
100
AcDbCircle
 10
5043.058585333904
 20
3155.356139290816
 30
0.0
 40
0.002588284689213
100
AcDbArc
 50
89.96663289401638
 51
180.0
  0
LWPOLYLINE
  5
2731
330
1F
100
AcDbEntity
  8
SANINDUSA
100
AcDbPolyline
 90
        3
 70
   128
 43
0.0
 10
5042.87712494076
 20
3155.356139153959
 10
5042.877124136097
 20
3155.348140478852
 10
5042.877123867876
 20
3155.345141024115
  0
LWPOLYLINE
  5
2733
330
1F
100
AcDbEntity
  8
SANINDUSA
100
AcDbPolyline
 90
        3
 70
   128
 43
0.0
 10
5043.055998122103
 20
3155.345141292336
 10
5043.055997377045
 20
3155.353139967444
 10
5043.055997049219
 20
3155.356139451983
  0
ARC
  5
2735
330
1F
100
AcDbEntity
  8
SANINDUSA
100
AcDbCircle
 10
5042.798546118269
 20
3155.280124150494
 30
0.0
 40
0.0025888605144996
100
AcDbArc
 50
180.0
 51
270.025892208322
  0
ARC
  5
2737
330
1F
100
AcDbEntity
  8
SANINDUSA
100
AcDbCircle
 10
5043.134575884923
 20
3155.280124480086
 30
0.0
 40
0.0025890112176432
100
AcDbArc
 50
269.9781038633195
 51
0.0
  0
LWPOLYLINE
  5
2739
330
1F
100
AcDbEntity
  8
SANINDUSA
100
AcDbPolyline
 90
        3
 70
   128
 43
0.0
 10
5042.809543778903
 20
3155.277537793638
 10
5042.801544403441
 20
3155.277535945894
 10
5042.798547288186
 20
3155.277535290244
  0
LWPOLYLINE
  5
273B
330
1F
100
AcDbEntity
  8
SANINDUSA
100
AcDbPolyline
 90
        3
 70
   128
 43
0.0
 10
5043.134574895508
 20
3155.277535469057
 10
5043.126575415738
 20
3155.277537257197
 10
5043.123578374989
 20
3155.277537972452
  0
ARC
  5
2743
330
1F
100
AcDbEntity
  8
SANINDUSA
100
AcDbCircle
 10
5042.809542773419
 20
3155.280128024739
 30
0.0
 40
0.002590231295551
100
AcDbArc
 50
270.022241262612
 51
359.9896281926058
  0
ARC
  5
2745
330
1F
100
AcDbEntity
  8
SANINDUSA
100
AcDbCircle
 10
5043.123579112931
 20
3155.280127936066
 30
0.0
 40
0.0025899637190839
100
AcDbArc
 50
180.0
 51
269.9836750701763
  0
ARC
  5
2747
330
1F
100
AcDbEntity
  8
SANINDUSA
100
AcDbCircle
 10
5042.874531748251
 20
3155.345141414272
 30
0.0
 40
0.0025921196545239
100
AcDbArc
 50
270.0290518069194
 51
359.9913760211084
  0
ARC
  5
2748
330
1F
100
AcDbEntity
  8
SANINDUSA
100
AcDbCircle
 10
5043.058590208727
 20
3155.345141649518
 30
0.0
 40
0.0025920866483561
100
AcDbArc
 50
180.0
 51
269.9723360444129
  0
ARC
  5
2778
330
1F
100
AcDbEntity
  8
SANINDUSA
100
AcDbCircle
 10
5042.92854590238
 20
3155.356163169731
 30
0.0
 40
0.0025920023109465
100
AcDbArc
 50
90.00801074595633
 51
179.9801282408168
  0
ARC
  5
2783
330
1F
100
AcDbEntity
  8
SANINDUSA
100
AcDbCircle
 10
5043.004576436898
 20
3155.35616372773
 30
0.0
 40
0.0025915932983527
100
AcDbArc
 50
0.0108343115557639
 51
90.00102813440204
  0
LWPOLYLINE
  5
2785
330
1F
100
AcDbEntity
  8
SANINDUSA
100
AcDbPolyline
 90
        3
 70
   128
 43
0.0
 10
5042.928545539982
 20
3155.358755172017
 10
5042.936545019752
 20
3155.35875791383
 10
5042.939549540885
 20
3155.3587588079
  0
LWPOLYLINE
  5
2787
330
1F
100
AcDbEntity
  8
SANINDUSA
100
AcDbPolyline
 90
        3
 70
   128
 43
0.0
 10
5042.925952946551
 20
3155.345166743519
 10
5042.925953661807
 20
3155.353164792778
 10
5042.925953900225
 20
3155.356164068701
  0
LWPOLYLINE
  5
278A
330
1F
100
AcDbEntity
  8
SANINDUSA
100
AcDbPolyline
 90
        3
 70
   128
 43
0.0
 10
5042.993572389491
 20
3155.358758897307
 10
5043.001571958669
 20
3155.358756393912
 10
5043.004576390393
 20
3155.358755321028
  0
LWPOLYLINE
  5
278B
330
1F
100
AcDbEntity
  8
SANINDUSA
100
AcDbPolyline
 90
        3
 70
   128
 43
0.0
 10
5043.00716803015
 20
3155.356164217713
 10
5043.007168715604
 20
3155.348166168453
 10
5043.007168983824
 20
3155.34516689253
  0
ARC
  5
278F
330
1F
100
AcDbEntity
  8
SANINDUSA
100
AcDbCircle
 10
5042.863532360219
 20
3155.291144620069
 30
0.0
 40
0.0025916600992073
100
AcDbArc
 50
90.03339149357195
 51
179.9877004796399
  0
LWPOLYLINE
  5
2798
330
1F
100
AcDbEntity
  8
SANINDUSA
100
AcDbPolyline
 90
        3
 70
   128
 43
0.0
 10
5042.860940461761
 20
3155.280149311545
 10
5042.860940640576
 20
3155.288147390606
 10
5042.86094070018
 20
3155.291145176413
  0
LWPOLYLINE
  5
279A
330
1F
100
AcDbEntity
  8
SANINDUSA
100
AcDbPolyline
 90
        3
 70
   128
 43
0.0
 10
5042.863530849821
 20
3155.293736279728
 10
5042.871528571255
 20
3155.293741077902
 10
5042.874530201562
 20
3155.293742895844
  0
ARC
  5
279E
330
1F
100
AcDbEntity
  8
SANINDUSA
100
AcDbCircle
 10
5043.069589889614
 20
3155.291145028842
 30
0.0
 40
0.0025914598187253
100
AcDbArc
 50
0.0085345838232231
 51
89.97169222271836
  0
LWPOLYLINE
  5
27A9
330
1F
100
AcDbEntity
  8
SANINDUSA
100
AcDbPolyline
 90
        3
 70
   128
 43
0.0
 10
5043.072181349404
 20
3155.291145414831
 10
5043.072181528217
 20
3155.283147246363
 10
5043.072181587822
 20
3155.280149520161
  0
LWPOLYLINE
  5
27AC
330
1F
100
AcDbEntity
  8
SANINDUSA
100
AcDbPolyline
 90
        3
 70
   128
 43
0.0
 10
5043.05859181822
 20
3155.29374310446
 10
5043.066589539654
 20
3155.293738276484
 10
5043.069591169961
 20
3155.293736488344
  0
ARC
  5
27B9
330
1F
100
AcDbEntity
  8
SANINDUSA
100
AcDbCircle
 10
5042.939551118436
 20
3155.356169520991
 30
0.0
 40
0.0025892873894141
100
AcDbArc
 50
0.0105863451260434
 51
90.03490805722687
  0
ARC
  5
27BC
330
1F
100
AcDbEntity
  8
SANINDUSA
100
AcDbCircle
 10
5042.993571283443
 20
3155.356169108706
 30
0.0
 40
0.0025897888369335
100
AcDbArc
 50
89.9755300878299
 51
179.9783173328005
  0
LINE
  5
27BD
330
1F
100
AcDbEntity
  8
SANINDUSA
100
AcDbLine
 10
5042.942140405781
 20
3155.356169999363
 30
0.0
 11
5042.94213975013
 21
3155.3451729126
 31
0.0
  0
LWPOLYLINE
  5
27BF
330
1F
100
AcDbEntity
  8
SANINDUSA
100
AcDbPolyline
 90
        3
 70
   128
 43
0.0
 10
5042.990982180245
 20
3155.345173002007
 10
5042.990981673606
 20
3155.353170872452
 10
5042.990981494791
 20
3155.35617008877
  0
ARC
  5
27C5
330
1F
100
AcDbEntity
  8
SANINDUSA
100
AcDbCircle
 10
5042.92854168256
 20
3155.345167147193
 30
0.0
 40
0.0025887360417733
100
AcDbArc
 50
180.0089343994045
 51
270.0411816065269
  0
ARC
  5
27C7
330
1F
100
AcDbEntity
  8
SANINDUSA
100
AcDbCircle
 10
5043.004579804927
 20
3155.345167739479
 30
0.0
 40
0.0025891790358925
100
AcDbArc
 50
269.9686260576731
 51
359.9812579380725
  0
LWPOLYLINE
  5
27C9
330
1F
100
AcDbEntity
  8
SANINDUSA
100
AcDbPolyline
 90
        3
 70
   128
 43
0.0
 10
5042.939547991164
 20
3155.342582286122
 10
5042.931548481591
 20
3155.342579574111
 10
5042.928543543227
 20
3155.342578411819
  0
LWPOLYLINE
  5
27CB
330
1F
100
AcDbEntity
  8
SANINDUSA
100
AcDbPolyline
 90
        3
 70
   128
 43
0.0
 10
5043.004578387148
 20
3155.342578560831
 10
5042.996578966982
 20
3155.342581451657
 10
5042.993573909409
 20
3155.342582405331
  0
ARC
  5
27CD
330
1F
100
AcDbEntity
  8
SANINDUSA
100
AcDbCircle
 10
5042.863528203357
 20
3155.280149197444
 30
0.0
 40
0.0025877415974844
100
AcDbArc
 50
180.0
 51
270.0460586544188
  0
ARC
  5
27CF
330
1F
100
AcDbEntity
  8
SANINDUSA
100
AcDbCircle
 10
5043.069593695344
 20
3155.280149527255
 30
0.0
 40
0.0025878924782246
100
AcDbArc
 50
269.9572845811854
 51
0.0
  0
LWPOLYLINE
  5
27D1
330
1F
100
AcDbEntity
  8
SANINDUSA
100
AcDbPolyline
 90
        3
 70
   128
 43
0.0
 10
5042.874529367097
 20
3155.277568072798
 10
5042.86653173507
 20
3155.277563244822
 10
5042.863530283577
 20
3155.277561456682
  0
LWPOLYLINE
  5
27D3
330
1F
100
AcDbEntity
  8
SANINDUSA
100
AcDbPolyline
 90
        3
 70
   128
 43
0.0
 10
5043.069591766006
 20
3155.277561635496
 10
5043.061594104178
 20
3155.277566403868
 10
5043.058592652686
 20
3155.277568251612
  0
ARC
  5
27D5
330
1F
100
AcDbEntity
  8
SANINDUSA
100
AcDbCircle
 10
5042.874532409161
 20
3155.29115516336
 30
0.0
 40
0.0025877334252776
100
AcDbArc
 50
0.0
 51
90.04887912039679
  0
ARC
  5
27D8
330
1F
100
AcDbEntity
  8
SANINDUSA
100
AcDbCircle
 10
5043.058589861684
 20
3155.291155120705
 30
0.0
 40
0.0025879844952822
100
AcDbArc
 50
89.95668395876576
 51
180.0
  0
LWPOLYLINE
  5
27DA
330
1F
100
AcDbEntity
  8
SANINDUSA
100
AcDbPolyline
 90
        3
 70
   128
 43
0.0
 10
5042.877120142586
 20
3155.291155130389
 10
5042.877119814761
 20
3155.283157051327
 10
5042.877119725353
 20
3155.280159176113
  0
LWPOLYLINE
  5
27DC
330
1F
100
AcDbEntity
  8
SANINDUSA
100
AcDbPolyline
 90
        3
 70
   128
 43
0.0
 10
5043.056002294428
 20
3155.280159354927
 10
5043.056001996404
 20
3155.288157374384
 10
5043.056001877196
 20
3155.291155309202
  0
ARC
  5
27E1
330
1F
100
AcDbEntity
  8
SANINDUSA
100
AcDbCircle
 10
5042.939547881601
 20
3155.345174154947
 30
0.0
 40
0.0025918688275078
100
AcDbArc
 50
270.0024219782431
 51
359.972536720838
  0
ARC
  5
27E2
330
1F
100
AcDbEntity
  8
SANINDUSA
100
AcDbCircle
 10
5042.993573389164
 20
3155.345173614271
 30
0.0
 40
0.0025912089924762
100
AcDbArc
 50
180.013538570856
 51
270.0115034326931
  0
ARC
  5
27E7
330
1F
100
AcDbEntity
  8
SANINDUSA
100
AcDbCircle
 10
5042.874527881735
 20
3155.280159916096
 30
0.0
 40
0.0025918437232075
100
AcDbArc
 50
270.0328356338963
 51
359.9836418238651
  0
ARC
  5
27E8
330
1F
100
AcDbEntity
  8
SANINDUSA
100
AcDbCircle
 10
5043.058593946483
 20
3155.280159903402
 30
0.0
 40
0.002591652112613
100
AcDbArc
 50
180.0121255764789
 51
269.9713969662521
  0
ARC
  5
2805
330
1F
100
AcDbEntity
  8
SANINDUSA
100
AcDbCircle
 10
5042.928541352949
 20
3155.29118074509
 30
0.0
 40
0.0025918935238143
100
AcDbArc
 50
90.01153329184161
 51
179.9746271481179
  0
ARC
  5
2810
330
1F
100
AcDbEntity
  8
SANINDUSA
100
AcDbCircle
 10
5043.00458101127
 20
3155.291181298256
 30
0.0
 40
0.0025914595155182
100
AcDbArc
 50
0.0151241542620697
 51
89.99805681034674
  0
LWPOLYLINE
  5
2819
330
1F
100
AcDbEntity
  8
SANINDUSA
100
AcDbPolyline
 90
        3
 70
   128
 43
0.0
 10
5042.928540831216
 20
3155.293772638561
 10
5042.936540012963
 20
3155.293775588991
 10
5042.939545815595
 20
3155.293776542666
  0
LWPOLYLINE
  5
281B
330
1F
100
AcDbEntity
  8
SANINDUSA
100
AcDbPolyline
 90
        3
 70
   128
 43
0.0
 10
5042.92594934047
 20
3155.280185610773
 10
5042.925949400075
 20
3155.288183421614
 10
5042.925949459679
 20
3155.291181892874
  0
LWPOLYLINE
  5
281E
330
1F
100
AcDbEntity
  8
SANINDUSA
100
AcDbPolyline
 90
        3
 70
   128
 43
0.0
 10
5042.993576084978
 20
3155.293776632073
 10
5043.001575415737
 20
3155.293773920061
 10
5043.00458109916
 20
3155.293772757771
  0
LWPOLYLINE
  5
281F
330
1F
100
AcDbEntity
  8
SANINDUSA
100
AcDbPolyline
 90
        3
 70
   128
 43
0.0
 10
5043.007172470696
 20
3155.291181982281
 10
5043.007172589906
 20
3155.28318417144
 10
5043.007172619708
 20
3155.28018570018
  0
ARC
  5
2823
330
1F
100
AcDbEntity
  8
SANINDUSA
100
AcDbCircle
 10
5042.939547774037
 20
3155.29118713025
 30
0.0
 40
0.0025894131562022
100
AcDbArc
 50
0.0127039737405015
 51
90.04333438402218
  0
ARC
  5
2826
330
1F
100
AcDbEntity
  8
SANINDUSA
100
AcDbCircle
 10
5042.99357475777
 20
3155.291186617633
 30
0.0
 40
0.0025900147793266
100
AcDbArc
 50
89.97063975272039
 51
179.97464181714
  0
LWPOLYLINE
  5
2828
330
1F
100
AcDbEntity
  8
SANINDUSA
100
AcDbPolyline
 90
        3
 70
   128
 43
0.0
 10
5042.942137187131
 20
3155.291187704327
 10
5042.942137067921
 20
3155.283189923288
 10
5042.942137067921
 20
3155.280190945389
  0
LWPOLYLINE
  5
282A
330
1F
100
AcDbEntity
  8
SANINDUSA
100
AcDbPolyline
 90
        3
 70
   128
 43
0.0
 10
5042.990984862454
 20
3155.280191004994
 10
5042.990984802849
 20
3155.288188786032
 10
5042.990984743244
 20
3155.291187763932
  0
ARC
  5
282F
330
1F
100
AcDbEntity
  8
SANINDUSA
100
AcDbCircle
 10
5042.928538160712
 20
3155.28018597899
 30
0.0
 40
0.0025888202677629
100
AcDbArc
 50
180.0081506618631
 51
270.0538269345115
  0
ARC
  5
2831
330
1F
100
AcDbEntity
  8
SANINDUSA
100
AcDbCircle
 10
5043.004583147794
 20
3155.280186690961
 30
0.0
 40
0.0025894721030801
100
AcDbArc
 50
269.9606057740414
 51
359.9780770786647
  0
LWPOLYLINE
  5
2833
330
1F
100
AcDbEntity
  8
SANINDUSA
100
AcDbPolyline
 90
        3
 70
   128
 43
0.0
 10
5042.93954563678
 20
3155.277600736143
 10
5042.931546365625
 20
3155.277598232749
 10
5042.928540592797
 20
3155.277597159864
  0
LWPOLYLINE
  5
2835
330
1F
100
AcDbEntity
  8
SANINDUSA
100
AcDbPolyline
 90
        3
 70
   128
 43
0.0
 10
5043.00458136738
 20
3155.277597219469
 10
5042.996582185633
 20
3155.277599901678
 10
5042.993576293595
 20
3155.277600795748
  0
ARC
  5
2837
330
1F
100
AcDbEntity
  8
SANINDUSA
100
AcDbCircle
 10
5042.939545516988
 20
3155.280192287421
 30
0.0
 40
0.0025915512806526
100
AcDbArc
 50
270.0026484492075
 51
359.9703292800489
  0
ARC
  5
2838
330
1F
100
AcDbEntity
  8
SANINDUSA
100
AcDbCircle
 10
5042.993575862389
 20
3155.280191795769
 30
0.0
 40
0.0025910000565596
100
AcDbArc
 50
180.0174867008953
 51
270.0095353864372
  0
CIRCLE
  5
2849
330
1F
100
AcDbEntity
  8
SANINDUSA
100
AcDbCircle
 10
5042.966561048634
 20
3155.153074709227
 30
0.0
 40
0.045297545258413
  0
CIRCLE
  5
284A
330
1F
100
AcDbEntity
  8
SANINDUSA
100
AcDbCircle
 10
5042.966561048634
 20
3155.153074709227
 30
0.0
 40
0.035
  0
LINE
  5
284D
330
1F
100
AcDbEntity
  8
SANINDUSA
100
AcDbLine
 10
5046.346321293102
 20
3155.305027785883
 30
0.0
 11
5046.295446821438
 21
3155.306230093525
 31
0.0
  0
ARC
  5
284E
330
1F
100
AcDbEntity
  8
SANINDUSA
100
AcDbCircle
 10
5046.911600329099
 20
3155.339339833876
 30
0.0
 40
0.0441829472799487
100
AcDbArc
 50
272.0075155304922
 51
289.2008241623769
  0
LINE
  5
284F
330
1F
100
AcDbEntity
  8
SANINDUSA
100
AcDbLine
 10
5047.008701601015
 20
3155.390616054819
 30
0.0
 11
5047.004700996862
 21
3155.390616054819
 31
0.0
  0
LINE
  5
2850
330
1F
100
AcDbEntity
  8
SANINDUSA
100
AcDbLine
 10
5047.004158356176
 20
3155.421703315512
 30
0.0
 11
5047.004700996862
 21
3155.390616054819
 31
0.0
  0
ARC
  5
2851
330
1F
100
AcDbEntity
  8
SANINDUSA
100
AcDbCircle
 10
5046.999159104917
 20
3155.421616053925
 30
0.0
 40
0.005
100
AcDbArc
 50
1.000000009720081
 51
90.0
  0
LINE
  5
2852
330
1F
100
AcDbEntity
  8
SANINDUSA
100
AcDbLine
 10
5046.965555288778
 20
3155.426616053734
 30
0.0
 11
5046.9991590762
 21
3155.426616053734
 31
0.0
  0
ARC
  5
2853
330
1F
100
AcDbEntity
  8
SANINDUSA
100
AcDbCircle
 10
5046.965555276965
 20
3155.421616053925
 30
0.0
 40
0.005
100
AcDbArc
 50
90.0
 51
170.0000000033014
  0
LINE
  5
2854
330
1F
100
AcDbEntity
  8
SANINDUSA
100
AcDbLine
 10
5046.960631229864
 20
3155.422484294684
 30
0.0
 11
5046.94187501906
 21
3155.316112625585
 31
0.0
  0
ARC
  5
2855
330
1F
100
AcDbEntity
  8
SANINDUSA
100
AcDbCircle
 10
5046.918239634198
 20
3155.320280159145
 30
0.0
 40
0.0239999948650448
100
AcDbArc
 50
289.1969537886794
 51
350.0000528887752
  0
LINE
  5
2856
330
1F
100
AcDbEntity
  8
SANINDUSA
100
AcDbLine
 10
5046.885096349702
 20
3155.294204565869
 30
0.0
 11
5046.913142957674
 21
3155.295183989391
 31
0.0
  0
LINE
  5
2857
330
1F
100
AcDbEntity
  8
SANINDUSA
100
AcDbLine
 10
5046.874742605672
 20
3155.28310154675
 30
0.0
 11
5046.885096349702
 21
3155.294204565869
 31
0.0
  0
LINE
  5
2858
330
1F
100
AcDbEntity
  8
SANINDUSA
100
AcDbLine
 10
5046.801264145361
 20
3155.28310154675
 30
0.0
 11
5046.874742605672
 21
3155.28310154675
 31
0.0
  0
LINE
  5
2859
330
1F
100
AcDbEntity
  8
SANINDUSA
100
AcDbLine
 10
5046.79091040133
 20
3155.294204565869
 30
0.0
 11
5046.801264145361
 21
3155.28310154675
 31
0.0
  0
LINE
  5
285A
330
1F
100
AcDbEntity
  8
SANINDUSA
100
AcDbLine
 10
5046.762863793359
 20
3155.295183989391
 30
0.0
 11
5046.79091040133
 21
3155.294204565869
 31
0.0
  0
LWPOLYLINE
  5
285B
330
1F
100
AcDbEntity
  8
SANINDUSA
100
AcDbPolyline
 90
        3
 70
   128
 43
0.0
 10
5046.762863793359
 20
3155.295183989391
 10
5046.546489336477
 20
3155.30029726325
 10
5046.346321293102
 20
3155.305027785883
  0
ARC
  5
285C
330
1F
100
AcDbEntity
  8
SANINDUSA
100
AcDbCircle
 10
5046.296013855767
 20
3155.3302234041
 30
0.0
 40
0.0240000100059861
100
AcDbArc
 50
190.0000084187624
 51
268.6461798515464
  0
LINE
  5
285D
330
1F
100
AcDbEntity
  8
SANINDUSA
100
AcDbLine
 10
5046.272378460454
 20
3155.326055842624
 30
0.0
 11
5046.255375524001
 21
3155.422484294684
 31
0.0
  0
ARC
  5
285E
330
1F
100
AcDbEntity
  8
SANINDUSA
100
AcDbCircle
 10
5046.250451483604
 20
3155.421616053925
 30
0.0
 40
0.005
100
AcDbArc
 50
9.999999996698591
 51
90.0
  0
LINE
  5
285F
330
1F
100
AcDbEntity
  8
SANINDUSA
100
AcDbLine
 10
5046.216847655312
 20
3155.426616053734
 30
0.0
 11
5046.250451483713
 21
3155.426616053734
 31
0.0
  0
ARC
  5
2860
330
1F
100
AcDbEntity
  8
SANINDUSA
100
AcDbCircle
 10
5046.216847655653
 20
3155.421616053925
 30
0.0
 40
0.005
100
AcDbArc
 50
90.0
 51
178.9999999902799
  0
LINE
  5
2861
330
1F
100
AcDbEntity
  8
SANINDUSA
100
AcDbLine
 10
5046.211305787037
 20
3155.390616054819
 30
0.0
 11
5046.211848417247
 21
3155.421703315512
 31
0.0
  0
LINE
  5
2862
330
1F
100
AcDbEntity
  8
SANINDUSA
100
AcDbLine
 10
5046.207305177705
 20
3155.390616054819
 30
0.0
 11
5046.207849026403
 21
3155.42177312559
 31
0.0
  0
ARC
  5
2863
330
1F
100
AcDbEntity
  8
SANINDUSA
100
AcDbCircle
 10
5046.216847655653
 20
3155.421616053925
 30
0.0
 40
0.0089999999999998
100
AcDbArc
 50
90.0
 51
178.9999999902799
  0
LINE
  5
2864
330
1F
100
AcDbEntity
  8
SANINDUSA
100
AcDbLine
 10
5046.216847655312
 20
3155.430616053925
 30
0.0
 11
5046.250451483713
 21
3155.430616053925
 31
0.0
  0
ARC
  5
2865
330
1F
100
AcDbEntity
  8
SANINDUSA
100
AcDbCircle
 10
5046.250451483604
 20
3155.421616053925
 30
0.0
 40
0.0089999999999999
100
AcDbArc
 50
9.999999996698591
 51
90.0
  0
LINE
  5
2867
330
1F
100
AcDbEntity
  8
SANINDUSA
100
AcDbLine
 10
5046.276317694321
 20
3155.326750429619
 30
0.0
 11
5046.259314753996
 21
3155.423178887633
 31
0.0
  0
ARC
  5
2868
330
1F
100
AcDbEntity
  8
SANINDUSA
100
AcDbCircle
 10
5046.296013848888
 20
3155.330223393385
 30
0.0
 40
0.0199999995509951
100
AcDbArc
 50
189.9999984118982
 51
268.6461916319374
  0
LINE
  5
2869
330
1F
100
AcDbEntity
  8
SANINDUSA
100
AcDbLine
 10
5046.346420445428
 20
3155.309026564644
 30
0.0
 11
5046.295541324602
 21
3155.310228976593
 31
0.0
  0
LWPOLYLINE
  5
286A
330
1F
100
AcDbEntity
  8
SANINDUSA
100
AcDbPolyline
 90
        3
 70
   128
 43
0.0
 10
5046.746782102571
 20
3155.299564886079
 10
5046.581028827415
 20
3155.303482118235
 10
5046.346420445428
 20
3155.309026564644
  0
LWPOLYLINE
  5
286B
330
1F
100
AcDbEntity
  8
SANINDUSA
100
AcDbPolyline
 90
        3
 70
   128
 43
0.0
 10
5046.763003387438
 20
3155.299181598411
 10
5046.761261322484
 20
3155.299222666011
 10
5046.746782102571
 20
3155.299564886079
  0
LINE
  5
286C
330
1F
100
AcDbEntity
  8
SANINDUSA
100
AcDbLine
 10
5046.763003387438
 20
3155.299181538806
 30
0.0
 11
5046.792705812441
 21
3155.298144313679
 31
0.0
  0
LINE
  5
286D
330
1F
100
AcDbEntity
  8
SANINDUSA
100
AcDbLine
 10
5046.792705812441
 20
3155.298144313679
 30
0.0
 11
5046.803003408895
 21
3155.287101539955
 31
0.0
  0
LINE
  5
286E
330
1F
100
AcDbEntity
  8
SANINDUSA
100
AcDbLine
 10
5046.803003408895
 20
3155.287101539955
 30
0.0
 11
5046.873003401742
 21
3155.287101539955
 31
0.0
  0
LINE
  5
286F
330
1F
100
AcDbEntity
  8
SANINDUSA
100
AcDbLine
 10
5046.873003401742
 20
3155.287101539955
 30
0.0
 11
5046.883300938592
 21
3155.298144313679
 31
0.0
  0
LINE
  5
2870
330
1F
100
AcDbEntity
  8
SANINDUSA
100
AcDbLine
 10
5046.883300938592
 20
3155.298144313679
 30
0.0
 11
5046.913003363595
 21
3155.299181538806
 31
0.0
  0
ARC
  5
2871
330
1F
100
AcDbEntity
  8
SANINDUSA
100
AcDbCircle
 10
5046.911606005529
 20
3155.339309300166
 30
0.0
 40
0.0401522328189159
100
AcDbArc
 50
271.9943820031483
 51
289.207850792148
  0
ARC
  5
2873
330
1F
100
AcDbEntity
  8
SANINDUSA
100
AcDbCircle
 10
5046.918239776074
 20
3155.320280081116
 30
0.0
 40
0.0199998617887911
100
AcDbArc
 50
289.196565326557
 51
350.0002090095161
  0
LINE
  5
2874
330
1F
100
AcDbEntity
  8
SANINDUSA
100
AcDbLine
 10
5046.956692018495
 20
3155.423178887633
 30
0.0
 11
5046.937935781343
 21
3155.316807063986
 31
0.0
  0
ARC
  5
2876
330
1F
100
AcDbEntity
  8
SANINDUSA
100
AcDbCircle
 10
5046.965555276965
 20
3155.421616053925
 30
0.0
 40
0.0089999999999999
100
AcDbArc
 50
90.0
 51
170.0000000033014
  0
LINE
  5
2877
330
1F
100
AcDbEntity
  8
SANINDUSA
100
AcDbLine
 10
5046.965555288778
 20
3155.430616053925
 30
0.0
 11
5046.9991590762
 21
3155.430616053925
 31
0.0
  0
ARC
  5
2878
330
1F
100
AcDbEntity
  8
SANINDUSA
100
AcDbCircle
 10
5046.999159104917
 20
3155.421616053925
 30
0.0
 40
0.0089999999999999
100
AcDbArc
 50
1.000000009720081
 51
90.0
  0
LINE
  5
2879
330
1F
100
AcDbEntity
  8
SANINDUSA
100
AcDbLine
 10
5047.008157708631
 20
3155.42177312559
 30
0.0
 11
5047.008701601015
 21
3155.390616054819
 31
0.0
  0
LINE
  5
287B
330
1F
100
AcDbEntity
  8
SANINDUSA
100
AcDbLine
 10
5046.883300938592
 20
3155.298144313679
 30
0.0
 11
5046.792705812441
 21
3155.298144313679
 31
0.0
  0
LINE
  5
2ABC
330
1F
100
AcDbEntity
  8
SANINDUSA
100
AcDbLine
 10
5046.946843900666
 20
3155.430616053925
 30
0.0
 11
5046.965555288778
 21
3155.430616053925
 31
0.0
  0
LINE
  5
2ABE
330
1F
100
AcDbEntity
  8
SANINDUSA
100
AcDbLine
 10
5046.250451483713
 20
3155.430616053925
 30
0.0
 11
5046.269162830846
 21
3155.430616053925
 31
0.0
  0
LINE
  5
2ABF
330
1F
100
AcDbEntity
  8
SANINDUSA
100
AcDbLine
 10
5046.269162830846
 20
3155.430616053925
 30
0.0
 11
5046.946843900666
 21
3155.430616053925
 31
0.0
  0
LINE
  5
2AC5
330
1F
100
AcDbEntity
  8
SANINDUSA
100
AcDbLine
 10
5046.212305634697
 20
3155.390616054819
 30
0.0
 11
5046.211305787037
 21
3155.390616054819
 31
0.0
  0
LINE
  5
2AC7
330
1F
100
AcDbEntity
  8
SANINDUSA
100
AcDbLine
 10
5047.004700996862
 20
3155.390616054819
 30
0.0
 11
5047.003701128947
 21
3155.390616054819
 31
0.0
  0
LINE
  5
2AC8
330
1F
100
AcDbEntity
  8
SANINDUSA
100
AcDbLine
 10
5047.003701128947
 20
3155.390616054819
 30
0.0
 11
5046.955012001977
 21
3155.390616054819
 31
0.0
  0
LINE
  5
2AC9
330
1F
100
AcDbEntity
  8
SANINDUSA
100
AcDbLine
 10
5046.260994751887
 20
3155.390616054819
 30
0.0
 11
5046.212305634697
 21
3155.390616054819
 31
0.0
  0
ARC
  5
2B56
330
1F
100
AcDbEntity
  8
SANINDUSA
100
AcDbCircle
 10
5045.637096683169
 20
3155.334590659397
 30
0.0
 40
0.0393725807731091
100
AcDbArc
 50
271.1246337948462
 51
290.4108500481265
  0
LWPOLYLINE
  5
2B57
330
1F
100
AcDbEntity
  8
SANINDUSA
100
AcDbPolyline
 90
        3
 70
   128
 43
0.0
 10
5045.471380028883
 20
3155.295612292625
 10
5045.482825010282
 20
3155.295320065172
 10
5045.488453497902
 20
3155.295197948046
  0
ARC
  5
2B58
330
1F
100
AcDbEntity
  8
SANINDUSA
100
AcDbCircle
 10
5045.642965456509
 20
3155.320280180323
 30
0.0
 40
0.0240000004686393
100
AcDbArc
 50
289.2000401678613
 51
349.9999944172678
  0
LINE
  5
2B59
330
1F
100
AcDbEntity
  8
SANINDUSA
100
AcDbLine
 10
5045.487589582375
 20
3155.295183982873
 30
0.0
 11
5045.515636192178
 21
3155.294204573677
 31
0.0
  0
LINE
  5
2B5A
330
1F
100
AcDbEntity
  8
SANINDUSA
100
AcDbLine
 10
5045.609822168544
 20
3155.294204573677
 30
0.0
 11
5045.637868778347
 21
3155.295183982873
 31
0.0
  0
LINE
  5
2B5B
330
1F
100
AcDbEntity
  8
SANINDUSA
100
AcDbLine
 10
5045.515636192178
 20
3155.294204573677
 30
0.0
 11
5045.525989930862
 21
3155.28310154828
 31
0.0
  0
LINE
  5
2B5C
330
1F
100
AcDbEntity
  8
SANINDUSA
100
AcDbLine
 10
5045.59946842986
 20
3155.28310154828
 30
0.0
 11
5045.609822168544
 21
3155.294204573677
 31
0.0
  0
LINE
  5
2B5F
330
1F
100
AcDbEntity
  8
SANINDUSA
100
AcDbLine
 10
5044.932030977764
 20
3155.390616054819
 30
0.0
 11
5044.932574826472
 21
3155.421773126477
 31
0.0
  0
LINE
  5
2B62
330
1F
100
AcDbEntity
  8
SANINDUSA
100
AcDbLine
 10
5044.93703021624
 20
3155.390616054819
 30
0.0
 11
5045.728428144482
 21
3155.390616054819
 31
0.0
  0
LINE
  5
2B64
330
1F
100
AcDbEntity
  8
SANINDUSA
100
AcDbLine
 10
5045.732883534249
 20
3155.421773126477
 30
0.0
 11
5045.733427382959
 21
3155.390616054819
 31
0.0
  0
LINE
  5
2B65
330
1F
100
AcDbEntity
  8
SANINDUSA
100
AcDbLine
 10
5045.728428144482
 20
3155.390616054819
 30
0.0
 11
5045.733427382959
 21
3155.390616054819
 31
0.0
  0
ARC
  5
2B66
330
1F
100
AcDbEntity
  8
SANINDUSA
100
AcDbCircle
 10
5044.941573455729
 20
3155.421616054819
 30
0.0
 40
0.0089999999999999
100
AcDbArc
 50
90.0
 51
178.9999999902799
  0
LINE
  5
2B68
330
1F
100
AcDbEntity
  8
SANINDUSA
100
AcDbLine
 10
5044.941573455729
 20
3155.430616054819
 30
0.0
 11
5045.723884904993
 21
3155.430616054819
 31
0.0
  0
ARC
  5
2B6A
330
1F
100
AcDbEntity
  8
SANINDUSA
100
AcDbCircle
 10
5045.723884904993
 20
3155.421616054819
 30
0.0
 40
0.0089999999999998
100
AcDbArc
 50
1.000000009720081
 51
90.0
  0
LINE
  5
2B6C
330
1F
100
AcDbEntity
  8
SANINDUSA
100
AcDbLine
 10
5044.985720553142
 20
3155.390616054819
 30
0.0
 11
5044.997055342708
 21
3155.326333268819
 31
0.0
  0
LINE
  5
2B6D
330
1F
100
AcDbEntity
  8
SANINDUSA
100
AcDbLine
 10
5045.667759418282
 20
3155.322683233367
 30
0.0
 11
5045.67973780758
 21
3155.390616054819
 31
0.0
  0
ARC
  5
2B76
330
1F
100
AcDbEntity
  8
SANINDUSA
100
AcDbCircle
 10
5045.020718448109
 20
3155.330331163405
 30
0.0
 40
0.023997836769248
100
AcDbArc
 50
190.0004694818546
 51
268.9626805772087
  0
LINE
  5
2B7A
330
1F
100
AcDbEntity
  8
SANINDUSA
100
AcDbLine
 10
5045.666600895481
 20
3155.316112924066
 30
0.0
 11
5045.66753838605
 21
3155.321429697286
 31
0.0
  0
LINE
  5
2B7B
330
1F
100
AcDbEntity
  8
SANINDUSA
100
AcDbLine
 10
5045.515636192178
 20
3155.294204573677
 30
0.0
 11
5045.609822168544
 21
3155.294204573677
 31
0.0
  0
LINE
  5
2B7C
330
1F
100
AcDbEntity
  8
SANINDUSA
100
AcDbLine
 10
5045.525989930862
 20
3155.28310154828
 30
0.0
 11
5045.59946842986
 21
3155.28310154828
 31
0.0
  0
LWPOLYLINE
  5
2B83
330
1F
100
AcDbEntity
  8
SANINDUSA
100
AcDbPolyline
 90
       34
 70
   128
 43
0.0
 10
5043.943420843547
 20
3155.295174393044
 10
5043.942404524749
 20
3155.295164215551
 10
5043.941178397601
 20
3155.295147421942
 10
5043.939893261855
 20
3155.295130553827
 10
5043.938556031649
 20
3155.295114535079
 10
5043.934307501977
 20
3155.295065569863
 10
5043.929705367749
 20
3155.295018571601
 10
5043.923020170396
 20
3155.294965523467
 10
5043.915708468621
 20
3155.294929417954
 10
5043.907771156495
 20
3155.294914114461
 10
5043.899208710854
 20
3155.294921073303
 10
5043.890021250909
 20
3155.294950100766
 10
5043.880223677819
 20
3155.295000049458
 10
5043.87068264312
 20
3155.295062395916
 10
5043.86190281934
 20
3155.295129287229
 10
5043.851965473359
 20
3155.295214372859
 10
5043.843225465482
 20
3155.295295971618
 10
5043.835682676499
 20
3155.295370313511
 10
5043.829336867993
 20
3155.295434790835
 10
5043.826490507786
 20
3155.295464071617
 10
5043.823865400021
 20
3155.29549117683
 10
5043.820665763085
 20
3155.295524242506
 10
5043.816729829972
 20
3155.295564922676
 10
5043.812057421868
 20
3155.295613291845
 10
5043.806648657983
 20
3155.295669499026
 10
5043.799186037247
 20
3155.295747655616
 10
5043.790662871067
 20
3155.29583804606
 10
5043.781079278653
 20
3155.295941445217
 10
5043.770435200398
 20
3155.29605889617
 10
5043.75873045749
 20
3155.296191784725
 10
5043.746202395624
 20
3155.29633915721
 10
5043.732651100819
 20
3155.296505692587
 10
5043.718076513474
 20
3155.296694654212
 10
5043.707615063851
 20
3155.296839314685
  0
ARC
  5
2B84
330
1F
100
AcDbEntity
  8
SANINDUSA
100
AcDbCircle
 10
5047.715353807633
 20
3259.169964497583
 30
0.0
 40
103.898587402906
100
AcDbArc
 50
268.5136136225223
 51
268.7624449087373
  0
ENDSEC
  0
SECTION
  2
OBJECTS
  0
DICTIONARY
  5
C
330
0
100
AcDbDictionary
281
     1
  3
ACAD_COLOR
350
EE6
  3
ACAD_GROUP
350
D
  3
ACAD_LAYOUT
350
1A
  3
ACAD_MATERIAL
350
EE5
  3
ACAD_MLINESTYLE
350
17
  3
ACAD_PLOTSETTINGS
350
19
  3
ACAD_PLOTSTYLENAME
350
E
  3
ACAD_TABLESTYLE
350
EE7
  3
ACDBHEADERROUNDTRIPXREC
350
2FA5
  3
AcDbVariableDictionary
350
3D
  3
ASE_INDEX_DICTIONARY
350
2F8D
  0
DICTIONARY
  5
1051
330
2
100
AcDbDictionary
280
     1
281
     1
  3
ACAD_LAYERFILTERS
360
1057
  3
ACLYDICTIONARY
360
1056
  0
DICTIONARY
  5
EE6
102
{ACAD_REACTORS
330
C
102
}
330
C
100
AcDbDictionary
281
     1
  0
DICTIONARY
  5
D
102
{ACAD_REACTORS
330
C
102
}
330
C
100
AcDbDictionary
281
     1
  0
DICTIONARY
  5
1A
102
{ACAD_REACTORS
330
C
102
}
330
C
100
AcDbDictionary
281
     1
  3
Layout1
350
1E
  3
Layout2
350
26
  3
Model
350
22
  0
DICTIONARY
  5
EE5
102
{ACAD_REACTORS
330
C
102
}
330
C
100
AcDbDictionary
281
     1
  0
DICTIONARY
  5
17
102
{ACAD_REACTORS
330
C
102
}
330
C
100
AcDbDictionary
281
     1
  3
Standard
350
18
  0
DICTIONARY
  5
19
102
{ACAD_REACTORS
330
C
102
}
330
C
100
AcDbDictionary
281
     1
  0
ACDBDICTIONARYWDFLT
  5
E
102
{ACAD_REACTORS
330
C
102
}
330
C
100
AcDbDictionary
281
     1
  3
Normal
350
F
100
AcDbDictionaryWithDefault
340
F
  0
DICTIONARY
  5
EE7
102
{ACAD_REACTORS
330
C
102
}
330
C
100
AcDbDictionary
281
     1
  3
Standard
350
EE8
  0
DICTIONARY
  5
2FA5
102
{ACAD_REACTORS
330
C
102
}
330
C
100
AcDbDictionary
281
     1
  0
DICTIONARY
  5
3D
102
{ACAD_REACTORS
330
C
102
}
330
C
100
AcDbDictionary
281
     1
  3
CTABLESTYLE
350
1049
  3
DIMASSOC
350
3F
  3
HIDETEXT
350
3E
  3
PROJECTNAME
350
2F9D
  0
DICTIONARY
  5
2F8D
102
{ACAD_REACTORS
330
C
102
}
330
C
100
AcDbDictionary
281
     1
  3
ASEBlockHierarchyIndexRecord
350
2F8E
1001
DCO15
1040
1598607325.265
  0
DICTIONARY
  5
1057
102
{ACAD_REACTORS
330
1051
102
}
330
1051
100
AcDbDictionary
281
     1
  0
DICTIONARY
  5
1056
102
{ACAD_REACTORS
330
1051
102
}
330
1051
100
AcDbDictionary
281
     1
1001
ACAD
1000
<All
  0
LAYOUT
  5
1E
102
{ACAD_XDICTIONARY
360
2FA6
102
}
102
{ACAD_REACTORS
330
1A
102
}
330
1A
100
AcDbPlotSettings
  1

  2
Ploter HP500
  4

  6

 40
0.0
 41
0.0
 42
0.0
 43
0.0
 44
0.0
 45
0.0
 46
0.0
 47
0.0
 48
0.0
 49
0.0
140
0.0
141
0.0
142
1.0
143
1.0
 70
   688
 72
     0
 73
     0
 74
     5
  7
sanindusa.ctb
 75
    16
147
1.0
148
0.0
149
0.0
100
AcDbLayout
  1
Layout1
 70
     1
 71
     1
 10
0.0
 20
0.0
 11
420.0
 21
297.0
 12
0.0
 22
0.0
 32
0.0
 14
1.000000000000000E+20
 24
1.000000000000000E+20
 34
1.000000000000000E+20
 15
-1.000000000000000E+20
 25
-1.000000000000000E+20
 35
-1.000000000000000E+20
146
0.0
 13
0.0
 23
0.0
 33
0.0
 16
1.0
 26
0.0
 36
0.0
 17
0.0
 27
1.0
 37
0.0
 76
     0
330
1B
  0
LAYOUT
  5
26
102
{ACAD_XDICTIONARY
360
2FAA
102
}
102
{ACAD_REACTORS
330
1A
102
}
330
1A
100
AcDbPlotSettings
  1

  2
Ploter HP500
  4

  6

 40
0.0
 41
0.0
 42
0.0
 43
0.0
 44
0.0
 45
0.0
 46
0.0
 47
0.0
 48
0.0
 49
0.0
140
0.0
141
0.0
142
1.0
143
1.0
 70
   688
 72
     0
 73
     0
 74
     5
  7
sanindusa.ctb
 75
    16
147
1.0
148
0.0
149
0.0
100
AcDbLayout
  1
Layout2
 70
     1
 71
     2
 10
0.0
 20
0.0
 11
12.0
 21
9.0
 12
0.0
 22
0.0
 32
0.0
 14
0.0
 24
0.0
 34
0.0
 15
0.0
 25
0.0
 35
0.0
146
0.0
 13
0.0
 23
0.0
 33
0.0
 16
1.0
 26
0.0
 36
0.0
 17
0.0
 27
1.0
 37
0.0
 76
     0
330
23
  0
LAYOUT
  5
22
102
{ACAD_XDICTIONARY
360
2FA8
102
}
102
{ACAD_REACTORS
330
1A
102
}
330
1A
100
AcDbPlotSettings
  1

  2
Ploter HP500
  4
User268
  6

 40
4.995333194732666
 41
16.97565841674804
 42
4.995330810546875
 43
16.97567749023437
 44
209.9733276367187
 45
296.9259948730469
 46
0.0
 47
0.0
 48
0.0
 49
0.0
140
0.0
141
0.0
142
1.0
143
1.0
 70
 11952
 72
     1
 73
     1
 74
     0
  7
sanindusa.ctb
 75
     0
147
1.0
148
-427.5957866592534
149
7.362384574453926
100
AcDbLayout
  1
Model
 70
     1
 71
     0
 10
0.0
 20
0.0
 11
12.0
 21
9.0
 12
0.0
 22
0.0
 32
0.0
 14
0.0
 24
0.0
 34
0.0
 15
0.0
 25
0.0
 35
0.0
146
0.0
 13
0.0
 23
0.0
 33
0.0
 16
1.0
 26
0.0
 36
0.0
 17
0.0
 27
1.0
 37
0.0
 76
     0
330
1F
  0
MLINESTYLE
  5
18
102
{ACAD_REACTORS
330
17
102
}
330
17
100
AcDbMlineStyle
  2
STANDARD
 70
     0
  3

 62
   256
 51
90.0
 52
90.0
 71
     2
 49
0.5
 62
   256
  6
BYLAYER
 49
-0.5
 62
   256
  6
BYLAYER
  0
ACDBPLACEHOLDER
  5
F
102
{ACAD_REACTORS
330
E
102
}
330
E
  0
TABLESTYLE
  5
EE8
102
{ACAD_REACTORS
330
EE7
102
}
330
EE7
100
AcDbTableStyle
  3
Standard
 70
     0
 71
     0
 40
1.5
 41
1.5
280
     0
281
     0
  7
Standard
140
4.5
170
     2
 62
     0
 63
     7
283
     0
274
    -2
284
     1
 64
     0
275
    -2
285
     1
 65
     0
276
    -2
286
     1
 66
     0
277
    -2
287
     1
 67
     0
278
    -2
288
     1
 68
     0
279
    -2
289
     1
 69
     0
  7
Standard
140
6.0
170
     5
 62
     0
 63
     7
283
     0
274
    -2
284
     1
 64
     0
275
    -2
285
     1
 65
     0
276
    -2
286
     1
 66
     0
277
    -2
287
     1
 67
     0
278
    -2
288
     1
 68
     0
279
    -2
289
     1
 69
     0
  7
Standard
140
4.5
170
     5
 62
     0
 63
     7
283
     0
274
    -2
284
     1
 64
     0
275
    -2
285
     1
 65
     0
276
    -2
286
     1
 66
     0
277
    -2
287
     1
 67
     0
278
    -2
288
     1
 68
     0
279
    -2
289
     1
 69
     0
  0
DICTIONARYVAR
  5
1049
102
{ACAD_REACTORS
330
3D
102
}
330
3D
100
DictionaryVariables
280
     0
  1
STANDARD
  0
DICTIONARYVAR
  5
3F
102
{ACAD_REACTORS
330
3D
102
}
330
3D
100
DictionaryVariables
280
     0
  1
2
  0
DICTIONARYVAR
  5
3E
102
{ACAD_REACTORS
330
3D
102
}
330
3D
100
DictionaryVariables
280
     0
  1
1
  0
DICTIONARYVAR
  5
2F9D
102
{ACAD_REACTORS
330
3D
102
}
330
3D
100
DictionaryVariables
280
     0
  1

  0
XRECORD
  5
2F8E
102
{ACAD_REACTORS
330
2F8D
102
}
330
2F8D
100
AcDbXrecord
280
     1
  0
DICTIONARY
  5
2FA6
330
1E
100
AcDbDictionary
280
     1
281
     1
  3
ACAD_XREC_ROUNDTRIP
360
2FA7
  0
DICTIONARY
  5
2FAA
330
26
100
AcDbDictionary
280
     1
281
     1
  3
ACAD_XREC_ROUNDTRIP
360
2FAB
  0
DICTIONARY
  5
2FA8
330
22
100
AcDbDictionary
280
     1
281
     1
  3
ACAD_XREC_ROUNDTRIP
360
2FA9
  0
XRECORD
  5
2FA7
102
{ACAD_REACTORS
330
2FA6
102
}
330
2FA6
100
AcDbXrecord
280
     1
102
SHADEPLOT
 70
     0
102
SHADEPLOTRESLEVEL
 70
     2
102
SHADEPLOTCUSTOMDPI
 70
   300
  0
XRECORD
  5
2FAB
102
{ACAD_REACTORS
330
2FAA
102
}
330
2FAA
100
AcDbXrecord
280
     1
102
SHADEPLOT
 70
     0
102
SHADEPLOTRESLEVEL
 70
     2
102
SHADEPLOTCUSTOMDPI
 70
   300
  0
XRECORD
  5
2FA9
102
{ACAD_REACTORS
330
2FA8
102
}
330
2FA8
100
AcDbXrecord
280
     1
102
SHADEPLOT
 70
     0
102
SHADEPLOTRESLEVEL
 70
     2
102
SHADEPLOTCUSTOMDPI
 70
   300
  0
ENDSEC
  0
EOF
