  0
SECTION
  2
HEADER
  9
$ACADVER
  1
AC1015
  9
$ACADMAINTVER
 70
    20
  9
$DWGCODEPAGE
  3
ANSI_1252
  9
$INSBASE
 10
0.0
 20
0.0
 30
0.0
  9
$EXTMIN
 10
5003.412690444474
 20
3070.922988992759
 30
0.0
  9
$EXTMAX
 10
5007.311187934543
 20
3071.674385404164
 30
0.0
  9
$LIMMIN
 10
0.0
 20
0.0
  9
$LIMMAX
 10
420.0
 20
297.0
  9
$ORTHOMODE
 70
     1
  9
$REGENMODE
 70
     1
  9
$FILLMODE
 70
     1
  9
$QTEXTMODE
 70
     0
  9
$MIRRTEXT
 70
     1
  9
$LTSCALE
 40
1.0
  9
$ATTMODE
 70
     1
  9
$TEXTSIZE
 40
2.5
  9
$TRACEWID
 40
1.0
  9
$TEXTSTYLE
  7
SANINDUSA
  9
$CLAYER
  8
0
  9
$CELTYPE
  6
ByLayer
  9
$CECOLOR
 62
   256
  9
$CELTSCALE
 40
1.0
  9
$DISPSILH
 70
     0
  9
$DIMSCALE
 40
1.0
  9
$DIMASZ
 40
2.0
  9
$DIMEXO
 40
1.0
  9
$DIMDLI
 40
1.0
  9
$DIMRND
 40
0.0
  9
$DIMDLE
 40
0.0
  9
$DIMEXE
 40
1.0
  9
$DIMTP
 40
0.0
  9
$DIMTM
 40
0.0
  9
$DIMTXT
 40
2.0
  9
$DIMCEN
 40
0.0
  9
$DIMTSZ
 40
0.0
  9
$DIMTOL
 70
     0
  9
$DIMLIM
 70
     0
  9
$DIMTIH
 70
     0
  9
$DIMTOH
 70
     0
  9
$DIMSE1
 70
     0
  9
$DIMSE2
 70
     0
  9
$DIMTAD
 70
     1
  9
$DIMZIN
 70
     8
  9
$DIMBLK
  1

  9
$DIMASO
 70
     1
  9
$DIMSHO
 70
     1
  9
$DIMPOST
  1

  9
$DIMAPOST
  1

  9
$DIMALT
 70
     0
  9
$DIMALTD
 70
     3
  9
$DIMALTF
 40
0.03937007874016
  9
$DIMLFAC
 40
1.0
  9
$DIMTOFL
 70
     1
  9
$DIMTVP
 40
0.0
  9
$DIMTIX
 70
     0
  9
$DIMSOXD
 70
     0
  9
$DIMSAH
 70
     0
  9
$DIMBLK1
  1

  9
$DIMBLK2
  1

  9
$DIMSTYLE
  2
SANINDUSA
  9
$DIMCLRD
 70
   256
  9
$DIMCLRE
 70
   256
  9
$DIMCLRT
 70
   256
  9
$DIMTFAC
 40
1.0
  9
$DIMGAP
 40
1.0
  9
$DIMJUST
 70
     0
  9
$DIMSD1
 70
     0
  9
$DIMSD2
 70
     0
  9
$DIMTOLJ
 70
     0
  9
$DIMTZIN
 70
     8
  9
$DIMALTZ
 70
     0
  9
$DIMALTTZ
 70
     0
  9
$DIMUPT
 70
     0
  9
$DIMDEC
 70
     1
  9
$DIMTDEC
 70
     1
  9
$DIMALTU
 70
     2
  9
$DIMALTTD
 70
     3
  9
$DIMTXSTY
  7
SANINDUSA
  9
$DIMAUNIT
 70
     0
  9
$DIMADEC
 70
     1
  9
$DIMALTRND
 40
0.0
  9
$DIMAZIN
 70
     0
  9
$DIMDSEP
 70
    44
  9
$DIMATFIT
 70
     3
  9
$DIMFRAC
 70
     0
  9
$DIMLDRBLK
  1

  9
$DIMLUNIT
 70
     2
  9
$DIMLWD
 70
    -1
  9
$DIMLWE
 70
    -1
  9
$DIMTMOVE
 70
     0
  9
$LUNITS
 70
     2
  9
$LUPREC
 70
     4
  9
$SKETCHINC
 40
1.0
  9
$FILLETRAD
 40
3.0
  9
$AUNITS
 70
     0
  9
$AUPREC
 70
     0
  9
$MENU
  1
.
  9
$ELEVATION
 40
0.0
  9
$PELEVATION
 40
0.0
  9
$THICKNESS
 40
0.0
  9
$LIMCHECK
 70
     0
  9
$CHAMFERA
 40
10.0
  9
$CHAMFERB
 40
10.0
  9
$CHAMFERC
 40
20.0
  9
$CHAMFERD
 40
0.0
  9
$SKPOLY
 70
     0
  9
$TDCREATE
 40
2454305.518004190
  9
$TDUCREATE
 40
2454305.518004190
  9
$TDUPDATE
 40
2454478.642482998
  9
$TDUUPDATE
 40
2454478.642482998
  9
$TDINDWG
 40
0.0061773032
  9
$TDUSRTIMER
 40
0.0061773032
  9
$USRTIMER
 70
     1
  9
$ANGBASE
 50
0.0
  9
$ANGDIR
 70
     0
  9
$PDMODE
 70
     0
  9
$PDSIZE
 40
0.0
  9
$PLINEWID
 40
0.0
  9
$SPLFRAME
 70
     0
  9
$SPLINETYPE
 70
     6
  9
$SPLINESEGS
 70
     8
  9
$HANDSEED
  5
294B
  9
$SURFTAB1
 70
     6
  9
$SURFTAB2
 70
     6
  9
$SURFTYPE
 70
     6
  9
$SURFU
 70
     6
  9
$SURFV
 70
     6
  9
$UCSBASE
  2

  9
$UCSNAME
  2

  9
$UCSORG
 10
0.0
 20
0.0
 30
0.0
  9
$UCSXDIR
 10
1.0
 20
0.0
 30
0.0
  9
$UCSYDIR
 10
0.0
 20
1.0
 30
0.0
  9
$UCSORTHOREF
  2

  9
$UCSORTHOVIEW
 70
     0
  9
$UCSORGTOP
 10
0.0
 20
0.0
 30
0.0
  9
$UCSORGBOTTOM
 10
0.0
 20
0.0
 30
0.0
  9
$UCSORGLEFT
 10
0.0
 20
0.0
 30
0.0
  9
$UCSORGRIGHT
 10
0.0
 20
0.0
 30
0.0
  9
$UCSORGFRONT
 10
0.0
 20
0.0
 30
0.0
  9
$UCSORGBACK
 10
0.0
 20
0.0
 30
0.0
  9
$PUCSBASE
  2

  9
$PUCSNAME
  2

  9
$PUCSORG
 10
0.0
 20
0.0
 30
0.0
  9
$PUCSXDIR
 10
1.0
 20
0.0
 30
0.0
  9
$PUCSYDIR
 10
0.0
 20
1.0
 30
0.0
  9
$PUCSORTHOREF
  2

  9
$PUCSORTHOVIEW
 70
     0
  9
$PUCSORGTOP
 10
0.0
 20
0.0
 30
0.0
  9
$PUCSORGBOTTOM
 10
0.0
 20
0.0
 30
0.0
  9
$PUCSORGLEFT
 10
0.0
 20
0.0
 30
0.0
  9
$PUCSORGRIGHT
 10
0.0
 20
0.0
 30
0.0
  9
$PUCSORGFRONT
 10
0.0
 20
0.0
 30
0.0
  9
$PUCSORGBACK
 10
0.0
 20
0.0
 30
0.0
  9
$USERI1
 70
     0
  9
$USERI2
 70
     0
  9
$USERI3
 70
     0
  9
$USERI4
 70
     0
  9
$USERI5
 70
     0
  9
$USERR1
 40
0.0
  9
$USERR2
 40
0.0
  9
$USERR3
 40
0.0
  9
$USERR4
 40
0.0
  9
$USERR5
 40
0.0
  9
$WORLDVIEW
 70
     1
  9
$SHADEDGE
 70
     3
  9
$SHADEDIF
 70
    70
  9
$TILEMODE
 70
     1
  9
$MAXACTVP
 70
    64
  9
$PINSBASE
 10
0.0
 20
0.0
 30
0.0
  9
$PLIMCHECK
 70
     0
  9
$PEXTMIN
 10
1.000000000000000E+20
 20
1.000000000000000E+20
 30
1.000000000000000E+20
  9
$PEXTMAX
 10
-1.000000000000000E+20
 20
-1.000000000000000E+20
 30
-1.000000000000000E+20
  9
$PLIMMIN
 10
0.0
 20
0.0
  9
$PLIMMAX
 10
420.0
 20
297.0
  9
$UNITMODE
 70
     0
  9
$VISRETAIN
 70
     1
  9
$PLINEGEN
 70
     0
  9
$PSLTSCALE
 70
     1
  9
$TREEDEPTH
 70
  3020
  9
$CMLSTYLE
  2
Standard
  9
$CMLJUST
 70
     0
  9
$CMLSCALE
 40
20.0
  9
$PROXYGRAPHICS
 70
     1
  9
$MEASUREMENT
 70
     1
  9
$CELWEIGHT
370
    -1
  9
$ENDCAPS
280
     0
  9
$JOINSTYLE
280
     0
  9
$LWDISPLAY
290
     0
  9
$INSUNITS
 70
     4
  9
$HYPERLINKBASE
  1

  9
$STYLESHEET
  1
sanindusa.ctb
  9
$XEDIT
290
     1
  9
$CEPSNTYPE
380
     0
  9
$PSTYLEMODE
290
     1
  9
$FINGERPRINTGUID
  2
{F5085737-2757-40EC-AB7A-F12B76F149A2}
  9
$VERSIONGUID
  2
{9852CBBE-BCFF-4870-A621-07DA6CAC3D9C}
  9
$EXTNAMES
290
     1
  9
$PSVPSCALE
 40
0.0
  9
$OLESTARTUP
290
     0
  0
ENDSEC
  0
SECTION
  2
CLASSES
  0
CLASS
  1
ACDBDICTIONARYWDFLT
  2
AcDbDictionaryWithDefault
  3
ObjectDBX Classes
 90
        0
280
     0
281
     0
  0
CLASS
  1
ACDBPLACEHOLDER
  2
AcDbPlaceHolder
  3
ObjectDBX Classes
 90
        0
280
     0
281
     0
  0
CLASS
  1
LAYOUT
  2
AcDbLayout
  3
ObjectDBX Classes
 90
        0
280
     0
281
     0
  0
CLASS
  1
DICTIONARYVAR
  2
AcDbDictionaryVar
  3
ObjectDBX Classes
 90
        0
280
     0
281
     0
  0
CLASS
  1
DIMASSOC
  2
AcDbDimAssoc
  3
"AcDbDimAssoc|Product Desc:     AcDim ARX App For Dimension|Company:          Autodesk, Inc.|WEB Address:      www.autodesk.com"
 90
    32768
280
     0
281
     0
  0
CLASS
  1
TABLESTYLE
  2
AcDbTableStyle
  3
ObjectDBX Classes
 90
     2047
280
     0
281
     0
  0
CLASS
  1
SORTENTSTABLE
  2
AcDbSortentsTable
  3
ObjectDBX Classes
 90
    32768
280
     0
281
     0
  0
ENDSEC
  0
SECTION
  2
TABLES
  0
TABLE
  2
VPORT
  5
8
330
0
100
AcDbSymbolTable
 70
     2
  0
VPORT
  5
2943
330
8
100
AcDbSymbolTableRecord
100
AcDbViewportTableRecord
  2
*Active
 70
     0
 10
0.0
 20
0.0
 11
1.0
 21
1.0
 12
5005.361939189509
 22
3071.308606858111
 13
0.0
 23
0.0
 14
10.0
 24
10.0
 15
10.0
 25
10.0
 16
0.0
 26
0.0
 36
1.0
 17
0.0
 27
0.0
 37
0.0
 40
2.477434997455065
 41
1.579579579579579
 42
50.0
 43
0.0
 44
0.0
 50
0.0
 51
0.0
 71
     0
 72
   100
 73
     1
 74
     2
 75
     0
 76
     0
 77
     0
 78
     0
281
     0
 65
     1
110
0.0
120
0.0
130
0.0
111
1.0
121
0.0
131
0.0
112
0.0
122
1.0
132
0.0
 79
     0
146
0.0
  0
ENDTAB
  0
TABLE
  2
LTYPE
  5
5
330
0
100
AcDbSymbolTable
 70
     5
  0
LTYPE
  5
14
330
5
100
AcDbSymbolTableRecord
100
AcDbLinetypeTableRecord
  2
ByBlock
 70
     0
  3

 72
    65
 73
     0
 40
0.0
  0
LTYPE
  5
15
330
5
100
AcDbSymbolTableRecord
100
AcDbLinetypeTableRecord
  2
ByLayer
 70
     0
  3

 72
    65
 73
     0
 40
0.0
  0
LTYPE
  5
16
330
5
100
AcDbSymbolTableRecord
100
AcDbLinetypeTableRecord
  2
Continuous
 70
     0
  3
Solid line
 72
    65
 73
     0
 40
0.0
  0
LTYPE
  5
2D
330
5
100
AcDbSymbolTableRecord
100
AcDbLinetypeTableRecord
  2
DASHDOT
 70
     0
  3
Dash dot __ . __ . __ . __ . __ . __ . __ . __
 72
    65
 73
     4
 40
25.4
 49
12.7
 74
     0
 49
-6.349999999999999
 74
     0
 49
0.0
 74
     0
 49
-6.349999999999999
 74
     0
  0
LTYPE
  5
2E
330
5
100
AcDbSymbolTableRecord
100
AcDbLinetypeTableRecord
  2
HIDDEN
 70
     0
  3
Hidden __ __ __ __ __ __ __ __ __ __ __ __ __ _
 72
    65
 73
     2
 40
9.524999999999998
 49
6.349999999999999
 74
     0
 49
-3.174999999999999
 74
     0
  0
LTYPE
  5
C75
330
5
100
AcDbSymbolTableRecord
100
AcDbLinetypeTableRecord
  2
AM_ISO02W050
 70
     0
  3
__ __ __ __ __ __ __ __ __ __ __ __ __ __ __
 72
    65
 73
     2
 40
7.5
 49
6.0
 74
     0
 49
-1.5
 74
     0
  0
LTYPE
  5
C76
330
5
100
AcDbSymbolTableRecord
100
AcDbLinetypeTableRecord
  2
AM_ISO08W050
 70
     0
  3
____ . ____ . ____ . ____ . ____ . ____ . ____
 72
    65
 73
     4
 40
18.0
 49
12.0
 74
     0
 49
-1.5
 74
     0
 49
3.0
 74
     0
 49
-1.5
 74
     0
  0
ENDTAB
  0
TABLE
  2
LAYER
  5
2
102
{ACAD_XDICTIONARY
360
1051
102
}
330
0
100
AcDbSymbolTable
 70
    16
  0
LAYER
  5
10
330
2
100
AcDbSymbolTableRecord
100
AcDbLayerTableRecord
  2
0
 70
     0
 62
     7
  6
Continuous
370
    -3
390
F
  0
LAYER
  5
2F
330
2
100
AcDbSymbolTableRecord
100
AcDbLayerTableRecord
  2
1
 70
     0
 62
     1
  6
Continuous
370
    -3
390
F
  0
LAYER
  5
30
330
2
100
AcDbSymbolTableRecord
100
AcDbLayerTableRecord
  2
2
 70
     0
 62
     2
  6
Continuous
370
    -3
390
F
  0
LAYER
  5
31
330
2
100
AcDbSymbolTableRecord
100
AcDbLayerTableRecord
  2
3
 70
     0
 62
     3
  6
Continuous
370
    -3
390
F
  0
LAYER
  5
32
330
2
100
AcDbSymbolTableRecord
100
AcDbLayerTableRecord
  2
4
 70
     0
 62
     4
  6
Continuous
370
    -3
390
F
  0
LAYER
  5
33
330
2
100
AcDbSymbolTableRecord
100
AcDbLayerTableRecord
  2
5
 70
     0
 62
     5
  6
Continuous
370
    -3
390
F
  0
LAYER
  5
34
330
2
100
AcDbSymbolTableRecord
100
AcDbLayerTableRecord
  2
6
 70
     0
 62
     6
  6
Continuous
370
    -3
390
F
  0
LAYER
  5
35
330
2
100
AcDbSymbolTableRecord
100
AcDbLayerTableRecord
  2
7
 70
     0
 62
     7
  6
Continuous
370
    -3
390
F
  0
LAYER
  5
36
330
2
100
AcDbSymbolTableRecord
100
AcDbLayerTableRecord
  2
cen
 70
     0
 62
     7
  6
DASHDOT
370
    -3
390
F
  0
LAYER
  5
37
330
2
100
AcDbSymbolTableRecord
100
AcDbLayerTableRecord
  2
hid
 70
     0
 62
     7
  6
HIDDEN
370
    -3
390
F
  0
LAYER
  5
5D6
330
2
100
AcDbSymbolTableRecord
100
AcDbLayerTableRecord
  2
hatch
 70
     0
 62
     9
  6
Continuous
370
    -3
390
F
  0
LAYER
  5
8AF
330
2
100
AcDbSymbolTableRecord
100
AcDbLayerTableRecord
  2
9
 70
     0
 62
     9
  6
Continuous
370
    -3
390
F
  0
LAYER
  5
8F8
330
2
100
AcDbSymbolTableRecord
100
AcDbLayerTableRecord
  2
leg fin
 70
     0
 62
     9
  6
Continuous
370
    -3
390
F
  0
LAYER
  5
91D
330
2
100
AcDbSymbolTableRecord
100
AcDbLayerTableRecord
  2
cotas
 70
     0
 62
     1
  6
Continuous
370
    -3
390
F
  0
LAYER
  5
92F
330
2
100
AcDbSymbolTableRecord
100
AcDbLayerTableRecord
  2
Defpoints
 70
     0
 62
     7
  6
Continuous
290
     0
370
    -3
390
F
  0
LAYER
  5
C7B
330
2
100
AcDbSymbolTableRecord
100
AcDbLayerTableRecord
  2
SANINDUSA
 70
     0
 62
     3
  6
Continuous
370
    -3
390
F
  0
ENDTAB
  0
TABLE
  2
STYLE
  5
3
330
0
100
AcDbSymbolTable
 70
     4
  0
STYLE
  5
11
330
3
100
AcDbSymbolTableRecord
100
AcDbTextStyleTableRecord
  2
Standard
 70
     0
 40
0.0
 41
1.0
 50
0.0
 71
     0
 42
2.5
  3
Avgardn.ttf
  4

1001
ACAD
1000
AvantGarde Bk BT
1071
       34
  0
STYLE
  5
2C
330
3
100
AcDbSymbolTableRecord
100
AcDbTextStyleTableRecord
  2

 70
     1
 40
0.0
 41
1.0
 50
0.0
 71
     0
 42
2.5
  3
ltypeshp.shx
  4

  0
STYLE
  5
91F
330
3
100
AcDbSymbolTableRecord
100
AcDbTextStyleTableRecord
  2
SANINDUSA
 70
     0
 40
0.0
 41
1.0
 50
0.0
 71
     0
 42
2.5
  3
verdana.TTF
  4

1001
ACAD
1000
Verdana
1071
       34
  0
STYLE
  5
C7C
330
3
100
AcDbSymbolTableRecord
100
AcDbTextStyleTableRecord
  2
futura
 70
     0
 40
0.0
 41
1.0
 50
0.0
 71
     0
 42
2.5
  3
ZURCHN.TTF
  4

1001
ACAD
1000
Zurich BT
1071
       34
  0
ENDTAB
  0
TABLE
  2
VIEW
  5
6
330
0
100
AcDbSymbolTable
 70
     0
  0
ENDTAB
  0
TABLE
  2
UCS
  5
7
330
0
100
AcDbSymbolTable
 70
     0
  0
ENDTAB
  0
TABLE
  2
APPID
  5
9
330
0
100
AcDbSymbolTable
 70
    11
  0
APPID
  5
12
330
9
100
AcDbSymbolTableRecord
100
AcDbRegAppTableRecord
  2
ACAD
 70
     0
  0
APPID
  5
3A
330
9
100
AcDbSymbolTableRecord
100
AcDbRegAppTableRecord
  2
DCO15
 70
     0
  0
APPID
  5
EEE
330
9
100
AcDbSymbolTableRecord
100
AcDbRegAppTableRecord
  2
ACAD_DSTYLE_DIMTEXT_FILL
 70
     0
  0
APPID
  5
EEF
330
9
100
AcDbSymbolTableRecord
100
AcDbRegAppTableRecord
  2
ACAD_DSTYLE_DIMEXT_LENGTH
 70
     0
  0
APPID
  5
EF0
330
9
100
AcDbSymbolTableRecord
100
AcDbRegAppTableRecord
  2
ACAD_DSTYLE_DIMEXT_ENABLED
 70
     0
  0
APPID
  5
EF1
330
9
100
AcDbSymbolTableRecord
100
AcDbRegAppTableRecord
  2
ACAD_DSTYLE_DIM_LINETYPE
 70
     0
  0
APPID
  5
EF2
330
9
100
AcDbSymbolTableRecord
100
AcDbRegAppTableRecord
  2
ACAD_DSTYLE_DIM_EXT1_LINETYPE
 70
     0
  0
APPID
  5
EF3
330
9
100
AcDbSymbolTableRecord
100
AcDbRegAppTableRecord
  2
ACAD_DSTYLE_DIM_EXT2_LINETYPE
 70
     0
  0
APPID
  5
FAF
330
9
100
AcDbSymbolTableRecord
100
AcDbRegAppTableRecord
  2
ACAD_DSTYLE_DIMJOGGED_JOGANGLE_SYMBOL
 70
     0
  0
APPID
  5
1013
330
9
100
AcDbSymbolTableRecord
100
AcDbRegAppTableRecord
  2
ACAD_DSTYLE_DIMARC_LENGTH_SYMBOL
 70
     0
  0
APPID
  5
1321
330
9
100
AcDbSymbolTableRecord
100
AcDbRegAppTableRecord
  2
ACAD_PSEXT
 70
     0
  0
ENDTAB
  0
TABLE
  2
DIMSTYLE
  5
A
330
0
100
AcDbSymbolTable
 70
     3
100
AcDbDimStyleTable
 71
     1
340
921
  0
DIMSTYLE
105
45
330
A
100
AcDbSymbolTableRecord
100
AcDbDimStyleTableRecord
  2
STANDARD
 70
     0
289
     0
340
11
  0
DIMSTYLE
105
921
330
A
100
AcDbSymbolTableRecord
100
AcDbDimStyleTableRecord
  2
SANINDUSA
 70
     0
 41
2.0
 42
1.0
 43
1.0
 44
1.0
 73
     0
 74
     0
 77
     1
 78
     8
140
2.0
141
0.0
143
0.03937007874016
147
1.0
171
     3
172
     1
176
   256
177
   256
178
   256
179
     1
271
     1
272
     1
274
     3
278
    44
283
     0
284
     8
340
91F
371
    -1
372
    -1
1001
ACAD_DSTYLE_DIMEXT_LENGTH
1070
   378
1040
1.0
1001
ACAD_DSTYLE_DIMEXT_ENABLED
1070
   383
1070
     0
1001
ACAD_DSTYLE_DIMARC_LENGTH_SYMBOL
1070
   379
1070
     0
1001
ACAD_DSTYLE_DIMJOGGED_JOGANGLE_SYMBOL
1070
   384
1040
1.570796326794896
  0
DIMSTYLE
105
C7D
330
A
100
AcDbSymbolTableRecord
100
AcDbDimStyleTableRecord
  2
AM_ISO
 70
     0
  4
"
 41
2.5
 42
1.0
 43
10.0
 44
1.0
 47
0.1
 48
0.1
 73
     0
 74
     0
 77
     1
 78
     8
 79
     2
140
3.5
141
0.0
143
0.0393701
146
0.71
147
1.5
172
     1
176
   256
177
   256
178
     2
271
     2
272
     3
274
     4
283
     0
284
     8
340
11
371
    -1
372
    -1
  0
ENDTAB
  0
TABLE
  2
BLOCK_RECORD
  5
1
330
0
100
AcDbSymbolTable
 70
   133
  0
BLOCK_RECORD
  5
1F
330
1
100
AcDbSymbolTableRecord
100
AcDbBlockTableRecord
  2
*Model_Space
340
22
  0
BLOCK_RECORD
  5
1B
330
1
100
AcDbSymbolTableRecord
100
AcDbBlockTableRecord
  2
*Paper_Space
340
1E
  0
BLOCK_RECORD
  5
23
330
1
100
AcDbSymbolTableRecord
100
AcDbBlockTableRecord
  2
*Paper_Space0
340
26
  0
BLOCK_RECORD
  5
919
330
1
100
AcDbSymbolTableRecord
100
AcDbBlockTableRecord
  2
_DotSmall
340
0
  0
BLOCK_RECORD
  5
922
330
1
100
AcDbSymbolTableRecord
100
AcDbBlockTableRecord
  2
base para cotas
340
0
310
2800000020000000200000000100080000000000000400000000000000000000000000000000000000000000000080000080000000808000800000008000800080800000C0C0C000C0DCC000F0CAA6000020400000206000002080000020A0000020C0000020E00000400000004020000040400000406000004080000040A0
310
000040C0000040E00000600000006020000060400000606000006080000060A0000060C0000060E00000800000008020000080400000806000008080000080A0000080C0000080E00000A0000000A0200000A0400000A0600000A0800000A0A00000A0C00000A0E00000C0000000C0200000C0400000C0600000C0800000C0
310
A00000C0C00000C0E00000E0000000E0200000E0400000E0600000E0800000E0A00000E0C00000E0E00040000000400020004000400040006000400080004000A0004000C0004000E00040200000402020004020400040206000402080004020A0004020C0004020E000404000004040200040404000404060004040800040
310
40A0004040C0004040E00040600000406020004060400040606000406080004060A0004060C0004060E00040800000408020004080400040806000408080004080A0004080C0004080E00040A0000040A0200040A0400040A0600040A0800040A0A00040A0C00040A0E00040C0000040C0200040C0400040C0600040C08000
310
40C0A00040C0C00040C0E00040E0000040E0200040E0400040E0600040E0800040E0A00040E0C00040E0E00080000000800020008000400080006000800080008000A0008000C0008000E00080200000802020008020400080206000802080008020A0008020C0008020E00080400000804020008040400080406000804080
310
008040A0008040C0008040E00080600000806020008060400080606000806080008060A0008060C0008060E00080800000808020008080400080806000808080008080A0008080C0008080E00080A0000080A0200080A0400080A0600080A0800080A0A00080A0C00080A0E00080C0000080C0200080C0400080C0600080C0
310
800080C0A00080C0C00080C0E00080E0000080E0200080E0400080E0600080E0800080E0A00080E0C00080E0E000C0000000C0002000C0004000C0006000C0008000C000A000C000C000C000E000C0200000C0202000C0204000C0206000C0208000C020A000C020C000C020E000C0400000C0402000C0404000C0406000C0
310
408000C040A000C040C000C040E000C0600000C0602000C0604000C0606000C0608000C060A000C060C000C060E000C0800000C0802000C0804000C0806000C0808000C080A000C080C000C080E000C0A00000C0A02000C0A04000C0A06000C0A08000C0A0A000C0A0C000C0A0E000C0C00000C0C02000C0C04000C0C06000
310
C0C08000C0C0A000F0FBFF00A4A0A000808080000000FF0000FF000000FFFF00FF000000FF00FF00FFFF0000FFFFFF00A4A4A4A4A4A4A4A4A4A4A4A4A4A4A4A4A4A4A4A4A4A4A4A4A4A4A4A4A4A4A4A4A4A4A4A4A4A4A4A4A4A4A4A4A4A4A4A4A4A4A4A4A4A4A4A4A4A4A4A4A4A4A4A4A4A4A4A4A4A4A4A4A4A4A4A4A4A4A4
310
A4A4A4A4A4A4A4A4A4A4A4A4A4A4A4A4A4A4A4A4A4A4A4A4A4A4A4A4A4A4A4A4A4A4A4A4A4A4A4A4A4A4A4A4A4A4A4A4A4A4A4A4A4A4A4A4A4A4A4A4A4A4A4A4A4A4A4A4A4A4A4A4A4A4A4A4A4A4A4A4A4A4A4A4A4A4A4A4A4A4A4A4A4A4A4A4A4A4A4A4A4A4A4A4A4A4A4A4A4A4A4A4A4A4A4A4A4A4A4A4A4A4A4A4A4A4A4
310
A4A4A4A4A4A4A4A4A4A4A4A4A4A4A4A4A4A4A4A4A4A4A4A4A4A4A4A4A4A4A4A4A4A4A4A4A4A4A4A4A4A4A4A4A4A4A4A4A4A4A4A4A4A4A4A4A4A4A4A4A4A4A4A4A4A4A4A4A4A4A4A4A4A4A4A4A4A4A4A4A4A4A4A4A4A4A4A4A4A4A4A4A4A4A4A4A4A4A4A4A4A4A4A4A4A4A4A4A4A4A4A4A4A4A4A4A4A4A4A4A4A4A4A4A4A4A4
310
A4A4A4A4A4A4A4A4A4A4A4A4A4A4A4A4A4A4A4A4A4A4A4A4A4A4A4A4A4A4A4A4A4A4A4A4A4A4A4A4A4A4A4A4A4A4A4A4A4A4A4A4A4A4A4A4A4A4A4A4A4A4A4A4A4A4A4A4A4A4A4A4A4A4A4A4A4A4A4A4A4A4A4A4A4A4A4A4A4A4A4A4A4A4A4A4A4A4A4A4A4A4A4A4A4A4A4A4A4A4A4A4A4A4A4A4F9F9F9F9F9F9F9F9F9F9F9
310
F9F9F9F9F9F9F9F9F9F9F9F9F9F9F9F9F9F9F9A4A4F9F9F9F9F9F9F9F9F9F9F9F9F9F9F9F9F9F9F9F9F9F9F9F9F9F9F9F9F9F9A4A4F9F9F9F9F9F9F9F9F9F9F9F9F9F9F9F9F9F9F9F9F9F9F9F9F9F9F9F9F9F9A4A4F9A4A4A4A4A4A4A4A4A4A4A4A4A4A4A4A4A4A4A4A4A4A4A4A4A4A4A4A4F9A4A4A4A4A4A4A4A4A4A4A4A4
310
A4A4A4A4A4A4A4A4A4A4A4A4A4A4A4A4A4A4A4A4A4A4A4A4A4A4A4A4A4A4A4A4A4A4A4A4A4A4A4A4A4A4A4A4A4A4A4A4A4A4A4A4A4A4A4A4A4A4A4A4A4A4A4A4A4A4A4A4A4A4A4A4A4A4A4A4A4A4A4A4A4A4A4A4A4A4A4A4A4A4A4A4A4A4A4A4A4A4A4A4A4A4A4A4A4A4A4A4A4A4A4A4A4A4A4A4A4A4A4A4A4A4A4A4A4A4A4
310
A4A4A4A4A4A4A4A4A4A4A4A4A4A4A4A4A4A4A4A4A4A4A4A4A4A4A4A4A4A4A4A4A4A4A4A4A4A4A4A4A4A4A4A4A4A4A4A4A4A4A4A4A4A4A4A4A4A4A4A4A4A4A4A4A4A4A4A4A4A4A4A4A4A4A4A4A4A4A4A4A4A4A4A4A4A4A4A4A4A4A4A4A4A4A4A4A4A4A4A4A4A4A4A4A4A4A4A4A4A4A4A4A4A4A4A4A4A4A4A4A4A4A4A4A4A4A4
310
A4A4A4A4A4A4A4A4A4A4A4A4A4A4A4A4A4A4A4A4A4A4A4A4A4A4A4A4A4A4A4A4A4A4A4A4A4A4A4A4A4A4A4A4A4A4A4A4A4A4A4A4A4A4A4A4A4A4A4A4A4A4A4A4A4A4A4A4A4A4A4A4A4A4A4A4A4A4A4A4A4A4A4A4A4A4A4A4A4A4A4A4A4A4A4A4A4A4A4A4A4A4A4A4A4A4A4A4A4A4A4A4A4A4A4A4A4A4A4A4A4A4A4A4A4A4A4
310
A4A4A4A4A4A4A4A4A4A4A4A4A4A4A4A4A4A4A4A4A4A4A4A4A4A4A4A4A4A4A4A4A4A4A4A4A4A4A4A4A4A4A4A4A4A4A4A4A4A4A4A4A4A4A4A4
1001
ACAD
1000
DesignCenter Data
1002
{
1070
     1
1070
     4
1002
}
  0
BLOCK_RECORD
  5
AA8
330
1
100
AcDbSymbolTableRecord
100
AcDbBlockTableRecord
  2
_CLOSED
340
0
  0
BLOCK_RECORD
  5
B79
330
1
100
AcDbSymbolTableRecord
100
AcDbBlockTableRecord
  2
nota revisoes
340
0
1001
ACAD
1000
DesignCenter Data
1002
{
1070
     1
1070
     4
1002
}
  0
BLOCK_RECORD
  5
B8E
330
1
100
AcDbSymbolTableRecord
100
AcDbBlockTableRecord
  2
a3l
340
0
1001
ACAD
1000
DesignCenter Data
1002
{
1070
     1
1070
     4
1002
}
  0
BLOCK_RECORD
  5
B9E
330
1
100
AcDbSymbolTableRecord
100
AcDbBlockTableRecord
  2
legenda desenvolvimento
340
0
1001
ACAD
1000
DesignCenter Data
1002
{
1070
     1
1070
     4
1002
}
  0
ENDTAB
  0
ENDSEC
  0
SECTION
  2
BLOCKS
  0
BLOCK
  5
20
330
1F
100
AcDbEntity
  8
0
100
AcDbBlockBegin
  2
*Model_Space
 70
     0
 10
0.0
 20
0.0
 30
0.0
  3
*Model_Space
  1

  0
ENDBLK
  5
21
330
1F
100
AcDbEntity
  8
0
100
AcDbBlockEnd
  0
BLOCK
  5
1C
330
1B
100
AcDbEntity
 67
     1
  8
0
100
AcDbBlockBegin
  2
*Paper_Space
 70
     0
 10
0.0
 20
0.0
 30
0.0
  3
*Paper_Space
  1

  0
ENDBLK
  5
1D
330
1B
100
AcDbEntity
 67
     1
  8
0
100
AcDbBlockEnd
  0
BLOCK
  5
24
330
23
100
AcDbEntity
 67
     1
  8
0
100
AcDbBlockBegin
  2
*Paper_Space0
 70
     0
 10
0.0
 20
0.0
 30
0.0
  3
*Paper_Space0
  1

  0
ENDBLK
  5
25
330
23
100
AcDbEntity
 67
     1
  8
0
100
AcDbBlockEnd
  0
BLOCK
  5
91B
330
919
100
AcDbEntity
  8
0
100
AcDbBlockBegin
  2
_DotSmall
 70
     0
 10
0.0
 20
0.0
 30
0.0
  3
_DotSmall
  1

  0
LWPOLYLINE
  5
91A
330
919
100
AcDbEntity
  8
0
  6
ByBlock
 62
     0
100
AcDbPolyline
 90
        2
 70
     1
 43
0.5
 10
-0.0625
 20
0.0
 42
1.0
 10
0.0625
 20
0.0
 42
1.0
  0
ENDBLK
  5
91C
330
919
100
AcDbEntity
  8
0
100
AcDbBlockEnd
  0
BLOCK
  5
92A
330
922
100
AcDbEntity
  8
0
100
AcDbBlockBegin
  2
base para cotas
 70
     0
 10
0.0
 20
0.0
 30
0.0
  3
base para cotas
  1

  0
LINE
  5
B36
330
922
100
AcDbEntity
  8
cotas
100
AcDbLine
 10
0.0
 20
-30.0
 30
0.0
 11
327.1260136525398
 21
-30.0
 31
0.0
  0
LINE
  5
B37
330
922
100
AcDbEntity
  8
cotas
100
AcDbLine
 10
0.0
 20
-25.0
 30
0.0
 11
327.1260136525398
 21
-25.0
 31
0.0
  0
LINE
  5
B38
330
922
100
AcDbEntity
  8
cotas
100
AcDbLine
 10
0.0
 20
-20.0
 30
0.0
 11
327.1260136525398
 21
-20.0
 31
0.0
  0
LINE
  5
B39
330
922
100
AcDbEntity
  8
cotas
100
AcDbLine
 10
0.0
 20
-15.0
 30
0.0
 11
327.1260136525398
 21
-15.0
 31
0.0
  0
LINE
  5
B3A
330
922
100
AcDbEntity
  8
cotas
100
AcDbLine
 10
0.0
 20
-10.0
 30
0.0
 11
327.1260136525398
 21
-10.0
 31
0.0
  0
LINE
  5
B3B
330
922
100
AcDbEntity
  8
cotas
100
AcDbLine
 10
0.0
 20
0.0
 30
0.0
 11
0.0
 21
-30.0
 31
0.0
  0
LINE
  5
B3C
330
922
100
AcDbEntity
  8
cotas
100
AcDbLine
 10
327.1260136525398
 20
-30.0
 30
0.0
 11
327.1260136525398
 21
0.0
 31
0.0
  0
ENDBLK
  5
92B
330
922
100
AcDbEntity
  8
0
100
AcDbBlockEnd
  0
BLOCK
  5
AAD
330
AA8
100
AcDbEntity
  8
0
100
AcDbBlockBegin
  2
_CLOSED
 70
     0
 10
0.0
 20
0.0
 30
0.0
  3
_CLOSED
  1

  0
LINE
  5
AA9
330
AA8
100
AcDbEntity
  8
0
100
AcDbLine
 10
-1.0
 20
0.166667
 30
0.0
 11
0.0
 21
0.0
 31
0.0
  0
LINE
  5
AAA
330
AA8
100
AcDbEntity
  8
0
100
AcDbLine
 10
0.0
 20
0.0
 30
0.0
 11
-1.0
 21
-0.166667
 31
0.0
  0
LINE
  5
AAB
330
AA8
100
AcDbEntity
  8
0
100
AcDbLine
 10
-1.0
 20
0.166667
 30
0.0
 11
-1.0
 21
-0.166667
 31
0.0
  0
LINE
  5
AAC
330
AA8
100
AcDbEntity
  8
0
100
AcDbLine
 10
0.0
 20
0.0
 30
0.0
 11
-1.0
 21
0.0
 31
0.0
  0
ENDBLK
  5
AAE
330
AA8
100
AcDbEntity
  8
0
100
AcDbBlockEnd
  0
BLOCK
  5
B7C
330
B79
100
AcDbEntity
  8
0
100
AcDbBlockBegin
  2
nota revisoes
 70
     0
 10
0.0
 20
0.0
 30
0.0
  3
nota revisoes
  1

  0
CIRCLE
  5
B7A
330
B79
100
AcDbEntity
  8
4
100
AcDbCircle
 10
0.0
 20
0.0
 30
0.0
 40
13.69426055101189
  0
TEXT
  5
B7B
330
B79
100
AcDbEntity
  8
4
100
AcDbText
 10
-5.496248358154345
 20
-5.354545554066362
 30
0.0
 40
12.0
  1
1
  7
SANINDUSA
 72
     1
 11
-0.249774214433728
 21
-5.354545554066362
 31
0.0
100
AcDbText
  0
ENDBLK
  5
B7D
330
B79
100
AcDbEntity
  8
0
100
AcDbBlockEnd
  0
BLOCK
  5
B9C
330
B8E
100
AcDbEntity
  8
0
100
AcDbBlockBegin
  2
a3l
 70
     0
 10
0.0
 20
0.0
 30
0.0
  3
a3l
  1

  0
LINE
  5
B8F
330
B8E
100
AcDbEntity
  8
1
100
AcDbLine
 10
-364.2925296599447
 20
-362.1188951399395
 30
0.0
 11
-364.2925296599447
 21
-65.11889513993946
 31
0.0
  0
LINE
  5
B90
330
B8E
100
AcDbEntity
  8
4
100
AcDbLine
 10
-369.2925296599447
 20
-357.1188951399395
 30
0.0
 11
-369.2925296599447
 21
-70.11889513993946
 31
0.0
  0
LINE
  5
B91
330
B8E
100
AcDbEntity
  8
1
100
AcDbLine
 10
-784.2925296599446
 20
-65.11889513993946
 30
0.0
 11
-784.2925296599446
 21
-362.1188951399395
 31
0.0
  0
LINE
  5
B92
330
B8E
100
AcDbEntity
  8
4
100
AcDbLine
 10
-759.2925296599446
 20
-357.1188951399395
 30
0.0
 11
-759.2925296599446
 21
-70.11889513993946
 31
0.0
  0
LINE
  5
B93
330
B8E
100
AcDbEntity
  8
1
100
AcDbLine
 10
-784.2925296599446
 20
-362.1188951399395
 30
0.0
 11
-364.2925296599447
 21
-362.1188951399395
 31
0.0
  0
LINE
  5
B94
330
B8E
100
AcDbEntity
  8
4
100
AcDbLine
 10
-759.2925296599446
 20
-357.1188951399395
 30
0.0
 11
-369.2925296599447
 21
-357.1188951399395
 31
0.0
  0
LINE
  5
B95
330
B8E
100
AcDbEntity
  8
1
100
AcDbLine
 10
-654.2925296599446
 20
-357.1188951399395
 30
0.0
 11
-654.2925296599446
 21
-362.1188951399395
 31
0.0
  0
LINE
  5
B96
330
B8E
100
AcDbEntity
  8
1
100
AcDbLine
 10
-364.2925296599447
 20
-65.11889513993946
 30
0.0
 11
-784.2925296599446
 21
-65.11889513993946
 31
0.0
  0
LINE
  5
B97
330
B8E
100
AcDbEntity
  8
4
100
AcDbLine
 10
-369.2925296599447
 20
-70.11889513993946
 30
0.0
 11
-759.2925296599446
 21
-70.11889513993946
 31
0.0
  0
LINE
  5
B98
330
B8E
100
AcDbEntity
  8
1
100
AcDbLine
 10
-654.2925296599446
 20
-65.11889513993946
 30
0.0
 11
-654.2925296599446
 21
-70.11889513993946
 31
0.0
  0
LINE
  5
B99
330
B8E
100
AcDbEntity
  8
1
100
AcDbLine
 10
-549.2925296599446
 20
-70.11889513993946
 30
0.0
 11
-549.2925296599446
 21
-65.11889513993946
 31
0.0
  0
LINE
  5
B9A
330
B8E
100
AcDbEntity
  8
1
100
AcDbLine
 10
-369.2925296599447
 20
-65.11889513993946
 30
0.0
 11
-364.2925296599447
 21
-65.11889513993946
 31
0.0
  0
LINE
  5
B9B
330
B8E
100
AcDbEntity
  8
1
100
AcDbLine
 10
-549.2925296599446
 20
-357.1188951399395
 30
0.0
 11
-549.2925296599446
 21
-362.1188951399395
 31
0.0
  0
ENDBLK
  5
B9D
330
B8E
100
AcDbEntity
  8
0
100
AcDbBlockEnd
  0
BLOCK
  5
C13
330
B9E
100
AcDbEntity
  8
0
100
AcDbBlockBegin
  2
legenda desenvolvimento
 70
     2
 10
0.0
 20
0.0
 30
0.0
  3
legenda desenvolvimento
  1

  0
ATTDEF
  5
B9F
330
B9E
100
AcDbEntity
  8
1
100
AcDbText
 10
-108.606245802552
 20
55.5
 30
0.0
 40
4.0
  1
XXXXXXXXXXXXXX
 41
0.8
  7
SANINDUSA
 72
     4
 11
-87.5
 21
57.5
 31
0.0
100
AcDbAttributeDefinition
  3
Nome do Produto:
  2
PRODUTO
 70
     0
  0
ATTDEF
  5
BA0
330
B9E
100
AcDbEntity
  8
1
100
AcDbText
 10
-97.9997966101695
 20
41.25
 30
0.0
 40
3.0
  1
XXXXXXXXX
 41
0.8
  7
futura
 72
     4
 11
-87.5
 21
42.75
 31
0.0
100
AcDbAttributeDefinition
  3
Nome da Peça:
  2
PECA
 70
     0
  0
ATTDEF
  5
BA1
330
B9E
100
AcDbEntity
  8
1
100
AcDbText
 10
-133.4422431161853
 20
21.11745296763252
 30
0.0
 40
2.5
  1
X
 41
0.8
  7
SANINDUSA
 72
     4
 11
-132.5
 21
22.36745296763252
 31
0.0
100
AcDbAttributeDefinition
  3
Cod. TESTE:
  2
TESTE
 70
     0
  0
ATTDEF
  5
BA2
330
B9E
100
AcDbEntity
  8
1
100
AcDbText
 10
-124.3844862323707
 20
21.11745296763252
 30
0.0
 40
2.5
  1
XX
 41
0.8
  7
SANINDUSA
 72
     4
 11
-122.5
 21
22.36745296763252
 31
0.0
100
AcDbAttributeDefinition
  3
Cod. Ano:
  2
ANO
 70
     0
  0
ATTDEF
  5
BA3
330
B9E
100
AcDbEntity
  8
1
100
AcDbText
 10
-112.526889953052
 20
21.11745296763252
 30
0.0
 40
2.5
  1
XXX
 41
0.8
  7
SANINDUSA
 72
     4
 11
-109.700160604496
 21
22.36745296763252
 31
0.0
100
AcDbAttributeDefinition
  3
Cod. Sequência:
  2
SEQUENCIA
 70
     0
  0
ATTDEF
  5
BA4
330
B9E
100
AcDbEntity
  8
1
100
AcDbText
 10
-99.35382430979316
 20
21.11745296763252
 30
0.0
 40
2.5
  1
XX
 41
0.8
  7
SANINDUSA
 72
     4
 11
-97.46933807742244
 21
22.36745296763252
 31
0.0
100
AcDbAttributeDefinition
  3
Cod. Tipo:
  2
TIPO
 70
     0
  0
ATTDEF
  5
BA5
330
B9E
100
AcDbEntity
  8
1
100
AcDbText
 10
-87.42035911468438
 20
21.11745296763252
 30
0.0
 40
2.5
  1
XXX
 41
0.8
  7
SANINDUSA
 72
     4
 11
-84.59362976612828
 21
22.36745296763252
 31
0.0
100
AcDbAttributeDefinition
  3
Cod. Produto:
  2
PRODUTO
 70
     0
  0
ATTDEF
  5
BA6
330
B9E
100
AcDbEntity
  8
1
100
AcDbText
 10
-74.62051971917853
 20
21.11745296763252
 30
0.0
 40
2.5
  1
XXX
 41
0.8
  7
SANINDUSA
 72
     4
 11
-71.79379037062244
 21
22.36745296763252
 31
0.0
100
AcDbAttributeDefinition
  3
Cod. Peça:
  2
PECA
 70
     0
  0
ATTDEF
  5
BA7
330
B9E
100
AcDbEntity
  8
1
100
AcDbText
 10
-61.10603446650329
 20
21.11745296763252
 30
0.0
 40
2.5
  1
XX
 41
0.8
  7
SANINDUSA
 72
     4
 11
-59.22154823413257
 21
22.36745296763252
 31
0.0
100
AcDbAttributeDefinition
  3
Cod. Revisão:
  2
REV
 70
     0
  0
ATTDEF
  5
BA8
330
B9E
100
AcDbEntity
  8
1
100
AcDbText
 10
-48.43615325006194
 20
21.11745296763252
 30
0.0
 40
2.5
  1
XX
 41
0.8
  7
SANINDUSA
 72
     4
 11
-46.55166701769121
 21
22.36745296763252
 31
0.0
100
AcDbAttributeDefinition
  3
Cod. Alteração:
  2
ALT
 70
     0
  0
ATTDEF
  5
BA9
330
B9E
100
AcDbEntity
  8
1
100
AcDbText
 10
-35.19086635325722
 20
23.98875083948959
 30
0.0
 40
3.0
  1
1/XXX
 41
0.8
  7
SANINDUSA
 72
     4
 11
-30.0
 21
25.25
 31
0.0
100
AcDbAttributeDefinition
  3
Escala geral:
  2
ESCALA
 70
     0
  0
ATTDEF
  5
BAA
330
B9E
100
AcDbEntity
  8
1
100
AcDbText
 10
-15.65345869711215
 20
23.75
 30
0.0
 40
3.0
  1
XXXXX
 41
0.8
  7
SANINDUSA
 72
     4
 11
-10.0
 21
25.25
 31
0.0
100
AcDbAttributeDefinition
  3
Folha:
  2
FOLHA
 70
     0
  0
ATTDEF
  5
BAB
330
B9E
100
AcDbEntity
  8
1
100
AcDbText
 10
-178.5146998822042
 20
56.9531347542807
 30
0.0
 40
2.0
  1
xx
 41
0.8
  7
SANINDUSA
 72
     4
 11
-177.2123493113513
 21
57.70330265219877
 31
0.0
100
AcDbAttributeDefinition
  3
revisão
  2
REV.
 70
     0
  0
ATTDEF
  5
BAC
330
B9E
100
AcDbEntity
  8
1
100
AcDbText
 10
-172.7849640077129
 20
56.9531347542807
 30
0.0
 40
2.0
  1
xx
 41
0.8
  7
SANINDUSA
 72
     4
 11
-171.48261343686
 21
57.70330265219877
 31
0.0
100
AcDbAttributeDefinition
  3
alteração
  2
ALT.
 70
     0
  0
ATTDEF
  5
BAD
330
B9E
100
AcDbEntity
  8
1
100
AcDbText
 10
-168.007199951307
 20
56.70330265219877
 30
0.0
 40
2.0
  1
xx/xx/xxxx
 41
0.8
  7
SANINDUSA
 11
-168.007199951307
 21
57.70330265219877
 31
0.0
100
AcDbAttributeDefinition
  3
data
  2
DATA
 70
     0
 74
     2
  0
ATTDEF
  5
BAE
330
B9E
100
AcDbEntity
  8
1
100
AcDbText
 10
-168.5396372253371
 20
13.15916722632639
 30
0.0
 40
2.0
  1
XX/XX/XXXX
 41
0.8
  7
SANINDUSA
 72
     4
 11
-161.5099528734231
 21
14.0
 31
0.0
100
AcDbAttributeDefinition
  3
Data projecto
  2
DATA_PROJ
 70
     0
  0
ATTDEF
  5
BAF
330
B9E
100
AcDbEntity
  8
1
100
AcDbText
 10
-150.8658110728766
 20
13.24983210208193
 30
0.0
 40
2.0
  1
xxxxxxxx
 41
0.8
  7
SANINDUSA
 72
     4
 11
-145.6564087894649
 21
14.0
 31
0.0
100
AcDbAttributeDefinition
  3
nome de quem projectou
  2
NOME
 70
     0
  0
ATTDEF
  5
BB0
330
B9E
100
AcDbEntity
  8
1
100
AcDbText
 10
-168.5396372253371
 20
9.159167226326394
 30
0.0
 40
2.0
  1
XX/XX/XXXX
 41
0.8
  7
SANINDUSA
 72
     4
 11
-161.5099528734231
 21
10.0
 31
0.0
100
AcDbAttributeDefinition
  3
Data desenhou
  2
DATA_DES
 70
     0
  0
ATTDEF
  5
BB1
330
B9E
100
AcDbEntity
  8
1
100
AcDbText
 10
-151.516986358303
 20
9.249832102081933
 30
0.0
 40
2.0
  1
xxxxxxxxx
 41
0.8
  7
SANINDUSA
 72
     4
 11
-145.6564087894649
 21
10.0
 31
0.0
100
AcDbAttributeDefinition
  3
nome
  2
NOME
 70
     0
  0
ATTDEF
  5
BB2
330
B9E
100
AcDbEntity
  8
1
100
AcDbText
 10
-127.2924214135946
 20
14.1979876583216
 30
0.0
 40
2.0
  1
Vitreous China
 41
0.8
  7
SANINDUSA
 72
     4
 11
-119.231709526422
 21
15.22216495852308
 31
0.0
100
AcDbAttributeDefinition
  3
Nome do Material:
  2
MATERIAL
 70
     0
  0
ATTDEF
  5
BB3
330
B9E
100
AcDbEntity
  8
1
100
AcDbText
 10
-103.1563452122093
 20
14.38019043949261
 30
0.0
 40
2.0
  1
Branco
 41
0.8
  7
SANINDUSA
 72
     4
 11
-99.33418268702462
 21
15.35937109765245
 31
0.0
100
AcDbAttributeDefinition
  3
cor da peça
  2
COR
 70
     0
  0
ATTDEF
  5
BB4
330
B9E
100
AcDbEntity
  8
1
100
AcDbText
 10
-116.7235057085292
 20
5.975822699798522
 30
0.0
 40
2.0
  1
Vidrado
 41
0.8
  7
SANINDUSA
 72
     4
 11
-112.5
 21
7.0
 31
0.0
100
AcDbAttributeDefinition
  3
Tipo de acabamento:
  2
ACABAMENTO
 70
     0
  0
ATTDEF
  5
BB5
330
B9E
100
AcDbEntity
  8
1
100
AcDbText
 10
-79.18527869967246
 20
16.65066409850533
 30
0.0
 40
2.0
  1
XXXXXXX
 41
0.8
  7
SANINDUSA
 72
     4
 11
-73.90871724903445
 21
17.65066409850533
 31
0.0
100
AcDbAttributeDefinition
  3
Normas
  2
NORMAS
 70
     0
  0
ATTDEF
  5
BB6
330
B9E
100
AcDbEntity
  8
1
100
AcDbText
 10
-30.55312290127603
 20
14.0
 30
0.0
 40
2.0
  1
XXXXXXXXXXXXXX
 41
0.8
  7
SANINDUSA
 72
     4
 11
-20.0
 21
15.0
 31
0.0
100
AcDbAttributeDefinition
  3
Substitui o desenho:
  2
SUBSTITUI
 70
     0
  0
ATTDEF
  5
BB7
330
B9E
100
AcDbEntity
  8
1
100
AcDbText
 10
-31.30691739422431
 20
6.0
 30
0.0
 40
2.0
  1
XXXXXXXXXXXXXXX
 41
0.8
  7
SANINDUSA
 72
     4
 11
-20.0
 21
7.0
 31
0.0
100
AcDbAttributeDefinition
  3
Substituido por:
  2
SUBSTITUIDO
 70
     0
  0
ATTDEF
  5
BB8
330
B9E
100
AcDbEntity
  8
1
100
AcDbText
 10
-110.0220608548302
 20
1.478208457928303
 30
0.0
 40
2.0
  1
XXXXXXXXXXXXXXXXXXXXXXXXXXXXXXXXXX
 41
0.8
  7
SANINDUSA
 11
-110.0220608548302
 21
2.478208457928303
 31
0.0
100
AcDbAttributeDefinition
  3
Localização do desenho:
  2
LOC-DWG
 70
     0
 74
     2
  0
LINE
  5
BB9
330
B9E
100
AcDbEntity
  8
3
100
AcDbLine
 10
-135.0
 20
4.0
 30
0.0
 11
0.0000000000004547
 21
4.0
 31
0.0
  0
LINE
  5
BBA
330
B9E
100
AcDbEntity
  8
3
100
AcDbLine
 10
-90.00000000000046
 20
12.0
 30
0.0
 11
-135.0
 21
12.0
 31
0.0
  0
LINE
  5
BBB
330
B9E
100
AcDbEntity
  8
3
100
AcDbLine
 10
-135.0
 20
32.5
 30
0.0
 11
-40.0
 21
32.5
 31
0.0
  0
TEXT
  5
BBC
330
B9E
100
AcDbEntity
  8
1
100
AcDbText
 10
-134.0
 20
1.25
 30
0.0
 40
2.0
  1
Localização do des.:
 41
0.8
  7
SANINDUSA
 11
-134.0
 21
2.25
 31
0.0
100
AcDbText
 73
     2
  0
LINE
  5
BBD
330
B9E
100
AcDbEntity
  8
3
100
AcDbLine
 10
-180.0
 20
65.0
 30
0.0
 11
0.0
 21
65.0
 31
0.0
  0
LINE
  5
BBE
330
B9E
100
AcDbEntity
  8
leg fin
100
AcDbLine
 10
-40.0
 20
25.05956924886846
 30
0.0
 11
-135.0
 21
25.05956924886846
 31
0.0
  0
LINE
  5
BBF
330
B9E
100
AcDbEntity
  8
leg fin
100
AcDbLine
 10
-40.0
 20
28.5
 30
0.0
 11
-135.0
 21
28.5
 31
0.0
  0
LINE
  5
BC0
330
B9E
100
AcDbEntity
  8
3
100
AcDbLine
 10
-135.0
 20
50.0
 30
0.0
 11
-40.0
 21
50.0
 31
0.0
  0
TEXT
  5
BC1
330
B9E
100
AcDbEntity
  8
1
100
AcDbText
 10
-134.0
 20
29.75
 30
0.0
 40
2.0
  1
Desenho nº:
 41
0.8
  7
SANINDUSA
 11
-134.0
 21
30.75
 31
0.0
100
AcDbText
 73
     2
  0
TEXT
  5
BC2
330
B9E
100
AcDbEntity
  8
1
100
AcDbText
 10
-134.0
 20
9.25
 30
0.0
 40
2.0
  1
Acabamento:
 41
0.8
  7
SANINDUSA
 11
-134.0
 21
10.25
 31
0.0
100
AcDbText
 73
     2
  0
LINE
  5
BC3
330
B9E
100
AcDbEntity
  8
3
100
AcDbLine
 10
-180.0
 20
20.0
 30
0.0
 11
0.0
 21
20.0
 31
0.0
  0
LINE
  5
BC4
330
B9E
100
AcDbEntity
  8
1
100
AcDbLine
 10
-174.5810776056337
 20
55.5
 30
0.0
 11
-174.5810776056337
 21
65.0
 31
0.0
  0
LINE
  5
BC5
330
B9E
100
AcDbEntity
  8
1
100
AcDbLine
 10
-168.9210461879161
 20
55.5
 30
0.0
 11
-168.9210461879161
 21
65.0
 31
0.0
  0
LINE
  5
BC6
330
B9E
100
AcDbEntity
  8
1
100
AcDbLine
 10
-154.0988595589306
 20
55.5
 30
0.0
 11
-154.0988595589306
 21
65.0
 31
0.0
  0
LINE
  5
BC7
330
B9E
100
AcDbEntity
  8
3
100
AcDbLine
 10
-180.0
 20
65.0
 30
0.0
 11
-180.0
 21
0.0
 31
0.0
  0
LINE
  5
BC8
330
B9E
100
AcDbEntity
  8
3
100
AcDbLine
 10
-135.0
 20
0.0
 30
0.0
 11
-135.0
 21
65.0
 31
0.0
  0
TEXT
  5
BC9
330
B9E
100
AcDbEntity
  8
1
100
AcDbText
 10
-179.0
 20
9.75
 30
0.0
 40
1.5
  1
Des.
 41
0.8
  7
SANINDUSA
 11
-179.0
 21
10.5
 31
0.0
100
AcDbText
 73
     2
  0
LINE
  5
BCA
330
B9E
100
AcDbEntity
  8
1
100
AcDbLine
 10
-168.9210461879161
 20
20.0
 30
0.0
 11
-168.9210461879161
 21
0.0
 31
0.0
  0
LINE
  5
BCB
330
B9E
100
AcDbEntity
  8
1
100
AcDbLine
 10
-154.0988595589306
 20
20.0
 30
0.0
 11
-154.0988595589306
 21
0.0
 31
0.0
  0
LINE
  5
BCC
330
B9E
100
AcDbEntity
  8
1
100
AcDbLine
 10
-180.0
 20
4.0
 30
0.0
 11
-135.0
 21
4.0
 31
0.0
  0
LINE
  5
BCD
330
B9E
100
AcDbEntity
  8
1
100
AcDbLine
 10
-180.0
 20
8.0
 30
0.0
 11
-135.0
 21
8.0
 31
0.0
  0
TEXT
  5
BCE
330
B9E
100
AcDbEntity
  8
1
100
AcDbText
 10
-179.0
 20
1.73257823687436
 30
0.0
 40
1.5
  1
Aprov.
 41
0.8
  7
SANINDUSA
 11
-179.0
 21
2.48257823687436
 31
0.0
100
AcDbText
 73
     2
  0
TEXT
  5
BCF
330
B9E
100
AcDbEntity
  8
1
100
AcDbText
 10
-179.0
 20
5.75
 30
0.0
 40
1.5
  1
Ver.
 41
0.8
  7
SANINDUSA
 11
-179.0
 21
6.5
 31
0.0
100
AcDbText
 73
     2
  0
LINE
  5
BD0
330
B9E
100
AcDbEntity
  8
1
100
AcDbLine
 10
-180.0
 20
16.0
 30
0.0
 11
-135.0
 21
16.0
 31
0.0
  0
LINE
  5
BD1
330
B9E
100
AcDbEntity
  8
1
100
AcDbLine
 10
-180.0
 20
12.0
 30
0.0
 11
-135.0
 21
12.0
 31
0.0
  0
TEXT
  5
BD2
330
B9E
100
AcDbEntity
  8
1
100
AcDbText
 10
-179.0
 20
13.75
 30
0.0
 40
1.5
  1
Proj.
 41
0.8
  7
SANINDUSA
 11
-179.0
 21
14.5
 31
0.0
100
AcDbText
 73
     2
  0
TEXT
  5
BD3
330
B9E
100
AcDbEntity
  8
1
100
AcDbText
 10
-167.9210461879161
 20
17.75
 30
0.0
 40
1.5
  1
Data
 41
0.8
  7
SANINDUSA
 11
-167.9210461879161
 21
18.5
 31
0.0
100
AcDbText
 73
     2
  0
TEXT
  5
BD4
330
B9E
100
AcDbEntity
  8
1
100
AcDbText
 10
-153.0988595589306
 20
17.75
 30
0.0
 40
1.5
  1
Nome
 41
0.8
  7
SANINDUSA
 11
-153.0988595589306
 21
18.5
 31
0.0
100
AcDbText
 73
     2
  0
LINE
  5
BD5
330
B9E
100
AcDbEntity
  8
leg fin
100
AcDbLine
 10
-130.0
 20
20.0
 30
0.0
 11
-130.0
 21
28.5
 31
0.0
  0
TEXT
  5
BD6
330
B9E
100
AcDbEntity
  8
1
100
AcDbText
 10
-134.0
 20
17.25
 30
0.0
 40
2.0
  1
Material:
 41
0.8
  7
SANINDUSA
 11
-134.0
 21
18.25
 31
0.0
100
AcDbText
 73
     2
  0
TEXT
  5
BD7
330
B9E
100
AcDbEntity
  8
1
100
AcDbText
 10
-129.0
 20
26.43288406845113
 30
0.0
 40
1.5
  1
Ano:
 41
0.8
  7
SANINDUSA
 11
-129.0
 21
27.18288406845113
 31
0.0
100
AcDbText
 73
     2
  0
LINE
  5
BD8
330
B9E
100
AcDbEntity
  8
1
100
AcDbLine
 10
-180.0
 20
55.5
 30
0.0
 11
-135.0
 21
55.5
 31
0.0
  0
TEXT
  5
BD9
330
B9E
100
AcDbEntity
  8
1
100
AcDbText
 10
-179.0
 20
52.67772246885193
 30
0.0
 40
1.5
  1
descrição
 41
0.8
  7
SANINDUSA
 11
-179.0
 21
53.42772246885193
 31
0.0
100
AcDbText
 73
     2
  0
TEXT
  5
BDA
330
B9E
100
AcDbEntity
  8
1
100
AcDbText
 10
-134.0
 20
47.25
 30
0.0
 40
2.0
  1
Peça:
 41
0.8
  7
SANINDUSA
 11
-134.0
 21
48.25
 31
0.0
100
AcDbText
 73
     2
  0
LINE
  5
BDB
330
B9E
100
AcDbEntity
  8
1
100
AcDbLine
 10
-180.0
 20
59.5
 30
0.0
 11
-135.0
 21
59.5
 31
0.0
  0
TEXT
  5
BDC
330
B9E
100
AcDbEntity
  8
1
100
AcDbText
 10
-173.5810776056337
 20
62.75
 30
0.0
 40
1.5
  1
Alt.
 41
0.8
  7
SANINDUSA
 11
-173.5810776056337
 21
63.5
 31
0.0
100
AcDbText
 73
     2
  0
TEXT
  5
BDD
330
B9E
100
AcDbEntity
  8
1
100
AcDbText
 10
-179.0
 20
62.75
 30
0.0
 40
1.5
  1
Rev.
 41
0.8
  7
SANINDUSA
 11
-179.0
 21
63.5
 31
0.0
100
AcDbText
 73
     2
  0
TEXT
  5
BDE
330
B9E
100
AcDbEntity
  8
1
100
AcDbText
 10
-167.9210461879161
 20
62.75
 30
0.0
 40
1.5
  1
Data
 41
0.8
  7
SANINDUSA
 11
-167.9210461879161
 21
63.5
 31
0.0
100
AcDbText
 73
     2
  0
TEXT
  5
BDF
330
B9E
100
AcDbEntity
  8
1
100
AcDbText
 10
-153.0988595589306
 20
62.75
 30
0.0
 40
1.5
  1
Nome
 41
0.8
  7
SANINDUSA
 11
-153.0988595589306
 21
63.5
 31
0.0
100
AcDbText
 73
     2
  0
TEXT
  5
BE0
330
B9E
100
AcDbEntity
  8
1
100
AcDbText
 10
-134.0
 20
62.25
 30
0.0
 40
2.0
  1
Produto:
 41
0.8
  7
SANINDUSA
 11
-134.0
 21
63.25
 31
0.0
100
AcDbText
 73
     2
  0
LINE
  5
BE1
330
B9E
100
AcDbEntity
  8
3
100
AcDbLine
 10
-40.0
 20
4.0
 30
0.0
 11
-40.0
 21
65.0
 31
0.0
  0
LWPOLYLINE
  5
BE2
102
{ACAD_REACTORS
330
BEC
102
}
330
B9E
100
AcDbEntity
  8
9
100
AcDbPolyline
 90
       12
 70
     1
 43
0.0
 10
-3.038714600644652
 20
58.90010174665076
 10
-5.726962862472191
 20
58.90010174665076
 10
-5.726962862472191
 20
58.5001017466509
 10
-3.038748516195028
 20
58.5001017466509
 42
-0.4142135623731731
 10
-2.638748516194482
 20
58.1001017466508
 10
-2.638748516194482
 20
57.42799728675596
 10
-5.21497371544865
 20
57.42799728675596
 42
0.4142135623731289
 10
-6.014973715448377
 20
56.627997286756
 10
-6.014973715448377
 20
55.92380871629643
 42
0.4142135623731132
 10
-5.21497371544865
 20
55.12380871629648
 10
-2.23871460064447
 20
55.12380871629648
 10
-2.23871460064447
 20
58.10010174665103
 42
0.4142135623730717
  0
LWPOLYLINE
  5
BE3
102
{ACAD_REACTORS
330
BEC
102
}
330
B9E
100
AcDbEntity
  8
9
100
AcDbPolyline
 90
       20
 70
     1
 43
0.0
 10
-10.01531287095122
 20
57.82799728675581
 10
-10.01531287095122
 20
58.10010174665103
 42
-0.4142135623730744
 10
-9.615312870951584
 20
58.5001017466509
 10
-6.92703069357276
 20
58.5001017466509
 10
-6.92703069357276
 20
58.90010174665076
 10
-9.615346786501959
 20
58.90010174665076
 42
0.4142135623730883
 10
-10.41534678650168
 20
58.1001017466508
 10
-10.41534678650168
 20
57.82796337120567
 42
0.4142135623730717
 10
-9.615346786501959
 20
57.02796337120571
 10
-7.423079531965413
 20
57.02796337120571
 42
-0.4142135623730847
 10
-7.023079531965322
 20
56.62796337120562
 10
-7.023079531965322
 20
55.90786840766487
 42
-0.4142135623730744
 10
-7.423079531965413
 20
55.507868407665
 10
-10.41534678650168
 20
55.507868407665
 10
-10.41534678650168
 20
55.12380871629648
 10
-7.445787917283723
 20
55.12380871629648
 42
0.4114777732064574
 10
-6.645822882998345
 20
55.9163291493976
 10
-6.639238813324936
 20
56.62051771985716
 42
0.4169546541682913
 10
-7.439203847610315
 20
57.42799728675596
 10
-9.615312870951584
 20
57.42799728675596
 42
-0.4142135623731576
  0
LWPOLYLINE
  5
BE4
102
{ACAD_REACTORS
330
BEC
102
}
330
B9E
100
AcDbEntity
  8
9
100
AcDbPolyline
 90
       12
 70
     1
 43
0.0
 10
-14.41561811090378
 20
58.90010174665076
 10
-14.79964388672215
 20
58.90010174665076
 10
-14.79964388672215
 20
55.92380871629643
 42
0.4142135623731133
 10
-13.99964388672242
 20
55.12380871629648
 10
-11.8233508563676
 20
55.12380871629648
 42
0.4142135623730872
 10
-11.02335085636741
 20
55.92380871629643
 10
-11.02335085636741
 20
58.90010174665076
 10
-11.42338477191788
 20
58.90010174665076
 10
-11.42338477191788
 20
55.91567577726095
 42
-0.4131711701795318
 10
-11.82196067063523
 20
55.51567831234956
 10
-14.0141940096214
 20
55.50787335710947
 42
-0.4152567234624407
 10
-14.41561811090378
 20
55.90787082202087
  0
LWPOLYLINE
  5
BE5
102
{ACAD_REACTORS
330
BEC
102
}
330
B9E
100
AcDbEntity
  8
9
100
AcDbPolyline
 90
        6
 70
     1
 43
0.0
 10
-15.80771578768872
 20
55.507868407665
 10
-18.39994912667453
 20
55.507868407665
 42
-0.4142135623731731
 10
-18.79994912667462
 20
55.90786840766487
 10
-18.79994912667462
 20
58.10010174665103
 42
-0.4142135623730744
 10
-18.39994912667453
 20
58.5001017466509
 10
-15.80771578768872
 20
58.5001017466509
  0
LWPOLYLINE
  5
BE6
102
{ACAD_REACTORS
330
BEC
102
}
330
B9E
100
AcDbEntity
  8
9
100
AcDbPolyline
 90
        8
 70
     1
 43
0.0
 10
-15.4236900118708
 20
59.87619128370352
 10
-15.80771578768872
 20
59.87619128370352
 10
-15.80771578768872
 20
58.90010174665076
 10
-18.39176256411201
 20
58.90010174665076
 42
0.4131164467977967
 10
-19.19175694739761
 20
58.1030995310698
 10
-19.1999120763262
 20
55.92680650071542
 42
0.4153115297271718
 10
-18.39991769304061
 20
55.12380871629648
 10
-15.4236900118708
 20
55.12380871629648
  0
LWPOLYLINE
  5
BE7
102
{ACAD_REACTORS
330
BEC
102
}
330
B9E
100
AcDbEntity
  8
9
100
AcDbPolyline
 90
       10
 70
     1
 43
0.0
 10
-20.59201288790928
 20
58.90010174665076
 10
-23.56830591826338
 20
58.90010174665076
 10
-23.56830591826338
 20
55.12380871629648
 10
-23.18424622689509
 20
55.12380871629648
 10
-23.18424622689509
 20
58.5001017466509
 10
-20.59204680345965
 20
58.5001017466509
 42
-0.4142135623730898
 10
-20.19204680345956
 20
58.1001017466508
 10
-20.19204680345956
 20
55.12380871629648
 10
-19.79201288790909
 20
55.12380871629648
 10
-19.79201288790909
 20
58.10010174665103
 42
0.4142135623731132
  0
LWPOLYLINE
  5
BE8
102
{ACAD_REACTORS
330
BEC
102
}
330
B9E
100
AcDbEntity
  8
9
100
AcDbPolyline
 90
        4
 70
     1
 43
0.0
 10
-24.19231812786165
 20
58.90010174665076
 10
-24.57637781922995
 20
58.90010174665076
 10
-24.57637781922995
 20
55.12380871629648
 10
-24.19231812786165
 20
55.12380871629648
  0
LWPOLYLINE
  5
BE9
102
{ACAD_REACTORS
330
BEC
102
}
330
B9E
100
AcDbEntity
  8
9
100
AcDbPolyline
 90
       10
 70
     1
 43
0.0
 10
-28.57661522808212
 20
58.5001017466509
 10
-25.98444972019706
 20
58.5001017466509
 42
-0.4142135623731731
 10
-25.58444972019652
 20
58.1001017466508
 10
-25.58444972019652
 20
55.12380871629648
 10
-25.2004239443786
 20
55.12380871629648
 10
-25.2004239443786
 20
58.10010174665103
 42
0.4142135623730717
 10
-26.00042394437833
 20
58.90010174665076
 10
-28.97664914363259
 20
58.90010174665076
 10
-28.97664914363259
 20
55.12380871629648
 10
-28.57661522808212
 20
55.12380871629648
  0
LWPOLYLINE
  5
BEA
102
{ACAD_REACTORS
330
BEC
102
}
330
B9E
100
AcDbEntity
  8
9
100
AcDbPolyline
 90
       12
 70
     1
 43
0.0
 10
-29.58465321349832
 20
58.10010174665103
 42
0.4142135623730716
 10
-30.3846532134985
 20
58.90010174665076
 10
-33.07296930642724
 20
58.90010174665076
 10
-33.07296930642724
 20
58.5001017466509
 10
-30.38468712904842
 20
58.5001017466509
 42
-0.4142135623730067
 10
-29.98468712904878
 20
58.1001017466508
 10
-29.98468712904878
 20
57.42799728675618
 10
-32.56098015940324
 20
57.42799728675596
 42
0.4142135623731289
 10
-33.36098015940343
 20
56.627997286756
 10
-33.36098015940343
 20
55.92380871629643
 42
0.4142135623731132
 10
-32.56098015940324
 20
55.12380871629648
 10
-29.58465321349832
 20
55.12380871629648
  0
LWPOLYLINE
  5
BEB
102
{ACAD_REACTORS
330
BEC
102
}
330
B9E
100
AcDbEntity
  8
9
100
AcDbPolyline
 90
       20
 70
     1
 43
0.0
 10
-34.7850262845518
 20
57.42799728675596
 10
-36.96125148380543
 20
57.42799728675596
 42
-0.4142135623730898
 10
-37.36125148380552
 20
57.82799728675604
 10
-37.36125148380552
 20
58.10010174665103
 42
-0.4142135623730744
 10
-36.96125148380543
 20
58.5001017466509
 10
-34.27303713752781
 20
58.50010174665067
 10
-34.27303713752781
 20
58.90010174665076
 10
-36.96128539935535
 20
58.90010174665076
 42
0.4142135623731289
 10
-37.76128539935553
 20
58.1001017466508
 10
-37.76128539935553
 20
57.82796337120567
 42
0.4142135623730716
 10
-36.9612853993558
 20
57.02796337120571
 10
-34.76901814481926
 20
57.02796337120571
 42
-0.414213562373168
 10
-34.36901814481962
 20
56.62796337120562
 10
-34.36901814481962
 20
55.90786840766487
 42
-0.4142135623730744
 10
-34.76901814481926
 20
55.507868407665
 10
-37.76128539935553
 20
55.507868407665
 10
-37.76128539935553
 20
55.12380871629648
 10
-34.7850262845518
 20
55.12380871629648
 42
0.4142135623731289
 10
-33.98502628455162
 20
55.92380871629643
 10
-33.98502628455162
 20
56.627997286756
 42
0.4142135623731132
  0
HATCH
  5
BEC
330
B9E
100
AcDbEntity
  8
9
100
AcDbHatch
 10
0.0
 20
0.0
 30
0.0
210
0.0
220
0.0
230
1.0
  2
SOLID
 70
     1
 71
     1
 91
       13
 92
        7
 72
     1
 73
     1
 93
       20
 10
-34.36901814481962
 20
55.90786840766487
 42
-0.414213562372991
 10
-34.76901814481926
 20
55.507868407665
 42
0.0
 10
-37.76128539935553
 20
55.507868407665
 42
0.0
 10
-37.76128539935553
 20
55.12380871629648
 42
0.0
 10
-34.7850262845518
 20
55.12380871629648
 42
0.4142135623731705
 10
-33.98502628455162
 20
55.92380871629666
 42
0.0
 10
-33.98502628455162
 20
56.627997286756
 42
0.4142135623731547
 10
-34.7850262845518
 20
57.42799728675596
 42
0.0
 10
-36.96125148380543
 20
57.42799728675596
 42
-0.4142135623730898
 10
-37.36125148380552
 20
57.82799728675604
 42
0.0
 10
-37.36125148380552
 20
58.1001017466508
 42
-0.4142135623731575
 10
-36.96125148380543
 20
58.5001017466509
 42
0.0
 10
-34.27303713752781
 20
58.50010174665067
 42
0.0
 10
-34.27303713752781
 20
58.90010174665076
 42
0.0
 10
-36.96128539935535
 20
58.90010174665076
 42
0.4142135623731705
 10
-37.76128539935553
 20
58.10010174665058
 42
0.0
 10
-37.76128539935553
 20
57.82796337120544
 42
0.4142135623730299
 10
-36.9612853993558
 20
57.02796337120571
 42
0.0
 10
-34.76901814481926
 20
57.02796337120571
 42
-0.4142135623730015
 10
-34.36901814481962
 20
56.62796337120608
 42
0.0
 97
        1
330
BEB
 92
        7
 72
     1
 73
     1
 93
       12
 10
-33.36098015940343
 20
55.92380871629666
 42
0.4142135623731547
 10
-32.56098015940324
 20
55.12380871629648
 42
0.0
 10
-29.58465321349877
 20
55.12380871629648
 42
0.0
 10
-29.58465321349832
 20
58.10010174665058
 42
0.4142135623731964
 10
-30.3846532134985
 20
58.90010174665076
 42
0.0
 10
-33.07296930642724
 20
58.90010174665076
 42
0.0
 10
-33.07296930642724
 20
58.50010174665067
 42
0.0
 10
-30.38468712904887
 20
58.5001017466509
 42
-0.4142135623732564
 10
-29.98468712904878
 20
58.10010174665103
 42
0.0
 10
-29.98468712904923
 20
57.42799728675596
 42
0.0
 10
-32.56098015940324
 20
57.42799728675596
 42
0.4142135623731705
 10
-33.36098015940343
 20
56.627997286756
 42
0.0
 97
        1
330
BEA
 92
       22
 72
     1
 73
     1
 93
        6
 10
-32.97692046803468
 20
56.62796337120562
 42
-0.4142135623731576
 10
-32.57692046803459
 20
57.02796337120571
 42
0.0
 10
-29.98468712904878
 20
57.02796337120571
 42
0.0
 10
-29.98468712904878
 20
55.507868407665
 42
0.0
 10
-32.57692046803459
 20
55.507868407665
 42
-0.4142135623731731
 10
-32.97692046803468
 20
55.90786840766487
 42
0.0
 97
        1
330
C11
 92
        7
 72
     1
 73
     1
 93
       10
 10
-28.57661522808212
 20
58.5001017466509
 42
0.0
 10
-25.98444972019661
 20
58.5001017466509
 42
-0.4142135623730067
 10
-25.58444972019652
 20
58.10010174665058
 42
0.0
 10
-25.58444972019606
 20
55.12380871629648
 42
0.0
 10
-25.20042394437906
 20
55.12380871629648
 42
0.0
 10
-25.2004239443786
 20
58.1001017466508
 42
0.4142135623731134
 10
-26.00042394437833
 20
58.90010174665076
 42
0.0
 10
-28.97664914363259
 20
58.90010174665076
 42
0.0
 10
-28.97664914363259
 20
55.12380871629648
 42
0.0
 10
-28.57661522808212
 20
55.12380871629648
 42
0.0
 97
        1
330
BE9
 92
        7
 72
     0
 73
     1
 93
        4
 10
-24.57637781922995
 20
55.12380871629648
 10
-24.19231812786165
 20
55.12380871629648
 10
-24.19231812786165
 20
58.90010174665076
 10
-24.57637781922995
 20
58.90010174665076
 97
        1
330
BE8
 92
        7
 72
     0
 73
     1
 93
        4
 10
-24.19231812786165
 20
59.87619128370352
 10
-24.5763778192304
 20
59.87619128370352
 10
-24.5763778192304
 20
59.28412752246913
 10
-24.1923181278612
 20
59.28412752246913
 97
        1
330
C12
 92
        7
 72
     1
 73
     1
 93
       10
 10
-23.18424622689509
 20
58.5001017466509
 42
0.0
 10
-20.59204680345965
 20
58.5001017466509
 42
-0.4142135623730898
 10
-20.19204680345956
 20
58.1001017466508
 42
0.0
 10
-20.19204680345956
 20
55.12380871629648
 42
0.0
 10
-19.79201288790909
 20
55.12380871629648
 42
0.0
 10
-19.79201288790909
 20
58.1001017466508
 42
0.4142135623731547
 10
-20.59201288790928
 20
58.90010174665076
 42
0.0
 10
-23.56830591826338
 20
58.90010174665076
 42
0.0
 10
-23.56830591826338
 20
55.12380871629648
 42
0.0
 10
-23.18424622689463
 20
55.12380871629648
 42
0.0
 97
        1
330
BE7
 92
        7
 72
     1
 73
     1
 93
        8
 10
-19.1999120763262
 20
55.92680650071542
 42
0.4153115297271299
 10
-18.39991769304061
 20
55.12380871629648
 42
0.0
 10
-15.4236900118708
 20
55.12380871629648
 42
0.0
 10
-15.4236900118708
 20
59.87619128370352
 42
0.0
 10
-15.80771578768872
 20
59.87619128370352
 42
0.0
 10
-15.80771578768872
 20
58.90010174665076
 42
0.0
 10
-18.39176256411201
 20
58.90010174665076
 42
0.4131164467977965
 10
-19.19175694739761
 20
58.1030995310698
 42
0.0
 97
        1
330
BE6
 92
       22
 72
     1
 73
     1
 93
        6
 10
-18.79994912667462
 20
58.1001017466508
 42
-0.4142135623731575
 10
-18.39994912667453
 20
58.5001017466509
 42
0.0
 10
-15.80771578768872
 20
58.50010174665067
 42
0.0
 10
-15.80771578768827
 20
55.507868407665
 42
0.0
 10
-18.39994912667453
 20
55.507868407665
 42
-0.4142135623731731
 10
-18.79994912667462
 20
55.90786840766487
 42
0.0
 97
        1
330
BE5
 92
        7
 72
     1
 73
     1
 93
       12
 10
-14.79964388672215
 20
55.92380871629621
 42
0.4142135623729885
 10
-13.99964388672242
 20
55.12380871629648
 42
0.0
 10
-11.8233508563676
 20
55.12380871629648
 42
0.4142135623731289
 10
-11.02335085636741
 20
55.92380871629666
 42
0.0
 10
-11.02335085636741
 20
58.90010174665076
 42
0.0
 10
-11.42338477191788
 20
58.90010174665076
 42
0.0
 10
-11.42338477191788
 20
55.91567577726095
 42
-0.4131711701795319
 10
-11.82196067063523
 20
55.51567831234956
 42
0.0
 10
-14.01419400962095
 20
55.50787335710947
 42
-0.4152567234626918
 10
-14.41561811090378
 20
55.90787082202087
 42
0.0
 10
-14.41561811090378
 20
58.90010174665076
 42
0.0
 10
-14.7996438867226
 20
58.90010174665076
 42
0.0
 97
        1
330
BE4
 92
        7
 72
     1
 73
     1
 93
       20
 10
-7.423079531965413
 20
57.02796337120571
 42
-0.414213562373168
 10
-7.023079531965322
 20
56.62796337120562
 42
0.0
 10
-7.023079531965322
 20
55.90786840766487
 42
-0.4142135623731575
 10
-7.423079531965413
 20
55.507868407665
 42
0.0
 10
-10.41534678650168
 20
55.507868407665
 42
0.0
 10
-10.41534678650168
 20
55.12380871629648
 42
0.0
 10
-7.445787917283723
 20
55.12380871629648
 42
0.4114777732065809
 10
-6.645822882998345
 20
55.91632914939783
 42
0.0
 10
-6.639238813324936
 20
56.62051771985716
 42
0.4169546541682913
 10
-7.439203847610315
 20
57.42799728675596
 42
0.0
 10
-9.615312870951584
 20
57.42799728675596
 42
-0.4142135623729911
 10
-10.01531287095122
 20
57.82799728675581
 42
0.0
 10
-10.01531287095122
 20
58.10010174665103
 42
-0.414213562372991
 10
-9.615312870951584
 20
58.5001017466509
 42
0.0
 10
-6.92703069357276
 20
58.50010174665067
 42
0.0
 10
-6.927030693572305
 20
58.90010174665076
 42
0.0
 10
-9.615346786501959
 20
58.90010174665076
 42
0.4142135623730467
 10
-10.41534678650168
 20
58.10010174665103
 42
0.0
 10
-10.41534678650168
 20
57.82796337120544
 42
0.4142135623730301
 10
-9.615346786501959
 20
57.02796337120571
 42
0.0
 97
        1
330
BE3
 92
        7
 72
     1
 73
     1
 93
       12
 10
-5.21497371544865
 20
57.42799728675596
 42
0.4142135623730871
 10
-6.014973715448377
 20
56.627997286756
 42
0.0
 10
-6.014973715448377
 20
55.92380871629621
 42
0.4142135623730715
 10
-5.21497371544865
 20
55.12380871629648
 42
0.0
 10
-2.23871460064447
 20
55.12380871629648
 42
0.0
 10
-2.23871460064447
 20
58.10010174665058
 42
0.414213562373155
 10
-3.038714600644652
 20
58.90010174665076
 42
0.0
 10
-5.726962862471737
 20
58.90010174665076
 42
0.0
 10
-5.726962862472191
 20
58.5001017466509
 42
0.0
 10
-3.038748516194573
 20
58.5001017466509
 42
-0.4142135623730067
 10
-2.638748516194482
 20
58.10010174665058
 42
0.0
 10
-2.638748516194482
 20
57.42799728675596
 42
0.0
 97
        1
330
BE2
 92
       22
 72
     1
 73
     1
 93
        6
 10
-2.638748516194937
 20
57.02796337120571
 42
0.0
 10
-2.638748516194482
 20
55.50786840766477
 42
0.0
 10
-5.21497371544865
 20
55.507868407665
 42
-0.4142135623731731
 10
-5.614973715448741
 20
55.90786840766509
 42
0.0
 10
-5.614973715448741
 20
56.62796337120562
 42
-0.4142135623731576
 10
-5.21497371544865
 20
57.02796337120571
 42
0.0
 97
        1
330
C0D
 75
     0
 76
     1
 47
0.0407044778999864
 98
       13
 10
-34.18710075113677
 20
56.16907953933765
 10
-33.12851374392494
 20
56.49471602641233
 10
-33.12851374392494
 20
56.49471602641233
 10
-28.77202873835904
 20
57.51232930166111
 10
-24.41554807250941
 20
57.91937341678636
 10
-24.41554807250941
 20
59.384734621186
 10
-23.31624584658039
 20
58.3264175319116
 10
-19.04119127844888
 20
57.75655517324913
 10
-19.04119127844888
 20
57.75655517324913
 10
-14.64399105416578
 20
57.43091868617466
 10
-8.048195057457178
 20
57.22739662861204
 10
-4.017427461911665
 20
57.18669281458665
 10
-4.017427461911665
 20
57.18669281458665
  0
TEXT
  5
BED
330
B9E
100
AcDbEntity
  8
leg fin
100
AcDbText
 10
3.391127401597259
 20
2.107634911895729
 30
0.0
 40
1.5
  1
Este desenho é propriedade da Sanindusa, S.A., e não pode ser copiado nem divulgado sem nossa autorização.
 50
90.0
 41
0.8
  7
SANINDUSA
100
AcDbText
  0
LINE
  5
BEE
330
B9E
100
AcDbEntity
  8
3
100
AcDbLine
 10
-90.0
 20
4.0
 30
0.0
 11
-90.0
 21
12.0
 31
0.0
  0
TEXT
  5
BEF
330
B9E
100
AcDbEntity
  8
1
100
AcDbText
 10
-39.0
 20
9.25
 30
0.0
 40
2.0
  1
Substituido por:
 41
0.8
  7
SANINDUSA
 11
-39.0
 21
10.25
 31
0.0
100
AcDbText
 73
     2
  0
POINT
  5
BF0
330
B9E
100
AcDbEntity
  8
SANINDUSA
100
AcDbPoint
 10
0.0
 20
0.0
 30
0.0
  0
TEXT
  5
BF1
330
B9E
100
AcDbEntity
  8
1
100
AcDbText
 10
-89.0
 20
16.74927010445663
 30
0.0
 40
2.0
  1
Normas:
 41
0.8
  7
SANINDUSA
 11
-89.0
 21
17.74927010445663
 31
0.0
100
AcDbText
 73
     2
  0
LINE
  5
BF2
330
B9E
100
AcDbEntity
  8
3
100
AcDbLine
 10
-90.0
 20
12.0
 30
0.0
 11
-90.0
 21
20.0
 31
0.0
  0
LINE
  5
BF3
330
B9E
100
AcDbEntity
  8
3
100
AcDbLine
 10
-110.546019464768
 20
12.0
 30
0.0
 11
-110.546019464768
 21
20.0
 31
0.0
  0
TEXT
  5
BF4
330
B9E
100
AcDbEntity
  8
1
100
AcDbText
 10
-109.6177520618648
 20
17.25
 30
0.0
 40
2.0
  1
Cor:
 41
0.8
  7
SANINDUSA
 11
-109.6177520618648
 21
18.25
 31
0.0
100
AcDbText
 73
     2
  0
LINE
  5
BF5
330
B9E
100
AcDbEntity
  8
leg fin
100
AcDbLine
 10
-91.42857142857156
 20
20.0
 30
0.0
 11
-91.42857142857156
 21
28.5
 31
0.0
  0
LINE
  5
BF6
330
B9E
100
AcDbEntity
  8
leg fin
100
AcDbLine
 10
-104.2857142857142
 20
20.0
 30
0.0
 11
-104.2857142857142
 21
28.5
 31
0.0
  0
LINE
  5
BF7
330
B9E
100
AcDbEntity
  8
leg fin
100
AcDbLine
 10
-117.1428571428573
 20
20.0
 30
0.0
 11
-117.1428571428573
 21
28.5
 31
0.0
  0
POINT
  5
BF8
330
B9E
100
AcDbEntity
  8
SANINDUSA
100
AcDbPoint
 10
-117.1428571428573
 20
28.5
 30
0.0
  0
POINT
  5
BF9
330
B9E
100
AcDbEntity
  8
SANINDUSA
100
AcDbPoint
 10
-104.2857142857142
 20
28.5
 30
0.0
  0
POINT
  5
BFA
330
B9E
100
AcDbEntity
  8
SANINDUSA
100
AcDbPoint
 10
-91.42857142857156
 20
28.5
 30
0.0
  0
TEXT
  5
BFB
330
B9E
100
AcDbEntity
  8
1
100
AcDbText
 10
-116.200160604496
 20
26.43288406845113
 30
0.0
 40
1.5
  1
Nº Seq.:
 41
0.8
  7
SANINDUSA
 11
-116.200160604496
 21
27.18288406845113
 31
0.0
100
AcDbText
 73
     2
  0
TEXT
  5
BFC
330
B9E
100
AcDbEntity
  8
1
100
AcDbText
 10
-103.2106584078738
 20
26.43288406845113
 30
0.0
 40
1.5
  1
Tipo:
 41
0.8
  7
SANINDUSA
 11
-103.2106584078738
 21
27.18288406845113
 31
0.0
100
AcDbText
 73
     2
  0
TEXT
  5
BFD
330
B9E
100
AcDbEntity
  8
1
100
AcDbText
 10
-90.22114672289353
 20
26.43288406845113
 30
0.0
 40
1.5
  1
Prod.:
 41
0.8
  7
SANINDUSA
 11
-90.22114672289353
 21
27.18288406845113
 31
0.0
100
AcDbText
 73
     2
  0
TEXT
  5
BFE
330
B9E
100
AcDbEntity
  8
1
100
AcDbText
 10
-64.77320576346574
 20
26.43288406845113
 30
0.0
 40
1.5
  1
Rev.:
 41
0.8
  7
SANINDUSA
 11
-64.77320576346574
 21
27.18288406845113
 31
0.0
100
AcDbText
 73
     2
  0
LINE
  5
BFF
330
B9E
100
AcDbEntity
  8
leg fin
100
AcDbLine
 10
-52.85714285714266
 20
20.0
 30
0.0
 11
-52.85714285714266
 21
28.5
 31
0.0
  0
LINE
  5
C00
330
B9E
100
AcDbEntity
  8
leg fin
100
AcDbLine
 10
-65.71428571428578
 20
20.0
 30
0.0
 11
-65.71428571428578
 21
28.5
 31
0.0
  0
LINE
  5
C01
330
B9E
100
AcDbEntity
  8
leg fin
100
AcDbLine
 10
-78.57142857142844
 20
20.0
 30
0.0
 11
-78.57142857142844
 21
28.5
 31
0.0
  0
POINT
  5
C02
330
B9E
100
AcDbEntity
  8
SANINDUSA
100
AcDbPoint
 10
-78.57142857142844
 20
28.5
 30
0.0
  0
POINT
  5
C03
330
B9E
100
AcDbEntity
  8
SANINDUSA
100
AcDbPoint
 10
-65.71428571428578
 20
28.5
 30
0.0
  0
POINT
  5
C04
330
B9E
100
AcDbEntity
  8
SANINDUSA
100
AcDbPoint
 10
-52.85714285714266
 20
28.5
 30
0.0
  0
TEXT
  5
C05
330
B9E
100
AcDbEntity
  8
1
100
AcDbText
 10
-77.61097961686573
 20
26.43288406845113
 30
0.0
 40
1.5
  1
Peça:
 41
0.8
  7
SANINDUSA
 11
-77.61097961686573
 21
27.18288406845113
 31
0.0
100
AcDbText
 73
     2
  0
TEXT
  5
C06
330
B9E
100
AcDbEntity
  8
1
100
AcDbText
 10
-52.06538060077036
 20
26.43288406845113
 30
0.0
 40
1.5
  1
Alt.:
 41
0.8
  7
SANINDUSA
 11
-52.06538060077036
 21
27.18288406845113
 31
0.0
100
AcDbText
 73
     2
  0
LINE
  5
C07
330
B9E
100
AcDbEntity
  8
3
100
AcDbLine
 10
0.0
 20
12.0
 30
0.0
 11
-40.0
 21
12.0
 31
0.0
  0
LINE
  5
C08
330
B9E
100
AcDbEntity
  8
3
100
AcDbLine
 10
-40.0
 20
32.5
 30
0.0
 11
0.0
 21
32.5
 31
0.0
  0
TEXT
  5
C09
330
B9E
100
AcDbEntity
  8
1
100
AcDbText
 10
-19.0
 20
29.75
 30
0.0
 40
2.0
  1
Folha:
 41
0.8
  7
SANINDUSA
 11
-19.0
 21
30.75
 31
0.0
100
AcDbText
 73
     2
  0
LINE
  5
C0A
330
B9E
100
AcDbEntity
  8
3
100
AcDbLine
 10
-20.0
 20
32.5
 30
0.0
 11
-20.0
 21
20.0
 31
0.0
  0
TEXT
  5
C0B
330
B9E
100
AcDbEntity
  8
1
100
AcDbText
 10
-39.0
 20
29.75
 30
0.0
 40
2.0
  1
Escala:
 41
0.8
  7
SANINDUSA
 11
-39.0
 21
30.75
 31
0.0
100
AcDbText
 73
     2
  0
TEXT
  5
C0C
330
B9E
100
AcDbEntity
  8
1
100
AcDbText
 10
-39.0
 20
17.25
 30
0.0
 40
2.0
  1
Substitui:
 41
0.8
  7
SANINDUSA
 11
-39.0
 21
18.25
 31
0.0
100
AcDbText
 73
     2
  0
LWPOLYLINE
  5
C0D
102
{ACAD_REACTORS
330
BEC
102
}
330
B9E
100
AcDbEntity
  8
9
100
AcDbPolyline
 90
        6
 70
     1
 43
0.0
 10
-2.638748516194482
 20
57.02796337120571
 10
-2.638748516194482
 20
55.50786840766477
 10
-5.21497371544865
 20
55.507868407665
 42
-0.4142135623730898
 10
-5.614973715448741
 20
55.90786840766487
 10
-5.614973715448741
 20
56.62796337120562
 42
-0.4142135623731576
 10
-5.21497371544865
 20
57.02796337120571
  0
LINE
  5
C0E
330
B9E
100
AcDbEntity
  8
3
100
AcDbLine
 10
-40.0
 20
50.0
 30
0.0
 11
0.0
 21
50.0
 31
0.0
  0
ATTDEF
  5
C0F
330
B9E
100
AcDbEntity
  8
1
100
AcDbText
 10
-31.30691739422431
 20
40.25
 30
0.0
 40
2.0
  1
XXXXXXXXXXXXXXX
 41
0.8
  7
SANINDUSA
 72
     4
 11
-20.0
 21
41.25
 31
0.0
100
AcDbAttributeDefinition
  3
Observações:
  2
OBS
 70
     0
  0
TEXT
  5
C10
330
B9E
100
AcDbEntity
  8
1
100
AcDbText
 10
-39.0
 20
47.25
 30
0.0
 40
2.0
  1
Observações:
 41
0.8
  7
SANINDUSA
 11
-39.0
 21
48.25
 31
0.0
100
AcDbText
 73
     2
  0
LWPOLYLINE
  5
C11
102
{ACAD_REACTORS
330
BEC
102
}
330
B9E
100
AcDbEntity
  8
9
100
AcDbPolyline
 90
        6
 70
     1
 43
0.0
 10
-29.98468712904878
 20
57.02796337120571
 10
-29.98468712904878
 20
55.507868407665
 10
-32.57692046803459
 20
55.507868407665
 42
-0.4142135623731731
 10
-32.97692046803468
 20
55.90786840766487
 10
-32.97692046803468
 20
56.62796337120562
 42
-0.4142135623731576
 10
-32.57692046803459
 20
57.02796337120571
  0
LWPOLYLINE
  5
C12
102
{ACAD_REACTORS
330
BEC
102
}
330
B9E
100
AcDbEntity
  8
9
100
AcDbPolyline
 90
        4
 70
     1
 43
0.0
 10
-24.19231812786165
 20
59.87619128370352
 10
-24.57637781922995
 20
59.87619128370352
 10
-24.57637781922995
 20
59.28412752246913
 10
-24.19231812786165
 20
59.28412752246913
  0
ENDBLK
  5
C14
330
B9E
100
AcDbEntity
  8
0
100
AcDbBlockEnd
  0
ENDSEC
  0
SECTION
  2
ENTITIES
  0
ARC
  5
1C6D
330
1F
100
AcDbEntity
  8
SANINDUSA
100
AcDbCircle
 10
5005.047153126963
 20
3071.267488744996
 30
0.0
 40
0.0240008326234703
100
AcDbArc
 50
270.873259049006
 51
348.3598281609431
  0
ARC
  5
1C6E
330
1F
100
AcDbEntity
  8
SANINDUSA
100
AcDbCircle
 10
5004.447512739564
 20
3071.267488855671
 30
0.0
 40
0.0240008635789042
100
AcDbArc
 50
191.6403537160616
 51
269.0450212685287
  0
LWPOLYLINE
  5
1C6F
330
1F
100
AcDbEntity
  8
SANINDUSA
100
AcDbPolyline
 90
       24
 70
   128
 43
0.0
 10
5004.447130574727
 20
3071.243482824698
 10
5004.46406658634
 20
3071.2432800944
 10
5004.485042608226
 20
3071.243037630156
 10
5004.504846191847
 20
3071.242815267578
 10
5004.523477694834
 20
3071.242617097035
 10
5004.540936312521
 20
3071.242445010975
 10
5004.557220942223
 20
3071.242296006814
 10
5004.572332999551
 20
3071.242167417243
 10
5004.585155567968
 20
3071.242068808809
 10
5004.596992335165
 20
3071.241987850801
 10
5004.607843107426
 20
3071.241922732726
 10
5004.617707854951
 20
3071.24187145783
 10
5004.626586622442
 20
3071.241832133666
 10
5004.6344794397
 20
3071.241803083852
 10
5004.640428072655
 20
3071.241785247162
 10
5004.645660496199
 20
3071.24177276744
 10
5004.650176710332
 20
3071.24176467611
 10
5004.653976595843
 20
3071.241759982243
 10
5004.657060063326
 20
3071.241757732168
 10
5004.659427053177
 20
3071.241757024363
 10
5004.661213523591
 20
3071.241757136121
 10
5004.663490778649
 20
3071.241757992938
 10
5004.666896200621
 20
3071.241760749654
 10
5004.672694570268
 20
3071.241770375804
  0
LINE
  5
1C70
330
1F
100
AcDbEntity
  8
SANINDUSA
100
AcDbLine
 10
5004.672694570268
 20
3071.241770375804
 30
0.0
 11
5004.70023996278
 21
3071.240808468596
 31
0.0
  0
LINE
  5
1C71
330
1F
100
AcDbEntity
  8
SANINDUSA
100
AcDbLine
 10
5004.794425911153
 20
3071.240808468596
 30
0.0
 11
5004.821993029559
 21
3071.241771135763
 31
0.0
  0
LINE
  5
1C72
330
1F
100
AcDbEntity
  8
SANINDUSA
100
AcDbLine
 10
5004.70023996278
 20
3071.240808468596
 30
0.0
 11
5004.710593677009
 21
3071.229705449477
 31
0.0
  0
LINE
  5
1C73
330
1F
100
AcDbEntity
  8
SANINDUSA
100
AcDbLine
 10
5004.784072196925
 20
3071.229705449477
 30
0.0
 11
5004.794425911153
 21
3071.240808468596
 31
0.0
  0
LINE
  5
1C75
330
1F
100
AcDbEntity
  8
SANINDUSA
100
AcDbLine
 10
5005.122487312997
 20
3071.327957315654
 30
0.0
 11
5005.123031145775
 21
3071.296800244883
 31
0.0
  0
LINE
  5
1C77
330
1F
100
AcDbEntity
  8
SANINDUSA
100
AcDbLine
 10
5005.118031925404
 20
3071.296800244883
 30
0.0
 11
5005.123031145775
 21
3071.296800244883
 31
0.0
  0
LINE
  5
1C7A
330
1F
100
AcDbEntity
  8
SANINDUSA
100
AcDbLine
 10
5004.371634734386
 20
3071.296800244883
 30
0.0
 11
5004.372178588956
 21
3071.327957652019
 31
0.0
  0
LINE
  5
1C7B
330
1F
100
AcDbEntity
  8
SANINDUSA
100
AcDbLine
 10
5004.371634734386
 20
3071.296800244883
 30
0.0
 11
5004.376633972743
 21
3071.296800244883
 31
0.0
  0
LINE
  5
1C7D
330
1F
100
AcDbEntity
  8
SANINDUSA
100
AcDbLine
 10
5004.376633972743
 20
3071.296800244883
 30
0.0
 11
5005.118031925404
 21
3071.296800244883
 31
0.0
  0
ARC
  5
1C7E
330
1F
100
AcDbEntity
  8
SANINDUSA
100
AcDbCircle
 10
5005.113488661599
 20
3071.327800243989
 30
0.0
 40
0.0090000000000001
100
AcDbArc
 50
1.000000009720081
 51
90.0
  0
LINE
  5
1C80
330
1F
100
AcDbEntity
  8
SANINDUSA
100
AcDbLine
 10
5004.381177211994
 20
3071.336800243989
 30
0.0
 11
5005.113488680565
 21
3071.336800243989
 31
0.0
  0
ARC
  5
1C82
330
1F
100
AcDbEntity
  8
SANINDUSA
100
AcDbCircle
 10
5004.381177212335
 20
3071.327800243989
 30
0.0
 40
0.009
100
AcDbArc
 50
90.0
 51
178.9999999902799
  0
LINE
  5
1C83
330
1F
100
AcDbEntity
  8
SANINDUSA
100
AcDbLine
 10
5004.416745836729
 20
3071.296800244883
 30
0.0
 11
5004.422829101677
 21
3071.268180731967
 31
0.0
  0
LINE
  5
1C84
330
1F
100
AcDbEntity
  8
SANINDUSA
100
AcDbLine
 10
5005.071836775982
 20
3071.268180724517
 30
0.0
 11
5005.077920026028
 21
3071.296800244883
 31
0.0
  0
LWPOLYLINE
  5
1C90
330
1F
100
AcDbEntity
  8
SANINDUSA
100
AcDbPolyline
 90
        5
 70
   128
 43
0.0
 10
5005.070665008271
 20
3071.262668025032
 10
5005.070660359109
 20
3071.262646224633
 10
5005.070825881207
 20
3071.263424989119
 10
5005.071205980027
 20
3071.265213016704
 10
5005.071836775982
 20
3071.268180724517
  0
LWPOLYLINE
  5
1C92
330
1F
100
AcDbEntity
  8
SANINDUSA
100
AcDbPolyline
 90
        5
 70
   128
 43
0.0
 10
5004.422829101677
 20
3071.268180731967
 10
5004.423459901357
 20
3071.265213053957
 10
5004.423839955474
 20
3071.263425033823
 10
5004.424005492473
 20
3071.262646254436
 10
5004.424000861938
 20
3071.262668039933
  0
LINE
  5
1C95
330
1F
100
AcDbEntity
  8
SANINDUSA
100
AcDbLine
 10
5004.747332936966
 20
3071.240808468596
 30
0.0
 11
5004.794425911153
 21
3071.240808468596
 31
0.0
  0
LINE
  5
1C96
330
1F
100
AcDbEntity
  8
SANINDUSA
100
AcDbLine
 10
5004.70023996278
 20
3071.240808468596
 30
0.0
 11
5004.747332936966
 21
3071.240808468596
 31
0.0
  0
LINE
  5
1C97
330
1F
100
AcDbEntity
  8
SANINDUSA
100
AcDbLine
 10
5004.747332936966
 20
3071.229705449477
 30
0.0
 11
5004.784072196925
 21
3071.229705449477
 31
0.0
  0
LINE
  5
1C98
330
1F
100
AcDbEntity
  8
SANINDUSA
100
AcDbLine
 10
5004.710593677009
 20
3071.229705449477
 30
0.0
 11
5004.747332936966
 21
3071.229705449477
 31
0.0
  0
ELLIPSE
  5
1CB4
330
1F
100
AcDbEntity
  8
SANINDUSA
100
AcDbEllipse
 10
5003.465525062075
 20
3071.621550786564
 30
0.0
 11
0.0079343406248555
 21
-0.0079343406248555
 31
0.0
210
0.0
220
0.0
230
1.0
 40
0.8911979137515666
 41
2.377814862643719
 42
3.905370444535869
  0
LINE
  5
1CB7
330
1F
100
AcDbEntity
  8
SANINDUSA
100
AcDbLine
 10
5004.112091876498
 20
3071.632171929457
 30
0.0
 11
5003.464685395292
 21
3071.632171929457
 31
0.0
  0
ELLIPSE
  5
1CB9
330
1F
100
AcDbEntity
  8
SANINDUSA
100
AcDbEllipse
 10
5004.111252232068
 20
3071.621550786564
 30
0.0
 11
0.0079343406248553
 21
0.0079343406248556
 31
0.0
210
0.0
220
0.0
230
1.0
 40
0.8911979137515732
 41
5.519407516233521
 42
7.046963098125657
  0
LINE
  5
1CBB
330
1F
100
AcDbEntity
  8
SANINDUSA
100
AcDbLine
 10
5004.121873356334
 20
3070.97498397214
 30
0.0
 11
5004.121873356334
 21
3071.622390453347
 31
0.0
  0
LINE
  5
1CBC
330
1F
100
AcDbEntity
  8
SANINDUSA
100
AcDbLine
 10
5003.454903919181
 20
3071.622390453347
 30
0.0
 11
5003.454903919181
 21
3070.97498397214
 31
0.0
  0
ELLIPSE
  5
1CBE
330
1F
100
AcDbEntity
  8
SANINDUSA
100
AcDbEllipse
 10
5003.465525062075
 20
3070.975823616571
 30
0.0
 11
0.0079343406248554
 21
0.0079343406248555
 31
0.0
210
0.0
220
0.0
230
0.9999999999999996
 40
0.8911979137515665
 41
2.377814862643717
 42
3.905370444535868
  0
ELLIPSE
  5
1CC1
330
1F
100
AcDbEntity
  8
SANINDUSA
100
AcDbEllipse
 10
5004.111252232068
 20
3070.975823616571
 30
0.0
 11
-0.0079343406248556
 21
0.0079343406248554
 31
0.0
210
0.0
220
0.0
230
1.0
 40
0.8911979137515638
 41
2.377814862643714
 42
3.905370444535867
  0
LINE
  5
1CC2
330
1F
100
AcDbEntity
  8
SANINDUSA
100
AcDbLine
 10
5003.464685395292
 20
3070.965202492305
 30
0.0
 11
5004.112091876498
 21
3070.965202492305
 31
0.0
  0
LINE
  5
1CC9
330
1F
100
AcDbEntity
  8
SANINDUSA
100
AcDbLine
 10
5004.099946774474
 20
3071.620026801356
 30
0.0
 11
5004.112091876498
 21
3071.632171929457
 31
0.0
  0
LINE
  5
1CCA
330
1F
100
AcDbEntity
  8
SANINDUSA
100
AcDbLine
 10
5004.121873356334
 20
3071.622390453347
 30
0.0
 11
5004.109728254309
 21
3071.61024532152
 31
0.0
  0
LINE
  5
1CCC
330
1F
100
AcDbEntity
  8
SANINDUSA
100
AcDbLine
 10
5003.467049051008
 20
3071.61024532152
 30
0.0
 11
5003.454903919181
 21
3071.622390453347
 31
0.0
  0
LINE
  5
1CCD
330
1F
100
AcDbEntity
  8
SANINDUSA
100
AcDbLine
 10
5003.464685395292
 20
3071.632171929457
 30
0.0
 11
5003.476830527119
 21
3071.62002679763
 31
0.0
  0
ARC
  5
1CCE
330
1F
100
AcDbEntity
  8
SANINDUSA
100
AcDbCircle
 10
5004.098671316117
 20
3070.988404532522
 30
0.0
 40
0.0103220700601461
100
AcDbArc
 50
272.9272239588936
 51
357.0727760150853
  0
LINE
  5
1CCF
330
1F
100
AcDbEntity
  8
SANINDUSA
100
AcDbLine
 10
5004.108979917994
 20
3070.987877410479
 30
0.0
 11
5004.121873356334
 21
3070.97498397214
 31
0.0
  0
LINE
  5
1CD0
330
1F
100
AcDbEntity
  8
SANINDUSA
100
AcDbLine
 10
5004.112091876498
 20
3070.965202492305
 30
0.0
 11
5004.099198438159
 21
3070.978095930644
 31
0.0
  0
LINE
  5
1CD2
330
1F
100
AcDbEntity
  8
SANINDUSA
100
AcDbLine
 10
5003.477578878335
 20
3070.978095930644
 30
0.0
 11
5003.464685395292
 21
3070.965202492305
 31
0.0
  0
LINE
  5
1CD3
330
1F
100
AcDbEntity
  8
SANINDUSA
100
AcDbLine
 10
5003.454903919181
 20
3070.97498397214
 30
0.0
 11
5003.467797402224
 21
3070.987877410479
 31
0.0
  0
LWPOLYLINE
  5
1CD5
330
1F
100
AcDbEntity
  8
SANINDUSA
100
AcDbPolyline
 90
        3
 70
   128
 43
0.0
 10
5004.084613896838
 20
3071.619990140774
 10
5004.095501698485
 20
3071.619990885832
 10
5004.09990964078
 20
3071.619991172679
  0
LWPOLYLINE
  5
1CD6
330
1F
100
AcDbEntity
  8
SANINDUSA
100
AcDbPolyline
 90
        5
 70
   128
 43
0.0
 10
5003.476867653361
 20
3071.619991168954
 10
5003.603305436603
 20
3071.619980004259
 10
5003.794988728992
 20
3071.619966179707
 10
5003.986672021381
 20
3071.619981449672
 10
5004.084613896838
 20
3071.619990140774
  0
LWPOLYLINE
  5
1CD8
330
1F
100
AcDbEntity
  8
SANINDUSA
100
AcDbPolyline
 90
        9
 70
   128
 43
0.0
 10
5004.109728254309
 20
3071.61024532152
 10
5004.109261490336
 20
3071.483507332035
 10
5004.10855612897
 20
3071.291854035683
 10
5004.108172751895
 20
3071.196030002662
 10
5004.107816256515
 20
3071.10020379407
 10
5004.107803501121
 20
3071.072065275736
 10
5004.10796902322
 20
3071.043920320101
 10
5004.108349062434
 20
3071.015835505553
 10
5004.108979917994
 20
3070.987877410479
  0
LWPOLYLINE
  5
1CD9
330
1F
100
AcDbEntity
  8
SANINDUSA
100
AcDbPolyline
 90
        9
 70
   128
 43
0.0
 10
5003.467797402224
 20
3070.987877410479
 10
5003.468428201905
 20
3071.015835505553
 10
5003.468808256021
 20
3071.043920320101
 10
5003.468973793022
 20
3071.072065275736
 10
5003.468961030177
 20
3071.10020379407
 10
5003.468604642829
 20
3071.196030002662
 10
5003.468221314183
 20
3071.291854065485
 10
5003.467515904389
 20
3071.483507332035
 10
5003.467049051008
 20
3071.61024532152
  0
LWPOLYLINE
  5
1CDB
330
1F
100
AcDbEntity
  8
SANINDUSA
100
AcDbPolyline
 90
       10
 70
   128
 43
0.0
 10
5004.098873175612
 20
3070.978348833151
 10
5003.972233451834
 20
3070.978475671836
 10
5003.913353837958
 20
3070.978628855773
 10
5003.854476846687
 20
3070.978836637565
 10
5003.795596696368
 20
3070.978971820899
 10
5003.753571338883
 20
3070.978935760089
 10
5003.711548276178
 20
3070.978796881266
 10
5003.669525422088
 20
3070.978630286284
 10
5003.627500750056
 20
3070.978511076995
 10
5003.477904103628
 20
3070.978348833151
  0
ELLIPSE
  5
1CDE
330
1F
100
AcDbEntity
  8
SANINDUSA
100
AcDbEllipse
 10
5003.417691206115
 20
3071.669384642524
 30
0.0
 11
0.0035366109458464
 21
-0.0035366109458496
 31
0.0
210
0.0
220
0.0
230
1.0
 40
0.9996954598818399
 41
2.35634678344036
 42
3.926838523740156
  0
ELLIPSE
  5
1CE1
330
1F
100
AcDbEntity
  8
SANINDUSA
100
AcDbEllipse
 10
5004.159086088027
 20
3071.669384642524
 30
0.0
 11
0.0035366109458465
 21
0.0035366109458495
 31
0.0
210
0.0
220
0.0
230
0.9999999999999998
 40
0.9996954598818252
 41
5.497939437029283
 42
7.068431177329072
  0
ELLIPSE
  5
1CE4
330
1F
100
AcDbEntity
  8
SANINDUSA
100
AcDbEllipse
 10
5004.159086088027
 20
3070.927989760611
 30
0.0
 11
0.0035366109458465
 21
-0.0035366109458495
 31
0.0
210
0.0
220
0.0
230
1.0
 40
0.9996954598818808
 41
5.497939437030152
 42
7.068431177329894
  0
ELLIPSE
  5
1CE7
330
1F
100
AcDbEntity
  8
SANINDUSA
100
AcDbEllipse
 10
5003.417691206115
 20
3070.927989760611
 30
0.0
 11
0.0035366109458463
 21
0.0035366109458495
 31
0.0
210
0.0
220
0.0
230
1.0
 40
0.9996954598818826
 41
2.356346783439482
 42
3.926838523739228
  0
LINE
  5
1CE9
330
1F
100
AcDbEntity
  8
SANINDUSA
100
AcDbLine
 10
5004.159087635509
 20
3071.674385404148
 30
0.0
 11
5003.417689682848
 21
3071.674385404148
 31
0.0
  0
LINE
  5
1CEA
330
1F
100
AcDbEntity
  8
SANINDUSA
100
AcDbLine
 10
5004.16408685588
 20
3070.92798821313
 30
0.0
 11
5004.16408685588
 21
3071.669386165791
 31
0.0
  0
LINE
  5
1CEB
330
1F
100
AcDbEntity
  8
SANINDUSA
100
AcDbLine
 10
5003.41269044449
 20
3071.669386165791
 30
0.0
 11
5003.41269044449
 21
3070.92798821313
 31
0.0
  0
LINE
  5
1CEC
330
1F
100
AcDbEntity
  8
SANINDUSA
100
AcDbLine
 10
5003.417689682848
 20
3070.922988992759
 30
0.0
 11
5004.159087635509
 21
3070.922988992759
 31
0.0
  0
ARC
  5
1CFA
330
1F
100
AcDbEntity
  8
SANINDUSA
100
AcDbCircle
 10
5004.099320627094
 20
3071.609659617705
 30
0.0
 40
0.0103483315224144
100
AcDbArc
 50
3.063942237358251
 51
86.73703463447898
  0
ARC
  5
1CFC
330
1F
100
AcDbEntity
  8
SANINDUSA
100
AcDbCircle
 10
5003.477456698997
 20
3071.609659605974
 30
0.0
 40
0.0103483413341303
100
AcDbArc
 50
93.26313943487154
 51
176.9360369158814
  0
ARC
  5
1D01
330
1F
100
AcDbEntity
  8
SANINDUSA
100
AcDbCircle
 10
5003.478878529088
 20
3070.988775979325
 30
0.0
 40
0.0104725776328916
100
AcDbArc
 50
184.38655681746
 51
264.6611672968853
  0
ARC
  5
1D03
330
1F
100
AcDbEntity
  8
SANINDUSA
100
AcDbCircle
 10
5003.988892703254
 20
3071.499153382334
 30
0.0
 40
0.0025904858462822
100
AcDbArc
 50
0.0
 51
90.00113303225052
  0
ARC
  5
1D0E
330
1F
100
AcDbEntity
  8
SANINDUSA
100
AcDbCircle
 10
5003.58788468883
 20
3071.499153329089
 30
0.0
 40
0.0025905986961659
100
AcDbArc
 50
90.00070359202721
 51
180.0
  0
LINE
  5
1D19
330
1F
100
AcDbEntity
  8
SANINDUSA
100
AcDbLine
 10
5003.977892734042
 20
3071.501745179483
 30
0.0
 11
5003.988892652026
 21
3071.50174386818
 31
0.0
  0
LINE
  5
1D1B
330
1F
100
AcDbEntity
  8
SANINDUSA
100
AcDbLine
 10
5003.587884657017
 20
3071.501743927785
 30
0.0
 11
5003.598884545198
 21
3071.501745239087
 31
0.0
  0
LWPOLYLINE
  5
1D1D
330
1F
100
AcDbEntity
  8
SANINDUSA
100
AcDbPolyline
 90
        3
 70
   128
 43
0.0
 10
5003.991483189097
 20
3071.499153509923
 10
5003.99148348712
 20
3071.491155013629
 10
5003.991483606331
 20
3071.488155320474
  0
LWPOLYLINE
  5
1D20
330
1F
100
AcDbEntity
  8
SANINDUSA
100
AcDbPolyline
 90
        3
 70
   128
 43
0.0
 10
5003.585293672911
 20
3071.488155380079
 10
5003.585293970934
 20
3071.496153891274
 10
5003.585294090143
 20
3071.499153569528
  0
ARC
  5
1D21
330
1F
100
AcDbEntity
  8
SANINDUSA
100
AcDbCircle
 10
5003.977892377247
 20
3071.499155416444
 30
0.0
 40
0.0025897630628514
100
AcDbArc
 50
89.9921062935731
 51
180.0
  0
ARC
  5
1D23
330
1F
100
AcDbEntity
  8
SANINDUSA
100
AcDbCircle
 10
5003.598885033416
 20
3071.499155622408
 30
0.0
 40
0.0025896167255338
100
AcDbArc
 50
0.0
 51
90.01080192506213
  0
LWPOLYLINE
  5
1D26
330
1F
100
AcDbEntity
  8
SANINDUSA
100
AcDbPolyline
 90
        3
 70
   128
 43
0.0
 10
5003.97530309104
 20
3071.488157645055
 10
5003.975302733413
 20
3071.496156081745
 10
5003.975302614204
 20
3071.499155730196
  0
LWPOLYLINE
  5
1D27
330
1F
100
AcDbEntity
  8
SANINDUSA
100
AcDbPolyline
 90
        3
 70
   128
 43
0.0
 10
5003.601474650135
 20
3071.499155789801
 10
5003.60147432231
 20
3071.491157368013
 10
5003.601474203101
 20
3071.48815771956
  0
ARC
  5
1D29
330
1F
100
AcDbEntity
  8
SANINDUSA
100
AcDbCircle
 10
5003.988893843288
 20
3071.488155589515
 30
0.0
 40
0.0025897630557676
100
AcDbArc
 50
269.9921062414629
 51
0.0
  0
ARC
  5
1D2C
330
1F
100
AcDbEntity
  8
SANINDUSA
100
AcDbCircle
 10
5003.587883302156
 20
3071.488155515289
 30
0.0
 40
0.0025896292476333
100
AcDbArc
 50
180.0
 51
270.0108544521508
  0
ARC
  5
1D2D
330
1F
100
AcDbEntity
  8
SANINDUSA
100
AcDbCircle
 10
5003.923893063255
 20
3071.499161518358
 30
0.0
 40
0.0025904858616169
100
AcDbArc
 50
0.0
 51
90.00376944400109
  0
LWPOLYLINE
  5
1D38
330
1F
100
AcDbEntity
  8
SANINDUSA
100
AcDbPolyline
 90
        3
 70
   128
 43
0.0
 10
5003.988893486491
 20
3071.485565826484
 10
5003.980893529884
 20
3071.485566854664
 10
5003.977893628111
 20
3071.485567256996
  0
ARC
  5
1D3A
330
1F
100
AcDbEntity
  8
SANINDUSA
100
AcDbCircle
 10
5003.652884404576
 20
3071.499161419151
 30
0.0
 40
0.0025906446683015
100
AcDbArc
 50
89.99974262768324
 51
180.0
  0
LWPOLYLINE
  5
1D46
330
1F
100
AcDbEntity
  8
SANINDUSA
100
AcDbPolyline
 90
        3
 70
   128
 43
0.0
 10
5003.598883636228
 20
3071.4855673166
 10
5003.59088367962
 20
3071.485566273519
 10
5003.58788379275
 20
3071.485565886089
  0
LWPOLYLINE
  5
1D47
330
1F
100
AcDbEntity
  8
SANINDUSA
100
AcDbPolyline
 90
        3
 70
   128
 43
0.0
 10
5003.912892796031
 20
3071.501753404924
 10
5003.920892752638
 20
3071.501752391645
 10
5003.923892892829
 20
3071.501752004214
  0
LWPOLYLINE
  5
1D49
330
1F
100
AcDbEntity
  8
SANINDUSA
100
AcDbPolyline
 90
        3
 70
   128
 43
0.0
 10
5003.652884416214
 20
3071.501752063819
 10
5003.660884357921
 20
3071.501753091999
 10
5003.66388449811
 20
3071.501753464528
  0
LWPOLYLINE
  5
1D4B
330
1F
100
AcDbEntity
  8
SANINDUSA
100
AcDbPolyline
 90
        3
 70
   128
 43
0.0
 10
5003.926483549109
 20
3071.499161705562
 10
5003.926483906737
 20
3071.491163551995
 10
5003.926484025947
 20
3071.488164082357
  0
LINE
  5
1D4E
330
1F
100
AcDbEntity
  8
SANINDUSA
100
AcDbLine
 10
5003.650293268195
 20
3071.488164156863
 30
0.0
 11
5003.650293759934
 21
3071.499161780068
 31
0.0
  0
ARC
  5
1D4F
330
1F
100
AcDbEntity
  8
SANINDUSA
100
AcDbCircle
 10
5003.977893639572
 20
3071.48815780553
 30
0.0
 40
0.0025905485353161
100
AcDbArc
 50
180.0
 51
269.9997465359488
  0
ARC
  5
1D50
330
1F
100
AcDbEntity
  8
SANINDUSA
100
AcDbCircle
 10
5003.598883504135
 20
3071.488158015579
 30
0.0
 40
0.0025906989828257
100
AcDbArc
 50
270.002921350366
 51
0.0
  0
ARC
  5
1D51
330
1F
100
AcDbEntity
  8
SANINDUSA
100
AcDbCircle
 10
5003.912892364051
 20
3071.49916371707
 30
0.0
 40
0.002589687889496
100
AcDbArc
 50
89.99044262305535
 51
179.9910953034135
  0
ARC
  5
1D53
330
1F
100
AcDbEntity
  8
SANINDUSA
100
AcDbCircle
 10
5003.663885118725
 20
3071.499163935563
 30
0.0
 40
0.0025895290392972
100
AcDbArc
 50
0.0
 51
90.01373166523839
  0
LWPOLYLINE
  5
1D56
330
1F
100
AcDbEntity
  8
SANINDUSA
100
AcDbPolyline
 90
        3
 70
   128
 43
0.0
 10
5003.91030315303
 20
3071.488166645356
 10
5003.910302795401
 20
3071.496164709517
 10
5003.910302676192
 20
3071.49916411955
  0
LWPOLYLINE
  5
1D57
330
1F
100
AcDbEntity
  8
SANINDUSA
100
AcDbPolyline
 90
        3
 70
   128
 43
0.0
 10
5003.666474647752
 20
3071.499164179155
 10
5003.666474290124
 20
3071.491166114994
 10
5003.666474170914
 20
3071.488166719862
  0
ARC
  5
1D59
330
1F
100
AcDbEntity
  8
SANINDUSA
100
AcDbCircle
 10
5003.858891976324
 20
3071.499169161138
 30
0.0
 40
0.0025902936830785
100
AcDbArc
 50
0.0
 51
90.00802069900592
  0
ARC
  5
1D64
330
1F
100
AcDbEntity
  8
SANINDUSA
100
AcDbCircle
 10
5003.717885581064
 20
3071.499168942535
 30
0.0
 40
0.0025905569653882
100
AcDbArc
 50
89.9978023040915
 51
179.988684190112
  0
LWPOLYLINE
  5
1D6F
330
1F
100
AcDbEntity
  8
SANINDUSA
100
AcDbPolyline
 90
        3
 70
   128
 43
0.0
 10
5003.847891248694
 20
3071.50176040847
 10
5003.855891235104
 20
3071.501759723016
 10
5003.858891613713
 20
3071.501759454795
  0
LWPOLYLINE
  5
1D71
330
1F
100
AcDbEntity
  8
SANINDUSA
100
AcDbPolyline
 90
        3
 70
   128
 43
0.0
 10
5003.717885680429
 20
3071.501759499498
 10
5003.725885666838
 20
3071.501760199853
 10
5003.72888607525
 20
3071.501760438272
  0
LWPOLYLINE
  5
1D73
330
1F
100
AcDbEntity
  8
SANINDUSA
100
AcDbPolyline
 90
        3
 70
   128
 43
0.0
 10
5003.861482269994
 20
3071.499169409462
 10
5003.861482538215
 20
3071.491171628424
 10
5003.861482657423
 20
3071.488172397204
  0
LWPOLYLINE
  5
1D76
330
1F
100
AcDbEntity
  8
SANINDUSA
100
AcDbPolyline
 90
        3
 70
   128
 43
0.0
 10
5003.71529466652
 20
3071.488172441908
 10
5003.715294934741
 20
3071.496170237848
 10
5003.715295024147
 20
3071.499169454166
  0
ARC
  5
1D77
330
1F
100
AcDbEntity
  8
SANINDUSA
100
AcDbCircle
 10
5003.847890846836
 20
3071.499170511648
 30
0.0
 40
0.0025898968524637
100
AcDbArc
 50
89.99110973794504
 51
179.9877916985679
  0
ARC
  5
1D79
330
1F
100
AcDbEntity
  8
SANINDUSA
100
AcDbCircle
 10
5003.728886710584
 20
3071.499170804818
 30
0.0
 40
0.0025896335318069
100
AcDbArc
 50
0.0
 51
90.01405683294512
  0
LINE
  5
1D7C
330
1F
100
AcDbEntity
  8
SANINDUSA
100
AcDbLine
 10
5003.845301277867
 20
3071.488174185344
 30
0.0
 11
5003.845300950041
 21
3071.499171063491
 31
0.0
  0
LWPOLYLINE
  5
1D7D
330
1F
100
AcDbEntity
  8
SANINDUSA
100
AcDbPolyline
 90
        3
 70
   128
 43
0.0
 10
5003.7314763441
 20
3071.499171093293
 10
5003.731476135484
 20
3071.491173386761
 10
5003.731476046077
 20
3071.488174215146
  0
ARC
  5
1D7F
330
1F
100
AcDbEntity
  8
SANINDUSA
100
AcDbCircle
 10
5003.923894413278
 20
3071.488164409622
 30
0.0
 40
0.0025896126889888
100
AcDbArc
 50
269.9887787440875
 51
0.0
  0
ARC
  5
1D82
330
1F
100
AcDbEntity
  8
SANINDUSA
100
AcDbCircle
 10
5003.652882755425
 20
3071.488164343751
 30
0.0
 40
0.0025894872365786
100
AcDbArc
 50
180.0
 51
270.0136675696783
  0
LWPOLYLINE
  5
1D83
330
1F
100
AcDbEntity
  8
SANINDUSA
100
AcDbPolyline
 90
        3
 70
   128
 43
0.0
 10
5003.923893906108
 20
3071.485574796983
 10
5003.915894009105
 20
3071.485575929471
 10
5003.91289380931
 20
3071.485576346704
  0
LWPOLYLINE
  5
1D86
330
1F
100
AcDbEntity
  8
SANINDUSA
100
AcDbPolyline
 90
        3
 70
   128
 43
0.0
 10
5003.663883484832
 20
3071.485576421209
 10
5003.655883543125
 20
3071.485575288721
 10
5003.652883373132
 20
3071.485574856588
  0
ARC
  5
1D87
330
1F
100
AcDbEntity
  8
SANINDUSA
100
AcDbCircle
 10
5003.912893680675
 20
3071.488166874356
 30
0.0
 40
0.0025905276561433
100
AcDbArc
 50
180.0
 51
270.0028450610217
  0
ARC
  5
1D88
330
1F
100
AcDbEntity
  8
SANINDUSA
100
AcDbCircle
 10
5003.663883438525
 20
3071.488167153635
 30
0.0
 40
0.0025907324265627
100
AcDbArc
 50
270.001024121916
 51
359.9904067972836
  0
ARC
  5
1D89
330
1F
100
AcDbEntity
  8
SANINDUSA
100
AcDbCircle
 10
5003.793889423231
 20
3071.499172879064
 30
0.0
 40
0.0025900179510148
100
AcDbArc
 50
0.0
 51
90.01148441246757
  0
ARC
  5
1D94
330
1F
100
AcDbEntity
  8
SANINDUSA
100
AcDbCircle
 10
5003.782888122182
 20
3071.499172657513
 30
0.0
 40
0.0025902394634297
100
AcDbArc
 50
89.99407465246997
 51
179.9868060079086
  0
LWPOLYLINE
  5
1D97
330
1F
100
AcDbEntity
  8
SANINDUSA
100
AcDbPolyline
 90
        3
 70
   128
 43
0.0
 10
5003.782888390055
 20
3071.501762896963
 10
5003.790888406268
 20
3071.501762911865
 10
5003.793888904086
 20
3071.501762896963
  0
LWPOLYLINE
  5
1D98
330
1F
100
AcDbEntity
  8
SANINDUSA
100
AcDbPolyline
 90
        3
 70
   128
 43
0.0
 10
5003.796479441157
 20
3071.499173239061
 10
5003.79647947096
 20
3071.491175651738
 10
5003.79647947096
 20
3071.48817656953
  0
LWPOLYLINE
  5
1D9B
330
1F
100
AcDbEntity
  8
SANINDUSA
100
AcDbPolyline
 90
        3
 70
   128
 43
0.0
 10
5003.780297852984
 20
3071.48817656953
 10
5003.780297882787
 20
3071.496174156853
 10
5003.780297882787
 20
3071.499173253962
  0
ARC
  5
1D9C
330
1F
100
AcDbEntity
  8
SANINDUSA
100
AcDbCircle
 10
5003.858892860905
 20
3071.488172938171
 30
0.0
 40
0.0025897965754063
100
AcDbArc
 50
269.9902096383103
 51
359.988031692136
  0
ARC
  5
1D9F
330
1F
100
AcDbEntity
  8
SANINDUSA
100
AcDbCircle
 10
5003.717884149647
 20
3071.488172669363
 30
0.0
 40
0.0025894831365367
100
AcDbArc
 50
180.0
 51
270.0167257615563
  0
LWPOLYLINE
  5
1DA0
330
1F
100
AcDbEntity
  8
SANINDUSA
100
AcDbPolyline
 90
        3
 70
   128
 43
0.0
 10
5003.858892418376
 20
3071.485583141633
 10
5003.850892431966
 20
3071.485583931395
 10
5003.847891934148
 20
3071.485584199616
  0
LWPOLYLINE
  5
1DA3
330
1F
100
AcDbEntity
  8
SANINDUSA
100
AcDbPolyline
 90
        3
 70
   128
 43
0.0
 10
5003.728885389796
 20
3071.485584244319
 10
5003.720885403386
 20
3071.48558348436
 10
5003.717884905569
 20
3071.485583186337
  0
ARC
  5
1DA4
330
1F
100
AcDbEntity
  8
SANINDUSA
100
AcDbCircle
 10
5003.847891571547
 20
3071.488174493288
 30
0.0
 40
0.0025902936974782
100
AcDbArc
 50
180.0
 51
270.0080205426753
  0
ARC
  5
1DA5
330
1F
100
AcDbEntity
  8
SANINDUSA
100
AcDbCircle
 10
5003.728885497523
 20
3071.488174792936
 30
0.0
 40
0.0025905486194909
100
AcDbArc
 50
269.997617417074
 51
359.9872208833299
  0
ARC
  5
1DA6
330
1F
100
AcDbEntity
  8
SANINDUSA
100
AcDbCircle
 10
5003.793889340187
 20
3071.488177146749
 30
0.0
 40
0.0025901308370881
100
AcDbArc
 50
269.9923308364604
 51
359.9872301850019
  0
ARC
  5
1DA9
330
1F
100
AcDbEntity
  8
SANINDUSA
100
AcDbCircle
 10
5003.782887674564
 20
3071.488176852347
 30
0.0
 40
0.0025898215942297
100
AcDbArc
 50
180.0
 51
270.0145105044271
  0
LWPOLYLINE
  5
1DAA
330
1F
100
AcDbEntity
  8
SANINDUSA
100
AcDbPolyline
 90
        3
 70
   128
 43
0.0
 10
5003.793888993493
 20
3071.485587015935
 10
5003.78588897728
 20
3071.485587045737
 10
5003.782888330452
 20
3071.485587030836
  0
ARC
  5
1DBA
330
1F
100
AcDbEntity
  8
SANINDUSA
100
AcDbCircle
 10
5003.988894860668
 20
3071.434163648364
 30
0.0
 40
0.0025906530161407
100
AcDbArc
 50
0.0
 51
89.99743586510875
  0
ARC
  5
1DC5
330
1F
100
AcDbEntity
  8
SANINDUSA
100
AcDbCircle
 10
5003.587882494336
 20
3071.434163676908
 30
0.0
 40
0.0025906989826103
100
AcDbArc
 50
90.00423968651778
 51
180.0
  0
LWPOLYLINE
  5
1DD0
330
1F
100
AcDbEntity
  8
SANINDUSA
100
AcDbPolyline
 90
        3
 70
   128
 43
0.0
 10
5003.977895237437
 20
3071.436756074616
 10
5003.985895134441
 20
3071.436754778215
 10
5003.988894976608
 20
3071.436754301377
  0
LWPOLYLINE
  5
1DD2
330
1F
100
AcDbEntity
  8
SANINDUSA
100
AcDbPolyline
 90
        3
 70
   128
 43
0.0
 10
5003.991485513679
 20
3071.434163823911
 10
5003.991485752097
 20
3071.42616523821
 10
5003.991485871306
 20
3071.42316548545
  0
LWPOLYLINE
  5
1DD4
330
1F
100
AcDbEntity
  8
SANINDUSA
100
AcDbPolyline
 90
        3
 70
   128
 43
0.0
 10
5003.587882302634
 20
3071.436754375883
 10
5003.595882199636
 20
3071.436755672284
 10
5003.598882026903
 20
3071.436756164022
  0
LWPOLYLINE
  5
1DD7
330
1F
100
AcDbEntity
  8
SANINDUSA
100
AcDbPolyline
 90
        3
 70
   128
 43
0.0
 10
5003.585291437737
 20
3071.423165574857
 10
5003.585291691056
 20
3071.431164160558
 10
5003.585291795364
 20
3071.434163913318
  0
ARC
  5
1DDC
330
1F
100
AcDbEntity
  8
SANINDUSA
100
AcDbCircle
 10
5003.977894756424
 20
3071.434166495432
 30
0.0
 40
0.0025895792275225
100
AcDbArc
 50
89.9893573237402
 51
180.0
  0
ARC
  5
1DDE
330
1F
100
AcDbEntity
  8
SANINDUSA
100
AcDbCircle
 10
5003.59888262794
 20
3071.43416666019
 30
0.0
 40
0.0025895039021455
100
AcDbArc
 50
0.0
 51
90.01329868150831
  0
LWPOLYLINE
  5
1DE1
330
1F
100
AcDbEntity
  8
SANINDUSA
100
AcDbPolyline
 90
        3
 70
   128
 43
0.0
 10
5003.975305534831
 20
3071.423168450781
 10
5003.975305296412
 20
3071.431166961976
 10
5003.975305177203
 20
3071.434166684934
  0
LWPOLYLINE
  5
1DE2
330
1F
100
AcDbEntity
  8
SANINDUSA
100
AcDbPolyline
 90
        3
 70
   128
 43
0.0
 10
5003.60147213184
 20
3071.434166774341
 10
5003.601471833817
 20
3071.426168263146
 10
5003.601471729508
 20
3071.423168540188
  0
ARC
  5
1DFC
330
1F
100
AcDbEntity
  8
SANINDUSA
100
AcDbCircle
 10
5003.988896208525
 20
3071.423165698914
 30
0.0
 40
0.0025896627908886
100
AcDbArc
 50
269.9898877014417
 51
0.0
  0
ARC
  5
1DFF
330
1F
100
AcDbEntity
  8
SANINDUSA
100
AcDbCircle
 10
5003.587880954154
 20
3071.423165641922
 30
0.0
 40
0.0025895164185926
100
AcDbArc
 50
180.0
 51
270.0130216115223
  0
LWPOLYLINE
  5
1E02
330
1F
100
AcDbEntity
  8
SANINDUSA
100
AcDbPolyline
 90
        3
 70
   128
 43
0.0
 10
5003.988895751468
 20
3071.420576036163
 10
5003.980895854464
 20
3071.420577392169
 10
5003.977896071902
 20
3071.42057791371
  0
LWPOLYLINE
  5
1E05
330
1F
100
AcDbEntity
  8
SANINDUSA
100
AcDbPolyline
 90
        3
 70
   128
 43
0.0
 10
5003.598881207338
 20
3071.420578003117
 10
5003.590881340137
 20
3071.42057663221
 10
5003.587881542674
 20
3071.42057612557
  0
ARC
  5
1E10
330
1F
100
AcDbEntity
  8
SANINDUSA
100
AcDbCircle
 10
5003.977896250532
 20
3071.42316862941
 30
0.0
 40
0.0025907157063495
100
AcDbArc
 50
180.0
 51
269.9960494730251
  0
ARC
  5
1E11
330
1F
100
AcDbEntity
  8
SANINDUSA
100
AcDbCircle
 10
5003.598880909349
 20
3071.423168823275
 30
0.0
 40
0.0025908201755194
100
AcDbArc
 50
270.0065900132364
 51
0.0
  0
ARC
  5
1E28
330
1F
100
AcDbEntity
  8
SANINDUSA
100
AcDbCircle
 10
5003.92389588775
 20
3071.434175193284
 30
0.0
 40
0.0025905819882367
100
AcDbArc
 50
0.0
 51
90.0016431390755
  0
ARC
  5
1E33
330
1F
100
AcDbEntity
  8
SANINDUSA
100
AcDbCircle
 10
5003.652881654697
 20
3071.434175019468
 30
0.0
 40
0.002590845217048
100
AcDbArc
 50
90.00417772748077
 51
180.0
  0
LWPOLYLINE
  5
1E3E
330
1F
100
AcDbEntity
  8
SANINDUSA
100
AcDbPolyline
 90
        3
 70
   128
 43
0.0
 10
5003.912895746461
 20
3071.436767846533
 10
5003.920895613662
 20
3071.436766341516
 10
5003.923895813457
 20
3071.436765775271
  0
LWPOLYLINE
  5
1E40
330
1F
100
AcDbEntity
  8
SANINDUSA
100
AcDbPolyline
 90
        3
 70
   128
 43
0.0
 10
5003.926486469737
 20
3071.434175282904
 10
5003.926486886969
 20
3071.426177025028
 10
5003.926487006179
 20
3071.423177465983
  0
LWPOLYLINE
  5
1E42
330
1F
100
AcDbEntity
  8
SANINDUSA
100
AcDbPolyline
 90
        3
 70
   128
 43
0.0
 10
5003.652881465784
 20
3071.436765864679
 10
5003.660881332985
 20
3071.436767369696
 10
5003.663881577484
 20
3071.436767921039
  0
LWPOLYLINE
  5
1E45
330
1F
100
AcDbEntity
  8
SANINDUSA
100
AcDbPolyline
 90
        3
 70
   128
 43
0.0
 10
5003.650290287963
 20
3071.423177570292
 10
5003.650290660492
 20
3071.431175828167
 10
5003.650290809503
 20
3071.434175372311
  0
ARC
  5
1E4C
330
1F
100
AcDbEntity
  8
SANINDUSA
100
AcDbCircle
 10
5003.912895214231
 20
3071.434178258945
 30
0.0
 40
0.0025895876422992
100
AcDbArc
 50
89.98822413513504
 51
179.9906755556858
  0
ARC
  5
1E4E
330
1F
100
AcDbEntity
  8
SANINDUSA
100
AcDbCircle
 10
5003.663882305622
 20
3071.434178559234
 30
0.0
 40
0.0025893619066942
100
AcDbArc
 50
0.0
 51
90.01611179905976
  0
LWPOLYLINE
  5
1E51
330
1F
100
AcDbEntity
  8
SANINDUSA
100
AcDbPolyline
 90
        3
 70
   128
 43
0.0
 10
5003.910306163064
 20
3071.423181042262
 10
5003.910305775633
 20
3071.43117919583
 10
5003.910305626622
 20
3071.434178680369
  0
LWPOLYLINE
  5
1E52
330
1F
100
AcDbEntity
  8
SANINDUSA
100
AcDbPolyline
 90
        3
 70
   128
 43
0.0
 10
5003.66647166752
 20
3071.434178769776
 10
5003.666471280089
 20
3071.426180616208
 10
5003.666471131078
 20
3071.423181131669
  0
ARC
  5
1E67
330
1F
100
AcDbEntity
  8
SANINDUSA
100
AcDbCircle
 10
5003.923897527203
 20
3071.423177778749
 30
0.0
 40
0.0025894789957425
100
AcDbArc
 50
269.9871388879198
 51
0.0
  0
ARC
  5
1E6A
330
1F
100
AcDbEntity
  8
SANINDUSA
100
AcDbCircle
 10
5003.652879587187
 20
3071.423177703238
 30
0.0
 40
0.0025892992269853
100
AcDbArc
 50
180.0
 51
270.017169323665
  0
LWPOLYLINE
  5
1E6B
330
1F
100
AcDbEntity
  8
SANINDUSA
100
AcDbPolyline
 90
        3
 70
   128
 43
0.0
 10
5003.923896945945
 20
3071.420588299819
 10
5003.915897108546
 20
3071.420589924045
 10
5003.912896849147
 20
3071.420590534993
  0
LWPOLYLINE
  5
1E6E
330
1F
100
AcDbEntity
  8
SANINDUSA
100
AcDbPolyline
 90
        3
 70
   128
 43
0.0
 10
5003.663880444995
 20
3071.4205906244
 10
5003.655880607596
 20
3071.420589000174
 10
5003.652880363098
 20
3071.420588404127
  0
ARC
  5
1E73
330
1F
100
AcDbEntity
  8
SANINDUSA
100
AcDbCircle
 10
5003.912896920554
 20
3071.423181292494
 30
0.0
 40
0.0025907575019329
100
AcDbArc
 50
180.0
 51
269.9984208001496
  0
ARC
  5
1E74
330
1F
100
AcDbEntity
  8
SANINDUSA
100
AcDbCircle
 10
5003.663880198132
 20
3071.42318155737
 30
0.0
 40
0.0025909329815309
100
AcDbArc
 50
270.0054591174971
 51
359.9905851965865
  0
ARC
  5
1E79
330
1F
100
AcDbEntity
  8
SANINDUSA
100
AcDbCircle
 10
5003.858894181377
 20
3071.434186552841
 30
0.0
 40
0.0025905026207465
100
AcDbArc
 50
0.0
 51
90.00537636648735
  0
ARC
  5
1E84
330
1F
100
AcDbEntity
  8
SANINDUSA
100
AcDbCircle
 10
5003.717883397413
 20
3071.434186357549
 30
0.0
 40
0.0025907575058241
100
AcDbArc
 50
90.00026013415778
 51
179.9882045156368
  0
LWPOLYLINE
  5
1E8F
330
1F
100
AcDbEntity
  8
SANINDUSA
100
AcDbPolyline
 90
        3
 70
   128
 43
0.0
 10
5003.847893305055
 20
3071.436778545566
 10
5003.85589323186
 20
3071.436777487584
 10
5003.858893938295
 20
3071.43677705545
  0
LWPOLYLINE
  5
1E91
330
1F
100
AcDbEntity
  8
SANINDUSA
100
AcDbPolyline
 90
        3
 70
   128
 43
0.0
 10
5003.71788338565
 20
3071.436777115055
 10
5003.725883312455
 20
3071.436778217741
 10
5003.728884018889
 20
3071.43677859027
  0
LWPOLYLINE
  5
1E93
330
1F
100
AcDbEntity
  8
SANINDUSA
100
AcDbPolyline
 90
        3
 70
   128
 43
0.0
 10
5003.861484683982
 20
3071.434186831304
 10
5003.861485011807
 20
3071.426188990661
 10
5003.861485131017
 20
3071.423189714738
  0
LWPOLYLINE
  5
1E96
330
1F
100
AcDbEntity
  8
SANINDUSA
100
AcDbPolyline
 90
        3
 70
   128
 43
0.0
 10
5003.715292192928
 20
3071.423189789244
 10
5003.715292520753
 20
3071.431187629887
 10
5003.715292639962
 20
3071.434186890908
  0
ARC
  5
1E97
330
1F
100
AcDbEntity
  8
SANINDUSA
100
AcDbCircle
 10
5003.84789277316
 20
3071.434188748994
 30
0.0
 40
0.0025897966267114
100
AcDbArc
 50
89.98823252487833
 51
179.987042067156
  0
ARC
  5
1E99
330
1F
100
AcDbEntity
  8
SANINDUSA
100
AcDbCircle
 10
5003.728884797348
 20
3071.434189040368
 30
0.0
 40
0.0025895500186591
100
AcDbArc
 50
0.0
 51
90.01722398727846
  0
LWPOLYLINE
  5
1E9C
330
1F
100
AcDbEntity
  8
SANINDUSA
100
AcDbPolyline
 90
        3
 70
   128
 43
0.0
 10
5003.845303393832
 20
3071.423192382046
 10
5003.845303095808
 20
3071.431190133282
 10
5003.8453029766
 20
3071.434189334699
  0
LWPOLYLINE
  5
1E9D
330
1F
100
AcDbEntity
  8
SANINDUSA
100
AcDbPolyline
 90
        3
 70
   128
 43
0.0
 10
5003.731474347344
 20
3071.434189379402
 10
5003.731474049321
 20
3071.426191643067
 10
5003.731473959914
 20
3071.423192441651
  0
ARC
  5
1F82
330
1F
100
AcDbEntity
  8
SANINDUSA
100
AcDbCircle
 10
5003.793889771346
 20
3071.4341925415
 30
0.0
 40
0.0025899678519823
100
AcDbArc
 50
0.0
 51
90.01391134123627
  0
ARC
  5
1F8D
330
1F
100
AcDbEntity
  8
SANINDUSA
100
AcDbCircle
 10
5003.782887891027
 20
3071.434192217856
 30
0.0
 40
0.0025903063406114
100
AcDbArc
 50
89.99291707630444
 51
179.985987043855
  0
LWPOLYLINE
  5
1F90
330
1F
100
AcDbEntity
  8
SANINDUSA
100
AcDbPolyline
 90
        3
 70
   128
 43
0.0
 10
5003.782888211242
 20
3071.436782524177
 10
5003.790888197652
 20
3071.436782539078
 10
5003.793889142505
 20
3071.436782509275
  0
LWPOLYLINE
  5
1F91
330
1F
100
AcDbEntity
  8
SANINDUSA
100
AcDbPolyline
 90
        3
 70
   128
 43
0.0
 10
5003.796479739181
 20
3071.434192836472
 10
5003.796479798785
 20
3071.426195249149
 10
5003.796479798785
 20
3071.42319615204
  0
LWPOLYLINE
  5
1F94
330
1F
100
AcDbEntity
  8
SANINDUSA
100
AcDbPolyline
 90
        3
 70
   128
 43
0.0
 10
5003.780297525159
 20
3071.423196166941
 10
5003.780297584763
 20
3071.431193754264
 10
5003.780297584763
 20
3071.434192851373
  0
ARC
  5
1F95
330
1F
100
AcDbEntity
  8
SANINDUSA
100
AcDbCircle
 10
5003.858895551694
 20
3071.423190187461
 30
0.0
 40
0.0025895793666911
100
AcDbArc
 50
269.9854032531751
 51
359.9895401002913
  0
ARC
  5
1F98
330
1F
100
AcDbEntity
  8
SANINDUSA
100
AcDbCircle
 10
5003.717881571628
 20
3071.423190046352
 30
0.0
 40
0.0025893787116372
100
AcDbArc
 50
180.0
 51
270.0190371620532
  0
LWPOLYLINE
  5
1F99
330
1F
100
AcDbEntity
  8
SANINDUSA
100
AcDbPolyline
 90
        3
 70
   128
 43
0.0
 10
5003.858894891969
 20
3071.420600608178
 10
5003.850894965164
 20
3071.420601815172
 10
5003.84789413952
 20
3071.420602247306
  0
LWPOLYLINE
  5
1F9C
330
1F
100
AcDbEntity
  8
SANINDUSA
100
AcDbPolyline
 90
        3
 70
   128
 43
0.0
 10
5003.728883184424
 20
3071.420602306911
 10
5003.720883257619
 20
3071.420601129719
 10
5003.717882431975
 20
3071.420600667783
  0
ARC
  5
1F9D
330
1F
100
AcDbEntity
  8
SANINDUSA
100
AcDbCircle
 10
5003.847893808708
 20
3071.423192662175
 30
0.0
 40
0.0025904148907181
100
AcDbArc
 50
180.0
 51
270.0073170027508
  0
ARC
  5
1F9E
330
1F
100
AcDbEntity
  8
SANINDUSA
100
AcDbCircle
 10
5003.728883202455
 20
3071.423193064444
 30
0.0
 40
0.0025907575338762
100
AcDbArc
 50
269.9996012526891
 51
359.9862266205414
  0
ARC
  5
1FA3
330
1F
100
AcDbEntity
  8
SANINDUSA
100
AcDbCircle
 10
5003.793889634561
 20
3071.423196807425
 30
0.0
 40
0.0025901643077402
100
AcDbArc
 50
269.9910932190093
 51
359.9855025231311
  0
ARC
  5
1FA6
330
1F
100
AcDbEntity
  8
SANINDUSA
100
AcDbCircle
 10
5003.78288738439
 20
3071.423196502303
 30
0.0
 40
0.0025898592523685
100
AcDbArc
 50
180.0
 51
270.015655261517
  0
LWPOLYLINE
  5
1FA7
330
1F
100
AcDbEntity
  8
SANINDUSA
100
AcDbPolyline
 90
        3
 70
   128
 43
0.0
 10
5003.793889231912
 20
3071.420606643148
 10
5003.785889245501
 20
3071.420606687852
 10
5003.782888092032
 20
3071.420606643148
  0
ARC
  5
1FAC
330
1F
100
AcDbEntity
  8
SANINDUSA
100
AcDbCircle
 10
5003.988896755448
 20
3071.369173472956
 30
0.0
 40
0.0025906655841077
100
AcDbArc
 50
0.0
 51
89.99452139328273
  0
ARC
  5
1FB7
330
1F
100
AcDbEntity
  8
SANINDUSA
100
AcDbCircle
 10
5003.587880609168
 20
3071.36917346209
 30
0.0
 40
0.0025907658680023
100
AcDbArc
 50
90.00769600029641
 51
180.0
  0
LWPOLYLINE
  5
1FC2
330
1F
100
AcDbEntity
  8
SANINDUSA
100
AcDbPolyline
 90
        3
 70
   128
 43
0.0
 10
5003.977897502414
 20
3071.371766284296
 10
5003.985897280208
 20
3071.371764704772
 10
5003.988897003165
 20
3071.371764138528
  0
LWPOLYLINE
  5
1FC4
330
1F
100
AcDbEntity
  8
SANINDUSA
100
AcDbPolyline
 90
        3
 70
   128
 43
0.0
 10
5003.991487421028
 20
3071.369173601457
 10
5003.991487599841
 20
3071.361174985954
 10
5003.991487719051
 20
3071.358175322601
  0
LWPOLYLINE
  5
1FC6
330
1F
100
AcDbEntity
  8
SANINDUSA
100
AcDbPolyline
 90
        3
 70
   128
 43
0.0
 10
5003.587880261174
 20
3071.371764227935
 10
5003.595880083672
 20
3071.371765777656
 10
5003.598879791728
 20
3071.371766373702
  0
LWPOLYLINE
  5
1FC9
330
1F
100
AcDbEntity
  8
SANINDUSA
100
AcDbPolyline
 90
        3
 70
   128
 43
0.0
 10
5003.585289560191
 20
3071.35817544181
 10
5003.585289768807
 20
3071.366174057313
 10
5003.585289843312
 20
3071.369173720666
  0
ARC
  5
1FCC
330
1F
100
AcDbEntity
  8
SANINDUSA
100
AcDbCircle
 10
5003.977896894992
 20
3071.369176771944
 30
0.0
 40
0.0025895124222405
100
AcDbArc
 50
89.98656015193624
 51
180.0
  0
ARC
  5
1FCE
330
1F
100
AcDbEntity
  8
SANINDUSA
100
AcDbCircle
 10
5003.598880511575
 20
3071.369177003612
 30
0.0
 40
0.0025893701898791
100
AcDbArc
 50
0.0
 51
90.01592826690018
  0
LWPOLYLINE
  5
1FD1
330
1F
100
AcDbEntity
  8
SANINDUSA
100
AcDbPolyline
 90
        3
 70
   128
 43
0.0
 10
5003.975307740203
 20
3071.358178720065
 10
5003.975307501784
 20
3071.366177305766
 10
5003.975307382575
 20
3071.369176939317
  0
LWPOLYLINE
  5
1FD2
330
1F
100
AcDbEntity
  8
SANINDUSA
100
AcDbPolyline
 90
        3
 70
   128
 43
0.0
 10
5003.601469881765
 20
3071.369177058526
 10
5003.601469643346
 20
3071.361178502627
 10
5003.601469539038
 20
3071.358178839274
  0
ARC
  5
1FD8
330
1F
100
AcDbEntity
  8
SANINDUSA
100
AcDbCircle
 10
5003.988898206635
 20
3071.358175460168
 30
0.0
 40
0.0025895124197235
100
AcDbArc
 50
269.986560099826
 51
0.0
  0
ARC
  5
1FDB
330
1F
100
AcDbEntity
  8
SANINDUSA
100
AcDbCircle
 10
5003.587879005575
 20
3071.358175482523
 30
0.0
 40
0.0025894453844067
100
AcDbArc
 50
180.0
 51
270.0149234257275
  0
LWPOLYLINE
  5
1FDD
330
1F
100
AcDbEntity
  8
SANINDUSA
100
AcDbPolyline
 90
        3
 70
   128
 43
0.0
 10
5003.988897599212
 20
3071.35558594782
 10
5003.980897761813
 20
3071.355587527343
 10
5003.977898158065
 20
3071.355588153192
  0
LWPOLYLINE
  5
1FE1
330
1F
100
AcDbEntity
  8
SANINDUSA
100
AcDbPolyline
 90
        3
 70
   128
 43
0.0
 10
5003.598879136077
 20
3071.355588272401
 10
5003.590879343382
 20
3071.355586633274
 10
5003.587879680029
 20
3071.355586037227
  0
ARC
  5
1FE6
330
1F
100
AcDbEntity
  8
SANINDUSA
100
AcDbCircle
 10
5003.97789844758
 20
3071.358178860555
 30
0.0
 40
0.0025907073799648
100
AcDbArc
 50
180.0
 51
269.9935971145219
  0
ARC
  5
1FE7
330
1F
100
AcDbEntity
  8
SANINDUSA
100
AcDbCircle
 10
5003.598878727214
 20
3071.358179084203
 30
0.0
 40
0.0025908118349378
100
AcDbArc
 50
270.0090420069826
 51
0.0
  0
ARC
  5
1FEE
330
1F
100
AcDbEntity
  8
SANINDUSA
100
AcDbCircle
 10
5003.923898644503
 20
3071.369187638182
 30
0.0
 40
0.002590924690503
100
AcDbArc
 50
0.0
 51
89.99274657170227
  0
ARC
  5
2001
330
1F
100
AcDbEntity
  8
SANINDUSA
100
AcDbCircle
 10
5003.652878752215
 20
3071.369187669718
 30
0.0
 40
0.0025910123745817
100
AcDbArc
 50
90.00886238309407
 51
180.0
  0
LWPOLYLINE
  5
2004
330
1F
100
AcDbEntity
  8
SANINDUSA
100
AcDbPolyline
 90
        3
 70
   128
 43
0.0
 10
5003.912898935309
 20
3071.371781304666
 10
5003.920898653499
 20
3071.37177930791
 10
5003.923898972503
 20
3071.371778562852
  0
LWPOLYLINE
  5
2006
330
1F
100
AcDbEntity
  8
SANINDUSA
100
AcDbPolyline
 90
        3
 70
   128
 43
0.0
 10
5003.926489569178
 20
3071.369187906571
 10
5003.926489926806
 20
3071.361189559289
 10
5003.926490046016
 20
3071.358190044948
  0
LWPOLYLINE
  5
2008
330
1F
100
AcDbEntity
  8
SANINDUSA
100
AcDbPolyline
 90
        3
 70
   128
 43
0.0
 10
5003.652878351442
 20
3071.371778682062
 10
5003.660878099433
 20
3071.371780678817
 10
5003.663878358832
 20
3071.371781423875
  0
LWPOLYLINE
  5
200B
330
1F
100
AcDbEntity
  8
SANINDUSA
100
AcDbPolyline
 90
        3
 70
   128
 43
0.0
 10
5003.650287233225
 20
3071.358190164157
 10
5003.650287605754
 20
3071.36618851144
 10
5003.650287739865
 20
3071.369188025781
  0
ARC
  5
2014
330
1F
100
AcDbEntity
  8
SANINDUSA
100
AcDbCircle
 10
5003.912898212051
 20
3071.369191967772
 30
0.0
 40
0.0025893369952797
100
AcDbArc
 50
89.98399601696343
 51
180.0
  0
ARC
  5
2016
330
1F
100
AcDbEntity
  8
SANINDUSA
100
AcDbCircle
 10
5003.663879254068
 20
3071.369192229222
 30
0.0
 40
0.0025891948068589
100
AcDbArc
 50
0.0
 51
90.0198104775824
  0
LWPOLYLINE
  5
2019
330
1F
100
AcDbEntity
  8
SANINDUSA
100
AcDbPolyline
 90
        3
 70
   128
 43
0.0
 10
5003.910309411517
 20
3071.358194574901
 10
5003.910309024087
 20
3071.366192802974
 10
5003.910308875076
 20
3071.369192287513
  0
LWPOLYLINE
  5
201A
330
1F
100
AcDbEntity
  8
SANINDUSA
100
AcDbPolyline
 90
        3
 70
   128
 43
0.0
 10
5003.666468448869
 20
3071.369192406722
 10
5003.666468031636
 20
3071.361194178649
 10
5003.666467882625
 20
3071.358194664308
  0
ARC
  5
2022
330
1F
100
AcDbEntity
  8
SANINDUSA
100
AcDbCircle
 10
5003.923900817623
 20
3071.358190226258
 30
0.0
 40
0.002589228399276
100
AcDbArc
 50
269.9815925898438
 51
0.0
  0
ARC
  5
2025
330
1F
100
AcDbEntity
  8
SANINDUSA
100
AcDbCircle
 10
5003.652876377866
 20
3071.358190261682
 30
0.0
 40
0.0025891446424278
100
AcDbArc
 50
180.0
 51
270.0202613872384
  0
LWPOLYLINE
  5
2026
330
1F
100
AcDbEntity
  8
SANINDUSA
100
AcDbPolyline
 90
        3
 70
   128
 43
0.0
 10
5003.923899985782
 20
3071.355600997993
 10
5003.915900327196
 20
3071.355603084156
 10
5003.912900067797
 20
3071.355603888818
  0
LWPOLYLINE
  5
2029
330
1F
100
AcDbEntity
  8
SANINDUSA
100
AcDbPolyline
 90
        3
 70
   128
 43
0.0
 10
5003.663877256147
 20
3071.355603978225
 10
5003.655877552859
 20
3071.355601892062
 10
5003.652877293458
 20
3071.355601117202
  0
ARC
  5
2030
330
1F
100
AcDbEntity
  8
SANINDUSA
100
AcDbCircle
 10
5003.91290035291
 20
3071.358194830207
 30
0.0
 40
0.0025909414051659
100
AcDbArc
 50
180.0
 51
269.9936950817122
  0
ARC
  5
2031
330
1F
100
AcDbEntity
  8
SANINDUSA
100
AcDbCircle
 10
5003.663876757452
 20
3071.358195103386
 30
0.0
 40
0.0025911252096656
100
AcDbArc
 50
270.0110273017121
 51
359.9902907739073
  0
ARC
  5
2042
330
1F
100
AcDbEntity
  8
SANINDUSA
100
AcDbCircle
 10
5003.85889687217
 20
3071.369203357406
 30
0.0
 40
0.0025907324580139
100
AcDbArc
 50
0.0
 51
90.00227028542804
  0
ARC
  5
2045
330
1F
100
AcDbEntity
  8
SANINDUSA
100
AcDbCircle
 10
5003.717880710743
 20
3071.369203187809
 30
0.0
 40
0.0025909914649675
100
AcDbArc
 50
90.00345662642208
 51
179.9879746835698
  0
LWPOLYLINE
  5
2050
330
1F
100
AcDbEntity
  8
SANINDUSA
100
AcDbPolyline
 90
        3
 70
   128
 43
0.0
 10
5003.847895838251
 20
3071.371796265431
 10
5003.855895705453
 20
3071.371794715711
 10
5003.858896769514
 20
3071.371794089862
  0
LWPOLYLINE
  5
2052
330
1F
100
AcDbEntity
  8
SANINDUSA
100
AcDbPolyline
 90
        3
 70
   128
 43
0.0
 10
5003.717880554429
 20
3071.371794179269
 10
5003.725880391828
 20
3071.371795758792
 10
5003.728881485692
 20
3071.371796325036
  0
LWPOLYLINE
  5
2054
330
1F
100
AcDbEntity
  8
SANINDUSA
100
AcDbPolyline
 90
        3
 70
   128
 43
0.0
 10
5003.861487604609
 20
3071.369203672
 10
5003.86148799204
 20
3071.361205771752
 10
5003.861488141051
 20
3071.358206466027
  0
LWPOLYLINE
  5
2057
330
1F
100
AcDbEntity
  8
SANINDUSA
100
AcDbPolyline
 90
        3
 70
   128
 43
0.0
 10
5003.715289182893
 20
3071.358206555434
 10
5003.715289570322
 20
3071.366204455682
 10
5003.715289719334
 20
3071.369203731605
  0
ARC
  5
2058
330
1F
100
AcDbEntity
  8
SANINDUSA
100
AcDbCircle
 10
5003.847895185792
 20
3071.369206619253
 30
0.0
 40
0.0025896462606615
100
AcDbArc
 50
89.98556432583569
 51
179.9867422250038
  0
ARC
  5
205A
330
1F
100
AcDbEntity
  8
SANINDUSA
100
AcDbCircle
 10
5003.72888246044
 20
3071.369206971494
 30
0.0
 40
0.0025893537251845
100
AcDbArc
 50
0.0
 51
90.02156867610816
  0
LWPOLYLINE
  5
205F
330
1F
100
AcDbEntity
  8
SANINDUSA
100
AcDbPolyline
 90
        3
 70
   128
 43
0.0
 10
5003.845306016437
 20
3071.358210191318
 10
5003.845305658809
 20
3071.366207972356
 10
5003.845305539599
 20
3071.369207218476
  0
LWPOLYLINE
  5
2060
330
1F
100
AcDbEntity
  8
SANINDUSA
100
AcDbPolyline
 90
        3
 70
   128
 43
0.0
 10
5003.731471814147
 20
3071.369207278081
 10
5003.731471456519
 20
3071.361209497043
 10
5003.731471307507
 20
3071.358210250922
  0
ARC
  5
206A
330
1F
100
AcDbEntity
  8
SANINDUSA
100
AcDbCircle
 10
5003.988898203734
 20
3071.304184639194
 30
0.0
 40
0.0025907074231953
100
AcDbArc
 50
0.0
 51
89.99095997320528
  0
ARC
  5
2075
330
1F
100
AcDbEntity
  8
SANINDUSA
100
AcDbCircle
 10
5003.58787910234
 20
3071.304184686866
 30
0.0
 40
0.0025907491602922
100
AcDbArc
 50
90.00930375655768
 51
180.0
  0
LWPOLYLINE
  5
2080
330
1F
100
AcDbEntity
  8
SANINDUSA
100
AcDbPolyline
 90
        3
 70
   128
 43
0.0
 10
5003.977899230949
 20
3071.306777730771
 10
5003.985899008743
 20
3071.306775972434
 10
5003.98889861249
 20
3071.306775346585
  0
LWPOLYLINE
  5
2082
330
1F
100
AcDbEntity
  8
SANINDUSA
100
AcDbPolyline
 90
        3
 70
   128
 43
0.0
 10
5003.991488911143
 20
3071.304184898921
 10
5003.991489089957
 20
3071.296186372825
 10
5003.991489149562
 20
3071.293187186309
  0
LWPOLYLINE
  5
2084
330
1F
100
AcDbEntity
  8
SANINDUSA
100
AcDbPolyline
 90
        3
 70
   128
 43
0.0
 10
5003.587878681651
 20
3071.306775435993
 10
5003.595878429642
 20
3071.30677719433
 10
5003.598878033391
 20
3071.306777849981
  0
LWPOLYLINE
  5
2087
330
1F
100
AcDbEntity
  8
SANINDUSA
100
AcDbPolyline
 90
        3
 70
   128
 43
0.0
 10
5003.585288129679
 20
3071.293187275716
 10
5003.585288293591
 20
3071.30118577201
 10
5003.585288353196
 20
3071.304184988328
  0
ARC
  5
2088
330
1F
100
AcDbEntity
  8
SANINDUSA
100
AcDbCircle
 10
5003.793890109146
 20
3071.369212089285
 30
0.0
 40
0.0025900472904904
100
AcDbArc
 50
0.0
 51
90.01479085735637
  0
ARC
  5
2093
330
1F
100
AcDbEntity
  8
SANINDUSA
100
AcDbCircle
 10
5003.782887595511
 20
3071.369211738237
 30
0.0
 40
0.0025903982711914
100
AcDbArc
 50
89.99297278211626
 51
179.984613340561
  0
LWPOLYLINE
  5
2096
330
1F
100
AcDbEntity
  8
SANINDUSA
100
AcDbPolyline
 90
        3
 70
   128
 43
0.0
 10
5003.782887913218
 20
3071.371802136489
 10
5003.790887929431
 20
3071.371802166292
 10
5003.793889440528
 20
3071.371802136489
  0
ARC
  5
2097
330
1F
100
AcDbEntity
  8
SANINDUSA
100
AcDbCircle
 10
5003.858898737147
 20
3071.358206942105
 30
0.0
 40
0.0025894039484241
100
AcDbArc
 50
269.9821801845764
 51
359.9894657390259
  0
ARC
  5
209A
330
1F
100
AcDbEntity
  8
SANINDUSA
100
AcDbCircle
 10
5003.717878369471
 20
3071.358206784259
 30
0.0
 40
0.0025891865874953
100
AcDbArc
 50
180.0
 51
270.0232899806287
  0
LWPOLYLINE
  5
209B
330
1F
100
AcDbEntity
  8
SANINDUSA
100
AcDbPolyline
 90
        3
 70
   128
 43
0.0
 10
5003.796480156413
 20
3071.369212433883
 10
5003.796480216017
 20
3071.361214831659
 10
5003.796480216017
 20
3071.35821573455
  0
LWPOLYLINE
  5
209E
330
1F
100
AcDbEntity
  8
SANINDUSA
100
AcDbPolyline
 90
        3
 70
   128
 43
0.0
 10
5003.780297107926
 20
3071.358215764352
 10
5003.780297167531
 20
3071.366213336774
 10
5003.780297197334
 20
3071.369212433883
  0
LWPOLYLINE
  5
209F
330
1F
100
AcDbEntity
  8
SANINDUSA
100
AcDbPolyline
 90
        3
 70
   128
 43
0.0
 10
5003.858897931806
 20
3071.355617538282
 10
5003.850898094407
 20
3071.355619237014
 10
5003.847896911135
 20
3071.355619862863
  0
LWPOLYLINE
  5
20A2
330
1F
100
AcDbEntity
  8
SANINDUSA
100
AcDbPolyline
 90
        3
 70
   128
 43
0.0
 10
5003.728880442611
 20
3071.355619922468
 10
5003.720880605212
 20
3071.355618253537
 10
5003.717879421941
 20
3071.355617597886
  0
ARC
  5
20A5
330
1F
100
AcDbEntity
  8
SANINDUSA
100
AcDbCircle
 10
5003.977898489876
 20
3071.304188352105
 30
0.0
 40
0.0025893787719236
100
AcDbArc
 50
89.98360211588078
 51
180.0
  0
ARC
  5
20A7
330
1F
100
AcDbEntity
  8
SANINDUSA
100
AcDbCircle
 10
5003.598878893459
 20
3071.304188605253
 30
0.0
 40
0.0025892448699868
100
AcDbArc
 50
0.0
 51
90.01903189892248
  0
LWPOLYLINE
  5
20AA
330
1F
100
AcDbEntity
  8
SANINDUSA
100
AcDbPolyline
 90
        3
 70
   128
 43
0.0
 10
5003.975309349528
 20
3071.293190881797
 10
5003.97530923032
 20
3071.301189318486
 10
5003.975309111109
 20
3071.304188534805
  0
ARC
  5
20AB
330
1F
100
AcDbEntity
  8
SANINDUSA
100
AcDbCircle
 10
5003.847896682039
 20
3071.358210528476
 30
0.0
 40
0.002590665623798
100
AcDbArc
 50
180.0
 51
270.0050667797411
  0
LWPOLYLINE
  5
20AC
330
1F
100
AcDbEntity
  8
SANINDUSA
100
AcDbPolyline
 90
        3
 70
   128
 43
0.0
 10
5003.601468138328
 20
3071.304188654014
 10
5003.601467959515
 20
3071.296190187522
 10
5003.60146789991
 20
3071.293191001006
  0
ARC
  5
20AE
330
1F
100
AcDbEntity
  8
SANINDUSA
100
AcDbCircle
 10
5003.728880291042
 20
3071.35821093902
 30
0.0
 40
0.0025910165575516
100
AcDbArc
 50
270.0033516764636
 51
359.9847839233344
  0
ARC
  5
20B3
330
1F
100
AcDbEntity
  8
SANINDUSA
100
AcDbCircle
 10
5003.988899703971
 20
3071.293187406052
 30
0.0
 40
0.0025894456007057
100
AcDbArc
 50
269.9850811599705
 51
0.0
  0
ARC
  5
20B6
330
1F
100
AcDbEntity
  8
SANINDUSA
100
AcDbCircle
 10
5003.587877416332
 20
3071.293187366268
 30
0.0
 40
0.0025892866535499
100
AcDbArc
 50
180.0
 51
270.0184367482017
  0
LWPOLYLINE
  5
20B7
330
1F
100
AcDbEntity
  8
SANINDUSA
100
AcDbPolyline
 90
        3
 70
   128
 43
0.0
 10
5003.988899029724
 20
3071.29059796054
 10
5003.980899251929
 20
3071.290599718877
 10
5003.977899707786
 20
3071.29060040433
  0
LWPOLYLINE
  5
20BB
330
1F
100
AcDbEntity
  8
SANINDUSA
100
AcDbPolyline
 90
        3
 70
   128
 43
0.0
 10
5003.598877586356
 20
3071.29060052354
 10
5003.590877868167
 20
3071.2905987354
 10
5003.587878249518
 20
3071.290598079749
  0
ARC
  5
20BD
330
1F
100
AcDbEntity
  8
SANINDUSA
100
AcDbCircle
 10
5003.793890060101
 20
3071.358216426317
 30
0.0
 40
0.0025901560098686
100
AcDbArc
 50
269.9882724412968
 51
359.9846976809434
  0
ARC
  5
20C0
330
1F
100
AcDbEntity
  8
SANINDUSA
100
AcDbCircle
 10
5003.782886963045
 20
3071.358216125372
 30
0.0
 40
0.0025898551435443
100
AcDbArc
 50
180.0
 51
270.0183835436822
  0
LWPOLYLINE
  5
20C1
330
1F
100
AcDbEntity
  8
SANINDUSA
100
AcDbPolyline
 90
        3
 70
   128
 43
0.0
 10
5003.793889529934
 20
3071.355626270362
 10
5003.785889543525
 20
3071.355626329967
 10
5003.78288779401
 20
3071.355626270362
  0
ARC
  5
20C2
330
1F
100
AcDbEntity
  8
SANINDUSA
100
AcDbCircle
 10
5003.977900098725
 20
3071.293191153511
 30
0.0
 40
0.0025907492102821
100
AcDbArc
 50
180.0
 51
269.9913541869354
  0
ARC
  5
20C3
330
1F
100
AcDbEntity
  8
SANINDUSA
100
AcDbCircle
 10
5003.598877104797
 20
3071.293191318628
 30
0.0
 40
0.0025907951329109
100
AcDbArc
 50
270.010649763248
 51
0.0
  0
ARC
  5
20CE
330
1F
100
AcDbEntity
  8
SANINDUSA
100
AcDbCircle
 10
5003.923901426986
 20
3071.304200943282
 30
0.0
 40
0.0025908244062537
100
AcDbArc
 50
0.0
 51
89.99232760562753
  0
ARC
  5
20D9
330
1F
100
AcDbEntity
  8
SANINDUSA
100
AcDbCircle
 10
5003.652876105275
 20
3071.304200824388
 30
0.0
 40
0.002591062551936
100
AcDbArc
 50
90.01293719298763
 51
179.9910176331496
  0
LWPOLYLINE
  5
20E4
330
1F
100
AcDbEntity
  8
SANINDUSA
100
AcDbPolyline
 90
        3
 70
   128
 43
0.0
 10
5003.912901975146
 20
3071.306794986316
 10
5003.920901514522
 20
3071.306792631932
 10
5003.923901773921
 20
3071.306791767665
  0
LWPOLYLINE
  5
20E6
330
1F
100
AcDbEntity
  8
SANINDUSA
100
AcDbPolyline
 90
        3
 70
   128
 43
0.0
 10
5003.926492251387
 20
3071.304201111385
 10
5003.92649254941
 20
3071.296202793905
 10
5003.926492609015
 20
3071.293203577586
  0
LWPOLYLINE
  5
20E8
330
1F
100
AcDbEntity
  8
SANINDUSA
100
AcDbPolyline
 90
        3
 70
   128
 43
0.0
 10
5003.65287552022
 20
3071.306791886874
 10
5003.660875089398
 20
3071.306794241258
 10
5003.663875348798
 20
3071.306795105525
  0
LWPOLYLINE
  5
20EB
330
1F
100
AcDbEntity
  8
SANINDUSA
100
AcDbPolyline
 90
        3
 70
   128
 43
0.0
 10
5003.650284670225
 20
3071.293203696796
 10
5003.650284938446
 20
3071.301202014276
 10
5003.650285042755
 20
3071.304201230594
  0
ARC
  5
20F0
330
1F
100
AcDbEntity
  8
SANINDUSA
100
AcDbCircle
 10
5003.912901004962
 20
3071.304205866637
 30
0.0
 40
0.0025891198607434
100
AcDbArc
 50
89.97853033328963
 51
180.0
  0
ARC
  5
20F2
330
1F
100
AcDbEntity
  8
SANINDUSA
100
AcDbCircle
 10
5003.663876411119
 20
3071.304206078024
 30
0.0
 40
0.0025890277189689
100
AcDbArc
 50
0.0
 51
90.02350941673851
  0
LWPOLYLINE
  5
20F5
330
1F
100
AcDbEntity
  8
SANINDUSA
100
AcDbPolyline
 90
        3
 70
   128
 43
0.0
 10
5003.910312302342
 20
3071.293208614179
 10
5003.910312004319
 20
3071.301206842252
 10
5003.91031188511
 20
3071.304206088373
  0
LWPOLYLINE
  5
20F6
330
1F
100
AcDbEntity
  8
SANINDUSA
100
AcDbPolyline
 90
        3
 70
   128
 43
0.0
 10
5003.666465438834
 20
3071.304206207582
 10
5003.666465140811
 20
3071.296208009311
 10
5003.666465021602
 20
3071.293208733388
  0
ARC
  5
20FA
330
1F
100
AcDbEntity
  8
SANINDUSA
100
AcDbCircle
 10
5003.92390353094
 20
3071.293203727734
 30
0.0
 40
0.0025890780800655
100
AcDbArc
 50
269.9782650402008
 51
0.0
  0
ARC
  5
20FD
330
1F
100
AcDbEntity
  8
SANINDUSA
100
AcDbCircle
 10
5003.652873689579
 20
3071.293203788177
 30
0.0
 40
0.0025890193551624
100
AcDbArc
 50
180.0
 51
270.0240243177451
  0
LINE
  5
20FE
330
1F
100
AcDbEntity
  8
SANINDUSA
100
AcDbLine
 10
5003.923902548781
 20
3071.290614649841
 30
0.0
 11
5003.912902809611
 21
3071.290617928096
 31
0.0
  0
LWPOLYLINE
  5
2101
330
1F
100
AcDbEntity
  8
SANINDUSA
100
AcDbPolyline
 90
        3
 70
   128
 43
0.0
 10
5003.663874514333
 20
3071.290618077108
 10
5003.655874974957
 20
3071.290615663119
 10
5003.652874775163
 20
3071.29061476905
  0
ARC
  5
210A
330
1F
100
AcDbEntity
  8
SANINDUSA
100
AcDbCircle
 10
5003.912903277215
 20
3071.293208902942
 30
0.0
 40
0.0025909748882452
100
AcDbArc
 50
180.0
 51
269.9896596150606
  0
ARC
  5
210B
330
1F
100
AcDbEntity
  8
SANINDUSA
100
AcDbCircle
 10
5003.663873913133
 20
3071.293209185546
 30
0.0
 40
0.0025911085086571
100
AcDbArc
 50
270.0132939915897
 51
359.9900016664692
  0
ARC
  5
211E
330
1F
100
AcDbEntity
  8
SANINDUSA
100
AcDbCircle
 10
5003.858899894954
 20
3071.304219883018
 30
0.0
 40
0.0025909581347873
100
AcDbArc
 50
0.0
 51
89.99793872861571
  0
ARC
  5
212A
330
1F
100
AcDbEntity
  8
SANINDUSA
100
AcDbCircle
 10
5003.71787767589
 20
3071.30421975531
 30
0.0
 40
0.002591175270853
100
AcDbArc
 50
90.00752049311433
 51
179.9872066572435
  0
LWPOLYLINE
  5
2136
330
1F
100
AcDbEntity
  8
SANINDUSA
100
AcDbPolyline
 90
        3
 70
   128
 43
0.0
 10
5003.847898848286
 20
3071.306813672372
 10
5003.855898566476
 20
3071.306811616012
 10
5003.858899988166
 20
3071.306810841151
  0
LWPOLYLINE
  5
2138
330
1F
100
AcDbEntity
  8
SANINDUSA
100
AcDbPolyline
 90
        3
 70
   128
 43
0.0
 10
5003.861490853062
 20
3071.304220244476
 10
5003.861491210691
 20
3071.296222314426
 10
5003.861491359702
 20
3071.293223098108
  0
LWPOLYLINE
  5
213A
330
1F
100
AcDbEntity
  8
SANINDUSA
100
AcDbPolyline
 90
        3
 70
   128
 43
0.0
 10
5003.717877335778
 20
3071.306810930558
 10
5003.725877053967
 20
3071.306812986918
 10
5003.728878475658
 20
3071.306813731977
  0
LWPOLYLINE
  5
213E
330
1F
100
AcDbEntity
  8
SANINDUSA
100
AcDbPolyline
 90
        3
 70
   128
 43
0.0
 10
5003.715285964242
 20
3071.293223187514
 10
5003.715286351672
 20
3071.301221117564
 10
5003.715286500684
 20
3071.304220333882
  0
ARC
  5
2142
330
1F
100
AcDbEntity
  8
SANINDUSA
100
AcDbCircle
 10
5003.988899529563
 20
3071.239200689726
 30
0.0
 40
0.0025905736925652
100
AcDbArc
 50
0.0
 51
89.99523561579643
  0
ARC
  5
214D
330
1F
100
AcDbEntity
  8
SANINDUSA
100
AcDbCircle
 10
5003.587877912567
 20
3071.239200586445
 30
0.0
 40
0.002590736604123
100
AcDbArc
 50
90.00935508511602
 51
179.9896560715666
  0
LWPOLYLINE
  5
2158
330
1F
100
AcDbEntity
  8
SANINDUSA
100
AcDbPolyline
 90
        3
 70
   128
 43
0.0
 10
5003.977900363437
 20
3071.241793796607
 10
5003.985900081626
 20
3071.241791948863
 10
5003.988899744979
 20
3071.24179126341
  0
LWPOLYLINE
  5
215A
330
1F
100
AcDbEntity
  8
SANINDUSA
100
AcDbPolyline
 90
        3
 70
   128
 43
0.0
 10
5003.991490103236
 20
3071.239200994559
 10
5003.991490222445
 20
3071.231202915498
 10
5003.99149028205
 20
3071.228204384633
  0
LWPOLYLINE
  5
215C
330
1F
100
AcDbEntity
  8
SANINDUSA
100
AcDbPolyline
 90
        3
 70
   128
 43
0.0
 10
5003.587877489558
 20
3071.241791323015
 10
5003.595877177946
 20
3071.241793200561
 10
5003.598876886002
 20
3071.241793886014
  0
LWPOLYLINE
  5
215F
330
1F
100
AcDbEntity
  8
SANINDUSA
100
AcDbPolyline
 90
        3
 70
   128
 43
0.0
 10
5003.585286982289
 20
3071.228204444238
 10
5003.5852871164
 20
3071.236202493497
 10
5003.585287176004
 20
3071.239201054164
  0
ARC
  5
2162
330
1F
100
AcDbEntity
  8
SANINDUSA
100
AcDbCircle
 10
5003.847897948889
 20
3071.304224243416
 30
0.0
 40
0.0025894291114744
100
AcDbArc
 50
89.98009921542369
 51
179.9882503986846
  0
ARC
  5
2164
330
1F
100
AcDbEntity
  8
SANINDUSA
100
AcDbCircle
 10
5003.728879672301
 20
3071.304224570626
 30
0.0
 40
0.0025891616272582
100
AcDbArc
 50
0.0
 51
90.02648063684727
  0
LWPOLYLINE
  5
2167
330
1F
100
AcDbEntity
  8
SANINDUSA
100
AcDbPolyline
 90
        3
 70
   128
 43
0.0
 10
5003.845309026471
 20
3071.29322774727
 10
5003.845308639041
 20
3071.30122555811
 10
5003.845308519832
 20
3071.304224774428
  0
LWPOLYLINE
  5
2168
330
1F
100
AcDbEntity
  8
SANINDUSA
100
AcDbPolyline
 90
        3
 70
   128
 43
0.0
 10
5003.731468833915
 20
3071.304224834033
 10
5003.731468476287
 20
3071.296227023192
 10
5003.731468327275
 20
3071.293227836676
  0
ARC
  5
216C
330
1F
100
AcDbEntity
  8
SANINDUSA
100
AcDbCircle
 10
5003.977899455348
 20
3071.239204585003
 30
0.0
 40
0.0025892117625294
100
AcDbArc
 50
89.97990520910422
 51
180.0
  0
ARC
  5
216E
330
1F
100
AcDbEntity
  8
SANINDUSA
100
AcDbCircle
 10
5003.598877989386
 20
3071.239204825089
 30
0.0
 40
0.0025890611598254
100
AcDbArc
 50
0.0
 51
90.02441785406604
  0
LWPOLYLINE
  5
2171
330
1F
100
AcDbEntity
  8
SANINDUSA
100
AcDbPolyline
 90
        3
 70
   128
 43
0.0
 10
5003.975310303203
 20
3071.228208229133
 10
5003.975310243598
 20
3071.23620624859
 10
5003.975310243598
 20
3071.239204839059
  0
LWPOLYLINE
  5
2172
330
1F
100
AcDbEntity
  8
SANINDUSA
100
AcDbPolyline
 90
        3
 70
   128
 43
0.0
 10
5003.601467050543
 20
3071.239204928466
 10
5003.601466976038
 20
3071.231206879207
 10
5003.601466961137
 20
3071.22820831854
  0
ARC
  5
2178
330
1F
100
AcDbEntity
  8
SANINDUSA
100
AcDbCircle
 10
5003.858902064316
 20
3071.293223584819
 30
0.0
 40
0.0025892954313891
100
AcDbArc
 50
269.9784592549613
 51
359.9892300706049
  0
ARC
  5
217B
330
1F
100
AcDbEntity
  8
SANINDUSA
100
AcDbCircle
 10
5003.717875025544
 20
3071.29322344001
 30
0.0
 40
0.0025890613140645
100
AcDbArc
 50
180.0
 51
270.0267230014586
  0
LWPOLYLINE
  5
217C
330
1F
100
AcDbEntity
  8
SANINDUSA
100
AcDbPolyline
 90
        3
 70
   128
 43
0.0
 10
5003.858901090851
 20
3071.290634289571
 10
5003.850901432267
 20
3071.29063646514
 10
5003.847899950972
 20
3071.290637269803
  0
LWPOLYLINE
  5
217F
330
1F
100
AcDbEntity
  8
SANINDUSA
100
AcDbPolyline
 90
        3
 70
   128
 43
0.0
 10
5003.728877402774
 20
3071.290637329408
 10
5003.720877744189
 20
3071.290635213443
 10
5003.717876233093
 20
3071.290634378978
  0
ARC
  5
2180
330
1F
100
AcDbEntity
  8
SANINDUSA
100
AcDbCircle
 10
5003.988900986743
 20
3071.228204781877
 30
0.0
 40
0.0025892953380943
100
AcDbArc
 50
269.9804358994929
 51
359.9912098156021
  0
ARC
  5
2183
330
1F
100
AcDbEntity
  8
SANINDUSA
100
AcDbCircle
 10
5003.587876018427
 20
3071.228204582183
 30
0.0
 40
0.0025890361411434
100
AcDbArc
 50
180.0
 51
270.025301539058
  0
LWPOLYLINE
  5
2184
330
1F
100
AcDbEntity
  8
SANINDUSA
100
AcDbPolyline
 90
        3
 70
   128
 43
0.0
 10
5003.988900102607
 20
3071.22561548669
 10
5003.980900444022
 20
3071.225617334434
 10
5003.977900601856
 20
3071.22561804969
  0
LWPOLYLINE
  5
2187
330
1F
100
AcDbEntity
  8
SANINDUSA
100
AcDbPolyline
 90
        3
 70
   128
 43
0.0
 10
5003.598876692286
 20
3071.225618109294
 10
5003.590877033701
 20
3071.225616231748
 10
5003.587877161733
 20
3071.225615546294
  0
ARC
  5
2188
330
1F
100
AcDbEntity
  8
SANINDUSA
100
AcDbCircle
 10
5003.847899875939
 20
3071.293228119295
 30
0.0
 40
0.002590849493736
100
AcDbArc
 50
180.0082276286468
 51
270.0016593453502
  0
LWPOLYLINE
  5
2189
330
1F
100
AcDbEntity
  8
SANINDUSA
100
AcDbPolyline
 90
        3
 70
   128
 43
0.0
 10
5003.78288755559
 20
3071.306821748801
 10
5003.790887571803
 20
3071.306821808406
 10
5003.793889798156
 20
3071.306821748801
  0
ARC
  5
2194
330
1F
100
AcDbEntity
  8
SANINDUSA
100
AcDbCircle
 10
5003.728877085229
 20
3071.29322857154
 30
0.0
 40
0.0025912421519147
100
AcDbArc
 50
270.0070213815405
 51
359.9837511250365
  0
ARC
  5
2195
330
1F
100
AcDbEntity
  8
SANINDUSA
100
AcDbCircle
 10
5003.793890503473
 20
3071.30423155948
 30
0.0
 40
0.0025901894173893
100
AcDbArc
 50
0.0094481278909837
 51
90.01560184854879
  0
ARC
  5
2197
330
1F
100
AcDbEntity
  8
SANINDUSA
100
AcDbCircle
 10
5003.782887234571
 20
3071.304231175005
 30
0.0
 40
0.0025905738159679
100
AcDbArc
 50
89.99289998415639
 51
179.9813910014982
  0
LWPOLYLINE
  5
2199
330
1F
100
AcDbEntity
  8
SANINDUSA
100
AcDbPolyline
 90
        3
 70
   128
 43
0.0
 10
5003.796480692855
 20
3071.304231986591
 10
5003.796480782262
 20
3071.296234414168
 10
5003.796480812064
 20
3071.29323531706
  0
LWPOLYLINE
  5
219C
330
1F
100
AcDbEntity
  8
SANINDUSA
100
AcDbPolyline
 90
        3
 70
   128
 43
0.0
 10
5003.780296571484
 20
3071.29323531706
 10
5003.780296631089
 20
3071.301232919284
 10
5003.780296660892
 20
3071.304232016393
  0
ARC
  5
219D
330
1F
100
AcDbEntity
  8
SANINDUSA
100
AcDbCircle
 10
5003.977900835099
 20
3071.2282085816
 30
0.0
 40
0.0025905319208067
100
AcDbArc
 50
180.0
 51
269.9948412457423
  0
ARC
  5
219E
330
1F
100
AcDbEntity
  8
SANINDUSA
100
AcDbCircle
 10
5003.598876178589
 20
3071.228208891854
 30
0.0
 40
0.0025907826117115
100
AcDbArc
 50
270.0113605465007
 51
359.9873206483321
  0
ARC
  5
21A9
330
1F
100
AcDbEntity
  8
SANINDUSA
100
AcDbCircle
 10
5003.793890480644
 20
3071.293236214201
 30
0.0
 40
0.0025903315758952
100
AcDbArc
 50
269.9888592022521
 51
359.9801557550049
  0
LWPOLYLINE
  5
21AB
330
1F
100
AcDbEntity
  8
SANINDUSA
100
AcDbPolyline
 90
        3
 70
   128
 43
0.0
 10
5003.79388997697
 20
3071.290645882675
 10
5003.785889960757
 20
3071.290645942279
 10
5003.782887406579
 20
3071.290645882675
  0
ARC
  5
21AD
330
1F
100
AcDbEntity
  8
SANINDUSA
100
AcDbCircle
 10
5003.782886418345
 20
3071.293235729378
 30
0.0
 40
0.0025898468928851
100
AcDbArc
 50
180.0091218398201
 51
270.0218629424805
  0
ARC
  5
21B0
330
1F
100
AcDbEntity
  8
SANINDUSA
100
AcDbCircle
 10
5003.923902958835
 20
3071.239217259467
 30
0.0
 40
0.0025907826958522
100
AcDbArc
 50
0.0
 51
89.98929583369109
  0
ARC
  5
21BB
330
1F
100
AcDbEntity
  8
SANINDUSA
100
AcDbCircle
 10
5003.652874565591
 20
3071.23921717821
 30
0.0
 40
0.0025909832110172
100
AcDbArc
 50
90.01546615356529
 51
179.9875000898401
  0
LINE
  5
21C6
330
1F
100
AcDbEntity
  8
SANINDUSA
100
AcDbLine
 10
5003.91290382289
 20
3071.241811320373
 30
0.0
 11
5003.923903442851
 21
3071.241808042117
 31
0.0
  0
LWPOLYLINE
  5
21C8
330
1F
100
AcDbEntity
  8
SANINDUSA
100
AcDbPolyline
 90
        3
 70
   128
 43
0.0
 10
5003.926493741504
 20
3071.239217624255
 10
5003.926493801109
 20
3071.231219634601
 10
5003.926493801109
 20
3071.228220865318
  0
LWPOLYLINE
  5
21CA
330
1F
100
AcDbEntity
  8
SANINDUSA
100
AcDbPolyline
 90
        3
 70
   128
 43
0.0
 10
5003.652873866192
 20
3071.241808161327
 10
5003.660873331061
 20
3071.24181051571
 10
5003.663873471252
 20
3071.241811439582
  0
LWPOLYLINE
  5
21CD
330
1F
100
AcDbEntity
  8
SANINDUSA
100
AcDbPolyline
 90
        3
 70
   128
 43
0.0
 10
5003.650283507934
 20
3071.228220954724
 10
5003.650283552638
 20
3071.236218944379
 10
5003.650283582441
 20
3071.239217743464
  0
ARC
  5
21D0
330
1F
100
AcDbEntity
  8
SANINDUSA
100
AcDbCircle
 10
5003.912902763381
 20
3071.239222200637
 30
0.0
 40
0.0025891199521775
100
AcDbArc
 50
89.97655363661843
 51
180.0
  0
ARC
  5
21D2
330
1F
100
AcDbEntity
  8
SANINDUSA
100
AcDbCircle
 10
5003.663874736242
 20
3071.239222495633
 30
0.0
 40
0.0025889442584031
100
AcDbArc
 50
0.0
 51
90.02799542865636
  0
LWPOLYLINE
  5
21D6
330
1F
100
AcDbEntity
  8
SANINDUSA
100
AcDbPolyline
 90
        3
 70
   128
 43
0.0
 10
5003.910313762656
 20
3071.228225663491
 10
5003.910313673249
 20
3071.236223623344
 10
5003.910313643447
 20
3071.239222511836
  0
LWPOLYLINE
  5
21D8
330
1F
100
AcDbEntity
  8
SANINDUSA
100
AcDbPolyline
 90
        3
 70
   128
 43
0.0
 10
5003.666463680497
 20
3071.239222601243
 10
5003.66646359109
 20
3071.231224641391
 10
5003.666463561287
 20
3071.228225752899
  0
ARC
  5
21DA
330
1F
100
AcDbEntity
  8
SANINDUSA
100
AcDbCircle
 10
5003.923904639376
 20
3071.228221158702
 30
0.0
 40
0.0025891617492537
100
AcDbArc
 50
269.9761599960769
 51
0.0
  0
ARC
  5
21DD
330
1F
100
AcDbEntity
  8
SANINDUSA
100
AcDbCircle
 10
5003.652872485599
 20
3071.228221063948
 30
0.0
 40
0.0025889776650451
100
AcDbArc
 50
180.0
 51
270.0275855297081
  0
LWPOLYLINE
  5
21DE
330
1F
100
AcDbEntity
  8
SANINDUSA
100
AcDbPolyline
 90
        3
 70
   128
 43
0.0
 10
5003.923903562061
 20
3071.225631997176
 10
5003.915904141894
 20
3071.22563435156
 10
5003.912904031507
 20
3071.225635245629
  0
LWPOLYLINE
  5
21E1
330
1F
100
AcDbEntity
  8
SANINDUSA
100
AcDbPolyline
 90
        3
 70
   128
 43
0.0
 10
5003.663873262635
 20
3071.225635335036
 10
5003.655873827568
 20
3071.225632950851
 10
5003.652873732082
 20
3071.225632086584
  0
ARC
  5
21E6
330
1F
100
AcDbEntity
  8
SANINDUSA
100
AcDbCircle
 10
5003.912904520251
 20
3071.2282260032
 30
0.0
 40
0.0025907576167312
100
AcDbArc
 50
180.0
 51
269.9891911963906
  0
ARC
  5
21E7
330
1F
100
AcDbEntity
  8
SANINDUSA
100
AcDbCircle
 10
5003.663872578147
 20
3071.228226318148
 30
0.0
 40
0.0025909832021174
100
AcDbArc
 50
270.0151364522639
 51
359.9874999595646
  0
ARC
  5
2204
330
1F
100
AcDbEntity
  8
SANINDUSA
100
AcDbCircle
 10
5003.858902562966
 20
3071.23923727577
 30
0.0
 40
0.0025908829218792
100
AcDbArc
 50
0.0
 51
89.99564754699068
  0
ARC
  5
220F
330
1F
100
AcDbEntity
  8
SANINDUSA
100
AcDbCircle
 10
5003.717875103443
 20
3071.239237022693
 30
0.0
 40
0.0025912254548691
100
AcDbArc
 50
90.01192427473927
 51
179.9847798066281
  0
LWPOLYLINE
  5
221A
330
1F
100
AcDbEntity
  8
SANINDUSA
100
AcDbPolyline
 90
        3
 70
   128
 43
0.0
 10
5003.847901649705
 20
3071.241831377335
 10
5003.85590118908
 20
3071.241829052755
 10
5003.858902759782
 20
3071.241828158685
  0
LWPOLYLINE
  5
221C
330
1F
100
AcDbEntity
  8
SANINDUSA
100
AcDbPolyline
 90
        3
 70
   128
 43
0.0
 10
5003.861493445865
 20
3071.239237621614
 10
5003.861493654481
 20
3071.231239780971
 10
5003.861493714086
 20
3071.228240773269
  0
LWPOLYLINE
  5
221E
330
1F
100
AcDbEntity
  8
SANINDUSA
100
AcDbPolyline
 90
        3
 70
   128
 43
0.0
 10
5003.717874564163
 20
3071.241828248092
 10
5003.725874103537
 20
3071.241830602475
 10
5003.728875704041
 20
3071.24183143694
  0
LWPOLYLINE
  5
2221
330
1F
100
AcDbEntity
  8
SANINDUSA
100
AcDbPolyline
 90
        3
 70
   128
 43
0.0
 10
5003.71528363966
 20
3071.228240832873
 10
5003.715283818475
 20
3071.236238673516
 10
5003.715283878079
 20
3071.239237711021
  0
ARC
  5
2226
330
1F
100
AcDbEntity
  8
SANINDUSA
100
AcDbCircle
 10
5003.847900606143
 20
3071.239241973381
 30
0.0
 40
0.0025894041644844
100
AcDbArc
 50
89.97690908038073
 51
179.9874846131087
  0
ARC
  5
2228
330
1F
100
AcDbEntity
  8
SANINDUSA
100
AcDbCircle
 10
5003.728877085539
 20
3071.239242400937
 30
0.0
 40
0.0025890363717196
100
AcDbArc
 50
0.0
 51
90.030572747772
  0
LINE
  5
222B
330
1F
100
AcDbEntity
  8
SANINDUSA
100
AcDbLine
 10
5003.845311529866
 20
3071.228245601245
 30
0.0
 11
5003.845311202041
 21
3071.239242538997
 31
0.0
  0
LWPOLYLINE
  5
222C
330
1F
100
AcDbEntity
  8
SANINDUSA
100
AcDbPolyline
 90
        3
 70
   128
 43
0.0
 10
5003.731466121903
 20
3071.239242598601
 10
5003.731465913287
 20
3071.231244787761
 10
5003.73146582388
 20
3071.228245660849
  0
ARC
  5
2230
330
1F
100
AcDbEntity
  8
SANINDUSA
100
AcDbCircle
 10
5003.858904527141
 20
3071.228241181233
 30
0.0
 40
0.0025891869767645
100
AcDbArc
 50
269.9734206664055
 51
359.9909717761672
  0
ARC
  5
2233
330
1F
100
AcDbEntity
  8
SANINDUSA
100
AcDbCircle
 10
5003.717872575755
 20
3071.22824098983
 30
0.0
 40
0.002588936098558
100
AcDbArc
 50
180.0
 51
270.0321335008315
  0
LWPOLYLINE
  5
2234
330
1F
100
AcDbEntity
  8
SANINDUSA
100
AcDbPolyline
 90
        3
 70
   128
 43
0.0
 10
5003.858903326026
 20
3071.225651994535
 10
5003.850903816453
 20
3071.225654319116
 10
5003.847902275554
 20
3071.225655183383
  0
LWPOLYLINE
  5
2237
330
1F
100
AcDbEntity
  8
SANINDUSA
100
AcDbPolyline
 90
        3
 70
   128
 43
0.0
 10
5003.728875078192
 20
3071.225655242988
 10
5003.720875538817
 20
3071.225652948209
 10
5003.717874027721
 20
3071.225652054139
  0
ARC
  5
223E
330
1F
100
AcDbEntity
  8
SANINDUSA
100
AcDbCircle
 10
5003.847902370986
 20
3071.228246024535
 30
0.0
 40
0.0025908411539769
100
AcDbArc
 50
180.0093612862307
 51
269.9978895365795
  0
ARC
  5
223F
330
1F
100
AcDbEntity
  8
SANINDUSA
100
AcDbCircle
 10
5003.728874665393
 20
3071.228246401548
 30
0.0
 40
0.0025911585933565
100
AcDbArc
 50
270.009127832494
 51
359.9836216572154
  0
LWPOLYLINE
  5
2244
330
1F
100
AcDbEntity
  8
SANINDUSA
100
AcDbPolyline
 90
        3
 70
   128
 43
0.0
 10
5003.782887138358
 20
3071.241841361114
 10
5003.790887154571
 20
3071.24184145052
 10
5003.793890215388
 20
3071.241841361114
  0
ARC
  5
224F
330
1F
100
AcDbEntity
  8
SANINDUSA
100
AcDbCircle
 10
5003.793890949049
 20
3071.239251021307
 30
0.0
 40
0.0025903399099005
100
AcDbArc
 50
0.0121173430662566
 51
90.01622784850285
  0
ARC
  5
2251
330
1F
100
AcDbEntity
  8
SANINDUSA
100
AcDbCircle
 10
5003.782886797282
 20
3071.239250628529
 30
0.0
 40
0.0025907326066848
100
AcDbArc
 50
89.992456838942
 51
179.9791986467471
  0
LWPOLYLINE
  5
2253
330
1F
100
AcDbEntity
  8
SANINDUSA
100
AcDbPolyline
 90
        3
 70
   128
 43
0.0
 10
5003.796481288901
 20
3071.2392515691
 10
5003.796481408111
 20
3071.231253966876
 10
5003.796481437913
 20
3071.228254839965
  0
LWPOLYLINE
  5
2256
330
1F
100
AcDbEntity
  8
SANINDUSA
100
AcDbPolyline
 90
        3
 70
   128
 43
0.0
 10
5003.780295915833
 20
3071.228254839965
 10
5003.780296035042
 20
3071.236252442189
 10
5003.780296064845
 20
3071.2392515691
  0
LWPOLYLINE
  5
225E
330
1F
100
AcDbEntity
  8
SANINDUSA
100
AcDbPolyline
 90
        3
 70
   128
 43
0.0
 10
5003.793890453806
 20
3071.225665465184
 10
5003.785890467397
 20
3071.225665584393
 10
5003.78288689994
 20
3071.225665465184
  0
ARC
  5
2260
330
1F
100
AcDbEntity
  8
SANINDUSA
100
AcDbCircle
 10
5003.793891123135
 20
3071.228255780047
 30
0.0
 40
0.0025903149492565
100
AcDbArc
 50
269.9851949686675
 51
359.9792058640105
  0
ARC
  5
2261
330
1F
100
AcDbEntity
  8
SANINDUSA
100
AcDbCircle
 10
5003.782885829624
 20
3071.22825537881
 30
0.0
 40
0.0025899138465247
100
AcDbArc
 50
180.011920679135
 51
270.023678201709
  0
CIRCLE
  5
227C
330
1F
100
AcDbEntity
  8
SANINDUSA
100
AcDbCircle
 10
5003.788388647071
 20
3071.093687201567
 30
0.0
 40
0.045297545258413
  0
CIRCLE
  5
227D
330
1F
100
AcDbEntity
  8
SANINDUSA
100
AcDbCircle
 10
5003.788388647071
 20
3071.093687201567
 30
0.0
 40
0.0349999999999999
  0
ARC
  5
228D
330
1F
100
AcDbEntity
  8
SANINDUSA
100
AcDbCircle
 10
5005.549964122013
 20
3071.286520256502
 30
0.0
 40
0.0239989575462913
100
AcDbArc
 50
191.9927013738493
 51
268.599991866847
  0
ARC
  5
228E
330
1F
100
AcDbEntity
  8
SANINDUSA
100
AcDbCircle
 10
5006.151830138485
 20
3071.279151737121
 30
0.0
 40
0.0239999469941272
100
AcDbArc
 50
285.6568400417874
 51
348.013345151899
  0
ARC
  5
228F
330
1F
100
AcDbEntity
  8
SANINDUSA
100
AcDbCircle
 10
5006.129983479945
 20
3071.348040967853
 30
0.0
 40
0.0961336486635658
100
AcDbArc
 50
271.0749608006512
 51
287.1222486110043
  0
LWPOLYLINE
  5
2290
330
1F
100
AcDbEntity
  8
SANINDUSA
100
AcDbPolyline
 90
        3
 70
   128
 43
0.0
 10
5005.549377874606
 20
3071.26252845576
 10
5005.576533191972
 20
3071.261860794332
 10
5005.981569939428
 20
3071.25190240791
  0
LINE
  5
2291
330
1F
100
AcDbEntity
  8
SANINDUSA
100
AcDbLine
 10
5005.9815618928
 20
3071.25190240791
 30
0.0
 11
5006.009587519937
 21
3071.250923729446
 31
0.0
  0
LINE
  5
2292
330
1F
100
AcDbEntity
  8
SANINDUSA
100
AcDbLine
 10
5006.103773527914
 20
3071.250923729446
 30
0.0
 11
5006.131821924024
 21
3071.251903205122
 31
0.0
  0
LINE
  5
2293
330
1F
100
AcDbEntity
  8
SANINDUSA
100
AcDbLine
 10
5006.009587519937
 20
3071.250923729446
 30
0.0
 11
5006.019941263967
 21
3071.239820710327
 31
0.0
  0
LINE
  5
2294
330
1F
100
AcDbEntity
  8
SANINDUSA
100
AcDbLine
 10
5006.093419783884
 20
3071.239820710327
 30
0.0
 11
5006.103773527914
 21
3071.250923729446
 31
0.0
  0
LINE
  5
2297
330
1F
100
AcDbEntity
  8
SANINDUSA
100
AcDbLine
 10
5005.475982308231
 20
3071.306915505733
 30
0.0
 11
5005.476526162801
 21
3071.338072912868
 31
0.0
  0
LINE
  5
2298
330
1F
100
AcDbEntity
  8
SANINDUSA
100
AcDbLine
 10
5005.475982308231
 20
3071.306915505733
 30
0.0
 11
5005.480981546589
 21
3071.306915505733
 31
0.0
  0
LINE
  5
229B
330
1F
100
AcDbEntity
  8
SANINDUSA
100
AcDbLine
 10
5005.480981546589
 20
3071.306915505733
 30
0.0
 11
5006.222379499249
 21
3071.306915505733
 31
0.0
  0
LINE
  5
229D
330
1F
100
AcDbEntity
  8
SANINDUSA
100
AcDbLine
 10
5006.226834886842
 20
3071.338072576504
 30
0.0
 11
5006.227378719621
 21
3071.306915505733
 31
0.0
  0
LINE
  5
229E
330
1F
100
AcDbEntity
  8
SANINDUSA
100
AcDbLine
 10
5006.222379499249
 20
3071.306915505733
 30
0.0
 11
5006.227378719621
 21
3071.306915505733
 31
0.0
  0
ARC
  5
229F
330
1F
100
AcDbEntity
  8
SANINDUSA
100
AcDbCircle
 10
5005.48552478618
 20
3071.337915504839
 30
0.0
 40
0.0089999999999999
100
AcDbArc
 50
90.0
 51
178.9999999902799
  0
LINE
  5
22A1
330
1F
100
AcDbEntity
  8
SANINDUSA
100
AcDbLine
 10
5005.485524785839
 20
3071.346915504839
 30
0.0
 11
5006.21783625441
 21
3071.346915504839
 31
0.0
  0
ARC
  5
22A3
330
1F
100
AcDbEntity
  8
SANINDUSA
100
AcDbCircle
 10
5006.217836235444
 20
3071.337915504839
 30
0.0
 40
0.0089999999999999
100
AcDbArc
 50
1.000000009720081
 51
90.0
  0
LINE
  5
22A5
330
1F
100
AcDbEntity
  8
SANINDUSA
100
AcDbLine
 10
5005.521093410575
 20
3071.306915505733
 30
0.0
 11
5005.526428324305
 21
3071.281816705074
 31
0.0
  0
LINE
  5
22A6
330
1F
100
AcDbEntity
  8
SANINDUSA
100
AcDbLine
 10
5006.176184349828
 20
3071.278295992817
 30
0.0
 11
5006.182267599874
 21
3071.306915505733
 31
0.0
  0
LINE
  5
22AF
330
1F
100
AcDbEntity
  8
SANINDUSA
100
AcDbLine
 10
5005.526428324305
 20
3071.281816705074
 30
0.0
 11
5005.526463952982
 21
3071.281649089362
 31
0.0
  0
LINE
  5
22B0
330
1F
100
AcDbEntity
  8
SANINDUSA
100
AcDbLine
 10
5006.175931447319
 20
3071.277106276657
 30
0.0
 11
5006.176184349828
 21
3071.278295992817
 31
0.0
  0
LWPOLYLINE
  5
22B2
330
1F
100
AcDbEntity
  8
SANINDUSA
100
AcDbPolyline
 90
        3
 70
   128
 43
0.0
 10
5005.526463952982
 20
3071.281649089362
 10
5005.526475117676
 20
3071.281596562769
 10
5005.52648850637
 20
3071.281533583011
  0
LWPOLYLINE
  5
22B4
330
1F
100
AcDbEntity
  8
SANINDUSA
100
AcDbPolyline
 90
        6
 70
   128
 43
0.0
 10
5006.175317221456
 20
3071.274216360356
 10
5006.175344579988
 20
3071.27434512874
 10
5006.17548345881
 20
3071.274998499955
 10
5006.175650053792
 20
3071.27578224143
 10
5006.175769263082
 20
3071.276343061533
 10
5006.175931447319
 20
3071.277106276657
  0
LINE
  5
22B7
330
1F
100
AcDbEntity
  8
SANINDUSA
100
AcDbLine
 10
5006.009587519937
 20
3071.250923729446
 30
0.0
 11
5006.103773527914
 21
3071.250923729446
 31
0.0
  0
LINE
  5
22B8
330
1F
100
AcDbEntity
  8
SANINDUSA
100
AcDbLine
 10
5006.019941263967
 20
3071.239820710327
 30
0.0
 11
5006.093419783884
 21
3071.239820710327
 31
0.0
  0
LINE
  5
22BE
330
1F
100
AcDbEntity
  8
SANINDUSA
100
AcDbLine
 10
5007.002750795748
 20
3071.250699748456
 30
0.0
 11
5007.029494714405
 21
3071.250042197465
 31
0.0
  0
LINE
  5
22C0
330
1F
100
AcDbEntity
  8
SANINDUSA
100
AcDbLine
 10
5006.937770437862
 20
3071.252297413705
 30
0.0
 11
5006.980011713173
 21
3071.251258840023
 31
0.0
  0
LINE
  5
22C2
330
1F
100
AcDbEntity
  8
SANINDUSA
100
AcDbLine
 10
5006.872790079977
 20
3071.253895078956
 30
0.0
 11
5006.915031355287
 21
3071.252856497823
 31
0.0
  0
LINE
  5
22C4
330
1F
100
AcDbEntity
  8
SANINDUSA
100
AcDbLine
 10
5006.807809722091
 20
3071.255492736756
 30
0.0
 11
5006.850050997402
 21
3071.254454155623
 31
0.0
  0
LINE
  5
22C5
330
1F
100
AcDbEntity
  8
SANINDUSA
100
AcDbLine
 10
5006.742829349305
 20
3071.257090402006
 30
0.0
 11
5006.785070624616
 21
3071.256051820873
 31
0.0
  0
LINE
  5
22C6
330
1F
100
AcDbEntity
  8
SANINDUSA
100
AcDbLine
 10
5006.684453647997
 20
3071.258525674402
 30
0.0
 11
5006.72009026673
 21
3071.257649486123
 31
0.0
  0
LINE
  5
22E5
330
1F
100
AcDbEntity
  8
SANINDUSA
100
AcDbLine
 10
5007.029384058381
 20
3071.246043709277
 30
0.0
 11
5007.065371107723
 21
3071.245158975183
 31
0.0
  0
ARC
  5
22E6
330
1F
100
AcDbEntity
  8
SANINDUSA
100
AcDbCircle
 10
5007.211716328825
 20
3071.357081387811
 30
0.0
 40
0.1119902768131148
100
AcDbArc
 50
272.0032792937864
 51
285.7768448498985
  0
LINE
  5
22E8
330
1F
100
AcDbEntity
  8
SANINDUSA
100
AcDbLine
 10
5006.633183818724
 20
3071.255785030483
 30
0.0
 11
5006.684351403679
 21
3071.254526985048
 31
0.0
  0
LWPOLYLINE
  5
22EA
330
1F
100
AcDbEntity
  8
SANINDUSA
100
AcDbPolyline
 90
        5
 70
   128
 43
0.0
 10
5006.720003810193
 20
3071.253651020287
 10
5006.72045099404
 20
3071.253640604376
 10
5006.721711527969
 20
3071.253610258161
 10
5006.723621320393
 20
3071.253563841044
 10
5006.725863438513
 20
3071.253508974968
  0
LWPOLYLINE
  5
22EB
330
1F
100
AcDbEntity
  8
SANINDUSA
100
AcDbPolyline
 90
        3
 70
   128
 43
0.0
 10
5006.725863438513
 20
3071.253508982419
 10
5006.73386133876
 20
3071.253312562763
 10
5006.736860122945
 20
3071.253238921224
  0
ARC
  5
22EC
330
1F
100
AcDbEntity
  8
SANINDUSA
100
AcDbCircle
 10
5006.632067208724
 20
3066.936628336098
 30
0.0
 40
4.317882385993955
100
AcDbArc
 50
88.53153684280128
 51
88.6093230385503
  0
LINE
  5
22ED
330
1F
100
AcDbEntity
  8
SANINDUSA
100
AcDbLine
 10
5006.742731031444
 20
3071.253091608344
 30
0.0
 11
5006.784972306753
 21
3071.252053027212
 31
0.0
  0
ARC
  5
22EE
330
1F
100
AcDbEntity
  8
SANINDUSA
100
AcDbCircle
 10
5006.712944675298
 20
3068.126004097907
 30
0.0
 40
3.126879702911987
100
AcDbArc
 50
88.57245506789926
 51
88.67985810330678
  0
LWPOLYLINE
  5
22EF
330
1F
100
AcDbEntity
  8
SANINDUSA
100
AcDbPolyline
 90
        3
 70
   128
 43
0.0
 10
5006.79084394541
 20
3071.251913328826
 10
5006.798842098977
 20
3071.251716991125
 10
5006.80184061494
 20
3071.251643386839
  0
ARC
  5
22F0
330
1F
100
AcDbEntity
  8
SANINDUSA
100
AcDbCircle
 10
5006.741056397631
 20
3068.725805485657
 30
0.0
 40
2.526569149684201
100
AcDbArc
 50
88.48851073671516
 51
88.62144574524434
  0
LINE
  5
22F1
330
1F
100
AcDbEntity
  8
SANINDUSA
100
AcDbLine
 10
5006.807711404229
 20
3071.251493950545
 30
0.0
 11
5006.849952679541
 21
3071.250455369412
 31
0.0
  0
ARC
  5
22F2
330
1F
100
AcDbEntity
  8
SANINDUSA
100
AcDbCircle
 10
5006.807029275301
 20
3069.30962209996
 30
0.0
 40
1.941309588080294
100
AcDbArc
 50
88.55970825465867
 51
88.73270507402484
  0
LWPOLYLINE
  5
22F3
330
1F
100
AcDbEntity
  8
SANINDUSA
100
AcDbPolyline
 90
        3
 70
   128
 43
0.0
 10
5006.855824452307
 20
3071.250318390488
 10
5006.863822918798
 20
3071.25012209004
 10
5006.866821092035
 20
3071.250048515557
  0
ARC
  5
22F4
330
1F
100
AcDbEntity
  8
SANINDUSA
100
AcDbCircle
 10
5006.82742068055
 20
3069.595273273731
 30
0.0
 40
1.655244193688823
100
AcDbArc
 50
88.43312709478812
 51
88.63603984486584
  0
LINE
  5
22F5
330
1F
100
AcDbEntity
  8
SANINDUSA
100
AcDbLine
 10
5006.872691762115
 20
3071.249896285295
 30
0.0
 11
5006.914933037426
 21
3071.248857704162
 31
0.0
  0
ARC
  5
22F6
330
1F
100
AcDbEntity
  8
SANINDUSA
100
AcDbCircle
 10
5006.887484646707
 20
3069.937745577924
 30
0.0
 40
1.311401957338609
100
AcDbArc
 50
88.54405768730408
 51
88.80015814645938
  0
LWPOLYLINE
  5
22F7
330
1F
100
AcDbEntity
  8
SANINDUSA
100
AcDbPolyline
 90
        3
 70
   128
 43
0.0
 10
5006.920805078412
 20
3071.248724212109
 10
5006.928803932335
 20
3071.248528060674
 10
5006.931801688339
 20
3071.248454553245
  0
ARC
  5
22F8
330
1F
100
AcDbEntity
  8
SANINDUSA
100
AcDbCircle
 10
5006.90548467334
 20
3070.125730690115
 30
0.0
 40
1.123032191367147
100
AcDbArc
 50
88.35814794970263
 51
88.65721854717801
  0
LINE
  5
22F9
330
1F
100
AcDbEntity
  8
SANINDUSA
100
AcDbLine
 10
5006.937672120001
 20
3071.248298620044
 30
0.0
 11
5006.979913395311
 21
3071.247260046362
 31
0.0
  0
ARC
  5
22FA
330
1F
100
AcDbEntity
  8
SANINDUSA
100
AcDbCircle
 10
5006.967487250935
 20
3070.551613005202
 30
0.0
 40
0.6957580146420006
100
AcDbArc
 50
88.49294820989467
 51
88.97665071649278
  0
LWPOLYLINE
  5
22FB
330
1F
100
AcDbEntity
  8
SANINDUSA
100
AcDbPolyline
 90
        3
 70
   128
 43
0.0
 10
5006.985785674717
 20
3071.247130421161
 10
5006.993785035278
 20
3071.246934470891
 10
5006.996782433654
 20
3071.246861082672
  0
ARC
  5
22FC
330
1F
100
AcDbEntity
  8
SANINDUSA
100
AcDbCircle
 10
5006.983511868146
 20
3070.652316626715
 30
0.0
 40
0.5946924425814226
100
AcDbArc
 50
88.15557504248976
 51
88.72134391229371
  0
LINE
  5
22FD
330
1F
100
AcDbEntity
  8
SANINDUSA
100
AcDbLine
 10
5007.002652477886
 20
3071.246700962245
 30
0.0
 11
5007.029384058381
 21
3071.246043709277
 31
0.0
  0
LINE
  5
22FE
330
1F
100
AcDbEntity
  8
SANINDUSA
100
AcDbLine
 10
5006.684351403679
 20
3071.254526985048
 30
0.0
 11
5006.719991948869
 21
3071.253650692462
 31
0.0
  0
ARC
  5
2301
330
1F
100
AcDbEntity
  8
SANINDUSA
100
AcDbCircle
 10
5007.277777782034
 20
3071.331171997606
 30
0.0
 40
0.0090000000000001
100
AcDbArc
 50
90.0
 51
168.0000000087166
  0
LINE
  5
2302
330
1F
100
AcDbEntity
  8
SANINDUSA
100
AcDbLine
 10
5007.277777802612
 20
3071.340171997606
 30
0.0
 11
5007.301645469333
 21
3071.340171997606
 31
0.0
  0
ARC
  5
2303
330
1F
100
AcDbEntity
  8
SANINDUSA
100
AcDbCircle
 10
5007.301645450366
 20
3071.331171997606
 30
0.0
 40
0.0090000000000001
100
AcDbArc
 50
1.000000009720081
 51
90.0
  0
LINE
  5
2304
330
1F
100
AcDbEntity
  8
SANINDUSA
100
AcDbLine
 10
5007.310644079623
 20
3071.331329069263
 30
0.0
 11
5007.311187934543
 21
3071.3001719985
 31
0.0
  0
LINE
  5
2305
330
1F
100
AcDbEntity
  8
SANINDUSA
100
AcDbLine
 10
5007.311187934543
 20
3071.3001719985
 30
0.0
 11
5007.307187330391
 21
3071.3001719985
 31
0.0
  0
LINE
  5
2306
330
1F
100
AcDbEntity
  8
SANINDUSA
100
AcDbLine
 10
5007.306644689704
 20
3071.331259259193
 30
0.0
 11
5007.307187330391
 21
3071.3001719985
 31
0.0
  0
ARC
  5
2307
330
1F
100
AcDbEntity
  8
SANINDUSA
100
AcDbCircle
 10
5007.301645450366
 20
3071.331171997606
 30
0.0
 40
0.0049999999999999
100
AcDbArc
 50
1.000000009720081
 51
90.0
  0
LINE
  5
2308
330
1F
100
AcDbEntity
  8
SANINDUSA
100
AcDbLine
 10
5007.277777802612
 20
3071.336171997416
 30
0.0
 11
5007.301645469333
 21
3071.336171997416
 31
0.0
  0
ARC
  5
2309
330
1F
100
AcDbEntity
  8
SANINDUSA
100
AcDbCircle
 10
5007.277777782034
 20
3071.331171997606
 30
0.0
 40
0.005
100
AcDbArc
 50
90.0
 51
168.0000000087166
  0
LINE
  5
230A
330
1F
100
AcDbEntity
  8
SANINDUSA
100
AcDbLine
 10
5007.272887062694
 20
3071.332211556083
 30
0.0
 11
5007.259114217426
 21
3071.267415610313
 31
0.0
  0
ARC
  5
230B
330
1F
100
AcDbEntity
  8
SANINDUSA
100
AcDbCircle
 10
5007.235638627015
 20
3071.272405515795
 30
0.0
 40
0.0240000521216778
100
AcDbArc
 50
285.7805254656089
 51
347.999965673299
  0
LINE
  5
230C
330
1F
100
AcDbEntity
  8
SANINDUSA
100
AcDbLine
 10
5007.187582742836
 20
3071.244180222212
 30
0.0
 11
5007.215631138946
 21
3071.245159697889
 31
0.0
  0
LINE
  5
230D
330
1F
100
AcDbEntity
  8
SANINDUSA
100
AcDbLine
 10
5007.177228998806
 20
3071.233077203094
 30
0.0
 11
5007.187582742836
 21
3071.244180222212
 31
0.0
  0
LINE
  5
230E
330
1F
100
AcDbEntity
  8
SANINDUSA
100
AcDbLine
 10
5007.103750478889
 20
3071.233077203094
 30
0.0
 11
5007.177228998806
 21
3071.233077203094
 31
0.0
  0
LINE
  5
230F
330
1F
100
AcDbEntity
  8
SANINDUSA
100
AcDbLine
 10
5007.093396734859
 20
3071.244180222212
 30
0.0
 11
5007.103750478889
 21
3071.233077203094
 31
0.0
  0
LINE
  5
2310
330
1F
100
AcDbEntity
  8
SANINDUSA
100
AcDbLine
 10
5007.065371107723
 20
3071.245158900677
 30
0.0
 11
5007.093396734859
 21
3071.244180222212
 31
0.0
  0
ARC
  5
2311
330
1F
100
AcDbEntity
  8
SANINDUSA
100
AcDbCircle
 10
5007.00284914637
 20
3071.25469861881
 30
0.0
 40
0.0080000743152038
100
AcDbArc
 50
217.2739881334712
 51
268.5913368882959
  0
LINE
  5
2312
330
1F
100
AcDbEntity
  8
SANINDUSA
100
AcDbLine
 10
5006.986230235959
 20
3071.250105639159
 30
0.0
 11
5006.996483099129
 21
3071.249853556214
 31
0.0
  0
ARC
  5
2313
330
1F
100
AcDbEntity
  8
SANINDUSA
100
AcDbCircle
 10
5006.980110043367
 20
3071.255257586511
 30
0.0
 40
0.0079999574305787
100
AcDbArc
 50
268.5914626684484
 51
319.9094959901718
  0
ARC
  5
2314
330
1F
100
AcDbEntity
  8
SANINDUSA
100
AcDbCircle
 10
5006.937868788486
 20
3071.25629627661
 30
0.0
 40
0.0080000743149549
100
AcDbArc
 50
217.2739881334712
 51
268.5913368882959
  0
LINE
  5
2315
330
1F
100
AcDbEntity
  8
SANINDUSA
100
AcDbLine
 10
5006.921249878074
 20
3071.251703296959
 30
0.0
 11
5006.931502741243
 21
3071.251451214014
 31
0.0
  0
ARC
  5
2316
330
1F
100
AcDbEntity
  8
SANINDUSA
100
AcDbCircle
 10
5006.915129644769
 20
3071.256855334687
 30
0.0
 40
0.0080000467788604
100
AcDbArc
 50
268.5917700552264
 51
319.9091885860087
  0
ARC
  5
2317
330
1F
100
AcDbEntity
  8
SANINDUSA
100
AcDbCircle
 10
5006.8728884306
 20
3071.257893941861
 30
0.0
 40
0.0080000743148194
100
AcDbArc
 50
217.2739881334712
 51
268.5913368882959
  0
LINE
  5
2318
330
1F
100
AcDbEntity
  8
SANINDUSA
100
AcDbLine
 10
5006.856269520189
 20
3071.253300962208
 30
0.0
 11
5006.866522383358
 21
3071.253048879265
 31
0.0
  0
ARC
  5
2319
330
1F
100
AcDbEntity
  8
SANINDUSA
100
AcDbCircle
 10
5006.850149286885
 20
3071.258452999936
 30
0.0
 40
0.0080000467784529
100
AcDbArc
 50
268.5917700552264
 51
319.9091885860087
  0
ARC
  5
231A
330
1F
100
AcDbEntity
  8
SANINDUSA
100
AcDbCircle
 10
5006.807908029644
 20
3071.259491534275
 30
0.0
 40
0.0080000004421102
100
AcDbArc
 50
217.2738023037197
 51
268.591632442586
  0
LINE
  5
231B
330
1F
100
AcDbEntity
  8
SANINDUSA
100
AcDbLine
 10
5006.791289162304
 20
3071.254898627459
 30
0.0
 11
5006.801542025472
 21
3071.254646537064
 31
0.0
  0
ARC
  5
231C
330
1F
100
AcDbEntity
  8
SANINDUSA
100
AcDbCircle
 10
5006.78516893048
 20
3071.260050639927
 30
0.0
 40
0.0080000293772394
100
AcDbArc
 50
268.5916496440059
 51
319.9093201533788
  0
ARC
  5
231D
330
1F
100
AcDbEntity
  8
SANINDUSA
100
AcDbCircle
 10
5006.742927655948
 20
3071.261089148754
 30
0.0
 40
0.0079999571128634
100
AcDbArc
 50
217.2735815176932
 51
268.5916313479618
  0
LINE
  5
231E
330
1F
100
AcDbEntity
  8
SANINDUSA
100
AcDbLine
 10
5006.726308789517
 20
3071.256496285259
 30
0.0
 11
5006.736561667587
 21
3071.256244202315
 31
0.0
  0
ARC
  5
231F
330
1F
100
AcDbEntity
  8
SANINDUSA
100
AcDbCircle
 10
5006.720188576569
 20
3071.261648277797
 30
0.0
 40
0.0080000021039696
100
AcDbArc
 50
268.5916163878847
 51
319.9093422713108
  0
ARC
  5
2320
330
1F
100
AcDbEntity
  8
SANINDUSA
100
AcDbCircle
 10
5006.633773734346
 20
3071.279777789757
 30
0.0
 40
0.0240000103751994
100
AcDbArc
 50
192.0000166202831
 51
268.59153892876
  0
LINE
  5
2321
330
1F
100
AcDbEntity
  8
SANINDUSA
100
AcDbLine
 10
5006.610298183228
 20
3071.274787900208
 30
0.0
 11
5006.598092407401
 21
3071.332211556083
 31
0.0
  0
ARC
  5
2322
330
1F
100
AcDbEntity
  8
SANINDUSA
100
AcDbCircle
 10
5006.593201669436
 20
3071.331171997606
 30
0.0
 40
0.005
100
AcDbArc
 50
11.9999999912834
 51
90.0
  0
LINE
  5
2323
330
1F
100
AcDbEntity
  8
SANINDUSA
100
AcDbLine
 10
5006.569334000761
 20
3071.336171997416
 30
0.0
 11
5006.593201671209
 21
3071.336171997416
 31
0.0
  0
ARC
  5
2324
330
1F
100
AcDbEntity
  8
SANINDUSA
100
AcDbCircle
 10
5006.569334001103
 20
3071.331171997606
 30
0.0
 40
0.0050000000000001
100
AcDbArc
 50
90.0
 51
178.9999999902799
  0
LINE
  5
2325
330
1F
100
AcDbEntity
  8
SANINDUSA
100
AcDbLine
 10
5006.563792132487
 20
3071.3001719985
 30
0.0
 11
5006.564334762696
 21
3071.331259259193
 31
0.0
  0
LINE
  5
2326
330
1F
100
AcDbEntity
  8
SANINDUSA
100
AcDbLine
 10
5006.563792132487
 20
3071.3001719985
 30
0.0
 11
5006.559791523153
 21
3071.3001719985
 31
0.0
  0
LINE
  5
2327
330
1F
100
AcDbEntity
  8
SANINDUSA
100
AcDbLine
 10
5006.559791523153
 20
3071.3001719985
 30
0.0
 11
5006.560335377725
 21
3071.331329405691
 31
0.0
  0
ARC
  5
2328
330
1F
100
AcDbEntity
  8
SANINDUSA
100
AcDbCircle
 10
5006.569334001103
 20
3071.331171997606
 30
0.0
 40
0.0090000000000001
100
AcDbArc
 50
90.0
 51
178.9999999902799
  0
LINE
  5
2329
330
1F
100
AcDbEntity
  8
SANINDUSA
100
AcDbLine
 10
5006.569334000761
 20
3071.340171997606
 30
0.0
 11
5006.593201671209
 21
3071.340171997606
 31
0.0
  0
ARC
  5
232A
330
1F
100
AcDbEntity
  8
SANINDUSA
100
AcDbCircle
 10
5006.593201669436
 20
3071.331171997606
 30
0.0
 40
0.0090000000000001
100
AcDbArc
 50
11.9999999912834
 51
90.0
  0
LINE
  5
232C
330
1F
100
AcDbEntity
  8
SANINDUSA
100
AcDbLine
 10
5006.614210776603
 20
3071.275619535128
 30
0.0
 11
5006.602004971132
 21
3071.333043328604
 31
0.0
  0
ARC
  5
232D
330
1F
100
AcDbEntity
  8
SANINDUSA
100
AcDbCircle
 10
5006.633773712897
 20
3071.279777766071
 30
0.0
 40
0.0199999840251701
100
AcDbArc
 50
191.9999609135525
 51
268.5915946510442
  0
LINE
  5
232E
330
1F
100
AcDbEntity
  8
SANINDUSA
100
AcDbLine
 10
5006.633282136585
 20
3071.259783824145
 30
0.0
 11
5006.684453647997
 21
3071.258525674402
 31
0.0
  0
ARC
  5
232F
330
1F
100
AcDbEntity
  8
SANINDUSA
100
AcDbCircle
 10
5006.720188578935
 20
3071.261648290762
 30
0.0
 40
0.004000012978597
100
AcDbArc
 50
268.5916441187906
 51
323.7414647862534
  0
ARC
  5
2330
330
1F
100
AcDbEntity
  8
SANINDUSA
100
AcDbCircle
 10
5006.725833091417
 20
3071.257508290213
 30
0.0
 40
0.0029999960012342
100
AcDbArc
 50
88.59153976227139
 51
143.7417772361267
  0
LINE
  5
2331
330
1F
100
AcDbEntity
  8
SANINDUSA
100
AcDbLine
 10
5006.725906830694
 20
3071.260507379829
 30
0.0
 11
5006.737160262133
 21
3071.260230695068
 31
0.0
  0
ARC
  5
2332
330
1F
100
AcDbEntity
  8
SANINDUSA
100
AcDbCircle
 10
5006.73708651333
 20
3071.257231568588
 30
0.0
 40
0.0030000330874024
100
AcDbArc
 50
33.44171310166636
 51
88.59137520078229
  0
ARC
  5
2333
330
1F
100
AcDbEntity
  8
SANINDUSA
100
AcDbCircle
 10
5006.742927653042
 20
3071.261089149721
 30
0.0
 40
0.0039999558637279
100
AcDbArc
 50
213.4411723027398
 51
268.5917453470803
  0
ARC
  5
2334
330
1F
100
AcDbEntity
  8
SANINDUSA
100
AcDbCircle
 10
5006.785168957282
 20
3071.260050573075
 30
0.0
 40
0.0039999610606133
100
AcDbArc
 50
268.5913327181771
 51
323.7419831870194
  0
ARC
  5
2335
330
1F
100
AcDbEntity
  8
SANINDUSA
100
AcDbCircle
 10
5006.790813451013
 20
3071.255910610686
 30
0.0
 40
0.0030000102307777
100
AcDbArc
 50
88.59157922211684
 51
143.7414619721844
  0
LINE
  5
2336
330
1F
100
AcDbEntity
  8
SANINDUSA
100
AcDbLine
 10
5006.790887188579
 20
3071.258909714579
 30
0.0
 11
5006.802140634921
 21
3071.258633029817
 31
0.0
  0
ARC
  5
2337
330
1F
100
AcDbEntity
  8
SANINDUSA
100
AcDbCircle
 10
5006.802066908329
 20
3071.255633962
 30
0.0
 40
0.0029999738963059
100
AcDbArc
 50
33.44128757915323
 51
88.59177177498423
  0
ARC
  5
2338
330
1F
100
AcDbEntity
  8
SANINDUSA
100
AcDbCircle
 10
5006.807908048039
 20
3071.259491543132
 30
0.0
 40
0.0040000150537217
100
AcDbArc
 50
213.4414914446247
 51
268.5914479167491
  0
ARC
  5
2339
330
1F
100
AcDbEntity
  8
SANINDUSA
100
AcDbCircle
 10
5006.850149265964
 20
3071.258453008861
 30
0.0
 40
0.0040000604911815
100
AcDbArc
 50
268.5922862058567
 51
323.741233028296
  0
ARC
  5
233A
330
1F
100
AcDbEntity
  8
SANINDUSA
100
AcDbCircle
 10
5006.855793807188
 20
3071.254312967163
 30
0.0
 40
0.0029999960005616
100
AcDbArc
 50
88.59153981436584
 51
143.7417772361267
  0
LINE
  5
233B
330
1F
100
AcDbEntity
  8
SANINDUSA
100
AcDbLine
 10
5006.855867546465
 20
3071.257312056779
 30
0.0
 11
5006.867120992805
 21
3071.257035364567
 31
0.0
  0
ARC
  5
233C
330
1F
100
AcDbEntity
  8
SANINDUSA
100
AcDbCircle
 10
5006.867047217259
 20
3071.25403620837
 30
0.0
 40
0.0030000634533749
100
AcDbArc
 50
33.44218078326898
 51
88.59087859710397
  0
ARC
  5
233D
330
1F
100
AcDbEntity
  8
SANINDUSA
100
AcDbCircle
 10
5006.87288836792
 20
3071.257893825876
 30
0.0
 40
0.0039999546808439
100
AcDbArc
 50
213.4411698385028
 51
268.5919712608983
  0
ARC
  5
233E
330
1F
100
AcDbEntity
  8
SANINDUSA
100
AcDbCircle
 10
5006.915129693108
 20
3071.256855210103
 30
0.0
 40
0.003999921277011
100
AcDbArc
 50
268.5912448337552
 51
323.7422744060117
  0
ARC
  5
233F
330
1F
100
AcDbEntity
  8
SANINDUSA
100
AcDbCircle
 10
5006.920774166785
 20
3071.252715287635
 30
0.0
 40
0.0030000102315493
100
AcDbArc
 50
88.59157922211684
 51
143.7414619511747
  0
LINE
  5
2340
330
1F
100
AcDbEntity
  8
SANINDUSA
100
AcDbLine
 10
5006.92084790435
 20
3071.255714391528
 30
0.0
 11
5006.932101350691
 21
3071.255437706768
 31
0.0
  0
ARC
  5
2341
330
1F
100
AcDbEntity
  8
SANINDUSA
100
AcDbCircle
 10
5006.932027684004
 20
3071.252438756244
 30
0.0
 40
0.0029998551661397
100
AcDbArc
 50
33.43992995966752
 51
88.59286047767803
  0
ARC
  5
2342
330
1F
100
AcDbEntity
  8
SANINDUSA
100
AcDbCircle
 10
5006.937868823718
 20
3071.256296337385
 30
0.0
 40
0.0040001337937423
100
AcDbArc
 50
213.4425096446766
 51
268.5906314152955
  0
ARC
  5
2343
330
1F
100
AcDbEntity
  8
SANINDUSA
100
AcDbCircle
 10
5006.980110038792
 20
3071.255257646789
 30
0.0
 40
0.0040000154351647
100
AcDbArc
 50
268.5914528161904
 51
323.7414528001979
  0
ARC
  5
2344
330
1F
100
AcDbEntity
  8
SANINDUSA
100
AcDbCircle
 10
5006.985754513624
 20
3071.251117721972
 30
0.0
 40
0.0029999183941561
100
AcDbArc
 50
88.59132500371343
 51
143.7425342528305
  0
LINE
  5
2345
330
1F
100
AcDbEntity
  8
SANINDUSA
100
AcDbLine
 10
5006.985828262235
 20
3071.254116733729
 30
0.0
 11
5006.997081708576
 21
3071.253840041517
 31
0.0
  0
ARC
  5
2346
330
1F
100
AcDbEntity
  8
SANINDUSA
100
AcDbCircle
 10
5006.997008030939
 20
3071.250841062076
 30
0.0
 40
0.0029998843451318
100
AcDbArc
 50
33.4403943532957
 51
88.59266500559927
  0
ARC
  5
2347
330
1F
100
AcDbEntity
  8
SANINDUSA
100
AcDbCircle
 10
5007.002849199754
 20
3071.254698695751
 30
0.0
 40
0.004000157849553
100
AcDbArc
 50
213.4425595722456
 51
268.5903798556311
  0
LINE
  5
2348
330
1F
100
AcDbEntity
  8
SANINDUSA
100
AcDbLine
 10
5007.029494714405
 20
3071.250042197465
 30
0.0
 11
5007.065489720966
 21
3071.249157269655
 31
0.0
  0
LINE
  5
2349
330
1F
100
AcDbEntity
  8
SANINDUSA
100
AcDbLine
 10
5007.065489720966
 20
3071.24915719515
 30
0.0
 11
5007.095192205574
 21
3071.248119962572
 31
0.0
  0
LINE
  5
234A
330
1F
100
AcDbEntity
  8
SANINDUSA
100
AcDbLine
 10
5007.095192205574
 20
3071.248119962572
 30
0.0
 11
5007.105489742424
 21
3071.23707720375
 31
0.0
  0
LINE
  5
234B
330
1F
100
AcDbEntity
  8
SANINDUSA
100
AcDbLine
 10
5007.105489742424
 20
3071.23707720375
 30
0.0
 11
5007.175489735271
 21
3071.23707720375
 31
0.0
  0
LINE
  5
234C
330
1F
100
AcDbEntity
  8
SANINDUSA
100
AcDbLine
 10
5007.175489735271
 20
3071.23707720375
 30
0.0
 11
5007.185787272121
 21
3071.248119962572
 31
0.0
  0
LINE
  5
234D
330
1F
100
AcDbEntity
  8
SANINDUSA
100
AcDbLine
 10
5007.185787272121
 20
3071.248119962572
 30
0.0
 11
5007.215489697124
 21
3071.24915719515
 31
0.0
  0
ARC
  5
234E
330
1F
100
AcDbEntity
  8
SANINDUSA
100
AcDbCircle
 10
5007.211716148152
 20
3071.357082117029
 30
0.0
 40
0.1079910155531593
100
AcDbArc
 50
272.0025357483105
 51
285.776679909967
  0
ARC
  5
234F
330
1F
100
AcDbEntity
  8
SANINDUSA
100
AcDbCircle
 10
5007.235638645247
 20
3071.272405543214
 30
0.0
 40
0.020000061408611
100
AcDbArc
 50
285.7803694086312
 51
347.9998898580909
  0
LINE
  5
2350
330
1F
100
AcDbEntity
  8
SANINDUSA
100
AcDbLine
 10
5007.268975161855
 20
3071.333046622533
 30
0.0
 11
5007.255201649334
 21
3071.26824725902
 31
0.0
  0
LINE
  5
2354
330
1F
100
AcDbEntity
  8
SANINDUSA
100
AcDbLine
 10
5007.185787272121
 20
3071.248119962572
 30
0.0
 11
5007.095192205574
 21
3071.248119962572
 31
0.0
  0
LINE
  5
245A
330
1F
100
AcDbEntity
  8
SANINDUSA
100
AcDbLine
 10
5006.593201671209
 20
3071.340171997606
 30
0.0
 11
5006.611786473955
 21
3071.340171997606
 31
0.0
  0
LINE
  5
245C
330
1F
100
AcDbEntity
  8
SANINDUSA
100
AcDbLine
 10
5007.259192955162
 20
3071.340171997606
 30
0.0
 11
5007.277777802612
 21
3071.340171997606
 31
0.0
  0
LINE
  5
245D
330
1F
100
AcDbEntity
  8
SANINDUSA
100
AcDbLine
 10
5006.611786473955
 20
3071.340171997606
 30
0.0
 11
5007.259192955162
 21
3071.340171997606
 31
0.0
  0
LINE
  5
2463
330
1F
100
AcDbEntity
  8
SANINDUSA
100
AcDbLine
 10
5007.307187330391
 20
3071.3001719985
 30
0.0
 11
5007.306187462475
 21
3071.3001719985
 31
0.0
  0
LINE
  5
2465
330
1F
100
AcDbEntity
  8
SANINDUSA
100
AcDbLine
 10
5006.564791980147
 20
3071.3001719985
 30
0.0
 11
5006.563792132487
 21
3071.3001719985
 31
0.0
  0
LINE
  5
2466
330
1F
100
AcDbEntity
  8
SANINDUSA
100
AcDbLine
 10
5007.306187462475
 20
3071.3001719985
 30
0.0
 11
5007.266076814796
 21
3071.3001719985
 31
0.0
  0
LINE
  5
2467
330
1F
100
AcDbEntity
  8
SANINDUSA
100
AcDbLine
 10
5006.604902625497
 20
3071.3001719985
 30
0.0
 11
5006.564791980147
 21
3071.3001719985
 31
0.0
  0
LWPOLYLINE
  5
24B5
330
1F
100
AcDbEntity
  8
SANINDUSA
100
AcDbPolyline
 90
       24
 70
   128
 43
0.0
 10
5005.047518915379
 20
3071.243490699962
 10
5005.030599287594
 20
3071.2432800944
 10
5005.009623265708
 20
3071.243037630156
 10
5004.989819682086
 20
3071.242815267578
 10
5004.9711881791
 20
3071.242617097035
 10
5004.953729561413
 20
3071.242445010975
 10
5004.93744493171
 20
3071.242296006814
 10
5004.922332874382
 20
3071.242167417243
 10
5004.909510305965
 20
3071.242068808809
 10
5004.897673538769
 20
3071.241987850801
 10
5004.886822766508
 20
3071.241922732726
 10
5004.876958018982
 20
3071.24187145783
 10
5004.868079251492
 20
3071.241832133666
 10
5004.860186434234
 20
3071.241803083852
 10
5004.854237801279
 20
3071.241785247162
 10
5004.849005377734
 20
3071.24177276744
 10
5004.844489163602
 20
3071.24176467611
 10
5004.84068927809
 20
3071.241759982243
 10
5004.837605810607
 20
3071.241757732168
 10
5004.835238820756
 20
3071.241757024363
 10
5004.833452350343
 20
3071.241757136121
 10
5004.831175095285
 20
3071.241757992938
 10
5004.827769673312
 20
3071.241760749654
 10
5004.821971303666
 20
3071.241770375804
  0
ENDSEC
  0
SECTION
  2
OBJECTS
  0
DICTIONARY
  5
C
330
0
100
AcDbDictionary
281
     1
  3
ACAD_COLOR
350
EE6
  3
ACAD_GROUP
350
D
  3
ACAD_LAYOUT
350
1A
  3
ACAD_MATERIAL
350
EE5
  3
ACAD_MLINESTYLE
350
17
  3
ACAD_PLOTSETTINGS
350
19
  3
ACAD_PLOTSTYLENAME
350
E
  3
ACAD_TABLESTYLE
350
EE7
  3
ACDBHEADERROUNDTRIPXREC
350
2944
  3
AcDbVariableDictionary
350
3D
  3
ASE_INDEX_DICTIONARY
350
2924
  0
DICTIONARY
  5
1051
330
2
100
AcDbDictionary
280
     1
281
     1
  3
ACAD_LAYERFILTERS
360
1057
  3
ACLYDICTIONARY
360
1056
  0
DICTIONARY
  5
EE6
102
{ACAD_REACTORS
330
C
102
}
330
C
100
AcDbDictionary
281
     1
  0
DICTIONARY
  5
D
102
{ACAD_REACTORS
330
C
102
}
330
C
100
AcDbDictionary
281
     1
  0
DICTIONARY
  5
1A
102
{ACAD_REACTORS
330
C
102
}
330
C
100
AcDbDictionary
281
     1
  3
Layout1
350
1E
  3
Layout2
350
26
  3
Model
350
22
  0
DICTIONARY
  5
EE5
102
{ACAD_REACTORS
330
C
102
}
330
C
100
AcDbDictionary
281
     1
  0
DICTIONARY
  5
17
102
{ACAD_REACTORS
330
C
102
}
330
C
100
AcDbDictionary
281
     1
  3
Standard
350
18
  0
DICTIONARY
  5
19
102
{ACAD_REACTORS
330
C
102
}
330
C
100
AcDbDictionary
281
     1
  0
ACDBDICTIONARYWDFLT
  5
E
102
{ACAD_REACTORS
330
C
102
}
330
C
100
AcDbDictionary
281
     1
  3
Normal
350
F
100
AcDbDictionaryWithDefault
340
F
  0
DICTIONARY
  5
EE7
102
{ACAD_REACTORS
330
C
102
}
330
C
100
AcDbDictionary
281
     1
  3
Standard
350
EE8
  0
DICTIONARY
  5
2944
102
{ACAD_REACTORS
330
C
102
}
330
C
100
AcDbDictionary
281
     1
  0
DICTIONARY
  5
3D
102
{ACAD_REACTORS
330
C
102
}
330
C
100
AcDbDictionary
281
     1
  3
CTABLESTYLE
350
1049
  3
DIMASSOC
350
3F
  3
HIDETEXT
350
3E
  3
PROJECTNAME
350
293C
  0
DICTIONARY
  5
2924
102
{ACAD_REACTORS
330
C
102
}
330
C
100
AcDbDictionary
281
     1
  3
ASEBlockHierarchyIndexRecord
350
2925
1001
DCO15
1040
1598603376.171
  0
DICTIONARY
  5
1057
102
{ACAD_REACTORS
330
1051
102
}
330
1051
100
AcDbDictionary
281
     1
  0
DICTIONARY
  5
1056
102
{ACAD_REACTORS
330
1051
102
}
330
1051
100
AcDbDictionary
281
     1
1001
ACAD
1000
<All
  0
LAYOUT
  5
1E
102
{ACAD_XDICTIONARY
360
2945
102
}
102
{ACAD_REACTORS
330
1A
102
}
330
1A
100
AcDbPlotSettings
  1

  2
Ploter HP500
  4

  6

 40
0.0
 41
0.0
 42
0.0
 43
0.0
 44
0.0
 45
0.0
 46
0.0
 47
0.0
 48
0.0
 49
0.0
140
0.0
141
0.0
142
1.0
143
1.0
 70
   688
 72
     0
 73
     0
 74
     5
  7
sanindusa.ctb
 75
    16
147
1.0
148
0.0
149
0.0
100
AcDbLayout
  1
Layout1
 70
     1
 71
     1
 10
0.0
 20
0.0
 11
420.0
 21
297.0
 12
0.0
 22
0.0
 32
0.0
 14
1.000000000000000E+20
 24
1.000000000000000E+20
 34
1.000000000000000E+20
 15
-1.000000000000000E+20
 25
-1.000000000000000E+20
 35
-1.000000000000000E+20
146
0.0
 13
0.0
 23
0.0
 33
0.0
 16
1.0
 26
0.0
 36
0.0
 17
0.0
 27
1.0
 37
0.0
 76
     0
330
1B
  0
LAYOUT
  5
26
102
{ACAD_XDICTIONARY
360
2949
102
}
102
{ACAD_REACTORS
330
1A
102
}
330
1A
100
AcDbPlotSettings
  1

  2
Ploter HP500
  4

  6

 40
0.0
 41
0.0
 42
0.0
 43
0.0
 44
0.0
 45
0.0
 46
0.0
 47
0.0
 48
0.0
 49
0.0
140
0.0
141
0.0
142
1.0
143
1.0
 70
   688
 72
     0
 73
     0
 74
     5
  7
sanindusa.ctb
 75
    16
147
1.0
148
0.0
149
0.0
100
AcDbLayout
  1
Layout2
 70
     1
 71
     2
 10
0.0
 20
0.0
 11
12.0
 21
9.0
 12
0.0
 22
0.0
 32
0.0
 14
0.0
 24
0.0
 34
0.0
 15
0.0
 25
0.0
 35
0.0
146
0.0
 13
0.0
 23
0.0
 33
0.0
 16
1.0
 26
0.0
 36
0.0
 17
0.0
 27
1.0
 37
0.0
 76
     0
330
23
  0
LAYOUT
  5
22
102
{ACAD_XDICTIONARY
360
2947
102
}
102
{ACAD_REACTORS
330
1A
102
}
330
1A
100
AcDbPlotSettings
  1

  2
Ploter HP500
  4
User268
  6

 40
4.995333194732666
 41
16.97565841674804
 42
4.995330810546875
 43
16.97567749023437
 44
209.9733276367187
 45
296.9259948730469
 46
0.0
 47
0.0
 48
0.0
 49
0.0
140
0.0
141
0.0
142
1.0
143
1.0
 70
 11952
 72
     1
 73
     1
 74
     0
  7
sanindusa.ctb
 75
     0
147
1.0
148
-427.5957866592534
149
7.362384574453926
100
AcDbLayout
  1
Model
 70
     1
 71
     0
 10
0.0
 20
0.0
 11
12.0
 21
9.0
 12
0.0
 22
0.0
 32
0.0
 14
0.0
 24
0.0
 34
0.0
 15
0.0
 25
0.0
 35
0.0
146
0.0
 13
0.0
 23
0.0
 33
0.0
 16
1.0
 26
0.0
 36
0.0
 17
0.0
 27
1.0
 37
0.0
 76
     0
330
1F
  0
MLINESTYLE
  5
18
102
{ACAD_REACTORS
330
17
102
}
330
17
100
AcDbMlineStyle
  2
STANDARD
 70
     0
  3

 62
   256
 51
90.0
 52
90.0
 71
     2
 49
0.5
 62
   256
  6
BYLAYER
 49
-0.5
 62
   256
  6
BYLAYER
  0
ACDBPLACEHOLDER
  5
F
102
{ACAD_REACTORS
330
E
102
}
330
E
  0
TABLESTYLE
  5
EE8
102
{ACAD_REACTORS
330
EE7
102
}
330
EE7
100
AcDbTableStyle
  3
Standard
 70
     0
 71
     0
 40
1.5
 41
1.5
280
     0
281
     0
  7
Standard
140
4.5
170
     2
 62
     0
 63
     7
283
     0
274
    -2
284
     1
 64
     0
275
    -2
285
     1
 65
     0
276
    -2
286
     1
 66
     0
277
    -2
287
     1
 67
     0
278
    -2
288
     1
 68
     0
279
    -2
289
     1
 69
     0
  7
Standard
140
6.0
170
     5
 62
     0
 63
     7
283
     0
274
    -2
284
     1
 64
     0
275
    -2
285
     1
 65
     0
276
    -2
286
     1
 66
     0
277
    -2
287
     1
 67
     0
278
    -2
288
     1
 68
     0
279
    -2
289
     1
 69
     0
  7
Standard
140
4.5
170
     5
 62
     0
 63
     7
283
     0
274
    -2
284
     1
 64
     0
275
    -2
285
     1
 65
     0
276
    -2
286
     1
 66
     0
277
    -2
287
     1
 67
     0
278
    -2
288
     1
 68
     0
279
    -2
289
     1
 69
     0
  0
DICTIONARYVAR
  5
1049
102
{ACAD_REACTORS
330
3D
102
}
330
3D
100
DictionaryVariables
280
     0
  1
STANDARD
  0
DICTIONARYVAR
  5
3F
102
{ACAD_REACTORS
330
3D
102
}
330
3D
100
DictionaryVariables
280
     0
  1
2
  0
DICTIONARYVAR
  5
3E
102
{ACAD_REACTORS
330
3D
102
}
330
3D
100
DictionaryVariables
280
     0
  1
1
  0
DICTIONARYVAR
  5
293C
102
{ACAD_REACTORS
330
3D
102
}
330
3D
100
DictionaryVariables
280
     0
  1

  0
XRECORD
  5
2925
102
{ACAD_REACTORS
330
2924
102
}
330
2924
100
AcDbXrecord
280
     1
  0
DICTIONARY
  5
2945
330
1E
100
AcDbDictionary
280
     1
281
     1
  3
ACAD_XREC_ROUNDTRIP
360
2946
  0
DICTIONARY
  5
2949
330
26
100
AcDbDictionary
280
     1
281
     1
  3
ACAD_XREC_ROUNDTRIP
360
294A
  0
DICTIONARY
  5
2947
330
22
100
AcDbDictionary
280
     1
281
     1
  3
ACAD_XREC_ROUNDTRIP
360
2948
  0
XRECORD
  5
2946
102
{ACAD_REACTORS
330
2945
102
}
330
2945
100
AcDbXrecord
280
     1
102
SHADEPLOT
 70
     0
102
SHADEPLOTRESLEVEL
 70
     2
102
SHADEPLOTCUSTOMDPI
 70
   300
  0
XRECORD
  5
294A
102
{ACAD_REACTORS
330
2949
102
}
330
2949
100
AcDbXrecord
280
     1
102
SHADEPLOT
 70
     0
102
SHADEPLOTRESLEVEL
 70
     2
102
SHADEPLOTCUSTOMDPI
 70
   300
  0
XRECORD
  5
2948
102
{ACAD_REACTORS
330
2947
102
}
330
2947
100
AcDbXrecord
280
     1
102
SHADEPLOT
 70
     0
102
SHADEPLOTRESLEVEL
 70
     2
102
SHADEPLOTCUSTOMDPI
 70
   300
  0
ENDSEC
  0
EOF
