  0
SECTION
  2
HEADER
  9
$ACADVER
  1
AC1015
  9
$ACADMAINTVER
 70
    20
  9
$DWGCODEPAGE
  3
ANSI_1252
  9
$INSBASE
 10
0.0
 20
0.0
 30
0.0
  9
$EXTMIN
 10
4676.194723030167
 20
2532.678406721635
 30
-0.0000000000000003
  9
$EXTMAX
 10
4679.471604210006
 20
2533.381199532526
 30
0.0000000000000003
  9
$LIMMIN
 10
0.0
 20
0.0
  9
$LIMMAX
 10
420.0
 20
297.0
  9
$ORTHOMODE
 70
     0
  9
$REGENMODE
 70
     1
  9
$FILLMODE
 70
     1
  9
$QTEXTMODE
 70
     0
  9
$MIRRTEXT
 70
     1
  9
$LTSCALE
 40
1.0
  9
$ATTMODE
 70
     1
  9
$TEXTSIZE
 40
2.5
  9
$TRACEWID
 40
1.0
  9
$TEXTSTYLE
  7
SANINDUSA
  9
$CLAYER
  8
0
  9
$CELTYPE
  6
ByLayer
  9
$CECOLOR
 62
   256
  9
$CELTSCALE
 40
1.0
  9
$DISPSILH
 70
     0
  9
$DIMSCALE
 40
1.0
  9
$DIMASZ
 40
2.0
  9
$DIMEXO
 40
1.0
  9
$DIMDLI
 40
1.0
  9
$DIMRND
 40
0.0
  9
$DIMDLE
 40
0.0
  9
$DIMEXE
 40
1.0
  9
$DIMTP
 40
0.0
  9
$DIMTM
 40
0.0
  9
$DIMTXT
 40
2.0
  9
$DIMCEN
 40
0.0
  9
$DIMTSZ
 40
0.0
  9
$DIMTOL
 70
     0
  9
$DIMLIM
 70
     0
  9
$DIMTIH
 70
     0
  9
$DIMTOH
 70
     0
  9
$DIMSE1
 70
     0
  9
$DIMSE2
 70
     0
  9
$DIMTAD
 70
     1
  9
$DIMZIN
 70
     8
  9
$DIMBLK
  1

  9
$DIMASO
 70
     1
  9
$DIMSHO
 70
     1
  9
$DIMPOST
  1

  9
$DIMAPOST
  1

  9
$DIMALT
 70
     0
  9
$DIMALTD
 70
     3
  9
$DIMALTF
 40
0.03937007874016
  9
$DIMLFAC
 40
1.0
  9
$DIMTOFL
 70
     1
  9
$DIMTVP
 40
0.0
  9
$DIMTIX
 70
     0
  9
$DIMSOXD
 70
     0
  9
$DIMSAH
 70
     0
  9
$DIMBLK1
  1

  9
$DIMBLK2
  1

  9
$DIMSTYLE
  2
SANINDUSA
  9
$DIMCLRD
 70
   256
  9
$DIMCLRE
 70
   256
  9
$DIMCLRT
 70
   256
  9
$DIMTFAC
 40
1.0
  9
$DIMGAP
 40
1.0
  9
$DIMJUST
 70
     0
  9
$DIMSD1
 70
     0
  9
$DIMSD2
 70
     0
  9
$DIMTOLJ
 70
     0
  9
$DIMTZIN
 70
     8
  9
$DIMALTZ
 70
     0
  9
$DIMALTTZ
 70
     0
  9
$DIMUPT
 70
     0
  9
$DIMDEC
 70
     1
  9
$DIMTDEC
 70
     1
  9
$DIMALTU
 70
     2
  9
$DIMALTTD
 70
     3
  9
$DIMTXSTY
  7
SANINDUSA
  9
$DIMAUNIT
 70
     0
  9
$DIMADEC
 70
     1
  9
$DIMALTRND
 40
0.0
  9
$DIMAZIN
 70
     0
  9
$DIMDSEP
 70
    44
  9
$DIMATFIT
 70
     3
  9
$DIMFRAC
 70
     0
  9
$DIMLDRBLK
  1

  9
$DIMLUNIT
 70
     2
  9
$DIMLWD
 70
    -1
  9
$DIMLWE
 70
    -1
  9
$DIMTMOVE
 70
     0
  9
$LUNITS
 70
     2
  9
$LUPREC
 70
     4
  9
$SKETCHINC
 40
1.0
  9
$FILLETRAD
 40
3.0
  9
$AUNITS
 70
     0
  9
$AUPREC
 70
     0
  9
$MENU
  1
.
  9
$ELEVATION
 40
0.0
  9
$PELEVATION
 40
0.0
  9
$THICKNESS
 40
0.0
  9
$LIMCHECK
 70
     0
  9
$CHAMFERA
 40
10.0
  9
$CHAMFERB
 40
10.0
  9
$CHAMFERC
 40
20.0
  9
$CHAMFERD
 40
0.0
  9
$SKPOLY
 70
     0
  9
$TDCREATE
 40
2454305.487862593
  9
$TDUCREATE
 40
2454305.487862593
  9
$TDUPDATE
 40
2454478.641553449
  9
$TDUUPDATE
 40
2454478.641553449
  9
$TDINDWG
 40
0.0051408796
  9
$TDUSRTIMER
 40
0.0051406944
  9
$USRTIMER
 70
     1
  9
$ANGBASE
 50
0.0
  9
$ANGDIR
 70
     0
  9
$PDMODE
 70
     0
  9
$PDSIZE
 40
0.0
  9
$PLINEWID
 40
0.0
  9
$SPLFRAME
 70
     0
  9
$SPLINETYPE
 70
     6
  9
$SPLINESEGS
 70
     8
  9
$HANDSEED
  5
274A
  9
$SURFTAB1
 70
     6
  9
$SURFTAB2
 70
     6
  9
$SURFTYPE
 70
     6
  9
$SURFU
 70
     6
  9
$SURFV
 70
     6
  9
$UCSBASE
  2

  9
$UCSNAME
  2

  9
$UCSORG
 10
0.0
 20
0.0
 30
0.0
  9
$UCSXDIR
 10
1.0
 20
0.0
 30
0.0
  9
$UCSYDIR
 10
0.0
 20
1.0
 30
0.0
  9
$UCSORTHOREF
  2

  9
$UCSORTHOVIEW
 70
     0
  9
$UCSORGTOP
 10
0.0
 20
0.0
 30
0.0
  9
$UCSORGBOTTOM
 10
0.0
 20
0.0
 30
0.0
  9
$UCSORGLEFT
 10
0.0
 20
0.0
 30
0.0
  9
$UCSORGRIGHT
 10
0.0
 20
0.0
 30
0.0
  9
$UCSORGFRONT
 10
0.0
 20
0.0
 30
0.0
  9
$UCSORGBACK
 10
0.0
 20
0.0
 30
0.0
  9
$PUCSBASE
  2

  9
$PUCSNAME
  2

  9
$PUCSORG
 10
0.0
 20
0.0
 30
0.0
  9
$PUCSXDIR
 10
1.0
 20
0.0
 30
0.0
  9
$PUCSYDIR
 10
0.0
 20
1.0
 30
0.0
  9
$PUCSORTHOREF
  2

  9
$PUCSORTHOVIEW
 70
     0
  9
$PUCSORGTOP
 10
0.0
 20
0.0
 30
0.0
  9
$PUCSORGBOTTOM
 10
0.0
 20
0.0
 30
0.0
  9
$PUCSORGLEFT
 10
0.0
 20
0.0
 30
0.0
  9
$PUCSORGRIGHT
 10
0.0
 20
0.0
 30
0.0
  9
$PUCSORGFRONT
 10
0.0
 20
0.0
 30
0.0
  9
$PUCSORGBACK
 10
0.0
 20
0.0
 30
0.0
  9
$USERI1
 70
     0
  9
$USERI2
 70
     0
  9
$USERI3
 70
     0
  9
$USERI4
 70
     0
  9
$USERI5
 70
     0
  9
$USERR1
 40
0.0
  9
$USERR2
 40
0.0
  9
$USERR3
 40
0.0
  9
$USERR4
 40
0.0
  9
$USERR5
 40
0.0
  9
$WORLDVIEW
 70
     1
  9
$SHADEDGE
 70
     3
  9
$SHADEDIF
 70
    70
  9
$TILEMODE
 70
     1
  9
$MAXACTVP
 70
    64
  9
$PINSBASE
 10
0.0
 20
0.0
 30
0.0
  9
$PLIMCHECK
 70
     0
  9
$PEXTMIN
 10
1.000000000000000E+20
 20
1.000000000000000E+20
 30
1.000000000000000E+20
  9
$PEXTMAX
 10
-1.000000000000000E+20
 20
-1.000000000000000E+20
 30
-1.000000000000000E+20
  9
$PLIMMIN
 10
0.0
 20
0.0
  9
$PLIMMAX
 10
420.0
 20
297.0
  9
$UNITMODE
 70
     0
  9
$VISRETAIN
 70
     1
  9
$PLINEGEN
 70
     0
  9
$PSLTSCALE
 70
     1
  9
$TREEDEPTH
 70
  3020
  9
$CMLSTYLE
  2
Standard
  9
$CMLJUST
 70
     0
  9
$CMLSCALE
 40
20.0
  9
$PROXYGRAPHICS
 70
     1
  9
$MEASUREMENT
 70
     1
  9
$CELWEIGHT
370
    -1
  9
$ENDCAPS
280
     0
  9
$JOINSTYLE
280
     0
  9
$LWDISPLAY
290
     0
  9
$INSUNITS
 70
     4
  9
$HYPERLINKBASE
  1

  9
$STYLESHEET
  1
sanindusa.ctb
  9
$XEDIT
290
     1
  9
$CEPSNTYPE
380
     0
  9
$PSTYLEMODE
290
     1
  9
$FINGERPRINTGUID
  2
{BA4C6BB5-8C94-4D52-BED8-1C3279C0CD85}
  9
$VERSIONGUID
  2
{9A0227FB-4A79-45DA-8C4C-C5A4DA3826F6}
  9
$EXTNAMES
290
     1
  9
$PSVPSCALE
 40
0.0
  9
$OLESTARTUP
290
     0
  0
ENDSEC
  0
SECTION
  2
CLASSES
  0
CLASS
  1
ACDBDICTIONARYWDFLT
  2
AcDbDictionaryWithDefault
  3
ObjectDBX Classes
 90
        0
280
     0
281
     0
  0
CLASS
  1
ACDBPLACEHOLDER
  2
AcDbPlaceHolder
  3
ObjectDBX Classes
 90
        0
280
     0
281
     0
  0
CLASS
  1
LAYOUT
  2
AcDbLayout
  3
ObjectDBX Classes
 90
        0
280
     0
281
     0
  0
CLASS
  1
DICTIONARYVAR
  2
AcDbDictionaryVar
  3
ObjectDBX Classes
 90
        0
280
     0
281
     0
  0
CLASS
  1
DIMASSOC
  2
AcDbDimAssoc
  3
"AcDbDimAssoc|Product Desc:     AcDim ARX App For Dimension|Company:          Autodesk, Inc.|WEB Address:      www.autodesk.com"
 90
    32768
280
     0
281
     0
  0
CLASS
  1
TABLESTYLE
  2
AcDbTableStyle
  3
ObjectDBX Classes
 90
     2047
280
     0
281
     0
  0
CLASS
  1
SORTENTSTABLE
  2
AcDbSortentsTable
  3
ObjectDBX Classes
 90
    32768
280
     0
281
     0
  0
ENDSEC
  0
SECTION
  2
TABLES
  0
TABLE
  2
VPORT
  5
8
330
0
100
AcDbSymbolTable
 70
     2
  0
VPORT
  5
2742
330
8
100
AcDbSymbolTableRecord
100
AcDbViewportTableRecord
  2
*Active
 70
     0
 10
0.0
 20
0.0
 11
1.0
 21
1.0
 12
4677.833163620087
 22
2533.038141094746
 13
0.0
 23
0.0
 14
10.0
 24
10.0
 15
10.0
 25
10.0
 16
0.0
 26
0.0
 36
1.0
 17
0.0
 27
0.0
 37
0.0
 40
2.082407424428271
 41
1.579579579579579
 42
50.0
 43
0.0
 44
0.0
 50
0.0
 51
0.0
 71
     0
 72
   100
 73
     1
 74
     2
 75
     0
 76
     0
 77
     0
 78
     0
281
     0
 65
     1
110
0.0
120
0.0
130
0.0
111
1.0
121
0.0
131
0.0
112
0.0
122
1.0
132
0.0
 79
     0
146
0.0
  0
ENDTAB
  0
TABLE
  2
LTYPE
  5
5
330
0
100
AcDbSymbolTable
 70
     5
  0
LTYPE
  5
14
330
5
100
AcDbSymbolTableRecord
100
AcDbLinetypeTableRecord
  2
ByBlock
 70
     0
  3

 72
    65
 73
     0
 40
0.0
  0
LTYPE
  5
15
330
5
100
AcDbSymbolTableRecord
100
AcDbLinetypeTableRecord
  2
ByLayer
 70
     0
  3

 72
    65
 73
     0
 40
0.0
  0
LTYPE
  5
16
330
5
100
AcDbSymbolTableRecord
100
AcDbLinetypeTableRecord
  2
Continuous
 70
     0
  3
Solid line
 72
    65
 73
     0
 40
0.0
  0
LTYPE
  5
2D
330
5
100
AcDbSymbolTableRecord
100
AcDbLinetypeTableRecord
  2
DASHDOT
 70
     0
  3
Dash dot __ . __ . __ . __ . __ . __ . __ . __
 72
    65
 73
     4
 40
25.4
 49
12.7
 74
     0
 49
-6.349999999999999
 74
     0
 49
0.0
 74
     0
 49
-6.349999999999999
 74
     0
  0
LTYPE
  5
2E
330
5
100
AcDbSymbolTableRecord
100
AcDbLinetypeTableRecord
  2
HIDDEN
 70
     0
  3
Hidden __ __ __ __ __ __ __ __ __ __ __ __ __ _
 72
    65
 73
     2
 40
9.524999999999998
 49
6.349999999999999
 74
     0
 49
-3.174999999999999
 74
     0
  0
LTYPE
  5
C75
330
5
100
AcDbSymbolTableRecord
100
AcDbLinetypeTableRecord
  2
AM_ISO02W050
 70
     0
  3
__ __ __ __ __ __ __ __ __ __ __ __ __ __ __
 72
    65
 73
     2
 40
7.5
 49
6.0
 74
     0
 49
-1.5
 74
     0
  0
LTYPE
  5
C76
330
5
100
AcDbSymbolTableRecord
100
AcDbLinetypeTableRecord
  2
AM_ISO08W050
 70
     0
  3
____ . ____ . ____ . ____ . ____ . ____ . ____
 72
    65
 73
     4
 40
18.0
 49
12.0
 74
     0
 49
-1.5
 74
     0
 49
3.0
 74
     0
 49
-1.5
 74
     0
  0
ENDTAB
  0
TABLE
  2
LAYER
  5
2
102
{ACAD_XDICTIONARY
360
1051
102
}
330
0
100
AcDbSymbolTable
 70
    16
  0
LAYER
  5
10
330
2
100
AcDbSymbolTableRecord
100
AcDbLayerTableRecord
  2
0
 70
     0
 62
     7
  6
Continuous
370
    -3
390
F
  0
LAYER
  5
2F
330
2
100
AcDbSymbolTableRecord
100
AcDbLayerTableRecord
  2
1
 70
     0
 62
     1
  6
Continuous
370
    -3
390
F
  0
LAYER
  5
30
330
2
100
AcDbSymbolTableRecord
100
AcDbLayerTableRecord
  2
2
 70
     0
 62
     2
  6
Continuous
370
    -3
390
F
  0
LAYER
  5
31
330
2
100
AcDbSymbolTableRecord
100
AcDbLayerTableRecord
  2
3
 70
     0
 62
     3
  6
Continuous
370
    -3
390
F
  0
LAYER
  5
32
330
2
100
AcDbSymbolTableRecord
100
AcDbLayerTableRecord
  2
4
 70
     0
 62
     4
  6
Continuous
370
    -3
390
F
  0
LAYER
  5
33
330
2
100
AcDbSymbolTableRecord
100
AcDbLayerTableRecord
  2
5
 70
     0
 62
     5
  6
Continuous
370
    -3
390
F
  0
LAYER
  5
34
330
2
100
AcDbSymbolTableRecord
100
AcDbLayerTableRecord
  2
6
 70
     0
 62
     6
  6
Continuous
370
    -3
390
F
  0
LAYER
  5
35
330
2
100
AcDbSymbolTableRecord
100
AcDbLayerTableRecord
  2
7
 70
     0
 62
     7
  6
Continuous
370
    -3
390
F
  0
LAYER
  5
36
330
2
100
AcDbSymbolTableRecord
100
AcDbLayerTableRecord
  2
cen
 70
     0
 62
     7
  6
DASHDOT
370
    -3
390
F
  0
LAYER
  5
37
330
2
100
AcDbSymbolTableRecord
100
AcDbLayerTableRecord
  2
hid
 70
     0
 62
     7
  6
HIDDEN
370
    -3
390
F
  0
LAYER
  5
5D6
330
2
100
AcDbSymbolTableRecord
100
AcDbLayerTableRecord
  2
hatch
 70
     0
 62
     9
  6
Continuous
370
    -3
390
F
  0
LAYER
  5
8AF
330
2
100
AcDbSymbolTableRecord
100
AcDbLayerTableRecord
  2
9
 70
     0
 62
     9
  6
Continuous
370
    -3
390
F
  0
LAYER
  5
8F8
330
2
100
AcDbSymbolTableRecord
100
AcDbLayerTableRecord
  2
leg fin
 70
     0
 62
     9
  6
Continuous
370
    -3
390
F
  0
LAYER
  5
91D
330
2
100
AcDbSymbolTableRecord
100
AcDbLayerTableRecord
  2
cotas
 70
     0
 62
     1
  6
Continuous
370
    -3
390
F
  0
LAYER
  5
92F
330
2
100
AcDbSymbolTableRecord
100
AcDbLayerTableRecord
  2
Defpoints
 70
     0
 62
     7
  6
Continuous
290
     0
370
    -3
390
F
  0
LAYER
  5
C7B
330
2
100
AcDbSymbolTableRecord
100
AcDbLayerTableRecord
  2
SANINDUSA
 70
     0
 62
     3
  6
Continuous
370
    -3
390
F
  0
ENDTAB
  0
TABLE
  2
STYLE
  5
3
330
0
100
AcDbSymbolTable
 70
     4
  0
STYLE
  5
11
330
3
100
AcDbSymbolTableRecord
100
AcDbTextStyleTableRecord
  2
Standard
 70
     0
 40
0.0
 41
1.0
 50
0.0
 71
     0
 42
2.5
  3
Avgardn.ttf
  4

1001
ACAD
1000
AvantGarde Bk BT
1071
       34
  0
STYLE
  5
2C
330
3
100
AcDbSymbolTableRecord
100
AcDbTextStyleTableRecord
  2

 70
     1
 40
0.0
 41
1.0
 50
0.0
 71
     0
 42
2.5
  3
ltypeshp.shx
  4

  0
STYLE
  5
91F
330
3
100
AcDbSymbolTableRecord
100
AcDbTextStyleTableRecord
  2
SANINDUSA
 70
     0
 40
0.0
 41
1.0
 50
0.0
 71
     0
 42
2.5
  3
verdana.TTF
  4

1001
ACAD
1000
Verdana
1071
       34
  0
STYLE
  5
C7C
330
3
100
AcDbSymbolTableRecord
100
AcDbTextStyleTableRecord
  2
futura
 70
     0
 40
0.0
 41
1.0
 50
0.0
 71
     0
 42
2.5
  3
ZURCHN.TTF
  4

1001
ACAD
1000
Zurich BT
1071
       34
  0
ENDTAB
  0
TABLE
  2
VIEW
  5
6
330
0
100
AcDbSymbolTable
 70
     0
  0
ENDTAB
  0
TABLE
  2
UCS
  5
7
330
0
100
AcDbSymbolTable
 70
     0
  0
ENDTAB
  0
TABLE
  2
APPID
  5
9
330
0
100
AcDbSymbolTable
 70
    10
  0
APPID
  5
12
330
9
100
AcDbSymbolTableRecord
100
AcDbRegAppTableRecord
  2
ACAD
 70
     0
  0
APPID
  5
3A
330
9
100
AcDbSymbolTableRecord
100
AcDbRegAppTableRecord
  2
DCO15
 70
     0
  0
APPID
  5
EEE
330
9
100
AcDbSymbolTableRecord
100
AcDbRegAppTableRecord
  2
ACAD_DSTYLE_DIMTEXT_FILL
 70
     0
  0
APPID
  5
EEF
330
9
100
AcDbSymbolTableRecord
100
AcDbRegAppTableRecord
  2
ACAD_DSTYLE_DIMEXT_LENGTH
 70
     0
  0
APPID
  5
EF0
330
9
100
AcDbSymbolTableRecord
100
AcDbRegAppTableRecord
  2
ACAD_DSTYLE_DIMEXT_ENABLED
 70
     0
  0
APPID
  5
EF1
330
9
100
AcDbSymbolTableRecord
100
AcDbRegAppTableRecord
  2
ACAD_DSTYLE_DIM_LINETYPE
 70
     0
  0
APPID
  5
EF2
330
9
100
AcDbSymbolTableRecord
100
AcDbRegAppTableRecord
  2
ACAD_DSTYLE_DIM_EXT1_LINETYPE
 70
     0
  0
APPID
  5
EF3
330
9
100
AcDbSymbolTableRecord
100
AcDbRegAppTableRecord
  2
ACAD_DSTYLE_DIM_EXT2_LINETYPE
 70
     0
  0
APPID
  5
FAF
330
9
100
AcDbSymbolTableRecord
100
AcDbRegAppTableRecord
  2
ACAD_DSTYLE_DIMJOGGED_JOGANGLE_SYMBOL
 70
     0
  0
APPID
  5
1013
330
9
100
AcDbSymbolTableRecord
100
AcDbRegAppTableRecord
  2
ACAD_DSTYLE_DIMARC_LENGTH_SYMBOL
 70
     0
  0
ENDTAB
  0
TABLE
  2
DIMSTYLE
  5
A
330
0
100
AcDbSymbolTable
 70
     3
100
AcDbDimStyleTable
 71
     1
340
921
  0
DIMSTYLE
105
45
330
A
100
AcDbSymbolTableRecord
100
AcDbDimStyleTableRecord
  2
STANDARD
 70
     0
289
     0
340
11
  0
DIMSTYLE
105
921
330
A
100
AcDbSymbolTableRecord
100
AcDbDimStyleTableRecord
  2
SANINDUSA
 70
     0
 41
2.0
 42
1.0
 43
1.0
 44
1.0
 73
     0
 74
     0
 77
     1
 78
     8
140
2.0
141
0.0
143
0.03937007874016
147
1.0
171
     3
172
     1
176
   256
177
   256
178
   256
179
     1
271
     1
272
     1
274
     3
278
    44
283
     0
284
     8
340
91F
371
    -1
372
    -1
1001
ACAD_DSTYLE_DIMEXT_LENGTH
1070
   378
1040
1.0
1001
ACAD_DSTYLE_DIMEXT_ENABLED
1070
   383
1070
     0
1001
ACAD_DSTYLE_DIMARC_LENGTH_SYMBOL
1070
   379
1070
     0
1001
ACAD_DSTYLE_DIMJOGGED_JOGANGLE_SYMBOL
1070
   384
1040
1.570796326794896
  0
DIMSTYLE
105
C7D
330
A
100
AcDbSymbolTableRecord
100
AcDbDimStyleTableRecord
  2
AM_ISO
 70
     0
  4
"
 41
2.5
 42
1.0
 43
10.0
 44
1.0
 47
0.1
 48
0.1
 73
     0
 74
     0
 77
     1
 78
     8
 79
     2
140
3.5
141
0.0
143
0.0393701
146
0.71
147
1.5
172
     1
176
   256
177
   256
178
     2
271
     2
272
     3
274
     4
283
     0
284
     8
340
11
371
    -1
372
    -1
  0
ENDTAB
  0
TABLE
  2
BLOCK_RECORD
  5
1
330
0
100
AcDbSymbolTable
 70
   105
  0
BLOCK_RECORD
  5
1F
330
1
100
AcDbSymbolTableRecord
100
AcDbBlockTableRecord
  2
*Model_Space
340
22
  0
BLOCK_RECORD
  5
1B
330
1
100
AcDbSymbolTableRecord
100
AcDbBlockTableRecord
  2
*Paper_Space
340
1E
  0
BLOCK_RECORD
  5
23
330
1
100
AcDbSymbolTableRecord
100
AcDbBlockTableRecord
  2
*Paper_Space0
340
26
  0
BLOCK_RECORD
  5
919
330
1
100
AcDbSymbolTableRecord
100
AcDbBlockTableRecord
  2
_DotSmall
340
0
  0
BLOCK_RECORD
  5
922
330
1
100
AcDbSymbolTableRecord
100
AcDbBlockTableRecord
  2
base para cotas
340
0
310
2800000020000000200000000100080000000000000400000000000000000000000000000000000000000000000080000080000000808000800000008000800080800000C0C0C000C0DCC000F0CAA6000020400000206000002080000020A0000020C0000020E00000400000004020000040400000406000004080000040A0
310
000040C0000040E00000600000006020000060400000606000006080000060A0000060C0000060E00000800000008020000080400000806000008080000080A0000080C0000080E00000A0000000A0200000A0400000A0600000A0800000A0A00000A0C00000A0E00000C0000000C0200000C0400000C0600000C0800000C0
310
A00000C0C00000C0E00000E0000000E0200000E0400000E0600000E0800000E0A00000E0C00000E0E00040000000400020004000400040006000400080004000A0004000C0004000E00040200000402020004020400040206000402080004020A0004020C0004020E000404000004040200040404000404060004040800040
310
40A0004040C0004040E00040600000406020004060400040606000406080004060A0004060C0004060E00040800000408020004080400040806000408080004080A0004080C0004080E00040A0000040A0200040A0400040A0600040A0800040A0A00040A0C00040A0E00040C0000040C0200040C0400040C0600040C08000
310
40C0A00040C0C00040C0E00040E0000040E0200040E0400040E0600040E0800040E0A00040E0C00040E0E00080000000800020008000400080006000800080008000A0008000C0008000E00080200000802020008020400080206000802080008020A0008020C0008020E00080400000804020008040400080406000804080
310
008040A0008040C0008040E00080600000806020008060400080606000806080008060A0008060C0008060E00080800000808020008080400080806000808080008080A0008080C0008080E00080A0000080A0200080A0400080A0600080A0800080A0A00080A0C00080A0E00080C0000080C0200080C0400080C0600080C0
310
800080C0A00080C0C00080C0E00080E0000080E0200080E0400080E0600080E0800080E0A00080E0C00080E0E000C0000000C0002000C0004000C0006000C0008000C000A000C000C000C000E000C0200000C0202000C0204000C0206000C0208000C020A000C020C000C020E000C0400000C0402000C0404000C0406000C0
310
408000C040A000C040C000C040E000C0600000C0602000C0604000C0606000C0608000C060A000C060C000C060E000C0800000C0802000C0804000C0806000C0808000C080A000C080C000C080E000C0A00000C0A02000C0A04000C0A06000C0A08000C0A0A000C0A0C000C0A0E000C0C00000C0C02000C0C04000C0C06000
310
C0C08000C0C0A000F0FBFF00A4A0A000808080000000FF0000FF000000FFFF00FF000000FF00FF00FFFF0000FFFFFF00A4A4A4A4A4A4A4A4A4A4A4A4A4A4A4A4A4A4A4A4A4A4A4A4A4A4A4A4A4A4A4A4A4A4A4A4A4A4A4A4A4A4A4A4A4A4A4A4A4A4A4A4A4A4A4A4A4A4A4A4A4A4A4A4A4A4A4A4A4A4A4A4A4A4A4A4A4A4A4
310
A4A4A4A4A4A4A4A4A4A4A4A4A4A4A4A4A4A4A4A4A4A4A4A4A4A4A4A4A4A4A4A4A4A4A4A4A4A4A4A4A4A4A4A4A4A4A4A4A4A4A4A4A4A4A4A4A4A4A4A4A4A4A4A4A4A4A4A4A4A4A4A4A4A4A4A4A4A4A4A4A4A4A4A4A4A4A4A4A4A4A4A4A4A4A4A4A4A4A4A4A4A4A4A4A4A4A4A4A4A4A4A4A4A4A4A4A4A4A4A4A4A4A4A4A4A4A4
310
A4A4A4A4A4A4A4A4A4A4A4A4A4A4A4A4A4A4A4A4A4A4A4A4A4A4A4A4A4A4A4A4A4A4A4A4A4A4A4A4A4A4A4A4A4A4A4A4A4A4A4A4A4A4A4A4A4A4A4A4A4A4A4A4A4A4A4A4A4A4A4A4A4A4A4A4A4A4A4A4A4A4A4A4A4A4A4A4A4A4A4A4A4A4A4A4A4A4A4A4A4A4A4A4A4A4A4A4A4A4A4A4A4A4A4A4A4A4A4A4A4A4A4A4A4A4A4
310
A4A4A4A4A4A4A4A4A4A4A4A4A4A4A4A4A4A4A4A4A4A4A4A4A4A4A4A4A4A4A4A4A4A4A4A4A4A4A4A4A4A4A4A4A4A4A4A4A4A4A4A4A4A4A4A4A4A4A4A4A4A4A4A4A4A4A4A4A4A4A4A4A4A4A4A4A4A4A4A4A4A4A4A4A4A4A4A4A4A4A4A4A4A4A4A4A4A4A4A4A4A4A4A4A4A4A4A4A4A4A4A4A4A4A4A4F9F9F9F9F9F9F9F9F9F9F9
310
F9F9F9F9F9F9F9F9F9F9F9F9F9F9F9F9F9F9F9A4A4F9F9F9F9F9F9F9F9F9F9F9F9F9F9F9F9F9F9F9F9F9F9F9F9F9F9F9F9F9F9A4A4F9F9F9F9F9F9F9F9F9F9F9F9F9F9F9F9F9F9F9F9F9F9F9F9F9F9F9F9F9F9A4A4F9A4A4A4A4A4A4A4A4A4A4A4A4A4A4A4A4A4A4A4A4A4A4A4A4A4A4A4A4F9A4A4A4A4A4A4A4A4A4A4A4A4
310
A4A4A4A4A4A4A4A4A4A4A4A4A4A4A4A4A4A4A4A4A4A4A4A4A4A4A4A4A4A4A4A4A4A4A4A4A4A4A4A4A4A4A4A4A4A4A4A4A4A4A4A4A4A4A4A4A4A4A4A4A4A4A4A4A4A4A4A4A4A4A4A4A4A4A4A4A4A4A4A4A4A4A4A4A4A4A4A4A4A4A4A4A4A4A4A4A4A4A4A4A4A4A4A4A4A4A4A4A4A4A4A4A4A4A4A4A4A4A4A4A4A4A4A4A4A4A4
310
A4A4A4A4A4A4A4A4A4A4A4A4A4A4A4A4A4A4A4A4A4A4A4A4A4A4A4A4A4A4A4A4A4A4A4A4A4A4A4A4A4A4A4A4A4A4A4A4A4A4A4A4A4A4A4A4A4A4A4A4A4A4A4A4A4A4A4A4A4A4A4A4A4A4A4A4A4A4A4A4A4A4A4A4A4A4A4A4A4A4A4A4A4A4A4A4A4A4A4A4A4A4A4A4A4A4A4A4A4A4A4A4A4A4A4A4A4A4A4A4A4A4A4A4A4A4A4
310
A4A4A4A4A4A4A4A4A4A4A4A4A4A4A4A4A4A4A4A4A4A4A4A4A4A4A4A4A4A4A4A4A4A4A4A4A4A4A4A4A4A4A4A4A4A4A4A4A4A4A4A4A4A4A4A4A4A4A4A4A4A4A4A4A4A4A4A4A4A4A4A4A4A4A4A4A4A4A4A4A4A4A4A4A4A4A4A4A4A4A4A4A4A4A4A4A4A4A4A4A4A4A4A4A4A4A4A4A4A4A4A4A4A4A4A4A4A4A4A4A4A4A4A4A4A4A4
310
A4A4A4A4A4A4A4A4A4A4A4A4A4A4A4A4A4A4A4A4A4A4A4A4A4A4A4A4A4A4A4A4A4A4A4A4A4A4A4A4A4A4A4A4A4A4A4A4A4A4A4A4A4A4A4A4
1001
ACAD
1000
DesignCenter Data
1002
{
1070
     1
1070
     4
1002
}
  0
BLOCK_RECORD
  5
AA8
330
1
100
AcDbSymbolTableRecord
100
AcDbBlockTableRecord
  2
_CLOSED
340
0
  0
BLOCK_RECORD
  5
B79
330
1
100
AcDbSymbolTableRecord
100
AcDbBlockTableRecord
  2
nota revisoes
340
0
1001
ACAD
1000
DesignCenter Data
1002
{
1070
     1
1070
     4
1002
}
  0
BLOCK_RECORD
  5
B8E
330
1
100
AcDbSymbolTableRecord
100
AcDbBlockTableRecord
  2
a3l
340
0
1001
ACAD
1000
DesignCenter Data
1002
{
1070
     1
1070
     4
1002
}
  0
BLOCK_RECORD
  5
B9E
330
1
100
AcDbSymbolTableRecord
100
AcDbBlockTableRecord
  2
legenda desenvolvimento
340
0
1001
ACAD
1000
DesignCenter Data
1002
{
1070
     1
1070
     4
1002
}
  0
ENDTAB
  0
ENDSEC
  0
SECTION
  2
BLOCKS
  0
BLOCK
  5
20
330
1F
100
AcDbEntity
  8
0
100
AcDbBlockBegin
  2
*Model_Space
 70
     0
 10
0.0
 20
0.0
 30
0.0
  3
*Model_Space
  1

  0
ENDBLK
  5
21
330
1F
100
AcDbEntity
  8
0
100
AcDbBlockEnd
  0
BLOCK
  5
1C
330
1B
100
AcDbEntity
 67
     1
  8
0
100
AcDbBlockBegin
  2
*Paper_Space
 70
     0
 10
0.0
 20
0.0
 30
0.0
  3
*Paper_Space
  1

  0
ENDBLK
  5
1D
330
1B
100
AcDbEntity
 67
     1
  8
0
100
AcDbBlockEnd
  0
BLOCK
  5
24
330
23
100
AcDbEntity
 67
     1
  8
0
100
AcDbBlockBegin
  2
*Paper_Space0
 70
     0
 10
0.0
 20
0.0
 30
0.0
  3
*Paper_Space0
  1

  0
ENDBLK
  5
25
330
23
100
AcDbEntity
 67
     1
  8
0
100
AcDbBlockEnd
  0
BLOCK
  5
91B
330
919
100
AcDbEntity
  8
0
100
AcDbBlockBegin
  2
_DotSmall
 70
     0
 10
0.0
 20
0.0
 30
0.0
  3
_DotSmall
  1

  0
LWPOLYLINE
  5
91A
330
919
100
AcDbEntity
  8
0
  6
ByBlock
 62
     0
100
AcDbPolyline
 90
        2
 70
     1
 43
0.5
 10
-0.0625
 20
0.0
 42
1.0
 10
0.0625
 20
0.0
 42
1.0
  0
ENDBLK
  5
91C
330
919
100
AcDbEntity
  8
0
100
AcDbBlockEnd
  0
BLOCK
  5
92A
330
922
100
AcDbEntity
  8
0
100
AcDbBlockBegin
  2
base para cotas
 70
     0
 10
0.0
 20
0.0
 30
0.0
  3
base para cotas
  1

  0
LINE
  5
B36
330
922
100
AcDbEntity
  8
cotas
100
AcDbLine
 10
0.0
 20
-30.0
 30
0.0
 11
327.1260136525398
 21
-30.0
 31
0.0
  0
LINE
  5
B37
330
922
100
AcDbEntity
  8
cotas
100
AcDbLine
 10
0.0
 20
-25.0
 30
0.0
 11
327.1260136525398
 21
-25.0
 31
0.0
  0
LINE
  5
B38
330
922
100
AcDbEntity
  8
cotas
100
AcDbLine
 10
0.0
 20
-20.0
 30
0.0
 11
327.1260136525398
 21
-20.0
 31
0.0
  0
LINE
  5
B39
330
922
100
AcDbEntity
  8
cotas
100
AcDbLine
 10
0.0
 20
-15.0
 30
0.0
 11
327.1260136525398
 21
-15.0
 31
0.0
  0
LINE
  5
B3A
330
922
100
AcDbEntity
  8
cotas
100
AcDbLine
 10
0.0
 20
-10.0
 30
0.0
 11
327.1260136525398
 21
-10.0
 31
0.0
  0
LINE
  5
B3B
330
922
100
AcDbEntity
  8
cotas
100
AcDbLine
 10
0.0
 20
0.0
 30
0.0
 11
0.0
 21
-30.0
 31
0.0
  0
LINE
  5
B3C
330
922
100
AcDbEntity
  8
cotas
100
AcDbLine
 10
327.1260136525398
 20
-30.0
 30
0.0
 11
327.1260136525398
 21
0.0
 31
0.0
  0
ENDBLK
  5
92B
330
922
100
AcDbEntity
  8
0
100
AcDbBlockEnd
  0
BLOCK
  5
AAD
330
AA8
100
AcDbEntity
  8
0
100
AcDbBlockBegin
  2
_CLOSED
 70
     0
 10
0.0
 20
0.0
 30
0.0
  3
_CLOSED
  1

  0
LINE
  5
AA9
330
AA8
100
AcDbEntity
  8
0
100
AcDbLine
 10
-1.0
 20
0.166667
 30
0.0
 11
0.0
 21
0.0
 31
0.0
  0
LINE
  5
AAA
330
AA8
100
AcDbEntity
  8
0
100
AcDbLine
 10
0.0
 20
0.0
 30
0.0
 11
-1.0
 21
-0.166667
 31
0.0
  0
LINE
  5
AAB
330
AA8
100
AcDbEntity
  8
0
100
AcDbLine
 10
-1.0
 20
0.166667
 30
0.0
 11
-1.0
 21
-0.166667
 31
0.0
  0
LINE
  5
AAC
330
AA8
100
AcDbEntity
  8
0
100
AcDbLine
 10
0.0
 20
0.0
 30
0.0
 11
-1.0
 21
0.0
 31
0.0
  0
ENDBLK
  5
AAE
330
AA8
100
AcDbEntity
  8
0
100
AcDbBlockEnd
  0
BLOCK
  5
B7C
330
B79
100
AcDbEntity
  8
0
100
AcDbBlockBegin
  2
nota revisoes
 70
     0
 10
0.0
 20
0.0
 30
0.0
  3
nota revisoes
  1

  0
CIRCLE
  5
B7A
330
B79
100
AcDbEntity
  8
4
100
AcDbCircle
 10
0.0
 20
0.0
 30
0.0
 40
13.69426055101189
  0
TEXT
  5
B7B
330
B79
100
AcDbEntity
  8
4
100
AcDbText
 10
-5.496248358154345
 20
-5.354545554066362
 30
0.0
 40
12.0
  1
1
  7
SANINDUSA
 72
     1
 11
-0.249774214433728
 21
-5.354545554066362
 31
0.0
100
AcDbText
  0
ENDBLK
  5
B7D
330
B79
100
AcDbEntity
  8
0
100
AcDbBlockEnd
  0
BLOCK
  5
B9C
330
B8E
100
AcDbEntity
  8
0
100
AcDbBlockBegin
  2
a3l
 70
     0
 10
0.0
 20
0.0
 30
0.0
  3
a3l
  1

  0
LINE
  5
B8F
330
B8E
100
AcDbEntity
  8
1
100
AcDbLine
 10
-364.2925296599447
 20
-362.1188951399395
 30
0.0
 11
-364.2925296599447
 21
-65.11889513993946
 31
0.0
  0
LINE
  5
B90
330
B8E
100
AcDbEntity
  8
4
100
AcDbLine
 10
-369.2925296599447
 20
-357.1188951399395
 30
0.0
 11
-369.2925296599447
 21
-70.11889513993946
 31
0.0
  0
LINE
  5
B91
330
B8E
100
AcDbEntity
  8
1
100
AcDbLine
 10
-784.2925296599446
 20
-65.11889513993946
 30
0.0
 11
-784.2925296599446
 21
-362.1188951399395
 31
0.0
  0
LINE
  5
B92
330
B8E
100
AcDbEntity
  8
4
100
AcDbLine
 10
-759.2925296599446
 20
-357.1188951399395
 30
0.0
 11
-759.2925296599446
 21
-70.11889513993946
 31
0.0
  0
LINE
  5
B93
330
B8E
100
AcDbEntity
  8
1
100
AcDbLine
 10
-784.2925296599446
 20
-362.1188951399395
 30
0.0
 11
-364.2925296599447
 21
-362.1188951399395
 31
0.0
  0
LINE
  5
B94
330
B8E
100
AcDbEntity
  8
4
100
AcDbLine
 10
-759.2925296599446
 20
-357.1188951399395
 30
0.0
 11
-369.2925296599447
 21
-357.1188951399395
 31
0.0
  0
LINE
  5
B95
330
B8E
100
AcDbEntity
  8
1
100
AcDbLine
 10
-654.2925296599446
 20
-357.1188951399395
 30
0.0
 11
-654.2925296599446
 21
-362.1188951399395
 31
0.0
  0
LINE
  5
B96
330
B8E
100
AcDbEntity
  8
1
100
AcDbLine
 10
-364.2925296599447
 20
-65.11889513993946
 30
0.0
 11
-784.2925296599446
 21
-65.11889513993946
 31
0.0
  0
LINE
  5
B97
330
B8E
100
AcDbEntity
  8
4
100
AcDbLine
 10
-369.2925296599447
 20
-70.11889513993946
 30
0.0
 11
-759.2925296599446
 21
-70.11889513993946
 31
0.0
  0
LINE
  5
B98
330
B8E
100
AcDbEntity
  8
1
100
AcDbLine
 10
-654.2925296599446
 20
-65.11889513993946
 30
0.0
 11
-654.2925296599446
 21
-70.11889513993946
 31
0.0
  0
LINE
  5
B99
330
B8E
100
AcDbEntity
  8
1
100
AcDbLine
 10
-549.2925296599446
 20
-70.11889513993946
 30
0.0
 11
-549.2925296599446
 21
-65.11889513993946
 31
0.0
  0
LINE
  5
B9A
330
B8E
100
AcDbEntity
  8
1
100
AcDbLine
 10
-369.2925296599447
 20
-65.11889513993946
 30
0.0
 11
-364.2925296599447
 21
-65.11889513993946
 31
0.0
  0
LINE
  5
B9B
330
B8E
100
AcDbEntity
  8
1
100
AcDbLine
 10
-549.2925296599446
 20
-357.1188951399395
 30
0.0
 11
-549.2925296599446
 21
-362.1188951399395
 31
0.0
  0
ENDBLK
  5
B9D
330
B8E
100
AcDbEntity
  8
0
100
AcDbBlockEnd
  0
BLOCK
  5
C13
330
B9E
100
AcDbEntity
  8
0
100
AcDbBlockBegin
  2
legenda desenvolvimento
 70
     2
 10
0.0
 20
0.0
 30
0.0
  3
legenda desenvolvimento
  1

  0
ATTDEF
  5
B9F
330
B9E
100
AcDbEntity
  8
1
100
AcDbText
 10
-108.606245802552
 20
55.5
 30
0.0
 40
4.0
  1
XXXXXXXXXXXXXX
 41
0.8
  7
SANINDUSA
 72
     4
 11
-87.5
 21
57.5
 31
0.0
100
AcDbAttributeDefinition
  3
Nome do Produto:
  2
PRODUTO
 70
     0
  0
ATTDEF
  5
BA0
330
B9E
100
AcDbEntity
  8
1
100
AcDbText
 10
-97.9997966101695
 20
41.25
 30
0.0
 40
3.0
  1
XXXXXXXXX
 41
0.8
  7
futura
 72
     4
 11
-87.5
 21
42.75
 31
0.0
100
AcDbAttributeDefinition
  3
Nome da Peça:
  2
PECA
 70
     0
  0
ATTDEF
  5
BA1
330
B9E
100
AcDbEntity
  8
1
100
AcDbText
 10
-133.4422431161853
 20
21.11745296763252
 30
0.0
 40
2.5
  1
X
 41
0.8
  7
SANINDUSA
 72
     4
 11
-132.5
 21
22.36745296763252
 31
0.0
100
AcDbAttributeDefinition
  3
Cod. TESTE:
  2
TESTE
 70
     0
  0
ATTDEF
  5
BA2
330
B9E
100
AcDbEntity
  8
1
100
AcDbText
 10
-124.3844862323707
 20
21.11745296763252
 30
0.0
 40
2.5
  1
XX
 41
0.8
  7
SANINDUSA
 72
     4
 11
-122.5
 21
22.36745296763252
 31
0.0
100
AcDbAttributeDefinition
  3
Cod. Ano:
  2
ANO
 70
     0
  0
ATTDEF
  5
BA3
330
B9E
100
AcDbEntity
  8
1
100
AcDbText
 10
-112.526889953052
 20
21.11745296763252
 30
0.0
 40
2.5
  1
XXX
 41
0.8
  7
SANINDUSA
 72
     4
 11
-109.700160604496
 21
22.36745296763252
 31
0.0
100
AcDbAttributeDefinition
  3
Cod. Sequência:
  2
SEQUENCIA
 70
     0
  0
ATTDEF
  5
BA4
330
B9E
100
AcDbEntity
  8
1
100
AcDbText
 10
-99.35382430979316
 20
21.11745296763252
 30
0.0
 40
2.5
  1
XX
 41
0.8
  7
SANINDUSA
 72
     4
 11
-97.46933807742244
 21
22.36745296763252
 31
0.0
100
AcDbAttributeDefinition
  3
Cod. Tipo:
  2
TIPO
 70
     0
  0
ATTDEF
  5
BA5
330
B9E
100
AcDbEntity
  8
1
100
AcDbText
 10
-87.42035911468438
 20
21.11745296763252
 30
0.0
 40
2.5
  1
XXX
 41
0.8
  7
SANINDUSA
 72
     4
 11
-84.59362976612828
 21
22.36745296763252
 31
0.0
100
AcDbAttributeDefinition
  3
Cod. Produto:
  2
PRODUTO
 70
     0
  0
ATTDEF
  5
BA6
330
B9E
100
AcDbEntity
  8
1
100
AcDbText
 10
-74.62051971917853
 20
21.11745296763252
 30
0.0
 40
2.5
  1
XXX
 41
0.8
  7
SANINDUSA
 72
     4
 11
-71.79379037062244
 21
22.36745296763252
 31
0.0
100
AcDbAttributeDefinition
  3
Cod. Peça:
  2
PECA
 70
     0
  0
ATTDEF
  5
BA7
330
B9E
100
AcDbEntity
  8
1
100
AcDbText
 10
-61.10603446650329
 20
21.11745296763252
 30
0.0
 40
2.5
  1
XX
 41
0.8
  7
SANINDUSA
 72
     4
 11
-59.22154823413257
 21
22.36745296763252
 31
0.0
100
AcDbAttributeDefinition
  3
Cod. Revisão:
  2
REV
 70
     0
  0
ATTDEF
  5
BA8
330
B9E
100
AcDbEntity
  8
1
100
AcDbText
 10
-48.43615325006194
 20
21.11745296763252
 30
0.0
 40
2.5
  1
XX
 41
0.8
  7
SANINDUSA
 72
     4
 11
-46.55166701769121
 21
22.36745296763252
 31
0.0
100
AcDbAttributeDefinition
  3
Cod. Alteração:
  2
ALT
 70
     0
  0
ATTDEF
  5
BA9
330
B9E
100
AcDbEntity
  8
1
100
AcDbText
 10
-35.19086635325722
 20
23.98875083948959
 30
0.0
 40
3.0
  1
1/XXX
 41
0.8
  7
SANINDUSA
 72
     4
 11
-30.0
 21
25.25
 31
0.0
100
AcDbAttributeDefinition
  3
Escala geral:
  2
ESCALA
 70
     0
  0
ATTDEF
  5
BAA
330
B9E
100
AcDbEntity
  8
1
100
AcDbText
 10
-15.65345869711215
 20
23.75
 30
0.0
 40
3.0
  1
XXXXX
 41
0.8
  7
SANINDUSA
 72
     4
 11
-10.0
 21
25.25
 31
0.0
100
AcDbAttributeDefinition
  3
Folha:
  2
FOLHA
 70
     0
  0
ATTDEF
  5
BAB
330
B9E
100
AcDbEntity
  8
1
100
AcDbText
 10
-178.5146998822042
 20
56.9531347542807
 30
0.0
 40
2.0
  1
xx
 41
0.8
  7
SANINDUSA
 72
     4
 11
-177.2123493113513
 21
57.70330265219877
 31
0.0
100
AcDbAttributeDefinition
  3
revisão
  2
REV.
 70
     0
  0
ATTDEF
  5
BAC
330
B9E
100
AcDbEntity
  8
1
100
AcDbText
 10
-172.7849640077129
 20
56.9531347542807
 30
0.0
 40
2.0
  1
xx
 41
0.8
  7
SANINDUSA
 72
     4
 11
-171.48261343686
 21
57.70330265219877
 31
0.0
100
AcDbAttributeDefinition
  3
alteração
  2
ALT.
 70
     0
  0
ATTDEF
  5
BAD
330
B9E
100
AcDbEntity
  8
1
100
AcDbText
 10
-168.007199951307
 20
56.70330265219877
 30
0.0
 40
2.0
  1
xx/xx/xxxx
 41
0.8
  7
SANINDUSA
 11
-168.007199951307
 21
57.70330265219877
 31
0.0
100
AcDbAttributeDefinition
  3
data
  2
DATA
 70
     0
 74
     2
  0
ATTDEF
  5
BAE
330
B9E
100
AcDbEntity
  8
1
100
AcDbText
 10
-168.5396372253371
 20
13.15916722632639
 30
0.0
 40
2.0
  1
XX/XX/XXXX
 41
0.8
  7
SANINDUSA
 72
     4
 11
-161.5099528734231
 21
14.0
 31
0.0
100
AcDbAttributeDefinition
  3
Data projecto
  2
DATA_PROJ
 70
     0
  0
ATTDEF
  5
BAF
330
B9E
100
AcDbEntity
  8
1
100
AcDbText
 10
-150.8658110728766
 20
13.24983210208193
 30
0.0
 40
2.0
  1
xxxxxxxx
 41
0.8
  7
SANINDUSA
 72
     4
 11
-145.6564087894649
 21
14.0
 31
0.0
100
AcDbAttributeDefinition
  3
nome de quem projectou
  2
NOME
 70
     0
  0
ATTDEF
  5
BB0
330
B9E
100
AcDbEntity
  8
1
100
AcDbText
 10
-168.5396372253371
 20
9.159167226326394
 30
0.0
 40
2.0
  1
XX/XX/XXXX
 41
0.8
  7
SANINDUSA
 72
     4
 11
-161.5099528734231
 21
10.0
 31
0.0
100
AcDbAttributeDefinition
  3
Data desenhou
  2
DATA_DES
 70
     0
  0
ATTDEF
  5
BB1
330
B9E
100
AcDbEntity
  8
1
100
AcDbText
 10
-151.516986358303
 20
9.249832102081933
 30
0.0
 40
2.0
  1
xxxxxxxxx
 41
0.8
  7
SANINDUSA
 72
     4
 11
-145.6564087894649
 21
10.0
 31
0.0
100
AcDbAttributeDefinition
  3
nome
  2
NOME
 70
     0
  0
ATTDEF
  5
BB2
330
B9E
100
AcDbEntity
  8
1
100
AcDbText
 10
-127.2924214135946
 20
14.1979876583216
 30
0.0
 40
2.0
  1
Vitreous China
 41
0.8
  7
SANINDUSA
 72
     4
 11
-119.231709526422
 21
15.22216495852308
 31
0.0
100
AcDbAttributeDefinition
  3
Nome do Material:
  2
MATERIAL
 70
     0
  0
ATTDEF
  5
BB3
330
B9E
100
AcDbEntity
  8
1
100
AcDbText
 10
-103.1563452122093
 20
14.38019043949261
 30
0.0
 40
2.0
  1
Branco
 41
0.8
  7
SANINDUSA
 72
     4
 11
-99.33418268702462
 21
15.35937109765245
 31
0.0
100
AcDbAttributeDefinition
  3
cor da peça
  2
COR
 70
     0
  0
ATTDEF
  5
BB4
330
B9E
100
AcDbEntity
  8
1
100
AcDbText
 10
-116.7235057085292
 20
5.975822699798522
 30
0.0
 40
2.0
  1
Vidrado
 41
0.8
  7
SANINDUSA
 72
     4
 11
-112.5
 21
7.0
 31
0.0
100
AcDbAttributeDefinition
  3
Tipo de acabamento:
  2
ACABAMENTO
 70
     0
  0
ATTDEF
  5
BB5
330
B9E
100
AcDbEntity
  8
1
100
AcDbText
 10
-79.18527869967246
 20
16.65066409850533
 30
0.0
 40
2.0
  1
XXXXXXX
 41
0.8
  7
SANINDUSA
 72
     4
 11
-73.90871724903445
 21
17.65066409850533
 31
0.0
100
AcDbAttributeDefinition
  3
Normas
  2
NORMAS
 70
     0
  0
ATTDEF
  5
BB6
330
B9E
100
AcDbEntity
  8
1
100
AcDbText
 10
-30.55312290127603
 20
14.0
 30
0.0
 40
2.0
  1
XXXXXXXXXXXXXX
 41
0.8
  7
SANINDUSA
 72
     4
 11
-20.0
 21
15.0
 31
0.0
100
AcDbAttributeDefinition
  3
Substitui o desenho:
  2
SUBSTITUI
 70
     0
  0
ATTDEF
  5
BB7
330
B9E
100
AcDbEntity
  8
1
100
AcDbText
 10
-31.30691739422431
 20
6.0
 30
0.0
 40
2.0
  1
XXXXXXXXXXXXXXX
 41
0.8
  7
SANINDUSA
 72
     4
 11
-20.0
 21
7.0
 31
0.0
100
AcDbAttributeDefinition
  3
Substituido por:
  2
SUBSTITUIDO
 70
     0
  0
ATTDEF
  5
BB8
330
B9E
100
AcDbEntity
  8
1
100
AcDbText
 10
-110.0220608548302
 20
1.478208457928303
 30
0.0
 40
2.0
  1
XXXXXXXXXXXXXXXXXXXXXXXXXXXXXXXXXX
 41
0.8
  7
SANINDUSA
 11
-110.0220608548302
 21
2.478208457928303
 31
0.0
100
AcDbAttributeDefinition
  3
Localização do desenho:
  2
LOC-DWG
 70
     0
 74
     2
  0
LINE
  5
BB9
330
B9E
100
AcDbEntity
  8
3
100
AcDbLine
 10
-135.0
 20
4.0
 30
0.0
 11
0.0000000000004547
 21
4.0
 31
0.0
  0
LINE
  5
BBA
330
B9E
100
AcDbEntity
  8
3
100
AcDbLine
 10
-90.00000000000046
 20
12.0
 30
0.0
 11
-135.0
 21
12.0
 31
0.0
  0
LINE
  5
BBB
330
B9E
100
AcDbEntity
  8
3
100
AcDbLine
 10
-135.0
 20
32.5
 30
0.0
 11
-40.0
 21
32.5
 31
0.0
  0
TEXT
  5
BBC
330
B9E
100
AcDbEntity
  8
1
100
AcDbText
 10
-134.0
 20
1.25
 30
0.0
 40
2.0
  1
Localização do des.:
 41
0.8
  7
SANINDUSA
 11
-134.0
 21
2.25
 31
0.0
100
AcDbText
 73
     2
  0
LINE
  5
BBD
330
B9E
100
AcDbEntity
  8
3
100
AcDbLine
 10
-180.0
 20
65.0
 30
0.0
 11
0.0
 21
65.0
 31
0.0
  0
LINE
  5
BBE
330
B9E
100
AcDbEntity
  8
leg fin
100
AcDbLine
 10
-40.0
 20
25.05956924886846
 30
0.0
 11
-135.0
 21
25.05956924886846
 31
0.0
  0
LINE
  5
BBF
330
B9E
100
AcDbEntity
  8
leg fin
100
AcDbLine
 10
-40.0
 20
28.5
 30
0.0
 11
-135.0
 21
28.5
 31
0.0
  0
LINE
  5
BC0
330
B9E
100
AcDbEntity
  8
3
100
AcDbLine
 10
-135.0
 20
50.0
 30
0.0
 11
-40.0
 21
50.0
 31
0.0
  0
TEXT
  5
BC1
330
B9E
100
AcDbEntity
  8
1
100
AcDbText
 10
-134.0
 20
29.75
 30
0.0
 40
2.0
  1
Desenho nº:
 41
0.8
  7
SANINDUSA
 11
-134.0
 21
30.75
 31
0.0
100
AcDbText
 73
     2
  0
TEXT
  5
BC2
330
B9E
100
AcDbEntity
  8
1
100
AcDbText
 10
-134.0
 20
9.25
 30
0.0
 40
2.0
  1
Acabamento:
 41
0.8
  7
SANINDUSA
 11
-134.0
 21
10.25
 31
0.0
100
AcDbText
 73
     2
  0
LINE
  5
BC3
330
B9E
100
AcDbEntity
  8
3
100
AcDbLine
 10
-180.0
 20
20.0
 30
0.0
 11
0.0
 21
20.0
 31
0.0
  0
LINE
  5
BC4
330
B9E
100
AcDbEntity
  8
1
100
AcDbLine
 10
-174.5810776056337
 20
55.5
 30
0.0
 11
-174.5810776056337
 21
65.0
 31
0.0
  0
LINE
  5
BC5
330
B9E
100
AcDbEntity
  8
1
100
AcDbLine
 10
-168.9210461879161
 20
55.5
 30
0.0
 11
-168.9210461879161
 21
65.0
 31
0.0
  0
LINE
  5
BC6
330
B9E
100
AcDbEntity
  8
1
100
AcDbLine
 10
-154.0988595589306
 20
55.5
 30
0.0
 11
-154.0988595589306
 21
65.0
 31
0.0
  0
LINE
  5
BC7
330
B9E
100
AcDbEntity
  8
3
100
AcDbLine
 10
-180.0
 20
65.0
 30
0.0
 11
-180.0
 21
0.0
 31
0.0
  0
LINE
  5
BC8
330
B9E
100
AcDbEntity
  8
3
100
AcDbLine
 10
-135.0
 20
0.0
 30
0.0
 11
-135.0
 21
65.0
 31
0.0
  0
TEXT
  5
BC9
330
B9E
100
AcDbEntity
  8
1
100
AcDbText
 10
-179.0
 20
9.75
 30
0.0
 40
1.5
  1
Des.
 41
0.8
  7
SANINDUSA
 11
-179.0
 21
10.5
 31
0.0
100
AcDbText
 73
     2
  0
LINE
  5
BCA
330
B9E
100
AcDbEntity
  8
1
100
AcDbLine
 10
-168.9210461879161
 20
20.0
 30
0.0
 11
-168.9210461879161
 21
0.0
 31
0.0
  0
LINE
  5
BCB
330
B9E
100
AcDbEntity
  8
1
100
AcDbLine
 10
-154.0988595589306
 20
20.0
 30
0.0
 11
-154.0988595589306
 21
0.0
 31
0.0
  0
LINE
  5
BCC
330
B9E
100
AcDbEntity
  8
1
100
AcDbLine
 10
-180.0
 20
4.0
 30
0.0
 11
-135.0
 21
4.0
 31
0.0
  0
LINE
  5
BCD
330
B9E
100
AcDbEntity
  8
1
100
AcDbLine
 10
-180.0
 20
8.0
 30
0.0
 11
-135.0
 21
8.0
 31
0.0
  0
TEXT
  5
BCE
330
B9E
100
AcDbEntity
  8
1
100
AcDbText
 10
-179.0
 20
1.73257823687436
 30
0.0
 40
1.5
  1
Aprov.
 41
0.8
  7
SANINDUSA
 11
-179.0
 21
2.48257823687436
 31
0.0
100
AcDbText
 73
     2
  0
TEXT
  5
BCF
330
B9E
100
AcDbEntity
  8
1
100
AcDbText
 10
-179.0
 20
5.75
 30
0.0
 40
1.5
  1
Ver.
 41
0.8
  7
SANINDUSA
 11
-179.0
 21
6.5
 31
0.0
100
AcDbText
 73
     2
  0
LINE
  5
BD0
330
B9E
100
AcDbEntity
  8
1
100
AcDbLine
 10
-180.0
 20
16.0
 30
0.0
 11
-135.0
 21
16.0
 31
0.0
  0
LINE
  5
BD1
330
B9E
100
AcDbEntity
  8
1
100
AcDbLine
 10
-180.0
 20
12.0
 30
0.0
 11
-135.0
 21
12.0
 31
0.0
  0
TEXT
  5
BD2
330
B9E
100
AcDbEntity
  8
1
100
AcDbText
 10
-179.0
 20
13.75
 30
0.0
 40
1.5
  1
Proj.
 41
0.8
  7
SANINDUSA
 11
-179.0
 21
14.5
 31
0.0
100
AcDbText
 73
     2
  0
TEXT
  5
BD3
330
B9E
100
AcDbEntity
  8
1
100
AcDbText
 10
-167.9210461879161
 20
17.75
 30
0.0
 40
1.5
  1
Data
 41
0.8
  7
SANINDUSA
 11
-167.9210461879161
 21
18.5
 31
0.0
100
AcDbText
 73
     2
  0
TEXT
  5
BD4
330
B9E
100
AcDbEntity
  8
1
100
AcDbText
 10
-153.0988595589306
 20
17.75
 30
0.0
 40
1.5
  1
Nome
 41
0.8
  7
SANINDUSA
 11
-153.0988595589306
 21
18.5
 31
0.0
100
AcDbText
 73
     2
  0
LINE
  5
BD5
330
B9E
100
AcDbEntity
  8
leg fin
100
AcDbLine
 10
-130.0
 20
20.0
 30
0.0
 11
-130.0
 21
28.5
 31
0.0
  0
TEXT
  5
BD6
330
B9E
100
AcDbEntity
  8
1
100
AcDbText
 10
-134.0
 20
17.25
 30
0.0
 40
2.0
  1
Material:
 41
0.8
  7
SANINDUSA
 11
-134.0
 21
18.25
 31
0.0
100
AcDbText
 73
     2
  0
TEXT
  5
BD7
330
B9E
100
AcDbEntity
  8
1
100
AcDbText
 10
-129.0
 20
26.43288406845113
 30
0.0
 40
1.5
  1
Ano:
 41
0.8
  7
SANINDUSA
 11
-129.0
 21
27.18288406845113
 31
0.0
100
AcDbText
 73
     2
  0
LINE
  5
BD8
330
B9E
100
AcDbEntity
  8
1
100
AcDbLine
 10
-180.0
 20
55.5
 30
0.0
 11
-135.0
 21
55.5
 31
0.0
  0
TEXT
  5
BD9
330
B9E
100
AcDbEntity
  8
1
100
AcDbText
 10
-179.0
 20
52.67772246885193
 30
0.0
 40
1.5
  1
descrição
 41
0.8
  7
SANINDUSA
 11
-179.0
 21
53.42772246885193
 31
0.0
100
AcDbText
 73
     2
  0
TEXT
  5
BDA
330
B9E
100
AcDbEntity
  8
1
100
AcDbText
 10
-134.0
 20
47.25
 30
0.0
 40
2.0
  1
Peça:
 41
0.8
  7
SANINDUSA
 11
-134.0
 21
48.25
 31
0.0
100
AcDbText
 73
     2
  0
LINE
  5
BDB
330
B9E
100
AcDbEntity
  8
1
100
AcDbLine
 10
-180.0
 20
59.5
 30
0.0
 11
-135.0
 21
59.5
 31
0.0
  0
TEXT
  5
BDC
330
B9E
100
AcDbEntity
  8
1
100
AcDbText
 10
-173.5810776056337
 20
62.75
 30
0.0
 40
1.5
  1
Alt.
 41
0.8
  7
SANINDUSA
 11
-173.5810776056337
 21
63.5
 31
0.0
100
AcDbText
 73
     2
  0
TEXT
  5
BDD
330
B9E
100
AcDbEntity
  8
1
100
AcDbText
 10
-179.0
 20
62.75
 30
0.0
 40
1.5
  1
Rev.
 41
0.8
  7
SANINDUSA
 11
-179.0
 21
63.5
 31
0.0
100
AcDbText
 73
     2
  0
TEXT
  5
BDE
330
B9E
100
AcDbEntity
  8
1
100
AcDbText
 10
-167.9210461879161
 20
62.75
 30
0.0
 40
1.5
  1
Data
 41
0.8
  7
SANINDUSA
 11
-167.9210461879161
 21
63.5
 31
0.0
100
AcDbText
 73
     2
  0
TEXT
  5
BDF
330
B9E
100
AcDbEntity
  8
1
100
AcDbText
 10
-153.0988595589306
 20
62.75
 30
0.0
 40
1.5
  1
Nome
 41
0.8
  7
SANINDUSA
 11
-153.0988595589306
 21
63.5
 31
0.0
100
AcDbText
 73
     2
  0
TEXT
  5
BE0
330
B9E
100
AcDbEntity
  8
1
100
AcDbText
 10
-134.0
 20
62.25
 30
0.0
 40
2.0
  1
Produto:
 41
0.8
  7
SANINDUSA
 11
-134.0
 21
63.25
 31
0.0
100
AcDbText
 73
     2
  0
LINE
  5
BE1
330
B9E
100
AcDbEntity
  8
3
100
AcDbLine
 10
-40.0
 20
4.0
 30
0.0
 11
-40.0
 21
65.0
 31
0.0
  0
LWPOLYLINE
  5
BE2
102
{ACAD_REACTORS
330
BEC
102
}
330
B9E
100
AcDbEntity
  8
9
100
AcDbPolyline
 90
       12
 70
     1
 43
0.0
 10
-3.038714600644652
 20
58.90010174665076
 10
-5.726962862472191
 20
58.90010174665076
 10
-5.726962862472191
 20
58.5001017466509
 10
-3.038748516195028
 20
58.5001017466509
 42
-0.4142135623731731
 10
-2.638748516194482
 20
58.1001017466508
 10
-2.638748516194482
 20
57.42799728675596
 10
-5.21497371544865
 20
57.42799728675596
 42
0.4142135623731289
 10
-6.014973715448377
 20
56.627997286756
 10
-6.014973715448377
 20
55.92380871629643
 42
0.4142135623731132
 10
-5.21497371544865
 20
55.12380871629648
 10
-2.23871460064447
 20
55.12380871629648
 10
-2.23871460064447
 20
58.10010174665103
 42
0.4142135623730717
  0
LWPOLYLINE
  5
BE3
102
{ACAD_REACTORS
330
BEC
102
}
330
B9E
100
AcDbEntity
  8
9
100
AcDbPolyline
 90
       20
 70
     1
 43
0.0
 10
-10.01531287095122
 20
57.82799728675581
 10
-10.01531287095122
 20
58.10010174665103
 42
-0.4142135623730744
 10
-9.615312870951584
 20
58.5001017466509
 10
-6.92703069357276
 20
58.5001017466509
 10
-6.92703069357276
 20
58.90010174665076
 10
-9.615346786501959
 20
58.90010174665076
 42
0.4142135623730883
 10
-10.41534678650168
 20
58.1001017466508
 10
-10.41534678650168
 20
57.82796337120567
 42
0.4142135623730717
 10
-9.615346786501959
 20
57.02796337120571
 10
-7.423079531965413
 20
57.02796337120571
 42
-0.4142135623730847
 10
-7.023079531965322
 20
56.62796337120562
 10
-7.023079531965322
 20
55.90786840766487
 42
-0.4142135623730744
 10
-7.423079531965413
 20
55.507868407665
 10
-10.41534678650168
 20
55.507868407665
 10
-10.41534678650168
 20
55.12380871629648
 10
-7.445787917283723
 20
55.12380871629648
 42
0.4114777732064574
 10
-6.645822882998345
 20
55.9163291493976
 10
-6.639238813324936
 20
56.62051771985716
 42
0.4169546541682913
 10
-7.439203847610315
 20
57.42799728675596
 10
-9.615312870951584
 20
57.42799728675596
 42
-0.4142135623731576
  0
LWPOLYLINE
  5
BE4
102
{ACAD_REACTORS
330
BEC
102
}
330
B9E
100
AcDbEntity
  8
9
100
AcDbPolyline
 90
       12
 70
     1
 43
0.0
 10
-14.41561811090378
 20
58.90010174665076
 10
-14.79964388672215
 20
58.90010174665076
 10
-14.79964388672215
 20
55.92380871629643
 42
0.4142135623731133
 10
-13.99964388672242
 20
55.12380871629648
 10
-11.8233508563676
 20
55.12380871629648
 42
0.4142135623730872
 10
-11.02335085636741
 20
55.92380871629643
 10
-11.02335085636741
 20
58.90010174665076
 10
-11.42338477191788
 20
58.90010174665076
 10
-11.42338477191788
 20
55.91567577726095
 42
-0.4131711701795318
 10
-11.82196067063523
 20
55.51567831234956
 10
-14.0141940096214
 20
55.50787335710947
 42
-0.4152567234624407
 10
-14.41561811090378
 20
55.90787082202087
  0
LWPOLYLINE
  5
BE5
102
{ACAD_REACTORS
330
BEC
102
}
330
B9E
100
AcDbEntity
  8
9
100
AcDbPolyline
 90
        6
 70
     1
 43
0.0
 10
-15.80771578768872
 20
55.507868407665
 10
-18.39994912667453
 20
55.507868407665
 42
-0.4142135623731731
 10
-18.79994912667462
 20
55.90786840766487
 10
-18.79994912667462
 20
58.10010174665103
 42
-0.4142135623730744
 10
-18.39994912667453
 20
58.5001017466509
 10
-15.80771578768872
 20
58.5001017466509
  0
LWPOLYLINE
  5
BE6
102
{ACAD_REACTORS
330
BEC
102
}
330
B9E
100
AcDbEntity
  8
9
100
AcDbPolyline
 90
        8
 70
     1
 43
0.0
 10
-15.4236900118708
 20
59.87619128370352
 10
-15.80771578768872
 20
59.87619128370352
 10
-15.80771578768872
 20
58.90010174665076
 10
-18.39176256411201
 20
58.90010174665076
 42
0.4131164467977967
 10
-19.19175694739761
 20
58.1030995310698
 10
-19.1999120763262
 20
55.92680650071542
 42
0.4153115297271718
 10
-18.39991769304061
 20
55.12380871629648
 10
-15.4236900118708
 20
55.12380871629648
  0
LWPOLYLINE
  5
BE7
102
{ACAD_REACTORS
330
BEC
102
}
330
B9E
100
AcDbEntity
  8
9
100
AcDbPolyline
 90
       10
 70
     1
 43
0.0
 10
-20.59201288790928
 20
58.90010174665076
 10
-23.56830591826338
 20
58.90010174665076
 10
-23.56830591826338
 20
55.12380871629648
 10
-23.18424622689509
 20
55.12380871629648
 10
-23.18424622689509
 20
58.5001017466509
 10
-20.59204680345965
 20
58.5001017466509
 42
-0.4142135623730898
 10
-20.19204680345956
 20
58.1001017466508
 10
-20.19204680345956
 20
55.12380871629648
 10
-19.79201288790909
 20
55.12380871629648
 10
-19.79201288790909
 20
58.10010174665103
 42
0.4142135623731132
  0
LWPOLYLINE
  5
BE8
102
{ACAD_REACTORS
330
BEC
102
}
330
B9E
100
AcDbEntity
  8
9
100
AcDbPolyline
 90
        4
 70
     1
 43
0.0
 10
-24.19231812786165
 20
58.90010174665076
 10
-24.57637781922995
 20
58.90010174665076
 10
-24.57637781922995
 20
55.12380871629648
 10
-24.19231812786165
 20
55.12380871629648
  0
LWPOLYLINE
  5
BE9
102
{ACAD_REACTORS
330
BEC
102
}
330
B9E
100
AcDbEntity
  8
9
100
AcDbPolyline
 90
       10
 70
     1
 43
0.0
 10
-28.57661522808212
 20
58.5001017466509
 10
-25.98444972019706
 20
58.5001017466509
 42
-0.4142135623731731
 10
-25.58444972019652
 20
58.1001017466508
 10
-25.58444972019652
 20
55.12380871629648
 10
-25.2004239443786
 20
55.12380871629648
 10
-25.2004239443786
 20
58.10010174665103
 42
0.4142135623730717
 10
-26.00042394437833
 20
58.90010174665076
 10
-28.97664914363259
 20
58.90010174665076
 10
-28.97664914363259
 20
55.12380871629648
 10
-28.57661522808212
 20
55.12380871629648
  0
LWPOLYLINE
  5
BEA
102
{ACAD_REACTORS
330
BEC
102
}
330
B9E
100
AcDbEntity
  8
9
100
AcDbPolyline
 90
       12
 70
     1
 43
0.0
 10
-29.58465321349832
 20
58.10010174665103
 42
0.4142135623730716
 10
-30.3846532134985
 20
58.90010174665076
 10
-33.07296930642724
 20
58.90010174665076
 10
-33.07296930642724
 20
58.5001017466509
 10
-30.38468712904842
 20
58.5001017466509
 42
-0.4142135623730067
 10
-29.98468712904878
 20
58.1001017466508
 10
-29.98468712904878
 20
57.42799728675618
 10
-32.56098015940324
 20
57.42799728675596
 42
0.4142135623731289
 10
-33.36098015940343
 20
56.627997286756
 10
-33.36098015940343
 20
55.92380871629643
 42
0.4142135623731132
 10
-32.56098015940324
 20
55.12380871629648
 10
-29.58465321349832
 20
55.12380871629648
  0
LWPOLYLINE
  5
BEB
102
{ACAD_REACTORS
330
BEC
102
}
330
B9E
100
AcDbEntity
  8
9
100
AcDbPolyline
 90
       20
 70
     1
 43
0.0
 10
-34.7850262845518
 20
57.42799728675596
 10
-36.96125148380543
 20
57.42799728675596
 42
-0.4142135623730898
 10
-37.36125148380552
 20
57.82799728675604
 10
-37.36125148380552
 20
58.10010174665103
 42
-0.4142135623730744
 10
-36.96125148380543
 20
58.5001017466509
 10
-34.27303713752781
 20
58.50010174665067
 10
-34.27303713752781
 20
58.90010174665076
 10
-36.96128539935535
 20
58.90010174665076
 42
0.4142135623731289
 10
-37.76128539935553
 20
58.1001017466508
 10
-37.76128539935553
 20
57.82796337120567
 42
0.4142135623730716
 10
-36.9612853993558
 20
57.02796337120571
 10
-34.76901814481926
 20
57.02796337120571
 42
-0.414213562373168
 10
-34.36901814481962
 20
56.62796337120562
 10
-34.36901814481962
 20
55.90786840766487
 42
-0.4142135623730744
 10
-34.76901814481926
 20
55.507868407665
 10
-37.76128539935553
 20
55.507868407665
 10
-37.76128539935553
 20
55.12380871629648
 10
-34.7850262845518
 20
55.12380871629648
 42
0.4142135623731289
 10
-33.98502628455162
 20
55.92380871629643
 10
-33.98502628455162
 20
56.627997286756
 42
0.4142135623731132
  0
HATCH
  5
BEC
330
B9E
100
AcDbEntity
  8
9
100
AcDbHatch
 10
0.0
 20
0.0
 30
0.0
210
0.0
220
0.0
230
1.0
  2
SOLID
 70
     1
 71
     1
 91
       13
 92
        7
 72
     1
 73
     1
 93
       20
 10
-34.36901814481962
 20
55.90786840766487
 42
-0.414213562372991
 10
-34.76901814481926
 20
55.507868407665
 42
0.0
 10
-37.76128539935553
 20
55.507868407665
 42
0.0
 10
-37.76128539935553
 20
55.12380871629648
 42
0.0
 10
-34.7850262845518
 20
55.12380871629648
 42
0.4142135623731705
 10
-33.98502628455162
 20
55.92380871629666
 42
0.0
 10
-33.98502628455162
 20
56.627997286756
 42
0.4142135623731547
 10
-34.7850262845518
 20
57.42799728675596
 42
0.0
 10
-36.96125148380543
 20
57.42799728675596
 42
-0.4142135623730898
 10
-37.36125148380552
 20
57.82799728675604
 42
0.0
 10
-37.36125148380552
 20
58.1001017466508
 42
-0.4142135623731575
 10
-36.96125148380543
 20
58.5001017466509
 42
0.0
 10
-34.27303713752781
 20
58.50010174665067
 42
0.0
 10
-34.27303713752781
 20
58.90010174665076
 42
0.0
 10
-36.96128539935535
 20
58.90010174665076
 42
0.4142135623731705
 10
-37.76128539935553
 20
58.10010174665058
 42
0.0
 10
-37.76128539935553
 20
57.82796337120544
 42
0.4142135623730299
 10
-36.9612853993558
 20
57.02796337120571
 42
0.0
 10
-34.76901814481926
 20
57.02796337120571
 42
-0.4142135623730015
 10
-34.36901814481962
 20
56.62796337120608
 42
0.0
 97
        1
330
BEB
 92
        7
 72
     1
 73
     1
 93
       12
 10
-33.36098015940343
 20
55.92380871629666
 42
0.4142135623731547
 10
-32.56098015940324
 20
55.12380871629648
 42
0.0
 10
-29.58465321349877
 20
55.12380871629648
 42
0.0
 10
-29.58465321349832
 20
58.10010174665058
 42
0.4142135623731964
 10
-30.3846532134985
 20
58.90010174665076
 42
0.0
 10
-33.07296930642724
 20
58.90010174665076
 42
0.0
 10
-33.07296930642724
 20
58.50010174665067
 42
0.0
 10
-30.38468712904887
 20
58.5001017466509
 42
-0.4142135623732564
 10
-29.98468712904878
 20
58.10010174665103
 42
0.0
 10
-29.98468712904923
 20
57.42799728675596
 42
0.0
 10
-32.56098015940324
 20
57.42799728675596
 42
0.4142135623731705
 10
-33.36098015940343
 20
56.627997286756
 42
0.0
 97
        1
330
BEA
 92
       22
 72
     1
 73
     1
 93
        6
 10
-32.97692046803468
 20
56.62796337120562
 42
-0.4142135623731576
 10
-32.57692046803459
 20
57.02796337120571
 42
0.0
 10
-29.98468712904878
 20
57.02796337120571
 42
0.0
 10
-29.98468712904878
 20
55.507868407665
 42
0.0
 10
-32.57692046803459
 20
55.507868407665
 42
-0.4142135623731731
 10
-32.97692046803468
 20
55.90786840766487
 42
0.0
 97
        1
330
C11
 92
        7
 72
     1
 73
     1
 93
       10
 10
-28.57661522808212
 20
58.5001017466509
 42
0.0
 10
-25.98444972019661
 20
58.5001017466509
 42
-0.4142135623730067
 10
-25.58444972019652
 20
58.10010174665058
 42
0.0
 10
-25.58444972019606
 20
55.12380871629648
 42
0.0
 10
-25.20042394437906
 20
55.12380871629648
 42
0.0
 10
-25.2004239443786
 20
58.1001017466508
 42
0.4142135623731134
 10
-26.00042394437833
 20
58.90010174665076
 42
0.0
 10
-28.97664914363259
 20
58.90010174665076
 42
0.0
 10
-28.97664914363259
 20
55.12380871629648
 42
0.0
 10
-28.57661522808212
 20
55.12380871629648
 42
0.0
 97
        1
330
BE9
 92
        7
 72
     0
 73
     1
 93
        4
 10
-24.57637781922995
 20
55.12380871629648
 10
-24.19231812786165
 20
55.12380871629648
 10
-24.19231812786165
 20
58.90010174665076
 10
-24.57637781922995
 20
58.90010174665076
 97
        1
330
BE8
 92
        7
 72
     0
 73
     1
 93
        4
 10
-24.19231812786165
 20
59.87619128370352
 10
-24.5763778192304
 20
59.87619128370352
 10
-24.5763778192304
 20
59.28412752246913
 10
-24.1923181278612
 20
59.28412752246913
 97
        1
330
C12
 92
        7
 72
     1
 73
     1
 93
       10
 10
-23.18424622689509
 20
58.5001017466509
 42
0.0
 10
-20.59204680345965
 20
58.5001017466509
 42
-0.4142135623730898
 10
-20.19204680345956
 20
58.1001017466508
 42
0.0
 10
-20.19204680345956
 20
55.12380871629648
 42
0.0
 10
-19.79201288790909
 20
55.12380871629648
 42
0.0
 10
-19.79201288790909
 20
58.1001017466508
 42
0.4142135623731547
 10
-20.59201288790928
 20
58.90010174665076
 42
0.0
 10
-23.56830591826338
 20
58.90010174665076
 42
0.0
 10
-23.56830591826338
 20
55.12380871629648
 42
0.0
 10
-23.18424622689463
 20
55.12380871629648
 42
0.0
 97
        1
330
BE7
 92
        7
 72
     1
 73
     1
 93
        8
 10
-19.1999120763262
 20
55.92680650071542
 42
0.4153115297271299
 10
-18.39991769304061
 20
55.12380871629648
 42
0.0
 10
-15.4236900118708
 20
55.12380871629648
 42
0.0
 10
-15.4236900118708
 20
59.87619128370352
 42
0.0
 10
-15.80771578768872
 20
59.87619128370352
 42
0.0
 10
-15.80771578768872
 20
58.90010174665076
 42
0.0
 10
-18.39176256411201
 20
58.90010174665076
 42
0.4131164467977965
 10
-19.19175694739761
 20
58.1030995310698
 42
0.0
 97
        1
330
BE6
 92
       22
 72
     1
 73
     1
 93
        6
 10
-18.79994912667462
 20
58.1001017466508
 42
-0.4142135623731575
 10
-18.39994912667453
 20
58.5001017466509
 42
0.0
 10
-15.80771578768872
 20
58.50010174665067
 42
0.0
 10
-15.80771578768827
 20
55.507868407665
 42
0.0
 10
-18.39994912667453
 20
55.507868407665
 42
-0.4142135623731731
 10
-18.79994912667462
 20
55.90786840766487
 42
0.0
 97
        1
330
BE5
 92
        7
 72
     1
 73
     1
 93
       12
 10
-14.79964388672215
 20
55.92380871629621
 42
0.4142135623729885
 10
-13.99964388672242
 20
55.12380871629648
 42
0.0
 10
-11.8233508563676
 20
55.12380871629648
 42
0.4142135623731289
 10
-11.02335085636741
 20
55.92380871629666
 42
0.0
 10
-11.02335085636741
 20
58.90010174665076
 42
0.0
 10
-11.42338477191788
 20
58.90010174665076
 42
0.0
 10
-11.42338477191788
 20
55.91567577726095
 42
-0.4131711701795319
 10
-11.82196067063523
 20
55.51567831234956
 42
0.0
 10
-14.01419400962095
 20
55.50787335710947
 42
-0.4152567234626918
 10
-14.41561811090378
 20
55.90787082202087
 42
0.0
 10
-14.41561811090378
 20
58.90010174665076
 42
0.0
 10
-14.7996438867226
 20
58.90010174665076
 42
0.0
 97
        1
330
BE4
 92
        7
 72
     1
 73
     1
 93
       20
 10
-7.423079531965413
 20
57.02796337120571
 42
-0.414213562373168
 10
-7.023079531965322
 20
56.62796337120562
 42
0.0
 10
-7.023079531965322
 20
55.90786840766487
 42
-0.4142135623731575
 10
-7.423079531965413
 20
55.507868407665
 42
0.0
 10
-10.41534678650168
 20
55.507868407665
 42
0.0
 10
-10.41534678650168
 20
55.12380871629648
 42
0.0
 10
-7.445787917283723
 20
55.12380871629648
 42
0.4114777732065809
 10
-6.645822882998345
 20
55.91632914939783
 42
0.0
 10
-6.639238813324936
 20
56.62051771985716
 42
0.4169546541682913
 10
-7.439203847610315
 20
57.42799728675596
 42
0.0
 10
-9.615312870951584
 20
57.42799728675596
 42
-0.4142135623729911
 10
-10.01531287095122
 20
57.82799728675581
 42
0.0
 10
-10.01531287095122
 20
58.10010174665103
 42
-0.414213562372991
 10
-9.615312870951584
 20
58.5001017466509
 42
0.0
 10
-6.92703069357276
 20
58.50010174665067
 42
0.0
 10
-6.927030693572305
 20
58.90010174665076
 42
0.0
 10
-9.615346786501959
 20
58.90010174665076
 42
0.4142135623730467
 10
-10.41534678650168
 20
58.10010174665103
 42
0.0
 10
-10.41534678650168
 20
57.82796337120544
 42
0.4142135623730301
 10
-9.615346786501959
 20
57.02796337120571
 42
0.0
 97
        1
330
BE3
 92
        7
 72
     1
 73
     1
 93
       12
 10
-5.21497371544865
 20
57.42799728675596
 42
0.4142135623730871
 10
-6.014973715448377
 20
56.627997286756
 42
0.0
 10
-6.014973715448377
 20
55.92380871629621
 42
0.4142135623730715
 10
-5.21497371544865
 20
55.12380871629648
 42
0.0
 10
-2.23871460064447
 20
55.12380871629648
 42
0.0
 10
-2.23871460064447
 20
58.10010174665058
 42
0.414213562373155
 10
-3.038714600644652
 20
58.90010174665076
 42
0.0
 10
-5.726962862471737
 20
58.90010174665076
 42
0.0
 10
-5.726962862472191
 20
58.5001017466509
 42
0.0
 10
-3.038748516194573
 20
58.5001017466509
 42
-0.4142135623730067
 10
-2.638748516194482
 20
58.10010174665058
 42
0.0
 10
-2.638748516194482
 20
57.42799728675596
 42
0.0
 97
        1
330
BE2
 92
       22
 72
     1
 73
     1
 93
        6
 10
-2.638748516194937
 20
57.02796337120571
 42
0.0
 10
-2.638748516194482
 20
55.50786840766477
 42
0.0
 10
-5.21497371544865
 20
55.507868407665
 42
-0.4142135623731731
 10
-5.614973715448741
 20
55.90786840766509
 42
0.0
 10
-5.614973715448741
 20
56.62796337120562
 42
-0.4142135623731576
 10
-5.21497371544865
 20
57.02796337120571
 42
0.0
 97
        1
330
C0D
 75
     0
 76
     1
 47
0.0407044778999864
 98
       13
 10
-34.18710075113677
 20
56.16907953933765
 10
-33.12851374392494
 20
56.49471602641233
 10
-33.12851374392494
 20
56.49471602641233
 10
-28.77202873835904
 20
57.51232930166111
 10
-24.41554807250941
 20
57.91937341678636
 10
-24.41554807250941
 20
59.384734621186
 10
-23.31624584658039
 20
58.3264175319116
 10
-19.04119127844888
 20
57.75655517324913
 10
-19.04119127844888
 20
57.75655517324913
 10
-14.64399105416578
 20
57.43091868617466
 10
-8.048195057457178
 20
57.22739662861204
 10
-4.017427461911665
 20
57.18669281458665
 10
-4.017427461911665
 20
57.18669281458665
  0
TEXT
  5
BED
330
B9E
100
AcDbEntity
  8
leg fin
100
AcDbText
 10
3.391127401597259
 20
2.107634911895729
 30
0.0
 40
1.5
  1
Este desenho é propriedade da Sanindusa, S.A., e não pode ser copiado nem divulgado sem nossa autorização.
 50
90.0
 41
0.8
  7
SANINDUSA
100
AcDbText
  0
LINE
  5
BEE
330
B9E
100
AcDbEntity
  8
3
100
AcDbLine
 10
-90.0
 20
4.0
 30
0.0
 11
-90.0
 21
12.0
 31
0.0
  0
TEXT
  5
BEF
330
B9E
100
AcDbEntity
  8
1
100
AcDbText
 10
-39.0
 20
9.25
 30
0.0
 40
2.0
  1
Substituido por:
 41
0.8
  7
SANINDUSA
 11
-39.0
 21
10.25
 31
0.0
100
AcDbText
 73
     2
  0
POINT
  5
BF0
330
B9E
100
AcDbEntity
  8
SANINDUSA
100
AcDbPoint
 10
0.0
 20
0.0
 30
0.0
  0
TEXT
  5
BF1
330
B9E
100
AcDbEntity
  8
1
100
AcDbText
 10
-89.0
 20
16.74927010445663
 30
0.0
 40
2.0
  1
Normas:
 41
0.8
  7
SANINDUSA
 11
-89.0
 21
17.74927010445663
 31
0.0
100
AcDbText
 73
     2
  0
LINE
  5
BF2
330
B9E
100
AcDbEntity
  8
3
100
AcDbLine
 10
-90.0
 20
12.0
 30
0.0
 11
-90.0
 21
20.0
 31
0.0
  0
LINE
  5
BF3
330
B9E
100
AcDbEntity
  8
3
100
AcDbLine
 10
-110.546019464768
 20
12.0
 30
0.0
 11
-110.546019464768
 21
20.0
 31
0.0
  0
TEXT
  5
BF4
330
B9E
100
AcDbEntity
  8
1
100
AcDbText
 10
-109.6177520618648
 20
17.25
 30
0.0
 40
2.0
  1
Cor:
 41
0.8
  7
SANINDUSA
 11
-109.6177520618648
 21
18.25
 31
0.0
100
AcDbText
 73
     2
  0
LINE
  5
BF5
330
B9E
100
AcDbEntity
  8
leg fin
100
AcDbLine
 10
-91.42857142857156
 20
20.0
 30
0.0
 11
-91.42857142857156
 21
28.5
 31
0.0
  0
LINE
  5
BF6
330
B9E
100
AcDbEntity
  8
leg fin
100
AcDbLine
 10
-104.2857142857142
 20
20.0
 30
0.0
 11
-104.2857142857142
 21
28.5
 31
0.0
  0
LINE
  5
BF7
330
B9E
100
AcDbEntity
  8
leg fin
100
AcDbLine
 10
-117.1428571428573
 20
20.0
 30
0.0
 11
-117.1428571428573
 21
28.5
 31
0.0
  0
POINT
  5
BF8
330
B9E
100
AcDbEntity
  8
SANINDUSA
100
AcDbPoint
 10
-117.1428571428573
 20
28.5
 30
0.0
  0
POINT
  5
BF9
330
B9E
100
AcDbEntity
  8
SANINDUSA
100
AcDbPoint
 10
-104.2857142857142
 20
28.5
 30
0.0
  0
POINT
  5
BFA
330
B9E
100
AcDbEntity
  8
SANINDUSA
100
AcDbPoint
 10
-91.42857142857156
 20
28.5
 30
0.0
  0
TEXT
  5
BFB
330
B9E
100
AcDbEntity
  8
1
100
AcDbText
 10
-116.200160604496
 20
26.43288406845113
 30
0.0
 40
1.5
  1
Nº Seq.:
 41
0.8
  7
SANINDUSA
 11
-116.200160604496
 21
27.18288406845113
 31
0.0
100
AcDbText
 73
     2
  0
TEXT
  5
BFC
330
B9E
100
AcDbEntity
  8
1
100
AcDbText
 10
-103.2106584078738
 20
26.43288406845113
 30
0.0
 40
1.5
  1
Tipo:
 41
0.8
  7
SANINDUSA
 11
-103.2106584078738
 21
27.18288406845113
 31
0.0
100
AcDbText
 73
     2
  0
TEXT
  5
BFD
330
B9E
100
AcDbEntity
  8
1
100
AcDbText
 10
-90.22114672289353
 20
26.43288406845113
 30
0.0
 40
1.5
  1
Prod.:
 41
0.8
  7
SANINDUSA
 11
-90.22114672289353
 21
27.18288406845113
 31
0.0
100
AcDbText
 73
     2
  0
TEXT
  5
BFE
330
B9E
100
AcDbEntity
  8
1
100
AcDbText
 10
-64.77320576346574
 20
26.43288406845113
 30
0.0
 40
1.5
  1
Rev.:
 41
0.8
  7
SANINDUSA
 11
-64.77320576346574
 21
27.18288406845113
 31
0.0
100
AcDbText
 73
     2
  0
LINE
  5
BFF
330
B9E
100
AcDbEntity
  8
leg fin
100
AcDbLine
 10
-52.85714285714266
 20
20.0
 30
0.0
 11
-52.85714285714266
 21
28.5
 31
0.0
  0
LINE
  5
C00
330
B9E
100
AcDbEntity
  8
leg fin
100
AcDbLine
 10
-65.71428571428578
 20
20.0
 30
0.0
 11
-65.71428571428578
 21
28.5
 31
0.0
  0
LINE
  5
C01
330
B9E
100
AcDbEntity
  8
leg fin
100
AcDbLine
 10
-78.57142857142844
 20
20.0
 30
0.0
 11
-78.57142857142844
 21
28.5
 31
0.0
  0
POINT
  5
C02
330
B9E
100
AcDbEntity
  8
SANINDUSA
100
AcDbPoint
 10
-78.57142857142844
 20
28.5
 30
0.0
  0
POINT
  5
C03
330
B9E
100
AcDbEntity
  8
SANINDUSA
100
AcDbPoint
 10
-65.71428571428578
 20
28.5
 30
0.0
  0
POINT
  5
C04
330
B9E
100
AcDbEntity
  8
SANINDUSA
100
AcDbPoint
 10
-52.85714285714266
 20
28.5
 30
0.0
  0
TEXT
  5
C05
330
B9E
100
AcDbEntity
  8
1
100
AcDbText
 10
-77.61097961686573
 20
26.43288406845113
 30
0.0
 40
1.5
  1
Peça:
 41
0.8
  7
SANINDUSA
 11
-77.61097961686573
 21
27.18288406845113
 31
0.0
100
AcDbText
 73
     2
  0
TEXT
  5
C06
330
B9E
100
AcDbEntity
  8
1
100
AcDbText
 10
-52.06538060077036
 20
26.43288406845113
 30
0.0
 40
1.5
  1
Alt.:
 41
0.8
  7
SANINDUSA
 11
-52.06538060077036
 21
27.18288406845113
 31
0.0
100
AcDbText
 73
     2
  0
LINE
  5
C07
330
B9E
100
AcDbEntity
  8
3
100
AcDbLine
 10
0.0
 20
12.0
 30
0.0
 11
-40.0
 21
12.0
 31
0.0
  0
LINE
  5
C08
330
B9E
100
AcDbEntity
  8
3
100
AcDbLine
 10
-40.0
 20
32.5
 30
0.0
 11
0.0
 21
32.5
 31
0.0
  0
TEXT
  5
C09
330
B9E
100
AcDbEntity
  8
1
100
AcDbText
 10
-19.0
 20
29.75
 30
0.0
 40
2.0
  1
Folha:
 41
0.8
  7
SANINDUSA
 11
-19.0
 21
30.75
 31
0.0
100
AcDbText
 73
     2
  0
LINE
  5
C0A
330
B9E
100
AcDbEntity
  8
3
100
AcDbLine
 10
-20.0
 20
32.5
 30
0.0
 11
-20.0
 21
20.0
 31
0.0
  0
TEXT
  5
C0B
330
B9E
100
AcDbEntity
  8
1
100
AcDbText
 10
-39.0
 20
29.75
 30
0.0
 40
2.0
  1
Escala:
 41
0.8
  7
SANINDUSA
 11
-39.0
 21
30.75
 31
0.0
100
AcDbText
 73
     2
  0
TEXT
  5
C0C
330
B9E
100
AcDbEntity
  8
1
100
AcDbText
 10
-39.0
 20
17.25
 30
0.0
 40
2.0
  1
Substitui:
 41
0.8
  7
SANINDUSA
 11
-39.0
 21
18.25
 31
0.0
100
AcDbText
 73
     2
  0
LWPOLYLINE
  5
C0D
102
{ACAD_REACTORS
330
BEC
102
}
330
B9E
100
AcDbEntity
  8
9
100
AcDbPolyline
 90
        6
 70
     1
 43
0.0
 10
-2.638748516194482
 20
57.02796337120571
 10
-2.638748516194482
 20
55.50786840766477
 10
-5.21497371544865
 20
55.507868407665
 42
-0.4142135623730898
 10
-5.614973715448741
 20
55.90786840766487
 10
-5.614973715448741
 20
56.62796337120562
 42
-0.4142135623731576
 10
-5.21497371544865
 20
57.02796337120571
  0
LINE
  5
C0E
330
B9E
100
AcDbEntity
  8
3
100
AcDbLine
 10
-40.0
 20
50.0
 30
0.0
 11
0.0
 21
50.0
 31
0.0
  0
ATTDEF
  5
C0F
330
B9E
100
AcDbEntity
  8
1
100
AcDbText
 10
-31.30691739422431
 20
40.25
 30
0.0
 40
2.0
  1
XXXXXXXXXXXXXXX
 41
0.8
  7
SANINDUSA
 72
     4
 11
-20.0
 21
41.25
 31
0.0
100
AcDbAttributeDefinition
  3
Observações:
  2
OBS
 70
     0
  0
TEXT
  5
C10
330
B9E
100
AcDbEntity
  8
1
100
AcDbText
 10
-39.0
 20
47.25
 30
0.0
 40
2.0
  1
Observações:
 41
0.8
  7
SANINDUSA
 11
-39.0
 21
48.25
 31
0.0
100
AcDbText
 73
     2
  0
LWPOLYLINE
  5
C11
102
{ACAD_REACTORS
330
BEC
102
}
330
B9E
100
AcDbEntity
  8
9
100
AcDbPolyline
 90
        6
 70
     1
 43
0.0
 10
-29.98468712904878
 20
57.02796337120571
 10
-29.98468712904878
 20
55.507868407665
 10
-32.57692046803459
 20
55.507868407665
 42
-0.4142135623731731
 10
-32.97692046803468
 20
55.90786840766487
 10
-32.97692046803468
 20
56.62796337120562
 42
-0.4142135623731576
 10
-32.57692046803459
 20
57.02796337120571
  0
LWPOLYLINE
  5
C12
102
{ACAD_REACTORS
330
BEC
102
}
330
B9E
100
AcDbEntity
  8
9
100
AcDbPolyline
 90
        4
 70
     1
 43
0.0
 10
-24.19231812786165
 20
59.87619128370352
 10
-24.57637781922995
 20
59.87619128370352
 10
-24.57637781922995
 20
59.28412752246913
 10
-24.19231812786165
 20
59.28412752246913
  0
ENDBLK
  5
C14
330
B9E
100
AcDbEntity
  8
0
100
AcDbBlockEnd
  0
ENDSEC
  0
SECTION
  2
ENTITIES
  0
LINE
  5
1B89
330
1F
100
AcDbEntity
  8
SANINDUSA
100
AcDbLine
 10
4677.688089455837
 20
2533.061443891183
 30
0.0
 11
4677.689331497425
 21
2532.990286821306
 31
0.0
  0
LINE
  5
1B8B
330
1F
100
AcDbEntity
  8
SANINDUSA
100
AcDbLine
 10
4677.684332277054
 20
2532.990286821306
 30
0.0
 11
4677.689331497425
 21
2532.990286821306
 31
0.0
  0
LINE
  5
1B8E
330
1F
100
AcDbEntity
  8
SANINDUSA
100
AcDbLine
 10
4676.986538686566
 20
2532.990286821306
 30
0.0
 11
4676.987780743718
 21
2533.061444227606
 31
0.0
  0
LINE
  5
1B8F
330
1F
100
AcDbEntity
  8
SANINDUSA
100
AcDbLine
 10
4676.986538686566
 20
2532.990286821306
 30
0.0
 11
4676.991537924982
 21
2532.990286821306
 31
0.0
  0
LINE
  5
1B91
330
1F
100
AcDbEntity
  8
SANINDUSA
100
AcDbLine
 10
4676.991537924982
 20
2532.990286821306
 30
0.0
 11
4677.684332277054
 21
2532.990286821306
 31
0.0
  0
ARC
  5
1B92
330
1F
100
AcDbEntity
  8
SANINDUSA
100
AcDbCircle
 10
4677.679090816361
 20
2533.061286819517
 30
0.0
 40
0.0090000000000001
100
AcDbArc
 50
1.000000009720081
 51
90.0
  0
LINE
  5
1B94
330
1F
100
AcDbEntity
  8
SANINDUSA
100
AcDbLine
 10
4676.996779366755
 20
2533.070286819518
 30
0.0
 11
4677.679090823406
 21
2533.070286819518
 31
0.0
  0
ARC
  5
1B96
330
1F
100
AcDbEntity
  8
SANINDUSA
100
AcDbCircle
 10
4676.996779367096
 20
2533.061286819517
 30
0.0
 40
0.0090000000000001
100
AcDbArc
 50
90.0
 51
178.9999999902799
  0
ELLIPSE
  5
1BAF
330
1F
100
AcDbEntity
  8
SANINDUSA
100
AcDbEllipse
 10
4676.843983020358
 20
2533.327666712328
 30
0.0
 11
0.0079343406248555
 21
0.0079343406248553
 31
0.0
210
0.0
220
0.0
230
0.9999999999999998
 40
0.8911979137515723
 41
5.519407516233548
 42
7.046963098125683
  0
LINE
  5
1BB1
330
1F
100
AcDbEntity
  8
SANINDUSA
100
AcDbLine
 10
4676.844822712473
 20
2533.338287855221
 30
0.0
 11
4676.247416183582
 21
2533.338287855221
 31
0.0
  0
ELLIPSE
  5
1BB3
330
1F
100
AcDbEntity
  8
SANINDUSA
100
AcDbEllipse
 10
4676.248255850365
 20
2533.327666712328
 30
0.0
 11
0.0079343406248554
 21
-0.0079343406248556
 31
0.0
210
0.0
220
0.0
230
0.9999999999999998
 40
0.8911979137515512
 41
2.377814862643728
 42
3.905370444535905
  0
LINE
  5
1BB6
330
1F
100
AcDbEntity
  8
SANINDUSA
100
AcDbLine
 10
4676.854604192308
 20
2532.731099850221
 30
0.0
 11
4676.854604192308
 21
2533.328506379111
 31
0.0
  0
LINE
  5
1BB7
330
1F
100
AcDbEntity
  8
SANINDUSA
100
AcDbLine
 10
4676.237634707472
 20
2533.328506379111
 30
0.0
 11
4676.237634707472
 21
2532.731099850221
 31
0.0
  0
ELLIPSE
  5
1BB9
330
1F
100
AcDbEntity
  8
SANINDUSA
100
AcDbEllipse
 10
4676.248255850365
 20
2532.731939542335
 30
0.0
 11
0.0079343406248554
 21
0.0079343406248555
 31
0.0
210
0.0
220
0.0
230
0.9999999999999996
 40
0.8911979137515674
 41
2.377814862643708
 42
3.905370444535874
  0
ELLIPSE
  5
1BBC
330
1F
100
AcDbEntity
  8
SANINDUSA
100
AcDbEllipse
 10
4676.843983020358
 20
2532.731939542335
 30
0.0
 11
-0.0079343406248555
 21
0.0079343406248554
 31
0.0
210
0.0
220
0.0
230
0.9999999999999998
 40
0.8911979137515688
 41
2.377814862643728
 42
3.905370444535877
  0
LINE
  5
1BBD
330
1F
100
AcDbEntity
  8
SANINDUSA
100
AcDbLine
 10
4676.247416183582
 20
2532.721318370385
 30
0.0
 11
4676.844822712473
 21
2532.721318370385
 31
0.0
  0
LINE
  5
1BC8
330
1F
100
AcDbEntity
  8
SANINDUSA
100
AcDbLine
 10
4676.241276085607
 20
2533.324865000976
 30
0.0
 11
4676.237634707472
 21
2533.328506379111
 31
0.0
  0
LWPOLYLINE
  5
1BD1
330
1F
100
AcDbEntity
  8
SANINDUSA
100
AcDbPolyline
 90
        5
 70
   128
 43
0.0
 10
4676.251094598553
 20
2533.334610926641
 10
4676.370236449173
 20
2533.334622575624
 10
4676.546120502285
 20
2533.334604582472
 10
4676.722004540494
 20
2533.334602164758
 10
4676.841142721705
 20
2533.334609399272
  0
LWPOLYLINE
  5
1BD2
330
1F
100
AcDbEntity
  8
SANINDUSA
100
AcDbPolyline
 90
        9
 70
   128
 43
0.0
 10
4676.850961335233
 20
2533.324863551838
 10
4676.850444801382
 20
2533.183999410553
 10
4676.84978903108
 20
2533.008143580241
 10
4676.84952134662
 20
2532.94915944962
 10
4676.84926367574
 20
2532.89017442493
 10
4676.849131651453
 20
2532.83118326096
 10
4676.849242396882
 20
2532.799224084897
 10
4676.849608309797
 20
2532.767297274155
 10
4676.850229926637
 20
2532.735474115891
  0
LWPOLYLINE
  5
1BD3
330
1F
100
AcDbEntity
  8
SANINDUSA
100
AcDbPolyline
 90
        9
 70
   128
 43
0.0
 10
4676.242010504237
 20
2532.735475665612
 10
4676.242629543177
 20
2532.766739076657
 10
4676.242993973425
 20
2532.798107332272
 10
4676.243106946579
 20
2532.829508310837
 10
4676.242974862686
 20
2532.888540035767
 10
4676.242705714187
 20
2532.947565025372
 10
4676.242424093417
 20
2533.006588882489
 10
4676.241766967109
 20
2533.182444846911
 10
4676.241276085607
 20
2533.324865000976
  0
LWPOLYLINE
  5
1BD6
330
1F
100
AcDbEntity
  8
SANINDUSA
100
AcDbPolyline
 90
        7
 70
   128
 43
0.0
 10
4676.840169497064
 20
2532.72591508059
 10
4676.821766861013
 20
2532.725917226357
 10
4676.689319618276
 20
2532.725984818025
 10
4676.556872494749
 20
2532.726064330621
 10
4676.468395687869
 20
2532.726020998044
 10
4676.379918851188
 20
2532.725954062028
 10
4676.252071511231
 20
2532.725917107148
  0
ELLIPSE
  5
1BD8
330
1F
100
AcDbEntity
  8
SANINDUSA
100
AcDbEllipse
 10
4676.892515078916
 20
2533.376198770886
 30
0.0
 11
0.0035366109458464
 21
0.0035366109458496
 31
0.0
210
0.0
220
0.0
230
1.0
 40
0.9996954598818252
 41
5.497939437029271
 42
7.068431177328975
  0
ELLIPSE
  5
1BDB
330
1F
100
AcDbEntity
  8
SANINDUSA
100
AcDbEllipse
 10
4676.199723791807
 20
2533.376198770886
 30
0.0
 11
0.0035366109458464
 21
-0.0035366109458495
 31
0.0
210
0.0
220
0.0
230
1.0
 40
0.9996954598818703
 41
2.356346783440355
 42
3.926838523740093
  0
ELLIPSE
  5
1BDE
330
1F
100
AcDbEntity
  8
SANINDUSA
100
AcDbEllipse
 10
4676.892515078916
 20
2532.683407483778
 30
0.0
 11
0.0035366109458464
 21
-0.0035366109458496
 31
0.0
210
0.0
220
0.0
230
0.9999999999999998
 40
0.9996954598818604
 41
5.497939437030172
 42
7.068431177329919
  0
ELLIPSE
  5
1BE1
330
1F
100
AcDbEntity
  8
SANINDUSA
100
AcDbEllipse
 10
4676.199723791807
 20
2532.683407483778
 30
0.0
 11
0.0035366109458464
 21
0.0035366109458495
 31
0.0
210
0.0
220
0.0
230
1.0
 40
0.9996954598818653
 41
2.356346783439486
 42
3.926838523739249
  0
LINE
  5
1BE3
330
1F
100
AcDbEntity
  8
SANINDUSA
100
AcDbLine
 10
4676.892516620688
 20
2533.381199532493
 30
0.0
 11
4676.199722268616
 21
2533.381199532493
 31
0.0
  0
LINE
  5
1BE4
330
1F
100
AcDbEntity
  8
SANINDUSA
100
AcDbLine
 10
4676.897515841058
 20
2532.683405942006
 30
0.0
 11
4676.897515841058
 21
2533.376200294077
 31
0.0
  0
LINE
  5
1BE5
330
1F
100
AcDbEntity
  8
SANINDUSA
100
AcDbLine
 10
4676.1947230302
 20
2533.376200294077
 30
0.0
 11
4676.1947230302
 21
2532.683405942006
 31
0.0
  0
LINE
  5
1BE6
330
1F
100
AcDbEntity
  8
SANINDUSA
100
AcDbLine
 10
4676.199722268616
 20
2532.678406721635
 30
0.0
 11
4676.892516620688
 21
2532.678406721635
 31
0.0
  0
LWPOLYLINE
  5
1BE9
330
1F
100
AcDbEntity
  8
SANINDUSA
100
AcDbPolyline
 90
       16
 70
   128
 43
0.0
 10
4676.830453403524
 20
2532.743509179635
 10
4676.830479033522
 20
2532.743496603055
 10
4676.830516405633
 20
2532.743478244824
 10
4676.830569870999
 20
2532.743452018781
 10
4676.830668755106
 20
2532.743403560204
 10
4676.830851443342
 20
2532.743314093633
 10
4676.831189342073
 20
2532.743149107976
 10
4676.831815131238
 20
2532.742845124288
 10
4676.832979627183
 20
2532.742284781022
 10
4676.835183747343
 20
2532.741243964715
 10
4676.839666731885
 20
2532.739217526002
 10
4676.842684574655
 20
2532.737939542813
 10
4676.845370657972
 20
2532.736886269135
 10
4676.847188301614
 20
2532.736245399995
 10
4676.848675854734
 20
2532.735797769112
 10
4676.849680014185
 20
2532.735578543229
  0
LWPOLYLINE
  5
1BEA
330
1F
100
AcDbEntity
  8
SANINDUSA
100
AcDbPolyline
 90
        9
 70
   128
 43
0.0
 10
4676.830453403524
 20
2532.743509179635
 10
4676.829968996576
 20
2532.772692448182
 10
4676.829723544648
 20
2532.801951355023
 10
4676.829812653592
 20
2532.831232196374
 10
4676.830184169343
 20
2532.890330052657
 10
4676.830287762216
 20
2532.949423736615
 10
4676.830352433255
 20
2533.008516645713
 10
4676.830915399126
 20
2533.184341720028
 10
4676.83136767917
 20
2533.315392664356
  0
ARC
  5
1BEB
330
1F
100
AcDbEntity
  8
SANINDUSA
100
AcDbCircle
 10
4677.245653595031
 20
2532.483501137905
 30
0.0
 40
0.9293418810429455
100
AcDbArc
 50
115.136773275782
 51
116.473521804547
  0
ARC
  5
1BEC
330
1F
100
AcDbEntity
  8
SANINDUSA
100
AcDbCircle
 10
4675.820040965536
 20
2532.429574061546
 30
0.0
 40
0.989438536505056
100
AcDbArc
 50
63.54126363167346
 51
64.79829585124008
  0
LWPOLYLINE
  5
1BED
330
1F
100
AcDbEntity
  8
SANINDUSA
100
AcDbPolyline
 90
       10
 70
   128
 43
0.0
 10
4676.260888450078
 20
2533.315374328477
 10
4676.261066541306
 20
2533.275379976911
 10
4676.26176187419
 20
2533.115402883572
 10
4676.262037188045
 20
2533.006981677098
 10
4676.262101628116
 20
2532.947838282866
 10
4676.262208633355
 20
2532.888693845553
 10
4676.262418024472
 20
2532.829543358369
 10
4676.262426682046
 20
2532.80081767468
 10
4676.262199692658
 20
2532.772115057988
 10
4676.261766165725
 20
2532.743488019986
  0
LWPOLYLINE
  5
1BEE
330
1F
100
AcDbEntity
  8
SANINDUSA
100
AcDbPolyline
 90
       16
 70
   128
 43
0.0
 10
4676.242561370364
 20
2532.735578662438
 10
4676.243571419499
 20
2532.73579735188
 10
4676.245049529007
 20
2532.736240095181
 10
4676.246853247515
 20
2532.73687375216
 10
4676.249537162713
 20
2532.737923568769
 10
4676.252553586147
 20
2532.739198988957
 10
4676.257034849605
 20
2532.741223043485
 10
4676.259238876633
 20
2532.74226332335
 10
4676.260403596095
 20
2532.742823607011
 10
4676.26102964603
 20
2532.743127709908
 10
4676.261367745928
 20
2532.743292755169
 10
4676.261550598076
 20
2532.743382281346
 10
4676.261649519434
 20
2532.743430739922
 10
4676.261703051856
 20
2532.743457025571
 10
4676.261740505925
 20
2532.743475383802
 10
4676.261766165725
 20
2532.743488019986
  0
ARC
  5
1BF1
330
1F
100
AcDbEntity
  8
SANINDUSA
100
AcDbCircle
 10
4674.637259891227
 20
2532.500854329426
 30
0.0
 40
1.816483560611233
100
AcDbArc
 50
26.64138534625742
 51
27.32226593777413
  0
ARC
  5
1BF2
330
1F
100
AcDbEntity
  8
SANINDUSA
100
AcDbCircle
 10
4676.251683542399
 20
2533.32427940976
 30
0.0
 40
0.0103482895170087
100
AcDbArc
 50
93.2625913360439
 51
176.9374132099295
  0
ARC
  5
1BF3
330
1F
100
AcDbEntity
  8
SANINDUSA
100
AcDbCircle
 10
4678.563446121867
 20
2532.446424895186
 30
0.0
 40
1.937834026822101
100
AcDbArc
 50
152.7200354705859
 51
153.3575020077357
  0
LWPOLYLINE
  5
1BF4
330
1F
100
AcDbEntity
  8
SANINDUSA
100
AcDbPolyline
 90
        6
 70
   128
 43
0.0
 10
4676.83136767917
 20
2533.315392664356
 10
4676.791367717317
 20
2533.315404115898
 10
4676.631367691091
 20
2533.315438626988
 10
4676.546109862855
 20
2533.315413302464
 10
4676.370236687592
 20
2533.315324797018
 10
4676.260888450078
 20
2533.315374328477
  0
ARC
  5
1BF5
330
1F
100
AcDbEntity
  8
SANINDUSA
100
AcDbCircle
 10
4676.840553693904
 20
2533.324277830866
 30
0.0
 40
0.0103483457362693
100
AcDbArc
 50
3.063950559337548
 51
86.73696083133334
  0
LWPOLYLINE
  5
1BF6
330
1F
100
AcDbEntity
  8
SANINDUSA
100
AcDbPolyline
 90
       11
 70
   128
 43
0.0
 10
4676.261766165725
 20
2532.743488019986
 10
4676.379902728132
 20
2532.743317491097
 10
4676.424154259494
 20
2532.743399983925
 10
4676.468404300741
 20
2532.743269807382
 10
4676.497904129557
 20
2532.742837673707
 10
4676.527403839162
 20
2532.74240345387
 10
4676.556904532246
 20
2532.742312795205
 10
4676.60249466472
 20
2532.742790347619
 10
4676.648083932928
 20
2532.743337995095
 10
4676.693674631646
 20
2532.743538147492
 10
4676.830453403524
 20
2532.743509179635
  0
LWPOLYLINE
  5
1BF7
330
1F
100
AcDbEntity
  8
SANINDUSA
100
AcDbPolyline
 90
       16
 70
   128
 43
0.0
 10
4676.830453403524
 20
2532.743509179635
 10
4676.830466397336
 20
2532.743483728451
 10
4676.830486007264
 20
2532.743445164246
 10
4676.830513544611
 20
2532.743391162438
 10
4676.830564327768
 20
2532.743291622681
 10
4676.830657966664
 20
2532.743108159585
 10
4676.830830700925
 20
2532.742770201249
 10
4676.831149764589
 20
2532.74214745192
 10
4676.83174187713
 20
2532.7409973803
 10
4676.832858212522
 20
2532.73884869246
 10
4676.83510787063
 20
2532.734606391473
 10
4676.836633332303
 20
2532.7318130794
 10
4676.837991066507
 20
2532.729407853169
 10
4676.838909872106
 20
2532.727849012895
 10
4676.839661963514
 20
2532.726646727605
 10
4676.840169497064
 20
2532.72591508059
  0
LWPOLYLINE
  5
1BF8
330
1F
100
AcDbEntity
  8
SANINDUSA
100
AcDbPolyline
 90
       16
 70
   128
 43
0.0
 10
4676.261766165725
 20
2532.743488019986
 10
4676.261753186813
 20
2532.743462509198
 10
4676.261733494929
 20
2532.743423944993
 10
4676.261705927781
 20
2532.74336988358
 10
4676.26165509992
 20
2532.743270284218
 10
4676.261561386517
 20
2532.743086761517
 10
4676.261388533047
 20
2532.742748683972
 10
4676.26106929057
 20
2532.742125875039
 10
4676.260477088622
 20
2532.740975803418
 10
4676.259360939495
 20
2532.73882765202
 10
4676.257113207362
 20
2532.734587675614
 10
4676.255590010664
 20
2532.731796449704
 10
4676.254235387078
 20
2532.729393965287
 10
4676.253325421593
 20
2532.727847641988
 10
4676.25258012884
 20
2532.726653105302
 10
4676.252071511231
 20
2532.725917107148
  0
ARC
  5
1BF9
330
1F
100
AcDbEntity
  8
SANINDUSA
100
AcDbCircle
 10
4676.839247693595
 20
2532.736334021965
 30
0.0
 40
0.0104596396217111
100
AcDbArc
 50
275.056011312628
 51
355.8580343592917
  0
ARC
  5
1BFA
330
1F
100
AcDbEntity
  8
SANINDUSA
100
AcDbCircle
 10
4676.252993434861
 20
2532.73633590987
 30
0.0
 40
0.0104595120981236
100
AcDbArc
 50
184.1517303145853
 51
264.9432660778172
  0
ARC
  5
1BFB
330
1F
100
AcDbEntity
  8
SANINDUSA
100
AcDbCircle
 10
4676.356620606325
 20
2533.230268205298
 30
0.0
 40
0.0025903395714473
100
AcDbArc
 50
0.0
 51
89.99942449486381
  0
LWPOLYLINE
  5
1C06
330
1F
100
AcDbEntity
  8
SANINDUSA
100
AcDbPolyline
 90
        3
 70
   128
 43
0.0
 10
4676.34562137001
 20
2533.232859051509
 10
4676.353621356419
 20
2533.232858664078
 10
4676.356620632343
 20
2533.232858544869
  0
LWPOLYLINE
  5
1C08
330
1F
100
AcDbEntity
  8
SANINDUSA
100
AcDbPolyline
 90
        3
 70
   128
 43
0.0
 10
4676.359210945896
 20
2533.230268186612
 10
4676.359211080006
 20
2533.222268826051
 10
4676.359211139611
 20
2533.219268775268
  0
ARC
  5
1C0A
330
1F
100
AcDbEntity
  8
SANINDUSA
100
AcDbCircle
 10
4676.34562130022
 20
2533.230269046163
 30
0.0
 40
0.0025900053473319
100
AcDbArc
 50
89.9984561308705
 51
180.0
  0
LINE
  5
1C0D
330
1F
100
AcDbEntity
  8
SANINDUSA
100
AcDbLine
 10
4676.343031622699
 20
2533.219269773645
 30
0.0
 11
4676.343031294874
 21
2533.230269095583
 31
0.0
  0
ARC
  5
1C0E
330
1F
100
AcDbEntity
  8
SANINDUSA
100
AcDbCircle
 10
4676.410616884792
 20
2533.230269018661
 30
0.0
 40
0.0025904649817526
100
AcDbArc
 50
90.00137174911285
 51
180.0
  0
LWPOLYLINE
  5
1C19
330
1F
100
AcDbEntity
  8
SANINDUSA
100
AcDbPolyline
 90
        3
 70
   128
 43
0.0
 10
4676.410616822771
 20
2533.232859483642
 10
4676.418616794279
 20
2533.232860124392
 10
4676.421616129807
 20
2533.232860377712
  0
LWPOLYLINE
  5
1C1C
330
1F
100
AcDbEntity
  8
SANINDUSA
100
AcDbPolyline
 90
        3
 70
   128
 43
0.0
 10
4676.408026077083
 20
2533.219269639535
 10
4676.408026330403
 20
2533.227268970294
 10
4676.408026419809
 20
2533.230268991275
  0
ARC
  5
1C1D
330
1F
100
AcDbEntity
  8
SANINDUSA
100
AcDbCircle
 10
4676.421616283391
 20
2533.230270560474
 30
0.0
 40
0.0025898172430289
100
AcDbArc
 50
0.0
 51
90.00339784610769
  0
LWPOLYLINE
  5
1C1F
330
1F
100
AcDbEntity
  8
SANINDUSA
100
AcDbPolyline
 90
        3
 70
   128
 43
0.0
 10
4676.424206100634
 20
2533.2302706006
 10
4676.424205757907
 20
2533.222271314544
 10
4676.424205623797
 20
2533.21927136807
  0
ARC
  5
1C21
330
1F
100
AcDbEntity
  8
SANINDUSA
100
AcDbCircle
 10
4676.356621092479
 20
2533.219268747264
 30
0.0
 40
0.0025900471319629
100
AcDbArc
 50
269.9993805138484
 51
0.0
  0
LWPOLYLINE
  5
1C23
330
1F
100
AcDbEntity
  8
SANINDUSA
100
AcDbPolyline
 90
        3
 70
   128
 43
0.0
 10
4676.356621064476
 20
2533.216678700132
 10
4676.348621078065
 20
2533.216679102463
 10
4676.345621995857
 20
2533.216679281278
  0
ARC
  5
1C25
330
1F
100
AcDbEntity
  8
SANINDUSA
100
AcDbCircle
 10
4676.345622079277
 20
2533.219269737854
 30
0.0
 40
0.0025904565778772
100
AcDbArc
 50
180.0
 51
269.9981549338682
  0
ARC
  5
1C27
330
1F
100
AcDbEntity
  8
SANINDUSA
100
AcDbCircle
 10
4676.41061598206
 20
2533.219269633288
 30
0.0
 40
0.0025899049772024
100
AcDbArc
 50
180.0
 51
270.0017864421479
  0
LWPOLYLINE
  5
1C29
330
1F
100
AcDbEntity
  8
SANINDUSA
100
AcDbPolyline
 90
        3
 70
   128
 43
0.0
 10
4676.42161514633
 20
2533.216680741591
 10
4676.413615174822
 20
2533.216679981632
 10
4676.410616062812
 20
2533.216679728312
  0
ARC
  5
1C2A
330
1F
100
AcDbEntity
  8
SANINDUSA
100
AcDbCircle
 10
4676.421614983317
 20
2533.219271382068
 30
0.0
 40
0.0025906404812814
100
AcDbArc
 50
270.0036052968465
 51
0.0
  0
ARC
  5
1C2B
330
1F
100
AcDbEntity
  8
SANINDUSA
100
AcDbCircle
 10
4676.475614225137
 20
2533.230276310189
 30
0.0
 40
0.0025908326522794
100
AcDbArc
 50
90.00192307511301
 51
180.0
  0
LWPOLYLINE
  5
1C36
330
1F
100
AcDbEntity
  8
SANINDUSA
100
AcDbPolyline
 90
        3
 70
   128
 43
0.0
 10
4676.475614138177
 20
2533.232867142839
 10
4676.483614064983
 20
2533.232868320031
 10
4676.486614026359
 20
2533.232868767066
  0
LWPOLYLINE
  5
1C39
330
1F
100
AcDbEntity
  8
SANINDUSA
100
AcDbPolyline
 90
        3
 70
   128
 43
0.0
 10
4676.473022647432
 20
2533.219277805371
 10
4676.473023183874
 20
2533.227276823206
 10
4676.47302339249
 20
2533.230276471658
  0
ARC
  5
1C3A
330
1F
100
AcDbEntity
  8
SANINDUSA
100
AcDbCircle
 10
4676.48661447654
 20
2533.230279246455
 30
0.0
 40
0.0025895206494882
100
AcDbArc
 50
0.0
 51
90.00996070996128
  0
LWPOLYLINE
  5
1C3C
330
1F
100
AcDbEntity
  8
SANINDUSA
100
AcDbPolyline
 90
        3
 70
   128
 43
0.0
 10
4676.489203997186
 20
2533.230279377384
 10
4676.489203460745
 20
2533.222280463857
 10
4676.489203252128
 20
2533.219280979319
  0
ARC
  5
1C3F
330
1F
100
AcDbEntity
  8
SANINDUSA
100
AcDbCircle
 10
4676.475612105384
 20
2533.21927788851
 30
0.0
 40
0.0025894579540361
100
AcDbArc
 50
180.0
 51
270.0093698844149
  0
LWPOLYLINE
  5
1C41
330
1F
100
AcDbEntity
  8
SANINDUSA
100
AcDbPolyline
 90
        3
 70
   128
 43
0.0
 10
4676.486612446836
 20
2533.216690278334
 10
4676.478612549833
 20
2533.21668893723
 10
4676.475612528852
 20
2533.21668843059
  0
ARC
  5
1C42
330
1F
100
AcDbEntity
  8
SANINDUSA
100
AcDbCircle
 10
4676.486612285784
 20
2533.219281244687
 30
0.0
 40
0.0025909663570634
100
AcDbArc
 50
270.0035614200516
 51
0.0
  0
ARC
  5
1C43
330
1F
100
AcDbEntity
  8
SANINDUSA
100
AcDbCircle
 10
4676.540615063049
 20
2533.230285334439
 30
0.0
 40
0.0025907490976802
100
AcDbArc
 50
89.99941574034888
 51
179.9916859205191
  0
LWPOLYLINE
  5
1C4E
330
1F
100
AcDbEntity
  8
SANINDUSA
100
AcDbPolyline
 90
        3
 70
   128
 43
0.0
 10
4676.540615089467
 20
2533.232876083536
 10
4676.548615016273
 20
2533.232876932902
 10
4676.551615543893
 20
2533.232877245827
  0
LWPOLYLINE
  5
1C51
330
1F
100
AcDbEntity
  8
SANINDUSA
100
AcDbPolyline
 90
        3
 70
   128
 43
0.0
 10
4676.538023807338
 20
2533.219287848754
 10
4676.538024164966
 20
2533.227286434455
 10
4676.538024313978
 20
2533.230285710378
  0
ARC
  5
1C52
330
1F
100
AcDbEntity
  8
SANINDUSA
100
AcDbCircle
 10
4676.746621747881
 20
2533.230285424623
 30
0.0
 40
0.0025902267915731
100
AcDbArc
 50
0.0
 51
90.00554494301162
  0
LWPOLYLINE
  5
1C5D
330
1F
100
AcDbEntity
  8
SANINDUSA
100
AcDbPolyline
 90
        3
 70
   128
 43
0.0
 10
4676.735621519616
 20
2533.232876217646
 10
4676.743621476225
 20
2533.232875800414
 10
4676.746621497205
 20
2533.232875651402
  0
LWPOLYLINE
  5
1C5F
330
1F
100
AcDbEntity
  8
SANINDUSA
100
AcDbPolyline
 90
        3
 70
   128
 43
0.0
 10
4676.749211974672
 20
2533.230285471959
 10
4676.749212153486
 20
2533.22228678195
 10
4676.749212213091
 20
2533.219287088794
  0
ARC
  5
1C61
330
1F
100
AcDbEntity
  8
SANINDUSA
100
AcDbCircle
 10
4676.735621277583
 20
2533.230286220632
 30
0.0
 40
0.002589997026034
100
AcDbArc
 50
89.99464578035091
 51
180.0
  0
ARC
  5
1C63
330
1F
100
AcDbEntity
  8
SANINDUSA
100
AcDbCircle
 10
4676.5516160862
 20
2533.230287578938
 30
0.0
 40
0.0025896669451491
100
AcDbArc
 50
0.0
 51
90.01199842756895
  0
LWPOLYLINE
  5
1C66
330
1F
100
AcDbEntity
  8
SANINDUSA
100
AcDbPolyline
 90
        3
 70
   128
 43
0.0
 10
4676.733031518987
 20
2533.219288116975
 10
4676.733031340173
 20
2533.227286777182
 10
4676.733031280568
 20
2533.230286455435
  0
LWPOLYLINE
  5
1C67
330
1F
100
AcDbEntity
  8
SANINDUSA
100
AcDbPolyline
 90
        3
 70
   128
 43
0.0
 10
4676.554205753139
 20
2533.230287766738
 10
4676.554205455116
 20
2533.222289255542
 10
4676.554205365709
 20
2533.21928997962
  0
ARC
  5
1C69
330
1F
100
AcDbEntity
  8
SANINDUSA
100
AcDbCircle
 10
4676.681621355585
 20
2533.230288725429
 30
0.0
 40
0.0025902936499803
100
AcDbArc
 50
0.0
 51
90.00604363770403
  0
LINE
  5
1C74
330
1F
100
AcDbEntity
  8
SANINDUSA
100
AcDbLine
 10
4676.670620836548
 20
2533.232879510803
 30
0.0
 11
4676.681621082357
 21
2533.232879019065
 31
0.0
  0
LWPOLYLINE
  5
1C76
330
1F
100
AcDbEntity
  8
SANINDUSA
100
AcDbPolyline
 90
        3
 70
   128
 43
0.0
 10
4676.68421164923
 20
2533.230288869424
 10
4676.684211828045
 20
2533.222290343327
 10
4676.684211887649
 20
2533.219290709777
  0
ARC
  5
1C78
330
1F
100
AcDbEntity
  8
SANINDUSA
100
AcDbCircle
 10
4676.670620643551
 20
2533.230289405128
 30
0.0
 40
0.0025901056824798
100
AcDbArc
 50
89.99573071488226
 51
179.991742955141
  0
LWPOLYLINE
  5
1C7B
330
1F
100
AcDbEntity
  8
SANINDUSA
100
AcDbPolyline
 90
        3
 70
   128
 43
0.0
 10
4676.668030776314
 20
2533.219291693253
 10
4676.668030597499
 20
2533.227290189547
 10
4676.668030537895
 20
2533.230289778395
  0
ARC
  5
1C7C
330
1F
100
AcDbEntity
  8
SANINDUSA
100
AcDbCircle
 10
4676.605618082122
 20
2533.230290121185
 30
0.0
 40
0.0025903730999711
100
AcDbArc
 50
89.9963723478743
 51
179.9904431702081
  0
LWPOLYLINE
  5
1C87
330
1F
100
AcDbEntity
  8
SANINDUSA
100
AcDbPolyline
 90
        3
 70
   128
 43
0.0
 10
4676.60561824613
 20
2533.23288049428
 10
4676.613618232539
 20
2533.23288062839
 10
4676.616618789963
 20
2533.232880643291
  0
ARC
  5
1C89
330
1F
100
AcDbEntity
  8
SANINDUSA
100
AcDbCircle
 10
4676.616619241716
 20
2533.230290587809
 30
0.0
 40
0.0025900555215543
100
AcDbArc
 50
0.0
 51
90.00999343517136
  0
LWPOLYLINE
  5
1C8C
330
1F
100
AcDbEntity
  8
SANINDUSA
100
AcDbPolyline
 90
        3
 70
   128
 43
0.0
 10
4676.603027679256
 20
2533.219292825741
 10
4676.603027709059
 20
2533.227291217727
 10
4676.603027709059
 20
2533.230290553255
  0
LWPOLYLINE
  5
1C8D
330
1F
100
AcDbEntity
  8
SANINDUSA
100
AcDbPolyline
 90
        3
 70
   128
 43
0.0
 10
4676.619209297231
 20
2533.230290776772
 10
4676.619209327034
 20
2533.222292384786
 10
4676.619209356836
 20
2533.219292944951
  0
ARC
  5
1C90
330
1F
100
AcDbEntity
  8
SANINDUSA
100
AcDbCircle
 10
4676.540613323884
 20
2533.219287990438
 30
0.0
 40
0.0025895165491462
100
AcDbArc
 50
180.0
 51
270.0146673040508
  0
ARC
  5
1C91
330
1F
100
AcDbEntity
  8
SANINDUSA
100
AcDbCircle
 10
4676.746622132513
 20
2533.21928737737
 30
0.0
 40
0.0025900805934616
100
AcDbArc
 50
269.9964944420912
 51
0.0
  0
LWPOLYLINE
  5
1C94
330
1F
100
AcDbEntity
  8
SANINDUSA
100
AcDbPolyline
 90
        3
 70
   128
 43
0.0
 10
4676.551614620022
 20
2533.216699725671
 10
4676.543614663414
 20
2533.216698831601
 10
4676.540613986782
 20
2533.216698473973
  0
LWPOLYLINE
  5
1C95
330
1F
100
AcDbEntity
  8
SANINDUSA
100
AcDbPolyline
 90
        3
 70
   128
 43
0.0
 10
4676.746621974042
 20
2533.216697296782
 10
4676.73862195783
 20
2533.216697728915
 10
4676.735621996454
 20
2533.216697892828
  0
ARC
  5
1C97
330
1F
100
AcDbEntity
  8
SANINDUSA
100
AcDbCircle
 10
4676.73562176667
 20
2533.219288140501
 30
0.0
 40
0.002590247683144
100
AcDbArc
 50
180.0
 51
270.0050827775749
  0
ARC
  5
1C98
330
1F
100
AcDbEntity
  8
SANINDUSA
100
AcDbCircle
 10
4676.551614650055
 20
2533.219290441366
 30
0.0
 40
0.0025907156955732
100
AcDbArc
 50
269.99933580329
 51
359.9897881188313
  0
ARC
  5
1C99
330
1F
100
AcDbEntity
  8
SANINDUSA
100
AcDbCircle
 10
4676.356621919996
 20
2533.165272203565
 30
0.0
 40
0.0025903521040828
100
AcDbArc
 50
0.0
 51
89.99716973827728
  0
LWPOLYLINE
  5
1CA4
330
1F
100
AcDbEntity
  8
SANINDUSA
100
AcDbPolyline
 90
        3
 70
   128
 43
0.0
 10
4676.345623411468
 20
2533.167863464637
 10
4676.353623368076
 20
2533.167862764282
 10
4676.356622047952
 20
2533.167862555666
  0
LWPOLYLINE
  5
1CA6
330
1F
100
AcDbEntity
  8
SANINDUSA
100
AcDbPolyline
 90
        3
 70
   128
 43
0.0
 10
4676.359212272099
 20
2533.165272137804
 10
4676.359212495617
 20
2533.157272792144
 10
4676.359212570122
 20
2533.154273069186
  0
ARC
  5
1CA8
330
1F
100
AcDbEntity
  8
SANINDUSA
100
AcDbCircle
 10
4676.345623266153
 20
2533.165273743437
 30
0.0
 40
0.0025897212043367
100
AcDbArc
 50
89.99678500861151
 51
180.0
  0
LWPOLYLINE
  5
1CAB
330
1F
100
AcDbEntity
  8
SANINDUSA
100
AcDbPolyline
 90
        3
 70
   128
 43
0.0
 10
4676.343033991984
 20
2533.154274812622
 10
4676.343033664158
 20
2533.162274113579
 10
4676.343033544949
 20
2533.165273747129
  0
ARC
  5
1CAC
330
1F
100
AcDbEntity
  8
SANINDUSA
100
AcDbCircle
 10
4676.410614689053
 20
2533.165273332756
 30
0.0
 40
0.0025905193193264
100
AcDbArc
 50
90.00455099290082
 51
180.0
  0
ARC
  5
1CB7
330
1F
100
AcDbEntity
  8
SANINDUSA
100
AcDbCircle
 10
4676.681621815422
 20
2533.21929104961
 30
0.0
 40
0.0025900722490376
100
AcDbArc
 50
269.9956504130522
 51
0.0
  0
LWPOLYLINE
  5
1CB9
330
1F
100
AcDbEntity
  8
SANINDUSA
100
AcDbPolyline
 90
        3
 70
   128
 43
0.0
 10
4676.410614483288
 20
2533.167863852067
 10
4676.418614410094
 20
2533.167864895148
 10
4676.421613119773
 20
2533.167865342183
  0
LWPOLYLINE
  5
1CBC
330
1F
100
AcDbEntity
  8
SANINDUSA
100
AcDbPolyline
 90
        3
 70
   128
 43
0.0
 10
4676.408023707799
 20
2533.154274171872
 10
4676.408024050526
 20
2533.16227348773
 10
4676.408024169735
 20
2533.165273270292
  0
LWPOLYLINE
  5
1CBD
330
1F
100
AcDbEntity
  8
SANINDUSA
100
AcDbPolyline
 90
        3
 70
   128
 43
0.0
 10
4676.681621618799
 20
2533.216700977368
 10
4676.673621632389
 20
2533.216701409502
 10
4676.670621343187
 20
2533.216701558513
  0
ARC
  5
1CBF
330
1F
100
AcDbEntity
  8
SANINDUSA
100
AcDbCircle
 10
4676.670621069962
 20
2533.219291852151
 30
0.0
 40
0.0025902936519763
100
AcDbArc
 50
180.0
 51
270.0060435855938
  0
ARC
  5
1CC1
330
1F
100
AcDbEntity
  8
SANINDUSA
100
AcDbCircle
 10
4676.605617713894
 20
2533.219293068329
 30
0.0
 40
0.0025900346497111
100
AcDbArc
 50
180.0
 51
270.011114638424
  0
ARC
  5
1CC2
330
1F
100
AcDbEntity
  8
SANINDUSA
100
AcDbCircle
 10
4676.616619050622
 20
2533.219293429392
 30
0.0
 40
0.0025903062597566
100
AcDbArc
 50
269.9968712510055
 51
359.9892831969707
  0
ARC
  5
1CC4
330
1F
100
AcDbEntity
  8
SANINDUSA
100
AcDbCircle
 10
4676.421613367422
 20
2533.165275842534
 30
0.0
 40
0.0025894996609556
100
AcDbArc
 50
0.0
 51
90.005479544701
  0
LWPOLYLINE
  5
1CC6
330
1F
100
AcDbEntity
  8
SANINDUSA
100
AcDbPolyline
 90
        3
 70
   128
 43
0.0
 10
4676.616618909172
 20
2533.216703123136
 10
4676.608618892958
 20
2533.216703078432
 10
4676.605618216327
 20
2533.216703033728
  0
LWPOLYLINE
  5
1CC7
330
1F
100
AcDbEntity
  8
SANINDUSA
100
AcDbPolyline
 90
        3
 70
   128
 43
0.0
 10
4676.424202867082
 20
2533.165275848193
 10
4676.424202390245
 20
2533.15727659194
 10
4676.42420219653
 20
2533.154276913686
  0
ARC
  5
1CC9
330
1F
100
AcDbEntity
  8
SANINDUSA
100
AcDbCircle
 10
4676.35662282803
 20
2533.154272959662
 30
0.0
 40
0.0025897420952584
100
AcDbArc
 50
269.9979065245072
 51
0.0
  0
LWPOLYLINE
  5
1CCB
330
1F
100
AcDbEntity
  8
SANINDUSA
100
AcDbPolyline
 90
        3
 70
   128
 43
0.0
 10
4676.356622733406
 20
2533.151683217568
 10
4676.348622776798
 20
2533.151683932824
 10
4676.34562433534
 20
2533.15168426065
  0
ARC
  5
1CCD
330
1F
100
AcDbEntity
  8
SANINDUSA
100
AcDbCircle
 10
4676.34562454468
 20
2533.154274813337
 30
0.0
 40
0.0025905526961715
100
AcDbArc
 50
180.0
 51
269.9953700080222
  0
ARC
  5
1CCF
330
1F
100
AcDbEntity
  8
SANINDUSA
100
AcDbCircle
 10
4676.410613374549
 20
2533.154274121114
 30
0.0
 40
0.0025896667507106
100
AcDbArc
 50
180.0
 51
270.0017823775517
  0
LWPOLYLINE
  5
1CD1
330
1F
100
AcDbEntity
  8
SANINDUSA
100
AcDbPolyline
 90
        3
 70
   128
 43
0.0
 10
4676.421611763767
 20
2533.151686093492
 10
4676.413611881665
 20
2533.151684856696
 10
4676.410613455108
 20
2533.151684454364
  0
ARC
  5
1CD2
330
1F
100
AcDbEntity
  8
SANINDUSA
100
AcDbCircle
 10
4676.421611434846
 20
2533.154276855157
 30
0.0
 40
0.0025907616847301
100
AcDbArc
 50
270.0072742202705
 51
0.0
  0
ARC
  5
1CE5
330
1F
100
AcDbEntity
  8
SANINDUSA
100
AcDbCircle
 10
4676.475609700179
 20
2533.165285024768
 30
0.0
 40
0.0025910164632727
100
AcDbArc
 50
90.00598751500771
 51
180.0
  0
LWPOLYLINE
  5
1CF0
330
1F
100
AcDbEntity
  8
SANINDUSA
100
AcDbPolyline
 90
        3
 70
   128
 43
0.0
 10
4676.47560942941
 20
2533.167876041217
 10
4676.483609177402
 20
2533.167877784653
 10
4676.486609377197
 20
2533.167878440304
  0
LWPOLYLINE
  5
1CF6
330
1F
100
AcDbEntity
  8
SANINDUSA
100
AcDbPolyline
 90
        3
 70
   128
 43
0.0
 10
4676.473017908863
 20
2533.154286927266
 10
4676.473018475107
 20
2533.162285855694
 10
4676.473018683723
 20
2533.165285235924
  0
ARC
  5
1D03
330
1F
100
AcDbEntity
  8
SANINDUSA
100
AcDbCircle
 10
4676.486610061314
 20
2533.165289153682
 30
0.0
 40
0.0025892867126299
100
AcDbArc
 50
0.0
 51
90.01513817190062
  0
LWPOLYLINE
  5
1D05
330
1F
100
AcDbEntity
  8
SANINDUSA
100
AcDbPolyline
 90
        3
 70
   128
 43
0.0
 10
4676.489199348024
 20
2533.165289274139
 10
4676.489198841385
 20
2533.15729045002
 10
4676.48919866257
 20
2533.154291144295
  0
ARC
  5
1D0C
330
1F
100
AcDbEntity
  8
SANINDUSA
100
AcDbCircle
 10
4676.475607091101
 20
2533.154287002851
 30
0.0
 40
0.0025891822394384
100
AcDbArc
 50
180.0
 51
270.015472146239
  0
LWPOLYLINE
  5
1D0E
330
1F
100
AcDbEntity
  8
SANINDUSA
100
AcDbPolyline
 90
        3
 70
   128
 43
0.0
 10
4676.486607827476
 20
2533.151700398607
 10
4676.478608139089
 20
2533.151698521061
 10
4676.475607790282
 20
2533.151697820706
  0
ARC
  5
1D15
330
1F
100
AcDbEntity
  8
SANINDUSA
100
AcDbCircle
 10
4676.486607545852
 20
2533.154291515338
 30
0.0
 40
0.0025911167454023
100
AcDbArc
 50
270.006227378296
 51
359.9917948829702
  0
ARC
  5
1D26
330
1F
100
AcDbEntity
  8
SANINDUSA
100
AcDbCircle
 10
4676.74662265978
 20
2533.165294415324
 30
0.0
 40
0.0025902685681425
100
AcDbArc
 50
0.0
 51
90.00198393983581
  0
LWPOLYLINE
  5
1D31
330
1F
100
AcDbEntity
  8
SANINDUSA
100
AcDbPolyline
 90
        3
 70
   128
 43
0.0
 10
4676.735622711709
 20
2533.167885294838
 10
4676.743622668317
 20
2533.167884847803
 10
4676.746622570089
 20
2533.16788468389
  0
LWPOLYLINE
  5
1D33
330
1F
100
AcDbEntity
  8
SANINDUSA
100
AcDbPolyline
 90
        3
 70
   128
 43
0.0
 10
4676.749212928346
 20
2533.165294489546
 10
4676.749212987951
 20
2533.157295665426
 10
4676.749212987951
 20
2533.154295897765
  0
ARC
  5
1D35
330
1F
100
AcDbEntity
  8
SANINDUSA
100
AcDbCircle
 10
4676.356624157125
 20
2533.100281103895
 30
0.0
 40
0.0025902309412667
100
AcDbArc
 50
0.0
 51
89.99754243048494
  0
LWPOLYLINE
  5
1D40
330
1F
100
AcDbEntity
  8
SANINDUSA
100
AcDbPolyline
 90
        3
 70
   128
 43
0.0
 10
4676.345626242689
 20
2533.10287270574
 10
4676.353626139692
 20
2533.10287166266
 10
4676.356624268225
 20
2533.102871334834
  0
LWPOLYLINE
  5
1D42
330
1F
100
AcDbEntity
  8
SANINDUSA
100
AcDbPolyline
 90
        3
 70
   128
 43
0.0
 10
4676.359214388064
 20
2533.100281185193
 10
4676.359214581779
 20
2533.092282212062
 10
4676.359214641384
 20
2533.089284217639
  0
ARC
  5
1D44
330
1F
100
AcDbEntity
  8
SANINDUSA
100
AcDbCircle
 10
4676.735622460219
 20
2533.165295247681
 30
0.0
 40
0.0025900471691
100
AcDbArc
 50
89.99443666208506
 51
180.0
  0
LWPOLYLINE
  5
1D47
330
1F
100
AcDbEntity
  8
SANINDUSA
100
AcDbPolyline
 90
        3
 70
   128
 43
0.0
 10
4676.733032532267
 20
2533.154296776933
 10
4676.733032472662
 20
2533.162295586152
 10
4676.733032413056
 20
2533.16529544322
  0
ARC
  5
1D4B
330
1F
100
AcDbEntity
  8
SANINDUSA
100
AcDbCircle
 10
4676.41061243849
 20
2533.100281754785
 30
0.0
 40
0.0025902059093895
100
AcDbArc
 50
90.00552962261059
 51
180.0
  0
ARC
  5
1D56
330
1F
100
AcDbEntity
  8
SANINDUSA
100
AcDbCircle
 10
4676.345625913394
 20
2533.100283272841
 30
0.0
 40
0.0025894329208526
100
AcDbArc
 50
89.99271379438177
 51
180.0
  0
LWPOLYLINE
  5
1D58
330
1F
100
AcDbEntity
  8
SANINDUSA
100
AcDbPolyline
 90
        3
 70
   128
 43
0.0
 10
4676.41061218851
 20
2533.102871960683
 10
4676.418612025908
 20
2533.102873033566
 10
4676.421609990529
 20
2533.102873480601
  0
LWPOLYLINE
  5
1D5B
330
1F
100
AcDbEntity
  8
SANINDUSA
100
AcDbPolyline
 90
        3
 70
   128
 43
0.0
 10
4676.408022083572
 20
2533.08928526072
 10
4676.408022187881
 20
2533.097284174246
 10
4676.408022232584
 20
2533.100281870646
  0
LWPOLYLINE
  5
1D61
330
1F
100
AcDbEntity
  8
SANINDUSA
100
AcDbPolyline
 90
        3
 70
   128
 43
0.0
 10
4676.34303689771
 20
2533.089286333604
 10
4676.343036599687
 20
2533.097285187526
 10
4676.343036480478
 20
2533.100283420367
  0
ARC
  5
1D62
330
1F
100
AcDbEntity
  8
SANINDUSA
100
AcDbCircle
 10
4676.540612305911
 20
2533.165297645599
 30
0.0
 40
0.0025908827924989
100
AcDbArc
 50
90.00171312308465
 51
179.9907069260306
  0
LWPOLYLINE
  5
1D71
330
1F
100
AcDbEntity
  8
SANINDUSA
100
AcDbPolyline
 90
        3
 70
   128
 43
0.0
 10
4676.540612228444
 20
2533.16788852839
 10
4676.548612125448
 20
2533.167889631076
 10
4676.551613219312
 20
2533.167890003605
  0
LWPOLYLINE
  5
1D74
330
1F
100
AcDbEntity
  8
SANINDUSA
100
AcDbPolyline
 90
        3
 70
   128
 43
0.0
 10
4676.538021035723
 20
2533.154300248904
 10
4676.538021303943
 20
2533.162298789902
 10
4676.538021423152
 20
2533.165298065824
  0
ARC
  5
1D7C
330
1F
100
AcDbEntity
  8
SANINDUSA
100
AcDbCircle
 10
4676.421610473808
 20
2533.10028412721
 30
0.0
 40
0.0025893534370519
100
AcDbArc
 50
0.0
 51
90.01069374426753
  0
ARC
  5
1D7E
330
1F
100
AcDbEntity
  8
SANINDUSA
100
AcDbCircle
 10
4676.551613873544
 20
2533.16530026985
 30
0.0
 40
0.0025897338376087
100
AcDbArc
 50
0.0
 51
90.01447433994391
  0
LWPOLYLINE
  5
1D80
330
1F
100
AcDbEntity
  8
SANINDUSA
100
AcDbPolyline
 90
        3
 70
   128
 43
0.0
 10
4676.424199827245
 20
2533.100284165425
 10
4676.42419975274
 20
2533.092285222096
 10
4676.424199737838
 20
2533.089287466092
  0
LWPOLYLINE
  5
1D84
330
1F
100
AcDbEntity
  8
SANINDUSA
100
AcDbPolyline
 90
        3
 70
   128
 43
0.0
 10
4676.554203607372
 20
2533.165300494714
 10
4676.554203398755
 20
2533.157302013321
 10
4676.554203309349
 20
2533.154302662892
  0
ARC
  5
1D8A
330
1F
100
AcDbEntity
  8
SANINDUSA
100
AcDbCircle
 10
4676.68162285321
 20
2533.16529871909
 30
0.0
 40
0.0025904649544486
100
AcDbArc
 50
0.0
 51
90.00291348172462
  0
LWPOLYLINE
  5
1D97
330
1F
100
AcDbEntity
  8
SANINDUSA
100
AcDbPolyline
 90
        3
 70
   128
 43
0.0
 10
4676.670622505477
 20
2533.167890093011
 10
4676.678622491888
 20
2533.16788943736
 10
4676.681622721485
 20
2533.167889184041
  0
LWPOLYLINE
  5
1D99
330
1F
100
AcDbEntity
  8
SANINDUSA
100
AcDbPolyline
 90
        3
 70
   128
 43
0.0
 10
4676.684213318161
 20
2533.165298840684
 10
4676.684213586382
 20
2533.157300135775
 10
4676.68421370559
 20
2533.154300219102
  0
ARC
  5
1D9B
330
1F
100
AcDbEntity
  8
SANINDUSA
100
AcDbCircle
 10
4676.746622873945
 20
2533.154296085648
 30
0.0
 40
0.0025901140126157
100
AcDbArc
 50
269.9959154455707
 51
0.0
  0
ARC
  5
1D9D
330
1F
100
AcDbEntity
  8
SANINDUSA
100
AcDbCircle
 10
4676.356625208469
 20
2533.089284305557
 30
0.0
 40
0.0025894329170443
100
AcDbArc
 50
269.9927137422716
 51
0.0
  0
LWPOLYLINE
  5
1DA1
330
1F
100
AcDbEntity
  8
SANINDUSA
100
AcDbPolyline
 90
        3
 70
   128
 43
0.0
 10
4676.746622689298
 20
2533.151705971641
 10
4676.738622673086
 20
2533.151706388874
 10
4676.735622890523
 20
2533.151706552787
  0
LWPOLYLINE
  5
1DA3
330
1F
100
AcDbEntity
  8
SANINDUSA
100
AcDbPolyline
 90
        3
 70
   128
 43
0.0
 10
4676.356624879173
 20
2533.08669487266
 10
4676.348624967268
 20
2533.08669576673
 10
4676.345627077154
 20
2533.086696183963
  0
ARC
  5
1DA6
330
1F
100
AcDbEntity
  8
SANINDUSA
100
AcDbCircle
 10
4676.670622226402
 20
2533.165300162839
 30
0.0
 40
0.002589930187383
100
AcDbArc
 50
89.99382613888716
 51
180.0
  0
LWPOLYLINE
  5
1DA9
330
1F
100
AcDbEntity
  8
SANINDUSA
100
AcDbPolyline
 90
        3
 70
   128
 43
0.0
 10
4676.668032713464
 20
2533.154301947636
 10
4676.668032415441
 20
2533.162300592942
 10
4676.668032296232
 20
2533.165300464911
  0
ARC
  5
1DAA
330
1F
100
AcDbEntity
  8
SANINDUSA
100
AcDbCircle
 10
4676.735622800832
 20
2533.154296821352
 30
0.0
 40
0.002590268566591
100
AcDbArc
 50
180.0
 51
270.0019839398358
  0
ARC
  5
1DB2
330
1F
100
AcDbEntity
  8
SANINDUSA
100
AcDbCircle
 10
4676.410611303349
 20
2533.089285344074
 30
0.0
 40
0.0025892197789312
100
AcDbArc
 50
180.0
 51
270.0126627806221
  0
LWPOLYLINE
  5
1DB6
330
1F
100
AcDbEntity
  8
SANINDUSA
100
AcDbPolyline
 90
        3
 70
   128
 43
0.0
 10
4676.421609781913
 20
2533.086697584672
 10
4676.413609974316
 20
2533.086696511788
 10
4676.410611875585
 20
2533.086696124358
  0
ARC
  5
1DB9
330
1F
100
AcDbEntity
  8
SANINDUSA
100
AcDbCircle
 10
4676.345627153749
 20
2533.089286440002
 30
0.0
 40
0.0025902560405437
100
AcDbArc
 50
180.0
 51
269.9983057408106
  0
ARC
  5
1DC4
330
1F
100
AcDbEntity
  8
SANINDUSA
100
AcDbCircle
 10
4676.60561838015
 20
2533.165303027964
 30
0.0
 40
0.0025903731108526
100
AcDbArc
 50
89.99637245209472
 51
179.9894540142293
  0
ARC
  5
1DD2
330
1F
100
AcDbEntity
  8
SANINDUSA
100
AcDbCircle
 10
4676.540610552351
 20
2533.154300494934
 30
0.0
 40
0.0025895166395084
100
AcDbArc
 50
180.0
 51
270.0186219478962
  0
ARC
  5
1DD3
330
1F
100
AcDbEntity
  8
SANINDUSA
100
AcDbCircle
 10
4676.616619973373
 20
2533.165303034158
 30
0.0
 40
0.0025902477383866
100
AcDbArc
 50
0.0
 51
90.00969625065113
  0
LWPOLYLINE
  5
1DD6
330
1F
100
AcDbEntity
  8
SANINDUSA
100
AcDbPolyline
 90
        3
 70
   128
 43
0.0
 10
4676.605618544153
 20
2533.167893401069
 10
4676.613618560366
 20
2533.167893341465
 10
4676.61661953502
 20
2533.16789328186
  0
LWPOLYLINE
  5
1DD8
330
1F
100
AcDbEntity
  8
SANINDUSA
100
AcDbPolyline
 90
        3
 70
   128
 43
0.0
 10
4676.603028126291
 20
2533.154305509014
 10
4676.603028036884
 20
2533.162303930802
 10
4676.603028007082
 20
2533.165303504748
  0
LWPOLYLINE
  5
1DDA
330
1F
100
AcDbEntity
  8
SANINDUSA
100
AcDbPolyline
 90
        3
 70
   128
 43
0.0
 10
4676.551612563661
 20
2533.151712468548
 10
4676.543612696461
 20
2533.151711410565
 10
4676.54061139398
 20
2533.151710978432
  0
LWPOLYLINE
  5
1DDB
330
1F
100
AcDbEntity
  8
SANINDUSA
100
AcDbPolyline
 90
        3
 70
   128
 43
0.0
 10
4676.619210221104
 20
2533.165303236527
 10
4676.619210399917
 20
2533.157304784936
 10
4676.619210459522
 20
2533.154305091781
  0
ARC
  5
1DDF
330
1F
100
AcDbEntity
  8
SANINDUSA
100
AcDbCircle
 10
4676.421609519447
 20
2533.089287803071
 30
0.0
 40
0.0025902184129909
100
AcDbArc
 50
270.0058057546035
 51
0.0
  0
ARC
  5
1DE7
330
1F
100
AcDbEntity
  8
SANINDUSA
100
AcDbCircle
 10
4676.551612585383
 20
2533.154303192568
 30
0.0
 40
0.0025907240205447
100
AcDbArc
 50
269.9995196481034
 51
359.9882858075701
  0
ARC
  5
1DEA
330
1F
100
AcDbEntity
  8
SANINDUSA
100
AcDbCircle
 10
4676.68162375872
 20
2533.154300448465
 30
0.0
 40
0.0025899468810748
100
AcDbArc
 50
269.9948549507269
 51
0.0
  0
LWPOLYLINE
  5
1DEE
330
1F
100
AcDbEntity
  8
SANINDUSA
100
AcDbPolyline
 90
        3
 70
   128
 43
0.0
 10
4676.681623526148
 20
2533.151710501594
 10
4676.67362356954
 20
2533.151711231751
 10
4676.670623369744
 20
2533.151711514873
  0
ARC
  5
1DF5
330
1F
100
AcDbEntity
  8
SANINDUSA
100
AcDbCircle
 10
4676.670623220206
 20
2533.154302021611
 30
0.0
 40
0.002590506742197
100
AcDbArc
 50
180.0
 51
270.0033074348972
  0
ARC
  5
1E00
330
1F
100
AcDbEntity
  8
SANINDUSA
100
AcDbCircle
 10
4676.605618374043
 20
2533.154305771003
 30
0.0
 40
0.0025902477655029
100
AcDbArc
 50
180.0
 51
270.0110142220502
  0
ARC
  5
1E01
330
1F
100
AcDbEntity
  8
SANINDUSA
100
AcDbCircle
 10
4676.61662025358
 20
2533.154305505735
 30
0.0
 40
0.0025902059755111
100
AcDbArc
 50
269.9953123220222
 51
359.9908432723962
  0
LWPOLYLINE
  5
1E04
330
1F
100
AcDbEntity
  8
SANINDUSA
100
AcDbPolyline
 90
        3
 70
   128
 43
0.0
 10
4676.616620041659
 20
2533.151715299768
 10
4676.608620025447
 20
2533.151715493483
 10
4676.605618871978
 20
2533.151715523286
  0
ARC
  5
1E0C
330
1F
100
AcDbEntity
  8
SANINDUSA
100
AcDbCircle
 10
4676.475604911807
 20
2533.100294554122
 30
0.0
 40
0.002591175291846
100
AcDbArc
 50
90.01213479998551
 51
180.0
  0
LWPOLYLINE
  5
1E17
330
1F
100
AcDbEntity
  8
SANINDUSA
100
AcDbPolyline
 90
        3
 70
   128
 43
0.0
 10
4676.475604363015
 20
2533.102885729356
 10
4676.483603812984
 20
2533.102887934727
 10
4676.486604519419
 20
2533.102888769193
  0
LWPOLYLINE
  5
1E1A
330
1F
100
AcDbEntity
  8
SANINDUSA
100
AcDbPolyline
 90
        3
 70
   128
 43
0.0
 10
4676.473013468316
 20
2533.089296973033
 10
4676.473013617328
 20
2533.097295797152
 10
4676.473013736537
 20
2533.100294894261
  0
ARC
  5
1E21
330
1F
100
AcDbEntity
  8
SANINDUSA
100
AcDbCircle
 10
4676.486605381199
 20
2533.100299541079
 30
0.0
 40
0.0025892282572457
100
AcDbArc
 50
0.0
 51
90.01906988726195
  0
LWPOLYLINE
  5
1E23
330
1F
100
AcDbEntity
  8
SANINDUSA
100
AcDbPolyline
 90
        3
 70
   128
 43
0.0
 10
4676.489194609454
 20
2533.100299573226
 10
4676.489194311431
 20
2533.092300778909
 10
4676.489194281629
 20
2533.089300668521
  0
ARC
  5
1E29
330
1F
100
AcDbEntity
  8
SANINDUSA
100
AcDbCircle
 10
4676.475602830346
 20
2533.08929698988
 30
0.0
 40
0.0025893620290938
100
AcDbArc
 50
180.0
 51
270.0227033759716
  0
LWPOLYLINE
  5
1E2B
330
1F
100
AcDbEntity
  8
SANINDUSA
100
AcDbPolyline
 90
        3
 70
   128
 43
0.0
 10
4676.486603953175
 20
2533.086710042042
 10
4676.478604533008
 20
2533.086708283705
 10
4676.475603856377
 20
2533.086707628055
  0
ARC
  5
1EFA
330
1F
100
AcDbEntity
  8
SANINDUSA
100
AcDbCircle
 10
4676.486603390448
 20
2533.089300933176
 30
0.0
 40
0.0025908911946039
100
AcDbArc
 50
270.0124442825143
 51
0.0
  0
ARC
  5
1EFC
330
1F
100
AcDbEntity
  8
SANINDUSA
100
AcDbCircle
 10
4676.74662255813
 20
2533.100303405769
 30
0.0
 40
0.0025900721955967
100
AcDbArc
 50
0.0
 51
90.00369107024857
  0
LINE
  5
1F09
330
1F
100
AcDbEntity
  8
SANINDUSA
100
AcDbLine
 10
4676.735622711709
 20
2533.102893805785
 30
0.0
 11
4676.746622391275
 21
2533.10289347796
 31
0.0
  0
LWPOLYLINE
  5
1F0B
330
1F
100
AcDbEntity
  8
SANINDUSA
100
AcDbPolyline
 90
        3
 70
   128
 43
0.0
 10
4676.749212630323
 20
2533.100303536935
 10
4676.749212511114
 20
2533.092304712815
 10
4676.749212451509
 20
2533.089305556102
  0
ARC
  5
1F0F
330
1F
100
AcDbEntity
  8
SANINDUSA
100
AcDbCircle
 10
4676.735622357744
 20
2533.10030374191
 30
0.0
 40
0.0025900638993228
100
AcDbArc
 50
89.99216981591594
 51
180.0
  0
LWPOLYLINE
  5
1F14
330
1F
100
AcDbEntity
  8
SANINDUSA
100
AcDbPolyline
 90
        3
 70
   128
 43
0.0
 10
4676.733032115033
 20
2533.089305764718
 10
4676.733032234243
 20
2533.09730461864
 10
4676.733032293848
 20
2533.10030386476
  0
ARC
  5
1F21
330
1F
100
AcDbEntity
  8
SANINDUSA
100
AcDbCircle
 10
4676.681623947825
 20
2533.100305746745
 30
0.0
 40
0.0025902644118104
100
AcDbArc
 50
0.0
 51
89.99943908572204
  0
ARC
  5
1F2D
330
1F
100
AcDbEntity
  8
SANINDUSA
100
AcDbCircle
 10
4676.746622320758
 20
2533.089305805422
 30
0.0
 40
0.002590130763778
100
AcDbArc
 50
269.9923303674685
 51
0.0
  0
LWPOLYLINE
  5
1F2F
330
1F
100
AcDbEntity
  8
SANINDUSA
100
AcDbPolyline
 90
        3
 70
   128
 43
0.0
 10
4676.670623995593
 20
2533.102896517796
 10
4676.678623952201
 20
2533.102896160168
 10
4676.681623973182
 20
2533.102896011157
  0
LINE
  5
1F32
330
1F
100
AcDbEntity
  8
SANINDUSA
100
AcDbLine
 10
4676.68421421223
 20
2533.100305921121
 30
0.0
 11
4676.684213884405
 21
2533.089307344241
 31
0.0
  0
LWPOLYLINE
  5
1F34
330
1F
100
AcDbEntity
  8
SANINDUSA
100
AcDbPolyline
 90
        3
 70
   128
 43
0.0
 10
4676.746621974042
 20
2533.086715674681
 10
4676.738622017435
 20
2533.086715823693
 10
4676.735622294478
 20
2533.086715883298
  0
ARC
  5
1F38
330
1F
100
AcDbEntity
  8
SANINDUSA
100
AcDbCircle
 10
4676.735622187226
 20
2533.089305955495
 30
0.0
 40
0.002590072199525
100
AcDbArc
 50
180.0
 51
270.0023725256559
  0
ARC
  5
1F39
330
1F
100
AcDbEntity
  8
SANINDUSA
100
AcDbCircle
 10
4676.670623707368
 20
2533.10030632857
 30
0.0
 40
0.0025901892423031
100
AcDbArc
 50
89.99362436816053
 51
180.0
  0
ARC
  5
1F3B
330
1F
100
AcDbEntity
  8
SANINDUSA
100
AcDbCircle
 10
4676.356624226923
 20
2533.035308147161
 30
0.0
 40
0.0025889690784355
100
AcDbArc
 50
0.0088291367778052
 51
90.00568141964546
  0
LWPOLYLINE
  5
1F49
330
1F
100
AcDbEntity
  8
SANINDUSA
100
AcDbPolyline
 90
        3
 70
   128
 43
0.0
 10
4676.345626749328
 20
2533.037897295041
 10
4676.353626646331
 20
2533.037897086425
 10
4676.356623970202
 20
2533.037897116227
  0
LINE
  5
1F4C
330
1F
100
AcDbEntity
  8
SANINDUSA
100
AcDbLine
 10
4676.668033190302
 20
2533.089307433648
 30
0.0
 11
4676.668033518127
 21
2533.10030642776
 31
0.0
  0
LWPOLYLINE
  5
1F4D
330
1F
100
AcDbEntity
  8
SANINDUSA
100
AcDbPolyline
 90
        3
 70
   128
 43
0.0
 10
4676.359213195971
 20
2533.035308546109
 10
4676.35921242111
 20
2533.027311480327
 10
4676.359212093285
 20
2533.024315423054
  0
ARC
  5
1F50
330
1F
100
AcDbEntity
  8
SANINDUSA
100
AcDbCircle
 10
4676.540610959
 20
2533.100309574729
 30
0.0
 40
0.0025909663910839
100
AcDbArc
 50
90.00487986042385
 51
179.9911654177055
  0
LWPOLYLINE
  5
1F5C
330
1F
100
AcDbEntity
  8
SANINDUSA
100
AcDbPolyline
 90
        3
 70
   128
 43
0.0
 10
4676.540610738328
 20
2533.10290054111
 10
4676.54861060553
 20
2533.102901375575
 10
4676.55161268287
 20
2533.102901613994
  0
LWPOLYLINE
  5
1F5F
330
1F
100
AcDbEntity
  8
SANINDUSA
100
AcDbPolyline
 90
        3
 70
   128
 43
0.0
 10
4676.538020052245
 20
2533.089309966845
 10
4676.538019992641
 20
2533.097308701558
 10
4676.538019992641
 20
2533.100309974236
  0
ARC
  5
1F63
330
1F
100
AcDbEntity
  8
SANINDUSA
100
AcDbCircle
 10
4676.345626099769
 20
2533.035307690695
 30
0.0
 40
0.002589604427915
100
AcDbArc
 50
89.98562831716899
 51
179.9903041922856
  0
LWPOLYLINE
  5
1F66
330
1F
100
AcDbEntity
  8
SANINDUSA
100
AcDbPolyline
 90
        3
 70
   128
 43
0.0
 10
4676.343035646013
 20
2533.02431408195
 10
4676.343036286763
 20
2533.032311266942
 10
4676.343036495379
 20
2533.035308128877
  0
ARC
  5
1F6C
330
1F
100
AcDbEntity
  8
SANINDUSA
100
AcDbCircle
 10
4676.551613302243
 20
2533.100311249329
 30
0.0
 40
0.0025903647380959
100
AcDbArc
 50
0.0
 51
90.0136997737858
  0
LINE
  5
1F6F
330
1F
100
AcDbEntity
  8
SANINDUSA
100
AcDbLine
 10
4676.554203666976
 20
2533.100311404748
 30
0.0
 11
4676.554203994802
 21
2533.089311218543
 31
0.0
  0
ARC
  5
1F74
330
1F
100
AcDbEntity
  8
SANINDUSA
100
AcDbCircle
 10
4676.681623645012
 20
2533.089307493578
 30
0.0
 40
0.0025902393972662
100
AcDbArc
 50
269.992096965846
 51
0.0
  0
LWPOLYLINE
  5
1F76
330
1F
100
AcDbEntity
  8
SANINDUSA
100
AcDbPolyline
 90
        3
 70
   128
 43
0.0
 10
4676.681623287729
 20
2533.086717254204
 10
4676.673623331121
 20
2533.086717433019
 10
4676.67062331014
 20
2533.086717462821
  0
ARC
  5
1F79
330
1F
100
AcDbEntity
  8
SANINDUSA
100
AcDbCircle
 10
4676.410610210651
 20
2533.035314979223
 30
0.0
 40
0.0025904816619558
100
AcDbArc
 50
89.99547422843972
 51
179.9774956850379
  0
ARC
  5
1F84
330
1F
100
AcDbEntity
  8
SANINDUSA
100
AcDbCircle
 10
4676.616621840899
 20
2533.100309031668
 30
0.0
 40
0.0025906153775881
100
AcDbArc
 50
0.0
 51
90.00354114918073
  0
LWPOLYLINE
  5
1F8F
330
1F
100
AcDbEntity
  8
SANINDUSA
100
AcDbPolyline
 90
        3
 70
   128
 43
0.0
 10
4676.410610415271
 20
2533.037905460877
 10
4676.418610193065
 20
2533.037907129807
 10
4676.421609692505
 20
2533.037907666249
  0
LWPOLYLINE
  5
1F91
330
1F
100
AcDbEntity
  8
SANINDUSA
100
AcDbPolyline
 90
        3
 70
   128
 43
0.0
 10
4676.605620630315
 20
2533.102900421901
 10
4676.613620646528
 20
2533.102899855656
 10
4676.616621680788
 20
2533.10289964704
  0
LWPOLYLINE
  5
1F94
330
1F
100
AcDbEntity
  8
SANINDUSA
100
AcDbPolyline
 90
        3
 70
   128
 43
0.0
 10
4676.408018522194
 20
2533.024325019403
 10
4676.408019431165
 20
2533.032320744081
 10
4676.408019729189
 20
2533.03531599669
  0
LWPOLYLINE
  5
1F95
330
1F
100
AcDbEntity
  8
SANINDUSA
100
AcDbPolyline
 90
        3
 70
   128
 43
0.0
 10
4676.619212456277
 20
2533.100309050364
 10
4676.619212635091
 20
2533.092310017628
 10
4676.619212664894
 20
2533.08930913238
  0
ARC
  5
1F97
330
1F
100
AcDbEntity
  8
SANINDUSA
100
AcDbCircle
 10
4676.670623321002
 20
2533.089307593527
 30
0.0
 40
0.0025901307059463
100
AcDbArc
 50
180.0
 51
269.9997597198315
  0
ARC
  5
1F98
330
1F
100
AcDbEntity
  8
SANINDUSA
100
AcDbCircle
 10
4676.605620604447
 20
2533.100310149102
 30
0.0
 40
0.0025902727984459
100
AcDbArc
 50
89.99942777780692
 51
180.0
  0
LWPOLYLINE
  5
1F9C
330
1F
100
AcDbEntity
  8
SANINDUSA
100
AcDbPolyline
 90
        3
 70
   128
 43
0.0
 10
4676.603030808499
 20
2533.089310145659
 10
4676.603030480674
 20
2533.097309178395
 10
4676.603030331663
 20
2533.100310421271
  0
ARC
  5
1FA0
330
1F
100
AcDbEntity
  8
SANINDUSA
100
AcDbCircle
 10
4676.540610266569
 20
2533.089309971833
 30
0.0
 40
0.0025902143229073
100
AcDbArc
 50
180.0
 51
270.015050001425
  0
LWPOLYLINE
  5
1FA2
330
1F
100
AcDbEntity
  8
SANINDUSA
100
AcDbPolyline
 90
        3
 70
   128
 43
0.0
 10
4676.551613338522
 20
2533.086720711274
 10
4676.543613441519
 20
2533.086720085425
 10
4676.540610946945
 20
2533.0867197576
  0
ARC
  5
1FA4
330
1F
100
AcDbEntity
  8
SANINDUSA
100
AcDbCircle
 10
4676.421611394004
 20
2533.035319248386
 30
0.0
 40
0.0025884184223104
100
AcDbArc
 50
0.0144413281216819
 51
90.03766343713364
  0
LWPOLYLINE
  5
1FA6
330
1F
100
AcDbEntity
  8
SANINDUSA
100
AcDbPolyline
 90
        3
 70
   128
 43
0.0
 10
4676.424199812344
 20
2533.035319900794
 10
4676.42419949942
 20
2533.027324176116
 10
4676.424199320606
 20
2533.02432999639
  0
ARC
  5
1FAA
330
1F
100
AcDbEntity
  8
SANINDUSA
100
AcDbCircle
 10
4676.55161317046
 20
2533.08931153563
 30
0.0
 40
0.0025908243615341
100
AcDbArc
 50
270.0037166563606
 51
0.0
  0
ARC
  5
1FAB
330
1F
100
AcDbEntity
  8
SANINDUSA
100
AcDbCircle
 10
4676.356622183932
 20
2533.024315898021
 30
0.0
 40
0.0025899093958125
100
AcDbArc
 50
269.9894096944982
 51
359.9894921589008
  0
LWPOLYLINE
  5
1FAD
330
1F
100
AcDbEntity
  8
SANINDUSA
100
AcDbPolyline
 90
        3
 70
   128
 43
0.0
 10
4676.356621705226
 20
2533.021725988669
 10
4676.348621733716
 20
2533.021725571437
 10
4676.345624916485
 20
2533.02172548203
  0
ARC
  5
1FB1
330
1F
100
AcDbEntity
  8
SANINDUSA
100
AcDbCircle
 10
4676.616622325247
 20
2533.089309262781
 30
0.0
 40
0.0025903396510709
100
AcDbArc
 50
269.9962924108155
 51
0.0
  0
LWPOLYLINE
  5
1FB3
330
1F
100
AcDbEntity
  8
SANINDUSA
100
AcDbPolyline
 90
        3
 70
   128
 43
0.0
 10
4676.616622157625
 20
2533.086718923135
 10
4676.608622171214
 20
2533.086719310565
 10
4676.605621494583
 20
2533.086719459576
  0
ARC
  5
1FB5
330
1F
100
AcDbEntity
  8
SANINDUSA
100
AcDbCircle
 10
4676.345624707013
 20
2533.024314543063
 30
0.0
 40
0.002589061041449
100
AcDbArc
 50
180.0102044554641
 51
270.0046356198803
  0
ARC
  5
1FB6
330
1F
100
AcDbEntity
  8
SANINDUSA
100
AcDbCircle
 10
4676.605621465662
 20
2533.089310116738
 30
0.0
 40
0.0025906571616711
100
AcDbArc
 50
180.0
 51
270.0006396528021
  0
ARC
  5
1FBA
330
1F
100
AcDbEntity
  8
SANINDUSA
100
AcDbCircle
 10
4676.410606012956
 20
2533.02432569786
 30
0.0
 40
0.0025874908509936
100
AcDbArc
 50
180.015023451275
 51
270.0394088168313
  0
LWPOLYLINE
  5
1FBC
330
1F
100
AcDbEntity
  8
SANINDUSA
100
AcDbPolyline
 90
        3
 70
   128
 43
0.0
 10
4676.421608112982
 20
2533.021741217656
 10
4676.413608409695
 20
2533.021739071889
 10
4676.410607792667
 20
2533.021738207621
  0
ARC
  5
1FBF
330
1F
100
AcDbEntity
  8
SANINDUSA
100
AcDbCircle
 10
4676.475610865077
 20
2533.035317749372
 30
0.0
 40
0.002588635381522
100
AcDbArc
 50
90.00341228063525
 51
179.9642547139717
  0
LWPOLYLINE
  5
1FCA
330
1F
100
AcDbEntity
  8
SANINDUSA
100
AcDbPolyline
 90
        3
 70
   128
 43
0.0
 10
4676.475610710911
 20
2533.037906384749
 10
4676.483610578111
 20
2533.037904537005
 10
4676.486611016325
 20
2533.03790382175
  0
ARC
  5
1FCC
330
1F
100
AcDbEntity
  8
SANINDUSA
100
AcDbCircle
 10
4676.42160863012
 20
2533.024331908795
 30
0.0
 40
0.0025906911906116
100
AcDbArc
 50
269.9885629557157
 51
359.9577052148999
  0
LWPOLYLINE
  5
1FCE
330
1F
100
AcDbEntity
  8
SANINDUSA
100
AcDbPolyline
 90
        3
 70
   128
 43
0.0
 10
4676.473025985292
 20
2533.024328625483
 10
4676.473023213676
 20
2533.032325512452
 10
4676.4730222302
 20
2533.035319364352
  0
ARC
  5
1FD0
330
1F
100
AcDbEntity
  8
SANINDUSA
100
AcDbCircle
 10
4676.486612472142
 20
2533.035312654742
 30
0.0
 40
0.0025911674170292
100
AcDbArc
 50
0.0
 51
90.03219097841105
  0
LWPOLYLINE
  5
1FD3
330
1F
100
AcDbEntity
  8
SANINDUSA
100
AcDbPolyline
 90
        3
 70
   128
 43
0.0
 10
4676.489203639558
 20
2533.035312658829
 10
4676.489206768802
 20
2533.02731460957
 10
4676.4892080205
 20
2533.024319923205
  0
ARC
  5
1FDA
330
1F
100
AcDbEntity
  8
SANINDUSA
100
AcDbCircle
 10
4676.475616685785
 20
2533.024329264792
 30
0.0
 40
0.0025907005728217
100
AcDbArc
 50
180.0141389065265
 51
270.0510915643342
  0
LWPOLYLINE
  5
1FDE
330
1F
100
AcDbEntity
  8
SANINDUSA
100
AcDbPolyline
 90
        3
 70
   128
 43
0.0
 10
4676.486620225243
 20
2533.021734303517
 10
4676.478620238832
 20
2533.021737462564
 10
4676.475618995956
 20
2533.02173856525
  0
ARC
  5
1FDF
330
1F
100
AcDbEntity
  8
SANINDUSA
100
AcDbCircle
 10
4676.540612920059
 20
2533.035304755042
 30
0.0
 40
0.0025901558270197
100
AcDbArc
 50
90.00606948436699
 51
180.0
  0
ARC
  5
1FEA
330
1F
100
AcDbEntity
  8
SANINDUSA
100
AcDbCircle
 10
4676.486620672461
 20
2533.024321652096
 30
0.0
 40
0.0025873486167026
100
AcDbArc
 50
269.9900965070506
 51
359.9617144450095
  0
LWPOLYLINE
  5
1FEB
330
1F
100
AcDbEntity
  8
SANINDUSA
100
AcDbPolyline
 90
        3
 70
   128
 43
0.0
 10
4676.540612645677
 20
2533.037894910855
 10
4676.54861254268
 20
2533.037895268483
 10
4676.551613666346
 20
2533.037895566506
  0
LWPOLYLINE
  5
1FEE
330
1F
100
AcDbEntity
  8
SANINDUSA
100
AcDbPolyline
 90
        3
 70
   128
 43
0.0
 10
4676.538024135164
 20
2533.02430728702
 10
4676.538023092082
 20
2533.032306826396
 10
4676.538022764257
 20
2533.035305118842
  0
ARC
  5
1FEF
330
1F
100
AcDbEntity
  8
SANINDUSA
100
AcDbCircle
 10
4676.551614125343
 20
2533.035305577871
 30
0.0
 40
0.0025899886757635
100
AcDbArc
 50
0.0
 51
90.01015393461379
  0
LWPOLYLINE
  5
1FF1
330
1F
100
AcDbEntity
  8
SANINDUSA
100
AcDbPolyline
 90
        3
 70
   128
 43
0.0
 10
4676.554204114011
 20
2533.035305774493
 10
4676.554203696779
 20
2533.027306175513
 10
4676.554203488162
 20
2533.02430767445
  0
ARC
  5
1FF3
330
1F
100
AcDbEntity
  8
SANINDUSA
100
AcDbCircle
 10
4676.746621702453
 20
2533.035319539832
 30
0.0
 40
0.0025898550006155
100
AcDbArc
 50
0.0
 51
90.01113391920059
  0
LWPOLYLINE
  5
1FFE
330
1F
100
AcDbEntity
  8
SANINDUSA
100
AcDbPolyline
 90
        3
 70
   128
 43
0.0
 10
4676.735621221594
 20
2533.037909513993
 10
4676.743621237807
 20
2533.037909454388
 10
4676.746621199182
 20
2533.037909394784
  0
LINE
  5
2000
330
1F
100
AcDbEntity
  8
SANINDUSA
100
AcDbLine
 10
4676.74921155744
 20
2533.035319811387
 30
0.0
 11
4676.74921155744
 21
2533.024323737902
 31
0.0
  0
ARC
  5
2002
330
1F
100
AcDbEntity
  8
SANINDUSA
100
AcDbCircle
 10
4676.735620915528
 20
2533.035319282932
 30
0.0
 40
0.0025902310789585
100
AcDbArc
 50
89.99322984177311
 51
179.9863329253625
  0
LWPOLYLINE
  5
2005
330
1F
100
AcDbEntity
  8
SANINDUSA
100
AcDbPolyline
 90
        3
 70
   128
 43
0.0
 10
4676.733030505708
 20
2533.024324065728
 10
4676.733030624918
 20
2533.032322204394
 10
4676.733030684522
 20
2533.035319900794
  0
ARC
  5
2007
330
1F
100
AcDbEntity
  8
SANINDUSA
100
AcDbCircle
 10
4676.540614349489
 20
2533.024307202605
 30
0.0
 40
0.0025902143260047
100
AcDbArc
 50
180.0
 51
270.0150499493148
  0
LWPOLYLINE
  5
2009
330
1F
100
AcDbEntity
  8
SANINDUSA
100
AcDbPolyline
 90
        3
 70
   128
 43
0.0
 10
4676.551613040498
 20
2533.0217174056
 10
4676.543613113692
 20
2533.021716928763
 10
4676.540615029863
 20
2533.021716988368
  0
ARC
  5
200D
330
1F
100
AcDbEntity
  8
SANINDUSA
100
AcDbCircle
 10
4676.681621993389
 20
2533.035319679357
 30
0.0
 40
0.0025898048761903
100
AcDbArc
 50
0.0
 51
90.01026529413097
  0
LWPOLYLINE
  5
2018
330
1F
100
AcDbEntity
  8
SANINDUSA
100
AcDbPolyline
 90
        3
 70
   128
 43
0.0
 10
4676.67062125378
 20
2533.0379096034
 10
4676.67862124019
 20
2533.037909513993
 10
4676.681621529392
 20
2533.037909484191
  0
LWPOLYLINE
  5
201A
330
1F
100
AcDbEntity
  8
SANINDUSA
100
AcDbPolyline
 90
        3
 70
   128
 43
0.0
 10
4676.684211798242
 20
2533.035320020003
 10
4676.684211768439
 20
2533.027321672721
 10
4676.684211798242
 20
2533.024324304147
  0
ARC
  5
201C
330
1F
100
AcDbEntity
  8
SANINDUSA
100
AcDbCircle
 10
4676.551612914709
 20
2533.024307979068
 30
0.0
 40
0.0025905734709961
100
AcDbArc
 50
270.0027820597804
 51
0.0
  0
ARC
  5
201F
330
1F
100
AcDbEntity
  8
SANINDUSA
100
AcDbCircle
 10
4676.670620792596
 20
2533.035319497665
 30
0.0
 40
0.0025901057764783
100
AcDbArc
 50
89.98979812399568
 51
179.9851490595759
  0
LWPOLYLINE
  5
2022
330
1F
100
AcDbEntity
  8
SANINDUSA
100
AcDbPolyline
 90
        3
 70
   128
 43
0.0
 10
4676.66803086572
 20
2533.024325496239
 10
4676.668030686907
 20
2533.032323724313
 10
4676.668030686907
 20
2533.035320169015
  0
ARC
  5
2027
330
1F
100
AcDbEntity
  8
SANINDUSA
100
AcDbCircle
 10
4676.605618670562
 20
2533.035314648371
 30
0.0
 40
0.0025909913627953
100
AcDbArc
 50
89.98961469605745
 51
179.9879778883475
  0
LWPOLYLINE
  5
2032
330
1F
100
AcDbEntity
  8
SANINDUSA
100
AcDbPolyline
 90
        3
 70
   128
 43
0.0
 10
4676.605619140199
 20
2533.037905639691
 10
4676.61361912661
 20
2533.037906861586
 10
4676.616619564823
 20
2533.037907249017
  0
ARC
  5
2034
330
1F
100
AcDbEntity
  8
SANINDUSA
100
AcDbCircle
 10
4676.616620244456
 20
2533.035318196268
 30
0.0
 40
0.0025890528379483
100
AcDbArc
 50
0.0126592110730173
 51
90.01504030892672
  0
LWPOLYLINE
  5
2037
330
1F
100
AcDbEntity
  8
SANINDUSA
100
AcDbPolyline
 90
        3
 70
   128
 43
0.0
 10
4676.603025622895
 20
2533.024321830554
 10
4676.603027172617
 20
2533.03232047586
 10
4676.603027679256
 20
2533.035315192027
  0
LWPOLYLINE
  5
203A
330
1F
100
AcDbEntity
  8
SANINDUSA
100
AcDbPolyline
 90
        3
 70
   128
 43
0.0
 10
4676.619209297231
 20
2533.035318768306
 10
4676.619208373359
 20
2533.027320212407
 10
4676.619208045534
 20
2533.024326122089
  0
ARC
  5
2041
330
1F
100
AcDbEntity
  8
SANINDUSA
100
AcDbCircle
 10
4676.746621677347
 20
2533.024324362454
 30
0.0
 40
0.0025898801673308
100
AcDbArc
 50
269.9894215756254
 51
359.9861826134721
  0
LWPOLYLINE
  5
2043
330
1F
100
AcDbEntity
  8
SANINDUSA
100
AcDbPolyline
 90
        3
 70
   128
 43
0.0
 10
4676.746621199182
 20
2533.021734482331
 10
4676.73862118297
 20
2533.021734690947
 10
4676.735620863966
 20
2533.02173472075
  0
ARC
  5
2047
330
1F
100
AcDbEntity
  8
SANINDUSA
100
AcDbCircle
 10
4676.735620318953
 20
2533.024324533979
 30
0.0
 40
0.0025898132868871
100
AcDbArc
 50
180.0103593530547
 51
270.0120576247638
  0
ARC
  5
2050
330
1F
100
AcDbEntity
  8
SANINDUSA
100
AcDbCircle
 10
4676.681622068588
 20
2533.024324957088
 30
0.0
 40
0.0025897297369575
100
AcDbArc
 50
269.9900487740964
 51
359.9855533305821
  0
ARC
  5
2054
330
1F
100
AcDbEntity
  8
SANINDUSA
100
AcDbCircle
 10
4676.60561336407
 20
2533.024322699972
 30
0.0
 40
0.0025877413191205
100
AcDbArc
 50
180.0192500843682
 51
270.0361700624842
  0
LWPOLYLINE
  5
2055
330
1F
100
AcDbEntity
  8
SANINDUSA
100
AcDbPolyline
 90
        3
 70
   128
 43
0.0
 10
4676.681621618799
 20
2533.021735227389
 10
4676.673621632389
 20
2533.021735763831
 10
4676.670621671012
 20
2533.021736032052
  0
ARC
  5
2059
330
1F
100
AcDbEntity
  8
SANINDUSA
100
AcDbCircle
 10
4676.670620779395
 20
2533.024325945611
 30
0.0
 40
0.0025899137133213
100
AcDbArc
 50
180.0099417939561
 51
270.0197249647273
  0
LWPOLYLINE
  5
205B
330
1F
100
AcDbEntity
  8
SANINDUSA
100
AcDbPolyline
 90
        3
 70
   128
 43
0.0
 10
4676.6166167038
 20
2533.02173716454
 10
4676.60861671739
 20
2533.021735674424
 10
4676.605614997677
 20
2533.021734959168
  0
ARC
  5
205D
330
1F
100
AcDbEntity
  8
SANINDUSA
100
AcDbCircle
 10
4676.616617580724
 20
2533.024327629641
 30
0.0
 40
0.0025904652487911
100
AcDbArc
 50
269.9806042675914
 51
359.9666559527946
  0
ARC
  5
2078
330
1F
100
AcDbEntity
  8
SANINDUSA
100
AcDbCircle
 10
4676.345617593408
 20
2532.970346299729
 30
0.0
 40
0.0025907242311959
100
AcDbArc
 50
89.98996737795289
 51
179.9886116005938
  0
LWPOLYLINE
  5
2083
330
1F
100
AcDbEntity
  8
SANINDUSA
100
AcDbPolyline
 90
        3
 70
   128
 43
0.0
 10
4676.34561804705
 20
2532.972937023921
 10
4676.353618018559
 20
2532.972939080281
 10
4676.356614373854
 20
2532.972939914746
  0
LWPOLYLINE
  5
2086
330
1F
100
AcDbEntity
  8
SANINDUSA
100
AcDbPolyline
 90
        3
 70
   128
 43
0.0
 10
4676.343024455241
 20
2532.95935303597
 10
4676.343026213578
 20
2532.967347866578
 10
4676.343026869228
 20
2532.970346814675
  0
ARC
  5
208B
330
1F
100
AcDbEntity
  8
SANINDUSA
100
AcDbCircle
 10
4676.356615048975
 20
2532.970352466831
 30
0.0
 40
0.002587448002958
100
AcDbArc
 50
0.0101267851913129
 51
90.01494968927147
  0
LWPOLYLINE
  5
208D
330
1F
100
AcDbEntity
  8
SANINDUSA
100
AcDbPolyline
 90
        3
 70
   128
 43
0.0
 10
4676.359202496938
 20
2532.970352924151
 10
4676.359200917414
 20
2532.962358808799
 10
4676.359200380972
 20
2532.959359413667
  0
ARC
  5
20A7
330
1F
100
AcDbEntity
  8
SANINDUSA
100
AcDbCircle
 10
4676.345612262689
 20
2532.959353554764
 30
0.0
 40
0.0025878075002171
100
AcDbArc
 50
180.0114864447604
 51
270.0149064899106
  0
LWPOLYLINE
  5
20AA
330
1F
100
AcDbEntity
  8
SANINDUSA
100
AcDbPolyline
 90
        3
 70
   128
 43
0.0
 10
4676.356609724692
 20
2532.956769025607
 10
4676.348609872392
 20
2532.956766641421
 10
4676.345612935952
 20
2532.956765747352
  0
ARC
  5
20AB
330
1F
100
AcDbEntity
  8
SANINDUSA
100
AcDbCircle
 10
4676.356609610925
 20
2532.959359795681
 30
0.0
 40
0.00259077007611
100
AcDbArc
 50
270.0025159850592
 51
359.9915516325148
  0
ARC
  5
20AC
330
1F
100
AcDbEntity
  8
SANINDUSA
100
AcDbCircle
 10
4676.746624302663
 20
2532.970346222743
 30
0.0
 40
0.0025904734521779
100
AcDbArc
 50
0.0
 51
90.01590924667503
  0
LINE
  5
20B7
330
1F
100
AcDbEntity
  8
SANINDUSA
100
AcDbLine
 10
4676.735622890523
 20
2532.972938663049
 30
0.0
 11
4676.746623583368
 21
2532.972936696095
 31
0.0
  0
LINE
  5
20B9
330
1F
100
AcDbEntity
  8
SANINDUSA
100
AcDbLine
 10
4676.74921477609
 20
2532.970346576256
 30
0.0
 11
4676.749216087393
 21
2532.959351694865
 31
0.0
  0
ARC
  5
20BB
330
1F
100
AcDbEntity
  8
SANINDUSA
100
AcDbCircle
 10
4676.73562230871
 20
2532.970349601711
 30
0.0
 40
0.0025890614034153
100
AcDbArc
 50
89.98712450550286
 51
179.9765983732388
  0
LWPOLYLINE
  5
20BE
330
1F
100
AcDbEntity
  8
SANINDUSA
100
AcDbPolyline
 90
        3
 70
   128
 43
0.0
 10
4676.733034976057
 20
2532.959356522841
 10
4676.733033664755
 20
2532.96735290317
 10
4676.733033247522
 20
2532.970350659175
  0
LWPOLYLINE
  5
20BF
330
1F
100
AcDbEntity
  8
SANINDUSA
100
AcDbPolyline
 90
        3
 70
   128
 43
0.0
 10
4676.540622271827
 20
2532.972988581938
 10
4676.548622317842
 20
2532.972988045497
 10
4676.551612653068
 20
2532.972988045497
  0
ARC
  5
20CA
330
1F
100
AcDbEntity
  8
SANINDUSA
100
AcDbCircle
 10
4676.540619881889
 20
2532.970402755932
 30
0.0
 40
0.0025858271108343
100
AcDbArc
 50
89.94704466120019
 51
179.8924140352682
  0
ARC
  5
20CC
330
1F
100
AcDbEntity
  8
SANINDUSA
100
AcDbCircle
 10
4676.551617449096
 20
2532.970404513311
 30
0.0
 40
0.0025835366378686
100
AcDbArc
 50
0.0495403470508978
 51
90.1063628317825
  0
LWPOLYLINE
  5
20CF
330
1F
100
AcDbEntity
  8
SANINDUSA
100
AcDbPolyline
 90
        3
 70
   128
 43
0.0
 10
4676.538033105663
 20
2532.959445452971
 10
4676.538033999732
 20
2532.967417156978
 10
4676.538034059337
 20
2532.970407611413
  0
ARC
  5
20D0
330
1F
100
AcDbEntity
  8
SANINDUSA
100
AcDbCircle
 10
4676.410599816671
 20
2532.970371047618
 30
0.0
 40
0.0025917851147048
100
AcDbArc
 50
89.99892611283543
 51
179.9763628871863
  0
LWPOLYLINE
  5
20DB
330
1F
100
AcDbEntity
  8
SANINDUSA
100
AcDbPolyline
 90
        3
 70
   128
 43
0.0
 10
4676.410599865249
 20
2532.972962832732
 10
4676.418598808578
 20
2532.972967124266
 10
4676.421599947146
 20
2532.972968763394
  0
LWPOLYLINE
  5
20DD
330
1F
100
AcDbEntity
  8
SANINDUSA
100
AcDbPolyline
 90
        3
 70
   128
 43
0.0
 10
4676.554200984767
 20
2532.970406747145
 10
4676.554202087453
 20
2532.962431347651
 10
4676.554202653697
 20
2532.959445989413
  0
LWPOLYLINE
  5
20E0
330
1F
100
AcDbEntity
  8
SANINDUSA
100
AcDbPolyline
 90
        3
 70
   128
 43
0.0
 10
4676.408005692294
 20
2532.959378874583
 10
4676.408007376126
 20
2532.967370516343
 10
4676.408008031777
 20
2532.970372116847
  0
ARC
  5
20E1
330
1F
100
AcDbEntity
  8
SANINDUSA
100
AcDbCircle
 10
4676.68162978435
 20
2532.970364040424
 30
0.0
 40
0.0025904479600569
100
AcDbArc
 50
0.0
 51
90.02767885910477
  0
LWPOLYLINE
  5
20EC
330
1F
100
AcDbEntity
  8
SANINDUSA
100
AcDbPolyline
 90
        3
 70
   128
 43
0.0
 10
4676.670632519058
 20
2532.972960806174
 10
4676.678632088235
 20
2532.972956067605
 10
4676.681628532938
 20
2532.972954488082
  0
LWPOLYLINE
  5
20EE
330
1F
100
AcDbEntity
  8
SANINDUSA
100
AcDbPolyline
 90
        3
 70
   128
 43
0.0
 10
4676.684220232299
 20
2532.970364278836
 10
4676.684223331741
 20
2532.962370819135
 10
4676.684224523834
 20
2532.959375596327
  0
ARC
  5
20F0
330
1F
100
AcDbEntity
  8
SANINDUSA
100
AcDbCircle
 10
4676.746627143189
 20
2532.959352665085
 30
0.0
 40
0.0025889443850266
100
AcDbArc
 50
269.984534940749
 51
359.9785279883402
  0
LWPOLYLINE
  5
20F2
330
1F
100
AcDbEntity
  8
SANINDUSA
100
AcDbPolyline
 90
        3
 70
   128
 43
0.0
 10
4676.746626444391
 20
2532.956763720794
 10
4676.738626547388
 20
2532.956765538735
 10
4676.735626287988
 20
2532.956766253991
  0
ARC
  5
20F4
330
1F
100
AcDbEntity
  8
SANINDUSA
100
AcDbCircle
 10
4676.421602243904
 20
2532.970382267378
 30
0.0
 40
0.0025864970354509
100
AcDbArc
 50
0.0200724877281767
 51
90.05087754760966
  0
ARC
  5
20F6
330
1F
100
AcDbEntity
  8
SANINDUSA
100
AcDbCircle
 10
4676.735625549667
 20
2532.959356827512
 30
0.0
 40
0.0025905736267772
100
AcDbArc
 50
180.0
 51
270.0163295155217
  0
ARC
  5
20F7
330
1F
100
AcDbEntity
  8
SANINDUSA
100
AcDbCircle
 10
4676.670631450207
 20
2532.97037506262
 30
0.0
 40
0.0025857437750266
100
AcDbArc
 50
89.97631601405833
 51
179.953670919556
  0
LWPOLYLINE
  5
20F9
330
1F
100
AcDbEntity
  8
SANINDUSA
100
AcDbPolyline
 90
        3
 70
   128
 43
0.0
 10
4676.424188740781
 20
2532.970383173509
 10
4676.424186922839
 20
2532.962392604632
 10
4676.424186386397
 20
2532.959389454408
  0
LWPOLYLINE
  5
20FC
330
1F
100
AcDbEntity
  8
SANINDUSA
100
AcDbPolyline
 90
        3
 70
   128
 43
0.0
 10
4676.668050058416
 20
2532.959389186187
 10
4676.668046958974
 20
2532.967380589528
 10
4676.668045707277
 20
2532.970377153439
  0
ARC
  5
2101
330
1F
100
AcDbEntity
  8
SANINDUSA
100
AcDbCircle
 10
4676.486634816244
 20
2532.97040637775
 30
0.0
 40
0.0025868849249925
100
AcDbArc
 50
0.059667710003971
 51
90.06705923489436
  0
LWPOLYLINE
  5
210C
330
1F
100
AcDbEntity
  8
SANINDUSA
100
AcDbPolyline
 90
        3
 70
   128
 43
0.0
 10
4676.475627012781
 20
2532.97299168138
 10
4676.483626820377
 20
2532.97299296288
 10
4676.486631788543
 20
2532.972993260903
  0
ARC
  5
210F
330
1F
100
AcDbEntity
  8
SANINDUSA
100
AcDbCircle
 10
4676.410592455861
 20
2532.959379272835
 30
0.0
 40
0.0025867635976563
100
AcDbArc
 50
180.0088216850181
 51
270.0390242434087
  0
LWPOLYLINE
  5
2110
330
1F
100
AcDbEntity
  8
SANINDUSA
100
AcDbPolyline
 90
        3
 70
   128
 43
0.0
 10
4676.489221699766
 20
2532.970409071726
 10
4676.489217974475
 20
2532.962427324338
 10
4676.489216037325
 20
2532.959427809996
  0
LWPOLYLINE
  5
2113
330
1F
100
AcDbEntity
  8
SANINDUSA
100
AcDbPolyline
 90
        3
 70
   128
 43
0.0
 10
4676.421594552926
 20
2532.956798380894
 10
4676.413595982126
 20
2532.956794178767
 10
4676.410594217709
 20
2532.956792509837
  0
ARC
  5
2114
330
1F
100
AcDbEntity
  8
SANINDUSA
100
AcDbCircle
 10
4676.681638991587
 20
2532.959376671202
 30
0.0
 40
0.002585532469821
100
AcDbArc
 50
269.9775891186438
 51
359.9761806317283
  0
LWPOLYLINE
  5
2116
330
1F
100
AcDbEntity
  8
SANINDUSA
100
AcDbPolyline
 90
        3
 70
   128
 43
0.0
 10
4676.681637980274
 20
2532.95679113893
 10
4676.673638798527
 20
2532.956796354337
 10
4676.670641966394
 20
2532.956798291488
  0
ARC
  5
2118
330
1F
100
AcDbEntity
  8
SANINDUSA
100
AcDbCircle
 10
4676.475624761425
 20
2532.970400653577
 30
0.0
 40
0.0025910287813701
100
AcDbArc
 50
89.95021546440336
 51
179.9436757087048
  0
LWPOLYLINE
  5
211B
330
1F
100
AcDbEntity
  8
SANINDUSA
100
AcDbPolyline
 90
        3
 70
   128
 43
0.0
 10
4676.473028280071
 20
2532.959413117451
 10
4676.473032512
 20
2532.967397874875
 10
4676.473033733896
 20
2532.970403200669
  0
ARC
  5
211E
330
1F
100
AcDbEntity
  8
SANINDUSA
100
AcDbCircle
 10
4676.670641574312
 20
2532.959389807428
 30
0.0
 40
0.0025915159704512
100
AcDbArc
 50
180.0137350263467
 51
270.008668533119
  0
ARC
  5
211F
330
1F
100
AcDbEntity
  8
SANINDUSA
100
AcDbCircle
 10
4676.421594058292
 20
2532.959390709257
 30
0.0
 40
0.0025923284092817
100
AcDbArc
 50
270.0109324090204
 51
359.9722652526911
  0
LWPOLYLINE
  5
2120
330
1F
100
AcDbEntity
  8
SANINDUSA
100
AcDbPolyline
 90
        3
 70
   128
 43
0.0
 10
4676.605610288909
 20
2532.972997552437
 10
4676.613610245517
 20
2532.972995823903
 10
4676.616619028381
 20
2532.972994840426
  0
ARC
  5
212B
330
1F
100
AcDbEntity
  8
SANINDUSA
100
AcDbCircle
 10
4676.605608816014
 20
2532.970408066507
 30
0.0
 40
0.002589486349063
100
AcDbArc
 50
89.96741027422393
 51
179.8880775982352
  0
LWPOLYLINE
  5
212E
330
1F
100
AcDbEntity
  8
SANINDUSA
100
AcDbPolyline
 90
        3
 70
   128
 43
0.0
 10
4676.603024401001
 20
2532.959430462403
 10
4676.603020347885
 20
2532.967412179989
 10
4676.603019334605
 20
2532.970413124842
  0
ARC
  5
212F
330
1F
100
AcDbEntity
  8
SANINDUSA
100
AcDbCircle
 10
4676.616622974228
 20
2532.970404407337
 30
0.0
 40
0.0025904360946836
100
AcDbArc
 50
0.0306588077959373
 51
90.08727504372235
  0
LWPOLYLINE
  5
2131
330
1F
100
AcDbEntity
  8
SANINDUSA
100
AcDbPolyline
 90
        3
 70
   128
 43
0.0
 10
4676.619213409952
 20
2532.970405793471
 10
4676.619216867021
 20
2532.962420857234
 10
4676.619218297533
 20
2532.959416753335
  0
LWPOLYLINE
  5
2135
330
1F
100
AcDbEntity
  8
SANINDUSA
100
AcDbPolyline
 90
        3
 70
   128
 43
0.0
 10
4676.55161497765
 20
2532.956866359992
 10
4676.543614961437
 20
2532.956866181178
 10
4676.540620960525
 20
2532.956865763945
  0
ARC
  5
2137
330
1F
100
AcDbEntity
  8
SANINDUSA
100
AcDbCircle
 10
4676.540615775983
 20
2532.959448430779
 30
0.0
 40
0.0025826720372156
100
AcDbArc
 50
180.0660617406056
 51
270.1150175196748
  0
ARC
  5
213A
330
1F
100
AcDbEntity
  8
SANINDUSA
100
AcDbCircle
 10
4676.551617479264
 20
2532.959451539172
 30
0.0
 40
0.0025851803906061
100
AcDbArc
 50
269.9445562934473
 51
359.8769996482064
  0
LWPOLYLINE
  5
214D
330
1F
100
AcDbEntity
  8
SANINDUSA
100
AcDbPolyline
 90
        3
 70
   128
 43
0.0
 10
4676.486620046428
 20
2532.956836378855
 10
4676.478620060018
 20
2532.956830686612
 10
4676.475615568689
 20
2532.956828600449
  0
ARC
  5
214F
330
1F
100
AcDbEntity
  8
SANINDUSA
100
AcDbCircle
 10
4676.486621851861
 20
2532.959430565154
 30
0.0
 40
0.0025941869267722
100
AcDbArc
 50
269.9601247967032
 51
359.9391489707345
  0
ARC
  5
2152
330
1F
100
AcDbEntity
  8
SANINDUSA
100
AcDbCircle
 10
4676.475614232529
 20
2532.959414552961
 30
0.0
 40
0.002585952856825
100
AcDbArc
 50
180.0318059360284
 51
270.0296046962995
  0
LWPOLYLINE
  5
2158
330
1F
100
AcDbEntity
  8
SANINDUSA
100
AcDbPolyline
 90
        3
 70
   128
 43
0.0
 10
4676.616629578403
 20
2532.956831699891
 10
4676.608629621795
 20
2532.956836915297
 10
4676.605621017746
 20
2532.956838912053
  0
ARC
  5
215A
330
1F
100
AcDbEntity
  8
SANINDUSA
100
AcDbCircle
 10
4676.616630710866
 20
2532.959419287551
 30
0.0
 40
0.0025875879077462
100
AcDbArc
 50
269.9749244108274
 51
359.943885999501
  0
ARC
  5
215D
330
1F
100
AcDbEntity
  8
SANINDUSA
100
AcDbCircle
 10
4676.605617498057
 20
2532.959432007181
 30
0.0
 40
0.0025930975169849
100
AcDbArc
 50
180.0341328395615
 51
270.0777692981467
  0
CIRCLE
  5
2174
330
1F
100
AcDbEntity
  8
SANINDUSA
100
AcDbCircle
 10
-4676.546119435362
 20
2532.849803127332
 30
0.0000000000153396
 40
0.0602975452584132
210
0.0000000000000014
220
0.0000000000000035
230
-1.0
  0
CIRCLE
  5
2175
330
1F
100
AcDbEntity
  8
SANINDUSA
100
AcDbCircle
 10
-4676.546119435362
 20
2532.849803127332
 30
0.0000000000153396
 40
0.0500000000000001
210
0.0000000000000014
220
0.0000000000000035
230
-1.0
  0
LINE
  5
218E
330
1F
100
AcDbEntity
  8
SANINDUSA
100
AcDbLine
 10
4677.869851735921
 20
2532.990286821306
 30
0.0
 11
4677.871093793071
 21
2533.0614442276
 31
0.0
  0
LINE
  5
218F
330
1F
100
AcDbEntity
  8
SANINDUSA
100
AcDbLine
 10
4677.869851735921
 20
2532.990286821306
 30
0.0
 11
4677.874850974336
 21
2532.990286821306
 31
0.0
  0
LINE
  5
2192
330
1F
100
AcDbEntity
  8
SANINDUSA
100
AcDbLine
 10
4677.874850974336
 20
2532.990286821306
 30
0.0
 11
4678.567645326408
 21
2532.990286821306
 31
0.0
  0
LINE
  5
2194
330
1F
100
AcDbEntity
  8
SANINDUSA
100
AcDbLine
 10
4678.57140250519
 20
2533.061443891183
 30
0.0
 11
4678.572644546778
 21
2532.990286821306
 31
0.0
  0
LINE
  5
2195
330
1F
100
AcDbEntity
  8
SANINDUSA
100
AcDbLine
 10
4678.567645326408
 20
2532.990286821306
 30
0.0
 11
4678.572644546778
 21
2532.990286821306
 31
0.0
  0
ARC
  5
2196
330
1F
100
AcDbEntity
  8
SANINDUSA
100
AcDbCircle
 10
4677.88009241645
 20
2533.061286819517
 30
0.0
 40
0.0090000000000001
100
AcDbArc
 50
90.0
 51
178.9999999902799
  0
LINE
  5
2198
330
1F
100
AcDbEntity
  8
SANINDUSA
100
AcDbLine
 10
4677.880092416109
 20
2533.070286819518
 30
0.0
 11
4678.56240387276
 21
2533.070286819518
 31
0.0
  0
ARC
  5
219A
330
1F
100
AcDbEntity
  8
SANINDUSA
100
AcDbCircle
 10
4678.562403865714
 20
2533.061286819517
 30
0.0
 40
0.0090000000000001
100
AcDbArc
 50
1.000000009720081
 51
90.0
  0
LINE
  5
2207
330
1F
100
AcDbEntity
  8
SANINDUSA
100
AcDbLine
 10
4679.205005031692
 20
2533.020411724031
 30
0.0
 11
4679.225207787619
 21
2533.019895029992
 31
0.0
  0
LINE
  5
2208
330
1F
100
AcDbEntity
  8
SANINDUSA
100
AcDbLine
 10
4678.834481705592
 20
2533.029883647144
 30
0.0
 11
4678.896742161977
 21
2533.02829202804
 31
0.0
  0
LINE
  5
220A
330
1F
100
AcDbEntity
  8
SANINDUSA
100
AcDbLine
 10
4679.196459692584
 20
2533.020629973889
 30
0.0
 11
4679.205005031692
 21
2533.020411724031
 31
0.0
  0
LWPOLYLINE
  5
220C
330
1F
100
AcDbEntity
  8
SANINDUSA
100
AcDbPolyline
 90
        3
 70
   128
 43
0.0
 10
4679.13148088442
 20
2533.022291069657
 10
4679.142338645326
 20
2533.02201366964
 10
4679.173721176254
 20
2533.021211342692
  0
LINE
  5
220F
330
1F
100
AcDbEntity
  8
SANINDUSA
100
AcDbLine
 10
4679.066502106057
 20
2533.023952310711
 30
0.0
 11
4679.108742308485
 21
2533.022872479439
 31
0.0
  0
LINE
  5
2210
330
1F
100
AcDbEntity
  8
SANINDUSA
100
AcDbLine
 10
4679.001523327695
 20
2533.025613443733
 30
0.0
 11
4679.043763559924
 21
2533.024533530504
 31
0.0
  0
LINE
  5
2212
330
1F
100
AcDbEntity
  8
SANINDUSA
100
AcDbLine
 10
4678.936544549332
 20
2533.027274513424
 30
0.0
 11
4678.978784796464
 21
2533.026194693327
 31
0.0
  0
LINE
  5
2215
330
1F
100
AcDbEntity
  8
SANINDUSA
100
AcDbLine
 10
4678.896742161977
 20
2533.02829202804
 30
0.0
 11
4678.9138060181
 21
2533.027855815172
 31
0.0
  0
LINE
  5
222F
330
1F
100
AcDbEntity
  8
SANINDUSA
100
AcDbLine
 10
4679.428692532201
 20
2533.063158024735
 30
0.0
 11
4679.423655506833
 21
2533.039460761386
 31
0.0
  0
ARC
  5
2231
330
1F
100
AcDbEntity
  8
SANINDUSA
100
AcDbCircle
 10
4679.437495860608
 20
2533.061286819517
 30
0.0
 40
0.009
100
AcDbArc
 50
90.0
 51
168.0000000087166
  0
LINE
  5
2232
330
1F
100
AcDbEntity
  8
SANINDUSA
100
AcDbLine
 10
4679.437495869266
 20
2533.070286819518
 30
0.0
 11
4679.461363535987
 21
2533.070286819518
 31
0.0
  0
ARC
  5
2233
330
1F
100
AcDbEntity
  8
SANINDUSA
100
AcDbCircle
 10
4679.461363528941
 20
2533.061286819517
 30
0.0
 40
0.0090000000000001
100
AcDbArc
 50
1.000000009720081
 51
90.0
  0
LINE
  5
2234
330
1F
100
AcDbEntity
  8
SANINDUSA
100
AcDbLine
 10
4679.470362158197
 20
2533.061443891175
 30
0.0
 11
4679.471604210006
 21
2532.990286821306
 31
0.0
  0
LINE
  5
2235
330
1F
100
AcDbEntity
  8
SANINDUSA
100
AcDbLine
 10
4679.471604210006
 20
2532.990286821306
 30
0.0
 11
4679.467603605854
 21
2532.990286821306
 31
0.0
  0
LINE
  5
2236
330
1F
100
AcDbEntity
  8
SANINDUSA
100
AcDbLine
 10
4679.466362756358
 20
2533.061374081105
 30
0.0
 11
4679.467603605854
 21
2532.990286821306
 31
0.0
  0
ARC
  5
2237
330
1F
100
AcDbEntity
  8
SANINDUSA
100
AcDbCircle
 10
4679.461363528941
 20
2533.061286819517
 30
0.0
 40
0.005
100
AcDbArc
 50
1.000000009720081
 51
90.0
  0
LINE
  5
2238
330
1F
100
AcDbEntity
  8
SANINDUSA
100
AcDbLine
 10
4679.437495869266
 20
2533.066286819328
 30
0.0
 11
4679.461363535987
 21
2533.066286819328
 31
0.0
  0
ARC
  5
2239
330
1F
100
AcDbEntity
  8
SANINDUSA
100
AcDbCircle
 10
4679.437495860608
 20
2533.061286819517
 30
0.0
 40
0.005
100
AcDbArc
 50
90.0
 51
168.0000000087166
  0
LINE
  5
223A
330
1F
100
AcDbEntity
  8
SANINDUSA
100
AcDbLine
 10
4679.432605129348
 20
2533.062326377996
 30
0.0
 11
4679.42756823012
 21
2533.038629739841
 31
0.0
  0
LINE
  5
223B
330
1F
100
AcDbEntity
  8
SANINDUSA
100
AcDbLine
 10
4679.375472706424
 20
2533.015901980728
 30
0.0
 11
4679.362300795184
 21
2533.015442007959
 31
0.0
  0
LINE
  5
223C
330
1F
100
AcDbEntity
  8
SANINDUSA
100
AcDbLine
 10
4679.362300795184
 20
2533.015442007959
 30
0.0
 11
4679.351947051155
 21
2533.00433898139
 31
0.0
  0
LINE
  5
223D
330
1F
100
AcDbEntity
  8
SANINDUSA
100
AcDbLine
 10
4679.351947051155
 20
2533.00433898139
 30
0.0
 11
4679.248468559848
 21
2533.00433898139
 31
0.0
  0
LINE
  5
223E
330
1F
100
AcDbEntity
  8
SANINDUSA
100
AcDbLine
 10
4679.248468559848
 20
2533.00433898139
 30
0.0
 11
4679.238114815818
 21
2533.015442007959
 31
0.0
  0
LINE
  5
223F
330
1F
100
AcDbEntity
  8
SANINDUSA
100
AcDbLine
 10
4679.238114815818
 20
2533.015442007959
 30
0.0
 11
4679.225085598098
 21
2533.015897000015
 31
0.0
  0
LINE
  5
2240
330
1F
100
AcDbEntity
  8
SANINDUSA
100
AcDbLine
 10
4679.204908233749
 20
2533.016412889391
 30
0.0
 11
4679.225085717308
 21
2533.015896854728
 31
0.0
  0
LINE
  5
2241
330
1F
100
AcDbEntity
  8
SANINDUSA
100
AcDbLine
 10
4679.196357530223
 20
2533.016631273359
 30
0.0
 11
4679.204908233749
 21
2533.016412889391
 31
0.0
  0
ARC
  5
2242
330
1F
100
AcDbEntity
  8
SANINDUSA
100
AcDbCircle
 10
4679.196561922835
 20
2533.024628807222
 30
0.0
 40
0.0080001452632385
100
AcDbArc
 50
217.2181686932525
 51
268.5360130113561
  0
LINE
  5
2243
330
1F
100
AcDbEntity
  8
SANINDUSA
100
AcDbLine
 10
4679.179938596354
 20
2533.020052226067
 30
0.0
 11
4679.190191101896
 21
2533.019789906025
 31
0.0
  0
ARC
  5
2244
330
1F
100
AcDbEntity
  8
SANINDUSA
100
AcDbCircle
 10
4679.173823299484
 20
2533.025210008301
 30
0.0
 40
0.0079999733377984
100
AcDbArc
 50
268.5371753443539
 51
319.8549453409195
  0
LWPOLYLINE
  5
2245
330
1F
100
AcDbEntity
  8
SANINDUSA
100
AcDbPolyline
 90
        3
 70
   128
 43
0.0
 10
4679.131378662454
 20
2533.018292369127
 10
4679.134239059554
 20
2533.018219267756
 10
4679.173619073497
 20
2533.017212642163
  0
ARC
  5
2246
330
1F
100
AcDbEntity
  8
SANINDUSA
100
AcDbCircle
 10
4679.131583114108
 20
2533.026289794938
 30
0.0
 40
0.0080000387542244
100
AcDbArc
 50
217.2178767873984
 51
268.5355705553887
  0
LINE
  5
2247
330
1F
100
AcDbEntity
  8
SANINDUSA
100
AcDbLine
 10
4679.114959698783
 20
2533.021713157922
 30
0.0
 11
4679.125212353336
 21
2533.021450990617
 31
0.0
  0
ARC
  5
2248
330
1F
100
AcDbEntity
  8
SANINDUSA
100
AcDbCircle
 10
4679.108844541934
 20
2533.02687119702
 30
0.0
 40
0.0080000319149967
100
AcDbArc
 50
268.5353288414646
 51
319.8528925551581
  0
LINE
  5
2249
330
1F
100
AcDbEntity
  8
SANINDUSA
100
AcDbLine
 10
4679.066399913894
 20
2533.019953610182
 30
0.0
 11
4679.108640056717
 21
2533.018873778909
 31
0.0
  0
ARC
  5
224A
330
1F
100
AcDbEntity
  8
SANINDUSA
100
AcDbCircle
 10
4679.066604312599
 20
2533.027950978279
 30
0.0
 40
0.0079999797066197
100
AcDbArc
 50
217.2179469812439
 51
268.5359390952728
  0
LINE
  5
224B
330
1F
100
AcDbEntity
  8
SANINDUSA
100
AcDbLine
 10
4679.049980950224
 20
2533.023374268592
 30
0.0
 11
4679.060233604776
 21
2533.02311220187
 31
0.0
  0
ARC
  5
224C
330
1F
100
AcDbEntity
  8
SANINDUSA
100
AcDbCircle
 10
4679.043865765524
 20
2533.028532203938
 30
0.0
 40
0.007999986308737
100
AcDbArc
 50
268.5357335052336
 51
319.853589147384
  0
LINE
  5
224D
330
1F
100
AcDbEntity
  8
SANINDUSA
100
AcDbLine
 10
4679.001421090828
 20
2533.021614746929
 30
0.0
 11
4679.043661337959
 21
2533.020534829975
 31
0.0
  0
ARC
  5
224E
330
1F
100
AcDbEntity
  8
SANINDUSA
100
AcDbCircle
 10
4679.001625527185
 20
2533.029612088471
 30
0.0
 40
0.0079999541237992
100
AcDbArc
 50
217.2176128130499
 51
268.5356646455189
  0
LINE
  5
224F
330
1F
100
AcDbEntity
  8
SANINDUSA
100
AcDbLine
 10
4678.985002201663
 20
2533.025035442591
 30
0.0
 11
4678.995254811512
 21
2533.024773364693
 31
0.0
  0
ARC
  5
2250
330
1F
100
AcDbEntity
  8
SANINDUSA
100
AcDbCircle
 10
4678.97888700267
 20
2533.030193387693
 30
0.0
 40
0.008000003526165
100
AcDbArc
 50
268.5357323064244
 51
319.8536017577311
  0
LINE
  5
2251
330
1F
100
AcDbEntity
  8
SANINDUSA
100
AcDbLine
 10
4678.936442327367
 20
2533.023275816619
 30
0.0
 11
4678.978682574498
 21
2533.022195996523
 31
0.0
  0
ARC
  5
2252
330
1F
100
AcDbEntity
  8
SANINDUSA
100
AcDbCircle
 10
4678.936646748897
 20
2533.031273147859
 30
0.0
 40
0.0079999434443712
100
AcDbArc
 50
217.2175112275812
 51
268.5357688998136
  0
LINE
  5
2253
330
1F
100
AcDbEntity
  8
SANINDUSA
100
AcDbLine
 10
4678.920023423301
 20
2533.026696545809
 30
0.0
 11
4678.93027603315
 21
2533.026434441835
 31
0.0
  0
ARC
  5
2254
330
1F
100
AcDbEntity
  8
SANINDUSA
100
AcDbCircle
 10
4678.913908226856
 20
2533.031854548196
 30
0.0
 40
0.0080000385109725
100
AcDbArc
 50
268.5357204739461
 51
319.8532763704561
  0
LINE
  5
2255
330
1F
100
AcDbEntity
  8
SANINDUSA
100
AcDbLine
 10
4678.896639954912
 20
2533.024293334961
 30
0.0
 11
4678.913703796135
 21
2533.023857122094
 31
0.0
  0
LINE
  5
2256
330
1F
100
AcDbEntity
  8
SANINDUSA
100
AcDbLine
 10
4678.834379483627
 20
2533.025884954065
 30
0.0
 11
4678.896639954912
 21
2533.024293334961
 31
0.0
  0
ARC
  5
2257
330
1F
100
AcDbEntity
  8
SANINDUSA
100
AcDbCircle
 10
4678.834992833467
 20
2533.049877114794
 30
0.0
 40
0.023999999468529
100
AcDbArc
 50
191.9999978912356
 51
268.5355756638505
  0
LINE
  5
2258
330
1F
100
AcDbEntity
  8
SANINDUSA
100
AcDbLine
 10
4678.811517291384
 20
2533.044887235194
 30
0.0
 11
4678.807810485976
 21
2533.062326377996
 31
0.0
  0
ARC
  5
2259
330
1F
100
AcDbEntity
  8
SANINDUSA
100
AcDbCircle
 10
4678.802919748011
 20
2533.061286819517
 30
0.0
 40
0.0050000000000001
100
AcDbArc
 50
11.9999999912834
 51
90.0
  0
LINE
  5
225A
330
1F
100
AcDbEntity
  8
SANINDUSA
100
AcDbLine
 10
4678.779052079337
 20
2533.066286819328
 30
0.0
 11
4678.802919749784
 21
2533.066286819328
 31
0.0
  0
ARC
  5
225B
330
1F
100
AcDbEntity
  8
SANINDUSA
100
AcDbCircle
 10
4678.779052079678
 20
2533.061286819517
 30
0.0
 40
0.005
100
AcDbArc
 50
90.0
 51
178.9999999902799
  0
LINE
  5
225C
330
1F
100
AcDbEntity
  8
SANINDUSA
100
AcDbLine
 10
4678.772812008539
 20
2532.990286821306
 30
0.0
 11
4678.77405284127
 21
2533.061374081105
 31
0.0
  0
LINE
  5
225D
330
1F
100
AcDbEntity
  8
SANINDUSA
100
AcDbLine
 10
4678.772812008539
 20
2532.990286821306
 30
0.0
 11
4678.768811399147
 21
2532.990286821306
 31
0.0
  0
LINE
  5
225E
330
1F
100
AcDbEntity
  8
SANINDUSA
100
AcDbLine
 10
4678.768811399147
 20
2532.990286821306
 30
0.0
 11
4678.770053456299
 21
2533.061444227613
 31
0.0
  0
ARC
  5
225F
330
1F
100
AcDbEntity
  8
SANINDUSA
100
AcDbCircle
 10
4678.779052079678
 20
2533.061286819517
 30
0.0
 40
0.0089999999999999
100
AcDbArc
 50
90.0
 51
178.9999999902799
  0
LINE
  5
2260
330
1F
100
AcDbEntity
  8
SANINDUSA
100
AcDbLine
 10
4678.779052079337
 20
2533.070286819518
 30
0.0
 11
4678.802919749784
 21
2533.070286819518
 31
0.0
  0
ARC
  5
2261
330
1F
100
AcDbEntity
  8
SANINDUSA
100
AcDbCircle
 10
4678.802919748011
 20
2533.061286819517
 30
0.0
 40
0.0090000000000001
100
AcDbArc
 50
11.9999999912834
 51
90.0
  0
LINE
  5
2263
330
1F
100
AcDbEntity
  8
SANINDUSA
100
AcDbLine
 10
4678.815366389374
 20
2533.046017590401
 30
0.0
 11
4678.811723076417
 21
2533.063158024735
 31
0.0
  0
ARC
  5
2264
330
1F
100
AcDbEntity
  8
SANINDUSA
100
AcDbCircle
 10
4678.834992827218
 20
2533.049877106523
 30
0.0
 40
0.0199999915808718
100
AcDbArc
 50
191.9999777827581
 51
268.5355843694057
  0
ARC
  5
2265
330
1F
100
AcDbEntity
  8
SANINDUSA
100
AcDbCircle
 10
4678.913908235056
 20
2533.031854516688
 30
0.0
 40
0.0040000077651556
100
AcDbArc
 50
268.5356934196031
 51
323.6856495542439
  0
ARC
  5
2266
330
1F
100
AcDbEntity
  8
SANINDUSA
100
AcDbCircle
 10
4678.919548678083
 20
2533.02770905565
 30
0.0
 40
0.0029999525743342
100
AcDbArc
 50
88.53513659660389
 51
143.68613734933
  0
LINE
  5
2267
330
1F
100
AcDbEntity
  8
SANINDUSA
100
AcDbLine
 10
4678.919625368582
 20
2533.03070802781
 30
0.0
 11
4678.9308785318
 21
2533.030420345992
 31
0.0
  0
ARC
  5
2268
330
1F
100
AcDbEntity
  8
SANINDUSA
100
AcDbCircle
 10
4678.930801869471
 20
2533.027421341629
 30
0.0
 40
0.0029999840463147
100
AcDbArc
 50
33.38524198083013
 51
88.5356901357346
  0
ARC
  5
2269
330
1F
100
AcDbEntity
  8
SANINDUSA
100
AcDbCircle
 10
4678.936646763371
 20
2533.031273187664
 30
0.0
 40
0.0039999804235106
100
AcDbArc
 50
213.3853413088631
 51
268.5357251649965
  0
ARC
  5
226A
330
1F
100
AcDbEntity
  8
SANINDUSA
100
AcDbCircle
 10
4678.978887016238
 20
2533.03019337285
 30
0.0
 40
0.0039999858514198
100
AcDbArc
 50
268.5356449930697
 51
323.6860084749701
  0
ARC
  5
226B
330
1F
100
AcDbEntity
  8
SANINDUSA
100
AcDbCircle
 10
4678.984527471424
 20
2533.026047932699
 30
0.0
 40
0.0029999719170685
100
AcDbArc
 50
88.53543221017529
 51
143.6861177446735
  0
LINE
  5
226C
330
1F
100
AcDbEntity
  8
SANINDUSA
100
AcDbLine
 10
4678.984604146944
 20
2533.029046924591
 30
0.0
 11
4678.995857310162
 21
2533.028759272575
 31
0.0
  0
ARC
  5
226D
330
1F
100
AcDbEntity
  8
SANINDUSA
100
AcDbCircle
 10
4678.995780622382
 20
2533.02576021781
 30
0.0
 40
0.003000035083505
100
AcDbArc
 50
33.38583766028412
 51
88.53522875728849
  0
ARC
  5
226E
330
1F
100
AcDbEntity
  8
SANINDUSA
100
AcDbCircle
 10
4679.001625541733
 20
2533.029612117972
 30
0.0
 40
0.003999980422819
100
AcDbArc
 50
213.3853413088631
 51
268.5357252170898
  0
ARC
  5
226F
330
1F
100
AcDbEntity
  8
SANINDUSA
100
AcDbCircle
 10
4679.043865778758
 20
2533.028532217358
 30
0.0
 40
0.0039999931559457
100
AcDbArc
 50
268.5356611005186
 51
323.6858888553016
  0
ARC
  5
2270
330
1F
100
AcDbEntity
  8
SANINDUSA
100
AcDbCircle
 10
4679.049506253643
 20
2533.024386718738
 30
0.0
 40
0.0030000151104373
100
AcDbArc
 50
88.53581169628757
 51
143.6856002555044
  0
LINE
  5
2271
330
1F
100
AcDbEntity
  8
SANINDUSA
100
AcDbLine
 10
4679.049582910406
 20
2533.027385754317
 30
0.0
 11
4679.060836088525
 21
2533.027098113477
 31
0.0
  0
ARC
  5
2272
330
1F
100
AcDbEntity
  8
SANINDUSA
100
AcDbCircle
 10
4679.06075941343
 20
2533.024099067876
 30
0.0
 40
0.003000025598067
100
AcDbArc
 50
33.3860030817503
 51
88.53546650946668
  0
ARC
  5
2273
330
1F
100
AcDbEntity
  8
SANINDUSA
100
AcDbCircle
 10
4679.066604283764
 20
2533.027950937758
 30
0.0
 40
0.0039999323178371
100
AcDbArc
 50
213.3852414389358
 51
268.5362281404415
  0
ARC
  5
2274
330
1F
100
AcDbEntity
  8
SANINDUSA
100
AcDbCircle
 10
4679.108844566957
 20
2533.026871134148
 30
0.0
 40
0.0039999620348322
100
AcDbArc
 50
268.5350817586131
 51
323.6855366258684
  0
ARC
  5
2275
330
1F
100
AcDbEntity
  8
SANINDUSA
100
AcDbCircle
 10
4679.114484976333
 20
2533.022725643098
 30
0.0
 40
0.002999988964112
100
AcDbArc
 50
88.5347353208898
 51
143.685445449444
  0
LINE
  5
2276
330
1F
100
AcDbEntity
  8
SANINDUSA
100
AcDbLine
 10
4679.114561688768
 20
2533.025724651098
 30
0.0
 11
4679.125814866887
 21
2533.0254368985
 31
0.0
  0
ARC
  5
2277
330
1F
100
AcDbEntity
  8
SANINDUSA
100
AcDbCircle
 10
4679.125738216515
 20
2533.022437966484
 30
0.0
 40
0.002999911417978
100
AcDbArc
 50
33.38458649511726
 51
88.53588316265923
  0
ARC
  5
2278
330
1F
100
AcDbEntity
  8
SANINDUSA
100
AcDbCircle
 10
4679.131583106738
 20
2533.026289814182
 30
0.0
 40
0.0040000508974226
100
AcDbArc
 50
213.3858817852007
 51
268.5356323785277
  0
ARC
  5
2279
330
1F
100
AcDbEntity
  8
SANINDUSA
100
AcDbCircle
 10
4679.173823280759
 20
2533.025210090168
 30
0.0
 40
0.0040000508374829
100
AcDbArc
 50
268.5373204142497
 51
323.6868091024874
  0
ARC
  5
227A
330
1F
100
AcDbEntity
  8
SANINDUSA
100
AcDbCircle
 10
4679.179463854152
 20
2533.021064736002
 30
0.0
 40
0.0029999512600615
100
AcDbArc
 50
88.5360476759657
 51
143.687710474779
  0
LINE
  5
227B
330
1F
100
AcDbEntity
  8
SANINDUSA
100
AcDbLine
 10
4679.179540496932
 20
2533.024063708067
 30
0.0
 11
4679.190793675052
 21
2533.023775806457
 31
0.0
  0
ARC
  5
227C
330
1F
100
AcDbEntity
  8
SANINDUSA
100
AcDbCircle
 10
4679.190716876497
 20
2533.020776662925
 30
0.0
 40
0.0030001266550926
100
AcDbArc
 50
33.38671546153076
 51
88.53315732380291
  0
ARC
  5
227D
330
1F
100
AcDbEntity
  8
SANINDUSA
100
AcDbCircle
 10
4679.196561859445
 20
2533.024628669337
 30
0.0
 40
0.0040000004195532
100
AcDbArc
 50
213.3854524883853
 51
268.536408500731
  0
LINE
  5
227E
330
1F
100
AcDbEntity
  8
SANINDUSA
100
AcDbLine
 10
4679.239910256731
 20
2533.019381748319
 30
0.0
 11
4679.225207817422
 21
2533.019895167828
 31
0.0
  0
LINE
  5
227F
330
1F
100
AcDbEntity
  8
SANINDUSA
100
AcDbLine
 10
4679.250207793581
 20
2533.008338982046
 30
0.0
 11
4679.239910256731
 21
2533.019381748319
 31
0.0
  0
LINE
  5
2280
330
1F
100
AcDbEntity
  8
SANINDUSA
100
AcDbLine
 10
4679.35020778762
 20
2533.008338982046
 30
0.0
 11
4679.250207793581
 21
2533.008338982046
 31
0.0
  0
LINE
  5
2281
330
1F
100
AcDbEntity
  8
SANINDUSA
100
AcDbLine
 10
4679.36050532447
 20
2533.019381748319
 30
0.0
 11
4679.35020778762
 21
2533.008338982046
 31
0.0
  0
LINE
  5
2282
330
1F
100
AcDbEntity
  8
SANINDUSA
100
AcDbLine
 10
4679.375207823382
 20
2533.019895167828
 30
0.0
 11
4679.36050532447
 21
2533.019381748319
 31
0.0
  0
LINE
  5
228A
330
1F
100
AcDbEntity
  8
SANINDUSA
100
AcDbLine
 10
4679.239910256731
 20
2533.019381748319
 30
0.0
 11
4679.36050532447
 21
2533.019381748319
 31
0.0
  0
LINE
  5
2380
330
1F
100
AcDbEntity
  8
SANINDUSA
100
AcDbLine
 10
4678.802919749784
 20
2533.070286819518
 30
0.0
 11
4678.82150455253
 21
2533.070286819518
 31
0.0
  0
LINE
  5
2382
330
1F
100
AcDbEntity
  8
SANINDUSA
100
AcDbLine
 10
4679.418911081421
 20
2533.070286819518
 30
0.0
 11
4679.437495869266
 21
2533.070286819518
 31
0.0
  0
LINE
  5
2383
330
1F
100
AcDbEntity
  8
SANINDUSA
100
AcDbLine
 10
4678.82150455253
 20
2533.070286819518
 30
0.0
 11
4679.418911081421
 21
2533.070286819518
 31
0.0
  0
LINE
  5
2389
330
1F
100
AcDbEntity
  8
SANINDUSA
100
AcDbLine
 10
4678.773811856199
 20
2532.990286821306
 30
0.0
 11
4678.772812008539
 21
2532.990286821306
 31
0.0
  0
LINE
  5
238B
330
1F
100
AcDbEntity
  8
SANINDUSA
100
AcDbLine
 10
4679.467603605854
 20
2532.990286821306
 30
0.0
 11
4679.466603737938
 21
2532.990286821306
 31
0.0
  0
LINE
  5
238C
330
1F
100
AcDbEntity
  8
SANINDUSA
100
AcDbLine
 10
4679.466603737938
 20
2532.990286821306
 30
0.0
 11
4678.773811856199
 21
2532.990286821306
 31
0.0
  0
ARC
  5
2432
330
1F
100
AcDbEntity
  8
SANINDUSA
370
    15
100
AcDbCircle
 10
4679.368761977564
 20
2533.204380364293
 30
0.0
 40
0.184597897196445
100
AcDbArc
 50
272.0010686279614
 51
282.3949821254162
  0
ARC
  5
2433
330
1F
100
AcDbEntity
  8
SANINDUSA
370
    15
100
AcDbCircle
 10
4679.368761975746
 20
2533.204380385697
 30
0.0
 40
0.1885979186608876
100
AcDbArc
 50
272.001295549866
 51
282.3950014953457
  0
ARC
  5
2434
330
1F
100
AcDbEntity
  8
SANINDUSA
370
    15
100
AcDbCircle
 10
4679.404092553575
 20
2533.043618995104
 30
0.0
 40
0.0240000011955882
100
AcDbArc
 50
282.3959428684398
 51
348.0000008567632
  0
ARC
  5
2435
330
1F
100
AcDbEntity
  8
SANINDUSA
370
    15
100
AcDbCircle
 10
4679.40409255378
 20
2533.043618995121
 30
0.0
 40
0.0200000009989177
100
AcDbArc
 50
282.3959436710226
 51
348.0000008567632
  0
ENDSEC
  0
SECTION
  2
OBJECTS
  0
DICTIONARY
  5
C
330
0
100
AcDbDictionary
281
     1
  3
ACAD_COLOR
350
EE6
  3
ACAD_GROUP
350
D
  3
ACAD_LAYOUT
350
1A
  3
ACAD_MATERIAL
350
EE5
  3
ACAD_MLINESTYLE
350
17
  3
ACAD_PLOTSETTINGS
350
19
  3
ACAD_PLOTSTYLENAME
350
E
  3
ACAD_TABLESTYLE
350
EE7
  3
ACDBHEADERROUNDTRIPXREC
350
2743
  3
AcDbVariableDictionary
350
3D
  3
ASE_INDEX_DICTIONARY
350
2721
  0
DICTIONARY
  5
1051
330
2
100
AcDbDictionary
280
     1
281
     1
  3
ACAD_LAYERFILTERS
360
1057
  3
ACLYDICTIONARY
360
1056
  0
DICTIONARY
  5
EE6
102
{ACAD_REACTORS
330
C
102
}
330
C
100
AcDbDictionary
281
     1
  0
DICTIONARY
  5
D
102
{ACAD_REACTORS
330
C
102
}
330
C
100
AcDbDictionary
281
     1
  0
DICTIONARY
  5
1A
102
{ACAD_REACTORS
330
C
102
}
330
C
100
AcDbDictionary
281
     1
  3
Layout1
350
1E
  3
Layout2
350
26
  3
Model
350
22
  0
DICTIONARY
  5
EE5
102
{ACAD_REACTORS
330
C
102
}
330
C
100
AcDbDictionary
281
     1
  0
DICTIONARY
  5
17
102
{ACAD_REACTORS
330
C
102
}
330
C
100
AcDbDictionary
281
     1
  3
Standard
350
18
  0
DICTIONARY
  5
19
102
{ACAD_REACTORS
330
C
102
}
330
C
100
AcDbDictionary
281
     1
  0
ACDBDICTIONARYWDFLT
  5
E
102
{ACAD_REACTORS
330
C
102
}
330
C
100
AcDbDictionary
281
     1
  3
Normal
350
F
100
AcDbDictionaryWithDefault
340
F
  0
DICTIONARY
  5
EE7
102
{ACAD_REACTORS
330
C
102
}
330
C
100
AcDbDictionary
281
     1
  3
Standard
350
EE8
  0
DICTIONARY
  5
2743
102
{ACAD_REACTORS
330
C
102
}
330
C
100
AcDbDictionary
281
     1
  0
DICTIONARY
  5
3D
102
{ACAD_REACTORS
330
C
102
}
330
C
100
AcDbDictionary
281
     1
  3
CTABLESTYLE
350
1049
  3
DIMASSOC
350
3F
  3
HIDETEXT
350
3E
  3
PROJECTNAME
350
273B
  0
DICTIONARY
  5
2721
102
{ACAD_REACTORS
330
C
102
}
330
C
100
AcDbDictionary
281
     1
  3
ASEBlockHierarchyIndexRecord
350
2722
1001
DCO15
1040
1598600681.031
  0
DICTIONARY
  5
1057
102
{ACAD_REACTORS
330
1051
102
}
330
1051
100
AcDbDictionary
281
     1
  0
DICTIONARY
  5
1056
102
{ACAD_REACTORS
330
1051
102
}
330
1051
100
AcDbDictionary
281
     1
1001
ACAD
1000
<All
  0
LAYOUT
  5
1E
102
{ACAD_XDICTIONARY
360
2744
102
}
102
{ACAD_REACTORS
330
1A
102
}
330
1A
100
AcDbPlotSettings
  1

  2
Ploter HP500
  4

  6

 40
0.0
 41
0.0
 42
0.0
 43
0.0
 44
0.0
 45
0.0
 46
0.0
 47
0.0
 48
0.0
 49
0.0
140
0.0
141
0.0
142
1.0
143
1.0
 70
   688
 72
     0
 73
     0
 74
     5
  7
sanindusa.ctb
 75
    16
147
1.0
148
0.0
149
0.0
100
AcDbLayout
  1
Layout1
 70
     1
 71
     1
 10
0.0
 20
0.0
 11
420.0
 21
297.0
 12
0.0
 22
0.0
 32
0.0
 14
1.000000000000000E+20
 24
1.000000000000000E+20
 34
1.000000000000000E+20
 15
-1.000000000000000E+20
 25
-1.000000000000000E+20
 35
-1.000000000000000E+20
146
0.0
 13
0.0
 23
0.0
 33
0.0
 16
1.0
 26
0.0
 36
0.0
 17
0.0
 27
1.0
 37
0.0
 76
     0
330
1B
  0
LAYOUT
  5
26
102
{ACAD_XDICTIONARY
360
2748
102
}
102
{ACAD_REACTORS
330
1A
102
}
330
1A
100
AcDbPlotSettings
  1

  2
Ploter HP500
  4

  6

 40
0.0
 41
0.0
 42
0.0
 43
0.0
 44
0.0
 45
0.0
 46
0.0
 47
0.0
 48
0.0
 49
0.0
140
0.0
141
0.0
142
1.0
143
1.0
 70
   688
 72
     0
 73
     0
 74
     5
  7
sanindusa.ctb
 75
    16
147
1.0
148
0.0
149
0.0
100
AcDbLayout
  1
Layout2
 70
     1
 71
     2
 10
0.0
 20
0.0
 11
12.0
 21
9.0
 12
0.0
 22
0.0
 32
0.0
 14
0.0
 24
0.0
 34
0.0
 15
0.0
 25
0.0
 35
0.0
146
0.0
 13
0.0
 23
0.0
 33
0.0
 16
1.0
 26
0.0
 36
0.0
 17
0.0
 27
1.0
 37
0.0
 76
     0
330
23
  0
LAYOUT
  5
22
102
{ACAD_XDICTIONARY
360
2746
102
}
102
{ACAD_REACTORS
330
1A
102
}
330
1A
100
AcDbPlotSettings
  1

  2
Ploter HP500
  4
User268
  6

 40
4.995333194732666
 41
16.97565841674804
 42
4.995330810546875
 43
16.97567749023437
 44
209.9733276367187
 45
296.9259948730469
 46
0.0
 47
0.0
 48
0.0
 49
0.0
140
0.0
141
0.0
142
1.0
143
1.0
 70
 11952
 72
     1
 73
     1
 74
     0
  7
sanindusa.ctb
 75
     0
147
1.0
148
-427.5957866592534
149
7.362384574453926
100
AcDbLayout
  1
Model
 70
     1
 71
     0
 10
0.0
 20
0.0
 11
12.0
 21
9.0
 12
0.0
 22
0.0
 32
0.0
 14
0.0
 24
0.0
 34
0.0
 15
0.0
 25
0.0
 35
0.0
146
0.0
 13
0.0
 23
0.0
 33
0.0
 16
1.0
 26
0.0
 36
0.0
 17
0.0
 27
1.0
 37
0.0
 76
     0
330
1F
  0
MLINESTYLE
  5
18
102
{ACAD_REACTORS
330
17
102
}
330
17
100
AcDbMlineStyle
  2
STANDARD
 70
     0
  3

 62
   256
 51
90.0
 52
90.0
 71
     2
 49
0.5
 62
   256
  6
BYLAYER
 49
-0.5
 62
   256
  6
BYLAYER
  0
ACDBPLACEHOLDER
  5
F
102
{ACAD_REACTORS
330
E
102
}
330
E
  0
TABLESTYLE
  5
EE8
102
{ACAD_REACTORS
330
EE7
102
}
330
EE7
100
AcDbTableStyle
  3
Standard
 70
     0
 71
     0
 40
1.5
 41
1.5
280
     0
281
     0
  7
Standard
140
4.5
170
     2
 62
     0
 63
     7
283
     0
274
    -2
284
     1
 64
     0
275
    -2
285
     1
 65
     0
276
    -2
286
     1
 66
     0
277
    -2
287
     1
 67
     0
278
    -2
288
     1
 68
     0
279
    -2
289
     1
 69
     0
  7
Standard
140
6.0
170
     5
 62
     0
 63
     7
283
     0
274
    -2
284
     1
 64
     0
275
    -2
285
     1
 65
     0
276
    -2
286
     1
 66
     0
277
    -2
287
     1
 67
     0
278
    -2
288
     1
 68
     0
279
    -2
289
     1
 69
     0
  7
Standard
140
4.5
170
     5
 62
     0
 63
     7
283
     0
274
    -2
284
     1
 64
     0
275
    -2
285
     1
 65
     0
276
    -2
286
     1
 66
     0
277
    -2
287
     1
 67
     0
278
    -2
288
     1
 68
     0
279
    -2
289
     1
 69
     0
  0
DICTIONARYVAR
  5
1049
102
{ACAD_REACTORS
330
3D
102
}
330
3D
100
DictionaryVariables
280
     0
  1
STANDARD
  0
DICTIONARYVAR
  5
3F
102
{ACAD_REACTORS
330
3D
102
}
330
3D
100
DictionaryVariables
280
     0
  1
2
  0
DICTIONARYVAR
  5
3E
102
{ACAD_REACTORS
330
3D
102
}
330
3D
100
DictionaryVariables
280
     0
  1
1
  0
DICTIONARYVAR
  5
273B
102
{ACAD_REACTORS
330
3D
102
}
330
3D
100
DictionaryVariables
280
     0
  1

  0
XRECORD
  5
2722
102
{ACAD_REACTORS
330
2721
102
}
330
2721
100
AcDbXrecord
280
     1
  0
DICTIONARY
  5
2744
330
1E
100
AcDbDictionary
280
     1
281
     1
  3
ACAD_XREC_ROUNDTRIP
360
2745
  0
DICTIONARY
  5
2748
330
26
100
AcDbDictionary
280
     1
281
     1
  3
ACAD_XREC_ROUNDTRIP
360
2749
  0
DICTIONARY
  5
2746
330
22
100
AcDbDictionary
280
     1
281
     1
  3
ACAD_XREC_ROUNDTRIP
360
2747
  0
XRECORD
  5
2745
102
{ACAD_REACTORS
330
2744
102
}
330
2744
100
AcDbXrecord
280
     1
102
SHADEPLOT
 70
     0
102
SHADEPLOTRESLEVEL
 70
     2
102
SHADEPLOTCUSTOMDPI
 70
   300
  0
XRECORD
  5
2749
102
{ACAD_REACTORS
330
2748
102
}
330
2748
100
AcDbXrecord
280
     1
102
SHADEPLOT
 70
     0
102
SHADEPLOTRESLEVEL
 70
     2
102
SHADEPLOTCUSTOMDPI
 70
   300
  0
XRECORD
  5
2747
102
{ACAD_REACTORS
330
2746
102
}
330
2746
100
AcDbXrecord
280
     1
102
SHADEPLOT
 70
     0
102
SHADEPLOTRESLEVEL
 70
     2
102
SHADEPLOTCUSTOMDPI
 70
   300
  0
ENDSEC
  0
EOF
