  0
SECTION
  2
HEADER
  9
$ACADVER
  1
AC1015
  9
$ACADMAINTVER
 70
    20
  9
$DWGCODEPAGE
  3
ANSI_1252
  9
$INSBASE
 10
0.0
 20
0.0
 30
0.0
  9
$EXTMIN
 10
4757.060026609282
 20
2645.922557754909
 30
0.0
  9
$EXTMAX
 10
4760.391639612989
 20
2646.623954160103
 30
0.0
  9
$LIMMIN
 10
0.0
 20
0.0
  9
$LIMMAX
 10
420.0
 20
297.0
  9
$ORTHOMODE
 70
     0
  9
$REGENMODE
 70
     1
  9
$FILLMODE
 70
     1
  9
$QTEXTMODE
 70
     0
  9
$MIRRTEXT
 70
     1
  9
$LTSCALE
 40
1.0
  9
$ATTMODE
 70
     1
  9
$TEXTSIZE
 40
2.5
  9
$TRACEWID
 40
1.0
  9
$TEXTSTYLE
  7
SANINDUSA
  9
$CLAYER
  8
0
  9
$CELTYPE
  6
ByLayer
  9
$CECOLOR
 62
   256
  9
$CELTSCALE
 40
1.0
  9
$DISPSILH
 70
     0
  9
$DIMSCALE
 40
1.0
  9
$DIMASZ
 40
2.0
  9
$DIMEXO
 40
1.0
  9
$DIMDLI
 40
1.0
  9
$DIMRND
 40
0.0
  9
$DIMDLE
 40
0.0
  9
$DIMEXE
 40
1.0
  9
$DIMTP
 40
0.0
  9
$DIMTM
 40
0.0
  9
$DIMTXT
 40
2.0
  9
$DIMCEN
 40
0.0
  9
$DIMTSZ
 40
0.0
  9
$DIMTOL
 70
     0
  9
$DIMLIM
 70
     0
  9
$DIMTIH
 70
     0
  9
$DIMTOH
 70
     0
  9
$DIMSE1
 70
     0
  9
$DIMSE2
 70
     0
  9
$DIMTAD
 70
     1
  9
$DIMZIN
 70
     8
  9
$DIMBLK
  1

  9
$DIMASO
 70
     1
  9
$DIMSHO
 70
     1
  9
$DIMPOST
  1

  9
$DIMAPOST
  1

  9
$DIMALT
 70
     0
  9
$DIMALTD
 70
     3
  9
$DIMALTF
 40
0.03937007874016
  9
$DIMLFAC
 40
1.0
  9
$DIMTOFL
 70
     1
  9
$DIMTVP
 40
0.0
  9
$DIMTIX
 70
     0
  9
$DIMSOXD
 70
     0
  9
$DIMSAH
 70
     0
  9
$DIMBLK1
  1

  9
$DIMBLK2
  1

  9
$DIMSTYLE
  2
SANINDUSA
  9
$DIMCLRD
 70
   256
  9
$DIMCLRE
 70
   256
  9
$DIMCLRT
 70
   256
  9
$DIMTFAC
 40
1.0
  9
$DIMGAP
 40
1.0
  9
$DIMJUST
 70
     0
  9
$DIMSD1
 70
     0
  9
$DIMSD2
 70
     0
  9
$DIMTOLJ
 70
     0
  9
$DIMTZIN
 70
     8
  9
$DIMALTZ
 70
     0
  9
$DIMALTTZ
 70
     0
  9
$DIMUPT
 70
     0
  9
$DIMDEC
 70
     1
  9
$DIMTDEC
 70
     1
  9
$DIMALTU
 70
     2
  9
$DIMALTTD
 70
     3
  9
$DIMTXSTY
  7
SANINDUSA
  9
$DIMAUNIT
 70
     0
  9
$DIMADEC
 70
     1
  9
$DIMALTRND
 40
0.0
  9
$DIMAZIN
 70
     0
  9
$DIMDSEP
 70
    44
  9
$DIMATFIT
 70
     3
  9
$DIMFRAC
 70
     0
  9
$DIMLDRBLK
  1

  9
$DIMLUNIT
 70
     2
  9
$DIMLWD
 70
    -1
  9
$DIMLWE
 70
    -1
  9
$DIMTMOVE
 70
     0
  9
$LUNITS
 70
     2
  9
$LUPREC
 70
     4
  9
$SKETCHINC
 40
1.0
  9
$FILLETRAD
 40
3.0
  9
$AUNITS
 70
     0
  9
$AUPREC
 70
     0
  9
$MENU
  1
.
  9
$ELEVATION
 40
0.0
  9
$PELEVATION
 40
0.0
  9
$THICKNESS
 40
0.0
  9
$LIMCHECK
 70
     0
  9
$CHAMFERA
 40
10.0
  9
$CHAMFERB
 40
10.0
  9
$CHAMFERC
 40
20.0
  9
$CHAMFERD
 40
0.0
  9
$SKPOLY
 70
     0
  9
$TDCREATE
 40
2454305.475030555
  9
$TDUCREATE
 40
2454305.475030555
  9
$TDUPDATE
 40
2454478.640641447
  9
$TDUUPDATE
 40
2454478.640641447
  9
$TDINDWG
 40
0.0052437847
  9
$TDUSRTIMER
 40
0.0052437847
  9
$USRTIMER
 70
     1
  9
$ANGBASE
 50
0.0
  9
$ANGDIR
 70
     0
  9
$PDMODE
 70
     0
  9
$PDSIZE
 40
0.0
  9
$PLINEWID
 40
0.0
  9
$SPLFRAME
 70
     0
  9
$SPLINETYPE
 70
     6
  9
$SPLINESEGS
 70
     8
  9
$HANDSEED
  5
2963
  9
$SURFTAB1
 70
     6
  9
$SURFTAB2
 70
     6
  9
$SURFTYPE
 70
     6
  9
$SURFU
 70
     6
  9
$SURFV
 70
     6
  9
$UCSBASE
  2

  9
$UCSNAME
  2

  9
$UCSORG
 10
0.0
 20
0.0
 30
0.0
  9
$UCSXDIR
 10
1.0
 20
0.0
 30
0.0
  9
$UCSYDIR
 10
0.0
 20
1.0
 30
0.0
  9
$UCSORTHOREF
  2

  9
$UCSORTHOVIEW
 70
     0
  9
$UCSORGTOP
 10
0.0
 20
0.0
 30
0.0
  9
$UCSORGBOTTOM
 10
0.0
 20
0.0
 30
0.0
  9
$UCSORGLEFT
 10
0.0
 20
0.0
 30
0.0
  9
$UCSORGRIGHT
 10
0.0
 20
0.0
 30
0.0
  9
$UCSORGFRONT
 10
0.0
 20
0.0
 30
0.0
  9
$UCSORGBACK
 10
0.0
 20
0.0
 30
0.0
  9
$PUCSBASE
  2

  9
$PUCSNAME
  2

  9
$PUCSORG
 10
0.0
 20
0.0
 30
0.0
  9
$PUCSXDIR
 10
1.0
 20
0.0
 30
0.0
  9
$PUCSYDIR
 10
0.0
 20
1.0
 30
0.0
  9
$PUCSORTHOREF
  2

  9
$PUCSORTHOVIEW
 70
     0
  9
$PUCSORGTOP
 10
0.0
 20
0.0
 30
0.0
  9
$PUCSORGBOTTOM
 10
0.0
 20
0.0
 30
0.0
  9
$PUCSORGLEFT
 10
0.0
 20
0.0
 30
0.0
  9
$PUCSORGRIGHT
 10
0.0
 20
0.0
 30
0.0
  9
$PUCSORGFRONT
 10
0.0
 20
0.0
 30
0.0
  9
$PUCSORGBACK
 10
0.0
 20
0.0
 30
0.0
  9
$USERI1
 70
     0
  9
$USERI2
 70
     0
  9
$USERI3
 70
     0
  9
$USERI4
 70
     0
  9
$USERI5
 70
     0
  9
$USERR1
 40
0.0
  9
$USERR2
 40
0.0
  9
$USERR3
 40
0.0
  9
$USERR4
 40
0.0
  9
$USERR5
 40
0.0
  9
$WORLDVIEW
 70
     1
  9
$SHADEDGE
 70
     3
  9
$SHADEDIF
 70
    70
  9
$TILEMODE
 70
     1
  9
$MAXACTVP
 70
    64
  9
$PINSBASE
 10
0.0
 20
0.0
 30
0.0
  9
$PLIMCHECK
 70
     0
  9
$PEXTMIN
 10
1.000000000000000E+20
 20
1.000000000000000E+20
 30
1.000000000000000E+20
  9
$PEXTMAX
 10
-1.000000000000000E+20
 20
-1.000000000000000E+20
 30
-1.000000000000000E+20
  9
$PLIMMIN
 10
0.0
 20
0.0
  9
$PLIMMAX
 10
420.0
 20
297.0
  9
$UNITMODE
 70
     0
  9
$VISRETAIN
 70
     1
  9
$PLINEGEN
 70
     0
  9
$PSLTSCALE
 70
     1
  9
$TREEDEPTH
 70
  3020
  9
$CMLSTYLE
  2
Standard
  9
$CMLJUST
 70
     0
  9
$CMLSCALE
 40
20.0
  9
$PROXYGRAPHICS
 70
     1
  9
$MEASUREMENT
 70
     1
  9
$CELWEIGHT
370
    -1
  9
$ENDCAPS
280
     0
  9
$JOINSTYLE
280
     0
  9
$LWDISPLAY
290
     0
  9
$INSUNITS
 70
     4
  9
$HYPERLINKBASE
  1

  9
$STYLESHEET
  1
sanindusa.ctb
  9
$XEDIT
290
     1
  9
$CEPSNTYPE
380
     0
  9
$PSTYLEMODE
290
     1
  9
$FINGERPRINTGUID
  2
{4D89809B-73B1-458F-B998-BEFF334D4A14}
  9
$VERSIONGUID
  2
{2893592F-89C9-44B8-92EB-8175454187CF}
  9
$EXTNAMES
290
     1
  9
$PSVPSCALE
 40
0.0
  9
$OLESTARTUP
290
     0
  0
ENDSEC
  0
SECTION
  2
CLASSES
  0
CLASS
  1
ACDBDICTIONARYWDFLT
  2
AcDbDictionaryWithDefault
  3
ObjectDBX Classes
 90
        0
280
     0
281
     0
  0
CLASS
  1
ACDBPLACEHOLDER
  2
AcDbPlaceHolder
  3
ObjectDBX Classes
 90
        0
280
     0
281
     0
  0
CLASS
  1
LAYOUT
  2
AcDbLayout
  3
ObjectDBX Classes
 90
        0
280
     0
281
     0
  0
CLASS
  1
DICTIONARYVAR
  2
AcDbDictionaryVar
  3
ObjectDBX Classes
 90
        0
280
     0
281
     0
  0
CLASS
  1
DIMASSOC
  2
AcDbDimAssoc
  3
"AcDbDimAssoc|Product Desc:     AcDim ARX App For Dimension|Company:          Autodesk, Inc.|WEB Address:      www.autodesk.com"
 90
    32768
280
     0
281
     0
  0
CLASS
  1
TABLESTYLE
  2
AcDbTableStyle
  3
ObjectDBX Classes
 90
     2047
280
     0
281
     0
  0
CLASS
  1
SORTENTSTABLE
  2
AcDbSortentsTable
  3
ObjectDBX Classes
 90
    32768
280
     0
281
     0
  0
ENDSEC
  0
SECTION
  2
TABLES
  0
TABLE
  2
VPORT
  5
8
330
0
100
AcDbSymbolTable
 70
     2
  0
VPORT
  5
295B
330
8
100
AcDbSymbolTableRecord
100
AcDbViewportTableRecord
  2
*Active
 70
     0
 10
0.0
 20
0.0
 11
1.0
 21
1.0
 12
4758.725833111136
 22
2646.281733189354
 13
0.0
 23
0.0
 14
10.0
 24
10.0
 15
10.0
 25
10.0
 16
0.0
 26
0.0
 36
1.0
 17
0.0
 27
0.0
 37
0.0
 40
2.117188653933005
 41
1.579579579579579
 42
50.0
 43
0.0
 44
0.0
 50
0.0
 51
0.0
 71
     0
 72
   100
 73
     1
 74
     2
 75
     0
 76
     0
 77
     0
 78
     0
281
     0
 65
     1
110
0.0
120
0.0
130
0.0
111
1.0
121
0.0
131
0.0
112
0.0
122
1.0
132
0.0
 79
     0
146
0.0
  0
ENDTAB
  0
TABLE
  2
LTYPE
  5
5
330
0
100
AcDbSymbolTable
 70
     5
  0
LTYPE
  5
14
330
5
100
AcDbSymbolTableRecord
100
AcDbLinetypeTableRecord
  2
ByBlock
 70
     0
  3

 72
    65
 73
     0
 40
0.0
  0
LTYPE
  5
15
330
5
100
AcDbSymbolTableRecord
100
AcDbLinetypeTableRecord
  2
ByLayer
 70
     0
  3

 72
    65
 73
     0
 40
0.0
  0
LTYPE
  5
16
330
5
100
AcDbSymbolTableRecord
100
AcDbLinetypeTableRecord
  2
Continuous
 70
     0
  3
Solid line
 72
    65
 73
     0
 40
0.0
  0
LTYPE
  5
2D
330
5
100
AcDbSymbolTableRecord
100
AcDbLinetypeTableRecord
  2
DASHDOT
 70
     0
  3
Dash dot __ . __ . __ . __ . __ . __ . __ . __
 72
    65
 73
     4
 40
25.4
 49
12.7
 74
     0
 49
-6.349999999999999
 74
     0
 49
0.0
 74
     0
 49
-6.349999999999999
 74
     0
  0
LTYPE
  5
2E
330
5
100
AcDbSymbolTableRecord
100
AcDbLinetypeTableRecord
  2
HIDDEN
 70
     0
  3
Hidden __ __ __ __ __ __ __ __ __ __ __ __ __ _
 72
    65
 73
     2
 40
9.524999999999998
 49
6.349999999999999
 74
     0
 49
-3.174999999999999
 74
     0
  0
LTYPE
  5
C75
330
5
100
AcDbSymbolTableRecord
100
AcDbLinetypeTableRecord
  2
AM_ISO02W050
 70
     0
  3
__ __ __ __ __ __ __ __ __ __ __ __ __ __ __
 72
    65
 73
     2
 40
7.5
 49
6.0
 74
     0
 49
-1.5
 74
     0
  0
LTYPE
  5
C76
330
5
100
AcDbSymbolTableRecord
100
AcDbLinetypeTableRecord
  2
AM_ISO08W050
 70
     0
  3
____ . ____ . ____ . ____ . ____ . ____ . ____
 72
    65
 73
     4
 40
18.0
 49
12.0
 74
     0
 49
-1.5
 74
     0
 49
3.0
 74
     0
 49
-1.5
 74
     0
  0
ENDTAB
  0
TABLE
  2
LAYER
  5
2
102
{ACAD_XDICTIONARY
360
1051
102
}
330
0
100
AcDbSymbolTable
 70
    16
  0
LAYER
  5
10
330
2
100
AcDbSymbolTableRecord
100
AcDbLayerTableRecord
  2
0
 70
     0
 62
     7
  6
Continuous
370
    -3
390
F
  0
LAYER
  5
2F
330
2
100
AcDbSymbolTableRecord
100
AcDbLayerTableRecord
  2
1
 70
     0
 62
     1
  6
Continuous
370
    -3
390
F
  0
LAYER
  5
30
330
2
100
AcDbSymbolTableRecord
100
AcDbLayerTableRecord
  2
2
 70
     0
 62
     2
  6
Continuous
370
    -3
390
F
  0
LAYER
  5
31
330
2
100
AcDbSymbolTableRecord
100
AcDbLayerTableRecord
  2
3
 70
     0
 62
     3
  6
Continuous
370
    -3
390
F
  0
LAYER
  5
32
330
2
100
AcDbSymbolTableRecord
100
AcDbLayerTableRecord
  2
4
 70
     0
 62
     4
  6
Continuous
370
    -3
390
F
  0
LAYER
  5
33
330
2
100
AcDbSymbolTableRecord
100
AcDbLayerTableRecord
  2
5
 70
     0
 62
     5
  6
Continuous
370
    -3
390
F
  0
LAYER
  5
34
330
2
100
AcDbSymbolTableRecord
100
AcDbLayerTableRecord
  2
6
 70
     0
 62
     6
  6
Continuous
370
    -3
390
F
  0
LAYER
  5
35
330
2
100
AcDbSymbolTableRecord
100
AcDbLayerTableRecord
  2
7
 70
     0
 62
     7
  6
Continuous
370
    -3
390
F
  0
LAYER
  5
36
330
2
100
AcDbSymbolTableRecord
100
AcDbLayerTableRecord
  2
cen
 70
     0
 62
     7
  6
DASHDOT
370
    -3
390
F
  0
LAYER
  5
37
330
2
100
AcDbSymbolTableRecord
100
AcDbLayerTableRecord
  2
hid
 70
     0
 62
     7
  6
HIDDEN
370
    -3
390
F
  0
LAYER
  5
5D6
330
2
100
AcDbSymbolTableRecord
100
AcDbLayerTableRecord
  2
hatch
 70
     0
 62
     9
  6
Continuous
370
    -3
390
F
  0
LAYER
  5
8AF
330
2
100
AcDbSymbolTableRecord
100
AcDbLayerTableRecord
  2
9
 70
     0
 62
     9
  6
Continuous
370
    -3
390
F
  0
LAYER
  5
8F8
330
2
100
AcDbSymbolTableRecord
100
AcDbLayerTableRecord
  2
leg fin
 70
     0
 62
     9
  6
Continuous
370
    -3
390
F
  0
LAYER
  5
91D
330
2
100
AcDbSymbolTableRecord
100
AcDbLayerTableRecord
  2
cotas
 70
     0
 62
     1
  6
Continuous
370
    -3
390
F
  0
LAYER
  5
92F
330
2
100
AcDbSymbolTableRecord
100
AcDbLayerTableRecord
  2
Defpoints
 70
     0
 62
     7
  6
Continuous
290
     0
370
    -3
390
F
  0
LAYER
  5
C7B
330
2
100
AcDbSymbolTableRecord
100
AcDbLayerTableRecord
  2
SANINDUSA
 70
     0
 62
     3
  6
Continuous
370
    -3
390
F
  0
ENDTAB
  0
TABLE
  2
STYLE
  5
3
330
0
100
AcDbSymbolTable
 70
     4
  0
STYLE
  5
11
330
3
100
AcDbSymbolTableRecord
100
AcDbTextStyleTableRecord
  2
Standard
 70
     0
 40
0.0
 41
1.0
 50
0.0
 71
     0
 42
2.5
  3
Avgardn.ttf
  4

1001
ACAD
1000
AvantGarde Bk BT
1071
       34
  0
STYLE
  5
2C
330
3
100
AcDbSymbolTableRecord
100
AcDbTextStyleTableRecord
  2

 70
     1
 40
0.0
 41
1.0
 50
0.0
 71
     0
 42
2.5
  3
ltypeshp.shx
  4

  0
STYLE
  5
91F
330
3
100
AcDbSymbolTableRecord
100
AcDbTextStyleTableRecord
  2
SANINDUSA
 70
     0
 40
0.0
 41
1.0
 50
0.0
 71
     0
 42
2.5
  3
verdana.TTF
  4

1001
ACAD
1000
Verdana
1071
       34
  0
STYLE
  5
C7C
330
3
100
AcDbSymbolTableRecord
100
AcDbTextStyleTableRecord
  2
futura
 70
     0
 40
0.0
 41
1.0
 50
0.0
 71
     0
 42
2.5
  3
ZURCHN.TTF
  4

1001
ACAD
1000
Zurich BT
1071
       34
  0
ENDTAB
  0
TABLE
  2
VIEW
  5
6
330
0
100
AcDbSymbolTable
 70
     0
  0
ENDTAB
  0
TABLE
  2
UCS
  5
7
330
0
100
AcDbSymbolTable
 70
     0
  0
ENDTAB
  0
TABLE
  2
APPID
  5
9
330
0
100
AcDbSymbolTable
 70
    11
  0
APPID
  5
12
330
9
100
AcDbSymbolTableRecord
100
AcDbRegAppTableRecord
  2
ACAD
 70
     0
  0
APPID
  5
3A
330
9
100
AcDbSymbolTableRecord
100
AcDbRegAppTableRecord
  2
DCO15
 70
     0
  0
APPID
  5
EEE
330
9
100
AcDbSymbolTableRecord
100
AcDbRegAppTableRecord
  2
ACAD_DSTYLE_DIMTEXT_FILL
 70
     0
  0
APPID
  5
EEF
330
9
100
AcDbSymbolTableRecord
100
AcDbRegAppTableRecord
  2
ACAD_DSTYLE_DIMEXT_LENGTH
 70
     0
  0
APPID
  5
EF0
330
9
100
AcDbSymbolTableRecord
100
AcDbRegAppTableRecord
  2
ACAD_DSTYLE_DIMEXT_ENABLED
 70
     0
  0
APPID
  5
EF1
330
9
100
AcDbSymbolTableRecord
100
AcDbRegAppTableRecord
  2
ACAD_DSTYLE_DIM_LINETYPE
 70
     0
  0
APPID
  5
EF2
330
9
100
AcDbSymbolTableRecord
100
AcDbRegAppTableRecord
  2
ACAD_DSTYLE_DIM_EXT1_LINETYPE
 70
     0
  0
APPID
  5
EF3
330
9
100
AcDbSymbolTableRecord
100
AcDbRegAppTableRecord
  2
ACAD_DSTYLE_DIM_EXT2_LINETYPE
 70
     0
  0
APPID
  5
FAF
330
9
100
AcDbSymbolTableRecord
100
AcDbRegAppTableRecord
  2
ACAD_DSTYLE_DIMJOGGED_JOGANGLE_SYMBOL
 70
     0
  0
APPID
  5
1013
330
9
100
AcDbSymbolTableRecord
100
AcDbRegAppTableRecord
  2
ACAD_DSTYLE_DIMARC_LENGTH_SYMBOL
 70
     0
  0
APPID
  5
1338
330
9
100
AcDbSymbolTableRecord
100
AcDbRegAppTableRecord
  2
ACAD_PSEXT
 70
     0
  0
ENDTAB
  0
TABLE
  2
DIMSTYLE
  5
A
330
0
100
AcDbSymbolTable
 70
     3
100
AcDbDimStyleTable
 71
     1
340
921
  0
DIMSTYLE
105
45
330
A
100
AcDbSymbolTableRecord
100
AcDbDimStyleTableRecord
  2
STANDARD
 70
     0
289
     0
340
11
  0
DIMSTYLE
105
921
330
A
100
AcDbSymbolTableRecord
100
AcDbDimStyleTableRecord
  2
SANINDUSA
 70
     0
 41
2.0
 42
1.0
 43
1.0
 44
1.0
 73
     0
 74
     0
 77
     1
 78
     8
140
2.0
141
0.0
143
0.03937007874016
147
1.0
171
     3
172
     1
176
   256
177
   256
178
   256
179
     1
271
     1
272
     1
274
     3
278
    44
283
     0
284
     8
340
91F
371
    -1
372
    -1
1001
ACAD_DSTYLE_DIMEXT_LENGTH
1070
   378
1040
1.0
1001
ACAD_DSTYLE_DIMEXT_ENABLED
1070
   383
1070
     0
1001
ACAD_DSTYLE_DIMARC_LENGTH_SYMBOL
1070
   379
1070
     0
1001
ACAD_DSTYLE_DIMJOGGED_JOGANGLE_SYMBOL
1070
   384
1040
1.570796326794896
  0
DIMSTYLE
105
C7D
330
A
100
AcDbSymbolTableRecord
100
AcDbDimStyleTableRecord
  2
AM_ISO
 70
     0
  4
"
 41
2.5
 42
1.0
 43
10.0
 44
1.0
 47
0.1
 48
0.1
 73
     0
 74
     0
 77
     1
 78
     8
 79
     2
140
3.5
141
0.0
143
0.0393701
146
0.71
147
1.5
172
     1
176
   256
177
   256
178
     2
271
     2
272
     3
274
     4
283
     0
284
     8
340
11
371
    -1
372
    -1
  0
ENDTAB
  0
TABLE
  2
BLOCK_RECORD
  5
1
330
0
100
AcDbSymbolTable
 70
     7
  0
BLOCK_RECORD
  5
1F
330
1
100
AcDbSymbolTableRecord
100
AcDbBlockTableRecord
  2
*Model_Space
340
22
  0
BLOCK_RECORD
  5
1B
330
1
100
AcDbSymbolTableRecord
100
AcDbBlockTableRecord
  2
*Paper_Space
340
1E
  0
BLOCK_RECORD
  5
23
330
1
100
AcDbSymbolTableRecord
100
AcDbBlockTableRecord
  2
*Paper_Space0
340
26
  0
BLOCK_RECORD
  5
919
330
1
100
AcDbSymbolTableRecord
100
AcDbBlockTableRecord
  2
_DotSmall
340
0
  0
BLOCK_RECORD
  5
922
330
1
100
AcDbSymbolTableRecord
100
AcDbBlockTableRecord
  2
base para cotas
340
0
310
2800000020000000200000000100080000000000000400000000000000000000000000000000000000000000000080000080000000808000800000008000800080800000C0C0C000C0DCC000F0CAA6000020400000206000002080000020A0000020C0000020E00000400000004020000040400000406000004080000040A0
310
000040C0000040E00000600000006020000060400000606000006080000060A0000060C0000060E00000800000008020000080400000806000008080000080A0000080C0000080E00000A0000000A0200000A0400000A0600000A0800000A0A00000A0C00000A0E00000C0000000C0200000C0400000C0600000C0800000C0
310
A00000C0C00000C0E00000E0000000E0200000E0400000E0600000E0800000E0A00000E0C00000E0E00040000000400020004000400040006000400080004000A0004000C0004000E00040200000402020004020400040206000402080004020A0004020C0004020E000404000004040200040404000404060004040800040
310
40A0004040C0004040E00040600000406020004060400040606000406080004060A0004060C0004060E00040800000408020004080400040806000408080004080A0004080C0004080E00040A0000040A0200040A0400040A0600040A0800040A0A00040A0C00040A0E00040C0000040C0200040C0400040C0600040C08000
310
40C0A00040C0C00040C0E00040E0000040E0200040E0400040E0600040E0800040E0A00040E0C00040E0E00080000000800020008000400080006000800080008000A0008000C0008000E00080200000802020008020400080206000802080008020A0008020C0008020E00080400000804020008040400080406000804080
310
008040A0008040C0008040E00080600000806020008060400080606000806080008060A0008060C0008060E00080800000808020008080400080806000808080008080A0008080C0008080E00080A0000080A0200080A0400080A0600080A0800080A0A00080A0C00080A0E00080C0000080C0200080C0400080C0600080C0
310
800080C0A00080C0C00080C0E00080E0000080E0200080E0400080E0600080E0800080E0A00080E0C00080E0E000C0000000C0002000C0004000C0006000C0008000C000A000C000C000C000E000C0200000C0202000C0204000C0206000C0208000C020A000C020C000C020E000C0400000C0402000C0404000C0406000C0
310
408000C040A000C040C000C040E000C0600000C0602000C0604000C0606000C0608000C060A000C060C000C060E000C0800000C0802000C0804000C0806000C0808000C080A000C080C000C080E000C0A00000C0A02000C0A04000C0A06000C0A08000C0A0A000C0A0C000C0A0E000C0C00000C0C02000C0C04000C0C06000
310
C0C08000C0C0A000F0FBFF00A4A0A000808080000000FF0000FF000000FFFF00FF000000FF00FF00FFFF0000FFFFFF00A4A4A4A4A4A4A4A4A4A4A4A4A4A4A4A4A4A4A4A4A4A4A4A4A4A4A4A4A4A4A4A4A4A4A4A4A4A4A4A4A4A4A4A4A4A4A4A4A4A4A4A4A4A4A4A4A4A4A4A4A4A4A4A4A4A4A4A4A4A4A4A4A4A4A4A4A4A4A4
310
A4A4A4A4A4A4A4A4A4A4A4A4A4A4A4A4A4A4A4A4A4A4A4A4A4A4A4A4A4A4A4A4A4A4A4A4A4A4A4A4A4A4A4A4A4A4A4A4A4A4A4A4A4A4A4A4A4A4A4A4A4A4A4A4A4A4A4A4A4A4A4A4A4A4A4A4A4A4A4A4A4A4A4A4A4A4A4A4A4A4A4A4A4A4A4A4A4A4A4A4A4A4A4A4A4A4A4A4A4A4A4A4A4A4A4A4A4A4A4A4A4A4A4A4A4A4A4
310
A4A4A4A4A4A4A4A4A4A4A4A4A4A4A4A4A4A4A4A4A4A4A4A4A4A4A4A4A4A4A4A4A4A4A4A4A4A4A4A4A4A4A4A4A4A4A4A4A4A4A4A4A4A4A4A4A4A4A4A4A4A4A4A4A4A4A4A4A4A4A4A4A4A4A4A4A4A4A4A4A4A4A4A4A4A4A4A4A4A4A4A4A4A4A4A4A4A4A4A4A4A4A4A4A4A4A4A4A4A4A4A4A4A4A4A4A4A4A4A4A4A4A4A4A4A4A4
310
A4A4A4A4A4A4A4A4A4A4A4A4A4A4A4A4A4A4A4A4A4A4A4A4A4A4A4A4A4A4A4A4A4A4A4A4A4A4A4A4A4A4A4A4A4A4A4A4A4A4A4A4A4A4A4A4A4A4A4A4A4A4A4A4A4A4A4A4A4A4A4A4A4A4A4A4A4A4A4A4A4A4A4A4A4A4A4A4A4A4A4A4A4A4A4A4A4A4A4A4A4A4A4A4A4A4A4A4A4A4A4A4A4A4A4A4F9F9F9F9F9F9F9F9F9F9F9
310
F9F9F9F9F9F9F9F9F9F9F9F9F9F9F9F9F9F9F9A4A4F9F9F9F9F9F9F9F9F9F9F9F9F9F9F9F9F9F9F9F9F9F9F9F9F9F9F9F9F9F9A4A4F9F9F9F9F9F9F9F9F9F9F9F9F9F9F9F9F9F9F9F9F9F9F9F9F9F9F9F9F9F9A4A4F9A4A4A4A4A4A4A4A4A4A4A4A4A4A4A4A4A4A4A4A4A4A4A4A4A4A4A4A4F9A4A4A4A4A4A4A4A4A4A4A4A4
310
A4A4A4A4A4A4A4A4A4A4A4A4A4A4A4A4A4A4A4A4A4A4A4A4A4A4A4A4A4A4A4A4A4A4A4A4A4A4A4A4A4A4A4A4A4A4A4A4A4A4A4A4A4A4A4A4A4A4A4A4A4A4A4A4A4A4A4A4A4A4A4A4A4A4A4A4A4A4A4A4A4A4A4A4A4A4A4A4A4A4A4A4A4A4A4A4A4A4A4A4A4A4A4A4A4A4A4A4A4A4A4A4A4A4A4A4A4A4A4A4A4A4A4A4A4A4A4
310
A4A4A4A4A4A4A4A4A4A4A4A4A4A4A4A4A4A4A4A4A4A4A4A4A4A4A4A4A4A4A4A4A4A4A4A4A4A4A4A4A4A4A4A4A4A4A4A4A4A4A4A4A4A4A4A4A4A4A4A4A4A4A4A4A4A4A4A4A4A4A4A4A4A4A4A4A4A4A4A4A4A4A4A4A4A4A4A4A4A4A4A4A4A4A4A4A4A4A4A4A4A4A4A4A4A4A4A4A4A4A4A4A4A4A4A4A4A4A4A4A4A4A4A4A4A4A4
310
A4A4A4A4A4A4A4A4A4A4A4A4A4A4A4A4A4A4A4A4A4A4A4A4A4A4A4A4A4A4A4A4A4A4A4A4A4A4A4A4A4A4A4A4A4A4A4A4A4A4A4A4A4A4A4A4A4A4A4A4A4A4A4A4A4A4A4A4A4A4A4A4A4A4A4A4A4A4A4A4A4A4A4A4A4A4A4A4A4A4A4A4A4A4A4A4A4A4A4A4A4A4A4A4A4A4A4A4A4A4A4A4A4A4A4A4A4A4A4A4A4A4A4A4A4A4A4
310
A4A4A4A4A4A4A4A4A4A4A4A4A4A4A4A4A4A4A4A4A4A4A4A4A4A4A4A4A4A4A4A4A4A4A4A4A4A4A4A4A4A4A4A4A4A4A4A4A4A4A4A4A4A4A4A4
1001
ACAD
1000
DesignCenter Data
1002
{
1070
     1
1070
     4
1002
}
  0
BLOCK_RECORD
  5
AA8
330
1
100
AcDbSymbolTableRecord
100
AcDbBlockTableRecord
  2
_CLOSED
340
0
  0
BLOCK_RECORD
  5
B79
330
1
100
AcDbSymbolTableRecord
100
AcDbBlockTableRecord
  2
nota revisoes
340
0
1001
ACAD
1000
DesignCenter Data
1002
{
1070
     1
1070
     4
1002
}
  0
BLOCK_RECORD
  5
B8E
330
1
100
AcDbSymbolTableRecord
100
AcDbBlockTableRecord
  2
a3l
340
0
1001
ACAD
1000
DesignCenter Data
1002
{
1070
     1
1070
     4
1002
}
  0
BLOCK_RECORD
  5
B9E
330
1
100
AcDbSymbolTableRecord
100
AcDbBlockTableRecord
  2
legenda desenvolvimento
340
0
1001
ACAD
1000
DesignCenter Data
1002
{
1070
     1
1070
     4
1002
}
  0
ENDTAB
  0
ENDSEC
  0
SECTION
  2
BLOCKS
  0
BLOCK
  5
20
330
1F
100
AcDbEntity
  8
0
100
AcDbBlockBegin
  2
*Model_Space
 70
     0
 10
0.0
 20
0.0
 30
0.0
  3
*Model_Space
  1

  0
ENDBLK
  5
21
330
1F
100
AcDbEntity
  8
0
100
AcDbBlockEnd
  0
BLOCK
  5
1C
330
1B
100
AcDbEntity
 67
     1
  8
0
100
AcDbBlockBegin
  2
*Paper_Space
 70
     0
 10
0.0
 20
0.0
 30
0.0
  3
*Paper_Space
  1

  0
ENDBLK
  5
1D
330
1B
100
AcDbEntity
 67
     1
  8
0
100
AcDbBlockEnd
  0
BLOCK
  5
24
330
23
100
AcDbEntity
 67
     1
  8
0
100
AcDbBlockBegin
  2
*Paper_Space0
 70
     0
 10
0.0
 20
0.0
 30
0.0
  3
*Paper_Space0
  1

  0
ENDBLK
  5
25
330
23
100
AcDbEntity
 67
     1
  8
0
100
AcDbBlockEnd
  0
BLOCK
  5
91B
330
919
100
AcDbEntity
  8
0
100
AcDbBlockBegin
  2
_DotSmall
 70
     0
 10
0.0
 20
0.0
 30
0.0
  3
_DotSmall
  1

  0
LWPOLYLINE
  5
91A
330
919
100
AcDbEntity
  8
0
  6
ByBlock
 62
     0
100
AcDbPolyline
 90
        2
 70
     1
 43
0.5
 10
-0.0625
 20
0.0
 42
1.0
 10
0.0625
 20
0.0
 42
1.0
  0
ENDBLK
  5
91C
330
919
100
AcDbEntity
  8
0
100
AcDbBlockEnd
  0
BLOCK
  5
92A
330
922
100
AcDbEntity
  8
0
100
AcDbBlockBegin
  2
base para cotas
 70
     0
 10
0.0
 20
0.0
 30
0.0
  3
base para cotas
  1

  0
LINE
  5
B36
330
922
100
AcDbEntity
  8
cotas
100
AcDbLine
 10
0.0
 20
-30.0
 30
0.0
 11
327.1260136525398
 21
-30.0
 31
0.0
  0
LINE
  5
B37
330
922
100
AcDbEntity
  8
cotas
100
AcDbLine
 10
0.0
 20
-25.0
 30
0.0
 11
327.1260136525398
 21
-25.0
 31
0.0
  0
LINE
  5
B38
330
922
100
AcDbEntity
  8
cotas
100
AcDbLine
 10
0.0
 20
-20.0
 30
0.0
 11
327.1260136525398
 21
-20.0
 31
0.0
  0
LINE
  5
B39
330
922
100
AcDbEntity
  8
cotas
100
AcDbLine
 10
0.0
 20
-15.0
 30
0.0
 11
327.1260136525398
 21
-15.0
 31
0.0
  0
LINE
  5
B3A
330
922
100
AcDbEntity
  8
cotas
100
AcDbLine
 10
0.0
 20
-10.0
 30
0.0
 11
327.1260136525398
 21
-10.0
 31
0.0
  0
LINE
  5
B3B
330
922
100
AcDbEntity
  8
cotas
100
AcDbLine
 10
0.0
 20
0.0
 30
0.0
 11
0.0
 21
-30.0
 31
0.0
  0
LINE
  5
B3C
330
922
100
AcDbEntity
  8
cotas
100
AcDbLine
 10
327.1260136525398
 20
-30.0
 30
0.0
 11
327.1260136525398
 21
0.0
 31
0.0
  0
ENDBLK
  5
92B
330
922
100
AcDbEntity
  8
0
100
AcDbBlockEnd
  0
BLOCK
  5
AAD
330
AA8
100
AcDbEntity
  8
0
100
AcDbBlockBegin
  2
_CLOSED
 70
     0
 10
0.0
 20
0.0
 30
0.0
  3
_CLOSED
  1

  0
LINE
  5
AA9
330
AA8
100
AcDbEntity
  8
0
100
AcDbLine
 10
-1.0
 20
0.166667
 30
0.0
 11
0.0
 21
0.0
 31
0.0
  0
LINE
  5
AAA
330
AA8
100
AcDbEntity
  8
0
100
AcDbLine
 10
0.0
 20
0.0
 30
0.0
 11
-1.0
 21
-0.166667
 31
0.0
  0
LINE
  5
AAB
330
AA8
100
AcDbEntity
  8
0
100
AcDbLine
 10
-1.0
 20
0.166667
 30
0.0
 11
-1.0
 21
-0.166667
 31
0.0
  0
LINE
  5
AAC
330
AA8
100
AcDbEntity
  8
0
100
AcDbLine
 10
0.0
 20
0.0
 30
0.0
 11
-1.0
 21
0.0
 31
0.0
  0
ENDBLK
  5
AAE
330
AA8
100
AcDbEntity
  8
0
100
AcDbBlockEnd
  0
BLOCK
  5
B7C
330
B79
100
AcDbEntity
  8
0
100
AcDbBlockBegin
  2
nota revisoes
 70
     0
 10
0.0
 20
0.0
 30
0.0
  3
nota revisoes
  1

  0
CIRCLE
  5
B7A
330
B79
100
AcDbEntity
  8
4
100
AcDbCircle
 10
0.0
 20
0.0
 30
0.0
 40
13.69426055101189
  0
TEXT
  5
B7B
330
B79
100
AcDbEntity
  8
4
100
AcDbText
 10
-5.496248358154345
 20
-5.354545554066362
 30
0.0
 40
12.0
  1
1
  7
SANINDUSA
 72
     1
 11
-0.249774214433728
 21
-5.354545554066362
 31
0.0
100
AcDbText
  0
ENDBLK
  5
B7D
330
B79
100
AcDbEntity
  8
0
100
AcDbBlockEnd
  0
BLOCK
  5
B9C
330
B8E
100
AcDbEntity
  8
0
100
AcDbBlockBegin
  2
a3l
 70
     0
 10
0.0
 20
0.0
 30
0.0
  3
a3l
  1

  0
LINE
  5
B8F
330
B8E
100
AcDbEntity
  8
1
100
AcDbLine
 10
-364.2925296599447
 20
-362.1188951399395
 30
0.0
 11
-364.2925296599447
 21
-65.11889513993946
 31
0.0
  0
LINE
  5
B90
330
B8E
100
AcDbEntity
  8
4
100
AcDbLine
 10
-369.2925296599447
 20
-357.1188951399395
 30
0.0
 11
-369.2925296599447
 21
-70.11889513993946
 31
0.0
  0
LINE
  5
B91
330
B8E
100
AcDbEntity
  8
1
100
AcDbLine
 10
-784.2925296599446
 20
-65.11889513993946
 30
0.0
 11
-784.2925296599446
 21
-362.1188951399395
 31
0.0
  0
LINE
  5
B92
330
B8E
100
AcDbEntity
  8
4
100
AcDbLine
 10
-759.2925296599446
 20
-357.1188951399395
 30
0.0
 11
-759.2925296599446
 21
-70.11889513993946
 31
0.0
  0
LINE
  5
B93
330
B8E
100
AcDbEntity
  8
1
100
AcDbLine
 10
-784.2925296599446
 20
-362.1188951399395
 30
0.0
 11
-364.2925296599447
 21
-362.1188951399395
 31
0.0
  0
LINE
  5
B94
330
B8E
100
AcDbEntity
  8
4
100
AcDbLine
 10
-759.2925296599446
 20
-357.1188951399395
 30
0.0
 11
-369.2925296599447
 21
-357.1188951399395
 31
0.0
  0
LINE
  5
B95
330
B8E
100
AcDbEntity
  8
1
100
AcDbLine
 10
-654.2925296599446
 20
-357.1188951399395
 30
0.0
 11
-654.2925296599446
 21
-362.1188951399395
 31
0.0
  0
LINE
  5
B96
330
B8E
100
AcDbEntity
  8
1
100
AcDbLine
 10
-364.2925296599447
 20
-65.11889513993946
 30
0.0
 11
-784.2925296599446
 21
-65.11889513993946
 31
0.0
  0
LINE
  5
B97
330
B8E
100
AcDbEntity
  8
4
100
AcDbLine
 10
-369.2925296599447
 20
-70.11889513993946
 30
0.0
 11
-759.2925296599446
 21
-70.11889513993946
 31
0.0
  0
LINE
  5
B98
330
B8E
100
AcDbEntity
  8
1
100
AcDbLine
 10
-654.2925296599446
 20
-65.11889513993946
 30
0.0
 11
-654.2925296599446
 21
-70.11889513993946
 31
0.0
  0
LINE
  5
B99
330
B8E
100
AcDbEntity
  8
1
100
AcDbLine
 10
-549.2925296599446
 20
-70.11889513993946
 30
0.0
 11
-549.2925296599446
 21
-65.11889513993946
 31
0.0
  0
LINE
  5
B9A
330
B8E
100
AcDbEntity
  8
1
100
AcDbLine
 10
-369.2925296599447
 20
-65.11889513993946
 30
0.0
 11
-364.2925296599447
 21
-65.11889513993946
 31
0.0
  0
LINE
  5
B9B
330
B8E
100
AcDbEntity
  8
1
100
AcDbLine
 10
-549.2925296599446
 20
-357.1188951399395
 30
0.0
 11
-549.2925296599446
 21
-362.1188951399395
 31
0.0
  0
ENDBLK
  5
B9D
330
B8E
100
AcDbEntity
  8
0
100
AcDbBlockEnd
  0
BLOCK
  5
C13
330
B9E
100
AcDbEntity
  8
0
100
AcDbBlockBegin
  2
legenda desenvolvimento
 70
     2
 10
0.0
 20
0.0
 30
0.0
  3
legenda desenvolvimento
  1

  0
ATTDEF
  5
B9F
330
B9E
100
AcDbEntity
  8
1
100
AcDbText
 10
-108.606245802552
 20
55.5
 30
0.0
 40
4.0
  1
XXXXXXXXXXXXXX
 41
0.8
  7
SANINDUSA
 72
     4
 11
-87.5
 21
57.5
 31
0.0
100
AcDbAttributeDefinition
  3
Nome do Produto:
  2
PRODUTO
 70
     0
  0
ATTDEF
  5
BA0
330
B9E
100
AcDbEntity
  8
1
100
AcDbText
 10
-97.9997966101695
 20
41.25
 30
0.0
 40
3.0
  1
XXXXXXXXX
 41
0.8
  7
futura
 72
     4
 11
-87.5
 21
42.75
 31
0.0
100
AcDbAttributeDefinition
  3
Nome da Peça:
  2
PECA
 70
     0
  0
ATTDEF
  5
BA1
330
B9E
100
AcDbEntity
  8
1
100
AcDbText
 10
-133.4422431161853
 20
21.11745296763252
 30
0.0
 40
2.5
  1
X
 41
0.8
  7
SANINDUSA
 72
     4
 11
-132.5
 21
22.36745296763252
 31
0.0
100
AcDbAttributeDefinition
  3
Cod. TESTE:
  2
TESTE
 70
     0
  0
ATTDEF
  5
BA2
330
B9E
100
AcDbEntity
  8
1
100
AcDbText
 10
-124.3844862323707
 20
21.11745296763252
 30
0.0
 40
2.5
  1
XX
 41
0.8
  7
SANINDUSA
 72
     4
 11
-122.5
 21
22.36745296763252
 31
0.0
100
AcDbAttributeDefinition
  3
Cod. Ano:
  2
ANO
 70
     0
  0
ATTDEF
  5
BA3
330
B9E
100
AcDbEntity
  8
1
100
AcDbText
 10
-112.526889953052
 20
21.11745296763252
 30
0.0
 40
2.5
  1
XXX
 41
0.8
  7
SANINDUSA
 72
     4
 11
-109.700160604496
 21
22.36745296763252
 31
0.0
100
AcDbAttributeDefinition
  3
Cod. Sequência:
  2
SEQUENCIA
 70
     0
  0
ATTDEF
  5
BA4
330
B9E
100
AcDbEntity
  8
1
100
AcDbText
 10
-99.35382430979316
 20
21.11745296763252
 30
0.0
 40
2.5
  1
XX
 41
0.8
  7
SANINDUSA
 72
     4
 11
-97.46933807742244
 21
22.36745296763252
 31
0.0
100
AcDbAttributeDefinition
  3
Cod. Tipo:
  2
TIPO
 70
     0
  0
ATTDEF
  5
BA5
330
B9E
100
AcDbEntity
  8
1
100
AcDbText
 10
-87.42035911468438
 20
21.11745296763252
 30
0.0
 40
2.5
  1
XXX
 41
0.8
  7
SANINDUSA
 72
     4
 11
-84.59362976612828
 21
22.36745296763252
 31
0.0
100
AcDbAttributeDefinition
  3
Cod. Produto:
  2
PRODUTO
 70
     0
  0
ATTDEF
  5
BA6
330
B9E
100
AcDbEntity
  8
1
100
AcDbText
 10
-74.62051971917853
 20
21.11745296763252
 30
0.0
 40
2.5
  1
XXX
 41
0.8
  7
SANINDUSA
 72
     4
 11
-71.79379037062244
 21
22.36745296763252
 31
0.0
100
AcDbAttributeDefinition
  3
Cod. Peça:
  2
PECA
 70
     0
  0
ATTDEF
  5
BA7
330
B9E
100
AcDbEntity
  8
1
100
AcDbText
 10
-61.10603446650329
 20
21.11745296763252
 30
0.0
 40
2.5
  1
XX
 41
0.8
  7
SANINDUSA
 72
     4
 11
-59.22154823413257
 21
22.36745296763252
 31
0.0
100
AcDbAttributeDefinition
  3
Cod. Revisão:
  2
REV
 70
     0
  0
ATTDEF
  5
BA8
330
B9E
100
AcDbEntity
  8
1
100
AcDbText
 10
-48.43615325006194
 20
21.11745296763252
 30
0.0
 40
2.5
  1
XX
 41
0.8
  7
SANINDUSA
 72
     4
 11
-46.55166701769121
 21
22.36745296763252
 31
0.0
100
AcDbAttributeDefinition
  3
Cod. Alteração:
  2
ALT
 70
     0
  0
ATTDEF
  5
BA9
330
B9E
100
AcDbEntity
  8
1
100
AcDbText
 10
-35.19086635325722
 20
23.98875083948959
 30
0.0
 40
3.0
  1
1/XXX
 41
0.8
  7
SANINDUSA
 72
     4
 11
-30.0
 21
25.25
 31
0.0
100
AcDbAttributeDefinition
  3
Escala geral:
  2
ESCALA
 70
     0
  0
ATTDEF
  5
BAA
330
B9E
100
AcDbEntity
  8
1
100
AcDbText
 10
-15.65345869711215
 20
23.75
 30
0.0
 40
3.0
  1
XXXXX
 41
0.8
  7
SANINDUSA
 72
     4
 11
-10.0
 21
25.25
 31
0.0
100
AcDbAttributeDefinition
  3
Folha:
  2
FOLHA
 70
     0
  0
ATTDEF
  5
BAB
330
B9E
100
AcDbEntity
  8
1
100
AcDbText
 10
-178.5146998822042
 20
56.9531347542807
 30
0.0
 40
2.0
  1
xx
 41
0.8
  7
SANINDUSA
 72
     4
 11
-177.2123493113513
 21
57.70330265219877
 31
0.0
100
AcDbAttributeDefinition
  3
revisão
  2
REV.
 70
     0
  0
ATTDEF
  5
BAC
330
B9E
100
AcDbEntity
  8
1
100
AcDbText
 10
-172.7849640077129
 20
56.9531347542807
 30
0.0
 40
2.0
  1
xx
 41
0.8
  7
SANINDUSA
 72
     4
 11
-171.48261343686
 21
57.70330265219877
 31
0.0
100
AcDbAttributeDefinition
  3
alteração
  2
ALT.
 70
     0
  0
ATTDEF
  5
BAD
330
B9E
100
AcDbEntity
  8
1
100
AcDbText
 10
-168.007199951307
 20
56.70330265219877
 30
0.0
 40
2.0
  1
xx/xx/xxxx
 41
0.8
  7
SANINDUSA
 11
-168.007199951307
 21
57.70330265219877
 31
0.0
100
AcDbAttributeDefinition
  3
data
  2
DATA
 70
     0
 74
     2
  0
ATTDEF
  5
BAE
330
B9E
100
AcDbEntity
  8
1
100
AcDbText
 10
-168.5396372253371
 20
13.15916722632639
 30
0.0
 40
2.0
  1
XX/XX/XXXX
 41
0.8
  7
SANINDUSA
 72
     4
 11
-161.5099528734231
 21
14.0
 31
0.0
100
AcDbAttributeDefinition
  3
Data projecto
  2
DATA_PROJ
 70
     0
  0
ATTDEF
  5
BAF
330
B9E
100
AcDbEntity
  8
1
100
AcDbText
 10
-150.8658110728766
 20
13.24983210208193
 30
0.0
 40
2.0
  1
xxxxxxxx
 41
0.8
  7
SANINDUSA
 72
     4
 11
-145.6564087894649
 21
14.0
 31
0.0
100
AcDbAttributeDefinition
  3
nome de quem projectou
  2
NOME
 70
     0
  0
ATTDEF
  5
BB0
330
B9E
100
AcDbEntity
  8
1
100
AcDbText
 10
-168.5396372253371
 20
9.159167226326394
 30
0.0
 40
2.0
  1
XX/XX/XXXX
 41
0.8
  7
SANINDUSA
 72
     4
 11
-161.5099528734231
 21
10.0
 31
0.0
100
AcDbAttributeDefinition
  3
Data desenhou
  2
DATA_DES
 70
     0
  0
ATTDEF
  5
BB1
330
B9E
100
AcDbEntity
  8
1
100
AcDbText
 10
-151.516986358303
 20
9.249832102081933
 30
0.0
 40
2.0
  1
xxxxxxxxx
 41
0.8
  7
SANINDUSA
 72
     4
 11
-145.6564087894649
 21
10.0
 31
0.0
100
AcDbAttributeDefinition
  3
nome
  2
NOME
 70
     0
  0
ATTDEF
  5
BB2
330
B9E
100
AcDbEntity
  8
1
100
AcDbText
 10
-127.2924214135946
 20
14.1979876583216
 30
0.0
 40
2.0
  1
Vitreous China
 41
0.8
  7
SANINDUSA
 72
     4
 11
-119.231709526422
 21
15.22216495852308
 31
0.0
100
AcDbAttributeDefinition
  3
Nome do Material:
  2
MATERIAL
 70
     0
  0
ATTDEF
  5
BB3
330
B9E
100
AcDbEntity
  8
1
100
AcDbText
 10
-103.1563452122093
 20
14.38019043949261
 30
0.0
 40
2.0
  1
Branco
 41
0.8
  7
SANINDUSA
 72
     4
 11
-99.33418268702462
 21
15.35937109765245
 31
0.0
100
AcDbAttributeDefinition
  3
cor da peça
  2
COR
 70
     0
  0
ATTDEF
  5
BB4
330
B9E
100
AcDbEntity
  8
1
100
AcDbText
 10
-116.7235057085292
 20
5.975822699798522
 30
0.0
 40
2.0
  1
Vidrado
 41
0.8
  7
SANINDUSA
 72
     4
 11
-112.5
 21
7.0
 31
0.0
100
AcDbAttributeDefinition
  3
Tipo de acabamento:
  2
ACABAMENTO
 70
     0
  0
ATTDEF
  5
BB5
330
B9E
100
AcDbEntity
  8
1
100
AcDbText
 10
-79.18527869967246
 20
16.65066409850533
 30
0.0
 40
2.0
  1
XXXXXXX
 41
0.8
  7
SANINDUSA
 72
     4
 11
-73.90871724903445
 21
17.65066409850533
 31
0.0
100
AcDbAttributeDefinition
  3
Normas
  2
NORMAS
 70
     0
  0
ATTDEF
  5
BB6
330
B9E
100
AcDbEntity
  8
1
100
AcDbText
 10
-30.55312290127603
 20
14.0
 30
0.0
 40
2.0
  1
XXXXXXXXXXXXXX
 41
0.8
  7
SANINDUSA
 72
     4
 11
-20.0
 21
15.0
 31
0.0
100
AcDbAttributeDefinition
  3
Substitui o desenho:
  2
SUBSTITUI
 70
     0
  0
ATTDEF
  5
BB7
330
B9E
100
AcDbEntity
  8
1
100
AcDbText
 10
-31.30691739422431
 20
6.0
 30
0.0
 40
2.0
  1
XXXXXXXXXXXXXXX
 41
0.8
  7
SANINDUSA
 72
     4
 11
-20.0
 21
7.0
 31
0.0
100
AcDbAttributeDefinition
  3
Substituido por:
  2
SUBSTITUIDO
 70
     0
  0
ATTDEF
  5
BB8
330
B9E
100
AcDbEntity
  8
1
100
AcDbText
 10
-110.0220608548302
 20
1.478208457928303
 30
0.0
 40
2.0
  1
XXXXXXXXXXXXXXXXXXXXXXXXXXXXXXXXXX
 41
0.8
  7
SANINDUSA
 11
-110.0220608548302
 21
2.478208457928303
 31
0.0
100
AcDbAttributeDefinition
  3
Localização do desenho:
  2
LOC-DWG
 70
     0
 74
     2
  0
LINE
  5
BB9
330
B9E
100
AcDbEntity
  8
3
100
AcDbLine
 10
-135.0
 20
4.0
 30
0.0
 11
0.0000000000004547
 21
4.0
 31
0.0
  0
LINE
  5
BBA
330
B9E
100
AcDbEntity
  8
3
100
AcDbLine
 10
-90.00000000000046
 20
12.0
 30
0.0
 11
-135.0
 21
12.0
 31
0.0
  0
LINE
  5
BBB
330
B9E
100
AcDbEntity
  8
3
100
AcDbLine
 10
-135.0
 20
32.5
 30
0.0
 11
-40.0
 21
32.5
 31
0.0
  0
TEXT
  5
BBC
330
B9E
100
AcDbEntity
  8
1
100
AcDbText
 10
-134.0
 20
1.25
 30
0.0
 40
2.0
  1
Localização do des.:
 41
0.8
  7
SANINDUSA
 11
-134.0
 21
2.25
 31
0.0
100
AcDbText
 73
     2
  0
LINE
  5
BBD
330
B9E
100
AcDbEntity
  8
3
100
AcDbLine
 10
-180.0
 20
65.0
 30
0.0
 11
0.0
 21
65.0
 31
0.0
  0
LINE
  5
BBE
330
B9E
100
AcDbEntity
  8
leg fin
100
AcDbLine
 10
-40.0
 20
25.05956924886846
 30
0.0
 11
-135.0
 21
25.05956924886846
 31
0.0
  0
LINE
  5
BBF
330
B9E
100
AcDbEntity
  8
leg fin
100
AcDbLine
 10
-40.0
 20
28.5
 30
0.0
 11
-135.0
 21
28.5
 31
0.0
  0
LINE
  5
BC0
330
B9E
100
AcDbEntity
  8
3
100
AcDbLine
 10
-135.0
 20
50.0
 30
0.0
 11
-40.0
 21
50.0
 31
0.0
  0
TEXT
  5
BC1
330
B9E
100
AcDbEntity
  8
1
100
AcDbText
 10
-134.0
 20
29.75
 30
0.0
 40
2.0
  1
Desenho nº:
 41
0.8
  7
SANINDUSA
 11
-134.0
 21
30.75
 31
0.0
100
AcDbText
 73
     2
  0
TEXT
  5
BC2
330
B9E
100
AcDbEntity
  8
1
100
AcDbText
 10
-134.0
 20
9.25
 30
0.0
 40
2.0
  1
Acabamento:
 41
0.8
  7
SANINDUSA
 11
-134.0
 21
10.25
 31
0.0
100
AcDbText
 73
     2
  0
LINE
  5
BC3
330
B9E
100
AcDbEntity
  8
3
100
AcDbLine
 10
-180.0
 20
20.0
 30
0.0
 11
0.0
 21
20.0
 31
0.0
  0
LINE
  5
BC4
330
B9E
100
AcDbEntity
  8
1
100
AcDbLine
 10
-174.5810776056337
 20
55.5
 30
0.0
 11
-174.5810776056337
 21
65.0
 31
0.0
  0
LINE
  5
BC5
330
B9E
100
AcDbEntity
  8
1
100
AcDbLine
 10
-168.9210461879161
 20
55.5
 30
0.0
 11
-168.9210461879161
 21
65.0
 31
0.0
  0
LINE
  5
BC6
330
B9E
100
AcDbEntity
  8
1
100
AcDbLine
 10
-154.0988595589306
 20
55.5
 30
0.0
 11
-154.0988595589306
 21
65.0
 31
0.0
  0
LINE
  5
BC7
330
B9E
100
AcDbEntity
  8
3
100
AcDbLine
 10
-180.0
 20
65.0
 30
0.0
 11
-180.0
 21
0.0
 31
0.0
  0
LINE
  5
BC8
330
B9E
100
AcDbEntity
  8
3
100
AcDbLine
 10
-135.0
 20
0.0
 30
0.0
 11
-135.0
 21
65.0
 31
0.0
  0
TEXT
  5
BC9
330
B9E
100
AcDbEntity
  8
1
100
AcDbText
 10
-179.0
 20
9.75
 30
0.0
 40
1.5
  1
Des.
 41
0.8
  7
SANINDUSA
 11
-179.0
 21
10.5
 31
0.0
100
AcDbText
 73
     2
  0
LINE
  5
BCA
330
B9E
100
AcDbEntity
  8
1
100
AcDbLine
 10
-168.9210461879161
 20
20.0
 30
0.0
 11
-168.9210461879161
 21
0.0
 31
0.0
  0
LINE
  5
BCB
330
B9E
100
AcDbEntity
  8
1
100
AcDbLine
 10
-154.0988595589306
 20
20.0
 30
0.0
 11
-154.0988595589306
 21
0.0
 31
0.0
  0
LINE
  5
BCC
330
B9E
100
AcDbEntity
  8
1
100
AcDbLine
 10
-180.0
 20
4.0
 30
0.0
 11
-135.0
 21
4.0
 31
0.0
  0
LINE
  5
BCD
330
B9E
100
AcDbEntity
  8
1
100
AcDbLine
 10
-180.0
 20
8.0
 30
0.0
 11
-135.0
 21
8.0
 31
0.0
  0
TEXT
  5
BCE
330
B9E
100
AcDbEntity
  8
1
100
AcDbText
 10
-179.0
 20
1.73257823687436
 30
0.0
 40
1.5
  1
Aprov.
 41
0.8
  7
SANINDUSA
 11
-179.0
 21
2.48257823687436
 31
0.0
100
AcDbText
 73
     2
  0
TEXT
  5
BCF
330
B9E
100
AcDbEntity
  8
1
100
AcDbText
 10
-179.0
 20
5.75
 30
0.0
 40
1.5
  1
Ver.
 41
0.8
  7
SANINDUSA
 11
-179.0
 21
6.5
 31
0.0
100
AcDbText
 73
     2
  0
LINE
  5
BD0
330
B9E
100
AcDbEntity
  8
1
100
AcDbLine
 10
-180.0
 20
16.0
 30
0.0
 11
-135.0
 21
16.0
 31
0.0
  0
LINE
  5
BD1
330
B9E
100
AcDbEntity
  8
1
100
AcDbLine
 10
-180.0
 20
12.0
 30
0.0
 11
-135.0
 21
12.0
 31
0.0
  0
TEXT
  5
BD2
330
B9E
100
AcDbEntity
  8
1
100
AcDbText
 10
-179.0
 20
13.75
 30
0.0
 40
1.5
  1
Proj.
 41
0.8
  7
SANINDUSA
 11
-179.0
 21
14.5
 31
0.0
100
AcDbText
 73
     2
  0
TEXT
  5
BD3
330
B9E
100
AcDbEntity
  8
1
100
AcDbText
 10
-167.9210461879161
 20
17.75
 30
0.0
 40
1.5
  1
Data
 41
0.8
  7
SANINDUSA
 11
-167.9210461879161
 21
18.5
 31
0.0
100
AcDbText
 73
     2
  0
TEXT
  5
BD4
330
B9E
100
AcDbEntity
  8
1
100
AcDbText
 10
-153.0988595589306
 20
17.75
 30
0.0
 40
1.5
  1
Nome
 41
0.8
  7
SANINDUSA
 11
-153.0988595589306
 21
18.5
 31
0.0
100
AcDbText
 73
     2
  0
LINE
  5
BD5
330
B9E
100
AcDbEntity
  8
leg fin
100
AcDbLine
 10
-130.0
 20
20.0
 30
0.0
 11
-130.0
 21
28.5
 31
0.0
  0
TEXT
  5
BD6
330
B9E
100
AcDbEntity
  8
1
100
AcDbText
 10
-134.0
 20
17.25
 30
0.0
 40
2.0
  1
Material:
 41
0.8
  7
SANINDUSA
 11
-134.0
 21
18.25
 31
0.0
100
AcDbText
 73
     2
  0
TEXT
  5
BD7
330
B9E
100
AcDbEntity
  8
1
100
AcDbText
 10
-129.0
 20
26.43288406845113
 30
0.0
 40
1.5
  1
Ano:
 41
0.8
  7
SANINDUSA
 11
-129.0
 21
27.18288406845113
 31
0.0
100
AcDbText
 73
     2
  0
LINE
  5
BD8
330
B9E
100
AcDbEntity
  8
1
100
AcDbLine
 10
-180.0
 20
55.5
 30
0.0
 11
-135.0
 21
55.5
 31
0.0
  0
TEXT
  5
BD9
330
B9E
100
AcDbEntity
  8
1
100
AcDbText
 10
-179.0
 20
52.67772246885193
 30
0.0
 40
1.5
  1
descrição
 41
0.8
  7
SANINDUSA
 11
-179.0
 21
53.42772246885193
 31
0.0
100
AcDbText
 73
     2
  0
TEXT
  5
BDA
330
B9E
100
AcDbEntity
  8
1
100
AcDbText
 10
-134.0
 20
47.25
 30
0.0
 40
2.0
  1
Peça:
 41
0.8
  7
SANINDUSA
 11
-134.0
 21
48.25
 31
0.0
100
AcDbText
 73
     2
  0
LINE
  5
BDB
330
B9E
100
AcDbEntity
  8
1
100
AcDbLine
 10
-180.0
 20
59.5
 30
0.0
 11
-135.0
 21
59.5
 31
0.0
  0
TEXT
  5
BDC
330
B9E
100
AcDbEntity
  8
1
100
AcDbText
 10
-173.5810776056337
 20
62.75
 30
0.0
 40
1.5
  1
Alt.
 41
0.8
  7
SANINDUSA
 11
-173.5810776056337
 21
63.5
 31
0.0
100
AcDbText
 73
     2
  0
TEXT
  5
BDD
330
B9E
100
AcDbEntity
  8
1
100
AcDbText
 10
-179.0
 20
62.75
 30
0.0
 40
1.5
  1
Rev.
 41
0.8
  7
SANINDUSA
 11
-179.0
 21
63.5
 31
0.0
100
AcDbText
 73
     2
  0
TEXT
  5
BDE
330
B9E
100
AcDbEntity
  8
1
100
AcDbText
 10
-167.9210461879161
 20
62.75
 30
0.0
 40
1.5
  1
Data
 41
0.8
  7
SANINDUSA
 11
-167.9210461879161
 21
63.5
 31
0.0
100
AcDbText
 73
     2
  0
TEXT
  5
BDF
330
B9E
100
AcDbEntity
  8
1
100
AcDbText
 10
-153.0988595589306
 20
62.75
 30
0.0
 40
1.5
  1
Nome
 41
0.8
  7
SANINDUSA
 11
-153.0988595589306
 21
63.5
 31
0.0
100
AcDbText
 73
     2
  0
TEXT
  5
BE0
330
B9E
100
AcDbEntity
  8
1
100
AcDbText
 10
-134.0
 20
62.25
 30
0.0
 40
2.0
  1
Produto:
 41
0.8
  7
SANINDUSA
 11
-134.0
 21
63.25
 31
0.0
100
AcDbText
 73
     2
  0
LINE
  5
BE1
330
B9E
100
AcDbEntity
  8
3
100
AcDbLine
 10
-40.0
 20
4.0
 30
0.0
 11
-40.0
 21
65.0
 31
0.0
  0
LWPOLYLINE
  5
BE2
102
{ACAD_REACTORS
330
BEC
102
}
330
B9E
100
AcDbEntity
  8
9
100
AcDbPolyline
 90
       12
 70
     1
 43
0.0
 10
-3.038714600644652
 20
58.90010174665076
 10
-5.726962862472191
 20
58.90010174665076
 10
-5.726962862472191
 20
58.5001017466509
 10
-3.038748516195028
 20
58.5001017466509
 42
-0.4142135623731731
 10
-2.638748516194482
 20
58.1001017466508
 10
-2.638748516194482
 20
57.42799728675596
 10
-5.21497371544865
 20
57.42799728675596
 42
0.4142135623731289
 10
-6.014973715448377
 20
56.627997286756
 10
-6.014973715448377
 20
55.92380871629643
 42
0.4142135623731132
 10
-5.21497371544865
 20
55.12380871629648
 10
-2.23871460064447
 20
55.12380871629648
 10
-2.23871460064447
 20
58.10010174665103
 42
0.4142135623730717
  0
LWPOLYLINE
  5
BE3
102
{ACAD_REACTORS
330
BEC
102
}
330
B9E
100
AcDbEntity
  8
9
100
AcDbPolyline
 90
       20
 70
     1
 43
0.0
 10
-10.01531287095122
 20
57.82799728675581
 10
-10.01531287095122
 20
58.10010174665103
 42
-0.4142135623730744
 10
-9.615312870951584
 20
58.5001017466509
 10
-6.92703069357276
 20
58.5001017466509
 10
-6.92703069357276
 20
58.90010174665076
 10
-9.615346786501959
 20
58.90010174665076
 42
0.4142135623730883
 10
-10.41534678650168
 20
58.1001017466508
 10
-10.41534678650168
 20
57.82796337120567
 42
0.4142135623730717
 10
-9.615346786501959
 20
57.02796337120571
 10
-7.423079531965413
 20
57.02796337120571
 42
-0.4142135623730847
 10
-7.023079531965322
 20
56.62796337120562
 10
-7.023079531965322
 20
55.90786840766487
 42
-0.4142135623730744
 10
-7.423079531965413
 20
55.507868407665
 10
-10.41534678650168
 20
55.507868407665
 10
-10.41534678650168
 20
55.12380871629648
 10
-7.445787917283723
 20
55.12380871629648
 42
0.4114777732064574
 10
-6.645822882998345
 20
55.9163291493976
 10
-6.639238813324936
 20
56.62051771985716
 42
0.4169546541682913
 10
-7.439203847610315
 20
57.42799728675596
 10
-9.615312870951584
 20
57.42799728675596
 42
-0.4142135623731576
  0
LWPOLYLINE
  5
BE4
102
{ACAD_REACTORS
330
BEC
102
}
330
B9E
100
AcDbEntity
  8
9
100
AcDbPolyline
 90
       12
 70
     1
 43
0.0
 10
-14.41561811090378
 20
58.90010174665076
 10
-14.79964388672215
 20
58.90010174665076
 10
-14.79964388672215
 20
55.92380871629643
 42
0.4142135623731133
 10
-13.99964388672242
 20
55.12380871629648
 10
-11.8233508563676
 20
55.12380871629648
 42
0.4142135623730872
 10
-11.02335085636741
 20
55.92380871629643
 10
-11.02335085636741
 20
58.90010174665076
 10
-11.42338477191788
 20
58.90010174665076
 10
-11.42338477191788
 20
55.91567577726095
 42
-0.4131711701795318
 10
-11.82196067063523
 20
55.51567831234956
 10
-14.0141940096214
 20
55.50787335710947
 42
-0.4152567234624407
 10
-14.41561811090378
 20
55.90787082202087
  0
LWPOLYLINE
  5
BE5
102
{ACAD_REACTORS
330
BEC
102
}
330
B9E
100
AcDbEntity
  8
9
100
AcDbPolyline
 90
        6
 70
     1
 43
0.0
 10
-15.80771578768872
 20
55.507868407665
 10
-18.39994912667453
 20
55.507868407665
 42
-0.4142135623731731
 10
-18.79994912667462
 20
55.90786840766487
 10
-18.79994912667462
 20
58.10010174665103
 42
-0.4142135623730744
 10
-18.39994912667453
 20
58.5001017466509
 10
-15.80771578768872
 20
58.5001017466509
  0
LWPOLYLINE
  5
BE6
102
{ACAD_REACTORS
330
BEC
102
}
330
B9E
100
AcDbEntity
  8
9
100
AcDbPolyline
 90
        8
 70
     1
 43
0.0
 10
-15.4236900118708
 20
59.87619128370352
 10
-15.80771578768872
 20
59.87619128370352
 10
-15.80771578768872
 20
58.90010174665076
 10
-18.39176256411201
 20
58.90010174665076
 42
0.4131164467977967
 10
-19.19175694739761
 20
58.1030995310698
 10
-19.1999120763262
 20
55.92680650071542
 42
0.4153115297271718
 10
-18.39991769304061
 20
55.12380871629648
 10
-15.4236900118708
 20
55.12380871629648
  0
LWPOLYLINE
  5
BE7
102
{ACAD_REACTORS
330
BEC
102
}
330
B9E
100
AcDbEntity
  8
9
100
AcDbPolyline
 90
       10
 70
     1
 43
0.0
 10
-20.59201288790928
 20
58.90010174665076
 10
-23.56830591826338
 20
58.90010174665076
 10
-23.56830591826338
 20
55.12380871629648
 10
-23.18424622689509
 20
55.12380871629648
 10
-23.18424622689509
 20
58.5001017466509
 10
-20.59204680345965
 20
58.5001017466509
 42
-0.4142135623730898
 10
-20.19204680345956
 20
58.1001017466508
 10
-20.19204680345956
 20
55.12380871629648
 10
-19.79201288790909
 20
55.12380871629648
 10
-19.79201288790909
 20
58.10010174665103
 42
0.4142135623731132
  0
LWPOLYLINE
  5
BE8
102
{ACAD_REACTORS
330
BEC
102
}
330
B9E
100
AcDbEntity
  8
9
100
AcDbPolyline
 90
        4
 70
     1
 43
0.0
 10
-24.19231812786165
 20
58.90010174665076
 10
-24.57637781922995
 20
58.90010174665076
 10
-24.57637781922995
 20
55.12380871629648
 10
-24.19231812786165
 20
55.12380871629648
  0
LWPOLYLINE
  5
BE9
102
{ACAD_REACTORS
330
BEC
102
}
330
B9E
100
AcDbEntity
  8
9
100
AcDbPolyline
 90
       10
 70
     1
 43
0.0
 10
-28.57661522808212
 20
58.5001017466509
 10
-25.98444972019706
 20
58.5001017466509
 42
-0.4142135623731731
 10
-25.58444972019652
 20
58.1001017466508
 10
-25.58444972019652
 20
55.12380871629648
 10
-25.2004239443786
 20
55.12380871629648
 10
-25.2004239443786
 20
58.10010174665103
 42
0.4142135623730717
 10
-26.00042394437833
 20
58.90010174665076
 10
-28.97664914363259
 20
58.90010174665076
 10
-28.97664914363259
 20
55.12380871629648
 10
-28.57661522808212
 20
55.12380871629648
  0
LWPOLYLINE
  5
BEA
102
{ACAD_REACTORS
330
BEC
102
}
330
B9E
100
AcDbEntity
  8
9
100
AcDbPolyline
 90
       12
 70
     1
 43
0.0
 10
-29.58465321349832
 20
58.10010174665103
 42
0.4142135623730716
 10
-30.3846532134985
 20
58.90010174665076
 10
-33.07296930642724
 20
58.90010174665076
 10
-33.07296930642724
 20
58.5001017466509
 10
-30.38468712904842
 20
58.5001017466509
 42
-0.4142135623730067
 10
-29.98468712904878
 20
58.1001017466508
 10
-29.98468712904878
 20
57.42799728675618
 10
-32.56098015940324
 20
57.42799728675596
 42
0.4142135623731289
 10
-33.36098015940343
 20
56.627997286756
 10
-33.36098015940343
 20
55.92380871629643
 42
0.4142135623731132
 10
-32.56098015940324
 20
55.12380871629648
 10
-29.58465321349832
 20
55.12380871629648
  0
LWPOLYLINE
  5
BEB
102
{ACAD_REACTORS
330
BEC
102
}
330
B9E
100
AcDbEntity
  8
9
100
AcDbPolyline
 90
       20
 70
     1
 43
0.0
 10
-34.7850262845518
 20
57.42799728675596
 10
-36.96125148380543
 20
57.42799728675596
 42
-0.4142135623730898
 10
-37.36125148380552
 20
57.82799728675604
 10
-37.36125148380552
 20
58.10010174665103
 42
-0.4142135623730744
 10
-36.96125148380543
 20
58.5001017466509
 10
-34.27303713752781
 20
58.50010174665067
 10
-34.27303713752781
 20
58.90010174665076
 10
-36.96128539935535
 20
58.90010174665076
 42
0.4142135623731289
 10
-37.76128539935553
 20
58.1001017466508
 10
-37.76128539935553
 20
57.82796337120567
 42
0.4142135623730716
 10
-36.9612853993558
 20
57.02796337120571
 10
-34.76901814481926
 20
57.02796337120571
 42
-0.414213562373168
 10
-34.36901814481962
 20
56.62796337120562
 10
-34.36901814481962
 20
55.90786840766487
 42
-0.4142135623730744
 10
-34.76901814481926
 20
55.507868407665
 10
-37.76128539935553
 20
55.507868407665
 10
-37.76128539935553
 20
55.12380871629648
 10
-34.7850262845518
 20
55.12380871629648
 42
0.4142135623731289
 10
-33.98502628455162
 20
55.92380871629643
 10
-33.98502628455162
 20
56.627997286756
 42
0.4142135623731132
  0
HATCH
  5
BEC
330
B9E
100
AcDbEntity
  8
9
100
AcDbHatch
 10
0.0
 20
0.0
 30
0.0
210
0.0
220
0.0
230
1.0
  2
SOLID
 70
     1
 71
     1
 91
       13
 92
        7
 72
     1
 73
     1
 93
       20
 10
-34.36901814481962
 20
55.90786840766487
 42
-0.414213562372991
 10
-34.76901814481926
 20
55.507868407665
 42
0.0
 10
-37.76128539935553
 20
55.507868407665
 42
0.0
 10
-37.76128539935553
 20
55.12380871629648
 42
0.0
 10
-34.7850262845518
 20
55.12380871629648
 42
0.4142135623731705
 10
-33.98502628455162
 20
55.92380871629666
 42
0.0
 10
-33.98502628455162
 20
56.627997286756
 42
0.4142135623731547
 10
-34.7850262845518
 20
57.42799728675596
 42
0.0
 10
-36.96125148380543
 20
57.42799728675596
 42
-0.4142135623730898
 10
-37.36125148380552
 20
57.82799728675604
 42
0.0
 10
-37.36125148380552
 20
58.1001017466508
 42
-0.4142135623731575
 10
-36.96125148380543
 20
58.5001017466509
 42
0.0
 10
-34.27303713752781
 20
58.50010174665067
 42
0.0
 10
-34.27303713752781
 20
58.90010174665076
 42
0.0
 10
-36.96128539935535
 20
58.90010174665076
 42
0.4142135623731705
 10
-37.76128539935553
 20
58.10010174665058
 42
0.0
 10
-37.76128539935553
 20
57.82796337120544
 42
0.4142135623730299
 10
-36.9612853993558
 20
57.02796337120571
 42
0.0
 10
-34.76901814481926
 20
57.02796337120571
 42
-0.4142135623730015
 10
-34.36901814481962
 20
56.62796337120608
 42
0.0
 97
        1
330
BEB
 92
        7
 72
     1
 73
     1
 93
       12
 10
-33.36098015940343
 20
55.92380871629666
 42
0.4142135623731547
 10
-32.56098015940324
 20
55.12380871629648
 42
0.0
 10
-29.58465321349877
 20
55.12380871629648
 42
0.0
 10
-29.58465321349832
 20
58.10010174665058
 42
0.4142135623731964
 10
-30.3846532134985
 20
58.90010174665076
 42
0.0
 10
-33.07296930642724
 20
58.90010174665076
 42
0.0
 10
-33.07296930642724
 20
58.50010174665067
 42
0.0
 10
-30.38468712904887
 20
58.5001017466509
 42
-0.4142135623732564
 10
-29.98468712904878
 20
58.10010174665103
 42
0.0
 10
-29.98468712904923
 20
57.42799728675596
 42
0.0
 10
-32.56098015940324
 20
57.42799728675596
 42
0.4142135623731705
 10
-33.36098015940343
 20
56.627997286756
 42
0.0
 97
        1
330
BEA
 92
       22
 72
     1
 73
     1
 93
        6
 10
-32.97692046803468
 20
56.62796337120562
 42
-0.4142135623731576
 10
-32.57692046803459
 20
57.02796337120571
 42
0.0
 10
-29.98468712904878
 20
57.02796337120571
 42
0.0
 10
-29.98468712904878
 20
55.507868407665
 42
0.0
 10
-32.57692046803459
 20
55.507868407665
 42
-0.4142135623731731
 10
-32.97692046803468
 20
55.90786840766487
 42
0.0
 97
        1
330
C11
 92
        7
 72
     1
 73
     1
 93
       10
 10
-28.57661522808212
 20
58.5001017466509
 42
0.0
 10
-25.98444972019661
 20
58.5001017466509
 42
-0.4142135623730067
 10
-25.58444972019652
 20
58.10010174665058
 42
0.0
 10
-25.58444972019606
 20
55.12380871629648
 42
0.0
 10
-25.20042394437906
 20
55.12380871629648
 42
0.0
 10
-25.2004239443786
 20
58.1001017466508
 42
0.4142135623731134
 10
-26.00042394437833
 20
58.90010174665076
 42
0.0
 10
-28.97664914363259
 20
58.90010174665076
 42
0.0
 10
-28.97664914363259
 20
55.12380871629648
 42
0.0
 10
-28.57661522808212
 20
55.12380871629648
 42
0.0
 97
        1
330
BE9
 92
        7
 72
     0
 73
     1
 93
        4
 10
-24.57637781922995
 20
55.12380871629648
 10
-24.19231812786165
 20
55.12380871629648
 10
-24.19231812786165
 20
58.90010174665076
 10
-24.57637781922995
 20
58.90010174665076
 97
        1
330
BE8
 92
        7
 72
     0
 73
     1
 93
        4
 10
-24.19231812786165
 20
59.87619128370352
 10
-24.5763778192304
 20
59.87619128370352
 10
-24.5763778192304
 20
59.28412752246913
 10
-24.1923181278612
 20
59.28412752246913
 97
        1
330
C12
 92
        7
 72
     1
 73
     1
 93
       10
 10
-23.18424622689509
 20
58.5001017466509
 42
0.0
 10
-20.59204680345965
 20
58.5001017466509
 42
-0.4142135623730898
 10
-20.19204680345956
 20
58.1001017466508
 42
0.0
 10
-20.19204680345956
 20
55.12380871629648
 42
0.0
 10
-19.79201288790909
 20
55.12380871629648
 42
0.0
 10
-19.79201288790909
 20
58.1001017466508
 42
0.4142135623731547
 10
-20.59201288790928
 20
58.90010174665076
 42
0.0
 10
-23.56830591826338
 20
58.90010174665076
 42
0.0
 10
-23.56830591826338
 20
55.12380871629648
 42
0.0
 10
-23.18424622689463
 20
55.12380871629648
 42
0.0
 97
        1
330
BE7
 92
        7
 72
     1
 73
     1
 93
        8
 10
-19.1999120763262
 20
55.92680650071542
 42
0.4153115297271299
 10
-18.39991769304061
 20
55.12380871629648
 42
0.0
 10
-15.4236900118708
 20
55.12380871629648
 42
0.0
 10
-15.4236900118708
 20
59.87619128370352
 42
0.0
 10
-15.80771578768872
 20
59.87619128370352
 42
0.0
 10
-15.80771578768872
 20
58.90010174665076
 42
0.0
 10
-18.39176256411201
 20
58.90010174665076
 42
0.4131164467977965
 10
-19.19175694739761
 20
58.1030995310698
 42
0.0
 97
        1
330
BE6
 92
       22
 72
     1
 73
     1
 93
        6
 10
-18.79994912667462
 20
58.1001017466508
 42
-0.4142135623731575
 10
-18.39994912667453
 20
58.5001017466509
 42
0.0
 10
-15.80771578768872
 20
58.50010174665067
 42
0.0
 10
-15.80771578768827
 20
55.507868407665
 42
0.0
 10
-18.39994912667453
 20
55.507868407665
 42
-0.4142135623731731
 10
-18.79994912667462
 20
55.90786840766487
 42
0.0
 97
        1
330
BE5
 92
        7
 72
     1
 73
     1
 93
       12
 10
-14.79964388672215
 20
55.92380871629621
 42
0.4142135623729885
 10
-13.99964388672242
 20
55.12380871629648
 42
0.0
 10
-11.8233508563676
 20
55.12380871629648
 42
0.4142135623731289
 10
-11.02335085636741
 20
55.92380871629666
 42
0.0
 10
-11.02335085636741
 20
58.90010174665076
 42
0.0
 10
-11.42338477191788
 20
58.90010174665076
 42
0.0
 10
-11.42338477191788
 20
55.91567577726095
 42
-0.4131711701795319
 10
-11.82196067063523
 20
55.51567831234956
 42
0.0
 10
-14.01419400962095
 20
55.50787335710947
 42
-0.4152567234626918
 10
-14.41561811090378
 20
55.90787082202087
 42
0.0
 10
-14.41561811090378
 20
58.90010174665076
 42
0.0
 10
-14.7996438867226
 20
58.90010174665076
 42
0.0
 97
        1
330
BE4
 92
        7
 72
     1
 73
     1
 93
       20
 10
-7.423079531965413
 20
57.02796337120571
 42
-0.414213562373168
 10
-7.023079531965322
 20
56.62796337120562
 42
0.0
 10
-7.023079531965322
 20
55.90786840766487
 42
-0.4142135623731575
 10
-7.423079531965413
 20
55.507868407665
 42
0.0
 10
-10.41534678650168
 20
55.507868407665
 42
0.0
 10
-10.41534678650168
 20
55.12380871629648
 42
0.0
 10
-7.445787917283723
 20
55.12380871629648
 42
0.4114777732065809
 10
-6.645822882998345
 20
55.91632914939783
 42
0.0
 10
-6.639238813324936
 20
56.62051771985716
 42
0.4169546541682913
 10
-7.439203847610315
 20
57.42799728675596
 42
0.0
 10
-9.615312870951584
 20
57.42799728675596
 42
-0.4142135623729911
 10
-10.01531287095122
 20
57.82799728675581
 42
0.0
 10
-10.01531287095122
 20
58.10010174665103
 42
-0.414213562372991
 10
-9.615312870951584
 20
58.5001017466509
 42
0.0
 10
-6.92703069357276
 20
58.50010174665067
 42
0.0
 10
-6.927030693572305
 20
58.90010174665076
 42
0.0
 10
-9.615346786501959
 20
58.90010174665076
 42
0.4142135623730467
 10
-10.41534678650168
 20
58.10010174665103
 42
0.0
 10
-10.41534678650168
 20
57.82796337120544
 42
0.4142135623730301
 10
-9.615346786501959
 20
57.02796337120571
 42
0.0
 97
        1
330
BE3
 92
        7
 72
     1
 73
     1
 93
       12
 10
-5.21497371544865
 20
57.42799728675596
 42
0.4142135623730871
 10
-6.014973715448377
 20
56.627997286756
 42
0.0
 10
-6.014973715448377
 20
55.92380871629621
 42
0.4142135623730715
 10
-5.21497371544865
 20
55.12380871629648
 42
0.0
 10
-2.23871460064447
 20
55.12380871629648
 42
0.0
 10
-2.23871460064447
 20
58.10010174665058
 42
0.414213562373155
 10
-3.038714600644652
 20
58.90010174665076
 42
0.0
 10
-5.726962862471737
 20
58.90010174665076
 42
0.0
 10
-5.726962862472191
 20
58.5001017466509
 42
0.0
 10
-3.038748516194573
 20
58.5001017466509
 42
-0.4142135623730067
 10
-2.638748516194482
 20
58.10010174665058
 42
0.0
 10
-2.638748516194482
 20
57.42799728675596
 42
0.0
 97
        1
330
BE2
 92
       22
 72
     1
 73
     1
 93
        6
 10
-2.638748516194937
 20
57.02796337120571
 42
0.0
 10
-2.638748516194482
 20
55.50786840766477
 42
0.0
 10
-5.21497371544865
 20
55.507868407665
 42
-0.4142135623731731
 10
-5.614973715448741
 20
55.90786840766509
 42
0.0
 10
-5.614973715448741
 20
56.62796337120562
 42
-0.4142135623731576
 10
-5.21497371544865
 20
57.02796337120571
 42
0.0
 97
        1
330
C0D
 75
     0
 76
     1
 47
0.0407044778999864
 98
       13
 10
-34.18710075113677
 20
56.16907953933765
 10
-33.12851374392494
 20
56.49471602641233
 10
-33.12851374392494
 20
56.49471602641233
 10
-28.77202873835904
 20
57.51232930166111
 10
-24.41554807250941
 20
57.91937341678636
 10
-24.41554807250941
 20
59.384734621186
 10
-23.31624584658039
 20
58.3264175319116
 10
-19.04119127844888
 20
57.75655517324913
 10
-19.04119127844888
 20
57.75655517324913
 10
-14.64399105416578
 20
57.43091868617466
 10
-8.048195057457178
 20
57.22739662861204
 10
-4.017427461911665
 20
57.18669281458665
 10
-4.017427461911665
 20
57.18669281458665
  0
TEXT
  5
BED
330
B9E
100
AcDbEntity
  8
leg fin
100
AcDbText
 10
3.391127401597259
 20
2.107634911895729
 30
0.0
 40
1.5
  1
Este desenho é propriedade da Sanindusa, S.A., e não pode ser copiado nem divulgado sem nossa autorização.
 50
90.0
 41
0.8
  7
SANINDUSA
100
AcDbText
  0
LINE
  5
BEE
330
B9E
100
AcDbEntity
  8
3
100
AcDbLine
 10
-90.0
 20
4.0
 30
0.0
 11
-90.0
 21
12.0
 31
0.0
  0
TEXT
  5
BEF
330
B9E
100
AcDbEntity
  8
1
100
AcDbText
 10
-39.0
 20
9.25
 30
0.0
 40
2.0
  1
Substituido por:
 41
0.8
  7
SANINDUSA
 11
-39.0
 21
10.25
 31
0.0
100
AcDbText
 73
     2
  0
POINT
  5
BF0
330
B9E
100
AcDbEntity
  8
SANINDUSA
100
AcDbPoint
 10
0.0
 20
0.0
 30
0.0
  0
TEXT
  5
BF1
330
B9E
100
AcDbEntity
  8
1
100
AcDbText
 10
-89.0
 20
16.74927010445663
 30
0.0
 40
2.0
  1
Normas:
 41
0.8
  7
SANINDUSA
 11
-89.0
 21
17.74927010445663
 31
0.0
100
AcDbText
 73
     2
  0
LINE
  5
BF2
330
B9E
100
AcDbEntity
  8
3
100
AcDbLine
 10
-90.0
 20
12.0
 30
0.0
 11
-90.0
 21
20.0
 31
0.0
  0
LINE
  5
BF3
330
B9E
100
AcDbEntity
  8
3
100
AcDbLine
 10
-110.546019464768
 20
12.0
 30
0.0
 11
-110.546019464768
 21
20.0
 31
0.0
  0
TEXT
  5
BF4
330
B9E
100
AcDbEntity
  8
1
100
AcDbText
 10
-109.6177520618648
 20
17.25
 30
0.0
 40
2.0
  1
Cor:
 41
0.8
  7
SANINDUSA
 11
-109.6177520618648
 21
18.25
 31
0.0
100
AcDbText
 73
     2
  0
LINE
  5
BF5
330
B9E
100
AcDbEntity
  8
leg fin
100
AcDbLine
 10
-91.42857142857156
 20
20.0
 30
0.0
 11
-91.42857142857156
 21
28.5
 31
0.0
  0
LINE
  5
BF6
330
B9E
100
AcDbEntity
  8
leg fin
100
AcDbLine
 10
-104.2857142857142
 20
20.0
 30
0.0
 11
-104.2857142857142
 21
28.5
 31
0.0
  0
LINE
  5
BF7
330
B9E
100
AcDbEntity
  8
leg fin
100
AcDbLine
 10
-117.1428571428573
 20
20.0
 30
0.0
 11
-117.1428571428573
 21
28.5
 31
0.0
  0
POINT
  5
BF8
330
B9E
100
AcDbEntity
  8
SANINDUSA
100
AcDbPoint
 10
-117.1428571428573
 20
28.5
 30
0.0
  0
POINT
  5
BF9
330
B9E
100
AcDbEntity
  8
SANINDUSA
100
AcDbPoint
 10
-104.2857142857142
 20
28.5
 30
0.0
  0
POINT
  5
BFA
330
B9E
100
AcDbEntity
  8
SANINDUSA
100
AcDbPoint
 10
-91.42857142857156
 20
28.5
 30
0.0
  0
TEXT
  5
BFB
330
B9E
100
AcDbEntity
  8
1
100
AcDbText
 10
-116.200160604496
 20
26.43288406845113
 30
0.0
 40
1.5
  1
Nº Seq.:
 41
0.8
  7
SANINDUSA
 11
-116.200160604496
 21
27.18288406845113
 31
0.0
100
AcDbText
 73
     2
  0
TEXT
  5
BFC
330
B9E
100
AcDbEntity
  8
1
100
AcDbText
 10
-103.2106584078738
 20
26.43288406845113
 30
0.0
 40
1.5
  1
Tipo:
 41
0.8
  7
SANINDUSA
 11
-103.2106584078738
 21
27.18288406845113
 31
0.0
100
AcDbText
 73
     2
  0
TEXT
  5
BFD
330
B9E
100
AcDbEntity
  8
1
100
AcDbText
 10
-90.22114672289353
 20
26.43288406845113
 30
0.0
 40
1.5
  1
Prod.:
 41
0.8
  7
SANINDUSA
 11
-90.22114672289353
 21
27.18288406845113
 31
0.0
100
AcDbText
 73
     2
  0
TEXT
  5
BFE
330
B9E
100
AcDbEntity
  8
1
100
AcDbText
 10
-64.77320576346574
 20
26.43288406845113
 30
0.0
 40
1.5
  1
Rev.:
 41
0.8
  7
SANINDUSA
 11
-64.77320576346574
 21
27.18288406845113
 31
0.0
100
AcDbText
 73
     2
  0
LINE
  5
BFF
330
B9E
100
AcDbEntity
  8
leg fin
100
AcDbLine
 10
-52.85714285714266
 20
20.0
 30
0.0
 11
-52.85714285714266
 21
28.5
 31
0.0
  0
LINE
  5
C00
330
B9E
100
AcDbEntity
  8
leg fin
100
AcDbLine
 10
-65.71428571428578
 20
20.0
 30
0.0
 11
-65.71428571428578
 21
28.5
 31
0.0
  0
LINE
  5
C01
330
B9E
100
AcDbEntity
  8
leg fin
100
AcDbLine
 10
-78.57142857142844
 20
20.0
 30
0.0
 11
-78.57142857142844
 21
28.5
 31
0.0
  0
POINT
  5
C02
330
B9E
100
AcDbEntity
  8
SANINDUSA
100
AcDbPoint
 10
-78.57142857142844
 20
28.5
 30
0.0
  0
POINT
  5
C03
330
B9E
100
AcDbEntity
  8
SANINDUSA
100
AcDbPoint
 10
-65.71428571428578
 20
28.5
 30
0.0
  0
POINT
  5
C04
330
B9E
100
AcDbEntity
  8
SANINDUSA
100
AcDbPoint
 10
-52.85714285714266
 20
28.5
 30
0.0
  0
TEXT
  5
C05
330
B9E
100
AcDbEntity
  8
1
100
AcDbText
 10
-77.61097961686573
 20
26.43288406845113
 30
0.0
 40
1.5
  1
Peça:
 41
0.8
  7
SANINDUSA
 11
-77.61097961686573
 21
27.18288406845113
 31
0.0
100
AcDbText
 73
     2
  0
TEXT
  5
C06
330
B9E
100
AcDbEntity
  8
1
100
AcDbText
 10
-52.06538060077036
 20
26.43288406845113
 30
0.0
 40
1.5
  1
Alt.:
 41
0.8
  7
SANINDUSA
 11
-52.06538060077036
 21
27.18288406845113
 31
0.0
100
AcDbText
 73
     2
  0
LINE
  5
C07
330
B9E
100
AcDbEntity
  8
3
100
AcDbLine
 10
0.0
 20
12.0
 30
0.0
 11
-40.0
 21
12.0
 31
0.0
  0
LINE
  5
C08
330
B9E
100
AcDbEntity
  8
3
100
AcDbLine
 10
-40.0
 20
32.5
 30
0.0
 11
0.0
 21
32.5
 31
0.0
  0
TEXT
  5
C09
330
B9E
100
AcDbEntity
  8
1
100
AcDbText
 10
-19.0
 20
29.75
 30
0.0
 40
2.0
  1
Folha:
 41
0.8
  7
SANINDUSA
 11
-19.0
 21
30.75
 31
0.0
100
AcDbText
 73
     2
  0
LINE
  5
C0A
330
B9E
100
AcDbEntity
  8
3
100
AcDbLine
 10
-20.0
 20
32.5
 30
0.0
 11
-20.0
 21
20.0
 31
0.0
  0
TEXT
  5
C0B
330
B9E
100
AcDbEntity
  8
1
100
AcDbText
 10
-39.0
 20
29.75
 30
0.0
 40
2.0
  1
Escala:
 41
0.8
  7
SANINDUSA
 11
-39.0
 21
30.75
 31
0.0
100
AcDbText
 73
     2
  0
TEXT
  5
C0C
330
B9E
100
AcDbEntity
  8
1
100
AcDbText
 10
-39.0
 20
17.25
 30
0.0
 40
2.0
  1
Substitui:
 41
0.8
  7
SANINDUSA
 11
-39.0
 21
18.25
 31
0.0
100
AcDbText
 73
     2
  0
LWPOLYLINE
  5
C0D
102
{ACAD_REACTORS
330
BEC
102
}
330
B9E
100
AcDbEntity
  8
9
100
AcDbPolyline
 90
        6
 70
     1
 43
0.0
 10
-2.638748516194482
 20
57.02796337120571
 10
-2.638748516194482
 20
55.50786840766477
 10
-5.21497371544865
 20
55.507868407665
 42
-0.4142135623730898
 10
-5.614973715448741
 20
55.90786840766487
 10
-5.614973715448741
 20
56.62796337120562
 42
-0.4142135623731576
 10
-5.21497371544865
 20
57.02796337120571
  0
LINE
  5
C0E
330
B9E
100
AcDbEntity
  8
3
100
AcDbLine
 10
-40.0
 20
50.0
 30
0.0
 11
0.0
 21
50.0
 31
0.0
  0
ATTDEF
  5
C0F
330
B9E
100
AcDbEntity
  8
1
100
AcDbText
 10
-31.30691739422431
 20
40.25
 30
0.0
 40
2.0
  1
XXXXXXXXXXXXXXX
 41
0.8
  7
SANINDUSA
 72
     4
 11
-20.0
 21
41.25
 31
0.0
100
AcDbAttributeDefinition
  3
Observações:
  2
OBS
 70
     0
  0
TEXT
  5
C10
330
B9E
100
AcDbEntity
  8
1
100
AcDbText
 10
-39.0
 20
47.25
 30
0.0
 40
2.0
  1
Observações:
 41
0.8
  7
SANINDUSA
 11
-39.0
 21
48.25
 31
0.0
100
AcDbText
 73
     2
  0
LWPOLYLINE
  5
C11
102
{ACAD_REACTORS
330
BEC
102
}
330
B9E
100
AcDbEntity
  8
9
100
AcDbPolyline
 90
        6
 70
     1
 43
0.0
 10
-29.98468712904878
 20
57.02796337120571
 10
-29.98468712904878
 20
55.507868407665
 10
-32.57692046803459
 20
55.507868407665
 42
-0.4142135623731731
 10
-32.97692046803468
 20
55.90786840766487
 10
-32.97692046803468
 20
56.62796337120562
 42
-0.4142135623731576
 10
-32.57692046803459
 20
57.02796337120571
  0
LWPOLYLINE
  5
C12
102
{ACAD_REACTORS
330
BEC
102
}
330
B9E
100
AcDbEntity
  8
9
100
AcDbPolyline
 90
        4
 70
     1
 43
0.0
 10
-24.19231812786165
 20
59.87619128370352
 10
-24.57637781922995
 20
59.87619128370352
 10
-24.57637781922995
 20
59.28412752246913
 10
-24.19231812786165
 20
59.28412752246913
  0
ENDBLK
  5
C14
330
B9E
100
AcDbEntity
  8
0
100
AcDbBlockEnd
  0
ENDSEC
  0
SECTION
  2
ENTITIES
  0
LINE
  5
1C6C
330
1F
100
AcDbEntity
  8
SANINDUSA
100
AcDbLine
 10
4758.212777411951
 20
2646.18340640448
 30
0.0
 11
4758.249516642107
 21
2646.18340640448
 31
0.0
  0
ELLIPSE
  5
1C84
330
1F
100
AcDbEntity
  8
SANINDUSA
100
AcDbEllipse
 10
4757.708588396876
 20
2646.571119542502
 30
0.0
 11
0.0079343406248555
 21
0.0079343406248555
 31
0.0
210
0.0
220
0.0
230
1.0
 40
0.8911979137515642
 41
5.519407516233534
 42
7.046963098125666
  0
LINE
  5
1C87
330
1F
100
AcDbEntity
  8
SANINDUSA
100
AcDbLine
 10
4757.709428088991
 20
2646.581740685395
 30
0.0
 11
4757.1120215601
 21
2646.581740685395
 31
0.0
  0
ELLIPSE
  5
1C89
330
1F
100
AcDbEntity
  8
SANINDUSA
100
AcDbEllipse
 10
4757.112861226882
 20
2646.571119542502
 30
0.0
 11
0.0079343406248555
 21
-0.0079343406248555
 31
0.0
210
0.0
220
0.0
230
1.0
 40
0.8911979137515597
 41
2.377814862643725
 42
3.905370444535889
  0
LINE
  5
1C8B
330
1F
100
AcDbEntity
  8
SANINDUSA
100
AcDbLine
 10
4757.10224008399
 20
2646.571959209285
 30
0.0
 11
4757.10224008399
 21
2645.974552680395
 31
0.0
  0
LINE
  5
1C8D
330
1F
100
AcDbEntity
  8
SANINDUSA
100
AcDbLine
 10
4757.719209568826
 20
2645.974552680395
 30
0.0
 11
4757.719209568826
 21
2646.571959209285
 31
0.0
  0
ELLIPSE
  5
1C8F
330
1F
100
AcDbEntity
  8
SANINDUSA
100
AcDbEllipse
 10
4757.112861226882
 20
2645.97539237251
 30
0.0
 11
0.0079343406248555
 21
0.0079343406248555
 31
0.0
210
0.0
220
0.0
230
0.9999999999999998
 40
0.8911979137515533
 41
2.377814862643709
 42
3.905370444535897
  0
ELLIPSE
  5
1C92
330
1F
100
AcDbEntity
  8
SANINDUSA
100
AcDbEllipse
 10
4757.708588396876
 20
2645.97539237251
 30
0.0
 11
-0.0079343406248553
 21
0.0079343406248554
 31
0.0
210
0.0
220
0.0
230
1.0
 40
0.8911979137515787
 41
2.377814862643728
 42
3.905370444535875
  0
LINE
  5
1C93
330
1F
100
AcDbEntity
  8
SANINDUSA
100
AcDbLine
 10
4757.1120215601
 20
2645.964771200559
 30
0.0
 11
4757.709428088991
 21
2645.964771200559
 31
0.0
  0
LINE
  5
1C99
330
1F
100
AcDbEntity
  8
SANINDUSA
100
AcDbLine
 10
4757.719209568826
 20
2646.571959209285
 30
0.0
 11
4757.698563175527
 21
2646.551312823437
 31
0.0
  0
LINE
  5
1C9B
330
1F
100
AcDbEntity
  8
SANINDUSA
100
AcDbLine
 10
4757.688781695691
 20
2646.561094299547
 30
0.0
 11
4757.709428088991
 21
2646.581740685395
 31
0.0
  0
LINE
  5
1C9C
330
1F
100
AcDbEntity
  8
SANINDUSA
100
AcDbLine
 10
4757.1120215601
 20
2646.581740685395
 30
0.0
 11
4757.132667945948
 21
2646.561094299547
 31
0.0
  0
LINE
  5
1C9E
330
1F
100
AcDbEntity
  8
SANINDUSA
100
AcDbLine
 10
4757.122886469839
 20
2646.551312823437
 30
0.0
 11
4757.10224008399
 21
2646.571959209285
 31
0.0
  0
LINE
  5
1C9F
330
1F
100
AcDbEntity
  8
SANINDUSA
100
AcDbLine
 10
4757.709428088991
 20
2645.964771200559
 30
0.0
 11
4757.688041823235
 21
2645.986157466314
 31
0.0
  0
LINE
  5
1CA1
330
1F
100
AcDbEntity
  8
SANINDUSA
100
AcDbLine
 10
4757.697823303071
 20
2645.995938946149
 30
0.0
 11
4757.719209568826
 21
2645.974552680395
 31
0.0
  0
LINE
  5
1CA2
330
1F
100
AcDbEntity
  8
SANINDUSA
100
AcDbLine
 10
4757.10224008399
 20
2645.974552680395
 30
0.0
 11
4757.12362634602
 21
2645.995938946149
 31
0.0
  0
LINE
  5
1CA4
330
1F
100
AcDbEntity
  8
SANINDUSA
100
AcDbLine
 10
4757.133407825855
 20
2645.986157466314
 30
0.0
 11
4757.1120215601
 21
2645.964771200559
 31
0.0
  0
LWPOLYLINE
  5
1CA6
330
1F
100
AcDbEntity
  8
SANINDUSA
100
AcDbPolyline
 90
        5
 70
   128
 43
0.0
 10
4757.132704915729
 20
2646.561058808706
 10
4757.271872820584
 20
2646.561048273585
 10
4757.410724805919
 20
2646.561029580078
 10
4757.549734758464
 20
2646.561048303387
 10
4757.688744681207
 20
2646.561058808706
  0
LWPOLYLINE
  5
1CA8
330
1F
100
AcDbEntity
  8
SANINDUSA
100
AcDbPolyline
 90
       11
 70
   128
 43
0.0
 10
4757.698563175527
 20
2646.551312823437
 10
4757.698080675927
 20
2646.412072737358
 10
4757.697604315606
 20
2646.273239542387
 10
4757.697317259637
 20
2646.20394330158
 10
4757.696997599928
 20
2646.134650160215
 10
4757.69690396103
 20
2646.111506809137
 10
4757.696858721105
 20
2646.088338781736
 10
4757.696894960729
 20
2646.065171946428
 10
4757.69704576048
 20
2646.042032410047
 10
4757.697344141332
 20
2646.018946100614
 10
4757.697823303071
 20
2645.995938946149
  0
LWPOLYLINE
  5
1CA9
330
1F
100
AcDbEntity
  8
SANINDUSA
100
AcDbPolyline
 90
       11
 70
   128
 43
0.0
 10
4757.12362634602
 20
2645.995938946149
 10
4757.124104166654
 20
2646.018866349599
 10
4757.124402428297
 20
2646.04187255039
 10
4757.124553853897
 20
2646.064931799314
 10
4757.124591151503
 20
2646.088018227957
 10
4757.124547044067
 20
2646.111105908296
 10
4757.124454247085
 20
2646.134169031522
 10
4757.124133536843
 20
2646.203702737234
 10
4757.123845288781
 20
2646.273239542387
 10
4757.123368943361
 20
2646.412072737358
 10
4757.122886469839
 20
2646.551312823437
  0
LWPOLYLINE
  5
1CAB
330
1F
100
AcDbEntity
  8
SANINDUSA
100
AcDbPolyline
 90
       10
 70
   128
 43
0.0
 10
4757.687772350637
 20
2645.986373831175
 10
4757.628230707971
 20
2645.986525405786
 10
4757.572682218877
 20
2645.986690331838
 10
4757.51713074955
 20
2645.986875821492
 10
4757.461579369632
 20
2645.987019111059
 10
4757.406030999748
 20
2645.987057317636
 10
4757.350488649932
 20
2645.986927796743
 10
4757.281068729487
 20
2645.986709584138
 10
4757.211643340317
 20
2645.986566413782
 10
4757.13367725375
 20
2645.986373831175
  0
ELLIPSE
  5
1CAE
330
1F
100
AcDbEntity
  8
SANINDUSA
100
AcDbEllipse
 10
4757.065027370923
 20
2646.618953398462
 30
0.0
 11
0.0035366109458464
 21
-0.0035366109458495
 31
0.0
210
0.0
220
0.0
230
1.0
 40
0.9996954598818554
 41
2.356346783440355
 42
3.926838523740157
  0
ELLIPSE
  5
1CB1
330
1F
100
AcDbEntity
  8
SANINDUSA
100
AcDbEllipse
 10
4757.756422252836
 20
2646.618953398462
 30
0.0
 11
0.0035366109458462
 21
0.0035366109458495
 31
0.0
210
0.0
220
0.0
230
1.0
 40
0.9996954598819051
 41
5.497939437029254
 42
7.068431177328992
  0
ELLIPSE
  5
1CB4
330
1F
100
AcDbEntity
  8
SANINDUSA
100
AcDbEllipse
 10
4757.756422252836
 20
2645.927558516549
 30
0.0
 11
0.0035366109458465
 21
-0.0035366109458495
 31
0.0
210
0.0
220
0.0
230
1.0
 40
0.9996954598818604
 41
5.497939437030142
 42
7.068431177329904
  0
ELLIPSE
  5
1CB7
330
1F
100
AcDbEntity
  8
SANINDUSA
100
AcDbEllipse
 10
4757.065027370923
 20
2645.927558516549
 30
0.0
 11
0.0035366109458463
 21
0.0035366109458496
 31
0.0
210
0.0
220
0.0
230
1.0
 40
0.9996954598818902
 41
2.356346783439464
 42
3.926838523739209
  0
LINE
  5
1CB9
330
1F
100
AcDbEntity
  8
SANINDUSA
100
AcDbLine
 10
4757.756423788396
 20
2646.623954160086
 30
0.0
 11
4757.065025847656
 21
2646.623954160086
 31
0.0
  0
LINE
  5
1CBA
330
1F
100
AcDbEntity
  8
SANINDUSA
100
AcDbLine
 10
4757.761423008767
 20
2645.927556980989
 30
0.0
 11
4757.761423008767
 21
2646.618954921729
 31
0.0
  0
LINE
  5
1CBB
330
1F
100
AcDbEntity
  8
SANINDUSA
100
AcDbLine
 10
4757.060026609298
 20
2646.618954921729
 30
0.0
 11
4757.060026609298
 21
2645.927556980989
 31
0.0
  0
LINE
  5
1CBC
330
1F
100
AcDbEntity
  8
SANINDUSA
100
AcDbLine
 10
4757.065025847656
 20
2645.922557760618
 30
0.0
 11
4757.756423788396
 21
2645.922557760618
 31
0.0
  0
ARC
  5
1CCD
330
1F
100
AcDbEntity
  8
SANINDUSA
100
AcDbCircle
 10
4757.133293761934
 20
2646.550727310958
 30
0.0
 40
0.0103482648572038
100
AcDbArc
 50
93.26205759323084
 51
176.937181511228
  0
ARC
  5
1CCE
330
1F
100
AcDbEntity
  8
SANINDUSA
100
AcDbCircle
 10
4757.68815588721
 20
2646.550727355112
 30
0.0
 40
0.0103482178042501
100
AcDbArc
 50
3.062587599409183
 51
86.73821710798767
  0
ARC
  5
1CCF
330
1F
100
AcDbEntity
  8
SANINDUSA
100
AcDbCircle
 10
4757.134584985979
 20
2645.996790129198
 30
0.0
 40
0.010455775547878
100
AcDbArc
 50
184.1528819796616
 51
265.0195199854353
  0
ARC
  5
1CD0
330
1F
100
AcDbEntity
  8
SANINDUSA
100
AcDbCircle
 10
4757.686864634131
 20
2645.996790113699
 30
0.0
 40
0.0104557587434299
100
AcDbArc
 50
274.9804015517327
 51
355.847196495699
  0
ARC
  5
1CD3
330
1F
100
AcDbEntity
  8
SANINDUSA
100
AcDbCircle
 10
4757.611227748017
 20
2646.473700910249
 30
0.0
 40
0.0025905568469433
100
AcDbArc
 50
0.0
 51
89.99692607094411
  0
ARC
  5
1CDE
330
1F
100
AcDbEntity
  8
SANINDUSA
100
AcDbCircle
 10
4757.210221893705
 20
2646.473700910167
 30
0.0
 40
0.0025905569293159
100
AcDbArc
 50
90.00340534997761
 51
180.0
  0
LWPOLYLINE
  5
1CE7
330
1F
100
AcDbEntity
  8
SANINDUSA
100
AcDbPolyline
 90
        3
 70
   128
 43
0.0
 10
4757.210221739737
 20
2646.476291467092
 10
4757.218221711246
 20
2646.476292331359
 10
4757.221220987168
 20
2646.476292703888
  0
LWPOLYLINE
  5
1CEA
330
1F
100
AcDbEntity
  8
SANINDUSA
100
AcDbPolyline
 90
        3
 70
   128
 43
0.0
 10
4757.60022862467
 20
2646.476292703888
 10
4757.608228581277
 20
2646.476291780016
 10
4757.611227887002
 20
2646.476291467092
  0
LINE
  5
1CEB
330
1F
100
AcDbEntity
  8
SANINDUSA
100
AcDbLine
 10
4757.207631008951
 20
2646.462701459072
 30
0.0
 11
4757.207631336775
 21
2646.473700930021
 31
0.0
  0
LWPOLYLINE
  5
1CED
330
1F
100
AcDbEntity
  8
SANINDUSA
100
AcDbPolyline
 90
        3
 70
   128
 43
0.0
 10
4757.613818304863
 20
2646.473700930021
 10
4757.613818543283
 20
2646.465701927088
 10
4757.613818602887
 20
2646.462701473973
  0
ARC
  5
1CEF
330
1F
100
AcDbEntity
  8
SANINDUSA
100
AcDbCircle
 10
4757.221221219638
 20
2646.473702995343
 30
0.0
 40
0.0025897085556446
100
AcDbArc
 50
0.0
 51
90.00514322541581
  0
ARC
  5
1CF2
330
1F
100
AcDbEntity
  8
SANINDUSA
100
AcDbCircle
 10
4757.600228463346
 20
2646.473702924189
 30
0.0
 40
0.0025897797040664
100
AcDbArc
 50
89.99643091974787
 51
180.0
  0
LWPOLYLINE
  5
1CF3
330
1F
100
AcDbEntity
  8
SANINDUSA
100
AcDbPolyline
 90
        3
 70
   128
 43
0.0
 10
4757.223810928193
 20
2646.473703031084
 10
4757.223810540764
 20
2646.465704072854
 10
4757.223810406652
 20
2646.462703649542
  0
LWPOLYLINE
  5
1CF5
330
1F
100
AcDbEntity
  8
SANINDUSA
100
AcDbPolyline
 90
        3
 70
   128
 43
0.0
 10
4757.597639220086
 20
2646.462703664444
 10
4757.597638862459
 20
2646.470702607772
 10
4757.597638683644
 20
2646.473703031084
  0
ARC
  5
1CF7
330
1F
100
AcDbEntity
  8
SANINDUSA
100
AcDbCircle
 10
4757.210220859547
 20
2646.462701428245
 30
0.0
 40
0.0025898505964724
100
AcDbArc
 50
180.0
 51
270.0026599134533
  0
ARC
  5
1CF9
330
1F
100
AcDbEntity
  8
SANINDUSA
100
AcDbCircle
 10
4757.611228789758
 20
2646.462701390778
 30
0.0
 40
0.0025898131301936
100
AcDbArc
 50
269.9971704678202
 51
0.0
  0
LWPOLYLINE
  5
1CFB
330
1F
100
AcDbEntity
  8
SANINDUSA
100
AcDbPolyline
 90
        3
 70
   128
 43
0.0
 10
4757.221219958988
 20
2646.460112918756
 10
4757.21322000238
 20
2646.460111905477
 10
4757.210220979778
 20
2646.460111577651
  0
LWPOLYLINE
  5
1CFD
330
1F
100
AcDbEntity
  8
SANINDUSA
100
AcDbPolyline
 90
        3
 70
   128
 43
0.0
 10
4757.611228661863
 20
2646.460111577651
 10
4757.603228705255
 20
2646.460112516425
 10
4757.600229697553
 20
2646.460112918756
  0
ARC
  5
1CFF
330
1F
100
AcDbEntity
  8
SANINDUSA
100
AcDbCircle
 10
4757.600229944109
 20
2646.462703642768
 30
0.0
 40
0.0025907240231737
100
AcDbArc
 50
180.0
 51
269.9945472399482
  0
ARC
  5
1D00
330
1F
100
AcDbEntity
  8
SANINDUSA
100
AcDbCircle
 10
4757.221219674205
 20
2646.462703651188
 30
0.0
 40
0.0025907324473777
100
AcDbArc
 50
270.0062981439607
 51
0.0
  0
ARC
  5
1D03
330
1F
100
AcDbEntity
  8
SANINDUSA
100
AcDbCircle
 10
4757.54623078374
 20
2646.47371121535
 30
0.0
 40
0.0025908911715961
100
AcDbArc
 50
0.0
 51
89.99875988127225
  0
ARC
  5
1D0E
330
1F
100
AcDbEntity
  8
SANINDUSA
100
AcDbCircle
 10
4757.27521896418
 20
2646.47371109417
 30
0.0
 40
0.002591012357632
100
AcDbArc
 50
90.00424927479603
 51
180.0
  0
LWPOLYLINE
  5
1D17
330
1F
100
AcDbEntity
  8
SANINDUSA
100
AcDbPolyline
 90
        3
 70
   128
 43
0.0
 10
4757.275218772021
 20
2646.476302106521
 10
4757.283218683926
 20
2646.476303790353
 10
4757.286218675104
 20
2646.476304431102
  0
LWPOLYLINE
  5
1D1A
330
1F
100
AcDbEntity
  8
SANINDUSA
100
AcDbPolyline
 90
        3
 70
   128
 43
0.0
 10
4757.535230951634
 20
2646.476304431102
 10
4757.543230848638
 20
2646.47630273237
 10
4757.546230839817
 20
2646.476302106521
  0
LWPOLYLINE
  5
1D1B
330
1F
100
AcDbEntity
  8
SANINDUSA
100
AcDbPolyline
 90
        3
 70
   128
 43
0.0
 10
4757.272627042858
 20
2646.462712634943
 10
4757.272627698508
 20
2646.470711235545
 10
4757.272627951828
 20
2646.473711271426
  0
LWPOLYLINE
  5
1D1D
330
1F
100
AcDbEntity
  8
SANINDUSA
100
AcDbPolyline
 90
        3
 70
   128
 43
0.0
 10
4757.548821674911
 20
2646.473711271426
 10
4757.548822330561
 20
2646.465712685726
 10
4757.54882256898
 20
2646.462712634943
  0
ARC
  5
1D1F
330
1F
100
AcDbEntity
  8
SANINDUSA
100
AcDbCircle
 10
4757.286219237722
 20
2646.473715157058
 30
0.0
 40
0.0025892741050383
100
AcDbArc
 50
0.0
 51
90.01244970197577
  0
ARC
  5
1D22
330
1F
100
AcDbEntity
  8
SANINDUSA
100
AcDbCircle
 10
4757.535230500087
 20
2646.473715060859
 30
0.0
 40
0.002589370283054
100
AcDbArc
 50
89.99000849290629
 51
180.0
  0
LWPOLYLINE
  5
1D23
330
1F
100
AcDbEntity
  8
SANINDUSA
100
AcDbPolyline
 90
        3
 70
   128
 43
0.0
 10
4757.288808511821
 20
2646.473715339443
 10
4757.288807811466
 20
2646.465716917655
 10
4757.288807543246
 20
2646.462717030785
  0
LWPOLYLINE
  5
1D25
330
1F
100
AcDbEntity
  8
SANINDUSA
100
AcDbPolyline
 90
        3
 70
   128
 43
0.0
 10
4757.532642083493
 20
2646.462717030785
 10
4757.532641368237
 20
2646.470715467474
 10
4757.532641129819
 20
2646.473715339443
  0
ARC
  5
1D27
330
1F
100
AcDbEntity
  8
SANINDUSA
100
AcDbCircle
 10
4757.275216279316
 20
2646.462712720076
 30
0.0
 40
0.0025892364596365
100
AcDbArc
 50
180.0
 51
270.0126233331957
  0
ARC
  5
1D29
330
1F
100
AcDbEntity
  8
SANINDUSA
100
AcDbCircle
 10
4757.546233298986
 20
2646.462712753623
 30
0.0
 40
0.0025892699962386
100
AcDbArc
 50
269.9884486780268
 51
0.0
  0
LWPOLYLINE
  5
1D2B
330
1F
100
AcDbEntity
  8
SANINDUSA
100
AcDbPolyline
 90
        3
 70
   128
 43
0.0
 10
4757.286216663447
 20
2646.460126121185
 10
4757.278216811148
 20
2646.460124184034
 10
4757.275216849772
 20
2646.460123483679
  0
LWPOLYLINE
  5
1D2D
330
1F
100
AcDbEntity
  8
SANINDUSA
100
AcDbPolyline
 90
        3
 70
   128
 43
0.0
 10
4757.546232776967
 20
2646.460123483679
 10
4757.538232909766
 20
2646.460125391028
 10
4757.535232948391
 20
2646.460126121185
  0
ARC
  5
1D2F
330
1F
100
AcDbEntity
  8
SANINDUSA
100
AcDbCircle
 10
4757.286216384662
 20
2646.462717279765
 30
0.0
 40
0.0025911585947434
100
AcDbArc
 50
270.0061644812755
 51
0.0
  0
ARC
  5
1D30
330
1F
100
AcDbEntity
  8
SANINDUSA
100
AcDbCircle
 10
4757.535233120941
 20
2646.462717158629
 30
0.0
 40
0.0025910374499775
100
AcDbArc
 50
180.0
 51
269.9961843863548
  0
ARC
  5
1D33
330
1F
100
AcDbEntity
  8
SANINDUSA
100
AcDbCircle
 10
4757.481230045537
 20
2646.473724720276
 30
0.0
 40
0.0025906780929206
100
AcDbArc
 50
0.0
 51
90.00544978976995
  0
ARC
  5
1D3E
330
1F
100
AcDbEntity
  8
SANINDUSA
100
AcDbCircle
 10
4757.340219829512
 20
2646.473724457018
 30
0.0
 40
0.0025909413387942
100
AcDbArc
 50
89.99971229954224
 51
179.9894124563392
  0
LWPOLYLINE
  5
1D47
330
1F
100
AcDbEntity
  8
SANINDUSA
100
AcDbPolyline
 90
        3
 70
   128
 43
0.0
 10
4757.340219842521
 20
2646.476315398357
 10
4757.348219769326
 20
2646.476316754363
 10
4757.351220386353
 20
2646.4763172312
  0
LWPOLYLINE
  5
1D4A
330
1F
100
AcDbEntity
  8
SANINDUSA
100
AcDbPolyline
 90
        3
 70
   128
 43
0.0
 10
4757.470229225484
 20
2646.4763172312
 10
4757.478229182092
 20
2646.476315919898
 10
4757.481229799119
 20
2646.476315398357
  0
LWPOLYLINE
  5
1D4B
330
1F
100
AcDbEntity
  8
SANINDUSA
100
AcDbPolyline
 90
        3
 70
   128
 43
0.0
 10
4757.337628053752
 20
2646.462727655313
 10
4757.337628679601
 20
2646.470725540659
 10
4757.337628888217
 20
2646.473724935792
  0
LWPOLYLINE
  5
1D4D
330
1F
100
AcDbEntity
  8
SANINDUSA
100
AcDbPolyline
 90
        3
 70
   128
 43
0.0
 10
4757.48382072362
 20
2646.473724935792
 10
4757.483821319667
 20
2646.465727050445
 10
4757.483821558086
 20
2646.462727655313
  0
ARC
  5
1D50
330
1F
100
AcDbEntity
  8
SANINDUSA
100
AcDbCircle
 10
4757.470228726684
 20
2646.473727610138
 30
0.0
 40
0.0025896211094181
100
AcDbArc
 50
89.98896399588325
 51
179.9866384214724
  0
ARC
  5
1D51
330
1F
100
AcDbEntity
  8
SANINDUSA
100
AcDbCircle
 10
4757.351221152579
 20
2646.473727877678
 30
0.0
 40
0.0025893536351124
100
AcDbArc
 50
0.0
 51
90.01695462960245
  0
LWPOLYLINE
  5
1D53
330
1F
100
AcDbEntity
  8
SANINDUSA
100
AcDbPolyline
 90
        3
 70
   128
 43
0.0
 10
4757.353810506192
 20
2646.473728214047
 10
4757.35380996975
 20
2646.465730492613
 10
4757.353809790937
 20
2646.462731246493
  0
LWPOLYLINE
  5
1D55
330
1F
100
AcDbEntity
  8
SANINDUSA
100
AcDbPolyline
 90
        3
 70
   128
 43
0.0
 10
4757.467639850704
 20
2646.462731246493
 10
4757.467639314262
 20
2646.470728967927
 10
4757.467639105645
 20
2646.473728214047
  0
ARC
  5
1D59
330
1F
100
AcDbEntity
  8
SANINDUSA
100
AcDbCircle
 10
4757.405224020075
 20
2646.47373194656
 30
0.0
 40
0.0025903063510689
100
AcDbArc
 50
89.99291712841465
 51
179.9853256089678
  0
ARC
  5
1D63
330
1F
100
AcDbEntity
  8
SANINDUSA
100
AcDbCircle
 10
4757.416225914035
 20
2646.473732239141
 30
0.0
 40
0.0025900138220397
100
AcDbArc
 50
0.0082041008807657
 51
90.01355365676081
  0
LWPOLYLINE
  5
1D65
330
1F
100
AcDbEntity
  8
SANINDUSA
100
AcDbPolyline
 90
        3
 70
   128
 43
0.0
 10
4757.405224340288
 20
2646.476322252891
 10
4757.413224326698
 20
2646.476322297595
 10
4757.416225301352
 20
2646.476322252891
  0
LWPOLYLINE
  5
1D66
330
1F
100
AcDbEntity
  8
SANINDUSA
100
AcDbPolyline
 90
        3
 70
   128
 43
0.0
 10
4757.4026335946
 20
2646.462736163876
 10
4757.402633654204
 20
2646.470733572385
 10
4757.402633713809
 20
2646.473732609889
  0
LWPOLYLINE
  5
1D68
330
1F
100
AcDbEntity
  8
SANINDUSA
100
AcDbPolyline
 90
        3
 70
   128
 43
0.0
 10
4757.418815927831
 20
2646.473732609889
 10
4757.418816017238
 20
2646.465735186479
 10
4757.41881604704
 20
2646.462736163876
  0
ARC
  5
1D6A
330
1F
100
AcDbEntity
  8
SANINDUSA
100
AcDbCircle
 10
4757.481232154307
 20
2646.462728146225
 30
0.0
 40
0.0025894038257008
100
AcDbArc
 50
269.986793501453
 51
359.9891375749876
  0
ARC
  5
1D6C
330
1F
100
AcDbEntity
  8
SANINDUSA
100
AcDbCircle
 10
4757.340217261116
 20
2646.462727949719
 30
0.0
 40
0.0025892073812384
100
AcDbArc
 50
180.0
 51
270.0182134038454
  0
LWPOLYLINE
  5
1D6E
330
1F
100
AcDbEntity
  8
SANINDUSA
100
AcDbPolyline
 90
        3
 70
   128
 43
0.0
 10
4757.351218806831
 20
2646.460140873335
 10
4757.343218909827
 20
2646.460139353416
 10
4757.340218084183
 20
2646.460138742468
  0
LWPOLYLINE
  5
1D70
330
1F
100
AcDbEntity
  8
SANINDUSA
100
AcDbPolyline
 90
        3
 70
   128
 43
0.0
 10
4757.481231557456
 20
2646.460138742468
 10
4757.47323163065
 20
2646.460140321992
 10
4757.470230805007
 20
2646.460140888236
  0
ARC
  5
1D72
330
1F
100
AcDbEntity
  8
SANINDUSA
100
AcDbCircle
 10
4757.351218824582
 20
2646.462731839756
 30
0.0
 40
0.0025909664222077
100
AcDbArc
 50
269.999607453804
 51
359.9868807599999
  0
ARC
  5
1D73
330
1F
100
AcDbEntity
  8
SANINDUSA
100
AcDbCircle
 10
4757.470230482853
 20
2646.46273152038
 30
0.0
 40
0.0025906321648225
100
AcDbArc
 50
180.0
 51
270.0071249245228
  0
ARC
  5
1D76
330
1F
100
AcDbEntity
  8
SANINDUSA
100
AcDbCircle
 10
4757.611229276775
 20
2646.40870297788
 30
0.0
 40
0.0025905778101354
100
AcDbArc
 50
0.0
 51
89.98855279422533
  0
ARC
  5
1D81
330
1F
100
AcDbEntity
  8
SANINDUSA
100
AcDbCircle
 10
4757.210220234845
 20
2646.40870307807
 30
0.0
 40
0.0025904775957638
100
AcDbArc
 50
90.00824232372158
 51
180.0
  0
LWPOLYLINE
  5
1D8A
330
1F
100
AcDbEntity
  8
SANINDUSA
100
AcDbPolyline
 90
        3
 70
   128
 43
0.0
 10
4757.21021986219
 20
2646.411293555639
 10
4757.218219788995
 20
2646.411294643423
 10
4757.221218245354
 20
2646.411295135162
  0
LWPOLYLINE
  5
1D8D
330
1F
100
AcDbEntity
  8
SANINDUSA
100
AcDbPolyline
 90
        3
 70
   128
 43
0.0
 10
4757.600231366483
 20
2646.411295135162
 10
4757.608231263485
 20
2646.411293928168
 10
4757.611229794351
 20
2646.411293555639
  0
LINE
  5
1D8E
330
1F
100
AcDbEntity
  8
SANINDUSA
100
AcDbLine
 10
4757.207629593341
 20
2646.39770305588
 30
0.0
 11
4757.207629757252
 21
2646.408702944062
 31
0.0
  0
LWPOLYLINE
  5
1D90
330
1F
100
AcDbEntity
  8
SANINDUSA
100
AcDbPolyline
 90
        3
 70
   128
 43
0.0
 10
4757.613819854585
 20
2646.408702944062
 10
4757.613819973794
 20
2646.400703747413
 10
4757.613820033399
 20
2646.39770305588
  0
ARC
  5
1D92
330
1F
100
AcDbEntity
  8
SANINDUSA
100
AcDbCircle
 10
4757.416225882805
 20
2646.462736908703
 30
0.0
 40
0.0025901643416959
100
AcDbArc
 50
269.9910934274502
 51
359.9835238984545
  0
ARC
  5
1D94
330
1F
100
AcDbEntity
  8
SANINDUSA
100
AcDbCircle
 10
4757.405223345235
 20
2646.46273649492
 30
0.0
 40
0.0025897506561196
100
AcDbArc
 50
180.0
 51
270.0180584801885
  0
ARC
  5
1D96
330
1F
100
AcDbEntity
  8
SANINDUSA
100
AcDbCircle
 10
4757.221218478079
 20
2646.408705531178
 30
0.0
 40
0.0025896039949521
100
AcDbArc
 50
0.0
 51
90.00514911386927
  0
ARC
  5
1D99
330
1F
100
AcDbEntity
  8
SANINDUSA
100
AcDbCircle
 10
4757.600231040243
 20
2646.408705639597
 30
0.0
 40
0.0025894955856051
100
AcDbArc
 50
89.9927815376515
 51
180.0
  0
LWPOLYLINE
  5
1D9A
330
1F
100
AcDbEntity
  8
SANINDUSA
100
AcDbPolyline
 90
        3
 70
   128
 43
0.0
 10
4757.416225480167
 20
2646.460146744392
 10
4757.408225463954
 20
2646.460146789096
 10
4757.405224161473
 20
2646.460146744392
  0
LWPOLYLINE
  5
1D9B
330
1F
100
AcDbEntity
  8
SANINDUSA
100
AcDbPolyline
 90
        3
 70
   128
 43
0.0
 10
4757.223808082072
 20
2646.408705417655
 10
4757.223807784049
 20
2646.400706265709
 10
4757.22380767974
 20
2646.397705574176
  0
LWPOLYLINE
  5
1D9D
330
1F
100
AcDbEntity
  8
SANINDUSA
100
AcDbPolyline
 90
        3
 70
   128
 43
0.0
 10
4757.5976419619
 20
2646.397705574176
 10
4757.597641663877
 20
2646.405704726122
 10
4757.597641544667
 20
2646.408705417655
  0
ARC
  5
1DAB
330
1F
100
AcDbEntity
  8
SANINDUSA
100
AcDbCircle
 10
4757.210219435474
 20
2646.39770288249
 30
0.0
 40
0.0025898421408899
100
AcDbArc
 50
180.0
 51
270.0008690940475
  0
ARC
  5
1DAD
330
1F
100
AcDbEntity
  8
SANINDUSA
100
AcDbCircle
 10
4757.611230303854
 20
2646.397702784804
 30
0.0
 40
0.0025897295582465
100
AcDbArc
 50
269.9966398816828
 51
0.0
  0
LWPOLYLINE
  5
1DAF
330
1F
100
AcDbEntity
  8
SANINDUSA
100
AcDbPolyline
 90
        3
 70
   128
 43
0.0
 10
4757.221217500297
 20
2646.395114679477
 10
4757.213217603293
 20
2646.39511342778
 10
4757.21021947476
 20
2646.39511304035
  0
LWPOLYLINE
  5
1DB1
330
1F
100
AcDbEntity
  8
SANINDUSA
100
AcDbPolyline
 90
        3
 70
   128
 43
0.0
 10
4757.611230151979
 20
2646.39511305525
 10
4757.603230254975
 20
2646.395114172838
 10
4757.600232141343
 20
2646.395114679477
  0
ARC
  5
1DB3
330
1F
100
AcDbEntity
  8
SANINDUSA
100
AcDbCircle
 10
4757.600232790498
 20
2646.397705507995
 30
0.0
 40
0.0025908285994636
100
AcDbArc
 50
180.0
 51
269.9856440544578
  0
ARC
  5
1DB4
330
1F
100
AcDbEntity
  8
SANINDUSA
100
AcDbCircle
 10
4757.221216951364
 20
2646.3977054078
 30
0.0
 40
0.0025907283807945
100
AcDbArc
 50
270.0121400110062
 51
0.0
  0
ARC
  5
1DD5
330
1F
100
AcDbEntity
  8
SANINDUSA
100
AcDbCircle
 10
4757.546235942963
 20
2646.408717911838
 30
0.0
 40
0.0025913049815671
100
AcDbArc
 50
0.0
 51
89.9876335701345
  0
ARC
  5
1DE0
330
1F
100
AcDbEntity
  8
SANINDUSA
100
AcDbCircle
 10
4757.275213706422
 20
2646.40871785939
 30
0.0
 40
0.0025913425303801
100
AcDbArc
 50
90.01253750767968
 51
180.0
  0
LWPOLYLINE
  5
1DE9
330
1F
100
AcDbEntity
  8
SANINDUSA
100
AcDbPolyline
 90
        3
 70
   128
 43
0.0
 10
4757.275213139382
 20
2646.411309201858
 10
4757.283212783066
 20
2646.411311884067
 10
4757.286212759344
 20
2646.411312912247
  0
LWPOLYLINE
  5
1DEC
330
1F
100
AcDbEntity
  8
SANINDUSA
100
AcDbPolyline
 90
        3
 70
   128
 43
0.0
 10
4757.535236852494
 20
2646.411312912247
 10
4757.543236481277
 20
2646.411310200236
 10
4757.546236502258
 20
2646.411309216759
  0
LWPOLYLINE
  5
1DED
330
1F
100
AcDbEntity
  8
SANINDUSA
100
AcDbPolyline
 90
        3
 70
   128
 43
0.0
 10
4757.272621365514
 20
2646.397718776605
 10
4757.272622095672
 20
2646.405717630527
 10
4757.272622363893
 20
2646.40871793463
  0
LWPOLYLINE
  5
1DEF
330
1F
100
AcDbEntity
  8
SANINDUSA
100
AcDbPolyline
 90
        3
 70
   128
 43
0.0
 10
4757.548827247945
 20
2646.40871793463
 10
4757.548827993003
 20
2646.400719110511
 10
4757.548828261223
 20
2646.397718791507
  0
ARC
  5
1DF9
330
1F
100
AcDbEntity
  8
SANINDUSA
100
AcDbCircle
 10
4757.286213581166
 20
2646.408724001791
 30
0.0
 40
0.0025889105860674
100
AcDbArc
 50
0.0
 51
90.01818797405695
  0
ARC
  5
1DFC
330
1F
100
AcDbEntity
  8
SANINDUSA
100
AcDbCircle
 10
4757.535236127471
 20
2646.408723934761
 30
0.0
 40
0.0025889775875769
100
AcDbArc
 50
89.98395474567308
 51
180.0
  0
LWPOLYLINE
  5
1DFD
330
1F
100
AcDbEntity
  8
SANINDUSA
100
AcDbPolyline
 90
        3
 70
   128
 43
0.0
 10
4757.288802491752
 20
2646.408724073908
 10
4757.288801687089
 20
2646.400725413702
 10
4757.288801374165
 20
2646.397725288413
  0
LWPOLYLINE
  5
1DFF
330
1F
100
AcDbEntity
  8
SANINDUSA
100
AcDbPolyline
 90
        3
 70
   128
 43
0.0
 10
4757.532648252574
 20
2646.397725288413
 10
4757.532647447912
 20
2646.40572396352
 10
4757.532647149888
 20
2646.408724088809
  0
ARC
  5
1E09
330
1F
100
AcDbEntity
  8
SANINDUSA
100
AcDbCircle
 10
4757.275210305251
 20
2646.397718773591
 30
0.0
 40
0.0025889397365307
100
AcDbArc
 50
180.0
 51
270.0162235233558
  0
ARC
  5
1E0B
330
1F
100
AcDbEntity
  8
SANINDUSA
100
AcDbCircle
 10
4757.546239308733
 20
2646.397718786348
 30
0.0
 40
0.0025889524906559
100
AcDbArc
 50
269.9840588618717
 51
0.0
  0
LWPOLYLINE
  5
1E0D
330
1F
100
AcDbEntity
  8
SANINDUSA
100
AcDbPolyline
 90
        3
 70
   128
 43
0.0
 10
4757.286210509268
 20
2646.395133901975
 10
4757.278210969892
 20
2646.395130921743
 10
4757.275211038319
 20
2646.395129833958
  0
LWPOLYLINE
  5
1E0F
330
1F
100
AcDbEntity
  8
SANINDUSA
100
AcDbPolyline
 90
        3
 70
   128
 43
0.0
 10
4757.54623858842
 20
2646.395129833958
 10
4757.538239019242
 20
2646.395132769487
 10
4757.535239117471
 20
2646.395133901975
  0
ARC
  5
1E21
330
1F
100
AcDbEntity
  8
SANINDUSA
100
AcDbCircle
 10
4757.286209818532
 20
2646.39772545752
 30
0.0
 40
0.0025915556374136
100
AcDbArc
 50
270.0152712092706
 51
0.0
  0
ARC
  5
1E22
330
1F
100
AcDbEntity
  8
SANINDUSA
100
AcDbCircle
 10
4757.535239766528
 20
2646.397725415851
 30
0.0
 40
0.0025915139571888
100
AcDbArc
 50
180.0
 51
269.9856499950213
  0
ARC
  5
1F22
330
1F
100
AcDbEntity
  8
SANINDUSA
100
AcDbCircle
 10
4757.611229959437
 20
2646.343703782171
 30
0.0
 40
0.0025904315897781
100
AcDbArc
 50
0.0
 51
89.98519455178588
  0
ARC
  5
1F34
330
1F
100
AcDbEntity
  8
SANINDUSA
100
AcDbCircle
 10
4757.210219458444
 20
2646.343703990968
 30
0.0
 40
0.0025902227473549
100
AcDbArc
 50
90.01018671193405
 51
180.0
  0
LWPOLYLINE
  5
1F36
330
1F
100
AcDbEntity
  8
SANINDUSA
100
AcDbPolyline
 90
        3
 70
   128
 43
0.0
 10
4757.210218997923
 20
2646.346294213674
 10
4757.218218894926
 20
2646.346295405767
 10
4757.221216293302
 20
2646.346295942209
  0
LWPOLYLINE
  5
1F39
330
1F
100
AcDbEntity
  8
SANINDUSA
100
AcDbPolyline
 90
        3
 70
   128
 43
0.0
 10
4757.600233333437
 20
2646.346295942209
 10
4757.608233170834
 20
2646.346294601104
 10
4757.611230628816
 20
2646.346294213674
  0
LINE
  5
1F3A
330
1F
100
AcDbEntity
  8
SANINDUSA
100
AcDbLine
 10
4757.207629235712
 20
2646.332704116247
 30
0.0
 11
4757.207629235712
 21
2646.343703706405
 31
0.0
  0
LINE
  5
1F3C
330
1F
100
AcDbEntity
  8
SANINDUSA
100
AcDbLine
 10
4757.613820391027
 20
2646.343703706405
 30
0.0
 11
4757.613820391027
 21
2646.332704116247
 31
0.0
  0
ARC
  5
1F40
330
1F
100
AcDbEntity
  8
SANINDUSA
100
AcDbCircle
 10
4757.221216509024
 20
2646.343706455327
 30
0.0
 40
0.0025894868911816
100
AcDbArc
 50
0.0
 51
90.00477313871845
  0
ARC
  5
1F43
330
1F
100
AcDbEntity
  8
SANINDUSA
100
AcDbCircle
 10
4757.600232959255
 20
2646.343706613787
 30
0.0
 40
0.0025893284482412
100
AcDbArc
 50
89.99172026114953
 51
180.0
  0
LWPOLYLINE
  5
1F44
330
1F
100
AcDbEntity
  8
SANINDUSA
100
AcDbPolyline
 90
        3
 70
   128
 43
0.0
 10
4757.223805995908
 20
2646.343706269405
 10
4757.223805787293
 20
2646.335707028053
 10
4757.223805712786
 20
2646.332706679246
  0
LWPOLYLINE
  5
1F46
330
1F
100
AcDbEntity
  8
SANINDUSA
100
AcDbPolyline
 90
        3
 70
   128
 43
0.0
 10
4757.597643928852
 20
2646.332706679246
 10
4757.597643690434
 20
2646.340705920599
 10
4757.59764363083
 20
2646.343706269405
  0
ARC
  5
1F4A
330
1F
100
AcDbEntity
  8
SANINDUSA
100
AcDbCircle
 10
4757.210218990017
 20
2646.332703869934
 30
0.0
 40
0.0025897543176442
100
AcDbArc
 50
180.0
 51
269.999515531397
  0
ARC
  5
1F4C
330
1F
100
AcDbEntity
  8
SANINDUSA
100
AcDbCircle
 10
4757.611230845332
 20
2646.332703691139
 30
0.0
 40
0.0025895457290135
100
AcDbArc
 50
269.995209404362
 51
0.0094064918354384
  0
LWPOLYLINE
  5
1F4E
330
1F
100
AcDbEntity
  8
SANINDUSA
100
AcDbPolyline
 90
        3
 70
   128
 43
0.0
 10
4757.221215861169
 20
2646.330115873954
 10
4757.213216008869
 20
2646.33011453285
 10
4757.210218968121
 20
2646.330114115617
  0
LWPOLYLINE
  5
1F50
330
1F
100
AcDbEntity
  8
SANINDUSA
100
AcDbPolyline
 90
        3
 70
   128
 43
0.0
 10
4757.611230628816
 20
2646.33011414542
 10
4757.603230791417
 20
2646.33011530771
 10
4757.600233750668
 20
2646.330115873954
  0
ARC
  5
1F58
330
1F
100
AcDbEntity
  8
SANINDUSA
100
AcDbCircle
 10
4757.340214813782
 20
2646.408739786747
 30
0.0
 40
0.0025914092389484
100
AcDbArc
 50
90.00610403343463
 51
179.9892818160502
  0
ARC
  5
1F63
330
1F
100
AcDbEntity
  8
SANINDUSA
100
AcDbCircle
 10
4757.481235073664
 20
2646.40874006238
 30
0.0
 40
0.0025911335918601
100
AcDbArc
 50
0.0
 51
89.99998968217884
  0
LWPOLYLINE
  5
1F6C
330
1F
100
AcDbEntity
  8
SANINDUSA
100
AcDbPolyline
 90
        3
 70
   128
 43
0.0
 10
4757.340214537708
 20
2646.411331195972
 10
4757.348214285699
 20
2646.411333550356
 10
4757.351215617982
 20
2646.411334384821
  0
LWPOLYLINE
  5
1F6F
330
1F
100
AcDbEntity
  8
SANINDUSA
100
AcDbPolyline
 90
        3
 70
   128
 43
0.0
 10
4757.470234023658
 20
2646.411334384821
 10
4757.478233771649
 20
2646.411332104943
 10
4757.48123507413
 20
2646.411331195972
  0
LWPOLYLINE
  5
1F70
330
1F
100
AcDbEntity
  8
SANINDUSA
100
AcDbPolyline
 90
        3
 70
   128
 43
0.0
 10
4757.337622331706
 20
2646.39774270787
 10
4757.337623136368
 20
2646.405740742228
 10
4757.33762340459
 20
2646.40874027147
  0
LWPOLYLINE
  5
1F72
330
1F
100
AcDbEntity
  8
SANINDUSA
100
AcDbPolyline
 90
        3
 70
   128
 43
0.0
 10
4757.483826207248
 20
2646.40874027147
 10
4757.483826982109
 20
2646.400742237112
 10
4757.483827280132
 20
2646.39774270787
  0
ARC
  5
1F78
330
1F
100
AcDbEntity
  8
SANINDUSA
100
AcDbCircle
 10
4757.600234602948
 20
2646.332706547912
 30
0.0
 40
0.0025906740981692
100
AcDbArc
 50
180.0
 51
269.9811508515925
  0
ARC
  5
1F79
330
1F
100
AcDbEntity
  8
SANINDUSA
100
AcDbCircle
 10
4757.221215201632
 20
2646.33270638504
 30
0.0
 40
0.0025905111702877
100
AcDbArc
 50
270.0145873148776
 51
0.0
  0
ARC
  5
1F7F
330
1F
100
AcDbEntity
  8
SANINDUSA
100
AcDbCircle
 10
4757.470233232509
 20
2646.408745056175
 30
0.0
 40
0.0025893287659643
100
AcDbArc
 50
89.98249373171461
 51
179.986183108519
  0
ARC
  5
1F80
330
1F
100
AcDbEntity
  8
SANINDUSA
100
AcDbCircle
 10
4757.351216676013
 20
2646.40874535301
 30
0.0
 40
0.0025890320265425
100
AcDbArc
 50
0.0
 51
90.02341441981613
  0
LWPOLYLINE
  5
1F82
330
1F
100
AcDbEntity
  8
SANINDUSA
100
AcDbPolyline
 90
        3
 70
   128
 43
0.0
 10
4757.353805708018
 20
2646.408745680592
 10
4757.353805022565
 20
2646.40074785485
 10
4757.353804754344
 20
2646.397748534224
  0
LWPOLYLINE
  5
1F84
330
1F
100
AcDbEntity
  8
SANINDUSA
100
AcDbPolyline
 90
        3
 70
   128
 43
0.0
 10
4757.467644857494
 20
2646.397748534224
 10
4757.467644172041
 20
2646.405746359966
 10
4757.467643903819
 20
2646.408745680592
  0
ARC
  5
1F8C
330
1F
100
AcDbEntity
  8
SANINDUSA
100
AcDbCircle
 10
4757.481238268951
 20
2646.39774317861
 30
0.0
 40
0.0025890112226079
100
AcDbArc
 50
269.9794221995621
 51
359.9895823616787
  0
ARC
  5
1F8E
330
1F
100
AcDbEntity
  8
SANINDUSA
100
AcDbCircle
 10
4757.340211133922
 20
2646.397742969519
 30
0.0
 40
0.0025888022289458
100
AcDbArc
 50
180.0
 51
270.0258639124703
  0
LWPOLYLINE
  5
1F90
330
1F
100
AcDbEntity
  8
SANINDUSA
100
AcDbPolyline
 90
        3
 70
   128
 43
0.0
 10
4757.351213531819
 20
2646.395157728932
 10
4757.343213843433
 20
2646.395155165932
 10
4757.340212302533
 20
2646.395154167554
  0
LWPOLYLINE
  5
1F92
330
1F
100
AcDbEntity
  8
SANINDUSA
100
AcDbPolyline
 90
        3
 70
   128
 43
0.0
 10
4757.481237339106
 20
2646.395154167554
 10
4757.47323765072
 20
2646.395156790159
 10
4757.470236080018
 20
2646.395157728932
  0
LWPOLYLINE
  5
1F9A
330
1F
100
AcDbEntity
  8
SANINDUSA
100
AcDbPolyline
 90
        3
 70
   128
 43
0.0
 10
4757.405223774043
 20
2646.411343325517
 10
4757.413223760454
 20
2646.411343400023
 10
4757.416225867596
 20
2646.411343325517
  0
ARC
  5
1FA4
330
1F
100
AcDbEntity
  8
SANINDUSA
100
AcDbCircle
 10
4757.405223377824
 20
2646.408752826955
 30
0.0
 40
0.002590498593149
100
AcDbArc
 50
89.99123657419358
 51
179.9830544636361
  0
ARC
  5
1FA5
330
1F
100
AcDbEntity
  8
SANINDUSA
100
AcDbCircle
 10
4757.416226589625
 20
2646.40875315291
 30
0.0
 40
0.0025901727080382
100
AcDbArc
 50
0.0097377303760236
 51
90.01597157048854
  0
LWPOLYLINE
  5
1FA7
330
1F
100
AcDbEntity
  8
SANINDUSA
100
AcDbPolyline
 90
        3
 70
   128
 43
0.0
 10
4757.40263270053
 20
2646.397757147096
 10
4757.402632819739
 20
2646.405754555605
 10
4757.402632879344
 20
2646.408753593109
  0
LWPOLYLINE
  5
1FA9
330
1F
100
AcDbEntity
  8
SANINDUSA
100
AcDbPolyline
 90
        3
 70
   128
 43
0.0
 10
4757.418816762296
 20
2646.408753593109
 10
4757.418816881505
 20
2646.400756184599
 10
4757.418816911307
 20
2646.397757147096
  0
ARC
  5
1FAB
330
1F
100
AcDbEntity
  8
SANINDUSA
100
AcDbCircle
 10
4757.351213253263
 20
2646.397749230092
 30
0.0
 40
0.0025915011745864
100
AcDbArc
 50
270.0061586449322
 51
359.9846138356079
  0
ARC
  5
1FAC
330
1F
100
AcDbEntity
  8
SANINDUSA
100
AcDbCircle
 10
4757.470236053785
 20
2646.397748925253
 30
0.0
 40
0.0025911963213277
100
AcDbArc
 50
180.0086480016972
 51
270.0005800387243
  0
ARC
  5
1FAF
330
1F
100
AcDbEntity
  8
SANINDUSA
100
AcDbCircle
 10
4757.275207990324
 20
2646.343722669035
 30
0.0
 40
0.0025916017970554
100
AcDbArc
 50
90.02222146073444
 51
180.0
  0
ARC
  5
1FBA
330
1F
100
AcDbEntity
  8
SANINDUSA
100
AcDbCircle
 10
4757.546241653077
 20
2646.343722685691
 30
0.0
 40
0.0025915851348451
100
AcDbArc
 50
0.0
 51
89.97814675002747
  0
LWPOLYLINE
  5
1FC3
330
1F
100
AcDbEntity
  8
SANINDUSA
100
AcDbPolyline
 90
        3
 70
   128
 43
0.0
 10
4757.275206985203
 20
2646.346314270637
 10
4757.283206166951
 20
2646.346317995928
 10
4757.286206128326
 20
2646.346319426439
  0
LWPOLYLINE
  5
1FC6
330
1F
100
AcDbEntity
  8
SANINDUSA
100
AcDbPolyline
 90
        3
 70
   128
 43
0.0
 10
4757.535243498412
 20
2646.346319426439
 10
4757.543242650357
 20
2646.346315641544
 10
4757.546242641536
 20
2646.346314270637
  0
LWPOLYLINE
  5
1FC7
330
1F
100
AcDbEntity
  8
SANINDUSA
100
AcDbPolyline
 90
        3
 70
   128
 43
0.0
 10
4757.272615375248
 20
2646.332723726175
 10
4757.272616105405
 20
2646.340722699306
 10
4757.272616388527
 20
2646.343722690485
  0
LWPOLYLINE
  5
1FC9
330
1F
100
AcDbEntity
  8
SANINDUSA
100
AcDbPolyline
 90
        3
 70
   128
 43
0.0
 10
4757.548833238212
 20
2646.343722690485
 10
4757.54883398327
 20
2646.335723747156
 10
4757.54883425149
 20
2646.332723726175
  0
ARC
  5
1FD3
330
1F
100
AcDbEntity
  8
SANINDUSA
100
AcDbCircle
 10
4757.41622665509
 20
2646.397758073348
 30
0.0
 40
0.0025902563829929
100
AcDbArc
 50
269.9885138157854
 51
359.979511334067
  0
ARC
  5
1FD5
330
1F
100
AcDbEntity
  8
SANINDUSA
100
AcDbCircle
 10
4757.405222505623
 20
2646.397757621961
 30
0.0
 40
0.0025898051361291
100
AcDbArc
 50
180.0105057306358
 51
270.0221280271185
  0
LWPOLYLINE
  5
1FD7
330
1F
100
AcDbEntity
  8
SANINDUSA
100
AcDbPolyline
 90
        3
 70
   128
 43
0.0
 10
4757.416226135818
 20
2646.395167817018
 10
4757.408226119605
 20
2646.395167906425
 10
4757.405223505823
 20
2646.395167817018
  0
ARC
  5
1FD8
330
1F
100
AcDbEntity
  8
SANINDUSA
100
AcDbCircle
 10
4757.286207252334
 20
2646.343730967293
 30
0.0
 40
0.0025884593898189
100
AcDbArc
 50
0.0
 51
90.02488001954683
  0
ARC
  5
1FDB
330
1F
100
AcDbEntity
  8
SANINDUSA
100
AcDbCircle
 10
4757.535242408141
 20
2646.343730933542
 30
0.0
 40
0.0025884931259363
100
AcDbArc
 50
89.97586708456935
 51
180.0
  0
LWPOLYLINE
  5
1FDC
330
1F
100
AcDbEntity
  8
SANINDUSA
100
AcDbPolyline
 90
        3
 70
   128
 43
0.0
 10
4757.288795711724
 20
2646.343730945728
 10
4757.288794862357
 20
2646.335732151411
 10
4757.288794534532
 20
2646.332732279442
  0
LWPOLYLINE
  5
1FDE
330
1F
100
AcDbEntity
  8
SANINDUSA
100
AcDbPolyline
 90
        3
 70
   128
 43
0.0
 10
4757.532655077306
 20
2646.332732279442
 10
4757.532654242841
 20
2646.340731073758
 10
4757.532653915015
 20
2646.343730945728
  0
ARC
  5
1FE0
330
1F
100
AcDbEntity
  8
SANINDUSA
100
AcDbCircle
 10
4757.275203834517
 20
2646.332723585302
 30
0.0
 40
0.0025884592726708
100
AcDbArc
 50
180.0
 51
270.0238931563414
  0
ARC
  5
1FE2
330
1F
100
AcDbEntity
  8
SANINDUSA
100
AcDbCircle
 10
4757.546245825198
 20
2646.332723552306
 30
0.0
 40
0.0025884262974335
100
AcDbArc
 50
269.9750467134965
 51
0.0
  0
LWPOLYLINE
  5
1FE6
330
1F
100
AcDbEntity
  8
SANINDUSA
100
AcDbPolyline
 90
        3
 70
   128
 43
0.0
 10
4757.286203818646
 20
2646.330140609882
 10
4757.278204830615
 20
2646.330136586569
 10
4757.275204913941
 20
2646.330135126254
  0
LWPOLYLINE
  5
1FE8
330
1F
100
AcDbEntity
  8
SANINDUSA
100
AcDbPolyline
 90
        3
 70
   128
 43
0.0
 10
4757.546244697897
 20
2646.330135126254
 10
4757.538245694962
 20
2646.330139089963
 10
4757.535245793191
 20
2646.330140609882
  0
ARC
  5
1FEE
330
1F
100
AcDbEntity
  8
SANINDUSA
100
AcDbCircle
 10
4757.61123037954
 20
2646.278710582326
 30
0.0
 40
0.0025901306956053
100
AcDbArc
 50
0.0
 51
89.98789328741592
  0
ARC
  5
1FF9
330
1F
100
AcDbEntity
  8
SANINDUSA
100
AcDbCircle
 10
4757.210219088486
 20
2646.278710741007
 30
0.0
 40
0.0025899719871124
100
AcDbArc
 50
90.00859636047787
 51
180.0
  0
LWPOLYLINE
  5
2002
330
1F
100
AcDbEntity
  8
SANINDUSA
100
AcDbPolyline
 90
        3
 70
   128
 43
0.0
 10
4757.2102186999
 20
2646.281300712964
 10
4757.218218567101
 20
2646.281302054069
 10
4757.221214907494
 20
2646.281302679918
  0
LWPOLYLINE
  5
2005
330
1F
100
AcDbEntity
  8
SANINDUSA
100
AcDbPolyline
 90
        3
 70
   128
 43
0.0
 10
4757.600234704344
 20
2646.281302679918
 10
4757.608234541741
 20
2646.281301159999
 10
4757.61123092684
 20
2646.281300712964
  0
LWPOLYLINE
  5
2006
330
1F
100
AcDbEntity
  8
SANINDUSA
100
AcDbPolyline
 90
        3
 70
   128
 43
0.0
 10
4757.207628967491
 20
2646.267713387153
 10
4757.207629071799
 20
2646.27571218147
 10
4757.207629116503
 20
2646.278710593126
  0
LWPOLYLINE
  5
2008
330
1F
100
AcDbEntity
  8
SANINDUSA
100
AcDbPolyline
 90
        3
 70
   128
 43
0.0
 10
4757.613820510235
 20
2646.278710593126
 10
4757.613820629445
 20
2646.270711739204
 10
4757.613820629445
 20
2646.267713387153
  0
ARC
  5
200C
330
1F
100
AcDbEntity
  8
SANINDUSA
100
AcDbCircle
 10
4757.286202682058
 20
2646.332732462113
 30
0.0
 40
0.002591852480837
100
AcDbArc
 50
270.0251255628686
 51
0.0
  0
ARC
  5
200D
330
1F
100
AcDbEntity
  8
SANINDUSA
100
AcDbCircle
 10
4757.535246888132
 20
2646.33273242048
 30
0.0
 40
0.0025918108297991
100
AcDbArc
 50
180.0
 51
269.975794703486
  0
ARC
  5
200E
330
1F
100
AcDbEntity
  8
SANINDUSA
100
AcDbCircle
 10
4757.221215369434
 20
2646.278713677708
 30
0.0
 40
0.002589002250888
100
AcDbArc
 50
0.0
 51
90.01022292852796
  0
ARC
  5
2011
330
1F
100
AcDbEntity
  8
SANINDUSA
100
AcDbCircle
 10
4757.600234184194
 20
2646.278713735924
 30
0.0
 40
0.0025889440457358
100
AcDbArc
 50
89.98848859444526
 51
180.0
  0
LWPOLYLINE
  5
2012
330
1F
100
AcDbEntity
  8
SANINDUSA
100
AcDbPolyline
 90
        3
 70
   128
 43
0.0
 10
4757.223804371682
 20
2646.278713543555
 10
4757.223804148165
 20
2646.270714749239
 10
4757.223804058758
 20
2646.267716576002
  0
LWPOLYLINE
  5
2014
330
1F
100
AcDbEntity
  8
SANINDUSA
100
AcDbPolyline
 90
        3
 70
   128
 43
0.0
 10
4757.597645538178
 20
2646.267716576002
 10
4757.597645359364
 20
2646.275715310714
 10
4757.597645240156
 20
2646.278713543555
  0
ARC
  5
201C
330
1F
100
AcDbEntity
  8
SANINDUSA
100
AcDbCircle
 10
4757.210218136876
 20
2646.267713300957
 30
0.0
 40
0.0025891693869111
100
AcDbArc
 50
180.0
 51
270.0055344167497
  0
ARC
  5
201E
330
1F
100
AcDbEntity
  8
SANINDUSA
100
AcDbCircle
 10
4757.611231551741
 20
2646.267713209272
 30
0.0
 40
0.0025890777108869
100
AcDbArc
 50
269.9927662693607
 51
0.0
  0
LWPOLYLINE
  5
2020
330
1F
100
AcDbEntity
  8
SANINDUSA
100
AcDbPolyline
 90
        3
 70
   128
 43
0.0
 10
4757.22121434125
 20
2646.265126247547
 10
4757.213214533654
 20
2646.265124608419
 10
4757.210218386975
 20
2646.265124131582
  0
LWPOLYLINE
  5
2022
330
1F
100
AcDbEntity
  8
SANINDUSA
100
AcDbPolyline
 90
        3
 70
   128
 43
0.0
 10
4757.611231224863
 20
2646.265124131582
 10
4757.603231387464
 20
2646.265125562093
 10
4757.600235300389
 20
2646.265126247547
  0
ARC
  5
2028
330
1F
100
AcDbEntity
  8
SANINDUSA
100
AcDbCircle
 10
4757.221213769158
 20
2646.267716537084
 30
0.0
 40
0.002590289600592
100
AcDbArc
 50
270.0126543908789
 51
0.0
  0
ARC
  5
2029
330
1F
100
AcDbEntity
  8
SANINDUSA
100
AcDbCircle
 10
4757.600235911318
 20
2646.267716620614
 30
0.0
 40
0.0025903731395609
100
AcDbArc
 50
180.0
 51
269.9864870413104
  0
ARC
  5
204D
330
1F
100
AcDbEntity
  8
SANINDUSA
100
AcDbCircle
 10
4757.340208536869
 20
2646.343753963714
 30
0.0
 40
0.0025919272750337
100
AcDbArc
 50
90.01491857947844
 51
179.9870582734303
  0
ARC
  5
2051
330
1F
100
AcDbEntity
  8
SANINDUSA
100
AcDbCircle
 10
4757.481241291867
 20
2646.343754210412
 30
0.0
 40
0.0025917103319057
100
AcDbArc
 50
0.0
 51
89.98987524710216
  0
LWPOLYLINE
  5
205A
330
1F
100
AcDbEntity
  8
SANINDUSA
100
AcDbPolyline
 90
        3
 70
   128
 43
0.0
 10
4757.340207861988
 20
2646.346345890901
 10
4757.348207192746
 20
2646.346349437378
 10
4757.351209478704
 20
2646.346350689075
  0
LWPOLYLINE
  5
205D
330
1F
100
AcDbEntity
  8
SANINDUSA
100
AcDbPolyline
 90
        3
 70
   128
 43
0.0
 10
4757.470240133134
 20
2646.346350689075
 10
4757.478239493695
 20
2646.346347261808
 10
4757.48124174985
 20
2646.346345920703
  0
LWPOLYLINE
  5
205E
330
1F
100
AcDbEntity
  8
SANINDUSA
100
AcDbPolyline
 90
        3
 70
   128
 43
0.0
 10
4757.337615417568
 20
2646.332757074973
 10
4757.337616281835
 20
2646.340755183838
 10
4757.33761660966
 20
2646.343754549167
  0
LWPOLYLINE
  5
2060
330
1F
100
AcDbEntity
  8
SANINDUSA
100
AcDbPolyline
 90
        3
 70
   128
 43
0.0
 10
4757.483833002178
 20
2646.343754549167
 10
4757.483833896247
 20
2646.335756410501
 10
4757.483834224073
 20
2646.332757074973
  0
ARC
  5
206A
330
1F
100
AcDbEntity
  8
SANINDUSA
100
AcDbCircle
 10
4757.275202355828
 20
2646.278733029678
 30
0.0
 40
0.0025915850535378
100
AcDbArc
 50
90.02778104723573
 51
180.0
  0
ARC
  5
2075
330
1F
100
AcDbEntity
  8
SANINDUSA
100
AcDbCircle
 10
4757.546247339432
 20
2646.278733113069
 30
0.0
 40
0.0025915016228749
100
AcDbArc
 50
0.0
 51
89.97406245578991
  0
ARC
  5
207F
330
1F
100
AcDbEntity
  8
SANINDUSA
100
AcDbCircle
 10
4757.470238995992
 20
2646.343761736356
 30
0.0
 40
0.0025889529689135
100
AcDbArc
 50
89.97483405171275
 51
179.9862557240917
  0
ARC
  5
2080
330
1F
100
AcDbEntity
  8
SANINDUSA
100
AcDbCircle
 10
4757.351210996612
 20
2646.343762087577
 30
0.0
 40
0.002588601943179
100
AcDbArc
 50
0.0
 51
90.03359722471378
  0
LWPOLYLINE
  5
2082
330
1F
100
AcDbEntity
  8
SANINDUSA
100
AcDbPolyline
 90
        3
 70
   128
 43
0.0
 10
4757.275201099244
 20
2646.281324614427
 10
4757.283199655143
 20
2646.281329174183
 10
4757.286199676124
 20
2646.281330932519
  0
LWPOLYLINE
  5
2084
330
1F
100
AcDbEntity
  8
SANINDUSA
100
AcDbPolyline
 90
        3
 70
   128
 43
0.0
 10
4757.272609981028
 20
2646.267736781976
 10
4757.272610547271
 20
2646.275735248468
 10
4757.272610770789
 20
2646.278733302495
  0
LWPOLYLINE
  5
2087
330
1F
100
AcDbEntity
  8
SANINDUSA
100
AcDbPolyline
 90
        3
 70
   128
 43
0.0
 10
4757.535249935714
 20
2646.281330932519
 10
4757.54324846181
 20
2646.28132631316
 10
4757.546248512594
 20
2646.281324614427
  0
LWPOLYLINE
  5
2088
330
1F
100
AcDbEntity
  8
SANINDUSA
100
AcDbPolyline
 90
        3
 70
   128
 43
0.0
 10
4757.548838841048
 20
2646.278733302495
 10
4757.548839437094
 20
2646.270734806202
 10
4757.548839645711
 20
2646.267736781976
  0
LWPOLYLINE
  5
208A
330
1F
100
AcDbEntity
  8
SANINDUSA
100
AcDbPolyline
 90
        3
 70
   128
 43
0.0
 10
4757.353799598543
 20
2646.343762357375
 10
4757.35379879388
 20
2646.33576448693
 10
4757.353798495857
 20
2646.33276524081
  0
LWPOLYLINE
  5
208C
330
1F
100
AcDbEntity
  8
SANINDUSA
100
AcDbPolyline
 90
        3
 70
   128
 43
0.0
 10
4757.467651145783
 20
2646.33276524081
 10
4757.467650341121
 20
2646.340763141058
 10
4757.467650043098
 20
2646.343762357375
  0
ARC
  5
2090
330
1F
100
AcDbEntity
  8
SANINDUSA
100
AcDbCircle
 10
4757.48124566375
 20
2646.332757511882
 30
0.0
 40
0.002588560359501
100
AcDbArc
 50
269.969439237588
 51
359.9903288664687
  0
ARC
  5
2092
330
1F
100
AcDbEntity
  8
SANINDUSA
100
AcDbCircle
 10
4757.340203727028
 20
2646.332757260863
 30
0.0
 40
0.0025883094675689
100
AcDbArc
 50
180.0
 51
270.0354571947023
  0
LWPOLYLINE
  5
2094
330
1F
100
AcDbEntity
  8
SANINDUSA
100
AcDbPolyline
 90
        3
 70
   128
 43
0.0
 10
4757.351207124321
 20
2646.330174107693
 10
4757.343207912771
 20
2646.330170412204
 10
4757.34020532879
 20
2646.33016895189
  0
LWPOLYLINE
  5
2096
330
1F
100
AcDbEntity
  8
SANINDUSA
100
AcDbPolyline
 90
        3
 70
   128
 43
0.0
 10
4757.481244283048
 20
2646.33016895189
 10
4757.473245101301
 20
2646.330172736786
 10
4757.47024251732
 20
2646.330174107693
  0
ARC
  5
20A2
330
1F
100
AcDbEntity
  8
SANINDUSA
100
AcDbCircle
 10
4757.28620136322
 20
2646.278743066571
 30
0.0
 40
0.0025878664986055
100
AcDbArc
 50
0.0
 51
90.03735259967365
  0
ARC
  5
20A5
330
1F
100
AcDbEntity
  8
SANINDUSA
100
AcDbCircle
 10
4757.535248382685
 20
2646.278742932415
 30
0.0
 40
0.002588000570726
100
AcDbArc
 50
89.96561747432854
 51
180.0
  0
ARC
  5
20A6
330
1F
100
AcDbEntity
  8
SANINDUSA
100
AcDbCircle
 10
4757.275197747227
 20
2646.267736722539
 30
0.0
 40
0.0025877661997581
100
AcDbArc
 50
180.0
 51
270.0382550444532
  0
ARC
  5
20A8
330
1F
100
AcDbEntity
  8
SANINDUSA
100
AcDbCircle
 10
4757.546251753733
 20
2646.267736848399
 30
0.0
 40
0.0025878919783496
100
AcDbArc
 50
269.964531549495
 51
0.0
  0
LWPOLYLINE
  5
20AA
330
1F
100
AcDbEntity
  8
SANINDUSA
100
AcDbPolyline
 90
        3
 70
   128
 43
0.0
 10
4757.288789229718
 20
2646.278743047855
 10
4757.288788574068
 20
2646.270744700573
 10
4757.288788335649
 20
2646.267746646545
  0
LWPOLYLINE
  5
20AC
330
1F
100
AcDbEntity
  8
SANINDUSA
100
AcDbPolyline
 90
        3
 70
   128
 43
0.0
 10
4757.532661276189
 20
2646.267746646545
 10
4757.53266065034
 20
2646.275744964025
 10
4757.532660382119
 20
2646.278743077657
  0
LWPOLYLINE
  5
20AE
330
1F
100
AcDbEntity
  8
SANINDUSA
100
AcDbPolyline
 90
        3
 70
   128
 43
0.0
 10
4757.286197917787
 20
2646.265155394218
 10
4757.278199570504
 20
2646.265150655649
 10
4757.275199475017
 20
2646.265148956916
  0
LWPOLYLINE
  5
20B0
330
1F
100
AcDbEntity
  8
SANINDUSA
100
AcDbPolyline
 90
        3
 70
   128
 43
0.0
 10
4757.546250151722
 20
2646.265148956916
 10
4757.538251744835
 20
2646.265153606079
 10
4757.535251694051
 20
2646.265155394218
  0
ARC
  5
20B2
330
1F
100
AcDbEntity
  8
SANINDUSA
100
AcDbCircle
 10
4757.351206476793
 20
2646.332766126826
 30
0.0
 40
0.0025920192152051
100
AcDbArc
 50
270.0143133715037
 51
359.9804148730342
  0
ARC
  5
20B3
330
1F
100
AcDbEntity
  8
SANINDUSA
100
AcDbCircle
 10
4757.470242747427
 20
2646.332765709368
 30
0.0
 40
0.002591601685781
100
AcDbArc
 50
180.0103595875506
 51
269.9949127409472
  0
LWPOLYLINE
  5
20C0
330
1F
100
AcDbEntity
  8
SANINDUSA
100
AcDbPolyline
 90
        3
 70
   128
 43
0.0
 10
4757.405222969381
 20
2646.346364398143
 10
4757.413222985593
 20
2646.346364517353
 10
4757.416226642457
 20
2646.346364398143
  0
ARC
  5
20CC
330
1F
100
AcDbEntity
  8
SANINDUSA
100
AcDbCircle
 10
4757.40522261299
 20
2646.343773531822
 30
0.0
 40
0.0025908663455798
100
AcDbArc
 50
89.99211859158206
 51
179.9769012638396
  0
ARC
  5
20CD
330
1F
100
AcDbEntity
  8
SANINDUSA
100
AcDbCircle
 10
4757.416227508358
 20
2646.343774041609
 30
0.0
 40
0.002590356678641
100
AcDbArc
 50
0.0118273758097614
 51
90.01915274249659
  0
LWPOLYLINE
  5
20CF
330
1F
100
AcDbEntity
  8
SANINDUSA
100
AcDbPolyline
 90
        3
 70
   128
 43
0.0
 10
4757.40263153824
 20
2646.332778145215
 10
4757.402631687251
 20
2646.340775538824
 10
4757.402631746855
 20
2646.343774576328
  0
LWPOLYLINE
  5
20D1
330
1F
100
AcDbEntity
  8
SANINDUSA
100
AcDbPolyline
 90
        3
 70
   128
 43
0.0
 10
4757.418817864982
 20
2646.343774576328
 10
4757.418818013993
 20
2646.335777152917
 10
4757.418818073598
 20
2646.332778145215
  0
ARC
  5
20D3
330
1F
100
AcDbEntity
  8
SANINDUSA
100
AcDbCircle
 10
4757.286196558593
 20
2646.26774717097
 30
0.0
 40
0.0025917771088163
100
AcDbArc
 50
270.0300473725778
 51
359.9884066511398
  0
ARC
  5
20D4
330
1F
100
AcDbEntity
  8
SANINDUSA
100
AcDbCircle
 10
4757.535252936598
 20
2646.267747054362
 30
0.0
 40
0.002591660441691
100
AcDbArc
 50
180.0090159258238
 51
269.9725300507446
  0
ARC
  5
20DD
330
1F
100
AcDbEntity
  8
SANINDUSA
100
AcDbCircle
 10
4757.210216910586
 20
2646.213739445261
 30
0.0
 40
0.0025900889378786
100
AcDbArc
 50
90.00327033242918
 51
179.9861799037413
  0
ARC
  5
20E8
330
1F
100
AcDbEntity
  8
SANINDUSA
100
AcDbCircle
 10
4757.611233029
 20
2646.21373978797
 30
0.0
 40
0.0025897462316302
100
AcDbArc
 50
0.0
 51
90.00431003530019
  0
LWPOLYLINE
  5
20F1
330
1F
100
AcDbEntity
  8
SANINDUSA
100
AcDbPolyline
 90
        3
 70
   128
 43
0.0
 10
4757.210216762749
 20
2646.216329534194
 10
4757.218216540542
 20
2646.21633153095
 10
4757.221212717023
 20
2646.216332395217
  0
LWPOLYLINE
  5
20F4
330
1F
100
AcDbEntity
  8
SANINDUSA
100
AcDbPolyline
 90
        3
 70
   128
 43
0.0
 10
4757.600236909715
 20
2646.216332395217
 10
4757.608236627905
 20
2646.21633024945
 10
4757.611232834188
 20
2646.216329534194
  0
LWPOLYLINE
  5
20F5
330
1F
100
AcDbEntity
  8
SANINDUSA
100
AcDbPolyline
 90
        3
 70
   128
 43
0.0
 10
4757.207625972358
 20
2646.202748705289
 10
4757.207626613108
 20
2646.210745026014
 10
4757.207626821724
 20
2646.213740070007
  0
LWPOLYLINE
  5
20F7
330
1F
100
AcDbEntity
  8
SANINDUSA
100
AcDbPolyline
 90
        3
 70
   128
 43
0.0
 10
4757.613822775212
 20
2646.213740099809
 10
4757.613823430864
 20
2646.205743540666
 10
4757.613823669282
 20
2646.202748705289
  0
ARC
  5
20FB
330
1F
100
AcDbEntity
  8
SANINDUSA
100
AcDbCircle
 10
4757.221214093211
 20
2646.213744545987
 30
0.0
 40
0.0025878495959976
100
AcDbArc
 50
0.0
 51
90.03046920476196
  0
ARC
  5
20FE
330
1F
100
AcDbEntity
  8
SANINDUSA
100
AcDbCircle
 10
4757.60023582603
 20
2646.2137442533
 30
0.0
 40
0.0025881421443697
100
AcDbArc
 50
89.97600960600825
 51
179.9877074102974
  0
LWPOLYLINE
  5
20FF
330
1F
100
AcDbEntity
  8
SANINDUSA
100
AcDbPolyline
 90
        3
 70
   128
 43
0.0
 10
4757.223801942793
 20
2646.213744808576
 10
4757.223801585165
 20
2646.205748458049
 10
4757.223801436153
 20
2646.202753920696
  0
LWPOLYLINE
  5
2101
330
1F
100
AcDbEntity
  8
SANINDUSA
100
AcDbPolyline
 90
        3
 70
   128
 43
0.0
 10
4757.597648160783
 20
2646.202753920696
 10
4757.597647803155
 20
2646.210750062606
 10
4757.597647683946
 20
2646.213744808576
  0
LWPOLYLINE
  5
2103
330
1F
100
AcDbEntity
  8
SANINDUSA
100
AcDbPolyline
 90
        3
 70
   128
 43
0.0
 10
4757.416226970283
 20
2646.330188889644
 10
4757.40822695407
 20
2646.330189008854
 10
4757.405222671358
 20
2646.330188889644
  0
ARC
  5
2106
330
1F
100
AcDbEntity
  8
SANINDUSA
100
AcDbCircle
 10
4757.416227691912
 20
2646.332779271474
 30
0.0
 40
0.0025903819307552
100
AcDbArc
 50
269.9840385388915
 51
359.9750886622212
  0
ARC
  5
2107
330
1F
100
AcDbEntity
  8
SANINDUSA
100
AcDbCircle
 10
4757.405221385326
 20
2646.332778736479
 30
0.0
 40
0.0025898471540186
100
AcDbArc
 50
180.0130806523922
 51
270.0284511845949
  0
ARC
  5
2108
330
1F
100
AcDbEntity
  8
SANINDUSA
100
AcDbCircle
 10
4757.210213579657
 20
2646.202749113033
 30
0.0
 40
0.0025876073315317
100
AcDbArc
 50
180.0090286667695
 51
270.0308875455765
  0
ARC
  5
210A
330
1F
100
AcDbEntity
  8
SANINDUSA
100
AcDbCircle
 10
4757.611235594139
 20
2646.202749581188
 30
0.0
 40
0.0025880752919674
100
AcDbArc
 50
269.9784856748446
 51
359.9806090356752
  0
LWPOLYLINE
  5
210C
330
1F
100
AcDbEntity
  8
SANINDUSA
100
AcDbPolyline
 90
        3
 70
   128
 43
0.0
 10
4757.221211450425
 20
2646.200164754532
 10
4757.213211791841
 20
2646.200162340543
 10
4757.21021497461
 20
2646.200161506078
  0
LWPOLYLINE
  5
210E
330
1F
100
AcDbEntity
  8
SANINDUSA
100
AcDbPolyline
 90
        3
 70
   128
 43
0.0
 10
4757.611234622327
 20
2646.200161506078
 10
4757.603234904137
 20
2646.20016383066
 10
4757.600238161412
 20
2646.200164754532
  0
ARC
  5
2114
330
1F
100
AcDbEntity
  8
SANINDUSA
100
AcDbCircle
 10
4757.221211217861
 20
2646.202754973027
 30
0.0
 40
0.0025902185057049
100
AcDbArc
 50
270.0051443197302
 51
359.9767223694895
  0
ARC
  5
2115
330
1F
100
AcDbEntity
  8
SANINDUSA
100
AcDbCircle
 10
4757.600237990658
 20
2646.202754584487
 30
0.0
 40
0.0025898299609932
100
AcDbArc
 50
180.0146854123408
 51
270.0037776253037
  0
ARC
  5
2128
330
1F
100
AcDbEntity
  8
SANINDUSA
100
AcDbCircle
 10
4757.340202265359
 20
2646.278771175105
 30
0.0
 40
0.0025921527507757
100
AcDbArc
 50
90.02319300352928
 51
179.9807608587748
  0
ARC
  5
2133
330
1F
100
AcDbEntity
  8
SANINDUSA
100
AcDbCircle
 10
4757.481247755399
 20
2646.278771584005
 30
0.0
 40
0.0025917437256869
100
AcDbArc
 50
0.0102026055518587
 51
89.98518449451609
  0
LWPOLYLINE
  5
213E
330
1F
100
AcDbEntity
  8
SANINDUSA
100
AcDbPolyline
 90
        3
 70
   128
 43
0.0
 10
4757.340201216069
 20
2646.281363327644
 10
4757.348199920979
 20
2646.281367589376
 10
4757.351203339425
 20
2646.281369109294
  0
LWPOLYLINE
  5
2141
330
1F
100
AcDbEntity
  8
SANINDUSA
100
AcDbPolyline
 90
        3
 70
   128
 43
0.0
 10
4757.470246272412
 20
2646.281369109294
 10
4757.478245036927
 20
2646.281364966772
 10
4757.481248425571
 20
2646.281363327644
  0
LWPOLYLINE
  5
2144
330
1F
100
AcDbEntity
  8
SANINDUSA
100
AcDbPolyline
 90
        3
 70
   128
 43
0.0
 10
4757.337609367696
 20
2646.267775942228
 10
4757.337609904138
 20
2646.275773723266
 10
4757.337610112754
 20
2646.278772045514
  0
LWPOLYLINE
  5
2146
330
1F
100
AcDbEntity
  8
SANINDUSA
100
AcDbPolyline
 90
        3
 70
   128
 43
0.0
 10
4757.483839499084
 20
2646.278772045514
 10
4757.483840065328
 20
2646.270774234674
 10
4757.483840273944
 20
2646.267775942228
  0
ARC
  5
2151
330
1F
100
AcDbEntity
  8
SANINDUSA
100
AcDbCircle
 10
4757.470244615865
 20
2646.278780348406
 30
0.0
 40
0.0025887614182368
100
AcDbArc
 50
89.96333650585809
 51
179.9839049804191
  0
ARC
  5
2152
330
1F
100
AcDbEntity
  8
SANINDUSA
100
AcDbCircle
 10
4757.351205413879
 20
2646.278780766699
 30
0.0
 40
0.0025883434266877
100
AcDbArc
 50
0.0
 51
90.04592030177773
  0
LWPOLYLINE
  5
2154
330
1F
100
AcDbEntity
  8
SANINDUSA
100
AcDbPolyline
 90
        3
 70
   128
 43
0.0
 10
4757.353793757287
 20
2646.278781075618
 10
4757.35379328045
 20
2646.270783413789
 10
4757.353793131438
 20
2646.26778482332
  0
LWPOLYLINE
  5
2156
330
1F
100
AcDbEntity
  8
SANINDUSA
100
AcDbPolyline
 90
        3
 70
   128
 43
0.0
 10
4757.467656480399
 20
2646.26778482332
 10
4757.467656063167
 20
2646.275782455346
 10
4757.46765585455
 20
2646.278781075618
  0
ARC
  5
215A
330
1F
100
AcDbEntity
  8
SANINDUSA
100
AcDbCircle
 10
4757.275198937352
 20
2646.213764375089
 30
0.0
 40
0.0025910874065272
100
AcDbArc
 50
90.02666276205262
 51
179.9766335736813
  0
ARC
  5
2165
330
1F
100
AcDbEntity
  8
SANINDUSA
100
AcDbCircle
 10
4757.546250966792
 20
2646.21376466738
 30
0.0
 40
0.0025908247988643
100
AcDbArc
 50
0.0169053072851287
 51
89.97979885216729
  0
LWPOLYLINE
  5
216E
330
1F
100
AcDbEntity
  8
SANINDUSA
100
AcDbPolyline
 90
        3
 70
   128
 43
0.0
 10
4757.275197731582
 20
2646.216355462215
 10
4757.28319588515
 20
2646.216359783552
 10
4757.28619629356
 20
2646.216361452482
  0
LWPOLYLINE
  5
2171
330
1F
100
AcDbEntity
  8
SANINDUSA
100
AcDbPolyline
 90
        3
 70
   128
 43
0.0
 10
4757.535253333179
 20
2646.216361452482
 10
4757.54325141224
 20
2646.216357071541
 10
4757.546251880255
 20
2646.216355492017
  0
LWPOLYLINE
  5
2172
330
1F
100
AcDbEntity
  8
SANINDUSA
100
AcDbPolyline
 90
        3
 70
   128
 43
0.0
 10
4757.272608133283
 20
2646.202773709438
 10
4757.272607879964
 20
2646.210769821546
 10
4757.272607850161
 20
2646.213765431783
  0
LWPOLYLINE
  5
2174
330
1F
100
AcDbEntity
  8
SANINDUSA
100
AcDbPolyline
 90
        3
 70
   128
 43
0.0
 10
4757.548841791478
 20
2646.213765431783
 10
4757.548841612664
 20
2646.205769170663
 10
4757.548841493455
 20
2646.202773709438
  0
ARC
  5
217A
330
1F
100
AcDbEntity
  8
SANINDUSA
100
AcDbCircle
 10
4757.481251879991
 20
2646.267776570101
 30
0.0
 40
0.0025883940286278
100
AcDbArc
 50
269.9578382001911
 51
359.9861013475927
  0
ARC
  5
217C
330
1F
100
AcDbEntity
  8
SANINDUSA
100
AcDbCircle
 10
4757.340197351966
 20
2646.267776160043
 30
0.0
 40
0.0025879842790772
100
AcDbArc
 50
180.0
 51
270.0505786954538
  0
LWPOLYLINE
  5
217E
330
1F
100
AcDbEntity
  8
SANINDUSA
100
AcDbPolyline
 90
        3
 70
   128
 43
0.0
 10
4757.351201968519
 20
2646.265193958423
 10
4757.343203323213
 20
2646.2651898159
 10
4757.340199636547
 20
2646.265188176773
  0
LWPOLYLINE
  5
2180
330
1F
100
AcDbEntity
  8
SANINDUSA
100
AcDbPolyline
 90
        3
 70
   128
 43
0.0
 10
4757.481249975291
 20
2646.265188176773
 10
4757.47325138959
 20
2646.265192438505
 10
4757.470247643319
 20
2646.265193958423
  0
ARC
  5
218C
330
1F
100
AcDbEntity
  8
SANINDUSA
100
AcDbCircle
 10
4757.351201154398
 20
2646.267785935574
 30
0.0
 40
0.0025919772788102
100
AcDbArc
 50
270.0179961563748
 51
359.9754134912393
  0
ARC
  5
218D
330
1F
100
AcDbEntity
  8
SANINDUSA
100
AcDbCircle
 10
4757.470248015155
 20
2646.267785493239
 30
0.0
 40
0.0025915348427626
100
AcDbArc
 50
180.0148111282266
 51
269.9917791456838
  0
ARC
  5
218F
330
1F
100
AcDbEntity
  8
SANINDUSA
100
AcDbCircle
 10
4757.535251174124
 20
2646.21377355215
 30
0.0
 40
0.0025879012320453
100
AcDbArc
 50
89.95219883174973
 51
179.988436197627
  0
ARC
  5
2190
330
1F
100
AcDbEntity
  8
SANINDUSA
100
AcDbCircle
 10
4757.286198827062
 20
2646.213773912085
 30
0.0
 40
0.0025875416372161
100
AcDbArc
 50
0.0
 51
90.05609920118152
  0
LWPOLYLINE
  5
2192
330
1F
100
AcDbEntity
  8
SANINDUSA
100
AcDbPolyline
 90
        3
 70
   128
 43
0.0
 10
4757.288786368696
 20
2646.213774074457
 10
4757.288786666719
 20
2646.205777694128
 10
4757.288786830631
 20
2646.202781338832
  0
LWPOLYLINE
  5
2194
330
1F
100
AcDbEntity
  8
SANINDUSA
100
AcDbPolyline
 90
        3
 70
   128
 43
0.0
 10
4757.532662796108
 20
2646.202781338832
 10
4757.532663183538
 20
2646.21077757015
 10
4757.532663272945
 20
2646.213774074457
  0
ARC
  5
219A
330
1F
100
AcDbEntity
  8
SANINDUSA
100
AcDbCircle
 10
4757.275195625022
 20
2646.202773911139
 30
0.0
 40
0.0025874917465999
100
AcDbArc
 50
180.0
 51
270.0601747426217
  0
ARC
  5
219C
330
1F
100
AcDbEntity
  8
SANINDUSA
100
AcDbCircle
 10
4757.546253491931
 20
2646.2027744215
 30
0.0
 40
0.0025880016220503
100
AcDbArc
 50
269.9511232245617
 51
359.9842356457597
  0
LWPOLYLINE
  5
219E
330
1F
100
AcDbEntity
  8
SANINDUSA
100
AcDbPolyline
 90
        3
 70
   128
 43
0.0
 10
4757.286197157827
 20
2646.200191636226
 10
4757.278198974458
 20
2646.200187821529
 10
4757.275198342529
 20
2646.20018642082
  0
LWPOLYLINE
  5
21A0
330
1F
100
AcDbEntity
  8
SANINDUSA
100
AcDbPolyline
 90
        3
 70
   128
 43
0.0
 10
4757.546251284209
 20
2646.20018642082
 10
4757.538253056136
 20
2646.200190205715
 10
4757.535252468911
 20
2646.200191636226
  0
LWPOLYLINE
  5
21A8
330
1F
100
AcDbEntity
  8
SANINDUSA
100
AcDbPolyline
 90
        3
 70
   128
 43
0.0
 10
4757.40522219452
 20
2646.281385500572
 10
4757.413222210733
 20
2646.281385619781
 10
4757.416227417317
 20
2646.281385500572
  0
ARC
  5
21B2
330
1F
100
AcDbEntity
  8
SANINDUSA
100
AcDbCircle
 10
4757.405221783512
 20
2646.278794450378
 30
0.0
 40
0.0025910502263154
100
AcDbArc
 50
89.99091140649211
 51
179.9728369277862
  0
ARC
  5
21B3
330
1F
100
AcDbEntity
  8
SANINDUSA
100
AcDbCircle
 10
4757.416228429622
 20
2646.278795052055
 30
0.0
 40
0.0025904487139818
100
AcDbArc
 50
0.0138630350686704
 51
90.02239024570531
  0
LWPOLYLINE
  5
21B5
330
1F
100
AcDbEntity
  8
SANINDUSA
100
AcDbPolyline
 90
        3
 70
   128
 43
0.0
 10
4757.40263064417
 20
2646.267799277446
 10
4757.402630703775
 20
2646.275796700857
 10
4757.402630733577
 20
2646.278795678756
  0
LWPOLYLINE
  5
21B7
330
1F
100
AcDbEntity
  8
SANINDUSA
100
AcDbPolyline
 90
        3
 70
   128
 43
0.0
 10
4757.41881887826
 20
2646.278795678756
 10
4757.418818937866
 20
2646.270798285148
 10
4757.418818967668
 20
2646.267799277446
  0
ARC
  5
21B9
330
1F
100
AcDbEntity
  8
SANINDUSA
100
AcDbCircle
 10
4757.286195826867
 20
2646.202782639974
 30
0.0
 40
0.0025910040899498
100
AcDbArc
 50
270.029431950943
 51
359.9712273996047
  0
ARC
  5
21BA
330
1F
100
AcDbEntity
  8
SANINDUSA
100
AcDbCircle
 10
4757.535253294804
 20
2646.202782134914
 30
0.0
 40
0.0025904988193711
100
AcDbArc
 50
180.0176074663123
 51
269.9817331831942
  0
LWPOLYLINE
  5
21BD
330
1F
100
AcDbEntity
  8
SANINDUSA
100
AcDbPolyline
 90
        3
 70
   128
 43
0.0
 10
4757.416227536526
 20
2646.265209992073
 10
4757.408227520314
 20
2646.265210111282
 10
4757.405222105113
 20
2646.265209992073
  0
ARC
  5
21C0
330
1F
100
AcDbEntity
  8
SANINDUSA
100
AcDbCircle
 10
4757.416228385333
 20
2646.267800574592
 30
0.0
 40
0.0025905826589042
100
AcDbArc
 50
269.9812269846106
 51
359.9713109583387
  0
ARC
  5
21C1
330
1F
100
AcDbEntity
  8
SANINDUSA
100
AcDbCircle
 10
4757.405220591738
 20
2646.267799939283
 30
0.0
 40
0.0025899476530756
100
AcDbArc
 50
180.0146414052717
 51
270.0334794556183
  0
ARC
  5
21DE
330
1F
100
AcDbEntity
  8
SANINDUSA
100
AcDbCircle
 10
4757.34020045014
 20
2646.213798443727
 30
0.0
 40
0.0025915596184328
100
AcDbArc
 50
90.0245763212272
 51
179.9708092932996
  0
ARC
  5
21E9
330
1F
100
AcDbEntity
  8
SANINDUSA
100
AcDbCircle
 10
4757.48124968763
 20
2646.213798969709
 30
0.0
 40
0.0025910334700517
100
AcDbArc
 50
0.0175655175969727
 51
89.98638969944481
  0
LWPOLYLINE
  5
21F2
330
1F
100
AcDbEntity
  8
SANINDUSA
100
AcDbPolyline
 90
        3
 70
   128
 43
0.0
 10
4757.340199338523
 20
2646.216390003107
 10
4757.348197894422
 20
2646.216393460176
 10
4757.351201998321
 20
2646.216394682071
  0
LWPOLYLINE
  5
21F5
330
1F
100
AcDbEntity
  8
SANINDUSA
100
AcDbPolyline
 90
        3
 70
   128
 43
0.0
 10
4757.470247643319
 20
2646.216394682071
 10
4757.478246288625
 20
2646.216391344211
 10
4757.481250303118
 20
2646.216390003107
  0
LWPOLYLINE
  5
21F6
330
1F
100
AcDbEntity
  8
SANINDUSA
100
AcDbPolyline
 90
        3
 70
   128
 43
0.0
 10
4757.337609635917
 20
2646.202804852865
 10
4757.337609069673
 20
2646.210801650426
 10
4757.337608890859
 20
2646.213799764059
  0
LWPOLYLINE
  5
21F8
330
1F
100
AcDbEntity
  8
SANINDUSA
100
AcDbPolyline
 90
        3
 70
   128
 43
0.0
 10
4757.483840720978
 20
2646.213799764059
 10
4757.48384021434
 20
2646.205802936695
 10
4757.483839975921
 20
2646.202804852865
  0
ARC
  5
2203
330
1F
100
AcDbEntity
  8
SANINDUSA
100
AcDbCircle
 10
4757.470245670972
 20
2646.213805402738
 30
0.0
 40
0.0025892800848251
100
AcDbArc
 50
89.95635576859298
 51
179.9836464356182
  0
ARC
  5
2204
330
1F
100
AcDbEntity
  8
SANINDUSA
100
AcDbCircle
 10
4757.351204467467
 20
2646.213805929862
 30
0.0
 40
0.0025887533864997
100
AcDbArc
 50
0.0
 51
90.05464860864154
  0
LWPOLYLINE
  5
2206
330
1F
100
AcDbEntity
  8
SANINDUSA
100
AcDbPolyline
 90
        3
 70
   128
 43
0.0
 10
4757.353793220846
 20
2646.213806141755
 10
4757.353793757287
 20
2646.205809135578
 10
4757.353793965903
 20
2646.202810455701
  0
LWPOLYLINE
  5
2208
330
1F
100
AcDbEntity
  8
SANINDUSA
100
AcDbPolyline
 90
        3
 70
   128
 43
0.0
 10
4757.467655645934
 20
2646.202810455701
 10
4757.467656212178
 20
2646.210807461879
 10
4757.467656390992
 20
2646.213806141755
  0
ARC
  5
220C
330
1F
100
AcDbEntity
  8
SANINDUSA
100
AcDbCircle
 10
4757.481250854539
 20
2646.202805462952
 30
0.0
 40
0.0025891214532607
100
AcDbArc
 50
269.9535028901403
 51
359.9864991048232
  0
ARC
  5
220E
330
1F
100
AcDbEntity
  8
SANINDUSA
100
AcDbCircle
 10
4757.340198314174
 20
2646.202805019334
 30
0.0
 40
0.0025886782627999
100
AcDbArc
 50
180.0
 51
270.056972464469
  0
LWPOLYLINE
  5
2210
330
1F
100
AcDbEntity
  8
SANINDUSA
100
AcDbPolyline
 90
        3
 70
   128
 43
0.0
 10
4757.351203518239
 20
2646.200220425269
 10
4757.343204753724
 20
2646.200217504642
 10
4757.340200888243
 20
2646.200216342351
  0
LWPOLYLINE
  5
2212
330
1F
100
AcDbEntity
  8
SANINDUSA
100
AcDbPolyline
 90
        3
 70
   128
 43
0.0
 10
4757.481248753395
 20
2646.200216342351
 10
4757.473250048486
 20
2646.200219382188
 10
4757.470246093599
 20
2646.200220425269
  0
ARC
  5
2216
330
1F
100
AcDbEntity
  8
SANINDUSA
100
AcDbCircle
 10
4757.351202623641
 20
2646.20281176771
 30
0.0
 40
0.0025913425949253
100
AcDbArc
 50
270.0197799931036
 51
359.9709908713486
  0
ARC
  5
2217
330
1F
100
AcDbEntity
  8
SANINDUSA
100
AcDbCircle
 10
4757.470246520548
 20
2646.202811299986
 30
0.0
 40
0.0025908747516184
100
AcDbArc
 50
180.0186709054424
 51
269.9905582556094
  0
LWPOLYLINE
  5
2223
330
1F
100
AcDbEntity
  8
SANINDUSA
100
AcDbPolyline
 90
        3
 70
   128
 43
0.0
 10
4757.405222343532
 20
2646.216406662605
 10
4757.413222359744
 20
2646.216406752012
 10
4757.416227298108
 20
2646.216406662605
  0
ARC
  5
2226
330
1F
100
AcDbEntity
  8
SANINDUSA
100
AcDbCircle
 10
4757.405221869066
 20
2646.213815854694
 30
0.0
 40
0.0025908079538979
100
AcDbArc
 50
89.98950719270034
 51
179.9729197569771
  0
ARC
  5
2227
330
1F
100
AcDbEntity
  8
SANINDUSA
100
AcDbCircle
 10
4757.41622829401
 20
2646.213816406283
 30
0.0
 40
0.002590256512816
100
AcDbArc
 50
0.0148849162784906
 51
90.02202906983104
  0
LWPOLYLINE
  5
2229
330
1F
100
AcDbEntity
  8
SANINDUSA
100
AcDbPolyline
 90
        3
 70
   128
 43
0.0
 10
4757.402631240217
 20
2646.202820648096
 10
4757.402631121007
 20
2646.210818041704
 10
4757.402631061403
 20
2646.213817079208
  0
LWPOLYLINE
  5
222B
330
1F
100
AcDbEntity
  8
SANINDUSA
100
AcDbPolyline
 90
        3
 70
   128
 43
0.0
 10
4757.418818550435
 20
2646.213817079208
 10
4757.418818431226
 20
2646.205819685599
 10
4757.418818371621
 20
2646.202820648096
  0
LWPOLYLINE
  5
222D
330
1F
100
AcDbEntity
  8
SANINDUSA
100
AcDbPolyline
 90
        3
 70
   128
 43
0.0
 10
4757.416227029888
 20
2646.200231183908
 10
4757.408227013675
 20
2646.200231243513
 10
4757.405222611753
 20
2646.200231183908
  0
ARC
  5
2230
330
1F
100
AcDbEntity
  8
SANINDUSA
100
AcDbCircle
 10
4757.41622781442
 20
2646.202821741221
 30
0.0
 40
0.0025905574313008
100
AcDbArc
 50
269.9826483427102
 51
359.975823155668
  0
ARC
  5
2231
330
1F
100
AcDbEntity
  8
SANINDUSA
100
AcDbCircle
 10
4757.405221279548
 20
2646.202821222962
 30
0.0
 40
0.0025900393964257
100
AcDbArc
 50
180.0127169491819
 51
270.0294704603815
  0
CIRCLE
  5
224A
330
1F
100
AcDbEntity
  8
SANINDUSA
100
AcDbCircle
 10
4757.410724811879
 20
2646.093255957505
 30
0.0
 40
0.045297545258413
  0
CIRCLE
  5
224B
330
1F
100
AcDbEntity
  8
SANINDUSA
100
AcDbCircle
 10
4757.410724811879
 20
2646.093255957505
 30
0.0
 40
0.0349999999999999
  0
ARC
  5
224E
330
1F
100
AcDbEntity
  8
SANINDUSA
100
AcDbCircle
 10
4759.411200300893
 20
2646.268277878052
 30
0.0
 40
0.0728164535813873
100
AcDbArc
 50
271.5720746736952
 51
285.5717401127261
  0
ARC
  5
224F
330
1F
100
AcDbEntity
  8
SANINDUSA
100
AcDbCircle
 10
4759.424640009949
 20
2646.221343974056
 30
0.0
 40
0.0239999475486152
100
AcDbArc
 50
284.7427192372693
 51
348.0227399631768
  0
LINE
  5
2250
330
1F
100
AcDbEntity
  8
SANINDUSA
100
AcDbLine
 10
4759.262918755358
 20
2646.19548883222
 30
0.0
 11
4759.290965363329
 21
2646.194509423598
 31
0.0
  0
LINE
  5
2251
330
1F
100
AcDbEntity
  8
SANINDUSA
100
AcDbLine
 10
4759.385151371306
 20
2646.194509423598
 30
0.0
 11
4759.413197979277
 21
2646.19548883222
 31
0.0
  0
LINE
  5
2252
330
1F
100
AcDbEntity
  8
SANINDUSA
100
AcDbLine
 10
4759.290965363329
 20
2646.194509423598
 30
0.0
 11
4759.301319107359
 21
2646.18340640448
 31
0.0
  0
LINE
  5
2253
330
1F
100
AcDbEntity
  8
SANINDUSA
100
AcDbLine
 10
4759.374797627276
 20
2646.18340640448
 30
0.0
 11
4759.385151371306
 21
2646.194509423598
 31
0.0
  0
LINE
  5
2256
330
1F
100
AcDbEntity
  8
SANINDUSA
100
AcDbLine
 10
4758.807360163545
 20
2646.289416983052
 30
0.0
 11
4758.807904018116
 21
2646.320574390245
 31
0.0
  0
LINE
  5
2257
330
1F
100
AcDbEntity
  8
SANINDUSA
100
AcDbLine
 10
4758.807360163545
 20
2646.289416983052
 30
0.0
 11
4758.812359401902
 21
2646.289416983052
 31
0.0
  0
LINE
  5
225A
330
1F
100
AcDbEntity
  8
SANINDUSA
100
AcDbLine
 10
4758.812359401902
 20
2646.289416983052
 30
0.0
 11
4759.503757342642
 21
2646.289416983052
 31
0.0
  0
LINE
  5
225C
330
1F
100
AcDbEntity
  8
SANINDUSA
100
AcDbLine
 10
4759.508212730234
 20
2646.320574053823
 30
0.0
 11
4759.508756563014
 21
2646.289416983052
 31
0.0
  0
LINE
  5
225D
330
1F
100
AcDbEntity
  8
SANINDUSA
100
AcDbLine
 10
4759.503757342642
 20
2646.289416983052
 30
0.0
 11
4759.508756563014
 21
2646.289416983052
 31
0.0
  0
ARC
  5
225E
330
1F
100
AcDbEntity
  8
SANINDUSA
100
AcDbCircle
 10
4758.816902641494
 20
2646.320416982158
 30
0.0
 40
0.0090000000000002
100
AcDbArc
 50
90.0
 51
178.9999999902799
  0
LINE
  5
2260
330
1F
100
AcDbEntity
  8
SANINDUSA
100
AcDbLine
 10
4758.816902641153
 20
2646.329416982158
 30
0.0
 11
4759.499214097803
 21
2646.329416982158
 31
0.0
  0
ARC
  5
2262
330
1F
100
AcDbEntity
  8
SANINDUSA
100
AcDbCircle
 10
4759.499214090758
 20
2646.320416982158
 30
0.0
 40
0.0090000000000001
100
AcDbArc
 50
1.000000009720081
 51
90.0
  0
LINE
  5
226A
330
1F
100
AcDbEntity
  8
SANINDUSA
100
AcDbLine
 10
4758.852471265888
 20
2646.289416983052
 30
0.0
 11
4758.866307433641
 21
2646.224322929307
 31
0.0
  0
LINE
  5
226C
330
1F
100
AcDbEntity
  8
SANINDUSA
100
AcDbLine
 10
4759.44906942541
 20
2646.220842085107
 30
0.0
 11
4759.463645443267
 21
2646.289416983052
 31
0.0
  0
ARC
  5
226E
330
1F
100
AcDbEntity
  8
SANINDUSA
100
AcDbCircle
 10
4758.889813778703
 20
2646.22914541642
 30
0.0
 40
0.0239953241476357
100
AcDbArc
 50
192.0013151826016
 51
269.0597746962715
  0
LINE
  5
2271
330
1F
100
AcDbEntity
  8
SANINDUSA
100
AcDbLine
 10
4759.44885306055
 20
2646.219824298545
 30
0.0
 11
4759.44906942541
 21
2646.220842085107
 31
0.0
  0
LWPOLYLINE
  5
2273
330
1F
100
AcDbEntity
  8
SANINDUSA
100
AcDbPolyline
 90
        5
 70
   128
 43
0.0
 10
4759.448117479628
 20
2646.216363421901
 10
4759.44829909498
 20
2646.217217951341
 10
4759.448517307585
 20
2646.218244730755
 10
4759.448660477942
 20
2646.218918225988
 10
4759.44885306055
 20
2646.219824298545
  0
LINE
  5
2274
330
1F
100
AcDbEntity
  8
SANINDUSA
100
AcDbLine
 10
4759.290965363329
 20
2646.194509423598
 30
0.0
 11
4759.385151371306
 21
2646.194509423598
 31
0.0
  0
LINE
  5
2275
330
1F
100
AcDbEntity
  8
SANINDUSA
100
AcDbLine
 10
4759.301319107359
 20
2646.18340640448
 30
0.0
 11
4759.374797627276
 21
2646.18340640448
 31
0.0
  0
LINE
  5
227B
330
1F
100
AcDbEntity
  8
SANINDUSA
100
AcDbLine
 10
4760.327084957443
 20
2646.217181168446
 30
0.0
 11
4760.349430872488
 21
2646.322310296602
 31
0.0
  0
ARC
  5
227C
330
1F
100
AcDbEntity
  8
SANINDUSA
100
AcDbCircle
 10
4760.358229472401
 20
2646.320416982158
 30
0.0
 40
0.0090000000000001
100
AcDbArc
 50
90.0
 51
168.0000000087166
  0
LINE
  5
227D
330
1F
100
AcDbEntity
  8
SANINDUSA
100
AcDbLine
 10
4760.38209714778
 20
2646.329416982158
 30
0.0
 11
4760.358229481059
 21
2646.329416982158
 31
0.0
  0
ARC
  5
227E
330
1F
100
AcDbEntity
  8
SANINDUSA
100
AcDbCircle
 10
4760.382097140733
 20
2646.320416982158
 30
0.0
 40
0.0090000000000001
100
AcDbArc
 50
1.000000009720081
 51
90.0
  0
LINE
  5
227F
330
1F
100
AcDbEntity
  8
SANINDUSA
100
AcDbLine
 10
4760.391639612989
 20
2646.289416983052
 30
0.0
 11
4760.391095769991
 21
2646.320574053816
 31
0.0
  0
LINE
  5
2280
330
1F
100
AcDbEntity
  8
SANINDUSA
100
AcDbLine
 10
4760.387639008837
 20
2646.289416983052
 30
0.0
 11
4760.391639612989
 21
2646.289416983052
 31
0.0
  0
LINE
  5
2281
330
1F
100
AcDbEntity
  8
SANINDUSA
100
AcDbLine
 10
4760.387639008837
 20
2646.289416983052
 30
0.0
 11
4760.387096368151
 21
2646.320504243746
 31
0.0
  0
ARC
  5
2282
330
1F
100
AcDbEntity
  8
SANINDUSA
100
AcDbCircle
 10
4760.382097140733
 20
2646.320416982158
 30
0.0
 40
0.0050000000000001
100
AcDbArc
 50
1.000000009720081
 51
90.0
  0
LINE
  5
2283
330
1F
100
AcDbEntity
  8
SANINDUSA
100
AcDbLine
 10
4760.38209714778
 20
2646.325416981968
 30
0.0
 11
4760.358229481059
 21
2646.325416981968
 31
0.0
  0
ARC
  5
2284
330
1F
100
AcDbEntity
  8
SANINDUSA
100
AcDbCircle
 10
4760.358229472401
 20
2646.320416982158
 30
0.0
 40
0.005
100
AcDbArc
 50
90.0
 51
168.0000000087166
  0
LINE
  5
2285
330
1F
100
AcDbEntity
  8
SANINDUSA
100
AcDbLine
 10
4760.330997549372
 20
2646.216349519118
 30
0.0
 11
4760.353338741141
 21
2646.321456540636
 31
0.0
  0
ARC
  5
2286
330
1F
100
AcDbEntity
  8
SANINDUSA
100
AcDbCircle
 10
4760.307522005429
 20
2646.221339402262
 30
0.0
 40
0.0240000000000038
100
AcDbArc
 50
285.262974232585
 51
348.0000000087166
  0
LWPOLYLINE
  5
2287
330
1F
100
AcDbEntity
  8
SANINDUSA
100
AcDbPolyline
 90
        3
 70
   128
 43
0.0
 10
4760.296088658647
 20
2646.19548871301
 10
4760.304983578997
 20
2646.196313984021
 10
4760.313839994745
 20
2646.198185942396
  0
LINE
  5
2288
330
1F
100
AcDbEntity
  8
SANINDUSA
100
AcDbLine
 10
4760.296081029253
 20
2646.19548883222
 30
0.0
 11
4760.268034421282
 21
2646.194509423598
 31
0.0
  0
LINE
  5
2289
330
1F
100
AcDbEntity
  8
SANINDUSA
100
AcDbLine
 10
4760.268034421282
 20
2646.194509423598
 30
0.0
 11
4760.257680677252
 21
2646.18340640448
 31
0.0
  0
LINE
  5
228A
330
1F
100
AcDbEntity
  8
SANINDUSA
100
AcDbLine
 10
4760.257680677252
 20
2646.18340640448
 30
0.0
 11
4760.184202157335
 21
2646.18340640448
 31
0.0
  0
LINE
  5
228B
330
1F
100
AcDbEntity
  8
SANINDUSA
100
AcDbLine
 10
4760.184202157335
 20
2646.18340640448
 30
0.0
 11
4760.173848413305
 21
2646.194509423598
 31
0.0
  0
LINE
  5
228C
330
1F
100
AcDbEntity
  8
SANINDUSA
100
AcDbLine
 10
4760.173848413305
 20
2646.194509423598
 30
0.0
 11
4760.145801805334
 21
2646.19548883222
 31
0.0
  0
LWPOLYLINE
  5
228D
330
1F
100
AcDbEntity
  8
SANINDUSA
100
AcDbPolyline
 90
        3
 70
   128
 43
0.0
 10
4760.11710210927
 20
2646.196220374926
 10
4760.128381632642
 20
2646.195932871922
 10
4760.145841859656
 20
2646.195487714632
  0
ARC
  5
228E
330
1F
100
AcDbEntity
  8
SANINDUSA
100
AcDbCircle
 10
4760.117305865686
 20
2646.204217740792
 30
0.0
 40
0.0079999610922863
100
AcDbArc
 50
217.2218477321904
 51
268.5405372331388
  0
LINE
  5
228F
330
1F
100
AcDbEntity
  8
SANINDUSA
100
AcDbLine
 10
4760.100682847577
 20
2646.199639997705
 30
0.0
 11
4760.110935502129
 21
2646.199378541931
 31
0.0
  0
ARC
  5
2290
330
1F
100
AcDbEntity
  8
SANINDUSA
100
AcDbCircle
 10
4760.094567349642
 20
2646.204797488923
 30
0.0
 40
0.0079999394153643
100
AcDbArc
 50
268.5392501619005
 51
319.8574670045886
  0
LINE
  5
2291
330
1F
100
AcDbEntity
  8
SANINDUSA
100
AcDbLine
 10
4760.052123122291
 20
2646.19787711583
 30
0.0
 11
4760.094363414125
 21
2646.196800149306
 31
0.0
  0
ARC
  5
2292
330
1F
100
AcDbEntity
  8
SANINDUSA
100
AcDbCircle
 10
4760.052326995959
 20
2646.205874484628
 30
0.0
 40
0.0079999670102333
100
AcDbArc
 50
217.2215738670635
 51
268.5396982986906
  0
LINE
  5
2293
330
1F
100
AcDbEntity
  8
SANINDUSA
100
AcDbLine
 10
4760.035703979808
 20
2646.201296708806
 30
0.0
 11
4760.045956604557
 21
2646.201035312637
 31
0.0
  0
ARC
  5
2294
330
1F
100
AcDbEntity
  8
SANINDUSA
100
AcDbCircle
 10
4760.029588411549
 20
2646.206454314552
 30
0.0
 40
0.008000067009103
100
AcDbArc
 50
268.539777271807
 51
319.85716468981
  0
LINE
  5
2295
330
1F
100
AcDbEntity
  8
SANINDUSA
100
AcDbLine
 10
4759.98714422472
 20
2646.19953381203
 30
0.0
 11
4760.029384546356
 21
2646.198456845506
 31
0.0
  0
ARC
  5
2296
330
1F
100
AcDbEntity
  8
SANINDUSA
100
AcDbCircle
 10
4759.987348147837
 20
2646.207531217266
 30
0.0
 40
0.0080000046961983
100
AcDbArc
 50
217.22169653682
 51
268.5393509239535
  0
LINE
  5
2297
330
1F
100
AcDbEntity
  8
SANINDUSA
100
AcDbLine
 10
4759.970725082236
 20
2646.202953419908
 30
0.0
 11
4759.980977736788
 21
2646.202692008837
 31
0.0
  0
ARC
  5
2298
330
1F
100
AcDbEntity
  8
SANINDUSA
100
AcDbCircle
 10
4759.964609615177
 20
2646.208110800456
 30
0.0
 40
0.0079998444654205
100
AcDbArc
 50
268.5390116283234
 51
319.8579303651395
  0
LWPOLYLINE
  5
2299
330
1F
100
AcDbEntity
  8
SANINDUSA
100
AcDbPolyline
 90
        3
 70
   128
 43
0.0
 10
4759.922165342049
 20
2646.201190523132
 10
4759.939672403412
 20
2646.200744173749
 10
4759.964405648785
 20
2646.200113556608
  0
ARC
  5
229A
330
1F
100
AcDbEntity
  8
SANINDUSA
100
AcDbCircle
 10
4759.922369267473
 20
2646.209187940095
 30
0.0
 40
0.0080000164789726
100
AcDbArc
 50
217.2216039144588
 51
268.5393365369113
  0
LINE
  5
229B
330
1F
100
AcDbEntity
  8
SANINDUSA
100
AcDbLine
 10
4759.905746199565
 20
2646.20461013101
 30
0.0
 11
4759.915998839217
 21
2646.20434873484
 31
0.0
  0
ARC
  5
229C
330
1F
100
AcDbEntity
  8
SANINDUSA
100
AcDbCircle
 10
4759.899630717696
 20
2646.209767586479
 30
0.0
 40
0.0079999040885842
100
AcDbArc
 50
268.5391286013474
 51
319.8575885577775
  0
LINE
  5
229D
330
1F
100
AcDbEntity
  8
SANINDUSA
100
AcDbLine
 10
4759.857186459379
 20
2646.202847249135
 30
0.0
 11
4759.899426766114
 21
2646.201770282611
 31
0.0
  0
ARC
  5
229E
330
1F
100
AcDbEntity
  8
SANINDUSA
100
AcDbCircle
 10
4759.857390327096
 20
2646.210844587673
 30
0.0
 40
0.007999936608758
100
AcDbArc
 50
217.2215341271922
 51
268.5397353615832
  0
LINE
  5
229F
330
1F
100
AcDbEntity
  8
SANINDUSA
100
AcDbLine
 10
4759.840767316894
 20
2646.206266842111
 30
0.0
 11
4759.851019956546
 21
2646.206005438491
 31
0.0
  0
ARC
  5
22A0
330
1F
100
AcDbEntity
  8
SANINDUSA
100
AcDbCircle
 10
4759.834651801693
 20
2646.211424371755
 30
0.0
 40
0.0079999773880704
100
AcDbArc
 50
268.5393807926609
 51
319.8573363508318
  0
LINE
  5
22A1
330
1F
100
AcDbEntity
  8
SANINDUSA
100
AcDbLine
 10
4759.772119038181
 20
2646.205016135498
 30
0.0
 11
4759.834447883444
 21
2646.203426993712
 31
0.0
  0
ARC
  5
22A2
330
1F
100
AcDbEntity
  8
SANINDUSA
100
AcDbCircle
 10
4759.772730743971
 20
2646.229008338904
 30
0.0
 40
0.0240000000000006
100
AcDbArc
 50
191.9999999912834
 51
268.5394941692565
  0
LINE
  5
22A3
330
1F
100
AcDbEntity
  8
SANINDUSA
100
AcDbLine
 10
4759.728544097768
 20
2646.321456540636
 30
0.0
 11
4759.749255203085
 21
2646.224018461331
 31
0.0
  0
ARC
  5
22A4
330
1F
100
AcDbEntity
  8
SANINDUSA
100
AcDbCircle
 10
4759.723653359803
 20
2646.320416982158
 30
0.0
 40
0.005
100
AcDbArc
 50
11.9999999912834
 51
90.0
  0
LINE
  5
22A5
330
1F
100
AcDbEntity
  8
SANINDUSA
100
AcDbLine
 10
4759.723653361576
 20
2646.325416981968
 30
0.0
 11
4759.699785691129
 21
2646.325416981968
 31
0.0
  0
ARC
  5
22A6
330
1F
100
AcDbEntity
  8
SANINDUSA
100
AcDbCircle
 10
4759.69978569147
 20
2646.320416982158
 30
0.0
 40
0.0050000000000001
100
AcDbArc
 50
90.0
 51
178.9999999902799
  0
LINE
  5
22A7
330
1F
100
AcDbEntity
  8
SANINDUSA
100
AcDbLine
 10
4759.694786453063
 20
2646.320504243746
 30
0.0
 11
4759.694243822854
 21
2646.289416983052
 31
0.0
  0
LINE
  5
22A8
330
1F
100
AcDbEntity
  8
SANINDUSA
100
AcDbLine
 10
4759.690243213521
 20
2646.289416983052
 30
0.0
 11
4759.694243822854
 21
2646.289416983052
 31
0.0
  0
LINE
  5
22A9
330
1F
100
AcDbEntity
  8
SANINDUSA
100
AcDbLine
 10
4759.690787068092
 20
2646.320574390263
 30
0.0
 11
4759.690243213521
 21
2646.289416983052
 31
0.0
  0
ARC
  5
22AA
330
1F
100
AcDbEntity
  8
SANINDUSA
100
AcDbCircle
 10
4759.69978569147
 20
2646.320416982158
 30
0.0
 40
0.0090000000000001
100
AcDbArc
 50
90.0
 51
178.9999999902799
  0
LINE
  5
22AB
330
1F
100
AcDbEntity
  8
SANINDUSA
100
AcDbLine
 10
4759.723653361576
 20
2646.329416982158
 30
0.0
 11
4759.699785691129
 21
2646.329416982158
 31
0.0
  0
ARC
  5
22AC
330
1F
100
AcDbEntity
  8
SANINDUSA
100
AcDbCircle
 10
4759.723653359803
 20
2646.320416982158
 30
0.0
 40
0.0090000000000001
100
AcDbArc
 50
11.9999999912834
 51
90.0
  0
LINE
  5
22AD
330
1F
100
AcDbEntity
  8
SANINDUSA
100
AcDbLine
 10
4759.732456661498
 20
2646.32228831316
 30
0.0
 11
4759.753167791957
 21
2646.224850105087
 31
0.0
  0
ARC
  5
22AF
330
1F
100
AcDbEntity
  8
SANINDUSA
100
AcDbCircle
 10
4759.772730743971
 20
2646.229008338904
 30
0.0
 40
0.0200000000000004
100
AcDbArc
 50
191.9999999912834
 51
268.5394941692565
  0
LINE
  5
22B1
330
1F
100
AcDbEntity
  8
SANINDUSA
100
AcDbLine
 10
4759.772209287282
 20
2646.209015137986
 30
0.0
 11
4759.834549837189
 21
2646.207425690516
 31
0.0
  0
ARC
  5
22B2
330
1F
100
AcDbEntity
  8
SANINDUSA
100
AcDbCircle
 10
4759.834651790681
 20
2646.211424390204
 30
0.0
 40
0.0040000000000023
100
AcDbArc
 50
268.5394925530367
 51
323.6895879175965
  0
ARC
  5
22B3
330
1F
100
AcDbEntity
  8
SANINDUSA
100
AcDbCircle
 10
4759.840292535478
 20
2646.20727927282
 30
0.0
 40
0.0030000000000088
100
AcDbArc
 50
88.53949244885013
 51
143.6895879175965
  0
LINE
  5
22B4
330
1F
100
AcDbEntity
  8
SANINDUSA
100
AcDbLine
 10
4759.840368993955
 20
2646.21027830176
 30
0.0
 11
4759.851622186975
 21
2646.209991387352
 31
0.0
  0
ARC
  5
22B5
330
1F
100
AcDbEntity
  8
SANINDUSA
100
AcDbCircle
 10
4759.851545719878
 20
2646.206992359516
 30
0.0
 40
0.0030000000000015
100
AcDbArc
 50
33.38939713845733
 51
88.53949250094341
  0
ARC
  5
22B6
330
1F
100
AcDbEntity
  8
SANINDUSA
100
AcDbCircle
 10
4759.857390367904
 20
2646.210844643183
 30
0.0
 40
0.004000000000005
100
AcDbArc
 50
213.3893971384573
 51
268.5394926572232
  0
LINE
  5
22B7
330
1F
100
AcDbEntity
  8
SANINDUSA
100
AcDbLine
 10
4759.857288413124
 20
2646.206845945938
 30
0.0
 11
4759.899528719859
 21
2646.205768979414
 31
0.0
  0
ARC
  5
22B8
330
1F
100
AcDbEntity
  8
SANINDUSA
100
AcDbCircle
 10
4759.899630674148
 20
2646.209767677401
 30
0.0
 40
0.0040000000000077
100
AcDbArc
 50
268.5394951075996
 51
323.6895906168275
  0
ARC
  5
22B9
330
1F
100
AcDbEntity
  8
SANINDUSA
100
AcDbCircle
 10
4759.905271419142
 20
2646.205622560283
 30
0.0
 40
0.003000000000032
100
AcDbArc
 50
88.53949531597272
 51
143.6895906168275
  0
LINE
  5
22BA
330
1F
100
AcDbEntity
  8
SANINDUSA
100
AcDbLine
 10
4759.905347876626
 20
2646.208621583208
 30
0.0
 11
4759.916601069646
 21
2646.20833467625
 31
0.0
  0
ARC
  5
22BB
330
1F
100
AcDbEntity
  8
SANINDUSA
100
AcDbCircle
 10
4759.916524603544
 20
2646.205335647541
 30
0.0
 40
0.0030000000000023
100
AcDbArc
 50
33.38939963137436
 51
88.53949521178618
  0
ARC
  5
22BC
330
1F
100
AcDbEntity
  8
SANINDUSA
100
AcDbCircle
 10
4759.922369251404
 20
2646.209187931461
 30
0.0
 40
0.0040000000000097
100
AcDbArc
 50
213.3893996313743
 51
268.5394948464692
  0
LWPOLYLINE
  5
22BD
330
1F
100
AcDbEntity
  8
SANINDUSA
100
AcDbPolyline
 90
        3
 70
   128
 43
0.0
 10
4759.922267295794
 20
2646.205189227386
 10
4759.947768889742
 20
2646.204539037569
 10
4759.964514255146
 20
2646.204112098698
  0
ARC
  5
22BE
330
1F
100
AcDbEntity
  8
SANINDUSA
100
AcDbCircle
 10
4759.964609557645
 20
2646.208110963216
 30
0.0
 40
0.0040000000000163
100
AcDbArc
 50
268.539491875824
 51
323.6895906686808
  0
ARC
  5
22BF
330
1F
100
AcDbEntity
  8
SANINDUSA
100
AcDbCircle
 10
4759.970250302641
 20
2646.203965846102
 30
0.0
 40
0.0030000000000679
100
AcDbArc
 50
88.5394985477483
 51
143.6895906686808
  0
LINE
  5
22C0
330
1F
100
AcDbEntity
  8
SANINDUSA
100
AcDbLine
 10
4759.970326759593
 20
2646.206964871665
 30
0.0
 11
4759.981583880883
 21
2646.206677857534
 31
0.0
  0
ARC
  5
22C1
330
1F
100
AcDbEntity
  8
SANINDUSA
100
AcDbCircle
 10
4759.981503487614
 20
2646.203678934907
 30
0.0
 40
0.0030000000000046
100
AcDbArc
 50
33.38941009549174
 51
88.53950600173581
  0
ARC
  5
22C2
330
1F
100
AcDbEntity
  8
SANINDUSA
100
AcDbCircle
 10
4759.987348134768
 20
2646.207531219895
 30
0.0
 40
0.0040000000000017
100
AcDbArc
 50
213.3894100954917
 51
268.5395043861801
  0
LINE
  5
22C3
330
1F
100
AcDbEntity
  8
SANINDUSA
100
AcDbLine
 10
4759.987240358653
 20
2646.20353267212
 30
0.0
 11
4760.029486500101
 21
2646.20245554231
 31
0.0
  0
ARC
  5
22C4
330
1F
100
AcDbEntity
  8
SANINDUSA
100
AcDbCircle
 10
4760.029588440474
 20
2646.206454249556
 30
0.0
 40
0.0040000000000196
100
AcDbArc
 50
268.5395223175575
 51
323.6896296075916
  0
ARC
  5
22C5
330
1F
100
AcDbEntity
  8
SANINDUSA
100
AcDbCircle
 10
4760.035229188289
 20
2646.202309136277
 30
0.0
 40
0.00300000000008
100
AcDbArc
 50
88.53953842500615
 51
143.6896296075916
  0
LINE
  5
22C6
330
1F
100
AcDbEntity
  8
SANINDUSA
100
AcDbLine
 10
4760.035305641966
 20
2646.205308161004
 30
0.0
 11
4760.046558820086
 21
2646.205021254047
 31
0.0
  0
ARC
  5
22C7
330
1F
100
AcDbEntity
  8
SANINDUSA
100
AcDbCircle
 10
4760.04648236992
 20
2646.202022228341
 30
0.0
 40
0.0030000000000038
100
AcDbArc
 50
33.3893826130913
 51
88.53949218838373
  0
ARC
  5
22C8
330
1F
100
AcDbEntity
  8
SANINDUSA
100
AcDbCircle
 10
4760.052327018924
 20
2646.205874510525
 30
0.0
 40
0.0040000000000018
100
AcDbArc
 50
213.3893826130913
 51
268.5394653430787
  0
LINE
  5
22C9
330
1F
100
AcDbEntity
  8
SANINDUSA
100
AcDbLine
 10
4760.052225076036
 20
2646.201875812634
 30
0.0
 11
4760.09446536787
 21
2646.20079884611
 31
0.0
  0
ARC
  5
22CA
330
1F
100
AcDbEntity
  8
SANINDUSA
100
AcDbCircle
 10
4760.094567325205
 20
2646.204797552478
 30
0.0
 40
0.0040000000000034
100
AcDbArc
 50
268.5395183037187
 51
323.6895598287349
  0
ARC
  5
22CB
330
1F
100
AcDbEntity
  8
SANINDUSA
100
AcDbCircle
 10
4760.10020806797
 20
2646.200652432329
 30
0.0
 40
0.0030000000000124
100
AcDbArc
 50
88.53939439763989
 51
143.6895598287349
  0
LINE
  5
22CC
330
1F
100
AcDbEntity
  8
SANINDUSA
100
AcDbLine
 10
4760.100284539538
 20
2646.203651464804
 30
0.0
 11
4760.11153774746
 21
2646.203364483341
 31
0.0
  0
ARC
  5
22CD
330
1F
100
AcDbEntity
  8
SANINDUSA
100
AcDbCircle
 10
4760.1114612636
 20
2646.200365465045
 30
0.0
 40
0.0030000000000002
100
AcDbArc
 50
33.38965599830641
 51
88.53929848358225
  0
ARC
  5
22CE
330
1F
100
AcDbEntity
  8
SANINDUSA
100
AcDbCircle
 10
4760.117305894222
 20
2646.204217775119
 30
0.0
 40
0.0040000000000006
100
AcDbArc
 50
213.3896559983064
 51
268.5402772231848
  0
LWPOLYLINE
  5
22CF
330
1F
100
AcDbEntity
  8
SANINDUSA
100
AcDbPolyline
 90
        3
 70
   128
 43
0.0
 10
4760.11720400341
 20
2646.20021907173
 10
4760.132055901365
 20
2646.199840299114
 10
4760.145941459017
 20
2646.199486471041
  0
LINE
  5
22D0
330
1F
100
AcDbEntity
  8
SANINDUSA
100
AcDbLine
 10
4760.175643884021
 20
2646.198449171408
 30
0.0
 11
4760.145941429215
 21
2646.199486396535
 31
0.0
  0
LINE
  5
22D1
330
1F
100
AcDbEntity
  8
SANINDUSA
100
AcDbLine
 10
4760.18594142087
 20
2646.187406397685
 30
0.0
 11
4760.175643884021
 21
2646.198449171408
 31
0.0
  0
LINE
  5
22D2
330
1F
100
AcDbEntity
  8
SANINDUSA
100
AcDbLine
 10
4760.255941413717
 20
2646.187406397685
 30
0.0
 11
4760.18594142087
 21
2646.187406397685
 31
0.0
  0
LINE
  5
22D3
330
1F
100
AcDbEntity
  8
SANINDUSA
100
AcDbLine
 10
4760.266238950567
 20
2646.198449171408
 30
0.0
 11
4760.255941413717
 21
2646.187406397685
 31
0.0
  0
LINE
  5
22D4
330
1F
100
AcDbEntity
  8
SANINDUSA
100
AcDbLine
 10
4760.295941435175
 20
2646.199486396535
 30
0.0
 11
4760.266238950567
 21
2646.198449171408
 31
0.0
  0
ARC
  5
22D5
330
1F
100
AcDbEntity
  8
SANINDUSA
100
AcDbCircle
 10
4760.307522005429
 20
2646.221339402262
 30
0.0
 40
0.0200000000000033
100
AcDbArc
 50
285.262974232585
 51
348.0000000087166
  0
LINE
  5
232D
330
1F
100
AcDbEntity
  8
SANINDUSA
100
AcDbLine
 10
4760.266238950567
 20
2646.198449171408
 30
0.0
 11
4760.175643884021
 21
2646.198449171408
 31
0.0
  0
LINE
  5
2449
330
1F
100
AcDbEntity
  8
SANINDUSA
100
AcDbLine
 10
4759.723653361576
 20
2646.329416982158
 30
0.0
 11
4759.742238164323
 21
2646.329416982158
 31
0.0
  0
LINE
  5
244B
330
1F
100
AcDbEntity
  8
SANINDUSA
100
AcDbLine
 10
4760.339644693213
 20
2646.329416982158
 30
0.0
 11
4760.358229481059
 21
2646.329416982158
 31
0.0
  0
LINE
  5
244C
330
1F
100
AcDbEntity
  8
SANINDUSA
100
AcDbLine
 10
4759.742238164323
 20
2646.329416982158
 30
0.0
 11
4760.339644693213
 21
2646.329416982158
 31
0.0
  0
LINE
  5
2452
330
1F
100
AcDbEntity
  8
SANINDUSA
100
AcDbLine
 10
4759.695243670514
 20
2646.289416983052
 30
0.0
 11
4759.694243822854
 21
2646.289416983052
 31
0.0
  0
LINE
  5
2454
330
1F
100
AcDbEntity
  8
SANINDUSA
100
AcDbLine
 10
4760.387639008837
 20
2646.289416983052
 30
0.0
 11
4760.386639140921
 21
2646.289416983052
 31
0.0
  0
LINE
  5
2455
330
1F
100
AcDbEntity
  8
SANINDUSA
100
AcDbLine
 10
4760.386639140921
 20
2646.289416983052
 30
0.0
 11
4760.346528493243
 21
2646.289416983052
 31
0.0
  0
LINE
  5
2456
330
1F
100
AcDbEntity
  8
SANINDUSA
100
AcDbLine
 10
4759.735354315863
 20
2646.289416983052
 30
0.0
 11
4759.695243670514
 21
2646.289416983052
 31
0.0
  0
ARC
  5
2484
330
1F
100
AcDbEntity
  8
SANINDUSA
100
AcDbCircle
 10
4757.982984744339
 20
2646.221109702184
 30
0.0
 40
0.0239998633120816
100
AcDbArc
 50
192.0771020282986
 51
269.0415584272946
  0
ARC
  5
2485
330
1F
100
AcDbEntity
  8
SANINDUSA
100
AcDbCircle
 10
4758.516047446391
 20
2646.221104462628
 30
0.0
 40
0.023999855226849
100
AcDbArc
 50
270.8964400173014
 51
347.9234856183035
  0
LWPOLYLINE
  5
2486
330
1F
100
AcDbEntity
  8
SANINDUSA
100
AcDbPolyline
 90
       23
 70
   128
 43
0.0
 10
4758.318240847446
 20
2646.195487653935
 10
4758.32213331771
 20
2646.195464213896
 10
4758.327126479058
 20
2646.195441706111
 10
4758.331110861201
 20
2646.195428378812
 10
4758.333816822931
 20
2646.195421558254
 10
4758.335770066092
 20
2646.195417711866
 10
4758.338091849276
 20
2646.195414289085
 10
4758.341237751868
 20
2646.195411652732
 10
4758.345207658189
 20
2646.195411512339
 10
4758.350001435181
 20
2646.19541582895
 10
4758.356708735212
 20
2646.19542948588
 10
4758.364559982527
 20
2646.195455665453
 10
4758.373554956931
 20
2646.19549756734
 10
4758.383693471748
 20
2646.195557979427
 10
4758.395191098532
 20
2646.195640860531
 10
4758.407874006656
 20
2646.195747166688
 10
4758.421742194985
 20
2646.195878386242
 10
4758.436795745942
 20
2646.196035909252
 10
4758.453034828941
 20
2646.196221458074
 10
4758.470138143919
 20
2646.196433510537
 10
4758.488385609383
 20
2646.196679146633
 10
4758.507777647651
 20
2646.196964728618
 10
4758.516431581487
 20
2646.197105987263
  0
LWPOLYLINE
  5
2487
330
1F
100
AcDbEntity
  8
SANINDUSA
100
AcDbPolyline
 90
       21
 70
   128
 43
0.0
 10
4757.982577025563
 20
2646.197263257896
 10
4757.995734996717
 20
2646.196990457407
 10
4758.013237184634
 20
2646.196681162962
 10
4758.029750303021
 20
2646.196426614331
 10
4758.045275214356
 20
2646.196214373115
 10
4758.059812428012
 20
2646.196037088792
 10
4758.073128511395
 20
2646.19589129954
 10
4758.085492347023
 20
2646.195769504623
 10
4758.096904002038
 20
2646.195669386447
 10
4758.107363506266
 20
2646.195588747777
 10
4758.118093635646
 20
2646.195518281869
 10
4758.1275943248
 20
2646.195467746057
 10
4758.135865234278
 20
2646.195434028691
 10
4758.14290621466
 20
2646.195413506939
 10
4758.148717191663
 20
2646.195402830263
 10
4758.153297955169
 20
2646.195398836757
 10
4758.156740540262
 20
2646.195398637308
 10
4758.160264729033
 20
2646.195401133314
 10
4758.163813950113
 20
2646.195406623827
 10
4758.16773332568
 20
2646.195416413262
 10
4758.174447190002
 20
2646.195486389732
  0
LINE
  5
2488
330
1F
100
AcDbEntity
  8
SANINDUSA
100
AcDbLine
 10
4758.174447190002
 20
2646.195486389732
 30
0.0
 11
4758.202423659882
 21
2646.194509429876
 31
0.0
  0
LINE
  5
2489
330
1F
100
AcDbEntity
  8
SANINDUSA
100
AcDbLine
 10
4758.29660963625
 20
2646.194509429876
 30
0.0
 11
4758.324586382276
 21
2646.195486399375
 31
0.0
  0
LINE
  5
248A
330
1F
100
AcDbEntity
  8
SANINDUSA
100
AcDbLine
 10
4758.202423659882
 20
2646.194509429876
 30
0.0
 11
4758.212777398567
 21
2646.18340640448
 31
0.0
  0
LINE
  5
248B
330
1F
100
AcDbEntity
  8
SANINDUSA
100
AcDbLine
 10
4758.286255897567
 20
2646.18340640448
 30
0.0
 11
4758.29660963625
 21
2646.194509429876
 31
0.0
  0
LINE
  5
248D
330
1F
100
AcDbEntity
  8
SANINDUSA
100
AcDbLine
 10
4758.599671001955
 20
2646.320574059231
 30
0.0
 11
4758.600214850664
 21
2646.289416987574
 31
0.0
  0
LINE
  5
248F
330
1F
100
AcDbEntity
  8
SANINDUSA
100
AcDbLine
 10
4758.595215612188
 20
2646.289416987574
 30
0.0
 11
4758.600214850664
 21
2646.289416987574
 31
0.0
  0
LINE
  5
2492
330
1F
100
AcDbEntity
  8
SANINDUSA
100
AcDbLine
 10
4757.89881844547
 20
2646.289416987574
 30
0.0
 11
4757.899362294178
 21
2646.320574059231
 31
0.0
  0
LINE
  5
2493
330
1F
100
AcDbEntity
  8
SANINDUSA
100
AcDbLine
 10
4757.89881844547
 20
2646.289416987574
 30
0.0
 11
4757.903817683946
 21
2646.289416987574
 31
0.0
  0
LINE
  5
2495
330
1F
100
AcDbEntity
  8
SANINDUSA
100
AcDbLine
 10
4757.903817683946
 20
2646.289416987574
 30
0.0
 11
4758.595215612188
 21
2646.289416987574
 31
0.0
  0
LINE
  5
2496
330
1F
100
AcDbEntity
  8
SANINDUSA
100
AcDbLine
 10
4757.908360923435
 20
2646.329416987573
 30
0.0
 11
4758.590672372699
 21
2646.329416987573
 31
0.0
  0
ARC
  5
2499
330
1F
100
AcDbEntity
  8
SANINDUSA
100
AcDbCircle
 10
4758.590672372699
 20
2646.320416987574
 30
0.0
 40
0.0090000000000001
100
AcDbArc
 50
1.000000009720081
 51
90.0
  0
ARC
  5
249A
330
1F
100
AcDbEntity
  8
SANINDUSA
100
AcDbCircle
 10
4757.908360923435
 20
2646.320416987574
 30
0.0
 40
0.0090000000000001
100
AcDbArc
 50
90.0
 51
178.9999999902799
  0
LINE
  5
249B
330
1F
100
AcDbEntity
  8
SANINDUSA
100
AcDbLine
 10
4758.540530476762
 20
2646.220855137015
 30
0.0
 11
4758.55510374798
 21
2646.289416987574
 31
0.0
  0
LINE
  5
249C
330
1F
100
AcDbEntity
  8
SANINDUSA
100
AcDbLine
 10
4757.943929548154
 20
2646.289416987574
 30
0.0
 11
4757.958503779735
 21
2646.22085061885
 31
0.0
  0
LINE
  5
24AA
330
1F
100
AcDbEntity
  8
SANINDUSA
100
AcDbLine
 10
4757.958503779735
 20
2646.22085061885
 30
0.0
 11
4757.95950955438
 21
2646.21611882118
 31
0.0
  0
LINE
  5
24AB
330
1F
100
AcDbEntity
  8
SANINDUSA
100
AcDbLine
 10
4758.539522524652
 20
2646.216113095167
 30
0.0
 11
4758.540530476762
 21
2646.220855137015
 31
0.0
  0
LINE
  5
24AE
330
1F
100
AcDbEntity
  8
SANINDUSA
100
AcDbLine
 10
4758.249516648066
 20
2646.194509429876
 30
0.0
 11
4758.29660963625
 21
2646.194509429876
 31
0.0
  0
LINE
  5
24AF
330
1F
100
AcDbEntity
  8
SANINDUSA
100
AcDbLine
 10
4758.202423659882
 20
2646.194509429876
 30
0.0
 11
4758.249516648066
 21
2646.194509429876
 31
0.0
  0
LINE
  5
24B0
330
1F
100
AcDbEntity
  8
SANINDUSA
100
AcDbLine
 10
4758.249516648066
 20
2646.18340640448
 30
0.0
 11
4758.286255897567
 21
2646.18340640448
 31
0.0
  0
ARC
  5
24B5
330
1F
100
AcDbEntity
  8
SANINDUSA
100
AcDbCircle
 10
4768.01076612715
 20
2991.491193827629
 30
0.0
 40
345.4064977992125
100
AcDbArc
 50
268.4867817954126
 51
268.5487582376412
  0
ARC
  5
256B
330
1F
100
AcDbEntity
  8
SANINDUSA
100
AcDbCircle
 10
4760.293430773219
 20
2646.272742984154
 30
0.0
 40
0.0733
100
AcDbArc
 50
271.9629010173501
 51
285.3116140929655
  0
ENDSEC
  0
SECTION
  2
OBJECTS
  0
DICTIONARY
  5
C
330
0
100
AcDbDictionary
281
     1
  3
ACAD_COLOR
350
EE6
  3
ACAD_GROUP
350
D
  3
ACAD_LAYOUT
350
1A
  3
ACAD_MATERIAL
350
EE5
  3
ACAD_MLINESTYLE
350
17
  3
ACAD_PLOTSETTINGS
350
19
  3
ACAD_PLOTSTYLENAME
350
E
  3
ACAD_TABLESTYLE
350
EE7
  3
ACDBHEADERROUNDTRIPXREC
350
295C
  3
AcDbVariableDictionary
350
3D
  3
ASE_INDEX_DICTIONARY
350
2939
  0
DICTIONARY
  5
1051
330
2
100
AcDbDictionary
280
     1
281
     1
  3
ACAD_LAYERFILTERS
360
1057
  3
ACLYDICTIONARY
360
1056
  0
DICTIONARY
  5
EE6
102
{ACAD_REACTORS
330
C
102
}
330
C
100
AcDbDictionary
281
     1
  0
DICTIONARY
  5
D
102
{ACAD_REACTORS
330
C
102
}
330
C
100
AcDbDictionary
281
     1
  0
DICTIONARY
  5
1A
102
{ACAD_REACTORS
330
C
102
}
330
C
100
AcDbDictionary
281
     1
  3
Layout1
350
1E
  3
Layout2
350
26
  3
Model
350
22
  0
DICTIONARY
  5
EE5
102
{ACAD_REACTORS
330
C
102
}
330
C
100
AcDbDictionary
281
     1
  0
DICTIONARY
  5
17
102
{ACAD_REACTORS
330
C
102
}
330
C
100
AcDbDictionary
281
     1
  3
Standard
350
18
  0
DICTIONARY
  5
19
102
{ACAD_REACTORS
330
C
102
}
330
C
100
AcDbDictionary
281
     1
  0
ACDBDICTIONARYWDFLT
  5
E
102
{ACAD_REACTORS
330
C
102
}
330
C
100
AcDbDictionary
281
     1
  3
Normal
350
F
100
AcDbDictionaryWithDefault
340
F
  0
DICTIONARY
  5
EE7
102
{ACAD_REACTORS
330
C
102
}
330
C
100
AcDbDictionary
281
     1
  3
Standard
350
EE8
  0
DICTIONARY
  5
295C
102
{ACAD_REACTORS
330
C
102
}
330
C
100
AcDbDictionary
281
     1
  0
DICTIONARY
  5
3D
102
{ACAD_REACTORS
330
C
102
}
330
C
100
AcDbDictionary
281
     1
  3
CTABLESTYLE
350
1049
  3
DIMASSOC
350
3F
  3
HIDETEXT
350
3E
  3
PROJECTNAME
350
2946
  0
DICTIONARY
  5
2939
102
{ACAD_REACTORS
330
C
102
}
330
C
100
AcDbDictionary
281
     1
  3
ASEBlockHierarchyIndexRecord
350
293A
1001
DCO15
1040
1598599680.437
  0
DICTIONARY
  5
1057
102
{ACAD_REACTORS
330
1051
102
}
330
1051
100
AcDbDictionary
281
     1
  0
DICTIONARY
  5
1056
102
{ACAD_REACTORS
330
1051
102
}
330
1051
100
AcDbDictionary
281
     1
1001
ACAD
1000
<All
  0
LAYOUT
  5
1E
102
{ACAD_XDICTIONARY
360
295D
102
}
102
{ACAD_REACTORS
330
1A
102
}
330
1A
100
AcDbPlotSettings
  1

  2
Ploter HP500
  4

  6

 40
0.0
 41
0.0
 42
0.0
 43
0.0
 44
0.0
 45
0.0
 46
0.0
 47
0.0
 48
0.0
 49
0.0
140
0.0
141
0.0
142
1.0
143
1.0
 70
   688
 72
     0
 73
     0
 74
     5
  7
sanindusa.ctb
 75
    16
147
1.0
148
0.0
149
0.0
100
AcDbLayout
  1
Layout1
 70
     1
 71
     1
 10
0.0
 20
0.0
 11
420.0
 21
297.0
 12
0.0
 22
0.0
 32
0.0
 14
1.000000000000000E+20
 24
1.000000000000000E+20
 34
1.000000000000000E+20
 15
-1.000000000000000E+20
 25
-1.000000000000000E+20
 35
-1.000000000000000E+20
146
0.0
 13
0.0
 23
0.0
 33
0.0
 16
1.0
 26
0.0
 36
0.0
 17
0.0
 27
1.0
 37
0.0
 76
     0
330
1B
  0
LAYOUT
  5
26
102
{ACAD_XDICTIONARY
360
2961
102
}
102
{ACAD_REACTORS
330
1A
102
}
330
1A
100
AcDbPlotSettings
  1

  2
Ploter HP500
  4

  6

 40
0.0
 41
0.0
 42
0.0
 43
0.0
 44
0.0
 45
0.0
 46
0.0
 47
0.0
 48
0.0
 49
0.0
140
0.0
141
0.0
142
1.0
143
1.0
 70
   688
 72
     0
 73
     0
 74
     5
  7
sanindusa.ctb
 75
    16
147
1.0
148
0.0
149
0.0
100
AcDbLayout
  1
Layout2
 70
     1
 71
     2
 10
0.0
 20
0.0
 11
12.0
 21
9.0
 12
0.0
 22
0.0
 32
0.0
 14
0.0
 24
0.0
 34
0.0
 15
0.0
 25
0.0
 35
0.0
146
0.0
 13
0.0
 23
0.0
 33
0.0
 16
1.0
 26
0.0
 36
0.0
 17
0.0
 27
1.0
 37
0.0
 76
     0
330
23
  0
LAYOUT
  5
22
102
{ACAD_XDICTIONARY
360
295F
102
}
102
{ACAD_REACTORS
330
1A
102
}
330
1A
100
AcDbPlotSettings
  1

  2
Ploter HP500
  4
User268
  6

 40
4.995333194732666
 41
16.97565841674804
 42
4.995330810546875
 43
16.97567749023437
 44
209.9733276367187
 45
296.9259948730469
 46
0.0
 47
0.0
 48
0.0
 49
0.0
140
0.0
141
0.0
142
1.0
143
1.0
 70
 11952
 72
     1
 73
     1
 74
     0
  7
sanindusa.ctb
 75
     0
147
1.0
148
-427.5957866592534
149
7.362384574453926
100
AcDbLayout
  1
Model
 70
     1
 71
     0
 10
0.0
 20
0.0
 11
12.0
 21
9.0
 12
0.0
 22
0.0
 32
0.0
 14
0.0
 24
0.0
 34
0.0
 15
0.0
 25
0.0
 35
0.0
146
0.0
 13
0.0
 23
0.0
 33
0.0
 16
1.0
 26
0.0
 36
0.0
 17
0.0
 27
1.0
 37
0.0
 76
     0
330
1F
  0
MLINESTYLE
  5
18
102
{ACAD_REACTORS
330
17
102
}
330
17
100
AcDbMlineStyle
  2
STANDARD
 70
     0
  3

 62
   256
 51
90.0
 52
90.0
 71
     2
 49
0.5
 62
   256
  6
BYLAYER
 49
-0.5
 62
   256
  6
BYLAYER
  0
ACDBPLACEHOLDER
  5
F
102
{ACAD_REACTORS
330
E
102
}
330
E
  0
TABLESTYLE
  5
EE8
102
{ACAD_REACTORS
330
EE7
102
}
330
EE7
100
AcDbTableStyle
  3
Standard
 70
     0
 71
     0
 40
1.5
 41
1.5
280
     0
281
     0
  7
Standard
140
4.5
170
     2
 62
     0
 63
     7
283
     0
274
    -2
284
     1
 64
     0
275
    -2
285
     1
 65
     0
276
    -2
286
     1
 66
     0
277
    -2
287
     1
 67
     0
278
    -2
288
     1
 68
     0
279
    -2
289
     1
 69
     0
  7
Standard
140
6.0
170
     5
 62
     0
 63
     7
283
     0
274
    -2
284
     1
 64
     0
275
    -2
285
     1
 65
     0
276
    -2
286
     1
 66
     0
277
    -2
287
     1
 67
     0
278
    -2
288
     1
 68
     0
279
    -2
289
     1
 69
     0
  7
Standard
140
4.5
170
     5
 62
     0
 63
     7
283
     0
274
    -2
284
     1
 64
     0
275
    -2
285
     1
 65
     0
276
    -2
286
     1
 66
     0
277
    -2
287
     1
 67
     0
278
    -2
288
     1
 68
     0
279
    -2
289
     1
 69
     0
  0
DICTIONARYVAR
  5
1049
102
{ACAD_REACTORS
330
3D
102
}
330
3D
100
DictionaryVariables
280
     0
  1
STANDARD
  0
DICTIONARYVAR
  5
3F
102
{ACAD_REACTORS
330
3D
102
}
330
3D
100
DictionaryVariables
280
     0
  1
2
  0
DICTIONARYVAR
  5
3E
102
{ACAD_REACTORS
330
3D
102
}
330
3D
100
DictionaryVariables
280
     0
  1
1
  0
DICTIONARYVAR
  5
2946
102
{ACAD_REACTORS
330
3D
102
}
330
3D
100
DictionaryVariables
280
     0
  1

  0
XRECORD
  5
293A
102
{ACAD_REACTORS
330
2939
102
}
330
2939
100
AcDbXrecord
280
     1
  0
DICTIONARY
  5
295D
330
1E
100
AcDbDictionary
280
     1
281
     1
  3
ACAD_XREC_ROUNDTRIP
360
295E
  0
DICTIONARY
  5
2961
330
26
100
AcDbDictionary
280
     1
281
     1
  3
ACAD_XREC_ROUNDTRIP
360
2962
  0
DICTIONARY
  5
295F
330
22
100
AcDbDictionary
280
     1
281
     1
  3
ACAD_XREC_ROUNDTRIP
360
2960
  0
XRECORD
  5
295E
102
{ACAD_REACTORS
330
295D
102
}
330
295D
100
AcDbXrecord
280
     1
102
SHADEPLOT
 70
     0
102
SHADEPLOTRESLEVEL
 70
     2
102
SHADEPLOTCUSTOMDPI
 70
   300
  0
XRECORD
  5
2962
102
{ACAD_REACTORS
330
2961
102
}
330
2961
100
AcDbXrecord
280
     1
102
SHADEPLOT
 70
     0
102
SHADEPLOTRESLEVEL
 70
     2
102
SHADEPLOTCUSTOMDPI
 70
   300
  0
XRECORD
  5
2960
102
{ACAD_REACTORS
330
295F
102
}
330
295F
100
AcDbXrecord
280
     1
102
SHADEPLOT
 70
     0
102
SHADEPLOTRESLEVEL
 70
     2
102
SHADEPLOTCUSTOMDPI
 70
   300
  0
ENDSEC
  0
EOF
