  0
SECTION
  2
HEADER
  9
$ACADVER
  1
AC1015
  9
$ACADMAINTVER
 70
    20
  9
$DWGCODEPAGE
  3
ANSI_1252
  9
$INSBASE
 10
0.0
 20
0.0
 30
0.0
  9
$EXTMIN
 10
34.47646896433834
 20
184.5596682813523
 30
0.0
  9
$EXTMAX
 10
39.39018422838169
 20
185.6624619429117
 30
0.0
  9
$LIMMIN
 10
0.0
 20
0.0
  9
$LIMMAX
 10
420.0
 20
297.0
  9
$ORTHOMODE
 70
     0
  9
$REGENMODE
 70
     1
  9
$FILLMODE
 70
     1
  9
$QTEXTMODE
 70
     0
  9
$MIRRTEXT
 70
     0
  9
$LTSCALE
 40
1.0
  9
$ATTMODE
 70
     1
  9
$TEXTSIZE
 40
2.5
  9
$TRACEWID
 40
1.0
  9
$TEXTSTYLE
  7
Standard
  9
$CLAYER
  8
0
  9
$CELTYPE
  6
ByLayer
  9
$CECOLOR
 62
   256
  9
$CELTSCALE
 40
1.0
  9
$DISPSILH
 70
     0
  9
$DIMSCALE
 40
1.0
  9
$DIMASZ
 40
2.5
  9
$DIMEXO
 40
0.625
  9
$DIMDLI
 40
3.75
  9
$DIMRND
 40
0.0
  9
$DIMDLE
 40
0.0
  9
$DIMEXE
 40
1.25
  9
$DIMTP
 40
0.0
  9
$DIMTM
 40
0.0
  9
$DIMTXT
 40
2.5
  9
$DIMCEN
 40
2.5
  9
$DIMTSZ
 40
0.0
  9
$DIMTOL
 70
     0
  9
$DIMLIM
 70
     0
  9
$DIMTIH
 70
     0
  9
$DIMTOH
 70
     0
  9
$DIMSE1
 70
     0
  9
$DIMSE2
 70
     0
  9
$DIMTAD
 70
     1
  9
$DIMZIN
 70
     8
  9
$DIMBLK
  1

  9
$DIMASO
 70
     1
  9
$DIMSHO
 70
     1
  9
$DIMPOST
  1

  9
$DIMAPOST
  1

  9
$DIMALT
 70
     0
  9
$DIMALTD
 70
     3
  9
$DIMALTF
 40
0.03937007874016
  9
$DIMLFAC
 40
1.0
  9
$DIMTOFL
 70
     1
  9
$DIMTVP
 40
0.0
  9
$DIMTIX
 70
     0
  9
$DIMSOXD
 70
     0
  9
$DIMSAH
 70
     0
  9
$DIMBLK1
  1

  9
$DIMBLK2
  1

  9
$DIMSTYLE
  2
ISO-25
  9
$DIMCLRD
 70
     0
  9
$DIMCLRE
 70
     0
  9
$DIMCLRT
 70
     0
  9
$DIMTFAC
 40
1.0
  9
$DIMGAP
 40
0.625
  9
$DIMJUST
 70
     0
  9
$DIMSD1
 70
     0
  9
$DIMSD2
 70
     0
  9
$DIMTOLJ
 70
     0
  9
$DIMTZIN
 70
     8
  9
$DIMALTZ
 70
     0
  9
$DIMALTTZ
 70
     0
  9
$DIMUPT
 70
     0
  9
$DIMDEC
 70
     2
  9
$DIMTDEC
 70
     2
  9
$DIMALTU
 70
     2
  9
$DIMALTTD
 70
     3
  9
$DIMTXSTY
  7
Standard
  9
$DIMAUNIT
 70
     0
  9
$DIMADEC
 70
     0
  9
$DIMALTRND
 40
0.0
  9
$DIMAZIN
 70
     0
  9
$DIMDSEP
 70
    44
  9
$DIMATFIT
 70
     3
  9
$DIMFRAC
 70
     0
  9
$DIMLDRBLK
  1

  9
$DIMLUNIT
 70
     2
  9
$DIMLWD
 70
    -2
  9
$DIMLWE
 70
    -2
  9
$DIMTMOVE
 70
     0
  9
$LUNITS
 70
     2
  9
$LUPREC
 70
     4
  9
$SKETCHINC
 40
1.0
  9
$FILLETRAD
 40
0.0
  9
$AUNITS
 70
     0
  9
$AUPREC
 70
     0
  9
$MENU
  1
.
  9
$ELEVATION
 40
0.0
  9
$PELEVATION
 40
0.0
  9
$THICKNESS
 40
0.0
  9
$LIMCHECK
 70
     0
  9
$CHAMFERA
 40
0.0
  9
$CHAMFERB
 40
0.0
  9
$CHAMFERC
 40
0.0
  9
$CHAMFERD
 40
0.0
  9
$SKPOLY
 70
     0
  9
$TDCREATE
 40
2453910.764054722
  9
$TDUCREATE
 40
2453910.722388056
  9
$TDUPDATE
 40
2456185.495367836
  9
$TDUUPDATE
 40
2456185.453701169
  9
$TDINDWG
 40
0.0038438542
  9
$TDUSRTIMER
 40
0.0038438542
  9
$USRTIMER
 70
     1
  9
$ANGBASE
 50
0.0
  9
$ANGDIR
 70
     0
  9
$PDMODE
 70
     0
  9
$PDSIZE
 40
0.0
  9
$PLINEWID
 40
0.0
  9
$SPLFRAME
 70
     0
  9
$SPLINETYPE
 70
     6
  9
$SPLINESEGS
 70
     8
  9
$HANDSEED
  5
254
  9
$SURFTAB1
 70
     6
  9
$SURFTAB2
 70
     6
  9
$SURFTYPE
 70
     6
  9
$SURFU
 70
     6
  9
$SURFV
 70
     6
  9
$UCSBASE
  2

  9
$UCSNAME
  2

  9
$UCSORG
 10
0.0
 20
0.0
 30
0.0
  9
$UCSXDIR
 10
1.0
 20
0.0
 30
0.0
  9
$UCSYDIR
 10
0.0
 20
1.0
 30
0.0
  9
$UCSORTHOREF
  2

  9
$UCSORTHOVIEW
 70
     0
  9
$UCSORGTOP
 10
0.0
 20
0.0
 30
0.0
  9
$UCSORGBOTTOM
 10
0.0
 20
0.0
 30
0.0
  9
$UCSORGLEFT
 10
0.0
 20
0.0
 30
0.0
  9
$UCSORGRIGHT
 10
0.0
 20
0.0
 30
0.0
  9
$UCSORGFRONT
 10
0.0
 20
0.0
 30
0.0
  9
$UCSORGBACK
 10
0.0
 20
0.0
 30
0.0
  9
$PUCSBASE
  2

  9
$PUCSNAME
  2

  9
$PUCSORG
 10
0.0
 20
0.0
 30
0.0
  9
$PUCSXDIR
 10
1.0
 20
0.0
 30
0.0
  9
$PUCSYDIR
 10
0.0
 20
1.0
 30
0.0
  9
$PUCSORTHOREF
  2

  9
$PUCSORTHOVIEW
 70
     0
  9
$PUCSORGTOP
 10
0.0
 20
0.0
 30
0.0
  9
$PUCSORGBOTTOM
 10
0.0
 20
0.0
 30
0.0
  9
$PUCSORGLEFT
 10
0.0
 20
0.0
 30
0.0
  9
$PUCSORGRIGHT
 10
0.0
 20
0.0
 30
0.0
  9
$PUCSORGFRONT
 10
0.0
 20
0.0
 30
0.0
  9
$PUCSORGBACK
 10
0.0
 20
0.0
 30
0.0
  9
$USERI1
 70
     0
  9
$USERI2
 70
     0
  9
$USERI3
 70
     0
  9
$USERI4
 70
     0
  9
$USERI5
 70
     0
  9
$USERR1
 40
0.0
  9
$USERR2
 40
0.0
  9
$USERR3
 40
0.0
  9
$USERR4
 40
0.0
  9
$USERR5
 40
0.0
  9
$WORLDVIEW
 70
     1
  9
$SHADEDGE
 70
     3
  9
$SHADEDIF
 70
    70
  9
$TILEMODE
 70
     1
  9
$MAXACTVP
 70
    64
  9
$PINSBASE
 10
0.0
 20
0.0
 30
0.0
  9
$PLIMCHECK
 70
     0
  9
$PEXTMIN
 10
1.000000000000000E+20
 20
1.000000000000000E+20
 30
1.000000000000000E+20
  9
$PEXTMAX
 10
-1.000000000000000E+20
 20
-1.000000000000000E+20
 30
-1.000000000000000E+20
  9
$PLIMMIN
 10
0.0
 20
0.0
  9
$PLIMMAX
 10
420.0
 20
297.0
  9
$UNITMODE
 70
     0
  9
$VISRETAIN
 70
     1
  9
$PLINEGEN
 70
     0
  9
$PSLTSCALE
 70
     1
  9
$TREEDEPTH
 70
  3020
  9
$CMLSTYLE
  2
Standard
  9
$CMLJUST
 70
     0
  9
$CMLSCALE
 40
20.0
  9
$PROXYGRAPHICS
 70
     1
  9
$MEASUREMENT
 70
     1
  9
$CELWEIGHT
370
    -1
  9
$ENDCAPS
280
     0
  9
$JOINSTYLE
280
     0
  9
$LWDISPLAY
290
     0
  9
$INSUNITS
 70
     4
  9
$HYPERLINKBASE
  1

  9
$STYLESHEET
  1

  9
$XEDIT
290
     1
  9
$CEPSNTYPE
380
     0
  9
$PSTYLEMODE
290
     1
  9
$FINGERPRINTGUID
  2
{799CBC45-36CF-4727-98DB-B1D6EDA223EB}
  9
$VERSIONGUID
  2
{98BC9F2B-F4AD-4CED-A098-1B89D5233FD5}
  9
$EXTNAMES
290
     1
  9
$PSVPSCALE
 40
0.0
  9
$OLESTARTUP
290
     0
  0
ENDSEC
  0
SECTION
  2
CLASSES
  0
CLASS
  1
ACDBDICTIONARYWDFLT
  2
AcDbDictionaryWithDefault
  3
ObjectDBX Classes
 90
        0
280
     0
281
     0
  0
CLASS
  1
TABLESTYLE
  2
AcDbTableStyle
  3
ObjectDBX Classes
 90
     4095
280
     0
281
     0
  0
CLASS
  1
DICTIONARYVAR
  2
AcDbDictionaryVar
  3
ObjectDBX Classes
 90
        0
280
     0
281
     0
  0
CLASS
  1
ACDBPLACEHOLDER
  2
AcDbPlaceHolder
  3
ObjectDBX Classes
 90
        0
280
     0
281
     0
  0
CLASS
  1
LAYOUT
  2
AcDbLayout
  3
ObjectDBX Classes
 90
        0
280
     0
281
     0
  0
CLASS
  1
MATERIAL
  2
AcDbMaterial
  3
ObjectDBX Classes
 90
     1153
280
     0
281
     0
  0
CLASS
  1
VISUALSTYLE
  2
AcDbVisualStyle
  3
ObjectDBX Classes
 90
     4095
280
     0
281
     0
  0
CLASS
  1
SCALE
  2
AcDbScale
  3
ObjectDBX Classes
 90
     1153
280
     0
281
     0
  0
CLASS
  1
MLEADERSTYLE
  2
AcDbMLeaderStyle
  3
ACDB_MLEADERSTYLE_CLASS
 90
     4095
280
     0
281
     0
  0
CLASS
  1
CELLSTYLEMAP
  2
AcDbCellStyleMap
  3
ObjectDBX Classes
 90
     1152
280
     0
281
     0
  0
ENDSEC
  0
SECTION
  2
TABLES
  0
TABLE
  2
VPORT
  5
8
330
0
100
AcDbSymbolTable
 70
     1
  0
VPORT
  5
1CB
330
8
100
AcDbSymbolTableRecord
100
AcDbViewportTableRecord
  2
*Active
 70
     0
 10
0.0
 20
0.0
 11
1.0
 21
1.0
 12
36.899931518138
 22
185.1271539610019
 13
0.0
 23
0.0
 14
10.0
 24
10.0
 15
10.0
 25
10.0
 16
0.0
 26
0.0
 36
1.0
 17
0.0
 27
0.0
 37
0.0
 40
3.107669005310384
 41
1.645464025026068
 42
50.0
 43
0.0
 44
0.0
 50
0.0
 51
0.0
 71
     0
 72
  1000
 73
     1
 74
     3
 75
     0
 76
     0
 77
     0
 78
     0
281
     0
 65
     1
110
0.0
120
0.0
130
0.0
111
1.0
121
0.0
131
0.0
112
0.0
122
1.0
132
0.0
 79
     0
146
0.0
  0
ENDTAB
  0
TABLE
  2
LTYPE
  5
5
330
0
100
AcDbSymbolTable
 70
     1
  0
LTYPE
  5
14
330
5
100
AcDbSymbolTableRecord
100
AcDbLinetypeTableRecord
  2
ByBlock
 70
     0
  3

 72
    65
 73
     0
 40
0.0
  0
LTYPE
  5
15
330
5
100
AcDbSymbolTableRecord
100
AcDbLinetypeTableRecord
  2
ByLayer
 70
     0
  3

 72
    65
 73
     0
 40
0.0
  0
LTYPE
  5
16
330
5
100
AcDbSymbolTableRecord
100
AcDbLinetypeTableRecord
  2
Continuous
 70
     0
  3
Solid line
 72
    65
 73
     0
 40
0.0
  0
ENDTAB
  0
TABLE
  2
LAYER
  5
2
330
0
100
AcDbSymbolTable
 70
     2
  0
LAYER
  5
10
102
{ACAD_XDICTIONARY
360
216
102
}
330
2
100
AcDbSymbolTableRecord
100
AcDbLayerTableRecord
  2
0
 70
     0
 62
     7
  6
Continuous
370
    -3
390
F
  0
LAYER
  5
2F
102
{ACAD_XDICTIONARY
360
218
102
}
330
2
100
AcDbSymbolTableRecord
100
AcDbLayerTableRecord
  2
BLOCKS
 70
     0
 62
     3
  6
Continuous
370
    -3
390
F
  0
ENDTAB
  0
TABLE
  2
STYLE
  5
3
330
0
100
AcDbSymbolTable
 70
     2
  0
STYLE
  5
11
330
3
100
AcDbSymbolTableRecord
100
AcDbTextStyleTableRecord
  2
Standard
 70
     0
 40
0.0
 41
1.0
 50
0.0
 71
     0
 42
2.5
  3
txt
  4

  0
STYLE
  5
30
330
3
100
AcDbSymbolTableRecord
100
AcDbTextStyleTableRecord
  2
cotas
 70
     0
 40
2.0
 41
0.8
 50
0.0
 71
     0
 42
2.0
  3
ISOCP.shx
  4

  0
ENDTAB
  0
TABLE
  2
VIEW
  5
6
330
0
100
AcDbSymbolTable
 70
     0
  0
ENDTAB
  0
TABLE
  2
UCS
  5
7
330
0
100
AcDbSymbolTable
 70
     0
  0
ENDTAB
  0
TABLE
  2
APPID
  5
9
330
0
100
AcDbSymbolTable
 70
     2
  0
APPID
  5
12
330
9
100
AcDbSymbolTableRecord
100
AcDbRegAppTableRecord
  2
ACAD
 70
     0
  0
APPID
  5
253
330
9
100
AcDbSymbolTableRecord
100
AcDbRegAppTableRecord
  2
ACAD_MLEADERVER
 70
     0
  0
ENDTAB
  0
TABLE
  2
DIMSTYLE
  5
A
330
0
100
AcDbSymbolTable
 70
     1
100
AcDbDimStyleTable
 71
     0
  0
DIMSTYLE
105
2B
330
A
100
AcDbSymbolTableRecord
100
AcDbDimStyleTableRecord
  2
ISO-25
 70
     0
 41
2.5
 42
0.625
 43
3.75
 44
1.25
 73
     0
 74
     0
 77
     1
 78
     8
140
2.5
141
2.5
143
0.03937007874016
147
0.625
171
     3
172
     1
271
     2
272
     2
274
     3
278
    44
283
     0
284
     8
340
11
  0
ENDTAB
  0
TABLE
  2
BLOCK_RECORD
  5
1
330
0
100
AcDbSymbolTable
 70
     5
  0
BLOCK_RECORD
  5
23
330
1
100
AcDbSymbolTableRecord
100
AcDbBlockTableRecord
  2
*Model_Space
340
26
  0
BLOCK_RECORD
  5
1F
330
1
100
AcDbSymbolTableRecord
100
AcDbBlockTableRecord
  2
*Paper_Space
340
22
  0
BLOCK_RECORD
  5
27
330
1
100
AcDbSymbolTableRecord
100
AcDbBlockTableRecord
  2
*Paper_Space0
340
2A
  0
BLOCK_RECORD
  5
31
102
{ACAD_XDICTIONARY
360
9D
102
}
330
1
100
AcDbSymbolTableRecord
100
AcDbBlockTableRecord
  2
80011PL
340
0
102
{BLKREFS
331
A1
102
}
1001
ACAD
1000
DesignCenter Data
1002
{
1070
     1
1070
     4
1002
}
  0
BLOCK_RECORD
  5
A2
102
{ACAD_XDICTIONARY
360
153
102
}
330
1
100
AcDbSymbolTableRecord
100
AcDbBlockTableRecord
  2
80011CT
340
0
102
{BLKREFS
331
156
102
}
1001
ACAD
1000
DesignCenter Data
1002
{
1070
     1
1070
     4
1002
}
  0
BLOCK_RECORD
  5
15A
102
{ACAD_XDICTIONARY
360
186
102
}
330
1
100
AcDbSymbolTableRecord
100
AcDbBlockTableRecord
  2
80011AL
340
0
102
{BLKREFS
331
189
102
}
1001
ACAD
1000
DesignCenter Data
1002
{
1070
     1
1070
     4
1002
}
  0
BLOCK_RECORD
  5
18A
102
{ACAD_XDICTIONARY
360
1B0
102
}
330
1
100
AcDbSymbolTableRecord
100
AcDbBlockTableRecord
  2
80011AF
340
0
102
{BLKREFS
331
1B3
102
}
1001
ACAD
1000
DesignCenter Data
1002
{
1070
     1
1070
     4
1002
}
  0
ENDTAB
  0
ENDSEC
  0
SECTION
  2
BLOCKS
  0
BLOCK
  5
24
330
23
100
AcDbEntity
  8
0
100
AcDbBlockBegin
  2
*Model_Space
 70
     0
 10
0.0
 20
0.0
 30
0.0
  3
*Model_Space
  1

  0
ENDBLK
  5
25
330
23
100
AcDbEntity
  8
0
100
AcDbBlockEnd
  0
BLOCK
  5
20
330
1F
100
AcDbEntity
 67
     1
  8
0
100
AcDbBlockBegin
  2
*Paper_Space
 70
     0
 10
0.0
 20
0.0
 30
0.0
  3
*Paper_Space
  1

  0
ENDBLK
  5
21
330
1F
100
AcDbEntity
 67
     1
  8
0
100
AcDbBlockEnd
  0
BLOCK
  5
28
330
27
100
AcDbEntity
 67
     1
  8
0
100
AcDbBlockBegin
  2
*Paper_Space0
 70
     0
 10
0.0
 20
0.0
 30
0.0
  3
*Paper_Space0
  1

  0
ENDBLK
  5
29
330
27
100
AcDbEntity
 67
     1
  8
0
100
AcDbBlockEnd
  0
BLOCK
  5
9E
330
31
100
AcDbEntity
  8
0
100
AcDbBlockBegin
  2
80011PL
 70
     0
 10
0.0
 20
0.0
 30
0.0
  3
80011PL
  1

  0
SPLINE
  5
32
330
31
100
AcDbEntity
  8
BLOCKS
100
AcDbSpline
210
0.0
220
0.0
230
1.0
 70
    12
 71
     3
 72
     8
 73
     4
 74
     0
 42
0.0000000001
 43
0.0000000001
 40
2.356803477777957
 40
2.356803477777957
 40
2.356803477777957
 40
2.356803477777957
 40
3.926381829401628
 40
3.926381829401628
 40
3.926381829401628
 40
3.926381829401628
 10
0.4402757081475034
 20
-0.0091223409781287
 30
0.0
 41
1.0
 10
0.4414468624873093
 20
-0.0091223409781264
 30
0.0
 41
0.8050248461936604
 10
0.4422744898015436
 20
-0.0099499682923624
 30
0.0
 41
0.8050248461936604
 10
0.4422744898015436
 20
-0.0111211226321666
 30
0.0
 41
1.0
  0
SPLINE
  5
33
330
31
100
AcDbEntity
  8
BLOCKS
100
AcDbSpline
210
0.0
220
0.0
230
1.0
 70
    12
 71
     3
 72
     8
 73
     4
 74
     0
 42
0.0000000001
 43
0.0000000001
 40
2.356803477777958
 40
2.356803477777958
 40
2.356803477777958
 40
2.356803477777958
 40
3.926381829401628
 40
3.926381829401628
 40
3.926381829401628
 40
3.926381829401628
 10
0.4513968307796677
 20
-0.009993908270194
 30
0.0
 41
1.0
 10
0.4513968307796671
 20
-0.0041381365711686
 30
0.0
 41
0.8050248461936606
 10
0.4472586942085037
 20
-0.0000000000000045
 30
0.0
 41
0.8050248461936606
 10
0.4414029225094783
 20
-0.0000000000000023
 30
0.0
 41
1.0
  0
SPLINE
  5
34
330
31
100
AcDbEntity
  8
BLOCKS
100
AcDbSpline
210
0.0
220
0.0
230
1.0
 70
    24
 71
     3
 72
     8
 73
     4
 74
     0
 42
0.0000000001
 43
0.0000000001
 40
0.0
 40
0.0
 40
0.0
 40
0.0
 40
0.0019680587732853
 40
0.0019680587732853
 40
0.0019680587732853
 40
0.0019680587732853
 10
0.361213669423928
 20
-0.2111597401235008
 30
0.0
 10
0.3611800443747506
 20
-0.210505134480527
 30
0.0
 10
0.3611447637706033
 20
-0.2098511743864856
 30
0.0
 10
0.3611078229357145
 20
-0.2091978616645952
 30
0.0
  0
SPLINE
  5
35
330
31
100
AcDbEntity
  8
BLOCKS
100
AcDbSpline
210
0.0
220
0.0
230
1.0
 70
     8
 71
     3
 72
     8
 73
     4
 74
     0
 42
0.0000000001
 43
0.0000000001
 40
0.0
 40
0.0
 40
0.0
 40
0.0
 40
0.0863537305623328
 40
0.0863537305623328
 40
0.0863537305623328
 40
0.0863537305623328
 10
0.3611078229357145
 20
-0.2091978616645952
 30
0.0
 10
0.359486556482525
 20
-0.1805251475089653
 30
0.0
 10
0.357993727891585
 20
-0.1518112585529161
 30
0.0
 10
0.3566357134152258
 20
-0.1230541506880195
 30
0.0
  0
SPLINE
  5
36
330
31
100
AcDbEntity
  8
BLOCKS
100
AcDbSpline
210
0.0
220
0.0
230
1.0
 70
    24
 71
     3
 72
     8
 73
     4
 74
     0
 42
0.0000000001
 43
0.0000000001
 40
0.0
 40
0.0
 40
0.0
 40
0.0
 40
0.0001127335048857
 40
0.0001127335048857
 40
0.0001127335048857
 40
0.0001127335048857
 10
0.3566357134152258
 20
-0.1230541506880195
 30
0.0
 10
0.3566418502912938
 20
-0.1230473705708619
 30
0.0
 10
0.3566480404536514
 20
-0.1230412917628314
 30
0.0
 10
0.3566542769847911
 20
-0.1230359175292324
 30
0.0
  0
ARC
  5
37
330
31
100
AcDbEntity
  8
BLOCKS
100
AcDbCircle
 10
-1.583047078000605
 20
-1.096618012012777
 30
0.0
 40
1.969385551110054
100
AcDbArc
 50
4.776257108804591
 51
5.524049528581044
  0
SPLINE
  5
38
330
31
100
AcDbEntity
  8
BLOCKS
100
AcDbSpline
210
0.0
220
0.0
230
1.0
 70
    12
 71
     3
 72
     8
 73
     4
 74
     0
 42
0.0000000001
 43
0.0000000001
 40
4.887089450298923
 40
4.887089450298923
 40
4.887089450298923
 40
4.887089450298923
 40
5.310575025407036
 40
5.310575025407036
 40
5.310575025407036
 40
5.310575025407036
 10
0.387629519188913
 20
-0.7254181499579023
 30
0.0
 41
1.0
 10
0.3909284093165046
 20
-0.7992782069613577
 30
0.0
 41
0.9851107521991181
 10
0.3934249924352434
 20
-0.8687800666779549
 30
0.0
 41
0.9851107521991181
 10
0.3950077518109993
 20
-0.9308192378718604
 30
0.0
 41
1.0
  0
LINE
  5
39
330
31
100
AcDbEntity
  8
BLOCKS
100
AcDbLine
 10
0.387629519188913
 20
-0.7254181499578999
 30
0.0
 11
0.361213669423928
 21
-0.2111597401234985
 31
0.0
  0
LINE
  5
3A
330
31
100
AcDbEntity
  8
BLOCKS
100
AcDbLine
 10
0.3905811304916552
 20
-0.7252892798253243
 30
0.0
 11
0.3641112216015358
 21
-0.1190286925177452
 31
0.0
  0
SPLINE
  5
3B
330
31
100
AcDbEntity
  8
BLOCKS
100
AcDbSpline
210
0.0
220
0.0
230
1.0
 70
    24
 71
     3
 72
     8
 73
     4
 74
     0
 42
0.0000000001
 43
0.0000000001
 40
-0.0000501140806607
 40
-0.0000501140806607
 40
-0.0000501140806607
 40
-0.0000501140806607
 40
0.0100926705359689
 40
0.0100926705359689
 40
0.0100926705359689
 40
0.0100926705359689
 10
0.3986513092252198
 20
-1.007322275519509
 30
0.0
 10
0.3983251150079059
 20
-1.003957119815315
 30
0.0
 10
0.3979954364482228
 20
-1.000592364517788
 30
0.0
 10
0.3976703832784324
 20
-0.9972282721628268
 30
0.0
  0
ARC
  5
3C
330
31
100
AcDbEntity
  8
BLOCKS
100
AcDbCircle
 10
0.9687753410578887
 20
-0.5046500939170392
 30
0.0
 40
0.7600794260010764
100
AcDbArc
 50
220.7244093990064
 51
221.4022750724963
  0
SPLINE
  5
3D
330
31
100
AcDbEntity
  8
BLOCKS
100
AcDbSpline
210
0.0
220
0.0
230
1.0
 70
    12
 71
     3
 72
     8
 73
     4
 74
     0
 42
0.0000000001
 43
0.0000000001
 40
2.356803477777881
 40
2.356803477777881
 40
2.356803477777881
 40
2.356803477777881
 40
3.926381829401628
 40
3.926381829401628
 40
3.926381829401628
 40
3.926381829401628
 10
0.4422744898015436
 20
-1.091672538927177
 30
0.0
 41
1.0
 10
0.4422744898015435
 20
-1.092843693266985
 30
0.0
 41
0.8050248461936423
 10
0.4414468624873133
 20
-1.093671320581216
 30
0.0
 41
0.8050248461936423
 10
0.4402757081475034
 20
-1.093671320581215
 30
0.0
 41
1.0
  0
SPLINE
  5
3E
330
31
100
AcDbEntity
  8
BLOCKS
100
AcDbSpline
210
0.0
220
0.0
230
1.0
 70
    12
 71
     3
 72
     8
 73
     4
 74
     0
 42
0.0000000001
 43
0.0000000001
 40
2.356803477777958
 40
2.356803477777958
 40
2.356803477777958
 40
2.356803477777958
 40
3.92638182940166
 40
3.92638182940166
 40
3.92638182940166
 40
3.92638182940166
 10
0.4414029225094783
 20
-1.102793661559342
 30
0.0
 41
1.0
 10
0.4472586942085036
 20
-1.102793661559345
 30
0.0
 41
0.8050248461936529
 10
0.4513968307796678
 20
-1.098655524988181
 30
0.0
 41
0.8050248461936529
 10
0.4513968307796677
 20
-1.09279975328915
 30
0.0
 41
1.0
  0
ARC
  5
3F
330
31
100
AcDbEntity
  8
BLOCKS
100
AcDbCircle
 10
0.5909373115399866
 20
-0.9266413116094621
 30
0.0
 40
0.2115226313418501
100
AcDbArc
 50
181.6243760724945
 51
200.4491186186865
  0
ARC
  5
40
330
31
100
AcDbEntity
  8
BLOCKS
100
AcDbCircle
 10
2.193658958141463
 20
-0.8919612630862582
 30
0.0
 40
1.79907090028116
100
AcDbArc
 50
181.2376227634578
 51
183.354399309669
  0
SPLINE
  5
41
330
31
100
AcDbEntity
  8
BLOCKS
100
AcDbSpline
210
0.0
220
0.0
230
1.0
 70
    12
 71
     3
 72
     8
 73
     4
 74
     0
 42
0.0000000001
 43
0.0000000001
 40
0.7840417924567785
 40
0.7840417924567785
 40
0.7840417924567785
 40
0.7840417924567785
 40
1.396095856880664
 40
1.396095856880664
 40
1.396095856880664
 40
1.396095856880664
 10
0.3986513092252198
 20
-1.007322275519509
 30
0.0
 41
1.0
 10
0.3980581063304782
 20
-0.9299742958140857
 30
0.0
 41
0.9690253592009643
 10
0.3952820597055735
 20
-0.8329582604006827
 30
0.0
 41
0.9690253592009643
 10
0.3905811304916552
 20
-0.7252892798253243
 30
0.0
 41
1.0
  0
LINE
  5
42
330
31
100
AcDbEntity
  8
BLOCKS
100
AcDbLine
 10
0.4422744898015436
 20
-0.0111211226321666
 30
0.0
 11
0.4422744898015436
 21
-1.091672538927177
 31
0.0
  0
LINE
  5
43
330
31
100
AcDbEntity
  8
BLOCKS
100
AcDbLine
 10
0.4513968307796677
 20
-1.09279975328915
 30
0.0
 11
0.4513968307796677
 21
-0.009993908270194
 31
0.0
  0
SPLINE
  5
44
330
31
100
AcDbEntity
  8
BLOCKS
100
AcDbSpline
210
0.0
220
0.0
230
1.0
 70
    12
 71
     3
 72
     8
 73
     4
 74
     0
 42
0.0000000001
 43
0.0000000001
 40
2.356803477777959
 40
2.356803477777959
 40
2.356803477777959
 40
2.356803477777959
 40
3.926381829401649
 40
3.926381829401649
 40
3.926381829401649
 40
3.926381829401649
 10
-0.4422744898015436
 20
-0.0111211226321666
 30
0.0
 41
1.0
 10
-0.4422744898015458
 20
-0.0099499682923624
 30
0.0
 41
0.8050248461936558
 10
-0.441446862487312
 20
-0.0091223409781287
 30
0.0
 41
0.8050248461936558
 10
-0.4402757081475057
 20
-0.0091223409781287
 30
0.0
 41
1.0
  0
SPLINE
  5
45
330
31
100
AcDbEntity
  8
BLOCKS
100
AcDbSpline
210
0.0
220
0.0
230
1.0
 70
    12
 71
     3
 72
     8
 73
     4
 74
     0
 42
0.0000000001
 43
0.0000000001
 40
2.356803477777947
 40
2.356803477777947
 40
2.356803477777947
 40
2.356803477777947
 40
3.926381829401628
 40
3.926381829401628
 40
3.926381829401628
 40
3.926381829401628
 10
-0.4414029225094806
 20
-0.0000000000000023
 30
0.0
 41
1.0
 10
-0.4472586942085037
 20
-0.0000000000000023
 30
0.0
 41
0.8050248461936579
 10
-0.4513968307796726
 20
-0.0041381365711686
 30
0.0
 41
0.8050248461936579
 10
-0.4513968307796722
 20
-0.009993908270194
 30
0.0
 41
1.0
  0
SPLINE
  5
46
330
31
100
AcDbEntity
  8
BLOCKS
100
AcDbSpline
210
0.0
220
0.0
230
1.0
 70
    24
 71
     3
 72
     8
 73
     4
 74
     0
 42
0.0000000001
 43
0.0000000001
 40
0.0
 40
0.0
 40
0.0
 40
0.0
 40
0.0007424183263186
 40
0.0007424183263186
 40
0.0007424183263186
 40
0.0007424183263186
 10
0.3431214567681695
 20
-0.1073317518846466
 30
0.0
 10
0.3431137212106228
 20
-0.107374033180638
 30
0.0
 10
0.3431053093051469
 20
-0.1074207731114507
 30
0.0
 10
0.343096221109995
 20
-0.1074719721897486
 30
0.0
  0
SPLINE
  5
47
330
31
100
AcDbEntity
  8
BLOCKS
100
AcDbSpline
210
0.0
220
0.0
230
1.0
 70
    24
 71
     3
 72
     8
 73
     4
 74
     0
 42
0.0000000001
 43
0.0000000001
 40
0.0
 40
0.0
 40
0.0
 40
0.0
 40
0.0013893533214999
 40
0.0013893533214999
 40
0.0013893533214999
 40
0.0013893533214999
 10
0.3415754325486978
 20
-0.2115047917601396
 30
0.0
 10
0.3415639504156707
 20
-0.2119666085835252
 30
0.0
 10
0.3415508895407857
 20
-0.2124287659670381
 30
0.0
 10
0.3415362607389921
 20
-0.2128912620879873
 30
0.0
  0
ARC
  5
48
330
31
100
AcDbEntity
  8
BLOCKS
100
AcDbCircle
 10
-1.726465557433649
 20
-0.2678226134122224
 30
0.0
 40
2.068807683977124
100
AcDbArc
 50
1.559918878407715
 51
3.912998433582013
  0
CIRCLE
  5
49
330
31
100
AcDbEntity
  8
BLOCKS
100
AcDbCircle
 10
0.2980575650343883
 20
-0.5203790617493678
 30
0.0
 40
0.0065997057035933
  0
CIRCLE
  5
4A
330
31
100
AcDbEntity
  8
BLOCKS
100
AcDbCircle
 10
0.2955998021924495
 20
-0.4489274436563847
 30
0.0
 40
0.0070844371812591
  0
CIRCLE
  5
4B
330
31
100
AcDbEntity
  8
BLOCKS
100
AcDbCircle
 10
0.2931410094270803
 20
-0.3773447710178743
 30
0.0
 40
0.0075956008044653
  0
CIRCLE
  5
4C
330
31
100
AcDbEntity
  8
BLOCKS
100
AcDbCircle
 10
0.2219619753326867
 20
-0.4596174290119007
 30
0.0
 40
0.007084668195936
  0
CIRCLE
  5
4D
330
31
100
AcDbEntity
  8
BLOCKS
100
AcDbCircle
 10
0.2201120537592749
 20
-0.3878562297579993
 30
0.0
 40
0.0070941980696907
  0
CIRCLE
  5
4E
330
31
100
AcDbEntity
  8
BLOCKS
100
AcDbCircle
 10
0.2182614351667223
 20
-0.3162099910654115
 30
0.0
 40
0.0080498446483643
  0
CIRCLE
  5
4F
330
31
100
AcDbEntity
  8
BLOCKS
100
AcDbCircle
 10
0.1467132602645222
 20
-0.3953688379229789
 30
0.0
 40
0.0075638232488715
  0
CIRCLE
  5
50
330
31
100
AcDbEntity
  8
BLOCKS
100
AcDbCircle
 10
0.1479448248306642
 20
-0.4672576730337051
 30
0.0
 40
0.0070850605636882
  0
CIRCLE
  5
51
330
31
100
AcDbEntity
  8
BLOCKS
100
AcDbCircle
 10
0.1454811636774218
 20
-0.3235420089886384
 30
0.0
 40
0.0080420274053286
  0
CIRCLE
  5
52
330
31
100
AcDbEntity
  8
BLOCKS
100
AcDbCircle
 10
0.072460595685551
 20
-0.3280214588223771
 30
0.0
 40
0.0080497829965483
  0
CIRCLE
  5
53
330
31
100
AcDbEntity
  8
BLOCKS
100
AcDbCircle
 10
0.0730679554477717
 20
-0.3998699726390032
 30
0.0
 40
0.0075558640580676
  0
CIRCLE
  5
54
330
31
100
AcDbEntity
  8
BLOCKS
100
AcDbCircle
 10
0.073674842870804
 20
-0.4718351188674206
 30
0.0
 40
0.0070847216282313
  0
CIRCLE
  5
55
330
31
100
AcDbEntity
  8
BLOCKS
100
AcDbCircle
 10
0.2906811963453344
 20
-0.3058215849908174
 30
0.0
 40
0.0080414561640488
  0
CIRCLE
  5
56
330
31
100
AcDbEntity
  8
BLOCKS
100
AcDbCircle
 10
-0.0007210462841965
 20
-0.4733419438514238
 30
0.0
 40
0.0070846887300188
  0
CIRCLE
  5
57
330
31
100
AcDbEntity
  8
BLOCKS
100
AcDbCircle
 10
-0.0007001199914919
 20
-0.401352070985945
 30
0.0
 40
0.0075542865766104
  0
CIRCLE
  5
58
330
31
100
AcDbEntity
  8
BLOCKS
100
AcDbCircle
 10
-0.0006796580943444
 20
-0.3294250110760299
 30
0.0
 40
0.0080508884997306
  0
CIRCLE
  5
59
330
31
100
AcDbEntity
  8
BLOCKS
100
AcDbCircle
 10
-0.0738187892583722
 20
-0.3279122731169719
 30
0.0
 40
0.008035925033618
  0
CIRCLE
  5
5A
330
31
100
AcDbEntity
  8
BLOCKS
100
AcDbCircle
 10
-0.0744670190714771
 20
-0.3998710518695225
 30
0.0
 40
0.0075659854247621
  0
CIRCLE
  5
5B
330
31
100
AcDbEntity
  8
BLOCKS
100
AcDbCircle
 10
-0.0751157032015465
 20
-0.4717755728854537
 30
0.0
 40
0.0070850124972765
  0
CIRCLE
  5
5C
330
31
100
AcDbEntity
  8
BLOCKS
100
AcDbCircle
 10
-0.2196106589351177
 20
-0.3159908082863876
 30
0.0
 40
0.0080515630798422
  0
CIRCLE
  5
5D
330
31
100
AcDbEntity
  8
BLOCKS
100
AcDbCircle
 10
-0.2215017183647399
 20
-0.3876846251022243
 30
0.0
 40
0.007577050811549
  0
CIRCLE
  5
5E
330
31
100
AcDbEntity
  8
BLOCKS
100
AcDbCircle
 10
-0.2233929903936894
 20
-0.4593757278118347
 30
0.0
 40
0.0071137353848622
  0
CIRCLE
  5
5F
330
31
100
AcDbEntity
  8
BLOCKS
100
AcDbCircle
 10
-0.2995218493128698
 20
-0.5201328139876365
 30
0.0
 40
0.006631997889999
  0
CIRCLE
  5
60
330
31
100
AcDbEntity
  8
BLOCKS
100
AcDbCircle
 10
-0.2970222210465079
 20
-0.448690276301054
 30
0.0
 40
0.0070823080008095
  0
CIRCLE
  5
61
330
31
100
AcDbEntity
  8
BLOCKS
100
AcDbCircle
 10
-0.2945224671660492
 20
-0.3771164135820845
 30
0.0
 40
0.007571767882089
  0
CIRCLE
  5
62
330
31
100
AcDbEntity
  8
BLOCKS
100
AcDbCircle
 10
-0.1493819905543035
 20
-0.4671386828313371
 30
0.0
 40
0.0070851956881361
  0
CIRCLE
  5
63
330
31
100
AcDbEntity
  8
BLOCKS
100
AcDbCircle
 10
-0.1481087967869519
 20
-0.3953126835464582
 30
0.0
 40
0.0075659568969209
  0
CIRCLE
  5
64
330
31
100
AcDbEntity
  8
BLOCKS
100
AcDbCircle
 10
-0.1468359912568997
 20
-0.3234857435892309
 30
0.0
 40
0.0080479454087107
  0
CIRCLE
  5
65
330
31
100
AcDbEntity
  8
BLOCKS
100
AcDbCircle
 10
-0.2920225877409223
 20
-0.3056557774855127
 30
0.0
 40
0.0080475985661132
  0
CIRCLE
  5
66
330
31
100
AcDbEntity
  8
BLOCKS
100
AcDbCircle
 10
0.0006013188015095
 20
-0.1638393248992566
 30
0.0
 40
0.0514953616303648
  0
CIRCLE
  5
67
330
31
100
AcDbEntity
  8
BLOCKS
100
AcDbCircle
 10
0.0
 20
-0.1652881754919735
 30
0.0
 40
0.0669463893702293
  0
CIRCLE
  5
68
330
31
100
AcDbEntity
  8
BLOCKS
100
AcDbCircle
 10
0.0000428912535517
 20
-0.1656580716152553
 30
0.0
 40
0.0618886612127864
  0
CIRCLE
  5
69
330
31
100
AcDbEntity
  8
BLOCKS
100
AcDbCircle
 10
0.0000428912535517
 20
-0.1656580716152553
 30
0.0
 40
0.0450428912535522
  0
CIRCLE
  5
6A
330
31
100
AcDbEntity
  8
BLOCKS
100
AcDbCircle
 10
0.3005142883484939
 20
-0.5918898735779477
 30
0.0
 40
0.0060879367610265
  0
CIRCLE
  5
6B
330
31
100
AcDbEntity
  8
BLOCKS
100
AcDbCircle
 10
0.2256596992309949
 20
-0.6030174452366737
 30
0.0
 40
0.0061318362882562
  0
CIRCLE
  5
6C
330
31
100
AcDbEntity
  8
BLOCKS
100
AcDbCircle
 10
0.1491758516104835
 20
-0.5390179710453732
 30
0.0
 40
0.006640450092807
  0
CIRCLE
  5
6D
330
31
100
AcDbEntity
  8
BLOCKS
100
AcDbCircle
 10
0.1504063348325315
 20
-0.6108399781001868
 30
0.0
 40
0.0061226473835068
  0
CIRCLE
  5
6E
330
31
100
AcDbEntity
  8
BLOCKS
100
AcDbCircle
 10
0.0742812526278056
 20
-0.5437416707031753
 30
0.0
 40
0.006606735357418
  0
CIRCLE
  5
6F
330
31
100
AcDbEntity
  8
BLOCKS
100
AcDbCircle
 10
0.0748871793839328
 20
-0.6156480380079847
 30
0.0
 40
0.0061315618201211
  0
CIRCLE
  5
70
330
31
100
AcDbEntity
  8
BLOCKS
100
AcDbCircle
 10
-0.0007643131904399
 20
-0.6171287389269402
 30
0.0
 40
0.0061356918037729
  0
CIRCLE
  5
71
330
31
100
AcDbEntity
  8
BLOCKS
100
AcDbCircle
 10
-0.0007424422538418
 20
-0.5452734071156078
 30
0.0
 40
0.0066057235354339
  0
CIRCLE
  5
72
330
31
100
AcDbEntity
  8
BLOCKS
100
AcDbCircle
 10
-0.0757648468200125
 20
-0.5436798404003593
 30
0.0
 40
0.0066060308102059
  0
CIRCLE
  5
73
330
31
100
AcDbEntity
  8
BLOCKS
100
AcDbCircle
 10
-0.0764144551062384
 20
-0.6155838536857687
 30
0.0
 40
0.0061318307252087
  0
CIRCLE
  5
74
330
31
100
AcDbEntity
  8
BLOCKS
100
AcDbCircle
 10
-0.15192956096594
 20
-0.6107117228792914
 30
0.0
 40
0.0061330700413019
  0
CIRCLE
  5
75
330
31
100
AcDbEntity
  8
BLOCKS
100
AcDbCircle
 10
-0.150655577098729
 20
-0.5388944178967132
 30
0.0
 40
0.0066306195340122
  0
CIRCLE
  5
76
330
31
100
AcDbEntity
  8
BLOCKS
100
AcDbCircle
 10
-0.2271761840014244
 20
-0.6028253457637357
 30
0.0
 40
0.0061311697650743
  0
CIRCLE
  5
77
330
31
100
AcDbEntity
  8
BLOCKS
100
AcDbCircle
 10
0.2238111928398496
 20
-0.5312490414904256
 30
0.0
 40
0.0066274609035207
  0
CIRCLE
  5
78
330
31
100
AcDbEntity
  8
BLOCKS
100
AcDbCircle
 10
-0.225284477959209
 20
-0.5310639802231164
 30
0.0
 40
0.006646368714562
  0
ELLIPSE
  5
79
330
31
100
AcDbEntity
  8
BLOCKS
100
AcDbEllipse
 10
-0.3399299072168833
 20
-0.1237649513898577
 30
0.0
 11
-0.0110974976750555
 21
-0.0128781033289897
 31
0.0
210
0.0
220
0.0
230
1.0
 40
0.9757062606184314
 41
4.056677326783855
 42
5.368100633985524
  0
ARC
  5
7A
330
31
100
AcDbEntity
  8
BLOCKS
100
AcDbCircle
 10
1.701916544545468
 20
-0.2665999417379521
 30
0.0
 40
2.044232458547148
100
AcDbArc
 50
176.0745029535643
 51
178.4560186697833
  0
SPLINE
  5
7B
330
31
100
AcDbEntity
  8
BLOCKS
100
AcDbSpline
210
0.0
220
0.0
230
1.0
 70
    24
 71
     3
 72
     8
 73
     4
 74
     0
 42
0.0000000001
 43
0.0000000001
 40
0.0
 40
0.0
 40
0.0
 40
0.0
 40
0.0013560051158758
 40
0.0013560051158758
 40
0.0013560051158758
 40
0.0013560051158758
 10
-0.3415353097983825
 20
-0.2128727493688371
 30
0.0
 10
-0.3415496123093862
 20
-0.2124213575107819
 30
0.0
 10
-0.3415624216881474
 20
-0.211970285915304
 30
0.0
 10
-0.341573727883183
 20
-0.2115195362638224
 30
0.0
  0
SPLINE
  5
7C
330
31
100
AcDbEntity
  8
BLOCKS
100
AcDbSpline
210
0.0
220
0.0
230
1.0
 70
    24
 71
     3
 72
     8
 73
     4
 74
     0
 42
0.0000000001
 43
0.0000000001
 40
0.0000000000000002
 40
0.0000000000000002
 40
0.0000000000000002
 40
0.0000000000000002
 40
0.0007520478371279
 40
0.0007520478371279
 40
0.0007520478371279
 40
0.0007520478371279
 10
-0.3431228951409639
 20
-0.1073305237508975
 30
0.0
 10
-0.3431150719994798
 20
-0.1073733561275662
 30
0.0
 10
-0.3431065548799302
 20
-0.1074207633511673
 30
0.0
 10
-0.3430973438430032
 20
-0.1074727459546216
 30
0.0
  0
SPLINE
  5
7D
330
31
100
AcDbEntity
  8
BLOCKS
100
AcDbSpline
210
0.0
220
0.0
230
1.0
 70
    24
 71
     3
 72
     8
 73
     4
 74
     0
 42
0.0000000001
 43
0.0000000001
 40
0.0
 40
0.0
 40
0.0
 40
0.0
 40
0.0001141956699916
 40
0.0001141956699916
 40
0.0001141956699916
 40
0.0001141956699916
 10
-0.3566557045990817
 20
-0.1230346873052554
 30
0.0
 10
-0.3566493871792659
 20
-0.1230401312398089
 30
0.0
 10
-0.3566431173232377
 20
-0.1230462981497522
 30
0.0
 10
-0.3566369022208073
 20
-0.1230531846310532
 30
0.0
  0
SPLINE
  5
7E
330
31
100
AcDbEntity
  8
BLOCKS
100
AcDbSpline
210
0.0
220
0.0
230
1.0
 70
     8
 71
     3
 72
     8
 73
     4
 74
     0
 42
0.0000000001
 43
0.0000000001
 40
0.0
 40
0.0
 40
0.0
 40
0.0
 40
0.0863830553487289
 40
0.0863830553487289
 40
0.0863830553487289
 40
0.0863830553487289
 10
-0.3566369022208073
 20
-0.1230531846310532
 30
0.0
 10
-0.3579982274915392
 20
-0.1518190927801788
 30
0.0
 10
-0.3594912404241677
 20
-0.1805428368681169
 30
0.0
 10
-0.3611095336399012
 20
-0.2092264684242786
 30
0.0
  0
SPLINE
  5
7F
330
31
100
AcDbEntity
  8
BLOCKS
100
AcDbSpline
210
0.0
220
0.0
230
1.0
 70
    24
 71
     3
 72
     8
 73
     4
 74
     0
 42
0.0000000001
 43
0.0000000001
 40
0.0
 40
0.0
 40
0.0
 40
0.0
 40
0.0019207452109999
 40
0.0019207452109999
 40
0.0019207452109999
 40
0.0019207452109999
 10
-0.3611095336399012
 20
-0.2092264684242786
 30
0.0
 10
-0.3611455084777345
 20
-0.2098641087379656
 30
0.0
 10
-0.361179901976152
 20
-0.2105023622933959
 30
0.0
 10
-0.3612127184833184
 20
-0.2111412274043551
 30
0.0
  0
ARC
  5
80
330
31
100
AcDbEntity
  8
BLOCKS
100
AcDbCircle
 10
-0.3445108033585302
 20
-0.1198216195491796
 30
0.0
 40
0.0196164504581752
100
AcDbArc
 50
100.9294833735258
 51
177.6833855192755
  0
ARC
  5
81
330
31
100
AcDbEntity
  8
BLOCKS
100
AcDbCircle
 10
1.583046785150885
 20
-1.09661798561814
 30
0.0
 40
1.969385257079526
100
AcDbArc
 50
174.4759504155972
 51
175.2237429470223
  0
SPLINE
  5
82
330
31
100
AcDbEntity
  8
BLOCKS
100
AcDbSpline
210
0.0
220
0.0
230
1.0
 70
    12
 71
     3
 72
     8
 73
     4
 74
     0
 42
0.0000000001
 43
0.0000000001
 40
4.114202935362345
 40
4.114202935362345
 40
4.114202935362345
 40
4.114202935362345
 40
4.537688510470456
 40
4.537688510470456
 40
4.537688510470456
 40
4.537688510470456
 10
-0.3950077518110038
 20
-0.9308192378718604
 30
0.0
 41
1.0
 10
-0.3934249924352446
 20
-0.8687800666779528
 30
0.0
 41
0.9851107521991181
 10
-0.390928409316507
 20
-0.799278206961358
 30
0.0
 41
0.9851107521991181
 10
-0.3876295191889176
 20
-0.7254181499578999
 30
0.0
 41
1.0
  0
LINE
  5
83
330
31
100
AcDbEntity
  8
BLOCKS
100
AcDbLine
 10
-0.3612127184833184
 20
-0.2111412274043551
 30
0.0
 11
-0.3876295191889176
 21
-0.7254181499578988
 31
0.0
  0
LINE
  5
84
330
31
100
AcDbEntity
  8
BLOCKS
100
AcDbLine
 10
-0.3771924103903894
 20
-0.9070379574878199
 30
0.0
 11
-0.3415353097983802
 21
-0.2128727493688348
 31
0.0
  0
LINE
  5
85
330
31
100
AcDbEntity
  8
BLOCKS
100
AcDbLine
 10
-0.3641112216015381
 20
-0.1190286925177406
 30
0.0
 11
-0.3905811304916575
 21
-0.7252892798253209
 31
0.0
  0
CIRCLE
  5
86
330
31
100
AcDbEntity
  8
BLOCKS
100
AcDbCircle
 10
-0.3020213518948879
 20
-0.591634269322185
 30
0.0
 40
0.0061858714992323
  0
ARC
  5
87
330
31
100
AcDbEntity
  8
BLOCKS
100
AcDbCircle
 10
-0.0000000000000011
 20
-1.873396830779672
 30
0.0
 40
1.806712797049418
100
AcDbArc
 50
78.88713110719303
 51
101.1128688928069
  0
ARC
  5
88
330
31
100
AcDbEntity
  8
BLOCKS
100
AcDbCircle
 10
0.0000387573481294
 20
1.199620511928305
 30
0.0
 40
1.453206818232299
100
AcDbArc
 50
256.4055189364223
 51
283.5913753841144
  0
ARC
  5
89
330
31
100
AcDbEntity
  8
BLOCKS
100
AcDbCircle
 10
0.0000221601759029
 20
-1.723872184267006
 30
0.0
 40
1.632495897561304
100
AcDbArc
 50
78.06880310841655
 51
101.932808170046
  0
ARC
  5
8A
330
31
100
AcDbEntity
  8
BLOCKS
100
AcDbCircle
 10
-0.0000039464519762
 20
-1.91063047694806
 30
0.0
 40
1.835652835955189
100
AcDbArc
 50
79.22674236120428
 51
100.7730525605892
  0
SPLINE
  5
8B
330
31
100
AcDbEntity
  8
BLOCKS
100
AcDbSpline
210
0.0
220
0.0
230
1.0
 70
    24
 71
     3
 72
     8
 73
     4
 74
     0
 42
0.0000000001
 43
0.0000000001
 40
0.0
 40
0.0
 40
0.0
 40
0.0
 40
0.0101427164850063
 40
0.0101427164850063
 40
0.0101427164850063
 40
0.0101427164850063
 10
-0.3976703832784347
 20
-0.9972282721628243
 30
0.0
 10
-0.397995435914786
 20
-1.000592358997028
 30
0.0
 10
-0.3983251172027667
 20
-1.003957142419633
 30
0.0
 10
-0.3986513092252198
 20
-1.007322275519509
 30
0.0
  0
ARC
  5
8C
330
31
100
AcDbEntity
  8
BLOCKS
100
AcDbCircle
 10
-0.968775340996027
 20
-0.5046500939709019
 30
0.0
 40
0.7600794259190494
100
AcDbArc
 50
318.5977249274647
 51
319.2755906010271
  0
SPLINE
  5
8D
330
31
100
AcDbEntity
  8
BLOCKS
100
AcDbSpline
210
0.0
220
0.0
230
1.0
 70
    12
 71
     3
 72
     8
 73
     4
 74
     0
 42
0.0000000001
 43
0.0000000001
 40
2.356803477777936
 40
2.356803477777936
 40
2.356803477777936
 40
2.356803477777936
 40
3.926381829401816
 40
3.926381829401816
 40
3.926381829401816
 40
3.926381829401816
 10
-0.4402757081475057
 20
-1.093671320581215
 30
0.0
 41
1.0
 10
-0.4414468624873143
 20
-1.093671320581217
 30
0.0
 41
0.8050248461936112
 10
-0.4422744898015435
 20
-1.092843693266983
 30
0.0
 41
0.8050248461936112
 10
-0.4422744898015436
 20
-1.091672538927177
 30
0.0
 41
1.0
  0
SPLINE
  5
8E
330
31
100
AcDbEntity
  8
BLOCKS
100
AcDbSpline
210
0.0
220
0.0
230
1.0
 70
    12
 71
     3
 72
     8
 73
     4
 74
     0
 42
0.0000000001
 43
0.0000000001
 40
2.356803477777925
 40
2.356803477777925
 40
2.356803477777925
 40
2.356803477777925
 40
3.926381829401627
 40
3.926381829401627
 40
3.926381829401627
 40
3.926381829401627
 10
-0.4513968307796722
 20
-1.09279975328915
 30
0.0
 41
1.0
 10
-0.4513968307796734
 20
-1.098655524988177
 30
0.0
 41
0.8050248461936529
 10
-0.4472586942085055
 20
-1.102793661559345
 30
0.0
 41
0.8050248461936529
 10
-0.4414029225094806
 20
-1.102793661559342
 30
0.0
 41
1.0
  0
ARC
  5
8F
330
31
100
AcDbEntity
  8
BLOCKS
100
AcDbCircle
 10
-0.5908903071766087
 20
-0.9266504796219283
 30
0.0
 40
0.2114753861275558
100
AcDbArc
 50
339.5487594568443
 51
358.3777458519727
  0
ARC
  5
90
330
31
100
AcDbEntity
  8
BLOCKS
100
AcDbCircle
 10
-2.193651560541942
 20
-0.8919615596886979
 30
0.0
 40
1.799063498001091
100
AcDbArc
 50
356.6455963350776
 51
358.7623815917958
  0
SPLINE
  5
91
330
31
100
AcDbEntity
  8
BLOCKS
100
AcDbSpline
210
0.0
220
0.0
230
1.0
 70
    12
 71
     3
 72
     8
 73
     4
 74
     0
 42
0.0000000001
 43
0.0000000001
 40
1.74549679670913
 40
1.74549679670913
 40
1.74549679670913
 40
1.74549679670913
 40
2.357550861133014
 40
2.357550861133014
 40
2.357550861133014
 40
2.357550861133014
 10
-0.3905811304916575
 20
-0.7252892798253243
 30
0.0
 41
1.0
 10
-0.3952820597055757
 20
-0.8329582604006807
 30
0.0
 41
0.9690253592009645
 10
-0.3980581063304772
 20
-0.9299742958140859
 30
0.0
 41
0.9690253592009645
 10
-0.3986513092252198
 20
-1.007322275519509
 30
0.0
 41
1.0
  0
LINE
  5
92
330
31
100
AcDbEntity
  8
BLOCKS
100
AcDbLine
 10
-0.4422744898015436
 20
-1.091672538927176
 30
0.0
 11
-0.4422744898015436
 21
-0.0111211226321666
 31
0.0
  0
LINE
  5
93
330
31
100
AcDbEntity
  8
BLOCKS
100
AcDbLine
 10
-0.4513968307796722
 20
-0.009993908270194
 30
0.0
 11
-0.4513968307796722
 21
-1.092799753289149
 31
0.0
  0
ELLIPSE
  5
94
330
31
100
AcDbEntity
  8
BLOCKS
100
AcDbEllipse
 10
0.339928479602595
 20
-0.1237661816138348
 30
0.0
 11
0.0110975018902652
 21
-0.0128780996965997
 31
0.0
210
0.0
220
0.0
230
1.0
 40
0.9757062485331916
 41
0.9150843538297161
 42
2.226508299759883
  0
LINE
  5
95
330
31
100
AcDbEntity
  8
BLOCKS
100
AcDbLine
 10
0.3415362607389898
 20
-0.2128912620879873
 30
0.0
 11
0.3771924103903848
 21
-0.9070379574878211
 31
0.0
  0
ARC
  5
96
330
31
100
AcDbEntity
  8
BLOCKS
100
AcDbCircle
 10
0.0
 20
0.3036400319632321
 30
0.0
 40
1.268075434900209
100
AcDbArc
 50
252.6953319979244
 51
287.3046680020756
  0
ARC
  5
97
330
31
100
AcDbEntity
  8
BLOCKS
100
AcDbCircle
 10
0.0
 20
0.7728083241632249
 30
0.0
 40
1.824222524330236
100
AcDbArc
 50
257.377165023055
 51
282.6228349769449
  0
ARC
  5
98
330
31
100
AcDbEntity
  8
BLOCKS
100
AcDbCircle
 10
0.3445108033654106
 20
-0.119821619543261
 30
0.0
 40
0.0196164504510586
100
AcDbArc
 50
2.316614464256983
 51
79.07051664293885
  0
LINE
  5
99
330
31
100
AcDbEntity
  8
BLOCKS
100
AcDbLine
 10
-0.4402757081475057
 20
-0.0091223409781287
 30
0.0
 11
0.4402757081475057
 21
-0.0091223409781287
 31
0.0
  0
LINE
  5
9A
330
31
100
AcDbEntity
  8
BLOCKS
100
AcDbLine
 10
0.4402757081475034
 20
-1.093671320581215
 30
0.0
 11
-0.4402757081475057
 21
-1.093671320581214
 31
0.0
  0
LINE
  5
9B
330
31
100
AcDbEntity
  8
BLOCKS
100
AcDbLine
 10
-0.4414029225094806
 20
-1.102793661559338
 30
0.0
 11
0.4414029225094783
 21
-1.102793661559339
 31
0.0
  0
LINE
  5
9C
330
31
100
AcDbEntity
  8
BLOCKS
100
AcDbLine
 10
0.4414029225094783
 20
0.0
 30
0.0
 11
-0.4414029225094806
 21
0.0
 31
0.0
  0
ENDBLK
  5
9F
330
31
100
AcDbEntity
  8
0
100
AcDbBlockEnd
  0
BLOCK
  5
154
330
A2
100
AcDbEntity
  8
0
100
AcDbBlockBegin
  2
80011CT
 70
     0
 10
0.0
 20
0.0
 30
0.0
  3
80011CT
  1

  0
ARC
  5
A3
330
A2
100
AcDbEntity
  8
BLOCKS
100
AcDbCircle
 10
1.093671320581215
 20
0.0320000000000005
 30
0.0
 40
0.0030000000000005
100
AcDbArc
 50
2.000000000000028
 51
90.0
  0
ARC
  5
A4
330
A2
100
AcDbEntity
  8
BLOCKS
100
AcDbCircle
 10
1.093671320581215
 20
0.0320000000000005
 30
0.0
 40
0.008
100
AcDbArc
 50
2.000000000000028
 51
90.0
  0
ARC
  5
A5
330
A2
100
AcDbEntity
  8
BLOCKS
100
AcDbCircle
 10
1.05144108638362
 20
-0.01034043860147
 30
0.0
 40
0.0453404465733022
100
AcDbArc
 50
90.03397612182329
 51
98.99731313987663
  0
ARC
  5
A6
330
A2
100
AcDbEntity
  8
BLOCKS
100
AcDbCircle
 10
1.051426445443214
 20
-0.0101550549805848
 30
0.0
 40
0.0501550564755251
100
AcDbArc
 50
90.01398918492112
 51
99.01730057003023
  0
ARC
  5
A7
330
A2
100
AcDbEntity
  8
BLOCKS
100
AcDbCircle
 10
0.8980587934898039
 20
0.0268782361835565
 30
0.0
 40
0.0034000000000001
100
AcDbArc
 50
54.28678929826306
 51
130.71321070174
  0
ARC
  5
A8
330
A2
100
AcDbEntity
  8
BLOCKS
100
AcDbCircle
 10
0.9047824656512284
 20
0.0271717980499329
 30
0.0
 40
0.0034000000000001
100
AcDbArc
 50
54.28678929826295
 51
130.7132107017376
  0
ARC
  5
A9
330
A2
100
AcDbEntity
  8
BLOCKS
100
AcDbCircle
 10
0.9031166235521528
 20
0.0270990658131495
 30
0.0
 40
0.0034000000000001
100
AcDbArc
 50
78.30574583631025
 51
130.7132107017362
  0
ARC
  5
AA
330
A2
100
AcDbEntity
  8
BLOCKS
100
AcDbCircle
 10
0.8993033708576422
 20
0.0335388633270372
 30
0.0
 40
0.005
100
AcDbArc
 50
272.5000000000012
 51
310.7132107017392
  0
ARC
  5
AB
330
A2
100
AcDbEntity
  8
BLOCKS
100
AcDbCircle
 10
0.9029621123701668
 20
0.0336986074313313
 30
0.0
 40
0.005
100
AcDbArc
 50
234.2867892982609
 51
240.2939498878038
  0
ARC
  5
AC
330
A2
100
AcDbEntity
  8
BLOCKS
100
AcDbCircle
 10
0.909685784531589
 20
0.0339921692977077
 30
0.0
 40
0.005
100
AcDbArc
 50
234.2867892982632
 51
272.5000000000012
  0
ARC
  5
AD
330
A2
100
AcDbEntity
  8
BLOCKS
100
AcDbCircle
 10
0.8976375287585687
 20
0.0334661310902561
 30
0.0
 40
0.005
100
AcDbArc
 50
272.5000000000012
 51
310.7132107017392
  0
LINE
  5
AE
330
A2
100
AcDbEntity
  8
BLOCKS
100
AcDbLine
 10
0.9068198605509952
 20
0.0288622769285939
 30
0.0
 11
0.9642173178126654
 21
0.0313683040331898
 31
0.0
  0
ARC
  5
AF
330
A2
100
AcDbEntity
  8
BLOCKS
100
AcDbCircle
 10
0.9336698157008049
 20
0.7308400210987499
 30
0.0
 40
0.7051384383531327
100
AcDbArc
 50
272.5006423644075
 51
279.030654539458
  0
ARC
  5
B0
330
A2
100
AcDbEntity
  8
BLOCKS
100
AcDbCircle
 10
0.9336749173401495
 20
0.7307894951595313
 30
0.0
 40
0.7000877379466603
100
AcDbArc
 50
272.5004102434519
 51
279.0308868448811
  0
LINE
  5
B1
330
A2
100
AcDbEntity
  8
BLOCKS
100
AcDbLine
 10
1.093671320581215
 20
0.035
 30
0.0
 11
1.051414199718333
 21
0.035
 31
0.0
  0
LINE
  5
B2
330
A2
100
AcDbEntity
  8
BLOCKS
100
AcDbLine
 10
1.09279975328915
 20
0.0
 30
0.0
 11
1.102793661559339
 21
0.0
 31
0.0
  0
LINE
  5
B3
330
A2
100
AcDbEntity
  8
BLOCKS
100
AcDbLine
 10
1.101666447197367
 20
0.0322791959736196
 30
0.0
 11
1.102793661559339
 21
0.0
 31
0.0
  0
LINE
  5
B4
330
A2
100
AcDbEntity
  8
BLOCKS
100
AcDbLine
 10
1.096669493062272
 20
0.0321046984901091
 30
0.0
 11
1.097790613837846
 21
0.0
 31
0.0
  0
LINE
  5
B5
330
A2
100
AcDbEntity
  8
BLOCKS
100
AcDbLine
 10
0.9070379574878211
 20
0.0238670358206832
 30
0.0
 11
0.9644354147494913
 21
0.0263730629252791
 31
0.0
  0
ARC
  5
B6
330
A2
100
AcDbEntity
  8
BLOCKS
100
AcDbCircle
 10
0.8210256786246418
 20
0.0301211854754433
 30
0.0
 40
0.005
100
AcDbArc
 50
272.5000000000005
 51
312.6572047736969
  0
ARC
  5
B7
330
A2
100
AcDbEntity
  8
BLOCKS
100
AcDbCircle
 10
0.8261999881516521
 20
0.024505429620715
 30
0.0
 40
0.002636111111111
100
AcDbArc
 50
52.34279522630647
 51
132.6572047736933
  0
ARC
  5
B8
330
A2
100
AcDbEntity
  8
BLOCKS
100
AcDbCircle
 10
0.8775591529957365
 20
0.0259832025502988
 30
0.0
 40
0.0034000000000001
100
AcDbArc
 50
54.28678929826186
 51
130.7132107017374
  0
ARC
  5
B9
330
A2
100
AcDbEntity
  8
BLOCKS
100
AcDbCircle
 10
0.8328176828402638
 20
0.0247943644106977
 30
0.0
 40
0.002636111111111
100
AcDbArc
 50
52.34279522630796
 51
132.6572047736967
  0
ARC
  5
BA
330
A2
100
AcDbEntity
  8
BLOCKS
100
AcDbCircle
 10
0.8178937361658176
 20
0.0241427708269771
 30
0.0
 40
0.002636111111111
100
AcDbArc
 50
52.34279522630642
 51
132.6572047736933
  0
ARC
  5
BB
330
A2
100
AcDbEntity
  8
BLOCKS
100
AcDbCircle
 10
0.8311168313450298
 20
0.0247201036306683
 30
0.0
 40
0.002636111111111
100
AcDbArc
 50
52.34279522630642
 51
132.6572047736933
  0
ARC
  5
BC
330
A2
100
AcDbEntity
  8
BLOCKS
100
AcDbCircle
 10
0.8896185245569085
 20
0.0265097260835432
 30
0.0
 40
0.0034000000000001
100
AcDbArc
 50
54.28678929825959
 51
130.7132107017374
  0
ARC
  5
BD
330
A2
100
AcDbEntity
  8
BLOCKS
100
AcDbCircle
 10
0.8259425218180195
 20
0.0303358594853967
 30
0.0
 40
0.005
100
AcDbArc
 50
272.5000000000005
 51
312.6572047736969
  0
ARC
  5
BE
330
A2
100
AcDbEntity
  8
BLOCKS
100
AcDbCircle
 10
0.8308651624961385
 20
0.0305507866190033
 30
0.0
 40
0.005
100
AcDbArc
 50
232.3427952263047
 51
272.5000000000018
  0
ARC
  5
BF
330
A2
100
AcDbEntity
  8
BLOCKS
100
AcDbCircle
 10
0.8225589105103017
 20
0.0301881278252654
 30
0.0
 40
0.005
100
AcDbArc
 50
232.3427952263047
 51
272.5000000000018
  0
ARC
  5
C0
330
A2
100
AcDbEntity
  8
BLOCKS
100
AcDbCircle
 10
0.8276433733132535
 20
0.030410120265426
 30
0.0
 40
0.005
100
AcDbArc
 50
272.5000000000005
 51
312.6572047736952
  0
ARC
  5
C1
330
A2
100
AcDbEntity
  8
BLOCKS
100
AcDbCircle
 10
0.8374828571847501
 20
0.0308397214089905
 30
0.0
 40
0.005
100
AcDbArc
 50
232.3427952263047
 51
272.5000000000018
  0
ARC
  5
C2
330
A2
100
AcDbEntity
  8
BLOCKS
100
AcDbCircle
 10
0.8945218434372714
 20
0.0333300973313203
 30
0.0
 40
0.005
100
AcDbArc
 50
234.2867892982633
 51
261.2903538416214
  0
ARC
  5
C3
330
A2
100
AcDbEntity
  8
BLOCKS
100
AcDbCircle
 10
0.8357820056895162
 20
0.0307654606289611
 30
0.0
 40
0.005
100
AcDbArc
 50
232.3427952263064
 51
272.5000000000018
  0
ARC
  5
C4
330
A2
100
AcDbEntity
  8
BLOCKS
100
AcDbCircle
 10
0.8841394297633247
 20
0.0328767913606498
 30
0.0
 40
0.005
100
AcDbArc
 50
272.5000000000012
 51
310.713210701739
  0
ARC
  5
C5
330
A2
100
AcDbEntity
  8
BLOCKS
100
AcDbCircle
 10
0.8824624718760992
 20
0.0328035737980758
 30
0.0
 40
0.005
100
AcDbArc
 50
234.2867892982624
 51
272.5000000000012
  0
ARC
  5
C6
330
A2
100
AcDbEntity
  8
BLOCKS
100
AcDbCircle
 10
0.8720800582021524
 20
0.0323502678274053
 30
0.0
 40
0.005
100
AcDbArc
 50
272.4999999999998
 51
310.713210701739
  0
ARC
  5
C7
330
A2
100
AcDbEntity
  8
BLOCKS
100
AcDbCircle
 10
0.8060319718469759
 20
0.0236248750122582
 30
0.0
 40
0.002636111111111
100
AcDbArc
 50
52.34279522630642
 51
132.6572047736933
  0
ARC
  5
C8
330
A2
100
AcDbEntity
  8
BLOCKS
100
AcDbCircle
 10
0.7609195402567093
 20
0.0208906070776288
 30
0.0
 40
0.0034000000000001
100
AcDbArc
 50
54.28678929826035
 51
130.7132107017397
  0
ARC
  5
C9
330
A2
100
AcDbEntity
  8
BLOCKS
100
AcDbCircle
 10
0.7592468715121754
 20
0.0208175767830699
 30
0.0
 40
0.0034000000000001
100
AcDbArc
 50
78.24634982445537
 51
130.7132107017379
  0
ARC
  5
CA
330
A2
100
AcDbEntity
  8
BLOCKS
100
AcDbCircle
 10
0.7544070252560688
 20
0.0206062645319958
 30
0.0
 40
0.0034000000000001
100
AcDbArc
 50
54.28678929826206
 51
130.7132107017385
  0
ARC
  5
CB
330
A2
100
AcDbEntity
  8
BLOCKS
100
AcDbCircle
 10
0.7348003736562668
 20
0.0197502196358687
 30
0.0
 40
0.0034000000000001
100
AcDbArc
 50
54.28678929826328
 51
130.7132107017403
  0
ARC
  5
CC
330
A2
100
AcDbEntity
  8
BLOCKS
100
AcDbCircle
 10
0.7462337451799068
 20
0.0202494114172146
 30
0.0
 40
0.0034000000000001
100
AcDbArc
 50
54.28678929826093
 51
130.7132107017385
  0
ARC
  5
CD
330
A2
100
AcDbEntity
  8
BLOCKS
100
AcDbCircle
 10
0.7554404454631254
 20
0.0272576723547354
 30
0.0
 40
0.005
100
AcDbArc
 50
272.5000000000012
 51
310.7132107017365
  0
ARC
  5
CE
330
A2
100
AcDbEntity
  8
BLOCKS
100
AcDbCircle
 10
0.7658228591370722
 20
0.0277109783254059
 30
0.0
 40
0.005
100
AcDbArc
 50
234.2867892982617
 51
272.5000000000012
  0
ARC
  5
CF
330
A2
100
AcDbEntity
  8
BLOCKS
100
AcDbCircle
 10
0.7511370640602673
 20
0.0270697826649916
 30
0.0
 40
0.005
100
AcDbArc
 50
234.2867892982625
 51
259.7249510442029
  0
ARC
  5
D0
330
A2
100
AcDbEntity
  8
BLOCKS
100
AcDbCircle
 10
0.7537677767185916
 20
0.0271846420601764
 30
0.0
 40
0.005
100
AcDbArc
 50
272.5000000000012
 51
310.7132107017378
  0
ARC
  5
D1
330
A2
100
AcDbEntity
  8
BLOCKS
100
AcDbCircle
 10
0.7489279304624824
 20
0.0269733298091001
 30
0.0
 40
0.005
100
AcDbArc
 50
272.5000000000012
 51
310.7132107017374
  0
ARC
  5
D2
330
A2
100
AcDbEntity
  8
BLOCKS
100
AcDbCircle
 10
0.7593103441364292
 20
0.0274266357797728
 30
0.0
 40
0.005
100
AcDbArc
 50
234.2867892982609
 51
238.8041081730137
  0
ARC
  5
D3
330
A2
100
AcDbEntity
  8
BLOCKS
100
AcDbCircle
 10
0.7397036925366275
 20
0.0265705908836458
 30
0.0
 40
0.005
100
AcDbArc
 50
234.2867892982621
 51
272.5000000000012
  0
ARC
  5
D4
330
A2
100
AcDbEntity
  8
BLOCKS
100
AcDbCircle
 10
0.7407546503863206
 20
0.0266164766943211
 30
0.0
 40
0.005
100
AcDbArc
 50
272.4999999999998
 51
310.7132107017382
  0
ARC
  5
D5
330
A2
100
AcDbEntity
  8
BLOCKS
100
AcDbCircle
 10
0.6826351948316347
 20
0.0165690009006244
 30
0.0
 40
0.0043027777777777
100
AcDbArc
 50
58.47978948440346
 51
127.7760985566988
  0
ARC
  5
D6
330
A2
100
AcDbEntity
  8
BLOCKS
100
AcDbCircle
 10
0.6874452941824712
 20
0.0167790143737648
 30
0.0
 40
0.0043027777777777
100
AcDbArc
 50
81.89583788539431
 51
127.7760985566998
  0
ARC
  5
D7
330
A2
100
AcDbEntity
  8
BLOCKS
100
AcDbCircle
 10
0.6746057488046677
 20
0.0162184277160532
 30
0.0
 40
0.0043027777777777
100
AcDbArc
 50
57.22390144330019
 51
127.7760985566991
  0
ARC
  5
D8
330
A2
100
AcDbEntity
  8
BLOCKS
100
AcDbCircle
 10
0.6633713819349964
 20
0.0157279246655435
 30
0.0
 40
0.0043027777777777
100
AcDbArc
 50
57.22390144330087
 51
127.7760985566986
  0
ARC
  5
D9
330
A2
100
AcDbEntity
  8
BLOCKS
100
AcDbCircle
 10
0.6890274049543882
 20
0.0168480908218521
 30
0.0
 40
0.0043027777777777
100
AcDbArc
 50
57.22390144329995
 51
127.7760985566984
  0
ARC
  5
DA
330
A2
100
AcDbEntity
  8
BLOCKS
100
AcDbCircle
 10
0.6766302349023136
 20
0.0243172205934138
 30
0.0
 40
0.0055
100
AcDbArc
 50
272.5000000000008
 51
307.7760985567006
  0
ARC
  5
DB
330
A2
100
AcDbEntity
  8
BLOCKS
100
AcDbCircle
 10
0.6573664220056754
 20
0.0234761443583329
 30
0.0
 40
0.0055
100
AcDbArc
 50
272.5000000000008
 51
307.7760985567
  0
ARC
  5
DC
330
A2
100
AcDbEntity
  8
BLOCKS
100
AcDbCircle
 10
0.6943342123559342
 20
0.0250901929422685
 30
0.0
 40
0.0055
100
AcDbArc
 50
237.2239014433003
 51
272.5
  0
ARC
  5
DD
330
A2
100
AcDbEntity
  8
BLOCKS
100
AcDbCircle
 10
0.6686007888753466
 20
0.0239666474088426
 30
0.0
 40
0.0055
100
AcDbArc
 50
272.5000000000008
 51
307.7760985567004
  0
ARC
  5
DE
330
A2
100
AcDbEntity
  8
BLOCKS
100
AcDbCircle
 10
0.6814403342531478
 20
0.0245272340665542
 30
0.0
 40
0.0055
100
AcDbArc
 50
272.4999999999994
 51
307.7760985566998
  0
ARC
  5
DF
330
A2
100
AcDbEntity
  8
BLOCKS
100
AcDbCircle
 10
0.6799125562062136
 20
0.0244605298364718
 30
0.0
 40
0.0055
100
AcDbArc
 50
237.2239014433001
 51
255.1218347800063
  0
ARC
  5
E0
330
A2
100
AcDbEntity
  8
BLOCKS
100
AcDbCircle
 10
0.6686781893365424
 20
0.0239700267859621
 30
0.0
 40
0.0055
100
AcDbArc
 50
237.2239014432987
 51
272.4999999999999
  0
ARC
  5
E1
330
A2
100
AcDbEntity
  8
BLOCKS
100
AcDbCircle
 10
0.6830224450250672
 20
0.0245963105146416
 30
0.0
 40
0.0055
100
AcDbArc
 50
272.5000000000007
 51
307.7760985567008
  0
ARC
  5
E2
330
A2
100
AcDbEntity
  8
BLOCKS
100
AcDbCircle
 10
0.6155845475663751
 20
0.0125988473713528
 30
0.0
 40
0.0053444444444444
100
AcDbArc
 50
84.11706865059146
 51
125.2189531241381
  0
ARC
  5
E3
330
A2
100
AcDbEntity
  8
BLOCKS
100
AcDbCircle
 10
0.602953954795064
 20
0.012047383781462
 30
0.0
 40
0.0053444444444444
100
AcDbArc
 50
59.78104687586219
 51
125.2189531241387
  0
ARC
  5
E4
330
A2
100
AcDbEntity
  8
BLOCKS
100
AcDbCircle
 10
0.5919025141336806
 20
0.0115648674616887
 30
0.0
 40
0.0053444444444444
100
AcDbArc
 50
59.78104687586174
 51
125.2189531241372
  0
ARC
  5
E5
330
A2
100
AcDbEntity
  8
BLOCKS
100
AcDbCircle
 10
0.6108526186559175
 20
0.0123922468933438
 30
0.0
 40
0.0053444444444444
100
AcDbArc
 50
66.19702098026134
 51
125.2189531241389
  0
ARC
  5
E6
330
A2
100
AcDbEntity
  8
BLOCKS
100
AcDbCircle
 10
0.6171413794826731
 20
0.0126668201207667
 30
0.0
 40
0.0053444444444444
100
AcDbArc
 50
59.78104687586272
 51
125.2189531241382
  0
ARC
  5
E7
330
A2
100
AcDbEntity
  8
BLOCKS
100
AcDbCircle
 10
0.5964115842836987
 20
0.0213152750111362
 30
0.0
 40
0.006
100
AcDbArc
 50
272.4999999999994
 51
305.2189531241374
  0
ARC
  5
E8
330
A2
100
AcDbEntity
  8
BLOCKS
100
AcDbCircle
 10
0.6043102481445521
 20
0.0216601381230203
 30
0.0
 40
0.006
100
AcDbArc
 50
272.5000000000006
 51
305.2189531241372
  0
ARC
  5
E9
330
A2
100
AcDbEntity
  8
BLOCKS
100
AcDbCircle
 10
0.6090421770550098
 20
0.021866738601027
 30
0.0
 40
0.006
100
AcDbArc
 50
272.4999999999994
 51
305.2189531241372
  0
ARC
  5
EA
330
A2
100
AcDbEntity
  8
BLOCKS
100
AcDbCircle
 10
0.5853601436223153
 20
0.0208327586913652
 30
0.0
 40
0.006
100
AcDbArc
 50
272.5000000000006
 51
305.2189531241388
  0
ARC
  5
EB
330
A2
100
AcDbEntity
  8
BLOCKS
100
AcDbCircle
 10
0.6086636796676112
 20
0.0218502130482034
 30
0.0
 40
0.006
100
AcDbArc
 50
239.7810468758623
 51
272.4999999999998
  0
ARC
  5
EC
330
A2
100
AcDbEntity
  8
BLOCKS
100
AcDbCircle
 10
0.5976122390062279
 20
0.0213676967284323
 30
0.0
 40
0.006
100
AcDbArc
 50
239.7810468758626
 51
266.7521986630949
  0
ARC
  5
ED
330
A2
100
AcDbEntity
  8
BLOCKS
100
AcDbCircle
 10
0.6228511043552203
 20
0.0224696493875104
 30
0.0
 40
0.006
100
AcDbArc
 50
239.7810468758618
 51
272.5
  0
ARC
  5
EE
330
A2
100
AcDbEntity
  8
BLOCKS
100
AcDbCircle
 10
0.6105990089713078
 20
0.0219347113504432
 30
0.0
 40
0.006
100
AcDbArc
 50
272.4999999999994
 51
305.2189531241378
  0
ARC
  5
EF
330
A2
100
AcDbEntity
  8
BLOCKS
100
AcDbCircle
 10
0.7293212788626806
 20
0.0261172849129753
 30
0.0
 40
0.005
100
AcDbArc
 50
272.5000000000012
 51
310.7132107017382
  0
ARC
  5
F0
330
A2
100
AcDbEntity
  8
BLOCKS
100
AcDbCircle
 10
0.8127194266388052
 20
0.0297585266817055
 30
0.0
 40
0.005
100
AcDbArc
 50
272.5000000000005
 51
312.6572047736969
  0
ARC
  5
F1
330
A2
100
AcDbEntity
  8
BLOCKS
100
AcDbCircle
 10
0.8106971461914621
 20
0.0296702320105465
 30
0.0
 40
0.005
100
AcDbArc
 50
232.3427952263039
 51
272.4999999999998
  0
ARC
  5
F2
330
A2
100
AcDbEntity
  8
BLOCKS
100
AcDbCircle
 10
0.8008576623199655
 20
0.0292406308669865
 30
0.0
 40
0.005
100
AcDbArc
 50
272.4999999999998
 51
312.6572047736969
  0
ARC
  5
F3
330
A2
100
AcDbEntity
  8
BLOCKS
100
AcDbCircle
 10
0.5390752978880096
 20
0.0080767011358535
 30
0.0
 40
0.0065249999999998
100
AcDbArc
 50
71.5841106513641
 51
122.9802315155237
  0
ARC
  5
F4
330
A2
100
AcDbEntity
  8
BLOCKS
100
AcDbCircle
 10
0.543729675371651
 20
0.0082799156454416
 30
0.0
 40
0.0065249999999998
100
AcDbArc
 50
85.75295048206417
 51
122.9802315155234
  0
ARC
  5
F5
330
A2
100
AcDbEntity
  8
BLOCKS
100
AcDbCircle
 10
0.5204363885920042
 20
0.0072629087812038
 30
0.0
 40
0.0065249999999998
100
AcDbArc
 50
62.01976848447576
 51
122.9802315155227
  0
ARC
  5
F6
330
A2
100
AcDbEntity
  8
BLOCKS
100
AcDbCircle
 10
0.5452614117840814
 20
0.0083467927014954
 30
0.0
 40
0.0065249999999998
100
AcDbArc
 50
62.01976848447665
 51
122.9802315155236
  0
ARC
  5
F7
330
A2
100
AcDbEntity
  8
BLOCKS
100
AcDbCircle
 10
0.5313063683330621
 20
0.0077375023460945
 30
0.0
 40
0.0065249999999998
100
AcDbArc
 50
62.01976848447682
 51
122.9802315155233
  0
ARC
  5
F8
330
A2
100
AcDbEntity
  8
BLOCKS
100
AcDbCircle
 10
0.53741726714994
 20
0.0192400038414167
 30
0.0
 40
0.0065
100
AcDbArc
 50
242.019768484477
 51
247.7756131348153
  0
ARC
  5
F9
330
A2
100
AcDbEntity
  8
BLOCKS
100
AcDbCircle
 10
0.5319851438247793
 20
0.0190028322150443
 30
0.0
 40
0.0065
100
AcDbArc
 50
272.5000000000015
 51
302.9802315155229
  0
ARC
  5
FA
330
A2
100
AcDbEntity
  8
BLOCKS
100
AcDbCircle
 10
0.5366395213084206
 20
0.0192060467246324
 30
0.0
 40
0.0065
100
AcDbArc
 50
272.5000000000015
 51
302.9802315155225
  0
ARC
  5
FB
330
A2
100
AcDbEntity
  8
BLOCKS
100
AcDbCircle
 10
0.5381712577208532
 20
0.0192729237806862
 30
0.0
 40
0.0065
100
AcDbArc
 50
272.5000000000015
 51
302.9802315155223
  0
ARC
  5
FC
330
A2
100
AcDbEntity
  8
BLOCKS
100
AcDbCircle
 10
0.5265472874088824
 20
0.0187654102765259
 30
0.0
 40
0.0065
100
AcDbArc
 50
242.0197684844772
 51
262.1602856922815
  0
ARC
  5
FD
330
A2
100
AcDbEntity
  8
BLOCKS
100
AcDbCircle
 10
0.5133462345287763
 20
0.0181890398603946
 30
0.0
 40
0.0065
100
AcDbArc
 50
272.5000000000004
 51
302.9802315155232
  0
ARC
  5
FE
330
A2
100
AcDbEntity
  8
BLOCKS
100
AcDbCircle
 10
0.5513723106009593
 20
0.0198492941968175
 30
0.0
 40
0.0065
100
AcDbArc
 50
242.0197684844763
 51
272.5000000000007
  0
ARC
  5
FF
330
A2
100
AcDbEntity
  8
BLOCKS
100
AcDbCircle
 10
0.5242162142698317
 20
0.0186636334252853
 30
0.0
 40
0.0065
100
AcDbArc
 50
272.5000000000015
 51
302.9802315155234
  0
ARC
  5
100
330
A2
100
AcDbEntity
  8
BLOCKS
100
AcDbCircle
 10
0.4671842408581415
 20
0.0036171683396492
 30
0.0
 40
0.0078444444444445
100
AcDbArc
 50
75.06443298400745
 51
121.00895617584
  0
ARC
  5
101
330
A2
100
AcDbEntity
  8
BLOCKS
100
AcDbCircle
 10
0.4489730016831892
 20
0.002822048465739
 30
0.0
 40
0.0078444444444445
100
AcDbArc
 50
63.99104382415988
 51
121.0089561758407
  0
ARC
  5
102
330
A2
100
AcDbEntity
  8
BLOCKS
100
AcDbCircle
 10
0.4596629870387051
 20
0.0032887833060363
 30
0.0
 40
0.0078444444444445
100
AcDbArc
 50
63.99104382416023
 51
121.0089561758411
  0
ARC
  5
103
330
A2
100
AcDbEntity
  8
BLOCKS
100
AcDbCircle
 10
0.471880676894225
 20
0.0038222191652926
 30
0.0
 40
0.0078444444444445
100
AcDbArc
 50
86.98331677379817
 51
121.0089561758408
  0
ARC
  5
104
330
A2
100
AcDbEntity
  8
BLOCKS
100
AcDbCircle
 10
0.4733875018782283
 20
0.003888008564893
 30
0.0
 40
0.0078444444444445
100
AcDbArc
 50
63.99104382415907
 51
121.0089561758401
  0
ARC
  5
105
330
A2
100
AcDbEntity
  8
BLOCKS
100
AcDbCircle
 10
0.4520155440664304
 20
0.0160117604281595
 30
0.0
 40
0.007
100
AcDbArc
 50
272.5
 51
301.0089561758405
  0
ARC
  5
106
330
A2
100
AcDbEntity
  8
BLOCKS
100
AcDbCircle
 10
0.4084244092733503
 20
0.014609006723224
 30
0.0
 40
0.0075
100
AcDbArc
 50
245.7367530327939
 51
272.4999999999998
  0
ARC
  5
107
330
A2
100
AcDbEntity
  8
BLOCKS
100
AcDbCircle
 10
0.455482463305084
 20
0.0161631293911069
 30
0.0
 40
0.007
100
AcDbArc
 50
243.9910438241594
 51
258.1483165844831
  0
ARC
  5
108
330
A2
100
AcDbEntity
  8
BLOCKS
100
AcDbCircle
 10
0.4595367978858668
 20
0.0163401454617702
 30
0.0
 40
0.007
100
AcDbArc
 50
272.5
 51
301.0089561758414
  0
ARC
  5
109
330
A2
100
AcDbEntity
  8
BLOCKS
100
AcDbCircle
 10
0.4413255587109143
 20
0.01554502558786
 30
0.0
 40
0.007
100
AcDbArc
 50
272.4999999999995
 51
301.0089561758405
  0
ARC
  5
10A
330
A2
100
AcDbEntity
  8
BLOCKS
100
AcDbCircle
 10
0.4798969635001254
 20
0.0172290894902631
 30
0.0
 40
0.007
100
AcDbArc
 50
243.9910438241596
 51
272.4999999999995
  0
ARC
  5
10B
330
A2
100
AcDbEntity
  8
BLOCKS
100
AcDbCircle
 10
0.4661724486606
 20
0.0166298642314064
 30
0.0
 40
0.007
100
AcDbArc
 50
243.9910438241594
 51
244.1779771403322
  0
ARC
  5
10C
330
A2
100
AcDbEntity
  8
BLOCKS
100
AcDbCircle
 10
0.4642332339219525
 20
0.0165451962874158
 30
0.0
 40
0.007
100
AcDbArc
 50
272.5
 51
301.0089561758405
  0
ARC
  5
10D
330
A2
100
AcDbEntity
  8
BLOCKS
100
AcDbCircle
 10
0.4657400589059558
 20
0.0166109856870139
 30
0.0
 40
0.007
100
AcDbArc
 50
272.4999999999995
 51
301.0089561758405
  0
ARC
  5
10E
330
A2
100
AcDbEntity
  8
BLOCKS
100
AcDbCircle
 10
0.3955364167211201
 20
-0.000970765885379
 30
0.0
 40
0.0093027777777776
100
AcDbArc
 50
78.48625203635329
 51
119.2632469672047
  0
ARC
  5
10F
330
A2
100
AcDbEntity
  8
BLOCKS
100
AcDbCircle
 10
0.3880238085561405
 20
-0.0012987734415651
 30
0.0
 40
0.0093027777777776
100
AcDbArc
 50
68.66101612685297
 51
119.2632469672049
  0
ARC
  5
110
330
A2
100
AcDbEntity
  8
BLOCKS
100
AcDbCircle
 10
0.3296578555200131
 20
-0.0054458298570125
 30
0.0
 40
0.0109
100
AcDbArc
 50
67.29123470324184
 51
117.7087652967584
  0
ARC
  5
111
330
A2
100
AcDbEntity
  8
BLOCKS
100
AcDbCircle
 10
0.4000375514371445
 20
-0.0007742420995214
 30
0.0
 40
0.0093027777777776
100
AcDbArc
 50
87.92667758755104
 51
119.2632469672053
  0
ARC
  5
112
330
A2
100
AcDbEntity
  8
BLOCKS
100
AcDbCircle
 10
0.3775123498160156
 20
-0.0017577136415025
 30
0.0
 40
0.0093027777777776
100
AcDbArc
 50
65.73675303279522
 51
119.2632469672053
  0
ARC
  5
113
330
A2
100
AcDbEntity
  8
BLOCKS
100
AcDbCircle
 10
0.3282002983105736
 20
-0.0055094681791184
 30
0.0
 40
0.0109
100
AcDbArc
 50
88.66266229943265
 51
117.7087652967578
  0
ARC
  5
114
330
A2
100
AcDbEntity
  8
BLOCKS
100
AcDbCircle
 10
0.3873228332809663
 20
0.0136876920185409
 30
0.0
 40
0.0075
100
AcDbArc
 50
272.5000000000003
 51
299.2632469672055
  0
ARC
  5
115
330
A2
100
AcDbEntity
  8
BLOCKS
100
AcDbCircle
 10
0.3692987663758618
 20
0.0129007442624175
 30
0.0
 40
0.0075
100
AcDbArc
 50
272.5000000000003
 51
299.2632469672058
  0
ARC
  5
116
330
A2
100
AcDbEntity
  8
BLOCKS
100
AcDbCircle
 10
0.3918239679969906
 20
0.0138842158044008
 30
0.0
 40
0.0075
100
AcDbArc
 50
272.5000000000003
 51
299.2632469672048
  0
ARC
  5
117
330
A2
100
AcDbEntity
  8
BLOCKS
100
AcDbCircle
 10
0.3369541470465947
 20
0.0119890240270661
 30
0.0
 40
0.008
100
AcDbArc
 50
247.2912347032411
 51
272.4999999999996
  0
ARC
  5
118
330
A2
100
AcDbEntity
  8
BLOCKS
100
AcDbCircle
 10
0.3798102251159867
 20
0.0133596844623548
 30
0.0
 40
0.0075
100
AcDbArc
 50
272.4999999999998
 51
299.2632469672045
  0
ARC
  5
119
330
A2
100
AcDbEntity
  8
BLOCKS
100
AcDbCircle
 10
0.3208697809455407
 20
0.0112867654370098
 30
0.0
 40
0.008
100
AcDbArc
 50
272.5
 51
297.7087652967586
  0
ARC
  5
11A
330
A2
100
AcDbEntity
  8
BLOCKS
100
AcDbCircle
 10
0.3844171093052796
 20
0.0135608253699297
 30
0.0
 40
0.0075
100
AcDbArc
 50
245.7367530327954
 51
254.5962916793805
  0
ARC
  5
11B
330
A2
100
AcDbEntity
  8
BLOCKS
100
AcDbCircle
 10
0.3933060663439323
 20
0.0139489256157117
 30
0.0
 40
0.0075
100
AcDbArc
 50
272.4999999999998
 51
299.2632469672048
  0
ARC
  5
11C
330
A2
100
AcDbEntity
  8
BLOCKS
100
AcDbCircle
 10
0.3163888305536102
 20
-0.0060251679985208
 30
0.0
 40
0.0109
100
AcDbArc
 50
72.67605110303354
 51
117.7087652967587
  0
ARC
  5
11D
330
A2
100
AcDbEntity
  8
BLOCKS
100
AcDbCircle
 10
0.3060544294348006
 20
-0.0064763776957648
 30
0.0
 40
0.0109
100
AcDbArc
 50
67.291234703242
 51
117.7087652967589
  0
ARC
  5
11E
330
A2
100
AcDbEntity
  8
BLOCKS
100
AcDbCircle
 10
0.2972663548603259
 20
0.0102562175982553
 30
0.0
 40
0.008
100
AcDbArc
 50
272.5000000000004
 51
297.7087652967581
  0
ARC
  5
11F
330
A2
100
AcDbEntity
  8
BLOCKS
100
AcDbCircle
 10
0.3076007559791378
 20
0.0107074272954992
 30
0.0
 40
0.008
100
AcDbArc
 50
272.5000000000004
 51
297.7087652967586
  0
ARC
  5
120
330
A2
100
AcDbEntity
  8
BLOCKS
100
AcDbCircle
 10
0.3149867788581514
 20
0.0110299080187406
 30
0.0
 40
0.008
100
AcDbArc
 50
272.5000000000004
 51
297.7087652967586
  0
ARC
  5
121
330
A2
100
AcDbEntity
  8
BLOCKS
100
AcDbCircle
 10
0.3133507209613799
 20
0.0109584761883139
 30
0.0
 40
0.008
100
AcDbArc
 50
247.2912347032411
 51
251.4172946796985
  0
ARC
  5
122
330
A2
100
AcDbEntity
  8
BLOCKS
100
AcDbCircle
 10
0.255552970946419
 20
-0.0496446708118856
 30
0.0
 40
0.0450243638696319
100
AcDbArc
 50
92.50349082390661
 51
105.342514113203
  0
ARC
  5
123
330
A2
100
AcDbEntity
  8
BLOCKS
100
AcDbCircle
 10
0.2555726254503156
 20
-0.0497698530262392
 30
0.0
 40
0.0501502870259093
100
AcDbArc
 50
92.51932914308353
 51
105.3266756982222
  0
LINE
  5
124
330
A2
100
AcDbEntity
  8
BLOCKS
100
AcDbLine
 10
0.2535862952217122
 20
-0.004663279898989
 30
0.0
 11
0.3603929647148471
 21
0.0
 31
0.0
  0
ARC
  5
125
330
A2
100
AcDbEntity
  8
BLOCKS
100
AcDbCircle
 10
0.3237748534326238
 20
-0.0057026872752817
 30
0.0
 40
0.0109
100
AcDbArc
 50
80.77611690289396
 51
117.7087652967584
  0
ARC
  5
126
330
A2
100
AcDbEntity
  8
BLOCKS
100
AcDbCircle
 10
0.3194122237360989
 20
0.0112231271149017
 30
0.0
 40
0.008
100
AcDbArc
 50
272.5000000000002
 51
297.7087652967591
  0
ARC
  5
127
330
A2
100
AcDbEntity
  8
BLOCKS
100
AcDbCircle
 10
0.4015196497840862
 20
-0.0007095322882083
 30
0.0
 40
0.0093027777777776
100
AcDbArc
 50
65.73675303279561
 51
119.2632469672053
  0
LINE
  5
128
330
A2
100
AcDbEntity
  8
BLOCKS
100
AcDbLine
 10
0.2533681983216729
 20
0.000331961210527
 30
0.0
 11
0.9068198605509952
 21
0.0288622769285939
 31
0.0
  0
LINE
  5
129
330
A2
100
AcDbEntity
  8
BLOCKS
100
AcDbLine
 10
1.09279975328915
 20
0.0
 30
0.0
 11
0.3603929647148471
 21
0.0
 31
0.0
  0
ARC
  5
12A
330
A2
100
AcDbEntity
  8
BLOCKS
100
AcDbCircle
 10
0.89257969869622
 20
0.0332453014606631
 30
0.0
 40
0.005
100
AcDbArc
 50
272.4999999999998
 51
310.7132107017373
  0
LINE
  5
12B
330
A2
100
AcDbEntity
  8
BLOCKS
100
AcDbLine
 10
0.3603929647148471
 20
0.0
 30
0.0
 11
0.9070379574878211
 21
0.0238670358206832
 31
0.0
  0
LINE
  5
12C
330
A2
100
AcDbEntity
  8
BLOCKS
100
AcDbLine
 10
0.0091223409781287
 20
0.0350000000000023
 30
0.0
 11
0.0666840337302529
 21
0.035
 31
0.0
  0
ARC
  5
12D
330
A2
100
AcDbEntity
  8
BLOCKS
100
AcDbCircle
 10
0.0091223409781287
 20
0.0320000000000005
 30
0.0
 40
0.0030000000000005
100
AcDbArc
 50
90.0
 51
178.0
  0
ARC
  5
12E
330
A2
100
AcDbEntity
  8
BLOCKS
100
AcDbCircle
 10
0.0091223409781287
 20
0.0320000000000005
 30
0.0
 40
0.008
100
AcDbArc
 50
90.0
 51
178.0
  0
ARC
  5
12F
330
A2
100
AcDbEntity
  8
BLOCKS
100
AcDbCircle
 10
0.0666840337302529
 20
0.0320000000000005
 30
0.0
 40
0.003
100
AcDbArc
 50
9.999999999999085
 51
89.99999999999566
  0
ARC
  5
130
330
A2
100
AcDbEntity
  8
BLOCKS
100
AcDbCircle
 10
0.0666840337302529
 20
0.0320000000000005
 30
0.0
 40
0.008
100
AcDbArc
 50
10.00000000000059
 51
89.99999999999836
  0
ARC
  5
131
330
A2
100
AcDbEntity
  8
BLOCKS
100
AcDbCircle
 10
0.219456865626903
 20
-0.0051597424746365
 30
0.0
 40
0.008
100
AcDbArc
 50
313.9884444289784
 51
335.437420169576
  0
LINE
  5
132
330
A2
100
AcDbEntity
  8
BLOCKS
100
AcDbLine
 10
0.1968909836371813
 20
-0.012143414087077
 30
0.0
 11
0.225012971850058
 21
-0.0109155815652412
 31
0.0
  0
LINE
  5
133
330
A2
100
AcDbEntity
  8
BLOCKS
100
AcDbLine
 10
0.232187748572519
 20
-0.0156070874741977
 30
0.0
 11
0.2268961541137355
 21
-0.0158381234777585
 31
0.0
  0
ARC
  5
134
330
A2
100
AcDbEntity
  8
BLOCKS
100
AcDbCircle
 10
0.234013719731422
 20
-0.0118164642701163
 30
0.0
 40
0.0080066847594786
100
AcDbArc
 50
103.6440840271811
 51
155.4141838454655
  0
LINE
  5
135
330
A2
100
AcDbEntity
  8
BLOCKS
100
AcDbLine
 10
0.2157057058734199
 20
-0.0270000000000005
 30
0.0
 11
0.2156222577933158
 21
-0.0250887247377637
 31
0.0
  0
LINE
  5
136
330
A2
100
AcDbEntity
  8
BLOCKS
100
AcDbLine
 10
0.1718468572885104
 20
-0.0270000000000005
 30
0.0
 11
0.2157057058734199
 21
-0.0270000000000005
 31
0.0
  0
LINE
  5
137
330
A2
100
AcDbEntity
  8
BLOCKS
100
AcDbLine
 10
0.2156222577933158
 20
-0.0250887247377637
 30
0.0
 11
0.2268961541137355
 21
-0.0158381234777585
 31
0.0
  0
LINE
  5
138
330
A2
100
AcDbEntity
  8
BLOCKS
100
AcDbLine
 10
0.2107009424476064
 20
-0.0270000000000005
 30
0.0
 11
0.2105179684604991
 21
-0.0228092066978729
 31
0.0
  0
LINE
  5
139
330
A2
100
AcDbEntity
  8
BLOCKS
100
AcDbLine
 10
0.2105179684604991
 20
-0.0228092066978729
 30
0.0
 11
0.225012971850058
 21
-0.0109155815652412
 31
0.0
  0
LINE
  5
13A
330
A2
100
AcDbEntity
  8
BLOCKS
100
AcDbLine
 10
0.232187748572519
 20
-0.0156070874741977
 30
0.0
 11
0.2323575475690859
 21
-0.0091227254051091
 31
0.0
  0
LINE
  5
13B
330
A2
100
AcDbEntity
  8
BLOCKS
100
AcDbLine
 10
0.1036801968702093
 20
-0.0212178483523826
 30
0.0
 11
0.0983886024114259
 21
-0.0214488843559434
 31
0.0
  0
LINE
  5
13C
330
A2
100
AcDbEntity
  8
BLOCKS
100
AcDbLine
 10
0.1051271852602349
 20
-0.0161499080490808
 30
0.0
 11
0.1331829777433177
 21
-0.0149249656952247
 31
0.0
  0
ARC
  5
13D
330
A2
100
AcDbEntity
  8
BLOCKS
100
AcDbCircle
 10
0.1101604943906977
 20
-0.0099317250992885
 30
0.0
 40
0.008
100
AcDbArc
 50
209.563267041389
 51
231.0115555709981
  0
ARC
  5
13E
330
A2
100
AcDbEntity
  8
BLOCKS
100
AcDbCircle
 10
0.0962364373944138
 20
-0.0178361567836396
 30
0.0
 40
0.0080112283441513
100
AcDbArc
 50
29.60227043068341
 51
81.34026778956757
  0
ARC
  5
13F
330
A2
100
AcDbEntity
  8
BLOCKS
100
AcDbCircle
 10
0.1521864881166357
 20
0.3505715582835341
 30
0.0
 40
0.3696205397064289
100
AcDbArc
 50
260.5306123214242
 51
261.5158682797779
  0
ARC
  5
140
330
A2
100
AcDbEntity
  8
BLOCKS
100
AcDbCircle
 10
0.1521690866796416
 20
0.3503344249742168
 30
0.0
 40
0.3643837755799012
100
AcDbArc
 50
260.527459677454
 51
261.3621210582067
  0
ARC
  5
141
330
A2
100
AcDbEntity
  8
BLOCKS
100
AcDbCircle
 10
0.0948629106333056
 20
0.0057690045686468
 30
0.0
 40
0.0201958232713804
100
AcDbArc
 50
190.0608272500158
 51
196.5974842344213
  0
ARC
  5
142
330
A2
100
AcDbEntity
  8
BLOCKS
100
AcDbCircle
 10
0.0946751629193841
 20
0.0057152661169744
 30
0.0
 40
0.0150015849436947
100
AcDbArc
 50
190.0042799597306
 51
260.5057186103687
  0
LINE
  5
143
330
A2
100
AcDbEntity
  8
BLOCKS
100
AcDbLine
 10
0.1121343087294781
 20
-0.0270000000000005
 30
0.0
 11
0.1036801968702093
 21
-0.0212178483523826
 31
0.0
  0
LINE
  5
144
330
A2
100
AcDbEntity
  8
BLOCKS
100
AcDbLine
 10
0.1206152007829064
 20
-0.0270000000000005
 30
0.0
 11
0.1206036285181335
 21
-0.0267349515607521
 31
0.0
  0
LINE
  5
145
330
A2
100
AcDbEntity
  8
BLOCKS
100
AcDbLine
 10
0.1206036285181335
 20
-0.0267349515607521
 30
0.0
 11
0.1051271852602326
 21
-0.0161499080490808
 31
0.0
  0
LINE
  5
146
330
A2
100
AcDbEntity
  8
BLOCKS
100
AcDbLine
 10
0.0983886024114259
 20
-0.0214488843559434
 30
0.0
 11
0.0976543156657863
 21
-0.0150041323018172
 31
0.0
  0
LINE
  5
147
330
A2
100
AcDbEntity
  8
BLOCKS
100
AcDbLine
 10
0.2105179684604991
 20
-0.0228092066978729
 30
0.0
 11
0.1206036285181335
 21
-0.0267349515607521
 31
0.0
  0
LINE
  5
148
330
A2
100
AcDbEntity
  8
BLOCKS
100
AcDbLine
 10
0.1331829777433177
 20
-0.0149249656952247
 30
0.0
 11
0.1968909836371813
 21
-0.012143414087077
 31
0.0
  0
LINE
  5
149
330
A2
100
AcDbEntity
  8
BLOCKS
100
AcDbLine
 10
0.1121343087294781
 20
-0.0270000000000005
 30
0.0
 11
0.1718468572885104
 21
-0.0270000000000005
 31
0.0
  0
LINE
  5
14A
330
A2
100
AcDbEntity
  8
BLOCKS
100
AcDbLine
 10
0.0
 20
0.0
 30
0.0
 11
0.0755085865011211
 21
0.0
 31
0.0
  0
ARC
  5
14B
330
A2
100
AcDbEntity
  8
BLOCKS
100
AcDbCircle
 10
0.0946796090231556
 20
0.0057188207336935
 30
0.0
 40
0.0200058245299814
100
AcDbArc
 50
196.6097032789217
 51
260.4959077700547
  0
LINE
  5
14C
330
A2
100
AcDbEntity
  8
BLOCKS
100
AcDbLine
 10
0.0050030477214955
 20
0.0
 30
0.0
 11
0.0061241684970719
 21
0.0321046984901091
 31
0.0
  0
LINE
  5
14D
330
A2
100
AcDbEntity
  8
BLOCKS
100
AcDbLine
 10
0.0
 20
0.0
 30
0.0
 11
0.0011272143619772
 21
0.0322791959736196
 31
0.0
  0
LINE
  5
14E
330
A2
100
AcDbEntity
  8
BLOCKS
100
AcDbLine
 10
0.0749776415733777
 20
0.0022409240696811
 30
0.0
 11
0.0696384569892894
 21
0.0325209445330006
 31
0.0
  0
LINE
  5
14F
330
A2
100
AcDbEntity
  8
BLOCKS
100
AcDbLine
 10
0.0799016803384348
 20
0.0031091649580253
 30
0.0
 11
0.074562495754351
 21
0.0333891854213357
 31
0.0
  0
LINE
  5
150
330
A2
100
AcDbEntity
  8
BLOCKS
100
AcDbLine
 10
0.0091223409781287
 20
0.04
 30
0.0
 11
1.093671320581215
 21
0.04
 31
0.0
  0
ARC
  5
151
330
A2
100
AcDbEntity
  8
BLOCKS
100
AcDbCircle
 10
0.1488681197405504
 20
0.3393525496234793
 30
0.0
 40
0.358337134362898
100
AcDbArc
 50
283.4732424827913
 51
285.3358758032102
  0
ARC
  5
152
330
A2
100
AcDbEntity
  8
BLOCKS
100
AcDbCircle
 10
0.1497984740548804
 20
0.3357327485473502
 30
0.0
 40
0.3496001711766059
100
AcDbArc
 50
283.6203744647736
 51
285.3455852409705
  0
ENDBLK
  5
155
330
A2
100
AcDbEntity
  8
0
100
AcDbBlockEnd
  0
BLOCK
  5
187
330
15A
100
AcDbEntity
  8
0
100
AcDbBlockBegin
  2
80011AL
 70
     0
 10
0.0
 20
0.0
 30
0.0
  3
80011AL
  1

  0
ARC
  5
15B
330
15A
100
AcDbEntity
  8
BLOCKS
100
AcDbCircle
 10
1.093671320581215
 20
0.0319999999999982
 30
0.0
 40
0.008
100
AcDbArc
 50
2.000000000000028
 51
90.0
  0
LINE
  5
15C
330
15A
100
AcDbEntity
  8
BLOCKS
100
AcDbLine
 10
1.092793659702751
 20
0.0
 30
0.0
 11
1.097790613837846
 21
0.0
 31
0.0
  0
LINE
  5
15D
330
15A
100
AcDbEntity
  8
BLOCKS
100
AcDbLine
 10
1.102793661559339
 20
0.0
 30
0.0
 11
1.097790613837846
 21
0.0
 31
0.0
  0
LINE
  5
15E
330
15A
100
AcDbEntity
  8
BLOCKS
100
AcDbLine
 10
1.101666447197367
 20
0.0322791959736196
 30
0.0
 11
1.102793661559339
 21
0.0
 31
0.0
  0
ARC
  5
15F
330
15A
100
AcDbEntity
  8
BLOCKS
100
AcDbCircle
 10
0.255552970946419
 20
-0.0496446708118856
 30
0.0
 40
0.0450243638696319
100
AcDbArc
 50
92.50349082390661
 51
105.342514113203
  0
SPLINE
  5
160
330
15A
100
AcDbEntity
  8
BLOCKS
100
AcDbSpline
210
0.0
220
0.0
230
1.0
 70
    25
 71
     3
 72
     8
 73
     4
 74
     0
 42
0.0000000001
 43
0.0000000001
 40
0.3436491064280108
 40
0.3436491064280108
 40
0.3436491064280108
 40
0.3436491064280108
 40
0.3436712063726625
 40
0.3436712063726625
 40
0.3436712063726625
 40
0.3436712063726625
 10
0.2436400329187359
 20
-0.00622491433081
 30
0.0
 10
0.2436400331572713
 20
-0.0062249142916016
 30
0.0
 10
0.2436400333510983
 20
-0.0062249142515611
 30
0.0
 10
0.2436400335002168
 20
-0.0062249142106953
 30
0.0
  0
ARC
  5
161
330
15A
100
AcDbEntity
  8
BLOCKS
100
AcDbCircle
 10
0.2555491679136185
 20
-0.0496204498694579
 30
0.0
 40
0.0450000000106487
100
AcDbArc
 50
92.49999999999191
 51
105.3460049330753
  0
LINE
  5
162
330
15A
100
AcDbEntity
  8
BLOCKS
100
AcDbLine
 10
0.3603929647148471
 20
0.0
 30
0.0
 11
0.2535862968069341
 21
-0.0046632798297765
 31
0.0
  0
LINE
  5
163
330
15A
100
AcDbEntity
  8
BLOCKS
100
AcDbLine
 10
0.725289279825322
 20
0.04
 30
0.0
 11
1.093671320581215
 21
0.04
 31
0.0
  0
LINE
  5
164
330
15A
100
AcDbEntity
  8
BLOCKS
100
AcDbLine
 10
0.1005609864405028
 20
0.04
 30
0.0
 11
0.1190286925177429
 21
0.04
 31
0.0
  0
LINE
  5
165
330
15A
100
AcDbEntity
  8
BLOCKS
100
AcDbLine
 10
0.0666840337302529
 20
0.04
 30
0.0
 11
0.0666840342393698
 21
0.04
 31
0.0
  0
ARC
  5
166
330
15A
100
AcDbEntity
  8
BLOCKS
100
AcDbCircle
 10
0.0091223409781287
 20
0.0319999999999982
 30
0.0
 40
0.008
100
AcDbArc
 50
90.0
 51
178.0
  0
LINE
  5
167
330
15A
100
AcDbEntity
  8
BLOCKS
100
AcDbLine
 10
0.0091223409781287
 20
0.04
 30
0.0
 11
0.0666840342393698
 21
0.04
 31
0.0
  0
LINE
  5
168
330
15A
100
AcDbEntity
  8
BLOCKS
100
AcDbLine
 10
0.0666840342393698
 20
0.04
 30
0.0
 11
0.1005609864405028
 21
0.04
 31
0.0
  0
LINE
  5
169
330
15A
100
AcDbEntity
  8
BLOCKS
100
AcDbLine
 10
0.2156222577933158
 20
-0.0250887247377614
 30
0.0
 11
0.2156222394142242
 21
-0.0250887255402108
 31
0.0
  0
LINE
  5
16A
330
15A
100
AcDbEntity
  8
BLOCKS
100
AcDbLine
 10
0.232187748572519
 20
-0.0156070874741954
 30
0.0
 11
0.2321877348492671
 21
-0.015607088073366
 31
0.0
  0
LINE
  5
16B
330
15A
100
AcDbEntity
  8
BLOCKS
100
AcDbLine
 10
0.2157057058734199
 20
-0.0270000000000005
 30
0.0
 11
0.2156222577933158
 21
-0.0250887247377614
 31
0.0
  0
LINE
  5
16C
330
15A
100
AcDbEntity
  8
BLOCKS
100
AcDbLine
 10
0.2157056874592945
 20
-0.0270000000000005
 30
0.0
 11
0.2157057058734199
 21
-0.0270000000000005
 31
0.0
  0
LINE
  5
16D
330
15A
100
AcDbEntity
  8
BLOCKS
100
AcDbLine
 10
0.2156222577933158
 20
-0.0250887247377614
 30
0.0
 11
0.2268961541137355
 21
-0.0158381234777562
 31
0.0
  0
LINE
  5
16E
330
15A
100
AcDbEntity
  8
BLOCKS
100
AcDbLine
 10
0.232187748572519
 20
-0.0156070874741954
 30
0.0
 11
0.2323575475693292
 21
-0.0091227253958641
 31
0.0
  0
LINE
  5
16F
330
15A
100
AcDbEntity
  8
BLOCKS
100
AcDbLine
 10
0.2323575343391394
 20
-0.0091227106384304
 30
0.0
 11
0.2321877348481962
 21
-0.0156070880733387
 31
0.0
  0
LINE
  5
170
330
15A
100
AcDbEntity
  8
BLOCKS
100
AcDbLine
 10
0.2321877348492671
 20
-0.015607088073366
 30
0.0
 11
0.2268961392117717
 21
-0.0158381241283905
 31
0.0
  0
LINE
  5
171
330
15A
100
AcDbEntity
  8
BLOCKS
100
AcDbLine
 10
0.2268961390239974
 20
-0.0158381238995435
 30
0.0
 11
0.215622239283166
 21
-0.0250887253804899
 31
0.0
  0
LINE
  5
172
330
15A
100
AcDbEntity
  8
BLOCKS
100
AcDbLine
 10
0.2156222394142242
 20
-0.0250887255402108
 30
0.0
 11
0.2157056874592945
 21
-0.0270000000000005
 31
0.0
  0
LINE
  5
173
330
15A
100
AcDbEntity
  8
BLOCKS
100
AcDbLine
 10
0.2157056874592945
 20
-0.0270000000000005
 30
0.0
 11
0.2107009219874635
 21
-0.0270000000000005
 31
0.0
  0
LINE
  5
174
330
15A
100
AcDbEntity
  8
BLOCKS
100
AcDbLine
 10
0.09838861613468
 20
-0.0214488837567751
 30
0.0
 11
0.0983886024114259
 21
-0.0214488843559457
 31
0.0
  0
LINE
  5
175
330
15A
100
AcDbEntity
  8
BLOCKS
100
AcDbLine
 10
0.1121343087294781
 20
-0.0270000000000005
 30
0.0
 11
0.1121343270119951
 21
-0.0270000000000005
 31
0.0
  0
LINE
  5
176
330
15A
100
AcDbEntity
  8
BLOCKS
100
AcDbLine
 10
0.1121343087294781
 20
-0.0270000000000005
 30
0.0
 11
0.1036801968702093
 21
-0.0212178483523849
 31
0.0
  0
LINE
  5
177
330
15A
100
AcDbEntity
  8
BLOCKS
100
AcDbLine
 10
0.0983886024114259
 20
-0.0214488843559457
 30
0.0
 11
0.0976543156640401
 21
-0.0150041322864854
 31
0.0
  0
LINE
  5
178
330
15A
100
AcDbEntity
  8
BLOCKS
100
AcDbLine
 10
0.1206036489393455
 20
-0.0267349506691426
 30
0.0
 11
0.120615221243047
 21
-0.0270000000000005
 31
0.0
  0
LINE
  5
179
330
15A
100
AcDbEntity
  8
BLOCKS
100
AcDbLine
 10
0.120615221243047
 20
-0.0270000000000005
 30
0.0
 11
0.1121343270119951
 21
-0.0270000000000005
 31
0.0
  0
LINE
  5
17A
330
15A
100
AcDbEntity
  8
BLOCKS
100
AcDbLine
 10
0.112134327197432
 20
-0.0269999997288733
 30
0.0
 11
0.1036802119392905
 21
-0.0212178474574103
 31
0.0
  0
LINE
  5
17B
330
15A
100
AcDbEntity
  8
BLOCKS
100
AcDbLine
 10
0.1036802117721731
 20
-0.0212178477017506
 30
0.0
 11
0.09838861613468
 21
-0.0214488837567751
 31
0.0
  0
LINE
  5
17C
330
15A
100
AcDbEntity
  8
BLOCKS
100
AcDbLine
 10
0.0983886161357441
 20
-0.0214488837566523
 30
0.0
 11
0.0976543294815656
 21
-0.0150041333177478
 31
0.0
  0
SPLINE
  5
17D
330
15A
100
AcDbEntity
  8
BLOCKS
100
AcDbSpline
210
0.0
220
0.0
230
1.0
 70
    24
 71
     3
 72
     8
 73
     4
 74
     0
 42
0.0000000001
 43
0.0000000001
 40
-7.573993737921242
 40
-7.573993737921242
 40
-7.573993737921242
 40
-7.573993737921242
 40
-1.216421815931269
 40
-1.216421815931269
 40
-1.216421815931269
 40
-1.216421815931269
 10
0.0976543292967426
 20
-0.0150041343150747
 30
0.0
 10
0.0955590934270322
 20
-0.0146923544968013
 30
0.0
 10
0.0934663211613474
 20
-0.0143617772165226
 30
0.0
 10
0.0913762863566353
 20
-0.0140124001324193
 30
0.0
  0
ARC
  5
17E
330
15A
100
AcDbEntity
  8
BLOCKS
100
AcDbCircle
 10
0.1211865277000561
 20
0.991542708831073
 30
0.0
 40
1.006821885833218
100
AcDbArc
 50
268.6607179990691
 51
276.3393976572431
  0
LINE
  5
17F
330
15A
100
AcDbEntity
  8
BLOCKS
100
AcDbLine
 10
0.2188433327047005
 20
-0.0224457134449131
 30
0.0
 11
0.1206036489393455
 21
-0.0267349506691426
 31
0.0
  0
LINE
  5
180
330
15A
100
AcDbEntity
  8
BLOCKS
100
AcDbLine
 10
0.120615221243047
 20
-0.0270000000000005
 30
0.0
 11
0.2107009219874635
 21
-0.0270000000000005
 31
0.0
  0
ARC
  5
181
330
15A
100
AcDbEntity
  8
BLOCKS
100
AcDbCircle
 10
0.094673501756738
 20
0.0057135894829071
 30
0.0
 40
0.0199996573292432
100
AcDbArc
 50
196.5997609410008
 51
260.5106895435204
  0
LINE
  5
182
330
15A
100
AcDbEntity
  8
BLOCKS
100
AcDbLine
 10
0.0
 20
0.0
 30
0.0
 11
0.0011272143619749
 21
0.0322791959736196
 31
0.0
  0
LINE
  5
183
330
15A
100
AcDbEntity
  8
BLOCKS
100
AcDbLine
 10
0.1190286925177429
 20
0.04
 30
0.0
 11
0.725289279825322
 21
0.04
 31
0.0
  0
LINE
  5
184
330
15A
100
AcDbEntity
  8
BLOCKS
100
AcDbLine
 10
0.0
 20
0.0
 30
0.0
 11
1.092793659702751
 21
0.0
 31
0.0
  0
SPLINE
  5
185
330
15A
100
AcDbEntity
  8
BLOCKS
100
AcDbSpline
210
0.0
220
0.0
230
1.0
 70
     8
 71
     3
 72
     8
 73
     4
 74
     0
 42
0.0000000001
 43
0.0000000001
 40
-155.0404990532008
 40
-155.0404990532008
 40
-155.0404990532008
 40
-155.0404990532008
 40
-143.3772452557311
 40
-143.3772452557311
 40
-143.3772452557311
 40
-143.3772452557311
 10
0.243640033921613
 20
-0.0062249179851597
 30
0.0
 10
0.2398940837826944
 20
-0.007253090930094
 30
0.0
 10
0.2361327985730349
 20
-0.0082192643008534
 30
0.0
 10
0.2323575363644681
 20
-0.0091227280784324
 30
0.0
  0
ENDBLK
  5
188
330
15A
100
AcDbEntity
  8
0
100
AcDbBlockEnd
  0
BLOCK
  5
1B1
330
18A
100
AcDbEntity
  8
0
100
AcDbBlockBegin
  2
80011AF
 70
     0
 10
0.0
 20
0.0
 30
0.0
  3
80011AF
  1

  0
ARC
  5
18B
330
18A
100
AcDbEntity
  8
BLOCKS
100
AcDbCircle
 10
0.8936713205812157
 20
0.0320000000000005
 30
0.0
 40
0.008
100
AcDbArc
 50
1.999999999999992
 51
90.0
  0
LINE
  5
18C
330
18A
100
AcDbEntity
  8
BLOCKS
100
AcDbLine
 10
0.8927997532891504
 20
0.0
 30
0.0
 11
0.9027936615593421
 21
0.0
 31
0.0
  0
ARC
  5
18D
330
18A
100
AcDbEntity
  8
BLOCKS
100
AcDbCircle
 10
0.7834813408286938
 20
0.0189973531765622
 30
0.0
 40
0.0307550819606123
100
AcDbArc
 50
295.465886527938
 51
321.8517742517507
  0
SPLINE
  5
18E
330
18A
100
AcDbEntity
  8
BLOCKS
100
AcDbSpline
210
0.0
220
0.0
230
1.0
 70
    24
 71
     1
 72
    10
 73
     8
 74
     0
 42
0.0000000001
 43
0.0000000001
 40
0.0
 40
0.0
 40
2.500008976988099
 40
5.000017953976198
 40
7.500026930964297
 40
10.00003590795239
 40
12.89963359544828
 40
15.79923128294416
 40
18.69882897044005
 40
18.69882897044005
 10
0.7890460869446771
 20
-0.0105368482426388
 30
0.0
 10
0.786589451318082
 20
-0.0106015091051791
 30
0.0
 10
0.7841321891310623
 20
-0.0106651862696981
 30
0.0
 10
0.7816743070810003
 20
-0.0107278993619548
 30
0.0
 10
0.7792158118652743
 20
-0.0107896680077124
 30
0.0
 10
0.7763635983180325
 20
-0.0108601526896268
 30
0.0
 10
0.7735105676918171
 20
-0.0109294250267044
 30
0.0
 10
0.7706567302875579
 20
-0.0109975164106777
 30
0.0
  0
SPLINE
  5
18F
330
18A
100
AcDbEntity
  8
BLOCKS
100
AcDbSpline
210
0.0
220
0.0
230
1.0
 70
    24
 71
     3
 72
     8
 73
     4
 74
     0
 42
0.0000000001
 43
0.0000000001
 40
0.0000000000000002
 40
0.0000000000000002
 40
0.0000000000000002
 40
0.0000000000000002
 40
0.0186198545142608
 40
0.0186198545142608
 40
0.0186198545142608
 40
0.0186198545142608
 10
0.7889167970575
 20
-0.0105356184748712
 30
0.0
 10
0.7828356685965128
 20
-0.0106999099813243
 30
0.0
 10
0.7767489824620725
 20
-0.0108533270092789
 30
0.0
 10
0.770656782381277
 20
-0.0109974909189532
 30
0.0
  0
SPLINE
  5
190
330
18A
100
AcDbEntity
  8
BLOCKS
100
AcDbSpline
210
0.0
220
0.0
230
1.0
 70
    24
 71
     3
 72
     8
 73
     4
 74
     0
 42
0.0000000001
 43
0.0000000001
 40
0.027006080428374
 40
0.027006080428374
 40
0.027006080428374
 40
0.027006080428374
 40
0.0274330628960149
 40
0.0274330628960149
 40
0.0274330628960149
 40
0.0274330628960149
 10
0.7890463118004505
 20
-0.0105367938429572
 30
0.0
 10
0.7890031693865649
 20
-0.0105379374317477
 30
0.0
 10
0.7889594697180519
 20
-0.0105375218580935
 30
0.0
 10
0.7889167970575
 20
-0.0105356184748712
 30
0.0
  0
ARC
  5
191
330
18A
100
AcDbEntity
  8
BLOCKS
100
AcDbCircle
 10
0.7884998899138941
 20
0.0093120499141037
 30
0.0
 40
0.0198563635992793
100
AcDbArc
 50
271.5768947748352
 51
294.4119352963233
  0
LINE
  5
192
330
18A
100
AcDbEntity
  8
BLOCKS
100
AcDbLine
 10
0.9016664471973673
 20
0.0322791959736196
 30
0.0
 11
0.9027936615593421
 21
0.0
 31
0.0
  0
ELLIPSE
  5
193
330
18A
100
AcDbEntity
  8
BLOCKS
100
AcDbEllipse
 10
0.4513968307796722
 20
-0.0185279859150705
 30
0.0
 11
-0.0669633073112532
 21
0.0
 31
0.0
210
0.0
220
0.0
230
1.0
 40
0.0436193873653361
 41
2.682938332652367
 42
3.138539578302675
  0
LINE
  5
194
330
18A
100
AcDbEntity
  8
BLOCKS
100
AcDbLine
 10
0.5018423143875089
 20
-0.0270000000000005
 30
0.0
 11
0.5129589222274582
 21
-0.0186845745727033
 31
0.0
  0
LINE
  5
195
330
18A
100
AcDbEntity
  8
BLOCKS
100
AcDbLine
 10
0.5183598259996779
 20
-0.0185369036240627
 30
0.0
 11
0.5183945081969865
 21
-0.0180413994663127
 31
0.0
  0
LINE
  5
196
330
18A
100
AcDbEntity
  8
BLOCKS
100
AcDbLine
 10
0.5010130761581195
 20
-0.0270000000000005
 30
0.0
 11
0.5018423143875089
 21
-0.0270000000000005
 31
0.0
  0
ELLIPSE
  5
197
330
18A
100
AcDbEntity
  8
BLOCKS
100
AcDbEllipse
 10
0.4513968307796722
 20
-0.0272696941060281
 30
0.0
 11
-0.0499999999999999
 21
0.0
 31
0.0
210
0.0
220
0.0
230
1.0
 40
0.0436193873653357
 41
4.712388980384689
 42
6.159210064364851
  0
ELLIPSE
  5
198
330
18A
100
AcDbEntity
  8
BLOCKS
100
AcDbEllipse
 10
0.4513968307796722
 20
-0.0185279859150705
 30
0.0
 11
0.0616666716289376
 21
0.0
 31
0.0
210
0.0
220
0.0
230
1.0
 40
0.0436193873653361
 41
1.570796326794896
 42
3.19983995830016
  0
ELLIPSE
  5
199
330
18A
100
AcDbEntity
  8
BLOCKS
100
AcDbEllipse
 10
0.4513968307796722
 20
-0.0185279859150705
 30
0.0
 11
-0.0669633073112532
 21
0.0
 31
0.0
210
0.0
220
0.0
230
1.0
 40
0.0436193873653361
 41
6.286238382466701
 42
6.741839628117014
  0
LINE
  5
19A
330
18A
100
AcDbEntity
  8
BLOCKS
100
AcDbLine
 10
0.400951347171831
 20
-0.0270000000000005
 30
0.0
 11
0.3898347393318818
 21
-0.0186845745727033
 31
0.0
  0
LINE
  5
19B
330
18A
100
AcDbEntity
  8
BLOCKS
100
AcDbLine
 10
0.3844338355596665
 20
-0.0185369036240627
 30
0.0
 11
0.3843993993581807
 21
-0.0180449140058295
 31
0.0
  0
LINE
  5
19C
330
18A
100
AcDbEntity
  8
BLOCKS
100
AcDbLine
 10
0.401780585401225
 20
-0.0270000000000005
 30
0.0
 11
0.4513968307796722
 21
-0.0270000000000005
 31
0.0
  0
LINE
  5
19D
330
18A
100
AcDbEntity
  8
BLOCKS
100
AcDbLine
 10
0.400951347171831
 20
-0.0270000000000005
 30
0.0
 11
0.401780585401225
 21
-0.0270000000000005
 31
0.0
  0
ARC
  5
19E
330
18A
100
AcDbEntity
  8
BLOCKS
100
AcDbCircle
 10
0.4439096112137396
 20
-0.2089035945011824
 30
0.0
 40
0.1999211380144872
100
AcDbArc
 50
87.85372157576466
 51
107.3176163597589
  0
ELLIPSE
  5
19F
330
18A
100
AcDbEntity
  8
BLOCKS
100
AcDbEllipse
 10
0.4513968307796722
 20
-0.0272696941060281
 30
0.0
 11
-0.0499999999999999
 21
0.0
 31
0.0
210
0.0
220
0.0
230
1.0
 40
0.0436193873653357
 41
3.265567896404525
 42
4.712388980384689
  0
ELLIPSE
  5
1A0
330
18A
100
AcDbEntity
  8
BLOCKS
100
AcDbEllipse
 10
0.4513968307796722
 20
-0.0185279859150705
 30
0.0
 11
0.0616666716289376
 21
0.0
 31
0.0
210
0.0
220
0.0
230
1.0
 40
0.0436193873653361
 41
6.22493800246921
 42
7.853981633974482
  0
LINE
  5
1A1
330
18A
100
AcDbEntity
  8
BLOCKS
100
AcDbLine
 10
0.4513968307796722
 20
-0.0270000000000005
 30
0.0
 11
0.5010130761581195
 21
-0.0270000000000005
 31
0.0
  0
ARC
  5
1A2
330
18A
100
AcDbEntity
  8
BLOCKS
100
AcDbCircle
 10
0.4588738398946521
 20
-0.2090544423025881
 30
0.0
 40
0.2000714982294976
100
AcDbArc
 50
72.69267719675304
 51
92.14173859213458
  0
ARC
  5
1A3
330
18A
100
AcDbEntity
  8
BLOCKS
100
AcDbCircle
 10
0.0091223409781287
 20
0.0320000000000005
 30
0.0
 40
0.008
100
AcDbArc
 50
90.0
 51
177.9999999999995
  0
ARC
  5
1A4
330
18A
100
AcDbEntity
  8
BLOCKS
100
AcDbCircle
 10
0.1142918328710311
 20
0.0092861559724929
 30
0.0
 40
0.0198386375607133
100
AcDbArc
 50
246.0767213879615
 51
268.4385025525373
  0
SPLINE
  5
1A5
330
18A
100
AcDbEntity
  8
BLOCKS
100
AcDbSpline
210
0.0
220
0.0
230
1.0
 70
    24
 71
     1
 72
    10
 73
     8
 74
     0
 42
0.0000000001
 43
0.0000000001
 40
0.0
 40
0.0
 40
2.500008936788384
 40
5.000017873576768
 40
7.500026810365152
 40
10.00003574715353
 40
12.74838184477333
 40
15.49672794239312
 40
18.24507404001292
 40
18.24507404001292
 10
0.1316941470623123
 20
-0.0109942488309707
 30
0.0
 10
0.1292336543105284
 20
-0.0109355818906283
 30
0.0
 10
0.1267737604757849
 20
-0.0108760394810315
 30
0.0
 10
0.1243144721664908
 20
-0.0108156016158978
 30
0.0
 10
0.121855795991039
 20
-0.0107542483089355
 30
0.0
 10
0.11915359763482
 20
-0.0106857203149753
 30
0.0
 10
0.1164521458513309
 20
-0.0106160356591363
 30
0.0
 10
0.1137514495427877
 20
-0.010545168370893
 30
0.0
  0
ARC
  5
1A6
330
18A
100
AcDbEntity
  8
BLOCKS
100
AcDbCircle
 10
0.119308245234995
 20
0.0190164544377149
 30
0.0
 40
0.0307738290132622
100
AcDbArc
 50
218.1660344306995
 51
244.8863710603373
  0
SPLINE
  5
1A7
330
18A
100
AcDbEntity
  8
BLOCKS
100
AcDbSpline
210
0.0
220
0.0
230
1.0
 70
    24
 71
     3
 72
     8
 73
     4
 74
     0
 42
0.0000000001
 43
0.0000000001
 40
0.0270158957187988
 40
0.0270158957187988
 40
0.0270158957187988
 40
0.0270158957187988
 40
0.027432049864707
 40
0.027432049864707
 40
0.027432049864707
 40
0.027432049864707
 10
0.1137512279706948
 20
-0.0105451143618552
 30
0.0
 10
0.1137933034529442
 20
-0.0105462254354598
 30
0.0
 10
0.1138358702427195
 20
-0.0105458579335391
 30
0.0
 10
0.1138774614556269
 20
-0.0105440753634798
 30
0.0
  0
SPLINE
  5
1A8
330
18A
100
AcDbEntity
  8
BLOCKS
100
AcDbSpline
210
0.0
220
0.0
230
1.0
 70
    24
 71
     3
 72
     8
 73
     4
 74
     0
 42
0.0000000001
 43
0.0000000001
 40
0.6617171488225335
 40
0.6617171488225335
 40
0.6617171488225335
 40
0.6617171488225335
 40
0.6798858947606224
 40
0.6798858947606224
 40
0.6798858947606224
 40
0.6798858947606224
 10
0.1316940237450535
 20
-0.0109942203030983
 30
0.0
 10
0.1257507871972598
 20
-0.0108535079693752
 30
0.0
 10
0.1198119205965622
 20
-0.0107039619971738
 30
0.0
 10
0.1138774614556269
 20
-0.0105440753634798
 30
0.0
  0
ARC
  5
1A9
330
18A
100
AcDbEntity
  8
BLOCKS
100
AcDbCircle
 10
0.1142529200699005
 20
0.0091584406691732
 30
0.0
 40
0.0197060931487682
100
AcDbArc
 50
246.0306926193293
 51
268.9082820441859
  0
LINE
  5
1AA
330
18A
100
AcDbEntity
  8
BLOCKS
100
AcDbLine
 10
0.0
 20
0.0
 30
0.0
 11
0.009993908270194
 21
0.0
 31
0.0
  0
LINE
  5
1AB
330
18A
100
AcDbEntity
  8
BLOCKS
100
AcDbLine
 10
0.0
 20
0.0
 30
0.0
 11
0.0011272143619772
 21
0.0322791959736196
 31
0.0
  0
ARC
  5
1AC
330
18A
100
AcDbEntity
  8
BLOCKS
100
AcDbCircle
 10
0.6170081181995829
 20
12.26590499552062
 30
0.0
 40
12.28648769017094
100
AcDbArc
 50
267.7362379288918
 51
268.915316986784
  0
ARC
  5
1AD
330
18A
100
AcDbEntity
  8
BLOCKS
100
AcDbCircle
 10
0.2840193289789136
 20
12.30846171380324
 30
0.0
 40
12.32906674077088
100
AcDbArc
 50
271.0891470969274
 51
272.2620947192004
  0
LINE
  5
1AE
330
18A
100
AcDbEntity
  8
BLOCKS
100
AcDbLine
 10
0.0091223409781287
 20
0.04
 30
0.0
 11
0.8936713205812157
 21
0.04
 31
0.0
  0
LINE
  5
1AF
330
18A
100
AcDbEntity
  8
BLOCKS
100
AcDbLine
 10
0.8927997532891504
 20
0.0
 30
0.0
 11
0.009993908270194
 21
0.0
 31
0.0
  0
ENDBLK
  5
1B2
330
18A
100
AcDbEntity
  8
0
100
AcDbBlockEnd
  0
ENDSEC
  0
SECTION
  2
ENTITIES
  0
INSERT
  5
A1
330
23
100
AcDbEntity
  8
0
100
AcDbBlockReference
  2
80011PL
 10
34.92786579511801
 20
185.6624619429117
 30
0.0
  0
INSERT
  5
156
330
23
100
AcDbEntity
  8
0
100
AcDbBlockReference
  2
80011CT
 10
35.57870771058841
 20
185.1419549060286
 30
0.0
  0
INSERT
  5
189
330
23
100
AcDbEntity
  8
0
100
AcDbBlockReference
  2
80011AL
 10
37.03353887157901
 20
185.1419549060286
 30
0.0
  0
INSERT
  5
1B3
330
23
100
AcDbEntity
  8
0
100
AcDbBlockReference
  2
80011AF
 10
38.48739056682234
 20
185.1419549060286
 30
0.0
  0
ENDSEC
  0
SECTION
  2
OBJECTS
  0
DICTIONARY
  5
C
330
0
100
AcDbDictionary
281
     1
  3
ACAD_COLOR
350
1C
  3
ACAD_GROUP
350
D
  3
ACAD_LAYOUT
350
1A
  3
ACAD_MATERIAL
350
1B
  3
ACAD_MLEADERSTYLE
350
212
  3
ACAD_MLINESTYLE
350
17
  3
ACAD_PLOTSETTINGS
350
19
  3
ACAD_PLOTSTYLENAME
350
E
  3
ACAD_SCALELIST
350
200
  3
ACAD_TABLESTYLE
350
1D
  3
ACAD_VISUALSTYLE
350
1EC
  3
ACDB_RECOMPOSE_DATA
350
221
  3
AcDbVariableDictionary
350
158
  3
DWGPROPS
350
222
  0
DICTIONARY
  5
216
330
10
100
AcDbDictionary
280
     1
281
     1
  3
ADSK_XREC_LAYER_RECONCILED
360
217
  0
DICTIONARY
  5
218
330
2F
100
AcDbDictionary
280
     1
281
     1
  3
ADSK_XREC_LAYER_RECONCILED
360
219
  0
DICTIONARY
  5
9D
330
31
100
AcDbDictionary
280
     1
281
     1
  0
DICTIONARY
  5
153
330
A2
100
AcDbDictionary
280
     1
281
     1
  0
DICTIONARY
  5
186
330
15A
100
AcDbDictionary
280
     1
281
     1
  0
DICTIONARY
  5
1B0
330
18A
100
AcDbDictionary
280
     1
281
     1
  0
DICTIONARY
  5
1C
102
{ACAD_REACTORS
330
C
102
}
330
C
100
AcDbDictionary
281
     1
  0
DICTIONARY
  5
D
102
{ACAD_REACTORS
330
C
102
}
330
C
100
AcDbDictionary
281
     1
  0
DICTIONARY
  5
1A
102
{ACAD_REACTORS
330
C
102
}
330
C
100
AcDbDictionary
281
     1
  3
Layout1
350
22
  3
Layout2
350
2A
  3
Model
350
26
  0
DICTIONARY
  5
1B
102
{ACAD_REACTORS
330
C
102
}
330
C
100
AcDbDictionary
281
     1
  3
ByBlock
350
1DC
  3
ByLayer
350
1D4
  3
Global
350
1E4
  0
DICTIONARY
  5
212
102
{ACAD_REACTORS
330
C
102
}
330
C
100
AcDbDictionary
281
     1
  3
Standard
350
213
  0
DICTIONARY
  5
17
102
{ACAD_REACTORS
330
C
102
}
330
C
100
AcDbDictionary
281
     1
  3
Standard
350
18
  0
DICTIONARY
  5
19
102
{ACAD_REACTORS
330
C
102
}
330
C
100
AcDbDictionary
281
     1
  0
ACDBDICTIONARYWDFLT
  5
E
102
{ACAD_REACTORS
330
C
102
}
330
C
100
AcDbDictionary
281
     1
  3
Normal
350
F
100
AcDbDictionaryWithDefault
340
F
  0
DICTIONARY
  5
200
102
{ACAD_REACTORS
330
C
102
}
330
C
100
AcDbDictionary
281
     1
  3
A0
350
201
  3
A1
350
202
  3
A2
350
203
  3
A3
350
204
  3
A4
350
205
  3
A5
350
206
  3
A6
350
207
  3
A7
350
208
  3
A8
350
209
  3
A9
350
20A
  3
B0
350
20B
  3
B1
350
20C
  3
B2
350
20D
  3
B3
350
20E
  3
B4
350
20F
  3
B5
350
210
  3
B6
350
211
  0
DICTIONARY
  5
1D
102
{ACAD_REACTORS
330
C
102
}
330
C
100
AcDbDictionary
281
     1
  3
Standard
350
1E
  0
DICTIONARY
  5
1EC
102
{ACAD_REACTORS
330
C
102
}
330
C
100
AcDbDictionary
281
     1
  3
2dWireframe
350
1F2
  3
3D Hidden
350
1F4
  3
3dWireframe
350
1F3
  3
Basic
350
1F1
  3
Brighten
350
1F8
  3
ColorChange
350
1FC
  3
Conceptual
350
1F5
  3
Dim
350
1F7
  3
EdgeColorOff
350
1FF
  3
Facepattern
350
1FB
  3
Flat
350
1ED
  3
FlatWithEdges
350
1EE
  3
Gouraud
350
1EF
  3
GouraudWithEdges
350
1F0
  3
JitterOff
350
1FD
  3
Linepattern
350
1FA
  3
OverhangOff
350
1FE
  3
Realistic
350
1F6
  3
Thicken
350
1F9
  0
XRECORD
  5
221
102
{ACAD_REACTORS
330
C
102
}
330
C
100
AcDbXrecord
280
     1
 90
        1
330
1E
  0
DICTIONARY
  5
158
102
{ACAD_REACTORS
330
C
102
}
330
C
100
AcDbDictionary
281
     1
  3
CANNOSCALE
350
21B
  3
CMLEADERSTYLE
350
21A
  3
CTABLESTYLE
350
159
  3
DIMASSOC
350
1BD
  3
HIDETEXT
350
1BC
  3
INDEXCTL
350
21D
  3
PROJECTNAME
350
1BE
  3
SORTENTS
350
21C
  3
XCLIPFRAME
350
21E
  0
XRECORD
  5
222
102
{ACAD_REACTORS
330
C
102
}
330
C
100
AcDbXrecord
280
     1
  1
DWGPROPS COOKIE
  2

  3

  4

  6

  7

  8
Julio
  9

300
=
301
=
302
=
303
=
304
=
305
=
306
=
307
=
308
=
309
=
 40
0.0038415046296296
 41
2453910.764054722
 42
2456185.495367836
  1

 90
        0
  0
XRECORD
  5
217
102
{ACAD_REACTORS
330
216
102
}
330
216
100
AcDbXrecord
280
     1
290
     1
  0
XRECORD
  5
219
102
{ACAD_REACTORS
330
218
102
}
330
218
100
AcDbXrecord
280
     1
290
     1
  0
LAYOUT
  5
22
102
{ACAD_XDICTIONARY
360
224
102
}
102
{ACAD_REACTORS
330
1A
102
}
330
1A
100
AcDbPlotSettings
  1

  2
HP DesignJet 500PS42+HPGL2 Card
  4

  6

 40
0.0
 41
0.0
 42
0.0
 43
0.0
 44
0.0
 45
0.0
 46
0.0
 47
0.0
 48
0.0
 49
0.0
140
0.0
141
0.0
142
1.0
143
1.0
 70
   688
 72
     0
 73
     0
 74
     5
  7
C:\Documents and Settings\Julio\Application Data\Autodesk\AutoCAD 2006\R16.2\enu\Plot Styles\sanindusa.ctb
 75
    16
147
1.0
148
0.0
149
0.0
100
AcDbLayout
  1
Layout1
 70
     1
 71
     1
 10
0.0
 20
0.0
 11
420.0
 21
297.0
 12
0.0
 22
0.0
 32
0.0
 14
1.000000000000000E+20
 24
1.000000000000000E+20
 34
1.000000000000000E+20
 15
-1.000000000000000E+20
 25
-1.000000000000000E+20
 35
-1.000000000000000E+20
146
0.0
 13
0.0
 23
0.0
 33
0.0
 16
1.0
 26
0.0
 36
0.0
 17
0.0
 27
1.0
 37
0.0
 76
     0
330
1F
  0
LAYOUT
  5
2A
102
{ACAD_XDICTIONARY
360
228
102
}
102
{ACAD_REACTORS
330
1A
102
}
330
1A
100
AcDbPlotSettings
  1

  2
HP DesignJet 500PS42+HPGL2 Card
  4

  6

 40
0.0
 41
0.0
 42
0.0
 43
0.0
 44
0.0
 45
0.0
 46
0.0
 47
0.0
 48
0.0
 49
0.0
140
0.0
141
0.0
142
1.0
143
1.0
 70
   688
 72
     0
 73
     0
 74
     5
  7
C:\Documents and Settings\Julio\Application Data\Autodesk\AutoCAD 2006\R16.2\enu\Plot Styles\sanindusa.ctb
 75
    16
147
1.0
148
0.0
149
0.0
100
AcDbLayout
  1
Layout2
 70
     1
 71
     2
 10
0.0
 20
0.0
 11
12.0
 21
9.0
 12
0.0
 22
0.0
 32
0.0
 14
0.0
 24
0.0
 34
0.0
 15
0.0
 25
0.0
 35
0.0
146
0.0
 13
0.0
 23
0.0
 33
0.0
 16
1.0
 26
0.0
 36
0.0
 17
0.0
 27
1.0
 37
0.0
 76
     0
330
27
  0
LAYOUT
  5
26
102
{ACAD_XDICTIONARY
360
226
102
}
102
{ACAD_REACTORS
330
1A
102
}
330
1A
100
AcDbPlotSettings
  1

  2
HP DesignJet 500PS42+HPGL2 Card
  4

  6

 40
0.0
 41
0.0
 42
0.0
 43
0.0
 44
0.0
 45
0.0
 46
0.0
 47
0.0
 48
0.0
 49
0.0
140
0.0
141
0.0
142
1.0
143
1.0
 70
  1712
 72
     0
 73
     0
 74
     0
  7
C:\Documents and Settings\Julio\Application Data\Autodesk\AutoCAD 2006\R16.2\enu\Plot Styles\sanindusa.ctb
 75
     0
147
1.0
148
0.0
149
0.0
100
AcDbLayout
  1
Model
 70
     1
 71
     0
 10
0.0
 20
0.0
 11
12.0
 21
9.0
 12
0.0
 22
0.0
 32
0.0
 14
0.0
 24
0.0
 34
0.0
 15
0.0
 25
0.0
 35
0.0
146
0.0
 13
0.0
 23
0.0
 33
0.0
 16
1.0
 26
0.0
 36
0.0
 17
0.0
 27
1.0
 37
0.0
 76
     0
330
23
331
1CB
  0
MATERIAL
  5
1DC
102
{ACAD_XDICTIONARY
360
1DD
102
}
102
{ACAD_REACTORS
330
1B
102
}
330
1B
100
AcDbMaterial
  1
ByBlock
 72
     0
 43
0.0008202099737533
 43
0.0
 43
0.0
 43
0.0
 43
0.0
 43
0.0008202099737533
 43
0.0
 43
0.0
 43
0.0
 43
0.0
 43
1.0
 43
0.0
 43
0.0
 43
0.0
 43
0.0
 43
1.0
 77
     0
 47
0.0008202099737533
 47
0.0
 47
0.0
 47
0.0
 47
0.0
 47
0.0008202099737533
 47
0.0
 47
0.0
 47
0.0
 47
0.0
 47
1.0
 47
0.0
 47
0.0
 47
0.0
 47
0.0
 47
1.0
171
     0
 49
0.0008202099737533
 49
0.0
 49
0.0
 49
0.0
 49
0.0
 49
0.0008202099737533
 49
0.0
 49
0.0
 49
0.0
 49
0.0
 49
1.0
 49
0.0
 49
0.0
 49
0.0
 49
0.0
 49
1.0
175
     0
142
0.0008202099737533
142
0.0
142
0.0
142
0.0
142
0.0
142
0.0008202099737533
142
0.0
142
0.0
142
0.0
142
0.0
142
1.0
142
0.0
142
0.0
142
0.0
142
0.0
142
1.0
179
     0
144
0.0008202099737533
144
0.0
144
0.0
144
0.0
144
0.0
144
0.0008202099737533
144
0.0
144
0.0
144
0.0
144
0.0
144
1.0
144
0.0
144
0.0
144
0.0
144
0.0
144
1.0
147
0.0008202099737533
147
0.0
147
0.0
147
0.0
147
0.0
147
0.0008202099737533
147
0.0
147
0.0
147
0.0
147
0.0
147
1.0
147
0.0
147
0.0
147
0.0
147
0.0
147
1.0
  0
MATERIAL
  5
1D4
102
{ACAD_XDICTIONARY
360
1D5
102
}
102
{ACAD_REACTORS
330
1B
102
}
330
1B
100
AcDbMaterial
  1
ByLayer
 72
     0
 43
0.0008202099737533
 43
0.0
 43
0.0
 43
0.0
 43
0.0
 43
0.0008202099737533
 43
0.0
 43
0.0
 43
0.0
 43
0.0
 43
1.0
 43
0.0
 43
0.0
 43
0.0
 43
0.0
 43
1.0
 77
     0
 47
0.0008202099737533
 47
0.0
 47
0.0
 47
0.0
 47
0.0
 47
0.0008202099737533
 47
0.0
 47
0.0
 47
0.0
 47
0.0
 47
1.0
 47
0.0
 47
0.0
 47
0.0
 47
0.0
 47
1.0
171
     0
 49
0.0008202099737533
 49
0.0
 49
0.0
 49
0.0
 49
0.0
 49
0.0008202099737533
 49
0.0
 49
0.0
 49
0.0
 49
0.0
 49
1.0
 49
0.0
 49
0.0
 49
0.0
 49
0.0
 49
1.0
175
     0
142
0.0008202099737533
142
0.0
142
0.0
142
0.0
142
0.0
142
0.0008202099737533
142
0.0
142
0.0
142
0.0
142
0.0
142
1.0
142
0.0
142
0.0
142
0.0
142
0.0
142
1.0
179
     0
144
0.0008202099737533
144
0.0
144
0.0
144
0.0
144
0.0
144
0.0008202099737533
144
0.0
144
0.0
144
0.0
144
0.0
144
1.0
144
0.0
144
0.0
144
0.0
144
0.0
144
1.0
147
0.0008202099737533
147
0.0
147
0.0
147
0.0
147
0.0
147
0.0008202099737533
147
0.0
147
0.0
147
0.0
147
0.0
147
1.0
147
0.0
147
0.0
147
0.0
147
0.0
147
1.0
  0
MATERIAL
  5
1E4
102
{ACAD_XDICTIONARY
360
1E5
102
}
102
{ACAD_REACTORS
330
1B
102
}
330
1B
100
AcDbMaterial
  1
Global
 72
     0
 43
0.0008202099737533
 43
0.0
 43
0.0
 43
0.0
 43
0.0
 43
0.0008202099737533
 43
0.0
 43
0.0
 43
0.0
 43
0.0
 43
1.0
 43
0.0
 43
0.0
 43
0.0
 43
0.0
 43
1.0
 77
     0
 47
0.0008202099737533
 47
0.0
 47
0.0
 47
0.0
 47
0.0
 47
0.0008202099737533
 47
0.0
 47
0.0
 47
0.0
 47
0.0
 47
1.0
 47
0.0
 47
0.0
 47
0.0
 47
0.0
 47
1.0
171
     0
 49
0.0008202099737533
 49
0.0
 49
0.0
 49
0.0
 49
0.0
 49
0.0008202099737533
 49
0.0
 49
0.0
 49
0.0
 49
0.0
 49
1.0
 49
0.0
 49
0.0
 49
0.0
 49
0.0
 49
1.0
175
     0
142
0.0008202099737533
142
0.0
142
0.0
142
0.0
142
0.0
142
0.0008202099737533
142
0.0
142
0.0
142
0.0
142
0.0
142
1.0
142
0.0
142
0.0
142
0.0
142
0.0
142
1.0
179
     0
144
0.0008202099737533
144
0.0
144
0.0
144
0.0
144
0.0
144
0.0008202099737533
144
0.0
144
0.0
144
0.0
144
0.0
144
1.0
144
0.0
144
0.0
144
0.0
144
0.0
144
1.0
147
0.0008202099737533
147
0.0
147
0.0
147
0.0
147
0.0
147
0.0008202099737533
147
0.0
147
0.0
147
0.0
147
0.0
147
1.0
147
0.0
147
0.0
147
0.0
147
0.0
147
1.0
  0
MLEADERSTYLE
  5
213
102
{ACAD_REACTORS
330
212
102
}
330
212
100
AcDbMLeaderStyle
170
     2
171
     1
172
     0
 90
        2
 40
0.0
 41
0.0
173
     1
 91
-1056964608
340
14
 92
       -2
290
     1
 42
2.0
291
     1
 43
0.36
  3
Standard
 44
4.0
300

342
11
174
     1
178
     6
175
     1
176
     0
 93
-1056964608
 45
4.0
292
     0
297
     0
 46
4.0
 94
-1056964608
 47
1.0
 49
1.0
140
1.0
293
     1
141
0.0
294
     1
177
     0
142
1.0
295
     0
296
     0
143
0.125
1001
ACAD_MLEADERVER
1070
     2
  0
MLINESTYLE
  5
18
102
{ACAD_REACTORS
330
17
102
}
330
17
100
AcDbMlineStyle
  2
STANDARD
 70
     0
  3

 62
   256
 51
90.0
 52
90.0
 71
     2
 49
0.5
 62
   256
  6
BYLAYER
 49
-0.5
 62
   256
  6
BYLAYER
  0
ACDBPLACEHOLDER
  5
F
102
{ACAD_REACTORS
330
E
102
}
330
E
  0
SCALE
  5
201
102
{ACAD_REACTORS
330
200
102
}
330
200
100
AcDbScale
 70
     0
300
1:1
140
1.0
141
1.0
290
     1
  0
SCALE
  5
202
102
{ACAD_REACTORS
330
200
102
}
330
200
100
AcDbScale
 70
     0
300
1:2
140
1.0
141
2.0
290
     0
  0
SCALE
  5
203
102
{ACAD_REACTORS
330
200
102
}
330
200
100
AcDbScale
 70
     0
300
1:4
140
1.0
141
4.0
290
     0
  0
SCALE
  5
204
102
{ACAD_REACTORS
330
200
102
}
330
200
100
AcDbScale
 70
     0
300
1:5
140
1.0
141
5.0
290
     0
  0
SCALE
  5
205
102
{ACAD_REACTORS
330
200
102
}
330
200
100
AcDbScale
 70
     0
300
1:8
140
1.0
141
8.0
290
     0
  0
SCALE
  5
206
102
{ACAD_REACTORS
330
200
102
}
330
200
100
AcDbScale
 70
     0
300
1:10
140
1.0
141
10.0
290
     0
  0
SCALE
  5
207
102
{ACAD_REACTORS
330
200
102
}
330
200
100
AcDbScale
 70
     0
300
1:16
140
1.0
141
16.0
290
     0
  0
SCALE
  5
208
102
{ACAD_REACTORS
330
200
102
}
330
200
100
AcDbScale
 70
     0
300
1:20
140
1.0
141
20.0
290
     0
  0
SCALE
  5
209
102
{ACAD_REACTORS
330
200
102
}
330
200
100
AcDbScale
 70
     0
300
1:30
140
1.0
141
30.0
290
     0
  0
SCALE
  5
20A
102
{ACAD_REACTORS
330
200
102
}
330
200
100
AcDbScale
 70
     0
300
1:40
140
1.0
141
40.0
290
     0
  0
SCALE
  5
20B
102
{ACAD_REACTORS
330
200
102
}
330
200
100
AcDbScale
 70
     0
300
1:50
140
1.0
141
50.0
290
     0
  0
SCALE
  5
20C
102
{ACAD_REACTORS
330
200
102
}
330
200
100
AcDbScale
 70
     0
300
1:100
140
1.0
141
100.0
290
     0
  0
SCALE
  5
20D
102
{ACAD_REACTORS
330
200
102
}
330
200
100
AcDbScale
 70
     0
300
2:1
140
2.0
141
1.0
290
     0
  0
SCALE
  5
20E
102
{ACAD_REACTORS
330
200
102
}
330
200
100
AcDbScale
 70
     0
300
4:1
140
4.0
141
1.0
290
     0
  0
SCALE
  5
20F
102
{ACAD_REACTORS
330
200
102
}
330
200
100
AcDbScale
 70
     0
300
8:1
140
8.0
141
1.0
290
     0
  0
SCALE
  5
210
102
{ACAD_REACTORS
330
200
102
}
330
200
100
AcDbScale
 70
     0
300
10:1
140
10.0
141
1.0
290
     0
  0
SCALE
  5
211
102
{ACAD_REACTORS
330
200
102
}
330
200
100
AcDbScale
 70
     0
300
100:1
140
100.0
141
1.0
290
     0
  0
TABLESTYLE
  5
1E
102
{ACAD_XDICTIONARY
360
21F
102
}
102
{ACAD_REACTORS
330
1D
102
}
330
1D
100
AcDbTableStyle
  3
Standard
 70
     0
 71
     0
 40
1.5
 41
1.5
280
     0
281
     0
  7
Standard
140
4.5
170
     2
 62
     0
 63
     7
283
     0
274
    -2
284
     1
 64
     0
275
    -2
285
     1
 65
     0
276
    -2
286
     1
 66
     0
277
    -2
287
     1
 67
     0
278
    -2
288
     1
 68
     0
279
    -2
289
     1
 69
     0
  7
Standard
140
6.0
170
     5
 62
     0
 63
     7
283
     0
274
    -2
284
     1
 64
     0
275
    -2
285
     1
 65
     0
276
    -2
286
     1
 66
     0
277
    -2
287
     1
 67
     0
278
    -2
288
     1
 68
     0
279
    -2
289
     1
 69
     0
  7
Standard
140
4.5
170
     5
 62
     0
 63
     7
283
     0
274
    -2
284
     1
 64
     0
275
    -2
285
     1
 65
     0
276
    -2
286
     1
 66
     0
277
    -2
287
     1
 67
     0
278
    -2
288
     1
 68
     0
279
    -2
289
     1
 69
     0
  0
VISUALSTYLE
  5
1F2
102
{ACAD_XDICTIONARY
360
237
102
}
102
{ACAD_REACTORS
330
1EC
102
}
330
1EC
100
AcDbVisualStyle
  2
2dWireframe
 70
     4
 71
     0
 72
     2
 73
     0
 90
        0
 40
-0.6
 41
-30.0
 62
     5
 63
     7
 74
     1
 91
        4
 64
     7
 65
   257
 75
     1
175
     1
 42
1.0
 92
        0
 66
   257
 43
1.0
 76
     1
 77
     6
 78
     2
 67
     7
 79
     5
170
     0
171
     0
290
     0
174
     0
 93
        1
 44
0.0
173
     0
291
     0
 45
0.0
1001
ACAD
1000
AcDbSavedByObjectVersion
1070
     0
  0
VISUALSTYLE
  5
1F4
102
{ACAD_XDICTIONARY
360
23B
102
}
102
{ACAD_REACTORS
330
1EC
102
}
330
1EC
100
AcDbVisualStyle
  2
3D Hidden
 70
     6
 71
     1
 72
     2
 73
     2
 90
        0
 40
-0.6
 41
-30.0
 62
     5
 63
     7
 74
     2
 91
        2
 64
     7
 65
   257
 75
     2
175
     1
 42
179.0
 92
        0
 66
   257
 43
1.0
 76
     1
 77
     6
 78
     2
 67
     7
 79
     3
170
     0
171
     0
290
     0
174
     0
 93
        1
 44
0.0
173
     0
291
     0
 45
0.0
1001
ACAD
1000
AcDbSavedByObjectVersion
1070
     0
  0
VISUALSTYLE
  5
1F3
102
{ACAD_XDICTIONARY
360
239
102
}
102
{ACAD_REACTORS
330
1EC
102
}
330
1EC
100
AcDbVisualStyle
  2
3dWireframe
 70
     5
 71
     0
 72
     2
 73
     0
 90
        0
 40
-0.6
 41
-30.0
 62
     5
 63
     7
 74
     1
 91
        4
 64
     7
 65
   257
 75
     1
175
     1
 42
1.0
 92
        0
 66
   257
 43
1.0
 76
     1
 77
     6
 78
     2
 67
     7
 79
     5
170
     0
171
     0
290
     0
174
     0
 93
        1
 44
0.0
173
     0
291
     0
 45
0.0
1001
ACAD
1000
AcDbSavedByObjectVersion
1070
     0
  0
VISUALSTYLE
  5
1F1
102
{ACAD_XDICTIONARY
360
235
102
}
102
{ACAD_REACTORS
330
1EC
102
}
330
1EC
100
AcDbVisualStyle
  2
Basic
 70
     7
 71
     1
 72
     0
 73
     1
 90
        0
 40
-0.6
 41
-30.0
 62
     5
 63
     7
 74
     0
 91
        4
 64
     7
 65
   257
 75
     1
175
     1
 42
1.0
 92
        8
 66
     7
 43
1.0
 76
     1
 77
     6
 78
     2
 67
     7
 79
     5
170
     0
171
     0
290
     0
174
     0
 93
        1
 44
0.0
173
     0
291
     1
 45
0.0
1001
ACAD
1000
AcDbSavedByObjectVersion
1070
     0
  0
VISUALSTYLE
  5
1F8
102
{ACAD_XDICTIONARY
360
243
102
}
102
{ACAD_REACTORS
330
1EC
102
}
330
1EC
100
AcDbVisualStyle
  2
Brighten
 70
    12
 71
     2
 72
     2
 73
     0
 90
        0
 40
-0.6
 41
-30.0
 62
     5
 63
     7
 74
     1
 91
        4
 64
     7
 65
   257
 75
     1
175
     1
 42
1.0
 92
        8
 66
     7
 43
1.0
 76
     1
 77
     6
 78
     2
 67
     7
 79
     5
170
     0
171
     0
290
     0
174
     0
 93
        1
 44
50.0
173
     0
291
     1
 45
0.0
1001
ACAD
1000
AcDbSavedByObjectVersion
1070
     0
  0
VISUALSTYLE
  5
1FC
102
{ACAD_XDICTIONARY
360
24B
102
}
102
{ACAD_REACTORS
330
1EC
102
}
330
1EC
100
AcDbVisualStyle
  2
ColorChange
 70
    16
 71
     2
 72
     2
 73
     3
 90
        0
 40
-0.6
 41
-30.0
 62
     5
 63
     8
 74
     1
 91
        4
 64
     7
 65
   257
 75
     1
175
     1
 42
1.0
 92
        8
 66
     8
 43
1.0
 76
     1
 77
     6
 78
     2
 67
     7
 79
     5
170
     0
171
     0
290
     0
174
     0
 93
        1
 44
0.0
173
     0
291
     1
 45
0.0
1001
ACAD
1000
AcDbSavedByObjectVersion
1070
     0
  0
VISUALSTYLE
  5
1F5
102
{ACAD_XDICTIONARY
360
23D
102
}
102
{ACAD_REACTORS
330
1EC
102
}
330
1EC
100
AcDbVisualStyle
  2
Conceptual
 70
     9
 71
     3
 72
     2
 73
     0
 90
        0
 40
-0.6
 41
-30.0
 62
     5
 63
     7
 74
     2
 91
        2
 64
     7
 65
   257
 75
     1
175
     1
 42
179.0
 92
        8
 66
     7
 43
1.0
 76
     1
 77
     6
 78
     2
 67
     7
 79
     3
170
     0
171
     0
290
     0
174
     0
 93
        1
 44
0.0
173
     0
291
     0
 45
0.0
1001
ACAD
1000
AcDbSavedByObjectVersion
1070
     0
  0
VISUALSTYLE
  5
1F7
102
{ACAD_XDICTIONARY
360
241
102
}
102
{ACAD_REACTORS
330
1EC
102
}
330
1EC
100
AcDbVisualStyle
  2
Dim
 70
    11
 71
     2
 72
     2
 73
     0
 90
        0
 40
-0.6
 41
-30.0
 62
     5
 63
     7
 74
     1
 91
        4
 64
     7
 65
   257
 75
     1
175
     1
 42
1.0
 92
        8
 66
     7
 43
1.0
 76
     1
 77
     6
 78
     2
 67
     7
 79
     5
170
     0
171
     0
290
     0
174
     0
 93
        1
 44
-50.0
173
     0
291
     1
 45
0.0
1001
ACAD
1000
AcDbSavedByObjectVersion
1070
     0
  0
VISUALSTYLE
  5
1FF
102
{ACAD_XDICTIONARY
360
251
102
}
102
{ACAD_REACTORS
330
1EC
102
}
330
1EC
100
AcDbVisualStyle
  2
EdgeColorOff
 70
    22
 71
     2
 72
     2
 73
     0
 90
        0
 40
-0.6
 41
-30.0
 62
     5
 63
     7
 74
     1
 91
        4
 64
     7
 65
   257
 75
     1
175
     1
 42
1.0
 92
        8
 66
     7
 43
1.0
 76
     1
 77
     6
 78
     2
 67
     7
 79
     5
170
     0
171
     0
290
     0
174
     0
 93
        1
 44
0.0
173
     0
291
     1
 45
0.0
1001
ACAD
1000
AcDbSavedByObjectVersion
1070
     0
  0
VISUALSTYLE
  5
1FB
102
{ACAD_XDICTIONARY
360
249
102
}
102
{ACAD_REACTORS
330
1EC
102
}
330
1EC
100
AcDbVisualStyle
  2
Facepattern
 70
    15
 71
     2
 72
     2
 73
     0
 90
        0
 40
-0.6
 41
-30.0
 62
     5
 63
     7
 74
     1
 91
        4
 64
     7
 65
   257
 75
     1
175
     1
 42
1.0
 92
        8
 66
     7
 43
1.0
 76
     1
 77
     6
 78
     2
 67
     7
 79
     5
170
     0
171
     0
290
     0
174
     0
 93
        1
 44
0.0
173
     0
291
     1
 45
0.0
1001
ACAD
1000
AcDbSavedByObjectVersion
1070
     0
  0
VISUALSTYLE
  5
1ED
102
{ACAD_XDICTIONARY
360
22D
102
}
102
{ACAD_REACTORS
330
1EC
102
}
330
1EC
100
AcDbVisualStyle
  2
Flat
 70
     0
 71
     2
 72
     1
 73
     1
 90
        2
 40
-0.6
 41
30.0
 62
     5
 63
     7
 74
     0
 91
        4
 64
     7
 65
   257
 75
     1
175
     1
 42
1.0
 92
        8
 66
     7
 43
1.0
 76
     1
 77
     6
 78
     2
 67
     7
 79
     5
170
     0
171
     0
290
     0
174
     0
 93
       13
 44
0.0
173
     0
291
     1
 45
0.0
1001
ACAD
1000
AcDbSavedByObjectVersion
1070
     0
  0
VISUALSTYLE
  5
1EE
102
{ACAD_XDICTIONARY
360
22F
102
}
102
{ACAD_REACTORS
330
1EC
102
}
330
1EC
100
AcDbVisualStyle
  2
FlatWithEdges
 70
     1
 71
     2
 72
     1
 73
     1
 90
        2
 40
-0.6
 41
30.0
 62
     5
 63
     7
 74
     1
 91
        4
 64
     7
 65
   257
 75
     1
175
     1
 42
1.0
 92
        0
 66
   257
 43
1.0
 76
     1
 77
     6
 78
     2
 67
     7
 79
     5
170
     0
171
     0
290
     0
174
     0
 93
       13
 44
0.0
173
     0
291
     1
 45
0.0
1001
ACAD
1000
AcDbSavedByObjectVersion
1070
     0
  0
VISUALSTYLE
  5
1EF
102
{ACAD_XDICTIONARY
360
231
102
}
102
{ACAD_REACTORS
330
1EC
102
}
330
1EC
100
AcDbVisualStyle
  2
Gouraud
 70
     2
 71
     2
 72
     2
 73
     1
 90
        2
 40
-0.6
 41
30.0
 62
     5
 63
     7
 74
     0
 91
        4
 64
     7
 65
   257
 75
     1
175
     1
 42
1.0
 92
        0
 66
     7
 43
1.0
 76
     1
 77
     6
 78
     2
 67
     7
 79
     5
170
     0
171
     0
290
     0
174
     0
 93
       13
 44
0.0
173
     0
291
     1
 45
0.0
1001
ACAD
1000
AcDbSavedByObjectVersion
1070
     0
  0
VISUALSTYLE
  5
1F0
102
{ACAD_XDICTIONARY
360
233
102
}
102
{ACAD_REACTORS
330
1EC
102
}
330
1EC
100
AcDbVisualStyle
  2
GouraudWithEdges
 70
     3
 71
     2
 72
     2
 73
     1
 90
        2
 40
-0.6
 41
30.0
 62
     5
 63
     7
 74
     1
 91
        4
 64
     7
 65
   257
 75
     1
175
     1
 42
1.0
 92
        0
 66
   257
 43
1.0
 76
     1
 77
     6
 78
     2
 67
     7
 79
     5
170
     0
171
     0
290
     0
174
     0
 93
       13
 44
0.0
173
     0
291
     1
 45
0.0
1001
ACAD
1000
AcDbSavedByObjectVersion
1070
     0
  0
VISUALSTYLE
  5
1FD
102
{ACAD_XDICTIONARY
360
24D
102
}
102
{ACAD_REACTORS
330
1EC
102
}
330
1EC
100
AcDbVisualStyle
  2
JitterOff
 70
    20
 71
     2
 72
     2
 73
     0
 90
        0
 40
-0.6
 41
-30.0
 62
     5
 63
     7
 74
     1
 91
        4
 64
     7
 65
   257
 75
     1
175
     1
 42
1.0
 92
       10
 66
     7
 43
1.0
 76
     1
 77
     6
 78
     2
 67
     7
 79
     5
170
     0
171
     0
290
     0
174
     0
 93
        1
 44
0.0
173
     0
291
     1
 45
0.0
1001
ACAD
1000
AcDbSavedByObjectVersion
1070
     0
  0
VISUALSTYLE
  5
1FA
102
{ACAD_XDICTIONARY
360
247
102
}
102
{ACAD_REACTORS
330
1EC
102
}
330
1EC
100
AcDbVisualStyle
  2
Linepattern
 70
    14
 71
     2
 72
     2
 73
     0
 90
        0
 40
-0.6
 41
-30.0
 62
     5
 63
     7
 74
     1
 91
        4
 64
     7
 65
   257
 75
     7
175
     7
 42
1.0
 92
        8
 66
     7
 43
1.0
 76
     1
 77
     6
 78
     2
 67
     7
 79
     5
170
     0
171
     0
290
     0
174
     0
 93
        1
 44
0.0
173
     0
291
     1
 45
0.0
1001
ACAD
1000
AcDbSavedByObjectVersion
1070
     0
  0
VISUALSTYLE
  5
1FE
102
{ACAD_XDICTIONARY
360
24F
102
}
102
{ACAD_REACTORS
330
1EC
102
}
330
1EC
100
AcDbVisualStyle
  2
OverhangOff
 70
    21
 71
     2
 72
     2
 73
     0
 90
        0
 40
-0.6
 41
-30.0
 62
     5
 63
     7
 74
     1
 91
        4
 64
     7
 65
   257
 75
     1
175
     1
 42
1.0
 92
        9
 66
     7
 43
1.0
 76
     1
 77
     6
 78
     2
 67
     7
 79
     5
170
     0
171
     0
290
     0
174
     0
 93
        1
 44
0.0
173
     0
291
     1
 45
0.0
1001
ACAD
1000
AcDbSavedByObjectVersion
1070
     0
  0
VISUALSTYLE
  5
1F6
102
{ACAD_XDICTIONARY
360
23F
102
}
102
{ACAD_REACTORS
330
1EC
102
}
330
1EC
100
AcDbVisualStyle
  2
Realistic
 70
     8
 71
     2
 72
     2
 73
     0
 90
        0
 40
-0.6
 41
-30.0
 62
     5
 63
     7
 74
     1
 91
        0
 64
     7
 65
   257
 75
     1
175
     1
 42
1.0
 92
        8
 66
     8
 43
1.0
 76
     1
 77
     6
 78
     2
 67
     7
 79
     5
170
     0
171
     0
290
     0
174
     0
 93
       13
 44
0.0
173
     0
291
     0
 45
0.0
1001
ACAD
1000
AcDbSavedByObjectVersion
1070
     0
  0
VISUALSTYLE
  5
1F9
102
{ACAD_XDICTIONARY
360
245
102
}
102
{ACAD_REACTORS
330
1EC
102
}
330
1EC
100
AcDbVisualStyle
  2
Thicken
 70
    13
 71
     2
 72
     2
 73
     0
 90
        0
 40
-0.6
 41
-30.0
 62
     5
 63
     7
 74
     1
 91
        4
 64
     7
 65
   257
 75
     1
175
     1
 42
1.0
 92
       12
 66
     7
 43
1.0
 76
     1
 77
     6
 78
     2
 67
     7
 79
     5
170
     0
171
     0
290
     0
174
     0
 93
        1
 44
0.0
173
     0
291
     1
 45
0.0
1001
ACAD
1000
AcDbSavedByObjectVersion
1070
     0
  0
DICTIONARYVAR
  5
21B
102
{ACAD_REACTORS
330
158
102
}
330
158
100
DictionaryVariables
280
     0
  1
1:1
  0
DICTIONARYVAR
  5
21A
102
{ACAD_REACTORS
330
158
102
}
330
158
100
DictionaryVariables
280
     0
  1
STANDARD
  0
DICTIONARYVAR
  5
159
102
{ACAD_REACTORS
330
158
102
}
330
158
100
DictionaryVariables
280
     0
  1
STANDARD
  0
DICTIONARYVAR
  5
1BD
102
{ACAD_REACTORS
330
158
102
}
330
158
100
DictionaryVariables
280
     0
  1
2
  0
DICTIONARYVAR
  5
1BC
102
{ACAD_REACTORS
330
158
102
}
330
158
100
DictionaryVariables
280
     0
  1
1
  0
DICTIONARYVAR
  5
21D
102
{ACAD_REACTORS
330
158
102
}
330
158
100
DictionaryVariables
280
     0
  1
0
  0
DICTIONARYVAR
  5
1BE
102
{ACAD_REACTORS
330
158
102
}
330
158
100
DictionaryVariables
280
     0
  1

  0
DICTIONARYVAR
  5
21C
102
{ACAD_REACTORS
330
158
102
}
330
158
100
DictionaryVariables
280
     0
  1
127
  0
DICTIONARYVAR
  5
21E
102
{ACAD_REACTORS
330
158
102
}
330
158
100
DictionaryVariables
280
     0
  1
2
  0
DICTIONARY
  5
224
330
22
100
AcDbDictionary
280
     1
281
     1
  3
ACAD_XREC_ROUNDTRIP
360
225
  0
DICTIONARY
  5
228
330
2A
100
AcDbDictionary
280
     1
281
     1
  3
ACAD_XREC_ROUNDTRIP
360
229
  0
DICTIONARY
  5
226
330
26
100
AcDbDictionary
280
     1
281
     1
  3
ACAD_XREC_ROUNDTRIP
360
227
  0
DICTIONARY
  5
1DD
330
1DC
100
AcDbDictionary
280
     1
281
     1
  3
ACAD_XREC_ROUNDTRIP
360
22B
  3
BUMPTILE
360
1DF
  3
DIFFUSETILE
360
1DE
  3
OPACITYTILE
360
1E2
  3
REFLECTIONTILE
360
1E1
  3
REFRACTIONTILE
360
1E3
  3
SPECULARTILE
360
1E0
  0
DICTIONARY
  5
1D5
330
1D4
100
AcDbDictionary
280
     1
281
     1
  3
ACAD_XREC_ROUNDTRIP
360
22A
  3
BUMPTILE
360
1D7
  3
DIFFUSETILE
360
1D6
  3
OPACITYTILE
360
1DA
  3
REFLECTIONTILE
360
1D9
  3
REFRACTIONTILE
360
1DB
  3
SPECULARTILE
360
1D8
  0
DICTIONARY
  5
1E5
330
1E4
100
AcDbDictionary
280
     1
281
     1
  3
ACAD_XREC_ROUNDTRIP
360
22C
  3
BUMPTILE
360
1E7
  3
DIFFUSETILE
360
1E6
  3
OPACITYTILE
360
1EA
  3
REFLECTIONTILE
360
1E9
  3
REFRACTIONTILE
360
1EB
  3
SPECULARTILE
360
1E8
  0
DICTIONARY
  5
21F
330
1E
100
AcDbDictionary
280
     1
281
     1
  3
ACAD_ROUNDTRIP_2008_TABLESTYLE_CELLSTYLEMAP
360
220
  3
ACAD_XREC_ROUNDTRIP
360
223
  0
DICTIONARY
  5
237
330
1F2
100
AcDbDictionary
280
     1
281
     1
  3
ACAD_XREC_ROUNDTRIP
360
238
  0
DICTIONARY
  5
23B
330
1F4
100
AcDbDictionary
280
     1
281
     1
  3
ACAD_XREC_ROUNDTRIP
360
23C
  0
DICTIONARY
  5
239
330
1F3
100
AcDbDictionary
280
     1
281
     1
  3
ACAD_XREC_ROUNDTRIP
360
23A
  0
DICTIONARY
  5
235
330
1F1
100
AcDbDictionary
280
     1
281
     1
  3
ACAD_XREC_ROUNDTRIP
360
236
  0
DICTIONARY
  5
243
330
1F8
100
AcDbDictionary
280
     1
281
     1
  3
ACAD_XREC_ROUNDTRIP
360
244
  0
DICTIONARY
  5
24B
330
1FC
100
AcDbDictionary
280
     1
281
     1
  3
ACAD_XREC_ROUNDTRIP
360
24C
  0
DICTIONARY
  5
23D
330
1F5
100
AcDbDictionary
280
     1
281
     1
  3
ACAD_XREC_ROUNDTRIP
360
23E
  0
DICTIONARY
  5
241
330
1F7
100
AcDbDictionary
280
     1
281
     1
  3
ACAD_XREC_ROUNDTRIP
360
242
  0
DICTIONARY
  5
251
330
1FF
100
AcDbDictionary
280
     1
281
     1
  3
ACAD_XREC_ROUNDTRIP
360
252
  0
DICTIONARY
  5
249
330
1FB
100
AcDbDictionary
280
     1
281
     1
  3
ACAD_XREC_ROUNDTRIP
360
24A
  0
DICTIONARY
  5
22D
330
1ED
100
AcDbDictionary
280
     1
281
     1
  3
ACAD_XREC_ROUNDTRIP
360
22E
  0
DICTIONARY
  5
22F
330
1EE
100
AcDbDictionary
280
     1
281
     1
  3
ACAD_XREC_ROUNDTRIP
360
230
  0
DICTIONARY
  5
231
330
1EF
100
AcDbDictionary
280
     1
281
     1
  3
ACAD_XREC_ROUNDTRIP
360
232
  0
DICTIONARY
  5
233
330
1F0
100
AcDbDictionary
280
     1
281
     1
  3
ACAD_XREC_ROUNDTRIP
360
234
  0
DICTIONARY
  5
24D
330
1FD
100
AcDbDictionary
280
     1
281
     1
  3
ACAD_XREC_ROUNDTRIP
360
24E
  0
DICTIONARY
  5
247
330
1FA
100
AcDbDictionary
280
     1
281
     1
  3
ACAD_XREC_ROUNDTRIP
360
248
  0
DICTIONARY
  5
24F
330
1FE
100
AcDbDictionary
280
     1
281
     1
  3
ACAD_XREC_ROUNDTRIP
360
250
  0
DICTIONARY
  5
23F
330
1F6
100
AcDbDictionary
280
     1
281
     1
  3
ACAD_XREC_ROUNDTRIP
360
240
  0
DICTIONARY
  5
245
330
1F9
100
AcDbDictionary
280
     1
281
     1
  3
ACAD_XREC_ROUNDTRIP
360
246
  0
XRECORD
  5
225
102
{ACAD_REACTORS
330
224
102
}
330
224
100
AcDbXrecord
280
     1
102
SHADEPLOT
 70
     0
102
SHADEPLOTRESLEVEL
 70
     2
102
SHADEPLOTCUSTOMDPI
 70
   300
  0
XRECORD
  5
229
102
{ACAD_REACTORS
330
228
102
}
330
228
100
AcDbXrecord
280
     1
102
SHADEPLOT
 70
     0
102
SHADEPLOTRESLEVEL
 70
     2
102
SHADEPLOTCUSTOMDPI
 70
   300
  0
XRECORD
  5
227
102
{ACAD_REACTORS
330
226
102
}
330
226
100
AcDbXrecord
280
     1
102
SHADEPLOT
 70
     0
102
SHADEPLOTRESLEVEL
 70
     2
102
SHADEPLOTCUSTOMDPI
 70
   300
  0
XRECORD
  5
22B
102
{ACAD_REACTORS
330
1DD
102
}
330
1DD
100
AcDbXrecord
280
     1
102
MATERIAL
148
0.0
149
0.0
149
0.0
 93
        0
 94
      127
282
     0
 72
     0
 77
     0
171
     0
175
     0
179
     0
273
     0
  0
XRECORD
  5
1DF
102
{ACAD_REACTORS
330
1DD
102
}
330
1DD
100
AcDbXrecord
280
     1
270
     1
271
     1
  0
XRECORD
  5
1DE
102
{ACAD_REACTORS
330
1DD
102
}
330
1DD
100
AcDbXrecord
280
     1
270
     1
271
     1
  0
XRECORD
  5
1E2
102
{ACAD_REACTORS
330
1DD
102
}
330
1DD
100
AcDbXrecord
280
     1
270
     1
271
     1
  0
XRECORD
  5
1E1
102
{ACAD_REACTORS
330
1DD
102
}
330
1DD
100
AcDbXrecord
280
     1
270
     1
271
     1
  0
XRECORD
  5
1E3
102
{ACAD_REACTORS
330
1DD
102
}
330
1DD
100
AcDbXrecord
280
     1
270
     1
271
     1
  0
XRECORD
  5
1E0
102
{ACAD_REACTORS
330
1DD
102
}
330
1DD
100
AcDbXrecord
280
     1
270
     1
271
     1
  0
XRECORD
  5
22A
102
{ACAD_REACTORS
330
1D5
102
}
330
1D5
100
AcDbXrecord
280
     1
102
MATERIAL
148
0.0
149
0.0
149
0.0
 93
        0
 94
      127
282
     0
 72
     0
 77
     0
171
     0
175
     0
179
     0
273
     0
  0
XRECORD
  5
1D7
102
{ACAD_REACTORS
330
1D5
102
}
330
1D5
100
AcDbXrecord
280
     1
270
     1
271
     1
  0
XRECORD
  5
1D6
102
{ACAD_REACTORS
330
1D5
102
}
330
1D5
100
AcDbXrecord
280
     1
270
     1
271
     1
  0
XRECORD
  5
1DA
102
{ACAD_REACTORS
330
1D5
102
}
330
1D5
100
AcDbXrecord
280
     1
270
     1
271
     1
  0
XRECORD
  5
1D9
102
{ACAD_REACTORS
330
1D5
102
}
330
1D5
100
AcDbXrecord
280
     1
270
     1
271
     1
  0
XRECORD
  5
1DB
102
{ACAD_REACTORS
330
1D5
102
}
330
1D5
100
AcDbXrecord
280
     1
270
     1
271
     1
  0
XRECORD
  5
1D8
102
{ACAD_REACTORS
330
1D5
102
}
330
1D5
100
AcDbXrecord
280
     1
270
     1
271
     1
  0
XRECORD
  5
22C
102
{ACAD_REACTORS
330
1E5
102
}
330
1E5
100
AcDbXrecord
280
     1
102
MATERIAL
148
0.0
149
0.0
149
0.0
 93
        0
 94
      127
282
     0
 72
     0
 77
     0
171
     0
175
     0
179
     0
273
     0
  0
XRECORD
  5
1E7
102
{ACAD_REACTORS
330
1E5
102
}
330
1E5
100
AcDbXrecord
280
     1
270
     1
271
     1
  0
XRECORD
  5
1E6
102
{ACAD_REACTORS
330
1E5
102
}
330
1E5
100
AcDbXrecord
280
     1
270
     1
271
     1
  0
XRECORD
  5
1EA
102
{ACAD_REACTORS
330
1E5
102
}
330
1E5
100
AcDbXrecord
280
     1
270
     1
271
     1
  0
XRECORD
  5
1E9
102
{ACAD_REACTORS
330
1E5
102
}
330
1E5
100
AcDbXrecord
280
     1
270
     1
271
     1
  0
XRECORD
  5
1EB
102
{ACAD_REACTORS
330
1E5
102
}
330
1E5
100
AcDbXrecord
280
     1
270
     1
271
     1
  0
XRECORD
  5
1E8
102
{ACAD_REACTORS
330
1E5
102
}
330
1E5
100
AcDbXrecord
280
     1
270
     1
271
     1
  0
CELLSTYLEMAP
  5
220
102
{ACAD_REACTORS
330
21F
102
}
330
21F
100
AcDbCellStyleMap
 90
        3
300
CELLSTYLE
  1
TABLEFORMAT_BEGIN
 90
        5
170
     1
 91
        0
 92
    32768
 62
   257
 93
        1
300
CONTENTFORMAT
  1
CONTENTFORMAT_BEGIN
 90
        0
 91
        0
 92
        4
 93
        0
300

 40
0.0
140
1.0
 94
        5
 62
     0
340
11
144
6.0
309
CONTENTFORMAT_END
171
     1
301
MARGIN
  1
CELLMARGIN_BEGIN
 40
1.5
 40
1.5
 40
1.5
 40
1.5
 40
0.18
 40
0.18
309
CELLMARGIN_END
 94
        6
 95
        1
302
GRIDFORMAT
  1
GRIDFORMAT_BEGIN
 90
        0
 91
        1
 62
     0
 92
       -2
340
0
 93
        0
 40
0.045
309
GRIDFORMAT_END
 95
        2
302
GRIDFORMAT
  1
GRIDFORMAT_BEGIN
 90
        0
 91
        1
 62
     0
 92
       -2
340
0
 93
        0
 40
0.045
309
GRIDFORMAT_END
 95
        4
302
GRIDFORMAT
  1
GRIDFORMAT_BEGIN
 90
        0
 91
        1
 62
     0
 92
       -2
340
0
 93
        0
 40
0.045
309
GRIDFORMAT_END
 95
        8
302
GRIDFORMAT
  1
GRIDFORMAT_BEGIN
 90
        0
 91
        1
 62
     0
 92
       -2
340
0
 93
        0
 40
0.045
309
GRIDFORMAT_END
 95
       16
302
GRIDFORMAT
  1
GRIDFORMAT_BEGIN
 90
        0
 91
        1
 62
     0
 92
       -2
340
0
 93
        0
 40
0.045
309
GRIDFORMAT_END
 95
       32
302
GRIDFORMAT
  1
GRIDFORMAT_BEGIN
 90
        0
 91
        1
 62
     0
 92
       -2
340
0
 93
        0
 40
0.045
309
GRIDFORMAT_END
309
TABLEFORMAT_END
  1
CELLSTYLE_BEGIN
 90
        1
 91
        1
300
_TITLE
309
CELLSTYLE_END
300
CELLSTYLE
  1
TABLEFORMAT_BEGIN
 90
        5
170
     1
 91
        0
 92
        0
 62
   257
 93
        1
300
CONTENTFORMAT
  1
CONTENTFORMAT_BEGIN
 90
        0
 91
        0
 92
        4
 93
        0
300

 40
0.0
140
1.0
 94
        5
 62
     0
340
11
144
4.5
309
CONTENTFORMAT_END
171
     1
301
MARGIN
  1
CELLMARGIN_BEGIN
 40
1.5
 40
1.5
 40
1.5
 40
1.5
 40
0.18
 40
0.18
309
CELLMARGIN_END
 94
        6
 95
        1
302
GRIDFORMAT
  1
GRIDFORMAT_BEGIN
 90
        0
 91
        1
 62
     0
 92
       -2
340
0
 93
        0
 40
0.045
309
GRIDFORMAT_END
 95
        2
302
GRIDFORMAT
  1
GRIDFORMAT_BEGIN
 90
        0
 91
        1
 62
     0
 92
       -2
340
0
 93
        0
 40
0.045
309
GRIDFORMAT_END
 95
        4
302
GRIDFORMAT
  1
GRIDFORMAT_BEGIN
 90
        0
 91
        1
 62
     0
 92
       -2
340
0
 93
        0
 40
0.045
309
GRIDFORMAT_END
 95
        8
302
GRIDFORMAT
  1
GRIDFORMAT_BEGIN
 90
        0
 91
        1
 62
     0
 92
       -2
340
0
 93
        0
 40
0.045
309
GRIDFORMAT_END
 95
       16
302
GRIDFORMAT
  1
GRIDFORMAT_BEGIN
 90
        0
 91
        1
 62
     0
 92
       -2
340
0
 93
        0
 40
0.045
309
GRIDFORMAT_END
 95
       32
302
GRIDFORMAT
  1
GRIDFORMAT_BEGIN
 90
        0
 91
        1
 62
     0
 92
       -2
340
0
 93
        0
 40
0.045
309
GRIDFORMAT_END
309
TABLEFORMAT_END
  1
CELLSTYLE_BEGIN
 90
        2
 91
        1
300
_HEADER
309
CELLSTYLE_END
300
CELLSTYLE
  1
TABLEFORMAT_BEGIN
 90
        5
170
     1
 91
        0
 92
        0
 62
   257
 93
        1
300
CONTENTFORMAT
  1
CONTENTFORMAT_BEGIN
 90
        0
 91
        0
 92
        4
 93
        0
300

 40
0.0
140
1.0
 94
        2
 62
     0
340
11
144
4.5
309
CONTENTFORMAT_END
171
     1
301
MARGIN
  1
CELLMARGIN_BEGIN
 40
1.5
 40
1.5
 40
1.5
 40
1.5
 40
0.18
 40
0.18
309
CELLMARGIN_END
 94
        6
 95
        1
302
GRIDFORMAT
  1
GRIDFORMAT_BEGIN
 90
        0
 91
        1
 62
     0
 92
       -2
340
0
 93
        0
 40
0.045
309
GRIDFORMAT_END
 95
        2
302
GRIDFORMAT
  1
GRIDFORMAT_BEGIN
 90
        0
 91
        1
 62
     0
 92
       -2
340
0
 93
        0
 40
0.045
309
GRIDFORMAT_END
 95
        4
302
GRIDFORMAT
  1
GRIDFORMAT_BEGIN
 90
        0
 91
        1
 62
     0
 92
       -2
340
0
 93
        0
 40
0.045
309
GRIDFORMAT_END
 95
        8
302
GRIDFORMAT
  1
GRIDFORMAT_BEGIN
 90
        0
 91
        1
 62
     0
 92
       -2
340
0
 93
        0
 40
0.045
309
GRIDFORMAT_END
 95
       16
302
GRIDFORMAT
  1
GRIDFORMAT_BEGIN
 90
        0
 91
        1
 62
     0
 92
       -2
340
0
 93
        0
 40
0.045
309
GRIDFORMAT_END
 95
       32
302
GRIDFORMAT
  1
GRIDFORMAT_BEGIN
 90
        0
 91
        1
 62
     0
 92
       -2
340
0
 93
        0
 40
0.045
309
GRIDFORMAT_END
309
TABLEFORMAT_END
  1
CELLSTYLE_BEGIN
 90
        3
 91
        2
300
_DATA
309
CELLSTYLE_END
  0
XRECORD
  5
223
102
{ACAD_REACTORS
330
21F
102
}
330
21F
100
AcDbXrecord
280
     1
102
ACAD_ROUNDTRIP_PRE2007_TABLESTYLE
 90
        4
 91
        0
  1

 92
        4
 93
        0
  2

 94
        4
 95
        0
  3

  0
XRECORD
  5
238
102
{ACAD_REACTORS
330
237
102
}
330
237
100
AcDbXrecord
280
     1
102
RTVSPropertyOp0
 70
     1
102
RTVSPropertyOp1
 70
     1
102
RTVSPropertyOp2
 70
     1
102
RTVSPropertyOp3
 70
     1
102
RTVSPropertyOp4
 70
     1
102
RTVSPropertyOp5
 70
     1
102
RTVSPropertyOp6
 70
     1
102
RTVSPropertyOp7
 70
     1
102
RTVSPropertyOp8
 70
     1
102
RTVSPropertyOp9
 70
     1
102
RTVSPropertyOp10
 70
     1
102
RTVSPropertyOp11
 70
     1
102
RTVSPropertyOp12
 70
     1
102
RTVSPropertyOp13
 70
     1
102
RTVSPropertyOp14
 70
     1
102
RTVSPropertyOp15
 70
     1
102
RTVSPropertyOp16
 70
     1
102
RTVSPropertyOp17
 70
     1
102
RTVSPropertyOp18
 70
     1
102
RTVSPropertyOp19
 70
     1
102
RTVSPropertyOp20
 70
     1
102
RTVSPropertyOp21
 70
     1
102
RTVSPropertyOp22
 70
     1
102
RTVSPropertyOp23
 70
     1
102
RTVSPropertyOp24
 70
     1
102
RTVSPropertyOp25
 70
     1
102
RTVSPropertyOp26
 70
     1
102
RTVSPropertyOp27
 70
     1
  0
XRECORD
  5
23C
102
{ACAD_REACTORS
330
23B
102
}
330
23B
100
AcDbXrecord
280
     1
102
RTVSPropertyOp0
 70
     1
102
RTVSPropertyOp1
 70
     1
102
RTVSPropertyOp2
 70
     1
102
RTVSPropertyOp3
 70
     1
102
RTVSPropertyOp4
 70
     1
102
RTVSPropertyOp5
 70
     1
102
RTVSPropertyOp6
 70
     1
102
RTVSPropertyOp7
 70
     1
102
RTVSPropertyOp8
 70
     1
102
RTVSPropertyOp9
 70
     1
102
RTVSPropertyOp10
 70
     1
102
RTVSPropertyOp11
 70
     1
102
RTVSPropertyOp12
 70
     1
102
RTVSPropertyOp13
 70
     1
102
RTVSPropertyOp14
 70
     1
102
RTVSPropertyOp15
 70
     1
102
RTVSPropertyOp16
 70
     1
102
RTVSPropertyOp17
 70
     1
102
RTVSPropertyOp18
 70
     1
102
RTVSPropertyOp19
 70
     1
102
RTVSPropertyOp20
 70
     1
102
RTVSPropertyOp21
 70
     1
102
RTVSPropertyOp22
 70
     1
102
RTVSPropertyOp23
 70
     1
102
RTVSPropertyOp24
 70
     1
102
RTVSPropertyOp25
 70
     1
102
RTVSPropertyOp26
 70
     1
102
RTVSPropertyOp27
 70
     1
  0
XRECORD
  5
23A
102
{ACAD_REACTORS
330
239
102
}
330
239
100
AcDbXrecord
280
     1
102
RTVSPropertyOp0
 70
     1
102
RTVSPropertyOp1
 70
     1
102
RTVSPropertyOp2
 70
     1
102
RTVSPropertyOp3
 70
     1
102
RTVSPropertyOp4
 70
     1
102
RTVSPropertyOp5
 70
     1
102
RTVSPropertyOp6
 70
     1
102
RTVSPropertyOp7
 70
     1
102
RTVSPropertyOp8
 70
     1
102
RTVSPropertyOp9
 70
     1
102
RTVSPropertyOp10
 70
     1
102
RTVSPropertyOp11
 70
     1
102
RTVSPropertyOp12
 70
     1
102
RTVSPropertyOp13
 70
     1
102
RTVSPropertyOp14
 70
     1
102
RTVSPropertyOp15
 70
     1
102
RTVSPropertyOp16
 70
     1
102
RTVSPropertyOp17
 70
     1
102
RTVSPropertyOp18
 70
     1
102
RTVSPropertyOp19
 70
     1
102
RTVSPropertyOp20
 70
     1
102
RTVSPropertyOp21
 70
     1
102
RTVSPropertyOp22
 70
     1
102
RTVSPropertyOp23
 70
     1
102
RTVSPropertyOp24
 70
     1
102
RTVSPropertyOp25
 70
     1
102
RTVSPropertyOp26
 70
     1
102
RTVSPropertyOp27
 70
     1
  0
XRECORD
  5
236
102
{ACAD_REACTORS
330
235
102
}
330
235
100
AcDbXrecord
280
     1
102
RTVSPropertyOp0
 70
     1
102
RTVSPropertyOp1
 70
     1
102
RTVSPropertyOp2
 70
     1
102
RTVSPropertyOp3
 70
     1
102
RTVSPropertyOp4
 70
     1
102
RTVSPropertyOp5
 70
     1
102
RTVSPropertyOp6
 70
     1
102
RTVSPropertyOp7
 70
     1
102
RTVSPropertyOp8
 70
     1
102
RTVSPropertyOp9
 70
     1
102
RTVSPropertyOp10
 70
     1
102
RTVSPropertyOp11
 70
     1
102
RTVSPropertyOp12
 70
     1
102
RTVSPropertyOp13
 70
     1
102
RTVSPropertyOp14
 70
     1
102
RTVSPropertyOp15
 70
     1
102
RTVSPropertyOp16
 70
     1
102
RTVSPropertyOp17
 70
     1
102
RTVSPropertyOp18
 70
     1
102
RTVSPropertyOp19
 70
     1
102
RTVSPropertyOp20
 70
     1
102
RTVSPropertyOp21
 70
     1
102
RTVSPropertyOp22
 70
     1
102
RTVSPropertyOp23
 70
     1
102
RTVSPropertyOp24
 70
     1
102
RTVSPropertyOp25
 70
     1
102
RTVSPropertyOp26
 70
     1
102
RTVSPropertyOp27
 70
     1
  0
XRECORD
  5
244
102
{ACAD_REACTORS
330
243
102
}
330
243
100
AcDbXrecord
280
     1
102
RTVSPropertyOp0
 70
     1
102
RTVSPropertyOp1
 70
     1
102
RTVSPropertyOp2
 70
     1
102
RTVSPropertyOp3
 70
     1
102
RTVSPropertyOp4
 70
     1
102
RTVSPropertyOp5
 70
     1
102
RTVSPropertyOp6
 70
     1
102
RTVSPropertyOp7
 70
     1
102
RTVSPropertyOp8
 70
     1
102
RTVSPropertyOp9
 70
     1
102
RTVSPropertyOp10
 70
     1
102
RTVSPropertyOp11
 70
     1
102
RTVSPropertyOp12
 70
     1
102
RTVSPropertyOp13
 70
     1
102
RTVSPropertyOp14
 70
     1
102
RTVSPropertyOp15
 70
     1
102
RTVSPropertyOp16
 70
     1
102
RTVSPropertyOp17
 70
     1
102
RTVSPropertyOp18
 70
     1
102
RTVSPropertyOp19
 70
     1
102
RTVSPropertyOp20
 70
     1
102
RTVSPropertyOp21
 70
     1
102
RTVSPropertyOp22
 70
     1
102
RTVSPropertyOp23
 70
     1
102
RTVSPropertyOp24
 70
     1
102
RTVSPropertyOp25
 70
     1
102
RTVSPropertyOp26
 70
     1
102
RTVSPropertyOp27
 70
     1
  0
XRECORD
  5
24C
102
{ACAD_REACTORS
330
24B
102
}
330
24B
100
AcDbXrecord
280
     1
102
RTVSPropertyOp0
 70
     1
102
RTVSPropertyOp1
 70
     1
102
RTVSPropertyOp2
 70
     1
102
RTVSPropertyOp3
 70
     1
102
RTVSPropertyOp4
 70
     1
102
RTVSPropertyOp5
 70
     1
102
RTVSPropertyOp6
 70
     1
102
RTVSPropertyOp7
 70
     1
102
RTVSPropertyOp8
 70
     1
102
RTVSPropertyOp9
 70
     1
102
RTVSPropertyOp10
 70
     1
102
RTVSPropertyOp11
 70
     1
102
RTVSPropertyOp12
 70
     1
102
RTVSPropertyOp13
 70
     1
102
RTVSPropertyOp14
 70
     1
102
RTVSPropertyOp15
 70
     1
102
RTVSPropertyOp16
 70
     1
102
RTVSPropertyOp17
 70
     1
102
RTVSPropertyOp18
 70
     1
102
RTVSPropertyOp19
 70
     1
102
RTVSPropertyOp20
 70
     1
102
RTVSPropertyOp21
 70
     1
102
RTVSPropertyOp22
 70
     1
102
RTVSPropertyOp23
 70
     1
102
RTVSPropertyOp24
 70
     1
102
RTVSPropertyOp25
 70
     1
102
RTVSPropertyOp26
 70
     1
102
RTVSPropertyOp27
 70
     1
  0
XRECORD
  5
23E
102
{ACAD_REACTORS
330
23D
102
}
330
23D
100
AcDbXrecord
280
     1
102
RTVSPropertyOp0
 70
     1
102
RTVSPropertyOp1
 70
     1
102
RTVSPropertyOp2
 70
     1
102
RTVSPropertyOp3
 70
     1
102
RTVSPropertyOp4
 70
     1
102
RTVSPropertyOp5
 70
     1
102
RTVSPropertyOp6
 70
     1
102
RTVSPropertyOp7
 70
     1
102
RTVSPropertyOp8
 70
     1
102
RTVSPropertyOp9
 70
     1
102
RTVSPropertyOp10
 70
     1
102
RTVSPropertyOp11
 70
     1
102
RTVSPropertyOp12
 70
     1
102
RTVSPropertyOp13
 70
     1
102
RTVSPropertyOp14
 70
     1
102
RTVSPropertyOp15
 70
     1
102
RTVSPropertyOp16
 70
     1
102
RTVSPropertyOp17
 70
     1
102
RTVSPropertyOp18
 70
     1
102
RTVSPropertyOp19
 70
     1
102
RTVSPropertyOp20
 70
     1
102
RTVSPropertyOp21
 70
     1
102
RTVSPropertyOp22
 70
     1
102
RTVSPropertyOp23
 70
     1
102
RTVSPropertyOp24
 70
     1
102
RTVSPropertyOp25
 70
     1
102
RTVSPropertyOp26
 70
     1
102
RTVSPropertyOp27
 70
     1
  0
XRECORD
  5
242
102
{ACAD_REACTORS
330
241
102
}
330
241
100
AcDbXrecord
280
     1
102
RTVSPropertyOp0
 70
     1
102
RTVSPropertyOp1
 70
     1
102
RTVSPropertyOp2
 70
     1
102
RTVSPropertyOp3
 70
     1
102
RTVSPropertyOp4
 70
     1
102
RTVSPropertyOp5
 70
     1
102
RTVSPropertyOp6
 70
     1
102
RTVSPropertyOp7
 70
     1
102
RTVSPropertyOp8
 70
     1
102
RTVSPropertyOp9
 70
     1
102
RTVSPropertyOp10
 70
     1
102
RTVSPropertyOp11
 70
     1
102
RTVSPropertyOp12
 70
     1
102
RTVSPropertyOp13
 70
     1
102
RTVSPropertyOp14
 70
     1
102
RTVSPropertyOp15
 70
     1
102
RTVSPropertyOp16
 70
     1
102
RTVSPropertyOp17
 70
     1
102
RTVSPropertyOp18
 70
     1
102
RTVSPropertyOp19
 70
     1
102
RTVSPropertyOp20
 70
     1
102
RTVSPropertyOp21
 70
     1
102
RTVSPropertyOp22
 70
     1
102
RTVSPropertyOp23
 70
     1
102
RTVSPropertyOp24
 70
     1
102
RTVSPropertyOp25
 70
     1
102
RTVSPropertyOp26
 70
     1
102
RTVSPropertyOp27
 70
     1
  0
XRECORD
  5
252
102
{ACAD_REACTORS
330
251
102
}
330
251
100
AcDbXrecord
280
     1
102
RTVSPropertyOp0
 70
     0
102
RTVSPropertyOp1
 70
     0
102
RTVSPropertyOp2
 70
     0
102
RTVSPropertyOp3
 70
     0
102
RTVSPropertyOp4
 70
     0
102
RTVSPropertyOp5
 70
     0
102
RTVSPropertyOp6
 70
     0
102
RTVSPropertyOp7
 70
     0
102
RTVSPropertyOp8
 70
     0
102
RTVSPropertyOp9
 70
     0
102
RTVSPropertyOp10
 70
     0
102
RTVSPropertyOp11
 70
     0
102
RTVSPropertyOp12
 70
     0
102
RTVSPropertyOp13
 70
     0
102
RTVSPropertyOp14
 70
     2
102
RTVSPropertyOp15
 70
     0
102
RTVSPropertyOp16
 70
     0
102
RTVSPropertyOp17
 70
     0
102
RTVSPropertyOp18
 70
     0
102
RTVSPropertyOp19
 70
     0
102
RTVSPropertyOp20
 70
     0
102
RTVSPropertyOp21
 70
     0
102
RTVSPropertyOp22
 70
     0
102
RTVSPropertyOp23
 70
     0
102
RTVSPropertyOp24
 70
     0
102
RTVSPropertyOp25
 70
     0
102
RTVSPropertyOp26
 70
     0
102
RTVSPropertyOp27
 70
     0
  0
XRECORD
  5
24A
102
{ACAD_REACTORS
330
249
102
}
330
249
100
AcDbXrecord
280
     1
102
RTVSPropertyOp0
 70
     1
102
RTVSPropertyOp1
 70
     1
102
RTVSPropertyOp2
 70
     1
102
RTVSPropertyOp3
 70
     1
102
RTVSPropertyOp4
 70
     1
102
RTVSPropertyOp5
 70
     1
102
RTVSPropertyOp6
 70
     1
102
RTVSPropertyOp7
 70
     1
102
RTVSPropertyOp8
 70
     1
102
RTVSPropertyOp9
 70
     1
102
RTVSPropertyOp10
 70
     1
102
RTVSPropertyOp11
 70
     1
102
RTVSPropertyOp12
 70
     1
102
RTVSPropertyOp13
 70
     1
102
RTVSPropertyOp14
 70
     1
102
RTVSPropertyOp15
 70
     1
102
RTVSPropertyOp16
 70
     1
102
RTVSPropertyOp17
 70
     1
102
RTVSPropertyOp18
 70
     1
102
RTVSPropertyOp19
 70
     1
102
RTVSPropertyOp20
 70
     1
102
RTVSPropertyOp21
 70
     1
102
RTVSPropertyOp22
 70
     1
102
RTVSPropertyOp23
 70
     1
102
RTVSPropertyOp24
 70
     1
102
RTVSPropertyOp25
 70
     1
102
RTVSPropertyOp26
 70
     1
102
RTVSPropertyOp27
 70
     1
  0
XRECORD
  5
22E
102
{ACAD_REACTORS
330
22D
102
}
330
22D
100
AcDbXrecord
280
     1
102
RTVSPropertyOp0
 70
     1
102
RTVSPropertyOp1
 70
     1
102
RTVSPropertyOp2
 70
     1
102
RTVSPropertyOp3
 70
     1
102
RTVSPropertyOp4
 70
     1
102
RTVSPropertyOp5
 70
     1
102
RTVSPropertyOp6
 70
     1
102
RTVSPropertyOp7
 70
     1
102
RTVSPropertyOp8
 70
     1
102
RTVSPropertyOp9
 70
     1
102
RTVSPropertyOp10
 70
     1
102
RTVSPropertyOp11
 70
     1
102
RTVSPropertyOp12
 70
     1
102
RTVSPropertyOp13
 70
     1
102
RTVSPropertyOp14
 70
     1
102
RTVSPropertyOp15
 70
     1
102
RTVSPropertyOp16
 70
     1
102
RTVSPropertyOp17
 70
     1
102
RTVSPropertyOp18
 70
     1
102
RTVSPropertyOp19
 70
     1
102
RTVSPropertyOp20
 70
     1
102
RTVSPropertyOp21
 70
     1
102
RTVSPropertyOp22
 70
     1
102
RTVSPropertyOp23
 70
     1
102
RTVSPropertyOp24
 70
     1
102
RTVSPropertyOp25
 70
     1
102
RTVSPropertyOp26
 70
     1
102
RTVSPropertyOp27
 70
     1
  0
XRECORD
  5
230
102
{ACAD_REACTORS
330
22F
102
}
330
22F
100
AcDbXrecord
280
     1
102
RTVSPropertyOp0
 70
     1
102
RTVSPropertyOp1
 70
     1
102
RTVSPropertyOp2
 70
     1
102
RTVSPropertyOp3
 70
     1
102
RTVSPropertyOp4
 70
     1
102
RTVSPropertyOp5
 70
     1
102
RTVSPropertyOp6
 70
     1
102
RTVSPropertyOp7
 70
     1
102
RTVSPropertyOp8
 70
     1
102
RTVSPropertyOp9
 70
     1
102
RTVSPropertyOp10
 70
     1
102
RTVSPropertyOp11
 70
     1
102
RTVSPropertyOp12
 70
     1
102
RTVSPropertyOp13
 70
     1
102
RTVSPropertyOp14
 70
     1
102
RTVSPropertyOp15
 70
     1
102
RTVSPropertyOp16
 70
     1
102
RTVSPropertyOp17
 70
     1
102
RTVSPropertyOp18
 70
     1
102
RTVSPropertyOp19
 70
     1
102
RTVSPropertyOp20
 70
     1
102
RTVSPropertyOp21
 70
     1
102
RTVSPropertyOp22
 70
     1
102
RTVSPropertyOp23
 70
     1
102
RTVSPropertyOp24
 70
     1
102
RTVSPropertyOp25
 70
     1
102
RTVSPropertyOp26
 70
     1
102
RTVSPropertyOp27
 70
     1
  0
XRECORD
  5
232
102
{ACAD_REACTORS
330
231
102
}
330
231
100
AcDbXrecord
280
     1
102
RTVSPropertyOp0
 70
     1
102
RTVSPropertyOp1
 70
     1
102
RTVSPropertyOp2
 70
     1
102
RTVSPropertyOp3
 70
     1
102
RTVSPropertyOp4
 70
     1
102
RTVSPropertyOp5
 70
     1
102
RTVSPropertyOp6
 70
     1
102
RTVSPropertyOp7
 70
     1
102
RTVSPropertyOp8
 70
     1
102
RTVSPropertyOp9
 70
     1
102
RTVSPropertyOp10
 70
     1
102
RTVSPropertyOp11
 70
     1
102
RTVSPropertyOp12
 70
     1
102
RTVSPropertyOp13
 70
     1
102
RTVSPropertyOp14
 70
     1
102
RTVSPropertyOp15
 70
     1
102
RTVSPropertyOp16
 70
     1
102
RTVSPropertyOp17
 70
     1
102
RTVSPropertyOp18
 70
     1
102
RTVSPropertyOp19
 70
     1
102
RTVSPropertyOp20
 70
     1
102
RTVSPropertyOp21
 70
     1
102
RTVSPropertyOp22
 70
     1
102
RTVSPropertyOp23
 70
     1
102
RTVSPropertyOp24
 70
     1
102
RTVSPropertyOp25
 70
     1
102
RTVSPropertyOp26
 70
     1
102
RTVSPropertyOp27
 70
     1
  0
XRECORD
  5
234
102
{ACAD_REACTORS
330
233
102
}
330
233
100
AcDbXrecord
280
     1
102
RTVSPropertyOp0
 70
     1
102
RTVSPropertyOp1
 70
     1
102
RTVSPropertyOp2
 70
     1
102
RTVSPropertyOp3
 70
     1
102
RTVSPropertyOp4
 70
     1
102
RTVSPropertyOp5
 70
     1
102
RTVSPropertyOp6
 70
     1
102
RTVSPropertyOp7
 70
     1
102
RTVSPropertyOp8
 70
     1
102
RTVSPropertyOp9
 70
     1
102
RTVSPropertyOp10
 70
     1
102
RTVSPropertyOp11
 70
     1
102
RTVSPropertyOp12
 70
     1
102
RTVSPropertyOp13
 70
     1
102
RTVSPropertyOp14
 70
     1
102
RTVSPropertyOp15
 70
     1
102
RTVSPropertyOp16
 70
     1
102
RTVSPropertyOp17
 70
     1
102
RTVSPropertyOp18
 70
     1
102
RTVSPropertyOp19
 70
     1
102
RTVSPropertyOp20
 70
     1
102
RTVSPropertyOp21
 70
     1
102
RTVSPropertyOp22
 70
     1
102
RTVSPropertyOp23
 70
     1
102
RTVSPropertyOp24
 70
     1
102
RTVSPropertyOp25
 70
     1
102
RTVSPropertyOp26
 70
     1
102
RTVSPropertyOp27
 70
     1
  0
XRECORD
  5
24E
102
{ACAD_REACTORS
330
24D
102
}
330
24D
100
AcDbXrecord
280
     1
102
RTVSPropertyOp0
 70
     0
102
RTVSPropertyOp1
 70
     0
102
RTVSPropertyOp2
 70
     0
102
RTVSPropertyOp3
 70
     0
102
RTVSPropertyOp4
 70
     0
102
RTVSPropertyOp5
 70
     0
102
RTVSPropertyOp6
 70
     0
102
RTVSPropertyOp7
 70
     0
102
RTVSPropertyOp8
 70
     0
102
RTVSPropertyOp9
 70
     0
102
RTVSPropertyOp10
 70
     0
102
RTVSPropertyOp11
 70
     0
102
RTVSPropertyOp12
 70
     0
102
RTVSPropertyOp13
 70
     0
102
RTVSPropertyOp14
 70
     2
102
RTVSPropertyOp15
 70
     0
102
RTVSPropertyOp16
 70
     0
102
RTVSPropertyOp17
 70
     0
102
RTVSPropertyOp18
 70
     0
102
RTVSPropertyOp19
 70
     0
102
RTVSPropertyOp20
 70
     0
102
RTVSPropertyOp21
 70
     0
102
RTVSPropertyOp22
 70
     0
102
RTVSPropertyOp23
 70
     0
102
RTVSPropertyOp24
 70
     0
102
RTVSPropertyOp25
 70
     0
102
RTVSPropertyOp26
 70
     0
102
RTVSPropertyOp27
 70
     0
  0
XRECORD
  5
248
102
{ACAD_REACTORS
330
247
102
}
330
247
100
AcDbXrecord
280
     1
102
RTVSPropertyOp0
 70
     1
102
RTVSPropertyOp1
 70
     1
102
RTVSPropertyOp2
 70
     1
102
RTVSPropertyOp3
 70
     1
102
RTVSPropertyOp4
 70
     1
102
RTVSPropertyOp5
 70
     1
102
RTVSPropertyOp6
 70
     1
102
RTVSPropertyOp7
 70
     1
102
RTVSPropertyOp8
 70
     1
102
RTVSPropertyOp9
 70
     1
102
RTVSPropertyOp10
 70
     1
102
RTVSPropertyOp11
 70
     1
102
RTVSPropertyOp12
 70
     1
102
RTVSPropertyOp13
 70
     1
102
RTVSPropertyOp14
 70
     1
102
RTVSPropertyOp15
 70
     1
102
RTVSPropertyOp16
 70
     1
102
RTVSPropertyOp17
 70
     1
102
RTVSPropertyOp18
 70
     1
102
RTVSPropertyOp19
 70
     1
102
RTVSPropertyOp20
 70
     1
102
RTVSPropertyOp21
 70
     1
102
RTVSPropertyOp22
 70
     1
102
RTVSPropertyOp23
 70
     1
102
RTVSPropertyOp24
 70
     1
102
RTVSPropertyOp25
 70
     1
102
RTVSPropertyOp26
 70
     1
102
RTVSPropertyOp27
 70
     1
  0
XRECORD
  5
250
102
{ACAD_REACTORS
330
24F
102
}
330
24F
100
AcDbXrecord
280
     1
102
RTVSPropertyOp0
 70
     0
102
RTVSPropertyOp1
 70
     0
102
RTVSPropertyOp2
 70
     0
102
RTVSPropertyOp3
 70
     0
102
RTVSPropertyOp4
 70
     0
102
RTVSPropertyOp5
 70
     0
102
RTVSPropertyOp6
 70
     0
102
RTVSPropertyOp7
 70
     0
102
RTVSPropertyOp8
 70
     0
102
RTVSPropertyOp9
 70
     0
102
RTVSPropertyOp10
 70
     0
102
RTVSPropertyOp11
 70
     0
102
RTVSPropertyOp12
 70
     0
102
RTVSPropertyOp13
 70
     0
102
RTVSPropertyOp14
 70
     2
102
RTVSPropertyOp15
 70
     0
102
RTVSPropertyOp16
 70
     0
102
RTVSPropertyOp17
 70
     0
102
RTVSPropertyOp18
 70
     0
102
RTVSPropertyOp19
 70
     0
102
RTVSPropertyOp20
 70
     0
102
RTVSPropertyOp21
 70
     0
102
RTVSPropertyOp22
 70
     0
102
RTVSPropertyOp23
 70
     0
102
RTVSPropertyOp24
 70
     0
102
RTVSPropertyOp25
 70
     0
102
RTVSPropertyOp26
 70
     0
102
RTVSPropertyOp27
 70
     0
  0
XRECORD
  5
240
102
{ACAD_REACTORS
330
23F
102
}
330
23F
100
AcDbXrecord
280
     1
102
RTVSPropertyOp0
 70
     1
102
RTVSPropertyOp1
 70
     1
102
RTVSPropertyOp2
 70
     1
102
RTVSPropertyOp3
 70
     1
102
RTVSPropertyOp4
 70
     1
102
RTVSPropertyOp5
 70
     1
102
RTVSPropertyOp6
 70
     1
102
RTVSPropertyOp7
 70
     1
102
RTVSPropertyOp8
 70
     1
102
RTVSPropertyOp9
 70
     1
102
RTVSPropertyOp10
 70
     1
102
RTVSPropertyOp11
 70
     1
102
RTVSPropertyOp12
 70
     1
102
RTVSPropertyOp13
 70
     1
102
RTVSPropertyOp14
 70
     1
102
RTVSPropertyOp15
 70
     1
102
RTVSPropertyOp16
 70
     1
102
RTVSPropertyOp17
 70
     1
102
RTVSPropertyOp18
 70
     1
102
RTVSPropertyOp19
 70
     1
102
RTVSPropertyOp20
 70
     1
102
RTVSPropertyOp21
 70
     1
102
RTVSPropertyOp22
 70
     1
102
RTVSPropertyOp23
 70
     1
102
RTVSPropertyOp24
 70
     1
102
RTVSPropertyOp25
 70
     1
102
RTVSPropertyOp26
 70
     1
102
RTVSPropertyOp27
 70
     1
  0
XRECORD
  5
246
102
{ACAD_REACTORS
330
245
102
}
330
245
100
AcDbXrecord
280
     1
102
RTVSPropertyOp0
 70
     1
102
RTVSPropertyOp1
 70
     1
102
RTVSPropertyOp2
 70
     1
102
RTVSPropertyOp3
 70
     1
102
RTVSPropertyOp4
 70
     1
102
RTVSPropertyOp5
 70
     1
102
RTVSPropertyOp6
 70
     1
102
RTVSPropertyOp7
 70
     1
102
RTVSPropertyOp8
 70
     1
102
RTVSPropertyOp9
 70
     1
102
RTVSPropertyOp10
 70
     1
102
RTVSPropertyOp11
 70
     1
102
RTVSPropertyOp12
 70
     1
102
RTVSPropertyOp13
 70
     1
102
RTVSPropertyOp14
 70
     1
102
RTVSPropertyOp15
 70
     1
102
RTVSPropertyOp16
 70
     1
102
RTVSPropertyOp17
 70
     1
102
RTVSPropertyOp18
 70
     1
102
RTVSPropertyOp19
 70
     1
102
RTVSPropertyOp20
 70
     1
102
RTVSPropertyOp21
 70
     1
102
RTVSPropertyOp22
 70
     1
102
RTVSPropertyOp23
 70
     1
102
RTVSPropertyOp24
 70
     1
102
RTVSPropertyOp25
 70
     1
102
RTVSPropertyOp26
 70
     1
102
RTVSPropertyOp27
 70
     1
  0
ENDSEC
  0
EOF
