  0
SECTION
  2
HEADER
  9
$ACADVER
  1
AC1015
  9
$ACADMAINTVER
 70
    20
  9
$DWGCODEPAGE
  3
ANSI_1252
  9
$INSBASE
 10
0.0
 20
0.0
 30
0.0
  9
$EXTMIN
 10
35.36316019874437
 20
184.75488371909
 30
-0.0000000000000153
  9
$EXTMAX
 10
40.10559135594599
 20
185.6839147464883
 30
0.0
  9
$LIMMIN
 10
0.0
 20
0.0
  9
$LIMMAX
 10
420.0
 20
297.0
  9
$ORTHOMODE
 70
     0
  9
$REGENMODE
 70
     1
  9
$FILLMODE
 70
     1
  9
$QTEXTMODE
 70
     0
  9
$MIRRTEXT
 70
     0
  9
$LTSCALE
 40
1.0
  9
$ATTMODE
 70
     1
  9
$TEXTSIZE
 40
2.5
  9
$TRACEWID
 40
1.0
  9
$TEXTSTYLE
  7
Standard
  9
$CLAYER
  8
0
  9
$CELTYPE
  6
ByLayer
  9
$CECOLOR
 62
   256
  9
$CELTSCALE
 40
1.0
  9
$DISPSILH
 70
     0
  9
$DIMSCALE
 40
1.0
  9
$DIMASZ
 40
2.5
  9
$DIMEXO
 40
0.625
  9
$DIMDLI
 40
3.75
  9
$DIMRND
 40
0.0
  9
$DIMDLE
 40
0.0
  9
$DIMEXE
 40
1.25
  9
$DIMTP
 40
0.0
  9
$DIMTM
 40
0.0
  9
$DIMTXT
 40
2.5
  9
$DIMCEN
 40
2.5
  9
$DIMTSZ
 40
0.0
  9
$DIMTOL
 70
     0
  9
$DIMLIM
 70
     0
  9
$DIMTIH
 70
     0
  9
$DIMTOH
 70
     0
  9
$DIMSE1
 70
     0
  9
$DIMSE2
 70
     0
  9
$DIMTAD
 70
     1
  9
$DIMZIN
 70
     8
  9
$DIMBLK
  1

  9
$DIMASO
 70
     1
  9
$DIMSHO
 70
     1
  9
$DIMPOST
  1

  9
$DIMAPOST
  1

  9
$DIMALT
 70
     0
  9
$DIMALTD
 70
     3
  9
$DIMALTF
 40
0.03937007874016
  9
$DIMLFAC
 40
1.0
  9
$DIMTOFL
 70
     1
  9
$DIMTVP
 40
0.0
  9
$DIMTIX
 70
     0
  9
$DIMSOXD
 70
     0
  9
$DIMSAH
 70
     0
  9
$DIMBLK1
  1

  9
$DIMBLK2
  1

  9
$DIMSTYLE
  2
ISO-25
  9
$DIMCLRD
 70
     0
  9
$DIMCLRE
 70
     0
  9
$DIMCLRT
 70
     0
  9
$DIMTFAC
 40
1.0
  9
$DIMGAP
 40
0.625
  9
$DIMJUST
 70
     0
  9
$DIMSD1
 70
     0
  9
$DIMSD2
 70
     0
  9
$DIMTOLJ
 70
     0
  9
$DIMTZIN
 70
     8
  9
$DIMALTZ
 70
     0
  9
$DIMALTTZ
 70
     0
  9
$DIMUPT
 70
     0
  9
$DIMDEC
 70
     2
  9
$DIMTDEC
 70
     2
  9
$DIMALTU
 70
     2
  9
$DIMALTTD
 70
     3
  9
$DIMTXSTY
  7
Standard
  9
$DIMAUNIT
 70
     0
  9
$DIMADEC
 70
     0
  9
$DIMALTRND
 40
0.0
  9
$DIMAZIN
 70
     0
  9
$DIMDSEP
 70
    44
  9
$DIMATFIT
 70
     3
  9
$DIMFRAC
 70
     0
  9
$DIMLDRBLK
  1

  9
$DIMLUNIT
 70
     2
  9
$DIMLWD
 70
    -2
  9
$DIMLWE
 70
    -2
  9
$DIMTMOVE
 70
     0
  9
$LUNITS
 70
     2
  9
$LUPREC
 70
     4
  9
$SKETCHINC
 40
1.0
  9
$FILLETRAD
 40
0.0
  9
$AUNITS
 70
     0
  9
$AUPREC
 70
     0
  9
$MENU
  1
.
  9
$ELEVATION
 40
0.0
  9
$PELEVATION
 40
0.0
  9
$THICKNESS
 40
0.0
  9
$LIMCHECK
 70
     0
  9
$CHAMFERA
 40
0.0
  9
$CHAMFERB
 40
0.0
  9
$CHAMFERC
 40
0.0
  9
$CHAMFERD
 40
0.0
  9
$SKPOLY
 70
     0
  9
$TDCREATE
 40
2453910.764054722
  9
$TDUCREATE
 40
2453910.722388056
  9
$TDUPDATE
 40
2456150.736266632
  9
$TDUUPDATE
 40
2456150.694599966
  9
$TDINDWG
 40
0.0059389352
  9
$TDUSRTIMER
 40
0.0059389352
  9
$USRTIMER
 70
     1
  9
$ANGBASE
 50
0.0
  9
$ANGDIR
 70
     0
  9
$PDMODE
 70
     0
  9
$PDSIZE
 40
0.0
  9
$PLINEWID
 40
0.0
  9
$SPLFRAME
 70
     0
  9
$SPLINETYPE
 70
     6
  9
$SPLINESEGS
 70
     8
  9
$HANDSEED
  5
450
  9
$SURFTAB1
 70
     6
  9
$SURFTAB2
 70
     6
  9
$SURFTYPE
 70
     6
  9
$SURFU
 70
     6
  9
$SURFV
 70
     6
  9
$UCSBASE
  2

  9
$UCSNAME
  2

  9
$UCSORG
 10
0.0
 20
0.0
 30
0.0
  9
$UCSXDIR
 10
1.0
 20
0.0
 30
0.0
  9
$UCSYDIR
 10
0.0
 20
1.0
 30
0.0
  9
$UCSORTHOREF
  2

  9
$UCSORTHOVIEW
 70
     0
  9
$UCSORGTOP
 10
0.0
 20
0.0
 30
0.0
  9
$UCSORGBOTTOM
 10
0.0
 20
0.0
 30
0.0
  9
$UCSORGLEFT
 10
0.0
 20
0.0
 30
0.0
  9
$UCSORGRIGHT
 10
0.0
 20
0.0
 30
0.0
  9
$UCSORGFRONT
 10
0.0
 20
0.0
 30
0.0
  9
$UCSORGBACK
 10
0.0
 20
0.0
 30
0.0
  9
$PUCSBASE
  2

  9
$PUCSNAME
  2

  9
$PUCSORG
 10
0.0
 20
0.0
 30
0.0
  9
$PUCSXDIR
 10
1.0
 20
0.0
 30
0.0
  9
$PUCSYDIR
 10
0.0
 20
1.0
 30
0.0
  9
$PUCSORTHOREF
  2

  9
$PUCSORTHOVIEW
 70
     0
  9
$PUCSORGTOP
 10
0.0
 20
0.0
 30
0.0
  9
$PUCSORGBOTTOM
 10
0.0
 20
0.0
 30
0.0
  9
$PUCSORGLEFT
 10
0.0
 20
0.0
 30
0.0
  9
$PUCSORGRIGHT
 10
0.0
 20
0.0
 30
0.0
  9
$PUCSORGFRONT
 10
0.0
 20
0.0
 30
0.0
  9
$PUCSORGBACK
 10
0.0
 20
0.0
 30
0.0
  9
$USERI1
 70
     0
  9
$USERI2
 70
     0
  9
$USERI3
 70
     0
  9
$USERI4
 70
     0
  9
$USERI5
 70
     0
  9
$USERR1
 40
0.0
  9
$USERR2
 40
0.0
  9
$USERR3
 40
0.0
  9
$USERR4
 40
0.0
  9
$USERR5
 40
0.0
  9
$WORLDVIEW
 70
     1
  9
$SHADEDGE
 70
     3
  9
$SHADEDIF
 70
    70
  9
$TILEMODE
 70
     1
  9
$MAXACTVP
 70
    64
  9
$PINSBASE
 10
0.0
 20
0.0
 30
0.0
  9
$PLIMCHECK
 70
     0
  9
$PEXTMIN
 10
1.000000000000000E+20
 20
1.000000000000000E+20
 30
1.000000000000000E+20
  9
$PEXTMAX
 10
-1.000000000000000E+20
 20
-1.000000000000000E+20
 30
-1.000000000000000E+20
  9
$PLIMMIN
 10
0.0
 20
0.0
  9
$PLIMMAX
 10
420.0
 20
297.0
  9
$UNITMODE
 70
     0
  9
$VISRETAIN
 70
     1
  9
$PLINEGEN
 70
     0
  9
$PSLTSCALE
 70
     1
  9
$TREEDEPTH
 70
  3020
  9
$CMLSTYLE
  2
Standard
  9
$CMLJUST
 70
     0
  9
$CMLSCALE
 40
20.0
  9
$PROXYGRAPHICS
 70
     1
  9
$MEASUREMENT
 70
     1
  9
$CELWEIGHT
370
    -1
  9
$ENDCAPS
280
     0
  9
$JOINSTYLE
280
     0
  9
$LWDISPLAY
290
     0
  9
$INSUNITS
 70
     4
  9
$HYPERLINKBASE
  1

  9
$STYLESHEET
  1

  9
$XEDIT
290
     1
  9
$CEPSNTYPE
380
     0
  9
$PSTYLEMODE
290
     1
  9
$FINGERPRINTGUID
  2
{799CBC45-36CF-4727-98DB-B1D6EDA223EB}
  9
$VERSIONGUID
  2
{E409F51E-59B1-4300-A0B6-8394D2552971}
  9
$EXTNAMES
290
     1
  9
$PSVPSCALE
 40
0.0
  9
$OLESTARTUP
290
     0
  0
ENDSEC
  0
SECTION
  2
CLASSES
  0
CLASS
  1
ACDBDICTIONARYWDFLT
  2
AcDbDictionaryWithDefault
  3
ObjectDBX Classes
 90
        0
280
     0
281
     0
  0
CLASS
  1
TABLESTYLE
  2
AcDbTableStyle
  3
ObjectDBX Classes
 90
     4095
280
     0
281
     0
  0
CLASS
  1
DICTIONARYVAR
  2
AcDbDictionaryVar
  3
ObjectDBX Classes
 90
        0
280
     0
281
     0
  0
CLASS
  1
ACDBPLACEHOLDER
  2
AcDbPlaceHolder
  3
ObjectDBX Classes
 90
        0
280
     0
281
     0
  0
CLASS
  1
LAYOUT
  2
AcDbLayout
  3
ObjectDBX Classes
 90
        0
280
     0
281
     0
  0
CLASS
  1
MATERIAL
  2
AcDbMaterial
  3
ObjectDBX Classes
 90
     1153
280
     0
281
     0
  0
CLASS
  1
VISUALSTYLE
  2
AcDbVisualStyle
  3
ObjectDBX Classes
 90
     4095
280
     0
281
     0
  0
CLASS
  1
SCALE
  2
AcDbScale
  3
ObjectDBX Classes
 90
     1153
280
     0
281
     0
  0
CLASS
  1
MLEADERSTYLE
  2
AcDbMLeaderStyle
  3
ACDB_MLEADERSTYLE_CLASS
 90
     4095
280
     0
281
     0
  0
CLASS
  1
CELLSTYLEMAP
  2
AcDbCellStyleMap
  3
ObjectDBX Classes
 90
     1152
280
     0
281
     0
  0
ENDSEC
  0
SECTION
  2
TABLES
  0
TABLE
  2
VPORT
  5
8
330
0
100
AcDbSymbolTable
 70
     1
  0
VPORT
  5
3C7
330
8
100
AcDbSymbolTableRecord
100
AcDbViewportTableRecord
  2
*Active
 70
     0
 10
0.0
 20
0.0
 11
1.0
 21
1.0
 12
37.73437577734518
 22
185.2193992327891
 13
0.0
 23
0.0
 14
10.0
 24
10.0
 15
10.0
 25
10.0
 16
0.0
 26
0.0
 36
1.0
 17
0.0
 27
0.0
 37
0.0
 40
2.893071108841037
 41
1.645464025026068
 42
50.0
 43
0.0
 44
0.0
 50
0.0
 51
0.0
 71
     0
 72
  1000
 73
     1
 74
     3
 75
     0
 76
     0
 77
     0
 78
     0
281
     0
 65
     1
110
0.0
120
0.0
130
0.0
111
1.0
121
0.0
131
0.0
112
0.0
122
1.0
132
0.0
 79
     0
146
0.0
  0
ENDTAB
  0
TABLE
  2
LTYPE
  5
5
330
0
100
AcDbSymbolTable
 70
     1
  0
LTYPE
  5
14
330
5
100
AcDbSymbolTableRecord
100
AcDbLinetypeTableRecord
  2
ByBlock
 70
     0
  3

 72
    65
 73
     0
 40
0.0
  0
LTYPE
  5
15
330
5
100
AcDbSymbolTableRecord
100
AcDbLinetypeTableRecord
  2
ByLayer
 70
     0
  3

 72
    65
 73
     0
 40
0.0
  0
LTYPE
  5
16
330
5
100
AcDbSymbolTableRecord
100
AcDbLinetypeTableRecord
  2
Continuous
 70
     0
  3
Solid line
 72
    65
 73
     0
 40
0.0
  0
ENDTAB
  0
TABLE
  2
LAYER
  5
2
330
0
100
AcDbSymbolTable
 70
     2
  0
LAYER
  5
10
102
{ACAD_XDICTIONARY
360
412
102
}
330
2
100
AcDbSymbolTableRecord
100
AcDbLayerTableRecord
  2
0
 70
     0
 62
     7
  6
Continuous
370
    -3
390
F
  0
LAYER
  5
2F
102
{ACAD_XDICTIONARY
360
414
102
}
330
2
100
AcDbSymbolTableRecord
100
AcDbLayerTableRecord
  2
BLOCKS
 70
     0
 62
     3
  6
Continuous
370
    -3
390
F
  0
ENDTAB
  0
TABLE
  2
STYLE
  5
3
330
0
100
AcDbSymbolTable
 70
     2
  0
STYLE
  5
11
330
3
100
AcDbSymbolTableRecord
100
AcDbTextStyleTableRecord
  2
Standard
 70
     0
 40
0.0
 41
1.0
 50
0.0
 71
     0
 42
2.5
  3
txt
  4

  0
STYLE
  5
30
330
3
100
AcDbSymbolTableRecord
100
AcDbTextStyleTableRecord
  2
cotas
 70
     0
 40
2.0
 41
0.8
 50
0.0
 71
     0
 42
2.0
  3
ISOCP.shx
  4

  0
ENDTAB
  0
TABLE
  2
VIEW
  5
6
330
0
100
AcDbSymbolTable
 70
     0
  0
ENDTAB
  0
TABLE
  2
UCS
  5
7
330
0
100
AcDbSymbolTable
 70
     0
  0
ENDTAB
  0
TABLE
  2
APPID
  5
9
330
0
100
AcDbSymbolTable
 70
     2
  0
APPID
  5
12
330
9
100
AcDbSymbolTableRecord
100
AcDbRegAppTableRecord
  2
ACAD
 70
     0
  0
APPID
  5
44F
330
9
100
AcDbSymbolTableRecord
100
AcDbRegAppTableRecord
  2
ACAD_MLEADERVER
 70
     0
  0
ENDTAB
  0
TABLE
  2
DIMSTYLE
  5
A
330
0
100
AcDbSymbolTable
 70
     1
100
AcDbDimStyleTable
 71
     0
  0
DIMSTYLE
105
2B
330
A
100
AcDbSymbolTableRecord
100
AcDbDimStyleTableRecord
  2
ISO-25
 70
     0
 41
2.5
 42
0.625
 43
3.75
 44
1.25
 73
     0
 74
     0
 77
     1
 78
     8
140
2.5
141
2.5
143
0.03937007874016
147
0.625
171
     3
172
     1
271
     2
272
     2
274
     3
278
    44
283
     0
284
     8
340
11
  0
ENDTAB
  0
TABLE
  2
BLOCK_RECORD
  5
1
330
0
100
AcDbSymbolTable
 70
    13
  0
BLOCK_RECORD
  5
23
330
1
100
AcDbSymbolTableRecord
100
AcDbBlockTableRecord
  2
*Model_Space
340
26
  0
BLOCK_RECORD
  5
1F
330
1
100
AcDbSymbolTableRecord
100
AcDbBlockTableRecord
  2
*Paper_Space
340
22
  0
BLOCK_RECORD
  5
27
330
1
100
AcDbSymbolTableRecord
100
AcDbBlockTableRecord
  2
*Paper_Space0
340
2A
  0
BLOCK_RECORD
  5
31
102
{ACAD_XDICTIONARY
360
9D
102
}
330
1
100
AcDbSymbolTableRecord
100
AcDbBlockTableRecord
  2
80011PL
340
0
1001
ACAD
1000
DesignCenter Data
1002
{
1070
     1
1070
     4
1002
}
  0
BLOCK_RECORD
  5
A2
102
{ACAD_XDICTIONARY
360
153
102
}
330
1
100
AcDbSymbolTableRecord
100
AcDbBlockTableRecord
  2
80011CT
340
0
1001
ACAD
1000
DesignCenter Data
1002
{
1070
     1
1070
     4
1002
}
  0
BLOCK_RECORD
  5
15A
102
{ACAD_XDICTIONARY
360
186
102
}
330
1
100
AcDbSymbolTableRecord
100
AcDbBlockTableRecord
  2
80011AL
340
0
1001
ACAD
1000
DesignCenter Data
1002
{
1070
     1
1070
     4
1002
}
  0
BLOCK_RECORD
  5
18A
102
{ACAD_XDICTIONARY
360
1B0
102
}
330
1
100
AcDbSymbolTableRecord
100
AcDbBlockTableRecord
  2
80011AF
340
0
1001
ACAD
1000
DesignCenter Data
1002
{
1070
     1
1070
     4
1002
}
  0
BLOCK_RECORD
  5
1BF
102
{ACAD_XDICTIONARY
360
20E
102
}
330
1
100
AcDbSymbolTableRecord
100
AcDbBlockTableRecord
  2
80009PL
340
0
1001
ACAD
1000
DesignCenter Data
1002
{
1070
     1
1070
     4
1002
}
  0
BLOCK_RECORD
  5
212
102
{ACAD_XDICTIONARY
360
279
102
}
330
1
100
AcDbSymbolTableRecord
100
AcDbBlockTableRecord
  2
80009CT
340
0
1001
ACAD
1000
DesignCenter Data
1002
{
1070
     1
1070
     4
1002
}
  0
BLOCK_RECORD
  5
27D
102
{ACAD_XDICTIONARY
360
29B
102
}
330
1
100
AcDbSymbolTableRecord
100
AcDbBlockTableRecord
  2
80009AL
340
0
1001
ACAD
1000
DesignCenter Data
1002
{
1070
     1
1070
     4
1002
}
  0
BLOCK_RECORD
  5
29F
102
{ACAD_XDICTIONARY
360
2BC
102
}
330
1
100
AcDbSymbolTableRecord
100
AcDbBlockTableRecord
  2
80009AF
340
0
102
{BLKREFS
331
3A7
102
}
1001
ACAD
1000
DesignCenter Data
1002
{
1070
     1
1070
     4
1002
}
  0
BLOCK_RECORD
  5
2CB
330
1
100
AcDbSymbolTableRecord
100
AcDbBlockTableRecord
  2
80008PL
340
0
102
{BLKREFS
331
314
102
}
1001
ACAD
1000
DesignCenter Data
1002
{
1070
     1
1070
     4
1002
}
  0
BLOCK_RECORD
  5
315
330
1
100
AcDbSymbolTableRecord
100
AcDbBlockTableRecord
  2
80008CT
340
0
102
{BLKREFS
331
365
331
3B5
102
}
1001
ACAD
1000
DesignCenter Data
1002
{
1070
     1
1070
     4
1002
}
  0
BLOCK_RECORD
  5
366
330
1
100
AcDbSymbolTableRecord
100
AcDbBlockTableRecord
  2
80008AL
340
0
102
{BLKREFS
331
3A6
102
}
1001
ACAD
1000
DesignCenter Data
1002
{
1070
     1
1070
     4
1002
}
  0
BLOCK_RECORD
  5
3B4
330
1
100
AcDbSymbolTableRecord
100
AcDbBlockTableRecord
  2
x
340
0
1001
ACAD
1000
DesignCenter Data
1002
{
1070
     1
1070
     4
1002
}
  0
ENDTAB
  0
ENDSEC
  0
SECTION
  2
BLOCKS
  0
BLOCK
  5
24
330
23
100
AcDbEntity
  8
0
100
AcDbBlockBegin
  2
*Model_Space
 70
     0
 10
0.0
 20
0.0
 30
0.0
  3
*Model_Space
  1

  0
ENDBLK
  5
25
330
23
100
AcDbEntity
  8
0
100
AcDbBlockEnd
  0
BLOCK
  5
20
330
1F
100
AcDbEntity
 67
     1
  8
0
100
AcDbBlockBegin
  2
*Paper_Space
 70
     0
 10
0.0
 20
0.0
 30
0.0
  3
*Paper_Space
  1

  0
ENDBLK
  5
21
330
1F
100
AcDbEntity
 67
     1
  8
0
100
AcDbBlockEnd
  0
BLOCK
  5
28
330
27
100
AcDbEntity
 67
     1
  8
0
100
AcDbBlockBegin
  2
*Paper_Space0
 70
     0
 10
0.0
 20
0.0
 30
0.0
  3
*Paper_Space0
  1

  0
ENDBLK
  5
29
330
27
100
AcDbEntity
 67
     1
  8
0
100
AcDbBlockEnd
  0
BLOCK
  5
9E
330
31
100
AcDbEntity
  8
0
100
AcDbBlockBegin
  2
80011PL
 70
     0
 10
0.0
 20
0.0
 30
0.0
  3
80011PL
  1

  0
SPLINE
  5
32
330
31
100
AcDbEntity
  8
BLOCKS
100
AcDbSpline
210
0.0
220
0.0
230
1.0
 70
    12
 71
     3
 72
     8
 73
     4
 74
     0
 42
0.0000000001
 43
0.0000000001
 40
2.356803477777957
 40
2.356803477777957
 40
2.356803477777957
 40
2.356803477777957
 40
3.926381829401628
 40
3.926381829401628
 40
3.926381829401628
 40
3.926381829401628
 10
0.4402757081475034
 20
-0.0091223409781287
 30
0.0
 41
1.0
 10
0.4414468624873093
 20
-0.0091223409781264
 30
0.0
 41
0.8050248461936604
 10
0.4422744898015436
 20
-0.0099499682923624
 30
0.0
 41
0.8050248461936604
 10
0.4422744898015436
 20
-0.0111211226321666
 30
0.0
 41
1.0
  0
SPLINE
  5
33
330
31
100
AcDbEntity
  8
BLOCKS
100
AcDbSpline
210
0.0
220
0.0
230
1.0
 70
    12
 71
     3
 72
     8
 73
     4
 74
     0
 42
0.0000000001
 43
0.0000000001
 40
2.356803477777958
 40
2.356803477777958
 40
2.356803477777958
 40
2.356803477777958
 40
3.926381829401628
 40
3.926381829401628
 40
3.926381829401628
 40
3.926381829401628
 10
0.4513968307796677
 20
-0.009993908270194
 30
0.0
 41
1.0
 10
0.4513968307796671
 20
-0.0041381365711686
 30
0.0
 41
0.8050248461936606
 10
0.4472586942085037
 20
-0.0000000000000045
 30
0.0
 41
0.8050248461936606
 10
0.4414029225094783
 20
-0.0000000000000023
 30
0.0
 41
1.0
  0
SPLINE
  5
34
330
31
100
AcDbEntity
  8
BLOCKS
100
AcDbSpline
210
0.0
220
0.0
230
1.0
 70
    24
 71
     3
 72
     8
 73
     4
 74
     0
 42
0.0000000001
 43
0.0000000001
 40
0.0
 40
0.0
 40
0.0
 40
0.0
 40
0.0019680587732853
 40
0.0019680587732853
 40
0.0019680587732853
 40
0.0019680587732853
 10
0.361213669423928
 20
-0.2111597401235008
 30
0.0
 10
0.3611800443747506
 20
-0.210505134480527
 30
0.0
 10
0.3611447637706033
 20
-0.2098511743864856
 30
0.0
 10
0.3611078229357145
 20
-0.2091978616645952
 30
0.0
  0
SPLINE
  5
35
330
31
100
AcDbEntity
  8
BLOCKS
100
AcDbSpline
210
0.0
220
0.0
230
1.0
 70
     8
 71
     3
 72
     8
 73
     4
 74
     0
 42
0.0000000001
 43
0.0000000001
 40
0.0
 40
0.0
 40
0.0
 40
0.0
 40
0.0863537305623328
 40
0.0863537305623328
 40
0.0863537305623328
 40
0.0863537305623328
 10
0.3611078229357145
 20
-0.2091978616645952
 30
0.0
 10
0.359486556482525
 20
-0.1805251475089653
 30
0.0
 10
0.357993727891585
 20
-0.1518112585529161
 30
0.0
 10
0.3566357134152258
 20
-0.1230541506880195
 30
0.0
  0
SPLINE
  5
36
330
31
100
AcDbEntity
  8
BLOCKS
100
AcDbSpline
210
0.0
220
0.0
230
1.0
 70
    24
 71
     3
 72
     8
 73
     4
 74
     0
 42
0.0000000001
 43
0.0000000001
 40
0.0
 40
0.0
 40
0.0
 40
0.0
 40
0.0001127335048857
 40
0.0001127335048857
 40
0.0001127335048857
 40
0.0001127335048857
 10
0.3566357134152258
 20
-0.1230541506880195
 30
0.0
 10
0.3566418502912938
 20
-0.1230473705708619
 30
0.0
 10
0.3566480404536514
 20
-0.1230412917628314
 30
0.0
 10
0.3566542769847911
 20
-0.1230359175292324
 30
0.0
  0
ARC
  5
37
330
31
100
AcDbEntity
  8
BLOCKS
100
AcDbCircle
 10
-1.583047078000605
 20
-1.096618012012777
 30
0.0
 40
1.969385551110054
100
AcDbArc
 50
4.776257108804591
 51
5.524049528581044
  0
SPLINE
  5
38
330
31
100
AcDbEntity
  8
BLOCKS
100
AcDbSpline
210
0.0
220
0.0
230
1.0
 70
    12
 71
     3
 72
     8
 73
     4
 74
     0
 42
0.0000000001
 43
0.0000000001
 40
4.887089450298923
 40
4.887089450298923
 40
4.887089450298923
 40
4.887089450298923
 40
5.310575025407036
 40
5.310575025407036
 40
5.310575025407036
 40
5.310575025407036
 10
0.387629519188913
 20
-0.7254181499579023
 30
0.0
 41
1.0
 10
0.3909284093165046
 20
-0.7992782069613577
 30
0.0
 41
0.9851107521991181
 10
0.3934249924352434
 20
-0.8687800666779549
 30
0.0
 41
0.9851107521991181
 10
0.3950077518109993
 20
-0.9308192378718604
 30
0.0
 41
1.0
  0
LINE
  5
39
330
31
100
AcDbEntity
  8
BLOCKS
100
AcDbLine
 10
0.387629519188913
 20
-0.7254181499578999
 30
0.0
 11
0.361213669423928
 21
-0.2111597401234985
 31
0.0
  0
LINE
  5
3A
330
31
100
AcDbEntity
  8
BLOCKS
100
AcDbLine
 10
0.3905811304916552
 20
-0.7252892798253243
 30
0.0
 11
0.3641112216015358
 21
-0.1190286925177452
 31
0.0
  0
SPLINE
  5
3B
330
31
100
AcDbEntity
  8
BLOCKS
100
AcDbSpline
210
0.0
220
0.0
230
1.0
 70
    24
 71
     3
 72
     8
 73
     4
 74
     0
 42
0.0000000001
 43
0.0000000001
 40
-0.0000501140806607
 40
-0.0000501140806607
 40
-0.0000501140806607
 40
-0.0000501140806607
 40
0.0100926705359689
 40
0.0100926705359689
 40
0.0100926705359689
 40
0.0100926705359689
 10
0.3986513092252198
 20
-1.007322275519509
 30
0.0
 10
0.3983251150079059
 20
-1.003957119815315
 30
0.0
 10
0.3979954364482228
 20
-1.000592364517788
 30
0.0
 10
0.3976703832784324
 20
-0.9972282721628268
 30
0.0
  0
ARC
  5
3C
330
31
100
AcDbEntity
  8
BLOCKS
100
AcDbCircle
 10
0.9687753410578887
 20
-0.5046500939170392
 30
0.0
 40
0.7600794260010764
100
AcDbArc
 50
220.7244093990064
 51
221.4022750724963
  0
SPLINE
  5
3D
330
31
100
AcDbEntity
  8
BLOCKS
100
AcDbSpline
210
0.0
220
0.0
230
1.0
 70
    12
 71
     3
 72
     8
 73
     4
 74
     0
 42
0.0000000001
 43
0.0000000001
 40
2.356803477777881
 40
2.356803477777881
 40
2.356803477777881
 40
2.356803477777881
 40
3.926381829401628
 40
3.926381829401628
 40
3.926381829401628
 40
3.926381829401628
 10
0.4422744898015436
 20
-1.091672538927177
 30
0.0
 41
1.0
 10
0.4422744898015435
 20
-1.092843693266985
 30
0.0
 41
0.8050248461936423
 10
0.4414468624873133
 20
-1.093671320581216
 30
0.0
 41
0.8050248461936423
 10
0.4402757081475034
 20
-1.093671320581215
 30
0.0
 41
1.0
  0
SPLINE
  5
3E
330
31
100
AcDbEntity
  8
BLOCKS
100
AcDbSpline
210
0.0
220
0.0
230
1.0
 70
    12
 71
     3
 72
     8
 73
     4
 74
     0
 42
0.0000000001
 43
0.0000000001
 40
2.356803477777958
 40
2.356803477777958
 40
2.356803477777958
 40
2.356803477777958
 40
3.92638182940166
 40
3.92638182940166
 40
3.92638182940166
 40
3.92638182940166
 10
0.4414029225094783
 20
-1.102793661559342
 30
0.0
 41
1.0
 10
0.4472586942085036
 20
-1.102793661559345
 30
0.0
 41
0.8050248461936529
 10
0.4513968307796678
 20
-1.098655524988181
 30
0.0
 41
0.8050248461936529
 10
0.4513968307796677
 20
-1.09279975328915
 30
0.0
 41
1.0
  0
ARC
  5
3F
330
31
100
AcDbEntity
  8
BLOCKS
100
AcDbCircle
 10
0.5909373115399866
 20
-0.9266413116094621
 30
0.0
 40
0.2115226313418501
100
AcDbArc
 50
181.6243760724945
 51
200.4491186186865
  0
ARC
  5
40
330
31
100
AcDbEntity
  8
BLOCKS
100
AcDbCircle
 10
2.193658958141463
 20
-0.8919612630862582
 30
0.0
 40
1.79907090028116
100
AcDbArc
 50
181.2376227634578
 51
183.354399309669
  0
SPLINE
  5
41
330
31
100
AcDbEntity
  8
BLOCKS
100
AcDbSpline
210
0.0
220
0.0
230
1.0
 70
    12
 71
     3
 72
     8
 73
     4
 74
     0
 42
0.0000000001
 43
0.0000000001
 40
0.7840417924567785
 40
0.7840417924567785
 40
0.7840417924567785
 40
0.7840417924567785
 40
1.396095856880664
 40
1.396095856880664
 40
1.396095856880664
 40
1.396095856880664
 10
0.3986513092252198
 20
-1.007322275519509
 30
0.0
 41
1.0
 10
0.3980581063304782
 20
-0.9299742958140857
 30
0.0
 41
0.9690253592009643
 10
0.3952820597055735
 20
-0.8329582604006827
 30
0.0
 41
0.9690253592009643
 10
0.3905811304916552
 20
-0.7252892798253243
 30
0.0
 41
1.0
  0
LINE
  5
42
330
31
100
AcDbEntity
  8
BLOCKS
100
AcDbLine
 10
0.4422744898015436
 20
-0.0111211226321666
 30
0.0
 11
0.4422744898015436
 21
-1.091672538927177
 31
0.0
  0
LINE
  5
43
330
31
100
AcDbEntity
  8
BLOCKS
100
AcDbLine
 10
0.4513968307796677
 20
-1.09279975328915
 30
0.0
 11
0.4513968307796677
 21
-0.009993908270194
 31
0.0
  0
SPLINE
  5
44
330
31
100
AcDbEntity
  8
BLOCKS
100
AcDbSpline
210
0.0
220
0.0
230
1.0
 70
    12
 71
     3
 72
     8
 73
     4
 74
     0
 42
0.0000000001
 43
0.0000000001
 40
2.356803477777959
 40
2.356803477777959
 40
2.356803477777959
 40
2.356803477777959
 40
3.926381829401649
 40
3.926381829401649
 40
3.926381829401649
 40
3.926381829401649
 10
-0.4422744898015436
 20
-0.0111211226321666
 30
0.0
 41
1.0
 10
-0.4422744898015458
 20
-0.0099499682923624
 30
0.0
 41
0.8050248461936558
 10
-0.441446862487312
 20
-0.0091223409781287
 30
0.0
 41
0.8050248461936558
 10
-0.4402757081475057
 20
-0.0091223409781287
 30
0.0
 41
1.0
  0
SPLINE
  5
45
330
31
100
AcDbEntity
  8
BLOCKS
100
AcDbSpline
210
0.0
220
0.0
230
1.0
 70
    12
 71
     3
 72
     8
 73
     4
 74
     0
 42
0.0000000001
 43
0.0000000001
 40
2.356803477777947
 40
2.356803477777947
 40
2.356803477777947
 40
2.356803477777947
 40
3.926381829401628
 40
3.926381829401628
 40
3.926381829401628
 40
3.926381829401628
 10
-0.4414029225094806
 20
-0.0000000000000023
 30
0.0
 41
1.0
 10
-0.4472586942085037
 20
-0.0000000000000023
 30
0.0
 41
0.8050248461936579
 10
-0.4513968307796726
 20
-0.0041381365711686
 30
0.0
 41
0.8050248461936579
 10
-0.4513968307796722
 20
-0.009993908270194
 30
0.0
 41
1.0
  0
SPLINE
  5
46
330
31
100
AcDbEntity
  8
BLOCKS
100
AcDbSpline
210
0.0
220
0.0
230
1.0
 70
    24
 71
     3
 72
     8
 73
     4
 74
     0
 42
0.0000000001
 43
0.0000000001
 40
0.0
 40
0.0
 40
0.0
 40
0.0
 40
0.0007424183263186
 40
0.0007424183263186
 40
0.0007424183263186
 40
0.0007424183263186
 10
0.3431214567681695
 20
-0.1073317518846466
 30
0.0
 10
0.3431137212106228
 20
-0.107374033180638
 30
0.0
 10
0.3431053093051469
 20
-0.1074207731114507
 30
0.0
 10
0.343096221109995
 20
-0.1074719721897486
 30
0.0
  0
SPLINE
  5
47
330
31
100
AcDbEntity
  8
BLOCKS
100
AcDbSpline
210
0.0
220
0.0
230
1.0
 70
    24
 71
     3
 72
     8
 73
     4
 74
     0
 42
0.0000000001
 43
0.0000000001
 40
0.0
 40
0.0
 40
0.0
 40
0.0
 40
0.0013893533214999
 40
0.0013893533214999
 40
0.0013893533214999
 40
0.0013893533214999
 10
0.3415754325486978
 20
-0.2115047917601396
 30
0.0
 10
0.3415639504156707
 20
-0.2119666085835252
 30
0.0
 10
0.3415508895407857
 20
-0.2124287659670381
 30
0.0
 10
0.3415362607389921
 20
-0.2128912620879873
 30
0.0
  0
ARC
  5
48
330
31
100
AcDbEntity
  8
BLOCKS
100
AcDbCircle
 10
-1.726465557433649
 20
-0.2678226134122224
 30
0.0
 40
2.068807683977124
100
AcDbArc
 50
1.559918878407715
 51
3.912998433582013
  0
CIRCLE
  5
49
330
31
100
AcDbEntity
  8
BLOCKS
100
AcDbCircle
 10
0.2980575650343883
 20
-0.5203790617493678
 30
0.0
 40
0.0065997057035933
  0
CIRCLE
  5
4A
330
31
100
AcDbEntity
  8
BLOCKS
100
AcDbCircle
 10
0.2955998021924495
 20
-0.4489274436563847
 30
0.0
 40
0.0070844371812591
  0
CIRCLE
  5
4B
330
31
100
AcDbEntity
  8
BLOCKS
100
AcDbCircle
 10
0.2931410094270803
 20
-0.3773447710178743
 30
0.0
 40
0.0075956008044653
  0
CIRCLE
  5
4C
330
31
100
AcDbEntity
  8
BLOCKS
100
AcDbCircle
 10
0.2219619753326867
 20
-0.4596174290119007
 30
0.0
 40
0.007084668195936
  0
CIRCLE
  5
4D
330
31
100
AcDbEntity
  8
BLOCKS
100
AcDbCircle
 10
0.2201120537592749
 20
-0.3878562297579993
 30
0.0
 40
0.0070941980696907
  0
CIRCLE
  5
4E
330
31
100
AcDbEntity
  8
BLOCKS
100
AcDbCircle
 10
0.2182614351667223
 20
-0.3162099910654115
 30
0.0
 40
0.0080498446483643
  0
CIRCLE
  5
4F
330
31
100
AcDbEntity
  8
BLOCKS
100
AcDbCircle
 10
0.1467132602645222
 20
-0.3953688379229789
 30
0.0
 40
0.0075638232488715
  0
CIRCLE
  5
50
330
31
100
AcDbEntity
  8
BLOCKS
100
AcDbCircle
 10
0.1479448248306642
 20
-0.4672576730337051
 30
0.0
 40
0.0070850605636882
  0
CIRCLE
  5
51
330
31
100
AcDbEntity
  8
BLOCKS
100
AcDbCircle
 10
0.1454811636774218
 20
-0.3235420089886384
 30
0.0
 40
0.0080420274053286
  0
CIRCLE
  5
52
330
31
100
AcDbEntity
  8
BLOCKS
100
AcDbCircle
 10
0.072460595685551
 20
-0.3280214588223771
 30
0.0
 40
0.0080497829965483
  0
CIRCLE
  5
53
330
31
100
AcDbEntity
  8
BLOCKS
100
AcDbCircle
 10
0.0730679554477717
 20
-0.3998699726390032
 30
0.0
 40
0.0075558640580676
  0
CIRCLE
  5
54
330
31
100
AcDbEntity
  8
BLOCKS
100
AcDbCircle
 10
0.073674842870804
 20
-0.4718351188674206
 30
0.0
 40
0.0070847216282313
  0
CIRCLE
  5
55
330
31
100
AcDbEntity
  8
BLOCKS
100
AcDbCircle
 10
0.2906811963453344
 20
-0.3058215849908174
 30
0.0
 40
0.0080414561640488
  0
CIRCLE
  5
56
330
31
100
AcDbEntity
  8
BLOCKS
100
AcDbCircle
 10
-0.0007210462841965
 20
-0.4733419438514238
 30
0.0
 40
0.0070846887300188
  0
CIRCLE
  5
57
330
31
100
AcDbEntity
  8
BLOCKS
100
AcDbCircle
 10
-0.0007001199914919
 20
-0.401352070985945
 30
0.0
 40
0.0075542865766104
  0
CIRCLE
  5
58
330
31
100
AcDbEntity
  8
BLOCKS
100
AcDbCircle
 10
-0.0006796580943444
 20
-0.3294250110760299
 30
0.0
 40
0.0080508884997306
  0
CIRCLE
  5
59
330
31
100
AcDbEntity
  8
BLOCKS
100
AcDbCircle
 10
-0.0738187892583722
 20
-0.3279122731169719
 30
0.0
 40
0.008035925033618
  0
CIRCLE
  5
5A
330
31
100
AcDbEntity
  8
BLOCKS
100
AcDbCircle
 10
-0.0744670190714771
 20
-0.3998710518695225
 30
0.0
 40
0.0075659854247621
  0
CIRCLE
  5
5B
330
31
100
AcDbEntity
  8
BLOCKS
100
AcDbCircle
 10
-0.0751157032015465
 20
-0.4717755728854537
 30
0.0
 40
0.0070850124972765
  0
CIRCLE
  5
5C
330
31
100
AcDbEntity
  8
BLOCKS
100
AcDbCircle
 10
-0.2196106589351177
 20
-0.3159908082863876
 30
0.0
 40
0.0080515630798422
  0
CIRCLE
  5
5D
330
31
100
AcDbEntity
  8
BLOCKS
100
AcDbCircle
 10
-0.2215017183647399
 20
-0.3876846251022243
 30
0.0
 40
0.007577050811549
  0
CIRCLE
  5
5E
330
31
100
AcDbEntity
  8
BLOCKS
100
AcDbCircle
 10
-0.2233929903936894
 20
-0.4593757278118347
 30
0.0
 40
0.0071137353848622
  0
CIRCLE
  5
5F
330
31
100
AcDbEntity
  8
BLOCKS
100
AcDbCircle
 10
-0.2995218493128698
 20
-0.5201328139876365
 30
0.0
 40
0.006631997889999
  0
CIRCLE
  5
60
330
31
100
AcDbEntity
  8
BLOCKS
100
AcDbCircle
 10
-0.2970222210465079
 20
-0.448690276301054
 30
0.0
 40
0.0070823080008095
  0
CIRCLE
  5
61
330
31
100
AcDbEntity
  8
BLOCKS
100
AcDbCircle
 10
-0.2945224671660492
 20
-0.3771164135820845
 30
0.0
 40
0.007571767882089
  0
CIRCLE
  5
62
330
31
100
AcDbEntity
  8
BLOCKS
100
AcDbCircle
 10
-0.1493819905543035
 20
-0.4671386828313371
 30
0.0
 40
0.0070851956881361
  0
CIRCLE
  5
63
330
31
100
AcDbEntity
  8
BLOCKS
100
AcDbCircle
 10
-0.1481087967869519
 20
-0.3953126835464582
 30
0.0
 40
0.0075659568969209
  0
CIRCLE
  5
64
330
31
100
AcDbEntity
  8
BLOCKS
100
AcDbCircle
 10
-0.1468359912568997
 20
-0.3234857435892309
 30
0.0
 40
0.0080479454087107
  0
CIRCLE
  5
65
330
31
100
AcDbEntity
  8
BLOCKS
100
AcDbCircle
 10
-0.2920225877409223
 20
-0.3056557774855127
 30
0.0
 40
0.0080475985661132
  0
CIRCLE
  5
66
330
31
100
AcDbEntity
  8
BLOCKS
100
AcDbCircle
 10
0.0006013188015095
 20
-0.1638393248992566
 30
0.0
 40
0.0514953616303648
  0
CIRCLE
  5
67
330
31
100
AcDbEntity
  8
BLOCKS
100
AcDbCircle
 10
0.0
 20
-0.1652881754919735
 30
0.0
 40
0.0669463893702293
  0
CIRCLE
  5
68
330
31
100
AcDbEntity
  8
BLOCKS
100
AcDbCircle
 10
0.0000428912535517
 20
-0.1656580716152553
 30
0.0
 40
0.0618886612127864
  0
CIRCLE
  5
69
330
31
100
AcDbEntity
  8
BLOCKS
100
AcDbCircle
 10
0.0000428912535517
 20
-0.1656580716152553
 30
0.0
 40
0.0450428912535522
  0
CIRCLE
  5
6A
330
31
100
AcDbEntity
  8
BLOCKS
100
AcDbCircle
 10
0.3005142883484939
 20
-0.5918898735779477
 30
0.0
 40
0.0060879367610265
  0
CIRCLE
  5
6B
330
31
100
AcDbEntity
  8
BLOCKS
100
AcDbCircle
 10
0.2256596992309949
 20
-0.6030174452366737
 30
0.0
 40
0.0061318362882562
  0
CIRCLE
  5
6C
330
31
100
AcDbEntity
  8
BLOCKS
100
AcDbCircle
 10
0.1491758516104835
 20
-0.5390179710453732
 30
0.0
 40
0.006640450092807
  0
CIRCLE
  5
6D
330
31
100
AcDbEntity
  8
BLOCKS
100
AcDbCircle
 10
0.1504063348325315
 20
-0.6108399781001868
 30
0.0
 40
0.0061226473835068
  0
CIRCLE
  5
6E
330
31
100
AcDbEntity
  8
BLOCKS
100
AcDbCircle
 10
0.0742812526278056
 20
-0.5437416707031753
 30
0.0
 40
0.006606735357418
  0
CIRCLE
  5
6F
330
31
100
AcDbEntity
  8
BLOCKS
100
AcDbCircle
 10
0.0748871793839328
 20
-0.6156480380079847
 30
0.0
 40
0.0061315618201211
  0
CIRCLE
  5
70
330
31
100
AcDbEntity
  8
BLOCKS
100
AcDbCircle
 10
-0.0007643131904399
 20
-0.6171287389269402
 30
0.0
 40
0.0061356918037729
  0
CIRCLE
  5
71
330
31
100
AcDbEntity
  8
BLOCKS
100
AcDbCircle
 10
-0.0007424422538418
 20
-0.5452734071156078
 30
0.0
 40
0.0066057235354339
  0
CIRCLE
  5
72
330
31
100
AcDbEntity
  8
BLOCKS
100
AcDbCircle
 10
-0.0757648468200125
 20
-0.5436798404003593
 30
0.0
 40
0.0066060308102059
  0
CIRCLE
  5
73
330
31
100
AcDbEntity
  8
BLOCKS
100
AcDbCircle
 10
-0.0764144551062384
 20
-0.6155838536857687
 30
0.0
 40
0.0061318307252087
  0
CIRCLE
  5
74
330
31
100
AcDbEntity
  8
BLOCKS
100
AcDbCircle
 10
-0.15192956096594
 20
-0.6107117228792914
 30
0.0
 40
0.0061330700413019
  0
CIRCLE
  5
75
330
31
100
AcDbEntity
  8
BLOCKS
100
AcDbCircle
 10
-0.150655577098729
 20
-0.5388944178967132
 30
0.0
 40
0.0066306195340122
  0
CIRCLE
  5
76
330
31
100
AcDbEntity
  8
BLOCKS
100
AcDbCircle
 10
-0.2271761840014244
 20
-0.6028253457637357
 30
0.0
 40
0.0061311697650743
  0
CIRCLE
  5
77
330
31
100
AcDbEntity
  8
BLOCKS
100
AcDbCircle
 10
0.2238111928398496
 20
-0.5312490414904256
 30
0.0
 40
0.0066274609035207
  0
CIRCLE
  5
78
330
31
100
AcDbEntity
  8
BLOCKS
100
AcDbCircle
 10
-0.225284477959209
 20
-0.5310639802231164
 30
0.0
 40
0.006646368714562
  0
ELLIPSE
  5
79
330
31
100
AcDbEntity
  8
BLOCKS
100
AcDbEllipse
 10
-0.3399299072168833
 20
-0.1237649513898577
 30
0.0
 11
-0.0110974976750555
 21
-0.0128781033289897
 31
0.0
210
0.0
220
0.0
230
1.0
 40
0.9757062606184314
 41
4.056677326783855
 42
5.368100633985524
  0
ARC
  5
7A
330
31
100
AcDbEntity
  8
BLOCKS
100
AcDbCircle
 10
1.701916544545468
 20
-0.2665999417379521
 30
0.0
 40
2.044232458547148
100
AcDbArc
 50
176.0745029535643
 51
178.4560186697833
  0
SPLINE
  5
7B
330
31
100
AcDbEntity
  8
BLOCKS
100
AcDbSpline
210
0.0
220
0.0
230
1.0
 70
    24
 71
     3
 72
     8
 73
     4
 74
     0
 42
0.0000000001
 43
0.0000000001
 40
0.0
 40
0.0
 40
0.0
 40
0.0
 40
0.0013560051158758
 40
0.0013560051158758
 40
0.0013560051158758
 40
0.0013560051158758
 10
-0.3415353097983825
 20
-0.2128727493688371
 30
0.0
 10
-0.3415496123093862
 20
-0.2124213575107819
 30
0.0
 10
-0.3415624216881474
 20
-0.211970285915304
 30
0.0
 10
-0.341573727883183
 20
-0.2115195362638224
 30
0.0
  0
SPLINE
  5
7C
330
31
100
AcDbEntity
  8
BLOCKS
100
AcDbSpline
210
0.0
220
0.0
230
1.0
 70
    24
 71
     3
 72
     8
 73
     4
 74
     0
 42
0.0000000001
 43
0.0000000001
 40
0.0000000000000002
 40
0.0000000000000002
 40
0.0000000000000002
 40
0.0000000000000002
 40
0.0007520478371279
 40
0.0007520478371279
 40
0.0007520478371279
 40
0.0007520478371279
 10
-0.3431228951409639
 20
-0.1073305237508975
 30
0.0
 10
-0.3431150719994798
 20
-0.1073733561275662
 30
0.0
 10
-0.3431065548799302
 20
-0.1074207633511673
 30
0.0
 10
-0.3430973438430032
 20
-0.1074727459546216
 30
0.0
  0
SPLINE
  5
7D
330
31
100
AcDbEntity
  8
BLOCKS
100
AcDbSpline
210
0.0
220
0.0
230
1.0
 70
    24
 71
     3
 72
     8
 73
     4
 74
     0
 42
0.0000000001
 43
0.0000000001
 40
0.0
 40
0.0
 40
0.0
 40
0.0
 40
0.0001141956699916
 40
0.0001141956699916
 40
0.0001141956699916
 40
0.0001141956699916
 10
-0.3566557045990817
 20
-0.1230346873052554
 30
0.0
 10
-0.3566493871792659
 20
-0.1230401312398089
 30
0.0
 10
-0.3566431173232377
 20
-0.1230462981497522
 30
0.0
 10
-0.3566369022208073
 20
-0.1230531846310532
 30
0.0
  0
SPLINE
  5
7E
330
31
100
AcDbEntity
  8
BLOCKS
100
AcDbSpline
210
0.0
220
0.0
230
1.0
 70
     8
 71
     3
 72
     8
 73
     4
 74
     0
 42
0.0000000001
 43
0.0000000001
 40
0.0
 40
0.0
 40
0.0
 40
0.0
 40
0.0863830553487289
 40
0.0863830553487289
 40
0.0863830553487289
 40
0.0863830553487289
 10
-0.3566369022208073
 20
-0.1230531846310532
 30
0.0
 10
-0.3579982274915392
 20
-0.1518190927801788
 30
0.0
 10
-0.3594912404241677
 20
-0.1805428368681169
 30
0.0
 10
-0.3611095336399012
 20
-0.2092264684242786
 30
0.0
  0
SPLINE
  5
7F
330
31
100
AcDbEntity
  8
BLOCKS
100
AcDbSpline
210
0.0
220
0.0
230
1.0
 70
    24
 71
     3
 72
     8
 73
     4
 74
     0
 42
0.0000000001
 43
0.0000000001
 40
0.0
 40
0.0
 40
0.0
 40
0.0
 40
0.0019207452109999
 40
0.0019207452109999
 40
0.0019207452109999
 40
0.0019207452109999
 10
-0.3611095336399012
 20
-0.2092264684242786
 30
0.0
 10
-0.3611455084777345
 20
-0.2098641087379656
 30
0.0
 10
-0.361179901976152
 20
-0.2105023622933959
 30
0.0
 10
-0.3612127184833184
 20
-0.2111412274043551
 30
0.0
  0
ARC
  5
80
330
31
100
AcDbEntity
  8
BLOCKS
100
AcDbCircle
 10
-0.3445108033585302
 20
-0.1198216195491796
 30
0.0
 40
0.0196164504581752
100
AcDbArc
 50
100.9294833735258
 51
177.6833855192755
  0
ARC
  5
81
330
31
100
AcDbEntity
  8
BLOCKS
100
AcDbCircle
 10
1.583046785150885
 20
-1.09661798561814
 30
0.0
 40
1.969385257079526
100
AcDbArc
 50
174.4759504155972
 51
175.2237429470223
  0
SPLINE
  5
82
330
31
100
AcDbEntity
  8
BLOCKS
100
AcDbSpline
210
0.0
220
0.0
230
1.0
 70
    12
 71
     3
 72
     8
 73
     4
 74
     0
 42
0.0000000001
 43
0.0000000001
 40
4.114202935362345
 40
4.114202935362345
 40
4.114202935362345
 40
4.114202935362345
 40
4.537688510470456
 40
4.537688510470456
 40
4.537688510470456
 40
4.537688510470456
 10
-0.3950077518110038
 20
-0.9308192378718604
 30
0.0
 41
1.0
 10
-0.3934249924352446
 20
-0.8687800666779528
 30
0.0
 41
0.9851107521991181
 10
-0.390928409316507
 20
-0.799278206961358
 30
0.0
 41
0.9851107521991181
 10
-0.3876295191889176
 20
-0.7254181499578999
 30
0.0
 41
1.0
  0
LINE
  5
83
330
31
100
AcDbEntity
  8
BLOCKS
100
AcDbLine
 10
-0.3612127184833184
 20
-0.2111412274043551
 30
0.0
 11
-0.3876295191889176
 21
-0.7254181499578988
 31
0.0
  0
LINE
  5
84
330
31
100
AcDbEntity
  8
BLOCKS
100
AcDbLine
 10
-0.3771924103903894
 20
-0.9070379574878199
 30
0.0
 11
-0.3415353097983802
 21
-0.2128727493688348
 31
0.0
  0
LINE
  5
85
330
31
100
AcDbEntity
  8
BLOCKS
100
AcDbLine
 10
-0.3641112216015381
 20
-0.1190286925177406
 30
0.0
 11
-0.3905811304916575
 21
-0.7252892798253209
 31
0.0
  0
CIRCLE
  5
86
330
31
100
AcDbEntity
  8
BLOCKS
100
AcDbCircle
 10
-0.3020213518948879
 20
-0.591634269322185
 30
0.0
 40
0.0061858714992323
  0
ARC
  5
87
330
31
100
AcDbEntity
  8
BLOCKS
100
AcDbCircle
 10
-0.0000000000000011
 20
-1.873396830779672
 30
0.0
 40
1.806712797049418
100
AcDbArc
 50
78.88713110719303
 51
101.1128688928069
  0
ARC
  5
88
330
31
100
AcDbEntity
  8
BLOCKS
100
AcDbCircle
 10
0.0000387573481294
 20
1.199620511928305
 30
0.0
 40
1.453206818232299
100
AcDbArc
 50
256.4055189364223
 51
283.5913753841144
  0
ARC
  5
89
330
31
100
AcDbEntity
  8
BLOCKS
100
AcDbCircle
 10
0.0000221601759029
 20
-1.723872184267006
 30
0.0
 40
1.632495897561304
100
AcDbArc
 50
78.06880310841655
 51
101.932808170046
  0
ARC
  5
8A
330
31
100
AcDbEntity
  8
BLOCKS
100
AcDbCircle
 10
-0.0000039464519762
 20
-1.91063047694806
 30
0.0
 40
1.835652835955189
100
AcDbArc
 50
79.22674236120428
 51
100.7730525605892
  0
SPLINE
  5
8B
330
31
100
AcDbEntity
  8
BLOCKS
100
AcDbSpline
210
0.0
220
0.0
230
1.0
 70
    24
 71
     3
 72
     8
 73
     4
 74
     0
 42
0.0000000001
 43
0.0000000001
 40
0.0
 40
0.0
 40
0.0
 40
0.0
 40
0.0101427164850063
 40
0.0101427164850063
 40
0.0101427164850063
 40
0.0101427164850063
 10
-0.3976703832784347
 20
-0.9972282721628243
 30
0.0
 10
-0.397995435914786
 20
-1.000592358997028
 30
0.0
 10
-0.3983251172027667
 20
-1.003957142419633
 30
0.0
 10
-0.3986513092252198
 20
-1.007322275519509
 30
0.0
  0
ARC
  5
8C
330
31
100
AcDbEntity
  8
BLOCKS
100
AcDbCircle
 10
-0.968775340996027
 20
-0.5046500939709019
 30
0.0
 40
0.7600794259190494
100
AcDbArc
 50
318.5977249274647
 51
319.2755906010271
  0
SPLINE
  5
8D
330
31
100
AcDbEntity
  8
BLOCKS
100
AcDbSpline
210
0.0
220
0.0
230
1.0
 70
    12
 71
     3
 72
     8
 73
     4
 74
     0
 42
0.0000000001
 43
0.0000000001
 40
2.356803477777936
 40
2.356803477777936
 40
2.356803477777936
 40
2.356803477777936
 40
3.926381829401816
 40
3.926381829401816
 40
3.926381829401816
 40
3.926381829401816
 10
-0.4402757081475057
 20
-1.093671320581215
 30
0.0
 41
1.0
 10
-0.4414468624873143
 20
-1.093671320581217
 30
0.0
 41
0.8050248461936112
 10
-0.4422744898015435
 20
-1.092843693266983
 30
0.0
 41
0.8050248461936112
 10
-0.4422744898015436
 20
-1.091672538927177
 30
0.0
 41
1.0
  0
SPLINE
  5
8E
330
31
100
AcDbEntity
  8
BLOCKS
100
AcDbSpline
210
0.0
220
0.0
230
1.0
 70
    12
 71
     3
 72
     8
 73
     4
 74
     0
 42
0.0000000001
 43
0.0000000001
 40
2.356803477777925
 40
2.356803477777925
 40
2.356803477777925
 40
2.356803477777925
 40
3.926381829401627
 40
3.926381829401627
 40
3.926381829401627
 40
3.926381829401627
 10
-0.4513968307796722
 20
-1.09279975328915
 30
0.0
 41
1.0
 10
-0.4513968307796734
 20
-1.098655524988177
 30
0.0
 41
0.8050248461936529
 10
-0.4472586942085055
 20
-1.102793661559345
 30
0.0
 41
0.8050248461936529
 10
-0.4414029225094806
 20
-1.102793661559342
 30
0.0
 41
1.0
  0
ARC
  5
8F
330
31
100
AcDbEntity
  8
BLOCKS
100
AcDbCircle
 10
-0.5908903071766087
 20
-0.9266504796219283
 30
0.0
 40
0.2114753861275558
100
AcDbArc
 50
339.5487594568443
 51
358.3777458519727
  0
ARC
  5
90
330
31
100
AcDbEntity
  8
BLOCKS
100
AcDbCircle
 10
-2.193651560541942
 20
-0.8919615596886979
 30
0.0
 40
1.799063498001091
100
AcDbArc
 50
356.6455963350776
 51
358.7623815917958
  0
SPLINE
  5
91
330
31
100
AcDbEntity
  8
BLOCKS
100
AcDbSpline
210
0.0
220
0.0
230
1.0
 70
    12
 71
     3
 72
     8
 73
     4
 74
     0
 42
0.0000000001
 43
0.0000000001
 40
1.74549679670913
 40
1.74549679670913
 40
1.74549679670913
 40
1.74549679670913
 40
2.357550861133014
 40
2.357550861133014
 40
2.357550861133014
 40
2.357550861133014
 10
-0.3905811304916575
 20
-0.7252892798253243
 30
0.0
 41
1.0
 10
-0.3952820597055757
 20
-0.8329582604006807
 30
0.0
 41
0.9690253592009645
 10
-0.3980581063304772
 20
-0.9299742958140859
 30
0.0
 41
0.9690253592009645
 10
-0.3986513092252198
 20
-1.007322275519509
 30
0.0
 41
1.0
  0
LINE
  5
92
330
31
100
AcDbEntity
  8
BLOCKS
100
AcDbLine
 10
-0.4422744898015436
 20
-1.091672538927176
 30
0.0
 11
-0.4422744898015436
 21
-0.0111211226321666
 31
0.0
  0
LINE
  5
93
330
31
100
AcDbEntity
  8
BLOCKS
100
AcDbLine
 10
-0.4513968307796722
 20
-0.009993908270194
 30
0.0
 11
-0.4513968307796722
 21
-1.092799753289149
 31
0.0
  0
ELLIPSE
  5
94
330
31
100
AcDbEntity
  8
BLOCKS
100
AcDbEllipse
 10
0.339928479602595
 20
-0.1237661816138348
 30
0.0
 11
0.0110975018902652
 21
-0.0128780996965997
 31
0.0
210
0.0
220
0.0
230
1.0
 40
0.9757062485331916
 41
0.9150843538297161
 42
2.226508299759883
  0
LINE
  5
95
330
31
100
AcDbEntity
  8
BLOCKS
100
AcDbLine
 10
0.3415362607389898
 20
-0.2128912620879873
 30
0.0
 11
0.3771924103903848
 21
-0.9070379574878211
 31
0.0
  0
ARC
  5
96
330
31
100
AcDbEntity
  8
BLOCKS
100
AcDbCircle
 10
0.0
 20
0.3036400319632321
 30
0.0
 40
1.268075434900209
100
AcDbArc
 50
252.6953319979244
 51
287.3046680020756
  0
ARC
  5
97
330
31
100
AcDbEntity
  8
BLOCKS
100
AcDbCircle
 10
0.0
 20
0.7728083241632249
 30
0.0
 40
1.824222524330236
100
AcDbArc
 50
257.377165023055
 51
282.6228349769449
  0
ARC
  5
98
330
31
100
AcDbEntity
  8
BLOCKS
100
AcDbCircle
 10
0.3445108033654106
 20
-0.119821619543261
 30
0.0
 40
0.0196164504510586
100
AcDbArc
 50
2.316614464256983
 51
79.07051664293885
  0
LINE
  5
99
330
31
100
AcDbEntity
  8
BLOCKS
100
AcDbLine
 10
-0.4402757081475057
 20
-0.0091223409781287
 30
0.0
 11
0.4402757081475057
 21
-0.0091223409781287
 31
0.0
  0
LINE
  5
9A
330
31
100
AcDbEntity
  8
BLOCKS
100
AcDbLine
 10
0.4402757081475034
 20
-1.093671320581215
 30
0.0
 11
-0.4402757081475057
 21
-1.093671320581214
 31
0.0
  0
LINE
  5
9B
330
31
100
AcDbEntity
  8
BLOCKS
100
AcDbLine
 10
-0.4414029225094806
 20
-1.102793661559338
 30
0.0
 11
0.4414029225094783
 21
-1.102793661559339
 31
0.0
  0
LINE
  5
9C
330
31
100
AcDbEntity
  8
BLOCKS
100
AcDbLine
 10
0.4414029225094783
 20
0.0
 30
0.0
 11
-0.4414029225094806
 21
0.0
 31
0.0
  0
ENDBLK
  5
9F
330
31
100
AcDbEntity
  8
0
100
AcDbBlockEnd
  0
BLOCK
  5
154
330
A2
100
AcDbEntity
  8
0
100
AcDbBlockBegin
  2
80011CT
 70
     0
 10
0.0
 20
0.0
 30
0.0
  3
80011CT
  1

  0
ARC
  5
A3
330
A2
100
AcDbEntity
  8
BLOCKS
100
AcDbCircle
 10
1.093671320581215
 20
0.0320000000000005
 30
0.0
 40
0.0030000000000005
100
AcDbArc
 50
2.000000000000028
 51
90.0
  0
ARC
  5
A4
330
A2
100
AcDbEntity
  8
BLOCKS
100
AcDbCircle
 10
1.093671320581215
 20
0.0320000000000005
 30
0.0
 40
0.008
100
AcDbArc
 50
2.000000000000028
 51
90.0
  0
ARC
  5
A5
330
A2
100
AcDbEntity
  8
BLOCKS
100
AcDbCircle
 10
1.05144108638362
 20
-0.01034043860147
 30
0.0
 40
0.0453404465733022
100
AcDbArc
 50
90.03397612182329
 51
98.99731313987663
  0
ARC
  5
A6
330
A2
100
AcDbEntity
  8
BLOCKS
100
AcDbCircle
 10
1.051426445443214
 20
-0.0101550549805848
 30
0.0
 40
0.0501550564755251
100
AcDbArc
 50
90.01398918492112
 51
99.01730057003023
  0
ARC
  5
A7
330
A2
100
AcDbEntity
  8
BLOCKS
100
AcDbCircle
 10
0.8980587934898039
 20
0.0268782361835565
 30
0.0
 40
0.0034000000000001
100
AcDbArc
 50
54.28678929826306
 51
130.71321070174
  0
ARC
  5
A8
330
A2
100
AcDbEntity
  8
BLOCKS
100
AcDbCircle
 10
0.9047824656512284
 20
0.0271717980499329
 30
0.0
 40
0.0034000000000001
100
AcDbArc
 50
54.28678929826295
 51
130.7132107017376
  0
ARC
  5
A9
330
A2
100
AcDbEntity
  8
BLOCKS
100
AcDbCircle
 10
0.9031166235521528
 20
0.0270990658131495
 30
0.0
 40
0.0034000000000001
100
AcDbArc
 50
78.30574583631025
 51
130.7132107017362
  0
ARC
  5
AA
330
A2
100
AcDbEntity
  8
BLOCKS
100
AcDbCircle
 10
0.8993033708576422
 20
0.0335388633270372
 30
0.0
 40
0.005
100
AcDbArc
 50
272.5000000000012
 51
310.7132107017392
  0
ARC
  5
AB
330
A2
100
AcDbEntity
  8
BLOCKS
100
AcDbCircle
 10
0.9029621123701668
 20
0.0336986074313313
 30
0.0
 40
0.005
100
AcDbArc
 50
234.2867892982609
 51
240.2939498878038
  0
ARC
  5
AC
330
A2
100
AcDbEntity
  8
BLOCKS
100
AcDbCircle
 10
0.909685784531589
 20
0.0339921692977077
 30
0.0
 40
0.005
100
AcDbArc
 50
234.2867892982632
 51
272.5000000000012
  0
ARC
  5
AD
330
A2
100
AcDbEntity
  8
BLOCKS
100
AcDbCircle
 10
0.8976375287585687
 20
0.0334661310902561
 30
0.0
 40
0.005
100
AcDbArc
 50
272.5000000000012
 51
310.7132107017392
  0
LINE
  5
AE
330
A2
100
AcDbEntity
  8
BLOCKS
100
AcDbLine
 10
0.9068198605509952
 20
0.0288622769285939
 30
0.0
 11
0.9642173178126654
 21
0.0313683040331898
 31
0.0
  0
ARC
  5
AF
330
A2
100
AcDbEntity
  8
BLOCKS
100
AcDbCircle
 10
0.9336698157008049
 20
0.7308400210987499
 30
0.0
 40
0.7051384383531327
100
AcDbArc
 50
272.5006423644075
 51
279.030654539458
  0
ARC
  5
B0
330
A2
100
AcDbEntity
  8
BLOCKS
100
AcDbCircle
 10
0.9336749173401495
 20
0.7307894951595313
 30
0.0
 40
0.7000877379466603
100
AcDbArc
 50
272.5004102434519
 51
279.0308868448811
  0
LINE
  5
B1
330
A2
100
AcDbEntity
  8
BLOCKS
100
AcDbLine
 10
1.093671320581215
 20
0.035
 30
0.0
 11
1.051414199718333
 21
0.035
 31
0.0
  0
LINE
  5
B2
330
A2
100
AcDbEntity
  8
BLOCKS
100
AcDbLine
 10
1.09279975328915
 20
0.0
 30
0.0
 11
1.102793661559339
 21
0.0
 31
0.0
  0
LINE
  5
B3
330
A2
100
AcDbEntity
  8
BLOCKS
100
AcDbLine
 10
1.101666447197367
 20
0.0322791959736196
 30
0.0
 11
1.102793661559339
 21
0.0
 31
0.0
  0
LINE
  5
B4
330
A2
100
AcDbEntity
  8
BLOCKS
100
AcDbLine
 10
1.096669493062272
 20
0.0321046984901091
 30
0.0
 11
1.097790613837846
 21
0.0
 31
0.0
  0
LINE
  5
B5
330
A2
100
AcDbEntity
  8
BLOCKS
100
AcDbLine
 10
0.9070379574878211
 20
0.0238670358206832
 30
0.0
 11
0.9644354147494913
 21
0.0263730629252791
 31
0.0
  0
ARC
  5
B6
330
A2
100
AcDbEntity
  8
BLOCKS
100
AcDbCircle
 10
0.8210256786246418
 20
0.0301211854754433
 30
0.0
 40
0.005
100
AcDbArc
 50
272.5000000000005
 51
312.6572047736969
  0
ARC
  5
B7
330
A2
100
AcDbEntity
  8
BLOCKS
100
AcDbCircle
 10
0.8261999881516521
 20
0.024505429620715
 30
0.0
 40
0.002636111111111
100
AcDbArc
 50
52.34279522630647
 51
132.6572047736933
  0
ARC
  5
B8
330
A2
100
AcDbEntity
  8
BLOCKS
100
AcDbCircle
 10
0.8775591529957365
 20
0.0259832025502988
 30
0.0
 40
0.0034000000000001
100
AcDbArc
 50
54.28678929826186
 51
130.7132107017374
  0
ARC
  5
B9
330
A2
100
AcDbEntity
  8
BLOCKS
100
AcDbCircle
 10
0.8328176828402638
 20
0.0247943644106977
 30
0.0
 40
0.002636111111111
100
AcDbArc
 50
52.34279522630796
 51
132.6572047736967
  0
ARC
  5
BA
330
A2
100
AcDbEntity
  8
BLOCKS
100
AcDbCircle
 10
0.8178937361658176
 20
0.0241427708269771
 30
0.0
 40
0.002636111111111
100
AcDbArc
 50
52.34279522630642
 51
132.6572047736933
  0
ARC
  5
BB
330
A2
100
AcDbEntity
  8
BLOCKS
100
AcDbCircle
 10
0.8311168313450298
 20
0.0247201036306683
 30
0.0
 40
0.002636111111111
100
AcDbArc
 50
52.34279522630642
 51
132.6572047736933
  0
ARC
  5
BC
330
A2
100
AcDbEntity
  8
BLOCKS
100
AcDbCircle
 10
0.8896185245569085
 20
0.0265097260835432
 30
0.0
 40
0.0034000000000001
100
AcDbArc
 50
54.28678929825959
 51
130.7132107017374
  0
ARC
  5
BD
330
A2
100
AcDbEntity
  8
BLOCKS
100
AcDbCircle
 10
0.8259425218180195
 20
0.0303358594853967
 30
0.0
 40
0.005
100
AcDbArc
 50
272.5000000000005
 51
312.6572047736969
  0
ARC
  5
BE
330
A2
100
AcDbEntity
  8
BLOCKS
100
AcDbCircle
 10
0.8308651624961385
 20
0.0305507866190033
 30
0.0
 40
0.005
100
AcDbArc
 50
232.3427952263047
 51
272.5000000000018
  0
ARC
  5
BF
330
A2
100
AcDbEntity
  8
BLOCKS
100
AcDbCircle
 10
0.8225589105103017
 20
0.0301881278252654
 30
0.0
 40
0.005
100
AcDbArc
 50
232.3427952263047
 51
272.5000000000018
  0
ARC
  5
C0
330
A2
100
AcDbEntity
  8
BLOCKS
100
AcDbCircle
 10
0.8276433733132535
 20
0.030410120265426
 30
0.0
 40
0.005
100
AcDbArc
 50
272.5000000000005
 51
312.6572047736952
  0
ARC
  5
C1
330
A2
100
AcDbEntity
  8
BLOCKS
100
AcDbCircle
 10
0.8374828571847501
 20
0.0308397214089905
 30
0.0
 40
0.005
100
AcDbArc
 50
232.3427952263047
 51
272.5000000000018
  0
ARC
  5
C2
330
A2
100
AcDbEntity
  8
BLOCKS
100
AcDbCircle
 10
0.8945218434372714
 20
0.0333300973313203
 30
0.0
 40
0.005
100
AcDbArc
 50
234.2867892982633
 51
261.2903538416214
  0
ARC
  5
C3
330
A2
100
AcDbEntity
  8
BLOCKS
100
AcDbCircle
 10
0.8357820056895162
 20
0.0307654606289611
 30
0.0
 40
0.005
100
AcDbArc
 50
232.3427952263064
 51
272.5000000000018
  0
ARC
  5
C4
330
A2
100
AcDbEntity
  8
BLOCKS
100
AcDbCircle
 10
0.8841394297633247
 20
0.0328767913606498
 30
0.0
 40
0.005
100
AcDbArc
 50
272.5000000000012
 51
310.713210701739
  0
ARC
  5
C5
330
A2
100
AcDbEntity
  8
BLOCKS
100
AcDbCircle
 10
0.8824624718760992
 20
0.0328035737980758
 30
0.0
 40
0.005
100
AcDbArc
 50
234.2867892982624
 51
272.5000000000012
  0
ARC
  5
C6
330
A2
100
AcDbEntity
  8
BLOCKS
100
AcDbCircle
 10
0.8720800582021524
 20
0.0323502678274053
 30
0.0
 40
0.005
100
AcDbArc
 50
272.4999999999998
 51
310.713210701739
  0
ARC
  5
C7
330
A2
100
AcDbEntity
  8
BLOCKS
100
AcDbCircle
 10
0.8060319718469759
 20
0.0236248750122582
 30
0.0
 40
0.002636111111111
100
AcDbArc
 50
52.34279522630642
 51
132.6572047736933
  0
ARC
  5
C8
330
A2
100
AcDbEntity
  8
BLOCKS
100
AcDbCircle
 10
0.7609195402567093
 20
0.0208906070776288
 30
0.0
 40
0.0034000000000001
100
AcDbArc
 50
54.28678929826035
 51
130.7132107017397
  0
ARC
  5
C9
330
A2
100
AcDbEntity
  8
BLOCKS
100
AcDbCircle
 10
0.7592468715121754
 20
0.0208175767830699
 30
0.0
 40
0.0034000000000001
100
AcDbArc
 50
78.24634982445537
 51
130.7132107017379
  0
ARC
  5
CA
330
A2
100
AcDbEntity
  8
BLOCKS
100
AcDbCircle
 10
0.7544070252560688
 20
0.0206062645319958
 30
0.0
 40
0.0034000000000001
100
AcDbArc
 50
54.28678929826206
 51
130.7132107017385
  0
ARC
  5
CB
330
A2
100
AcDbEntity
  8
BLOCKS
100
AcDbCircle
 10
0.7348003736562668
 20
0.0197502196358687
 30
0.0
 40
0.0034000000000001
100
AcDbArc
 50
54.28678929826328
 51
130.7132107017403
  0
ARC
  5
CC
330
A2
100
AcDbEntity
  8
BLOCKS
100
AcDbCircle
 10
0.7462337451799068
 20
0.0202494114172146
 30
0.0
 40
0.0034000000000001
100
AcDbArc
 50
54.28678929826093
 51
130.7132107017385
  0
ARC
  5
CD
330
A2
100
AcDbEntity
  8
BLOCKS
100
AcDbCircle
 10
0.7554404454631254
 20
0.0272576723547354
 30
0.0
 40
0.005
100
AcDbArc
 50
272.5000000000012
 51
310.7132107017365
  0
ARC
  5
CE
330
A2
100
AcDbEntity
  8
BLOCKS
100
AcDbCircle
 10
0.7658228591370722
 20
0.0277109783254059
 30
0.0
 40
0.005
100
AcDbArc
 50
234.2867892982617
 51
272.5000000000012
  0
ARC
  5
CF
330
A2
100
AcDbEntity
  8
BLOCKS
100
AcDbCircle
 10
0.7511370640602673
 20
0.0270697826649916
 30
0.0
 40
0.005
100
AcDbArc
 50
234.2867892982625
 51
259.7249510442029
  0
ARC
  5
D0
330
A2
100
AcDbEntity
  8
BLOCKS
100
AcDbCircle
 10
0.7537677767185916
 20
0.0271846420601764
 30
0.0
 40
0.005
100
AcDbArc
 50
272.5000000000012
 51
310.7132107017378
  0
ARC
  5
D1
330
A2
100
AcDbEntity
  8
BLOCKS
100
AcDbCircle
 10
0.7489279304624824
 20
0.0269733298091001
 30
0.0
 40
0.005
100
AcDbArc
 50
272.5000000000012
 51
310.7132107017374
  0
ARC
  5
D2
330
A2
100
AcDbEntity
  8
BLOCKS
100
AcDbCircle
 10
0.7593103441364292
 20
0.0274266357797728
 30
0.0
 40
0.005
100
AcDbArc
 50
234.2867892982609
 51
238.8041081730137
  0
ARC
  5
D3
330
A2
100
AcDbEntity
  8
BLOCKS
100
AcDbCircle
 10
0.7397036925366275
 20
0.0265705908836458
 30
0.0
 40
0.005
100
AcDbArc
 50
234.2867892982621
 51
272.5000000000012
  0
ARC
  5
D4
330
A2
100
AcDbEntity
  8
BLOCKS
100
AcDbCircle
 10
0.7407546503863206
 20
0.0266164766943211
 30
0.0
 40
0.005
100
AcDbArc
 50
272.4999999999998
 51
310.7132107017382
  0
ARC
  5
D5
330
A2
100
AcDbEntity
  8
BLOCKS
100
AcDbCircle
 10
0.6826351948316347
 20
0.0165690009006244
 30
0.0
 40
0.0043027777777777
100
AcDbArc
 50
58.47978948440346
 51
127.7760985566988
  0
ARC
  5
D6
330
A2
100
AcDbEntity
  8
BLOCKS
100
AcDbCircle
 10
0.6874452941824712
 20
0.0167790143737648
 30
0.0
 40
0.0043027777777777
100
AcDbArc
 50
81.89583788539431
 51
127.7760985566998
  0
ARC
  5
D7
330
A2
100
AcDbEntity
  8
BLOCKS
100
AcDbCircle
 10
0.6746057488046677
 20
0.0162184277160532
 30
0.0
 40
0.0043027777777777
100
AcDbArc
 50
57.22390144330019
 51
127.7760985566991
  0
ARC
  5
D8
330
A2
100
AcDbEntity
  8
BLOCKS
100
AcDbCircle
 10
0.6633713819349964
 20
0.0157279246655435
 30
0.0
 40
0.0043027777777777
100
AcDbArc
 50
57.22390144330087
 51
127.7760985566986
  0
ARC
  5
D9
330
A2
100
AcDbEntity
  8
BLOCKS
100
AcDbCircle
 10
0.6890274049543882
 20
0.0168480908218521
 30
0.0
 40
0.0043027777777777
100
AcDbArc
 50
57.22390144329995
 51
127.7760985566984
  0
ARC
  5
DA
330
A2
100
AcDbEntity
  8
BLOCKS
100
AcDbCircle
 10
0.6766302349023136
 20
0.0243172205934138
 30
0.0
 40
0.0055
100
AcDbArc
 50
272.5000000000008
 51
307.7760985567006
  0
ARC
  5
DB
330
A2
100
AcDbEntity
  8
BLOCKS
100
AcDbCircle
 10
0.6573664220056754
 20
0.0234761443583329
 30
0.0
 40
0.0055
100
AcDbArc
 50
272.5000000000008
 51
307.7760985567
  0
ARC
  5
DC
330
A2
100
AcDbEntity
  8
BLOCKS
100
AcDbCircle
 10
0.6943342123559342
 20
0.0250901929422685
 30
0.0
 40
0.0055
100
AcDbArc
 50
237.2239014433003
 51
272.5
  0
ARC
  5
DD
330
A2
100
AcDbEntity
  8
BLOCKS
100
AcDbCircle
 10
0.6686007888753466
 20
0.0239666474088426
 30
0.0
 40
0.0055
100
AcDbArc
 50
272.5000000000008
 51
307.7760985567004
  0
ARC
  5
DE
330
A2
100
AcDbEntity
  8
BLOCKS
100
AcDbCircle
 10
0.6814403342531478
 20
0.0245272340665542
 30
0.0
 40
0.0055
100
AcDbArc
 50
272.4999999999994
 51
307.7760985566998
  0
ARC
  5
DF
330
A2
100
AcDbEntity
  8
BLOCKS
100
AcDbCircle
 10
0.6799125562062136
 20
0.0244605298364718
 30
0.0
 40
0.0055
100
AcDbArc
 50
237.2239014433001
 51
255.1218347800063
  0
ARC
  5
E0
330
A2
100
AcDbEntity
  8
BLOCKS
100
AcDbCircle
 10
0.6686781893365424
 20
0.0239700267859621
 30
0.0
 40
0.0055
100
AcDbArc
 50
237.2239014432987
 51
272.4999999999999
  0
ARC
  5
E1
330
A2
100
AcDbEntity
  8
BLOCKS
100
AcDbCircle
 10
0.6830224450250672
 20
0.0245963105146416
 30
0.0
 40
0.0055
100
AcDbArc
 50
272.5000000000007
 51
307.7760985567008
  0
ARC
  5
E2
330
A2
100
AcDbEntity
  8
BLOCKS
100
AcDbCircle
 10
0.6155845475663751
 20
0.0125988473713528
 30
0.0
 40
0.0053444444444444
100
AcDbArc
 50
84.11706865059146
 51
125.2189531241381
  0
ARC
  5
E3
330
A2
100
AcDbEntity
  8
BLOCKS
100
AcDbCircle
 10
0.602953954795064
 20
0.012047383781462
 30
0.0
 40
0.0053444444444444
100
AcDbArc
 50
59.78104687586219
 51
125.2189531241387
  0
ARC
  5
E4
330
A2
100
AcDbEntity
  8
BLOCKS
100
AcDbCircle
 10
0.5919025141336806
 20
0.0115648674616887
 30
0.0
 40
0.0053444444444444
100
AcDbArc
 50
59.78104687586174
 51
125.2189531241372
  0
ARC
  5
E5
330
A2
100
AcDbEntity
  8
BLOCKS
100
AcDbCircle
 10
0.6108526186559175
 20
0.0123922468933438
 30
0.0
 40
0.0053444444444444
100
AcDbArc
 50
66.19702098026134
 51
125.2189531241389
  0
ARC
  5
E6
330
A2
100
AcDbEntity
  8
BLOCKS
100
AcDbCircle
 10
0.6171413794826731
 20
0.0126668201207667
 30
0.0
 40
0.0053444444444444
100
AcDbArc
 50
59.78104687586272
 51
125.2189531241382
  0
ARC
  5
E7
330
A2
100
AcDbEntity
  8
BLOCKS
100
AcDbCircle
 10
0.5964115842836987
 20
0.0213152750111362
 30
0.0
 40
0.006
100
AcDbArc
 50
272.4999999999994
 51
305.2189531241374
  0
ARC
  5
E8
330
A2
100
AcDbEntity
  8
BLOCKS
100
AcDbCircle
 10
0.6043102481445521
 20
0.0216601381230203
 30
0.0
 40
0.006
100
AcDbArc
 50
272.5000000000006
 51
305.2189531241372
  0
ARC
  5
E9
330
A2
100
AcDbEntity
  8
BLOCKS
100
AcDbCircle
 10
0.6090421770550098
 20
0.021866738601027
 30
0.0
 40
0.006
100
AcDbArc
 50
272.4999999999994
 51
305.2189531241372
  0
ARC
  5
EA
330
A2
100
AcDbEntity
  8
BLOCKS
100
AcDbCircle
 10
0.5853601436223153
 20
0.0208327586913652
 30
0.0
 40
0.006
100
AcDbArc
 50
272.5000000000006
 51
305.2189531241388
  0
ARC
  5
EB
330
A2
100
AcDbEntity
  8
BLOCKS
100
AcDbCircle
 10
0.6086636796676112
 20
0.0218502130482034
 30
0.0
 40
0.006
100
AcDbArc
 50
239.7810468758623
 51
272.4999999999998
  0
ARC
  5
EC
330
A2
100
AcDbEntity
  8
BLOCKS
100
AcDbCircle
 10
0.5976122390062279
 20
0.0213676967284323
 30
0.0
 40
0.006
100
AcDbArc
 50
239.7810468758626
 51
266.7521986630949
  0
ARC
  5
ED
330
A2
100
AcDbEntity
  8
BLOCKS
100
AcDbCircle
 10
0.6228511043552203
 20
0.0224696493875104
 30
0.0
 40
0.006
100
AcDbArc
 50
239.7810468758618
 51
272.5
  0
ARC
  5
EE
330
A2
100
AcDbEntity
  8
BLOCKS
100
AcDbCircle
 10
0.6105990089713078
 20
0.0219347113504432
 30
0.0
 40
0.006
100
AcDbArc
 50
272.4999999999994
 51
305.2189531241378
  0
ARC
  5
EF
330
A2
100
AcDbEntity
  8
BLOCKS
100
AcDbCircle
 10
0.7293212788626806
 20
0.0261172849129753
 30
0.0
 40
0.005
100
AcDbArc
 50
272.5000000000012
 51
310.7132107017382
  0
ARC
  5
F0
330
A2
100
AcDbEntity
  8
BLOCKS
100
AcDbCircle
 10
0.8127194266388052
 20
0.0297585266817055
 30
0.0
 40
0.005
100
AcDbArc
 50
272.5000000000005
 51
312.6572047736969
  0
ARC
  5
F1
330
A2
100
AcDbEntity
  8
BLOCKS
100
AcDbCircle
 10
0.8106971461914621
 20
0.0296702320105465
 30
0.0
 40
0.005
100
AcDbArc
 50
232.3427952263039
 51
272.4999999999998
  0
ARC
  5
F2
330
A2
100
AcDbEntity
  8
BLOCKS
100
AcDbCircle
 10
0.8008576623199655
 20
0.0292406308669865
 30
0.0
 40
0.005
100
AcDbArc
 50
272.4999999999998
 51
312.6572047736969
  0
ARC
  5
F3
330
A2
100
AcDbEntity
  8
BLOCKS
100
AcDbCircle
 10
0.5390752978880096
 20
0.0080767011358535
 30
0.0
 40
0.0065249999999998
100
AcDbArc
 50
71.5841106513641
 51
122.9802315155237
  0
ARC
  5
F4
330
A2
100
AcDbEntity
  8
BLOCKS
100
AcDbCircle
 10
0.543729675371651
 20
0.0082799156454416
 30
0.0
 40
0.0065249999999998
100
AcDbArc
 50
85.75295048206417
 51
122.9802315155234
  0
ARC
  5
F5
330
A2
100
AcDbEntity
  8
BLOCKS
100
AcDbCircle
 10
0.5204363885920042
 20
0.0072629087812038
 30
0.0
 40
0.0065249999999998
100
AcDbArc
 50
62.01976848447576
 51
122.9802315155227
  0
ARC
  5
F6
330
A2
100
AcDbEntity
  8
BLOCKS
100
AcDbCircle
 10
0.5452614117840814
 20
0.0083467927014954
 30
0.0
 40
0.0065249999999998
100
AcDbArc
 50
62.01976848447665
 51
122.9802315155236
  0
ARC
  5
F7
330
A2
100
AcDbEntity
  8
BLOCKS
100
AcDbCircle
 10
0.5313063683330621
 20
0.0077375023460945
 30
0.0
 40
0.0065249999999998
100
AcDbArc
 50
62.01976848447682
 51
122.9802315155233
  0
ARC
  5
F8
330
A2
100
AcDbEntity
  8
BLOCKS
100
AcDbCircle
 10
0.53741726714994
 20
0.0192400038414167
 30
0.0
 40
0.0065
100
AcDbArc
 50
242.019768484477
 51
247.7756131348153
  0
ARC
  5
F9
330
A2
100
AcDbEntity
  8
BLOCKS
100
AcDbCircle
 10
0.5319851438247793
 20
0.0190028322150443
 30
0.0
 40
0.0065
100
AcDbArc
 50
272.5000000000015
 51
302.9802315155229
  0
ARC
  5
FA
330
A2
100
AcDbEntity
  8
BLOCKS
100
AcDbCircle
 10
0.5366395213084206
 20
0.0192060467246324
 30
0.0
 40
0.0065
100
AcDbArc
 50
272.5000000000015
 51
302.9802315155225
  0
ARC
  5
FB
330
A2
100
AcDbEntity
  8
BLOCKS
100
AcDbCircle
 10
0.5381712577208532
 20
0.0192729237806862
 30
0.0
 40
0.0065
100
AcDbArc
 50
272.5000000000015
 51
302.9802315155223
  0
ARC
  5
FC
330
A2
100
AcDbEntity
  8
BLOCKS
100
AcDbCircle
 10
0.5265472874088824
 20
0.0187654102765259
 30
0.0
 40
0.0065
100
AcDbArc
 50
242.0197684844772
 51
262.1602856922815
  0
ARC
  5
FD
330
A2
100
AcDbEntity
  8
BLOCKS
100
AcDbCircle
 10
0.5133462345287763
 20
0.0181890398603946
 30
0.0
 40
0.0065
100
AcDbArc
 50
272.5000000000004
 51
302.9802315155232
  0
ARC
  5
FE
330
A2
100
AcDbEntity
  8
BLOCKS
100
AcDbCircle
 10
0.5513723106009593
 20
0.0198492941968175
 30
0.0
 40
0.0065
100
AcDbArc
 50
242.0197684844763
 51
272.5000000000007
  0
ARC
  5
FF
330
A2
100
AcDbEntity
  8
BLOCKS
100
AcDbCircle
 10
0.5242162142698317
 20
0.0186636334252853
 30
0.0
 40
0.0065
100
AcDbArc
 50
272.5000000000015
 51
302.9802315155234
  0
ARC
  5
100
330
A2
100
AcDbEntity
  8
BLOCKS
100
AcDbCircle
 10
0.4671842408581415
 20
0.0036171683396492
 30
0.0
 40
0.0078444444444445
100
AcDbArc
 50
75.06443298400745
 51
121.00895617584
  0
ARC
  5
101
330
A2
100
AcDbEntity
  8
BLOCKS
100
AcDbCircle
 10
0.4489730016831892
 20
0.002822048465739
 30
0.0
 40
0.0078444444444445
100
AcDbArc
 50
63.99104382415988
 51
121.0089561758407
  0
ARC
  5
102
330
A2
100
AcDbEntity
  8
BLOCKS
100
AcDbCircle
 10
0.4596629870387051
 20
0.0032887833060363
 30
0.0
 40
0.0078444444444445
100
AcDbArc
 50
63.99104382416023
 51
121.0089561758411
  0
ARC
  5
103
330
A2
100
AcDbEntity
  8
BLOCKS
100
AcDbCircle
 10
0.471880676894225
 20
0.0038222191652926
 30
0.0
 40
0.0078444444444445
100
AcDbArc
 50
86.98331677379817
 51
121.0089561758408
  0
ARC
  5
104
330
A2
100
AcDbEntity
  8
BLOCKS
100
AcDbCircle
 10
0.4733875018782283
 20
0.003888008564893
 30
0.0
 40
0.0078444444444445
100
AcDbArc
 50
63.99104382415907
 51
121.0089561758401
  0
ARC
  5
105
330
A2
100
AcDbEntity
  8
BLOCKS
100
AcDbCircle
 10
0.4520155440664304
 20
0.0160117604281595
 30
0.0
 40
0.007
100
AcDbArc
 50
272.5
 51
301.0089561758405
  0
ARC
  5
106
330
A2
100
AcDbEntity
  8
BLOCKS
100
AcDbCircle
 10
0.4084244092733503
 20
0.014609006723224
 30
0.0
 40
0.0075
100
AcDbArc
 50
245.7367530327939
 51
272.4999999999998
  0
ARC
  5
107
330
A2
100
AcDbEntity
  8
BLOCKS
100
AcDbCircle
 10
0.455482463305084
 20
0.0161631293911069
 30
0.0
 40
0.007
100
AcDbArc
 50
243.9910438241594
 51
258.1483165844831
  0
ARC
  5
108
330
A2
100
AcDbEntity
  8
BLOCKS
100
AcDbCircle
 10
0.4595367978858668
 20
0.0163401454617702
 30
0.0
 40
0.007
100
AcDbArc
 50
272.5
 51
301.0089561758414
  0
ARC
  5
109
330
A2
100
AcDbEntity
  8
BLOCKS
100
AcDbCircle
 10
0.4413255587109143
 20
0.01554502558786
 30
0.0
 40
0.007
100
AcDbArc
 50
272.4999999999995
 51
301.0089561758405
  0
ARC
  5
10A
330
A2
100
AcDbEntity
  8
BLOCKS
100
AcDbCircle
 10
0.4798969635001254
 20
0.0172290894902631
 30
0.0
 40
0.007
100
AcDbArc
 50
243.9910438241596
 51
272.4999999999995
  0
ARC
  5
10B
330
A2
100
AcDbEntity
  8
BLOCKS
100
AcDbCircle
 10
0.4661724486606
 20
0.0166298642314064
 30
0.0
 40
0.007
100
AcDbArc
 50
243.9910438241594
 51
244.1779771403322
  0
ARC
  5
10C
330
A2
100
AcDbEntity
  8
BLOCKS
100
AcDbCircle
 10
0.4642332339219525
 20
0.0165451962874158
 30
0.0
 40
0.007
100
AcDbArc
 50
272.5
 51
301.0089561758405
  0
ARC
  5
10D
330
A2
100
AcDbEntity
  8
BLOCKS
100
AcDbCircle
 10
0.4657400589059558
 20
0.0166109856870139
 30
0.0
 40
0.007
100
AcDbArc
 50
272.4999999999995
 51
301.0089561758405
  0
ARC
  5
10E
330
A2
100
AcDbEntity
  8
BLOCKS
100
AcDbCircle
 10
0.3955364167211201
 20
-0.000970765885379
 30
0.0
 40
0.0093027777777776
100
AcDbArc
 50
78.48625203635329
 51
119.2632469672047
  0
ARC
  5
10F
330
A2
100
AcDbEntity
  8
BLOCKS
100
AcDbCircle
 10
0.3880238085561405
 20
-0.0012987734415651
 30
0.0
 40
0.0093027777777776
100
AcDbArc
 50
68.66101612685297
 51
119.2632469672049
  0
ARC
  5
110
330
A2
100
AcDbEntity
  8
BLOCKS
100
AcDbCircle
 10
0.3296578555200131
 20
-0.0054458298570125
 30
0.0
 40
0.0109
100
AcDbArc
 50
67.29123470324184
 51
117.7087652967584
  0
ARC
  5
111
330
A2
100
AcDbEntity
  8
BLOCKS
100
AcDbCircle
 10
0.4000375514371445
 20
-0.0007742420995214
 30
0.0
 40
0.0093027777777776
100
AcDbArc
 50
87.92667758755104
 51
119.2632469672053
  0
ARC
  5
112
330
A2
100
AcDbEntity
  8
BLOCKS
100
AcDbCircle
 10
0.3775123498160156
 20
-0.0017577136415025
 30
0.0
 40
0.0093027777777776
100
AcDbArc
 50
65.73675303279522
 51
119.2632469672053
  0
ARC
  5
113
330
A2
100
AcDbEntity
  8
BLOCKS
100
AcDbCircle
 10
0.3282002983105736
 20
-0.0055094681791184
 30
0.0
 40
0.0109
100
AcDbArc
 50
88.66266229943265
 51
117.7087652967578
  0
ARC
  5
114
330
A2
100
AcDbEntity
  8
BLOCKS
100
AcDbCircle
 10
0.3873228332809663
 20
0.0136876920185409
 30
0.0
 40
0.0075
100
AcDbArc
 50
272.5000000000003
 51
299.2632469672055
  0
ARC
  5
115
330
A2
100
AcDbEntity
  8
BLOCKS
100
AcDbCircle
 10
0.3692987663758618
 20
0.0129007442624175
 30
0.0
 40
0.0075
100
AcDbArc
 50
272.5000000000003
 51
299.2632469672058
  0
ARC
  5
116
330
A2
100
AcDbEntity
  8
BLOCKS
100
AcDbCircle
 10
0.3918239679969906
 20
0.0138842158044008
 30
0.0
 40
0.0075
100
AcDbArc
 50
272.5000000000003
 51
299.2632469672048
  0
ARC
  5
117
330
A2
100
AcDbEntity
  8
BLOCKS
100
AcDbCircle
 10
0.3369541470465947
 20
0.0119890240270661
 30
0.0
 40
0.008
100
AcDbArc
 50
247.2912347032411
 51
272.4999999999996
  0
ARC
  5
118
330
A2
100
AcDbEntity
  8
BLOCKS
100
AcDbCircle
 10
0.3798102251159867
 20
0.0133596844623548
 30
0.0
 40
0.0075
100
AcDbArc
 50
272.4999999999998
 51
299.2632469672045
  0
ARC
  5
119
330
A2
100
AcDbEntity
  8
BLOCKS
100
AcDbCircle
 10
0.3208697809455407
 20
0.0112867654370098
 30
0.0
 40
0.008
100
AcDbArc
 50
272.5
 51
297.7087652967586
  0
ARC
  5
11A
330
A2
100
AcDbEntity
  8
BLOCKS
100
AcDbCircle
 10
0.3844171093052796
 20
0.0135608253699297
 30
0.0
 40
0.0075
100
AcDbArc
 50
245.7367530327954
 51
254.5962916793805
  0
ARC
  5
11B
330
A2
100
AcDbEntity
  8
BLOCKS
100
AcDbCircle
 10
0.3933060663439323
 20
0.0139489256157117
 30
0.0
 40
0.0075
100
AcDbArc
 50
272.4999999999998
 51
299.2632469672048
  0
ARC
  5
11C
330
A2
100
AcDbEntity
  8
BLOCKS
100
AcDbCircle
 10
0.3163888305536102
 20
-0.0060251679985208
 30
0.0
 40
0.0109
100
AcDbArc
 50
72.67605110303354
 51
117.7087652967587
  0
ARC
  5
11D
330
A2
100
AcDbEntity
  8
BLOCKS
100
AcDbCircle
 10
0.3060544294348006
 20
-0.0064763776957648
 30
0.0
 40
0.0109
100
AcDbArc
 50
67.291234703242
 51
117.7087652967589
  0
ARC
  5
11E
330
A2
100
AcDbEntity
  8
BLOCKS
100
AcDbCircle
 10
0.2972663548603259
 20
0.0102562175982553
 30
0.0
 40
0.008
100
AcDbArc
 50
272.5000000000004
 51
297.7087652967581
  0
ARC
  5
11F
330
A2
100
AcDbEntity
  8
BLOCKS
100
AcDbCircle
 10
0.3076007559791378
 20
0.0107074272954992
 30
0.0
 40
0.008
100
AcDbArc
 50
272.5000000000004
 51
297.7087652967586
  0
ARC
  5
120
330
A2
100
AcDbEntity
  8
BLOCKS
100
AcDbCircle
 10
0.3149867788581514
 20
0.0110299080187406
 30
0.0
 40
0.008
100
AcDbArc
 50
272.5000000000004
 51
297.7087652967586
  0
ARC
  5
121
330
A2
100
AcDbEntity
  8
BLOCKS
100
AcDbCircle
 10
0.3133507209613799
 20
0.0109584761883139
 30
0.0
 40
0.008
100
AcDbArc
 50
247.2912347032411
 51
251.4172946796985
  0
ARC
  5
122
330
A2
100
AcDbEntity
  8
BLOCKS
100
AcDbCircle
 10
0.255552970946419
 20
-0.0496446708118856
 30
0.0
 40
0.0450243638696319
100
AcDbArc
 50
92.50349082390661
 51
105.342514113203
  0
ARC
  5
123
330
A2
100
AcDbEntity
  8
BLOCKS
100
AcDbCircle
 10
0.2555726254503156
 20
-0.0497698530262392
 30
0.0
 40
0.0501502870259093
100
AcDbArc
 50
92.51932914308353
 51
105.3266756982222
  0
LINE
  5
124
330
A2
100
AcDbEntity
  8
BLOCKS
100
AcDbLine
 10
0.2535862952217122
 20
-0.004663279898989
 30
0.0
 11
0.3603929647148471
 21
0.0
 31
0.0
  0
ARC
  5
125
330
A2
100
AcDbEntity
  8
BLOCKS
100
AcDbCircle
 10
0.3237748534326238
 20
-0.0057026872752817
 30
0.0
 40
0.0109
100
AcDbArc
 50
80.77611690289396
 51
117.7087652967584
  0
ARC
  5
126
330
A2
100
AcDbEntity
  8
BLOCKS
100
AcDbCircle
 10
0.3194122237360989
 20
0.0112231271149017
 30
0.0
 40
0.008
100
AcDbArc
 50
272.5000000000002
 51
297.7087652967591
  0
ARC
  5
127
330
A2
100
AcDbEntity
  8
BLOCKS
100
AcDbCircle
 10
0.4015196497840862
 20
-0.0007095322882083
 30
0.0
 40
0.0093027777777776
100
AcDbArc
 50
65.73675303279561
 51
119.2632469672053
  0
LINE
  5
128
330
A2
100
AcDbEntity
  8
BLOCKS
100
AcDbLine
 10
0.2533681983216729
 20
0.000331961210527
 30
0.0
 11
0.9068198605509952
 21
0.0288622769285939
 31
0.0
  0
LINE
  5
129
330
A2
100
AcDbEntity
  8
BLOCKS
100
AcDbLine
 10
1.09279975328915
 20
0.0
 30
0.0
 11
0.3603929647148471
 21
0.0
 31
0.0
  0
ARC
  5
12A
330
A2
100
AcDbEntity
  8
BLOCKS
100
AcDbCircle
 10
0.89257969869622
 20
0.0332453014606631
 30
0.0
 40
0.005
100
AcDbArc
 50
272.4999999999998
 51
310.7132107017373
  0
LINE
  5
12B
330
A2
100
AcDbEntity
  8
BLOCKS
100
AcDbLine
 10
0.3603929647148471
 20
0.0
 30
0.0
 11
0.9070379574878211
 21
0.0238670358206832
 31
0.0
  0
LINE
  5
12C
330
A2
100
AcDbEntity
  8
BLOCKS
100
AcDbLine
 10
0.0091223409781287
 20
0.0350000000000023
 30
0.0
 11
0.0666840337302529
 21
0.035
 31
0.0
  0
ARC
  5
12D
330
A2
100
AcDbEntity
  8
BLOCKS
100
AcDbCircle
 10
0.0091223409781287
 20
0.0320000000000005
 30
0.0
 40
0.0030000000000005
100
AcDbArc
 50
90.0
 51
178.0
  0
ARC
  5
12E
330
A2
100
AcDbEntity
  8
BLOCKS
100
AcDbCircle
 10
0.0091223409781287
 20
0.0320000000000005
 30
0.0
 40
0.008
100
AcDbArc
 50
90.0
 51
178.0
  0
ARC
  5
12F
330
A2
100
AcDbEntity
  8
BLOCKS
100
AcDbCircle
 10
0.0666840337302529
 20
0.0320000000000005
 30
0.0
 40
0.003
100
AcDbArc
 50
9.999999999999085
 51
89.99999999999566
  0
ARC
  5
130
330
A2
100
AcDbEntity
  8
BLOCKS
100
AcDbCircle
 10
0.0666840337302529
 20
0.0320000000000005
 30
0.0
 40
0.008
100
AcDbArc
 50
10.00000000000059
 51
89.99999999999836
  0
ARC
  5
131
330
A2
100
AcDbEntity
  8
BLOCKS
100
AcDbCircle
 10
0.219456865626903
 20
-0.0051597424746365
 30
0.0
 40
0.008
100
AcDbArc
 50
313.9884444289784
 51
335.437420169576
  0
LINE
  5
132
330
A2
100
AcDbEntity
  8
BLOCKS
100
AcDbLine
 10
0.1968909836371813
 20
-0.012143414087077
 30
0.0
 11
0.225012971850058
 21
-0.0109155815652412
 31
0.0
  0
LINE
  5
133
330
A2
100
AcDbEntity
  8
BLOCKS
100
AcDbLine
 10
0.232187748572519
 20
-0.0156070874741977
 30
0.0
 11
0.2268961541137355
 21
-0.0158381234777585
 31
0.0
  0
ARC
  5
134
330
A2
100
AcDbEntity
  8
BLOCKS
100
AcDbCircle
 10
0.234013719731422
 20
-0.0118164642701163
 30
0.0
 40
0.0080066847594786
100
AcDbArc
 50
103.6440840271811
 51
155.4141838454655
  0
LINE
  5
135
330
A2
100
AcDbEntity
  8
BLOCKS
100
AcDbLine
 10
0.2157057058734199
 20
-0.0270000000000005
 30
0.0
 11
0.2156222577933158
 21
-0.0250887247377637
 31
0.0
  0
LINE
  5
136
330
A2
100
AcDbEntity
  8
BLOCKS
100
AcDbLine
 10
0.1718468572885104
 20
-0.0270000000000005
 30
0.0
 11
0.2157057058734199
 21
-0.0270000000000005
 31
0.0
  0
LINE
  5
137
330
A2
100
AcDbEntity
  8
BLOCKS
100
AcDbLine
 10
0.2156222577933158
 20
-0.0250887247377637
 30
0.0
 11
0.2268961541137355
 21
-0.0158381234777585
 31
0.0
  0
LINE
  5
138
330
A2
100
AcDbEntity
  8
BLOCKS
100
AcDbLine
 10
0.2107009424476064
 20
-0.0270000000000005
 30
0.0
 11
0.2105179684604991
 21
-0.0228092066978729
 31
0.0
  0
LINE
  5
139
330
A2
100
AcDbEntity
  8
BLOCKS
100
AcDbLine
 10
0.2105179684604991
 20
-0.0228092066978729
 30
0.0
 11
0.225012971850058
 21
-0.0109155815652412
 31
0.0
  0
LINE
  5
13A
330
A2
100
AcDbEntity
  8
BLOCKS
100
AcDbLine
 10
0.232187748572519
 20
-0.0156070874741977
 30
0.0
 11
0.2323575475690859
 21
-0.0091227254051091
 31
0.0
  0
LINE
  5
13B
330
A2
100
AcDbEntity
  8
BLOCKS
100
AcDbLine
 10
0.1036801968702093
 20
-0.0212178483523826
 30
0.0
 11
0.0983886024114259
 21
-0.0214488843559434
 31
0.0
  0
LINE
  5
13C
330
A2
100
AcDbEntity
  8
BLOCKS
100
AcDbLine
 10
0.1051271852602349
 20
-0.0161499080490808
 30
0.0
 11
0.1331829777433177
 21
-0.0149249656952247
 31
0.0
  0
ARC
  5
13D
330
A2
100
AcDbEntity
  8
BLOCKS
100
AcDbCircle
 10
0.1101604943906977
 20
-0.0099317250992885
 30
0.0
 40
0.008
100
AcDbArc
 50
209.563267041389
 51
231.0115555709981
  0
ARC
  5
13E
330
A2
100
AcDbEntity
  8
BLOCKS
100
AcDbCircle
 10
0.0962364373944138
 20
-0.0178361567836396
 30
0.0
 40
0.0080112283441513
100
AcDbArc
 50
29.60227043068341
 51
81.34026778956757
  0
ARC
  5
13F
330
A2
100
AcDbEntity
  8
BLOCKS
100
AcDbCircle
 10
0.1521864881166357
 20
0.3505715582835341
 30
0.0
 40
0.3696205397064289
100
AcDbArc
 50
260.5306123214242
 51
261.5158682797779
  0
ARC
  5
140
330
A2
100
AcDbEntity
  8
BLOCKS
100
AcDbCircle
 10
0.1521690866796416
 20
0.3503344249742168
 30
0.0
 40
0.3643837755799012
100
AcDbArc
 50
260.527459677454
 51
261.3621210582067
  0
ARC
  5
141
330
A2
100
AcDbEntity
  8
BLOCKS
100
AcDbCircle
 10
0.0948629106333056
 20
0.0057690045686468
 30
0.0
 40
0.0201958232713804
100
AcDbArc
 50
190.0608272500158
 51
196.5974842344213
  0
ARC
  5
142
330
A2
100
AcDbEntity
  8
BLOCKS
100
AcDbCircle
 10
0.0946751629193841
 20
0.0057152661169744
 30
0.0
 40
0.0150015849436947
100
AcDbArc
 50
190.0042799597306
 51
260.5057186103687
  0
LINE
  5
143
330
A2
100
AcDbEntity
  8
BLOCKS
100
AcDbLine
 10
0.1121343087294781
 20
-0.0270000000000005
 30
0.0
 11
0.1036801968702093
 21
-0.0212178483523826
 31
0.0
  0
LINE
  5
144
330
A2
100
AcDbEntity
  8
BLOCKS
100
AcDbLine
 10
0.1206152007829064
 20
-0.0270000000000005
 30
0.0
 11
0.1206036285181335
 21
-0.0267349515607521
 31
0.0
  0
LINE
  5
145
330
A2
100
AcDbEntity
  8
BLOCKS
100
AcDbLine
 10
0.1206036285181335
 20
-0.0267349515607521
 30
0.0
 11
0.1051271852602326
 21
-0.0161499080490808
 31
0.0
  0
LINE
  5
146
330
A2
100
AcDbEntity
  8
BLOCKS
100
AcDbLine
 10
0.0983886024114259
 20
-0.0214488843559434
 30
0.0
 11
0.0976543156657863
 21
-0.0150041323018172
 31
0.0
  0
LINE
  5
147
330
A2
100
AcDbEntity
  8
BLOCKS
100
AcDbLine
 10
0.2105179684604991
 20
-0.0228092066978729
 30
0.0
 11
0.1206036285181335
 21
-0.0267349515607521
 31
0.0
  0
LINE
  5
148
330
A2
100
AcDbEntity
  8
BLOCKS
100
AcDbLine
 10
0.1331829777433177
 20
-0.0149249656952247
 30
0.0
 11
0.1968909836371813
 21
-0.012143414087077
 31
0.0
  0
LINE
  5
149
330
A2
100
AcDbEntity
  8
BLOCKS
100
AcDbLine
 10
0.1121343087294781
 20
-0.0270000000000005
 30
0.0
 11
0.1718468572885104
 21
-0.0270000000000005
 31
0.0
  0
LINE
  5
14A
330
A2
100
AcDbEntity
  8
BLOCKS
100
AcDbLine
 10
0.0
 20
0.0
 30
0.0
 11
0.0755085865011211
 21
0.0
 31
0.0
  0
ARC
  5
14B
330
A2
100
AcDbEntity
  8
BLOCKS
100
AcDbCircle
 10
0.0946796090231556
 20
0.0057188207336935
 30
0.0
 40
0.0200058245299814
100
AcDbArc
 50
196.6097032789217
 51
260.4959077700547
  0
LINE
  5
14C
330
A2
100
AcDbEntity
  8
BLOCKS
100
AcDbLine
 10
0.0050030477214955
 20
0.0
 30
0.0
 11
0.0061241684970719
 21
0.0321046984901091
 31
0.0
  0
LINE
  5
14D
330
A2
100
AcDbEntity
  8
BLOCKS
100
AcDbLine
 10
0.0
 20
0.0
 30
0.0
 11
0.0011272143619772
 21
0.0322791959736196
 31
0.0
  0
LINE
  5
14E
330
A2
100
AcDbEntity
  8
BLOCKS
100
AcDbLine
 10
0.0749776415733777
 20
0.0022409240696811
 30
0.0
 11
0.0696384569892894
 21
0.0325209445330006
 31
0.0
  0
LINE
  5
14F
330
A2
100
AcDbEntity
  8
BLOCKS
100
AcDbLine
 10
0.0799016803384348
 20
0.0031091649580253
 30
0.0
 11
0.074562495754351
 21
0.0333891854213357
 31
0.0
  0
LINE
  5
150
330
A2
100
AcDbEntity
  8
BLOCKS
100
AcDbLine
 10
0.0091223409781287
 20
0.04
 30
0.0
 11
1.093671320581215
 21
0.04
 31
0.0
  0
ARC
  5
151
330
A2
100
AcDbEntity
  8
BLOCKS
100
AcDbCircle
 10
0.1488681197405504
 20
0.3393525496234793
 30
0.0
 40
0.358337134362898
100
AcDbArc
 50
283.4732424827913
 51
285.3358758032102
  0
ARC
  5
152
330
A2
100
AcDbEntity
  8
BLOCKS
100
AcDbCircle
 10
0.1497984740548804
 20
0.3357327485473502
 30
0.0
 40
0.3496001711766059
100
AcDbArc
 50
283.6203744647736
 51
285.3455852409705
  0
ENDBLK
  5
155
330
A2
100
AcDbEntity
  8
0
100
AcDbBlockEnd
  0
BLOCK
  5
187
330
15A
100
AcDbEntity
  8
0
100
AcDbBlockBegin
  2
80011AL
 70
     0
 10
0.0
 20
0.0
 30
0.0
  3
80011AL
  1

  0
ARC
  5
15B
330
15A
100
AcDbEntity
  8
BLOCKS
100
AcDbCircle
 10
1.093671320581215
 20
0.0319999999999982
 30
0.0
 40
0.008
100
AcDbArc
 50
2.000000000000028
 51
90.0
  0
LINE
  5
15C
330
15A
100
AcDbEntity
  8
BLOCKS
100
AcDbLine
 10
1.092793659702751
 20
0.0
 30
0.0
 11
1.097790613837846
 21
0.0
 31
0.0
  0
LINE
  5
15D
330
15A
100
AcDbEntity
  8
BLOCKS
100
AcDbLine
 10
1.102793661559339
 20
0.0
 30
0.0
 11
1.097790613837846
 21
0.0
 31
0.0
  0
LINE
  5
15E
330
15A
100
AcDbEntity
  8
BLOCKS
100
AcDbLine
 10
1.101666447197367
 20
0.0322791959736196
 30
0.0
 11
1.102793661559339
 21
0.0
 31
0.0
  0
ARC
  5
15F
330
15A
100
AcDbEntity
  8
BLOCKS
100
AcDbCircle
 10
0.255552970946419
 20
-0.0496446708118856
 30
0.0
 40
0.0450243638696319
100
AcDbArc
 50
92.50349082390661
 51
105.342514113203
  0
SPLINE
  5
160
330
15A
100
AcDbEntity
  8
BLOCKS
100
AcDbSpline
210
0.0
220
0.0
230
1.0
 70
    25
 71
     3
 72
     8
 73
     4
 74
     0
 42
0.0000000001
 43
0.0000000001
 40
0.3436491064280108
 40
0.3436491064280108
 40
0.3436491064280108
 40
0.3436491064280108
 40
0.3436712063726625
 40
0.3436712063726625
 40
0.3436712063726625
 40
0.3436712063726625
 10
0.2436400329187359
 20
-0.00622491433081
 30
0.0
 10
0.2436400331572713
 20
-0.0062249142916016
 30
0.0
 10
0.2436400333510983
 20
-0.0062249142515611
 30
0.0
 10
0.2436400335002168
 20
-0.0062249142106953
 30
0.0
  0
ARC
  5
161
330
15A
100
AcDbEntity
  8
BLOCKS
100
AcDbCircle
 10
0.2555491679136185
 20
-0.0496204498694579
 30
0.0
 40
0.0450000000106487
100
AcDbArc
 50
92.49999999999191
 51
105.3460049330753
  0
LINE
  5
162
330
15A
100
AcDbEntity
  8
BLOCKS
100
AcDbLine
 10
0.3603929647148471
 20
0.0
 30
0.0
 11
0.2535862968069341
 21
-0.0046632798297765
 31
0.0
  0
LINE
  5
163
330
15A
100
AcDbEntity
  8
BLOCKS
100
AcDbLine
 10
0.725289279825322
 20
0.04
 30
0.0
 11
1.093671320581215
 21
0.04
 31
0.0
  0
LINE
  5
164
330
15A
100
AcDbEntity
  8
BLOCKS
100
AcDbLine
 10
0.1005609864405028
 20
0.04
 30
0.0
 11
0.1190286925177429
 21
0.04
 31
0.0
  0
LINE
  5
165
330
15A
100
AcDbEntity
  8
BLOCKS
100
AcDbLine
 10
0.0666840337302529
 20
0.04
 30
0.0
 11
0.0666840342393698
 21
0.04
 31
0.0
  0
ARC
  5
166
330
15A
100
AcDbEntity
  8
BLOCKS
100
AcDbCircle
 10
0.0091223409781287
 20
0.0319999999999982
 30
0.0
 40
0.008
100
AcDbArc
 50
90.0
 51
178.0
  0
LINE
  5
167
330
15A
100
AcDbEntity
  8
BLOCKS
100
AcDbLine
 10
0.0091223409781287
 20
0.04
 30
0.0
 11
0.0666840342393698
 21
0.04
 31
0.0
  0
LINE
  5
168
330
15A
100
AcDbEntity
  8
BLOCKS
100
AcDbLine
 10
0.0666840342393698
 20
0.04
 30
0.0
 11
0.1005609864405028
 21
0.04
 31
0.0
  0
LINE
  5
169
330
15A
100
AcDbEntity
  8
BLOCKS
100
AcDbLine
 10
0.2156222577933158
 20
-0.0250887247377614
 30
0.0
 11
0.2156222394142242
 21
-0.0250887255402108
 31
0.0
  0
LINE
  5
16A
330
15A
100
AcDbEntity
  8
BLOCKS
100
AcDbLine
 10
0.232187748572519
 20
-0.0156070874741954
 30
0.0
 11
0.2321877348492671
 21
-0.015607088073366
 31
0.0
  0
LINE
  5
16B
330
15A
100
AcDbEntity
  8
BLOCKS
100
AcDbLine
 10
0.2157057058734199
 20
-0.0270000000000005
 30
0.0
 11
0.2156222577933158
 21
-0.0250887247377614
 31
0.0
  0
LINE
  5
16C
330
15A
100
AcDbEntity
  8
BLOCKS
100
AcDbLine
 10
0.2157056874592945
 20
-0.0270000000000005
 30
0.0
 11
0.2157057058734199
 21
-0.0270000000000005
 31
0.0
  0
LINE
  5
16D
330
15A
100
AcDbEntity
  8
BLOCKS
100
AcDbLine
 10
0.2156222577933158
 20
-0.0250887247377614
 30
0.0
 11
0.2268961541137355
 21
-0.0158381234777562
 31
0.0
  0
LINE
  5
16E
330
15A
100
AcDbEntity
  8
BLOCKS
100
AcDbLine
 10
0.232187748572519
 20
-0.0156070874741954
 30
0.0
 11
0.2323575475693292
 21
-0.0091227253958641
 31
0.0
  0
LINE
  5
16F
330
15A
100
AcDbEntity
  8
BLOCKS
100
AcDbLine
 10
0.2323575343391394
 20
-0.0091227106384304
 30
0.0
 11
0.2321877348481962
 21
-0.0156070880733387
 31
0.0
  0
LINE
  5
170
330
15A
100
AcDbEntity
  8
BLOCKS
100
AcDbLine
 10
0.2321877348492671
 20
-0.015607088073366
 30
0.0
 11
0.2268961392117717
 21
-0.0158381241283905
 31
0.0
  0
LINE
  5
171
330
15A
100
AcDbEntity
  8
BLOCKS
100
AcDbLine
 10
0.2268961390239974
 20
-0.0158381238995435
 30
0.0
 11
0.215622239283166
 21
-0.0250887253804899
 31
0.0
  0
LINE
  5
172
330
15A
100
AcDbEntity
  8
BLOCKS
100
AcDbLine
 10
0.2156222394142242
 20
-0.0250887255402108
 30
0.0
 11
0.2157056874592945
 21
-0.0270000000000005
 31
0.0
  0
LINE
  5
173
330
15A
100
AcDbEntity
  8
BLOCKS
100
AcDbLine
 10
0.2157056874592945
 20
-0.0270000000000005
 30
0.0
 11
0.2107009219874635
 21
-0.0270000000000005
 31
0.0
  0
LINE
  5
174
330
15A
100
AcDbEntity
  8
BLOCKS
100
AcDbLine
 10
0.09838861613468
 20
-0.0214488837567751
 30
0.0
 11
0.0983886024114259
 21
-0.0214488843559457
 31
0.0
  0
LINE
  5
175
330
15A
100
AcDbEntity
  8
BLOCKS
100
AcDbLine
 10
0.1121343087294781
 20
-0.0270000000000005
 30
0.0
 11
0.1121343270119951
 21
-0.0270000000000005
 31
0.0
  0
LINE
  5
176
330
15A
100
AcDbEntity
  8
BLOCKS
100
AcDbLine
 10
0.1121343087294781
 20
-0.0270000000000005
 30
0.0
 11
0.1036801968702093
 21
-0.0212178483523849
 31
0.0
  0
LINE
  5
177
330
15A
100
AcDbEntity
  8
BLOCKS
100
AcDbLine
 10
0.0983886024114259
 20
-0.0214488843559457
 30
0.0
 11
0.0976543156640401
 21
-0.0150041322864854
 31
0.0
  0
LINE
  5
178
330
15A
100
AcDbEntity
  8
BLOCKS
100
AcDbLine
 10
0.1206036489393455
 20
-0.0267349506691426
 30
0.0
 11
0.120615221243047
 21
-0.0270000000000005
 31
0.0
  0
LINE
  5
179
330
15A
100
AcDbEntity
  8
BLOCKS
100
AcDbLine
 10
0.120615221243047
 20
-0.0270000000000005
 30
0.0
 11
0.1121343270119951
 21
-0.0270000000000005
 31
0.0
  0
LINE
  5
17A
330
15A
100
AcDbEntity
  8
BLOCKS
100
AcDbLine
 10
0.112134327197432
 20
-0.0269999997288733
 30
0.0
 11
0.1036802119392905
 21
-0.0212178474574103
 31
0.0
  0
LINE
  5
17B
330
15A
100
AcDbEntity
  8
BLOCKS
100
AcDbLine
 10
0.1036802117721731
 20
-0.0212178477017506
 30
0.0
 11
0.09838861613468
 21
-0.0214488837567751
 31
0.0
  0
LINE
  5
17C
330
15A
100
AcDbEntity
  8
BLOCKS
100
AcDbLine
 10
0.0983886161357441
 20
-0.0214488837566523
 30
0.0
 11
0.0976543294815656
 21
-0.0150041333177478
 31
0.0
  0
SPLINE
  5
17D
330
15A
100
AcDbEntity
  8
BLOCKS
100
AcDbSpline
210
0.0
220
0.0
230
1.0
 70
    24
 71
     3
 72
     8
 73
     4
 74
     0
 42
0.0000000001
 43
0.0000000001
 40
-7.573993737921242
 40
-7.573993737921242
 40
-7.573993737921242
 40
-7.573993737921242
 40
-1.216421815931269
 40
-1.216421815931269
 40
-1.216421815931269
 40
-1.216421815931269
 10
0.0976543292967426
 20
-0.0150041343150747
 30
0.0
 10
0.0955590934270322
 20
-0.0146923544968013
 30
0.0
 10
0.0934663211613474
 20
-0.0143617772165226
 30
0.0
 10
0.0913762863566353
 20
-0.0140124001324193
 30
0.0
  0
ARC
  5
17E
330
15A
100
AcDbEntity
  8
BLOCKS
100
AcDbCircle
 10
0.1211865277000561
 20
0.991542708831073
 30
0.0
 40
1.006821885833218
100
AcDbArc
 50
268.6607179990691
 51
276.3393976572431
  0
LINE
  5
17F
330
15A
100
AcDbEntity
  8
BLOCKS
100
AcDbLine
 10
0.2188433327047005
 20
-0.0224457134449131
 30
0.0
 11
0.1206036489393455
 21
-0.0267349506691426
 31
0.0
  0
LINE
  5
180
330
15A
100
AcDbEntity
  8
BLOCKS
100
AcDbLine
 10
0.120615221243047
 20
-0.0270000000000005
 30
0.0
 11
0.2107009219874635
 21
-0.0270000000000005
 31
0.0
  0
ARC
  5
181
330
15A
100
AcDbEntity
  8
BLOCKS
100
AcDbCircle
 10
0.094673501756738
 20
0.0057135894829071
 30
0.0
 40
0.0199996573292432
100
AcDbArc
 50
196.5997609410008
 51
260.5106895435204
  0
LINE
  5
182
330
15A
100
AcDbEntity
  8
BLOCKS
100
AcDbLine
 10
0.0
 20
0.0
 30
0.0
 11
0.0011272143619749
 21
0.0322791959736196
 31
0.0
  0
LINE
  5
183
330
15A
100
AcDbEntity
  8
BLOCKS
100
AcDbLine
 10
0.1190286925177429
 20
0.04
 30
0.0
 11
0.725289279825322
 21
0.04
 31
0.0
  0
LINE
  5
184
330
15A
100
AcDbEntity
  8
BLOCKS
100
AcDbLine
 10
0.0
 20
0.0
 30
0.0
 11
1.092793659702751
 21
0.0
 31
0.0
  0
SPLINE
  5
185
330
15A
100
AcDbEntity
  8
BLOCKS
100
AcDbSpline
210
0.0
220
0.0
230
1.0
 70
     8
 71
     3
 72
     8
 73
     4
 74
     0
 42
0.0000000001
 43
0.0000000001
 40
-155.0404990532008
 40
-155.0404990532008
 40
-155.0404990532008
 40
-155.0404990532008
 40
-143.3772452557311
 40
-143.3772452557311
 40
-143.3772452557311
 40
-143.3772452557311
 10
0.243640033921613
 20
-0.0062249179851597
 30
0.0
 10
0.2398940837826944
 20
-0.007253090930094
 30
0.0
 10
0.2361327985730349
 20
-0.0082192643008534
 30
0.0
 10
0.2323575363644681
 20
-0.0091227280784324
 30
0.0
  0
ENDBLK
  5
188
330
15A
100
AcDbEntity
  8
0
100
AcDbBlockEnd
  0
BLOCK
  5
1B1
330
18A
100
AcDbEntity
  8
0
100
AcDbBlockBegin
  2
80011AF
 70
     0
 10
0.0
 20
0.0
 30
0.0
  3
80011AF
  1

  0
ARC
  5
18B
330
18A
100
AcDbEntity
  8
BLOCKS
100
AcDbCircle
 10
0.8936713205812157
 20
0.0320000000000005
 30
0.0
 40
0.008
100
AcDbArc
 50
1.999999999999992
 51
90.0
  0
LINE
  5
18C
330
18A
100
AcDbEntity
  8
BLOCKS
100
AcDbLine
 10
0.8927997532891504
 20
0.0
 30
0.0
 11
0.9027936615593421
 21
0.0
 31
0.0
  0
ARC
  5
18D
330
18A
100
AcDbEntity
  8
BLOCKS
100
AcDbCircle
 10
0.7834813408286938
 20
0.0189973531765622
 30
0.0
 40
0.0307550819606123
100
AcDbArc
 50
295.465886527938
 51
321.8517742517507
  0
SPLINE
  5
18E
330
18A
100
AcDbEntity
  8
BLOCKS
100
AcDbSpline
210
0.0
220
0.0
230
1.0
 70
    24
 71
     1
 72
    10
 73
     8
 74
     0
 42
0.0000000001
 43
0.0000000001
 40
0.0
 40
0.0
 40
2.500008976988099
 40
5.000017953976198
 40
7.500026930964297
 40
10.00003590795239
 40
12.89963359544828
 40
15.79923128294416
 40
18.69882897044005
 40
18.69882897044005
 10
0.7890460869446771
 20
-0.0105368482426388
 30
0.0
 10
0.786589451318082
 20
-0.0106015091051791
 30
0.0
 10
0.7841321891310623
 20
-0.0106651862696981
 30
0.0
 10
0.7816743070810003
 20
-0.0107278993619548
 30
0.0
 10
0.7792158118652743
 20
-0.0107896680077124
 30
0.0
 10
0.7763635983180325
 20
-0.0108601526896268
 30
0.0
 10
0.7735105676918171
 20
-0.0109294250267044
 30
0.0
 10
0.7706567302875579
 20
-0.0109975164106777
 30
0.0
  0
SPLINE
  5
18F
330
18A
100
AcDbEntity
  8
BLOCKS
100
AcDbSpline
210
0.0
220
0.0
230
1.0
 70
    24
 71
     3
 72
     8
 73
     4
 74
     0
 42
0.0000000001
 43
0.0000000001
 40
0.0000000000000002
 40
0.0000000000000002
 40
0.0000000000000002
 40
0.0000000000000002
 40
0.0186198545142608
 40
0.0186198545142608
 40
0.0186198545142608
 40
0.0186198545142608
 10
0.7889167970575
 20
-0.0105356184748712
 30
0.0
 10
0.7828356685965128
 20
-0.0106999099813243
 30
0.0
 10
0.7767489824620725
 20
-0.0108533270092789
 30
0.0
 10
0.770656782381277
 20
-0.0109974909189532
 30
0.0
  0
SPLINE
  5
190
330
18A
100
AcDbEntity
  8
BLOCKS
100
AcDbSpline
210
0.0
220
0.0
230
1.0
 70
    24
 71
     3
 72
     8
 73
     4
 74
     0
 42
0.0000000001
 43
0.0000000001
 40
0.027006080428374
 40
0.027006080428374
 40
0.027006080428374
 40
0.027006080428374
 40
0.0274330628960149
 40
0.0274330628960149
 40
0.0274330628960149
 40
0.0274330628960149
 10
0.7890463118004505
 20
-0.0105367938429572
 30
0.0
 10
0.7890031693865649
 20
-0.0105379374317477
 30
0.0
 10
0.7889594697180519
 20
-0.0105375218580935
 30
0.0
 10
0.7889167970575
 20
-0.0105356184748712
 30
0.0
  0
ARC
  5
191
330
18A
100
AcDbEntity
  8
BLOCKS
100
AcDbCircle
 10
0.7884998899138941
 20
0.0093120499141037
 30
0.0
 40
0.0198563635992793
100
AcDbArc
 50
271.5768947748352
 51
294.4119352963233
  0
LINE
  5
192
330
18A
100
AcDbEntity
  8
BLOCKS
100
AcDbLine
 10
0.9016664471973673
 20
0.0322791959736196
 30
0.0
 11
0.9027936615593421
 21
0.0
 31
0.0
  0
ELLIPSE
  5
193
330
18A
100
AcDbEntity
  8
BLOCKS
100
AcDbEllipse
 10
0.4513968307796722
 20
-0.0185279859150705
 30
0.0
 11
-0.0669633073112532
 21
0.0
 31
0.0
210
0.0
220
0.0
230
1.0
 40
0.0436193873653361
 41
2.682938332652367
 42
3.138539578302675
  0
LINE
  5
194
330
18A
100
AcDbEntity
  8
BLOCKS
100
AcDbLine
 10
0.5018423143875089
 20
-0.0270000000000005
 30
0.0
 11
0.5129589222274582
 21
-0.0186845745727033
 31
0.0
  0
LINE
  5
195
330
18A
100
AcDbEntity
  8
BLOCKS
100
AcDbLine
 10
0.5183598259996779
 20
-0.0185369036240627
 30
0.0
 11
0.5183945081969865
 21
-0.0180413994663127
 31
0.0
  0
LINE
  5
196
330
18A
100
AcDbEntity
  8
BLOCKS
100
AcDbLine
 10
0.5010130761581195
 20
-0.0270000000000005
 30
0.0
 11
0.5018423143875089
 21
-0.0270000000000005
 31
0.0
  0
ELLIPSE
  5
197
330
18A
100
AcDbEntity
  8
BLOCKS
100
AcDbEllipse
 10
0.4513968307796722
 20
-0.0272696941060281
 30
0.0
 11
-0.0499999999999999
 21
0.0
 31
0.0
210
0.0
220
0.0
230
1.0
 40
0.0436193873653357
 41
4.712388980384689
 42
6.159210064364851
  0
ELLIPSE
  5
198
330
18A
100
AcDbEntity
  8
BLOCKS
100
AcDbEllipse
 10
0.4513968307796722
 20
-0.0185279859150705
 30
0.0
 11
0.0616666716289376
 21
0.0
 31
0.0
210
0.0
220
0.0
230
1.0
 40
0.0436193873653361
 41
1.570796326794896
 42
3.19983995830016
  0
ELLIPSE
  5
199
330
18A
100
AcDbEntity
  8
BLOCKS
100
AcDbEllipse
 10
0.4513968307796722
 20
-0.0185279859150705
 30
0.0
 11
-0.0669633073112532
 21
0.0
 31
0.0
210
0.0
220
0.0
230
1.0
 40
0.0436193873653361
 41
6.286238382466701
 42
6.741839628117014
  0
LINE
  5
19A
330
18A
100
AcDbEntity
  8
BLOCKS
100
AcDbLine
 10
0.400951347171831
 20
-0.0270000000000005
 30
0.0
 11
0.3898347393318818
 21
-0.0186845745727033
 31
0.0
  0
LINE
  5
19B
330
18A
100
AcDbEntity
  8
BLOCKS
100
AcDbLine
 10
0.3844338355596665
 20
-0.0185369036240627
 30
0.0
 11
0.3843993993581807
 21
-0.0180449140058295
 31
0.0
  0
LINE
  5
19C
330
18A
100
AcDbEntity
  8
BLOCKS
100
AcDbLine
 10
0.401780585401225
 20
-0.0270000000000005
 30
0.0
 11
0.4513968307796722
 21
-0.0270000000000005
 31
0.0
  0
LINE
  5
19D
330
18A
100
AcDbEntity
  8
BLOCKS
100
AcDbLine
 10
0.400951347171831
 20
-0.0270000000000005
 30
0.0
 11
0.401780585401225
 21
-0.0270000000000005
 31
0.0
  0
ARC
  5
19E
330
18A
100
AcDbEntity
  8
BLOCKS
100
AcDbCircle
 10
0.4439096112137396
 20
-0.2089035945011824
 30
0.0
 40
0.1999211380144872
100
AcDbArc
 50
87.85372157576466
 51
107.3176163597589
  0
ELLIPSE
  5
19F
330
18A
100
AcDbEntity
  8
BLOCKS
100
AcDbEllipse
 10
0.4513968307796722
 20
-0.0272696941060281
 30
0.0
 11
-0.0499999999999999
 21
0.0
 31
0.0
210
0.0
220
0.0
230
1.0
 40
0.0436193873653357
 41
3.265567896404525
 42
4.712388980384689
  0
ELLIPSE
  5
1A0
330
18A
100
AcDbEntity
  8
BLOCKS
100
AcDbEllipse
 10
0.4513968307796722
 20
-0.0185279859150705
 30
0.0
 11
0.0616666716289376
 21
0.0
 31
0.0
210
0.0
220
0.0
230
1.0
 40
0.0436193873653361
 41
6.22493800246921
 42
7.853981633974482
  0
LINE
  5
1A1
330
18A
100
AcDbEntity
  8
BLOCKS
100
AcDbLine
 10
0.4513968307796722
 20
-0.0270000000000005
 30
0.0
 11
0.5010130761581195
 21
-0.0270000000000005
 31
0.0
  0
ARC
  5
1A2
330
18A
100
AcDbEntity
  8
BLOCKS
100
AcDbCircle
 10
0.4588738398946521
 20
-0.2090544423025881
 30
0.0
 40
0.2000714982294976
100
AcDbArc
 50
72.69267719675304
 51
92.14173859213458
  0
ARC
  5
1A3
330
18A
100
AcDbEntity
  8
BLOCKS
100
AcDbCircle
 10
0.0091223409781287
 20
0.0320000000000005
 30
0.0
 40
0.008
100
AcDbArc
 50
90.0
 51
177.9999999999995
  0
ARC
  5
1A4
330
18A
100
AcDbEntity
  8
BLOCKS
100
AcDbCircle
 10
0.1142918328710311
 20
0.0092861559724929
 30
0.0
 40
0.0198386375607133
100
AcDbArc
 50
246.0767213879615
 51
268.4385025525373
  0
SPLINE
  5
1A5
330
18A
100
AcDbEntity
  8
BLOCKS
100
AcDbSpline
210
0.0
220
0.0
230
1.0
 70
    24
 71
     1
 72
    10
 73
     8
 74
     0
 42
0.0000000001
 43
0.0000000001
 40
0.0
 40
0.0
 40
2.500008936788384
 40
5.000017873576768
 40
7.500026810365152
 40
10.00003574715353
 40
12.74838184477333
 40
15.49672794239312
 40
18.24507404001292
 40
18.24507404001292
 10
0.1316941470623123
 20
-0.0109942488309707
 30
0.0
 10
0.1292336543105284
 20
-0.0109355818906283
 30
0.0
 10
0.1267737604757849
 20
-0.0108760394810315
 30
0.0
 10
0.1243144721664908
 20
-0.0108156016158978
 30
0.0
 10
0.121855795991039
 20
-0.0107542483089355
 30
0.0
 10
0.11915359763482
 20
-0.0106857203149753
 30
0.0
 10
0.1164521458513309
 20
-0.0106160356591363
 30
0.0
 10
0.1137514495427877
 20
-0.010545168370893
 30
0.0
  0
ARC
  5
1A6
330
18A
100
AcDbEntity
  8
BLOCKS
100
AcDbCircle
 10
0.119308245234995
 20
0.0190164544377149
 30
0.0
 40
0.0307738290132622
100
AcDbArc
 50
218.1660344306995
 51
244.8863710603373
  0
SPLINE
  5
1A7
330
18A
100
AcDbEntity
  8
BLOCKS
100
AcDbSpline
210
0.0
220
0.0
230
1.0
 70
    24
 71
     3
 72
     8
 73
     4
 74
     0
 42
0.0000000001
 43
0.0000000001
 40
0.0270158957187988
 40
0.0270158957187988
 40
0.0270158957187988
 40
0.0270158957187988
 40
0.027432049864707
 40
0.027432049864707
 40
0.027432049864707
 40
0.027432049864707
 10
0.1137512279706948
 20
-0.0105451143618552
 30
0.0
 10
0.1137933034529442
 20
-0.0105462254354598
 30
0.0
 10
0.1138358702427195
 20
-0.0105458579335391
 30
0.0
 10
0.1138774614556269
 20
-0.0105440753634798
 30
0.0
  0
SPLINE
  5
1A8
330
18A
100
AcDbEntity
  8
BLOCKS
100
AcDbSpline
210
0.0
220
0.0
230
1.0
 70
    24
 71
     3
 72
     8
 73
     4
 74
     0
 42
0.0000000001
 43
0.0000000001
 40
0.6617171488225335
 40
0.6617171488225335
 40
0.6617171488225335
 40
0.6617171488225335
 40
0.6798858947606224
 40
0.6798858947606224
 40
0.6798858947606224
 40
0.6798858947606224
 10
0.1316940237450535
 20
-0.0109942203030983
 30
0.0
 10
0.1257507871972598
 20
-0.0108535079693752
 30
0.0
 10
0.1198119205965622
 20
-0.0107039619971738
 30
0.0
 10
0.1138774614556269
 20
-0.0105440753634798
 30
0.0
  0
ARC
  5
1A9
330
18A
100
AcDbEntity
  8
BLOCKS
100
AcDbCircle
 10
0.1142529200699005
 20
0.0091584406691732
 30
0.0
 40
0.0197060931487682
100
AcDbArc
 50
246.0306926193293
 51
268.9082820441859
  0
LINE
  5
1AA
330
18A
100
AcDbEntity
  8
BLOCKS
100
AcDbLine
 10
0.0
 20
0.0
 30
0.0
 11
0.009993908270194
 21
0.0
 31
0.0
  0
LINE
  5
1AB
330
18A
100
AcDbEntity
  8
BLOCKS
100
AcDbLine
 10
0.0
 20
0.0
 30
0.0
 11
0.0011272143619772
 21
0.0322791959736196
 31
0.0
  0
ARC
  5
1AC
330
18A
100
AcDbEntity
  8
BLOCKS
100
AcDbCircle
 10
0.6170081181995829
 20
12.26590499552062
 30
0.0
 40
12.28648769017094
100
AcDbArc
 50
267.7362379288918
 51
268.915316986784
  0
ARC
  5
1AD
330
18A
100
AcDbEntity
  8
BLOCKS
100
AcDbCircle
 10
0.2840193289789136
 20
12.30846171380324
 30
0.0
 40
12.32906674077088
100
AcDbArc
 50
271.0891470969274
 51
272.2620947192004
  0
LINE
  5
1AE
330
18A
100
AcDbEntity
  8
BLOCKS
100
AcDbLine
 10
0.0091223409781287
 20
0.04
 30
0.0
 11
0.8936713205812157
 21
0.04
 31
0.0
  0
LINE
  5
1AF
330
18A
100
AcDbEntity
  8
BLOCKS
100
AcDbLine
 10
0.8927997532891504
 20
0.0
 30
0.0
 11
0.009993908270194
 21
0.0
 31
0.0
  0
ENDBLK
  5
1B2
330
18A
100
AcDbEntity
  8
0
100
AcDbBlockEnd
  0
BLOCK
  5
20F
330
1BF
100
AcDbEntity
  8
0
100
AcDbBlockBegin
  2
80009PL
 70
     0
 10
0.0
 20
0.0
 30
0.0
  3
80009PL
  1

  0
ARC
  5
1C0
330
1BF
100
AcDbEntity
  8
BLOCKS
100
AcDbCircle
 10
0.9387037921936917
 20
-0.0099926716390314
 30
0.0
 40
0.0099926716733004
100
AcDbArc
 50
22.4127066455081
 51
90.00474515980553
  0
ARC
  5
1C1
330
1BF
100
AcDbEntity
  8
BLOCKS
100
AcDbCircle
 10
0.9380653141339189
 20
-0.0109462710178446
 30
0.0
 40
0.0019985338940692
100
AcDbArc
 50
22.3612773289036
 51
90.00475823060121
  0
ARC
  5
1C2
330
1BF
100
AcDbEntity
  8
BLOCKS
100
AcDbCircle
 10
0.6147849053587652
 20
0.2473797355360443
 30
0.0
 40
0.4193979905991747
100
AcDbArc
 50
313.3222410512774
 51
314.9826360712447
  0
ARC
  5
1C3
330
1BF
100
AcDbEntity
  8
BLOCKS
100
AcDbCircle
 10
0.2812222269322115
 20
-0.2812222269322115
 30
0.0
 40
0.721222226932211
100
AcDbArc
 50
0.0
 51
22.41745180531342
  0
ARC
  5
1C4
330
1BF
100
AcDbEntity
  8
BLOCKS
100
AcDbCircle
 10
0.2812222269322115
 20
-0.2812222269322115
 30
0.0
 40
0.7122744898015434
100
AcDbArc
 50
0.0
 51
22.3660355595053
  0
SPLINE
  5
1C5
330
1BF
100
AcDbEntity
  8
BLOCKS
100
AcDbSpline
210
0.0
220
0.0
230
1.0
 70
    12
 71
     3
 72
     8
 73
     4
 74
     0
 42
0.0000000001
 43
0.0000000001
 40
2.356803477777957
 40
2.356803477777957
 40
2.356803477777957
 40
2.356803477777957
 40
3.926381829401628
 40
3.926381829401628
 40
3.926381829401628
 40
3.926381829401628
 10
0.0099939082701894
 20
0.0
 30
0.0
 41
1.0
 10
0.0041381365711618
 20
0.0
 30
0.0
 41
0.8050248461936602
 10
-0.0000000000000006
 20
-0.0041381365711641
 30
0.0
 41
0.8050248461936602
 10
0.0
 20
-0.0099939082701917
 30
0.0
 41
1.0
  0
SPLINE
  5
1C6
330
1BF
100
AcDbEntity
  8
BLOCKS
100
AcDbSpline
210
0.0
220
0.0
230
1.0
 70
    12
 71
     3
 72
     8
 73
     4
 74
     0
 42
0.0000000001
 43
0.0000000001
 40
2.356803477777952
 40
2.356803477777952
 40
2.356803477777952
 40
2.356803477777952
 40
3.926381829401633
 40
3.926381829401633
 40
3.926381829401633
 40
3.926381829401633
 10
0.008947737130668
 20
-0.0109465187847059
 30
0.0
 41
1.0
 10
0.0089477371306657
 20
-0.0097753644449017
 30
0.0
 41
0.8050248461936583
 10
0.0097753644448994
 20
-0.008947737130668
 30
0.0
 41
0.8050248461936583
 10
0.0109465187847059
 20
-0.008947737130668
 30
0.0
 41
1.0
  0
CIRCLE
  5
1C7
330
1BF
100
AcDbEntity
  8
BLOCKS
100
AcDbCircle
 10
0.7717159681327394
 20
-0.2413858822428324
 30
0.0
 40
0.00612973799464
  0
CIRCLE
  5
1C8
330
1BF
100
AcDbEntity
  8
BLOCKS
100
AcDbCircle
 10
0.7187334408216316
 20
-0.1884033549317223
 30
0.0
 40
0.0066045567677504
  0
ARC
  5
1C9
330
1BF
100
AcDbEntity
  8
BLOCKS
100
AcDbCircle
 10
0.2813238341675969
 20
6.088128370914402
 30
0.0
 40
6.187848243302141
100
AcDbArc
 50
274.1247520872103
 51
274.9057567916744
  0
CIRCLE
  5
1CA
330
1BF
100
AcDbEntity
  8
BLOCKS
100
AcDbCircle
 10
0.6127179049215306
 20
-0.1884538362096032
 30
0.0
 40
0.0070805473812906
  0
CIRCLE
  5
1CB
330
1BF
100
AcDbEntity
  8
BLOCKS
100
AcDbCircle
 10
0.7186291267992715
 20
-0.2943650580873441
 30
0.0
 40
0.0061292477823633
  0
CIRCLE
  5
1CC
330
1BF
100
AcDbEntity
  8
BLOCKS
100
AcDbCircle
 10
0.5595839337767758
 20
-0.453517916598795
 30
0.0
 40
0.0061318827214047
  0
CIRCLE
  5
1CD
330
1BF
100
AcDbEntity
  8
BLOCKS
100
AcDbCircle
 10
0.6656499509547576
 20
-0.3474518994208142
 30
0.0
 40
0.0061314169593997
  0
CIRCLE
  5
1CE
330
1BF
100
AcDbEntity
  8
BLOCKS
100
AcDbCircle
 10
0.6126169423657667
 20
-0.4004849080098041
 30
0.0
 40
0.0061318783102129
  0
CIRCLE
  5
1CF
330
1BF
100
AcDbEntity
  8
BLOCKS
100
AcDbCircle
 10
0.5595853968752204
 20
-0.3474533625192589
 30
0.0
 40
0.0066417370532155
  0
CIRCLE
  5
1D0
330
1BF
100
AcDbEntity
  8
BLOCKS
100
AcDbCircle
 10
0.6126184054642114
 20
-0.294420353930268
 30
0.0
 40
0.0066171872879448
  0
CIRCLE
  5
1D1
330
1BF
100
AcDbEntity
  8
BLOCKS
100
AcDbCircle
 10
0.5596400161756696
 20
-0.2414419646417264
 30
0.0
 40
0.0071256712028545
  0
CIRCLE
  5
1D2
330
1BF
100
AcDbEntity
  8
BLOCKS
100
AcDbCircle
 10
0.6656514140532022
 20
-0.2413873453412771
 30
0.0
 40
0.0066251779990707
  0
CIRCLE
  5
1D3
330
1BF
100
AcDbEntity
  8
BLOCKS
100
AcDbCircle
 10
0.5067023690214297
 20
-0.1885043174874841
 30
0.0
 40
0.007560551252202
  0
CIRCLE
  5
1D4
330
1BF
100
AcDbEntity
  8
BLOCKS
100
AcDbCircle
 10
0.4006868331213309
 20
-0.1885547987653672
 30
0.0
 40
0.0080450577552022
  0
SPLINE
  5
1D5
330
1BF
100
AcDbEntity
  8
BLOCKS
100
AcDbSpline
210
0.0
220
0.0
230
1.0
 70
     8
 71
     3
 72
     8
 73
     4
 74
     0
 42
0.0000000001
 43
0.0000000001
 40
0.0
 40
0.0
 40
0.0
 40
0.0
 40
0.0085526174816673
 40
0.0085526174816673
 40
0.0085526174816673
 40
0.0085526174816673
 10
0.311085434533511
 20
-0.1091789363070575
 30
0.0
 10
0.3138425991962003
 20
-0.1086589547397762
 30
0.0
 10
0.3166381936987386
 20
-0.1082053791645535
 30
0.0
 10
0.3194734012181607
 20
-0.1078177273075403
 30
0.0
  0
CIRCLE
  5
1D6
330
1BF
100
AcDbEntity
  8
BLOCKS
100
AcDbCircle
 10
0.4535683978766747
 20
-0.453568397876677
 30
0.0
 40
0.0066068103165128
  0
CIRCLE
  5
1D7
330
1BF
100
AcDbEntity
  8
BLOCKS
100
AcDbCircle
 10
0.4005409904086969
 20
-0.4005409904086993
 30
0.0
 40
0.0070166876233866
  0
CIRCLE
  5
1D8
330
1BF
100
AcDbEntity
  8
BLOCKS
100
AcDbCircle
 10
0.4535739989976878
 20
-0.3475079818197082
 30
0.0
 40
0.0071015054016152
  0
CIRCLE
  5
1D9
330
1BF
100
AcDbEntity
  8
BLOCKS
100
AcDbCircle
 10
0.5065523882862295
 20
-0.4004863711082499
 30
0.0
 40
0.0066493138595666
  0
CIRCLE
  5
1DA
330
1BF
100
AcDbEntity
  8
BLOCKS
100
AcDbCircle
 10
0.5066518877435488
 20
-0.2945198533875851
 30
0.0
 40
0.0070812429514566
  0
CIRCLE
  5
1DB
330
1BF
100
AcDbEntity
  8
BLOCKS
100
AcDbCircle
 10
0.4006363518434478
 20
-0.2945703346654682
 30
0.0
 40
0.0075655327659691
  0
CIRCLE
  5
1DC
330
1BF
100
AcDbEntity
  8
BLOCKS
100
AcDbCircle
 10
0.3475079818197059
 20
-0.4535739989976901
 30
0.0
 40
0.0070975595319773
  0
CIRCLE
  5
1DD
330
1BF
100
AcDbEntity
  8
BLOCKS
100
AcDbCircle
 10
0.2945703346654659
 20
-0.4006363518434501
 30
0.0
 40
0.0075628225775859
  0
CIRCLE
  5
1DE
330
1BF
100
AcDbEntity
  8
BLOCKS
100
AcDbCircle
 10
0.2414960245599855
 20
-0.4536280589159515
 30
0.0
 40
0.0076042040711309
  0
CIRCLE
  5
1DF
330
1BF
100
AcDbEntity
  8
BLOCKS
100
AcDbCircle
 10
0.2415878073543558
 20
-0.3476538245323399
 30
0.0
 40
0.0080446699332296
  0
CIRCLE
  5
1E0
330
1BF
100
AcDbEntity
  8
BLOCKS
100
AcDbCircle
 10
0.294620815943349
 20
-0.294620815943349
 30
0.0
 40
0.0076555525038399
  0
CIRCLE
  5
1E1
330
1BF
100
AcDbEntity
  8
BLOCKS
100
AcDbCircle
 10
0.3476033432544568
 20
-0.3476033432544591
 30
0.0
 40
0.0075656219783043
  0
CIRCLE
  5
1E2
330
1BF
100
AcDbEntity
  8
BLOCKS
100
AcDbCircle
 10
0.3476538245323399
 20
-0.2415878073543581
 30
0.0
 40
0.0080465709677541
  0
CIRCLE
  5
1E3
330
1BF
100
AcDbEntity
  8
BLOCKS
100
AcDbCircle
 10
0.4536693604324387
 20
-0.241537326076475
 30
0.0
 40
0.0075640871934697
  0
LINE
  5
1E4
330
1BF
100
AcDbEntity
  8
BLOCKS
100
AcDbLine
 10
0.319473401218163
 20
-0.1078177273075403
 30
0.0
 11
0.7264054708278672
 21
-0.0836921237893466
 31
0.0
  0
CIRCLE
  5
1E5
330
1BF
100
AcDbEntity
  8
BLOCKS
100
AcDbCircle
 10
0.4535179165987939
 20
-0.5595839337767769
 30
0.0
 40
0.0061286076420002
  0
CIRCLE
  5
1E6
330
1BF
100
AcDbEntity
  8
BLOCKS
100
AcDbCircle
 10
0.4004849080098029
 20
-0.6126169423657677
 30
0.0
 40
0.0061294236928595
  0
CIRCLE
  5
1E7
330
1BF
100
AcDbEntity
  8
BLOCKS
100
AcDbCircle
 10
0.5065509251877848
 20
-0.5065509251877859
 30
0.0
 40
0.0061309028686847
  0
CIRCLE
  5
1E8
330
1BF
100
AcDbEntity
  8
BLOCKS
100
AcDbCircle
 10
0.4005353892876838
 20
-0.506601406465668
 30
0.0
 40
0.0066044702491963
  0
CIRCLE
  5
1E9
330
1BF
100
AcDbEntity
  8
BLOCKS
100
AcDbCircle
 10
0.2413873453412725
 20
-0.6656514140532046
 30
0.0
 40
0.0066210414266805
  0
CIRCLE
  5
1EA
330
1BF
100
AcDbEntity
  8
BLOCKS
100
AcDbCircle
 10
0.3474533625192544
 20
-0.5595853968752226
 30
0.0
 40
0.0066488729245657
  0
CIRCLE
  5
1EB
330
1BF
100
AcDbEntity
  8
BLOCKS
100
AcDbCircle
 10
0.347451899420812
 20
-0.6656499509547587
 30
0.0
 40
0.0061295772164199
  0
CIRCLE
  5
1EC
330
1BF
100
AcDbEntity
  8
BLOCKS
100
AcDbCircle
 10
0.2944203539302634
 20
-0.6126184054642136
 30
0.0
 40
0.0066184027487344
  0
CIRCLE
  5
1ED
330
1BF
100
AcDbEntity
  8
BLOCKS
100
AcDbCircle
 10
0.2414419646417218
 20
-0.559640016175672
 30
0.0
 40
0.0071256032689438
  0
CIRCLE
  5
1EE
330
1BF
100
AcDbEntity
  8
BLOCKS
100
AcDbCircle
 10
0.294474973230715
 20
-0.506607007586681
 30
0.0
 40
0.0071048897339251
  0
CIRCLE
  5
1EF
330
1BF
100
AcDbEntity
  8
BLOCKS
100
AcDbCircle
 10
0.2413320494983509
 20
-0.7716621353882625
 30
0.0
 40
0.0061560809020752
  0
CIRCLE
  5
1F0
330
1BF
100
AcDbEntity
  8
BLOCKS
100
AcDbCircle
 10
0.2944188908318188
 20
-0.7186829595437507
 30
0.0
 40
0.006131410910364
  0
SPLINE
  5
1F1
330
1BF
100
AcDbEntity
  8
BLOCKS
100
AcDbSpline
210
0.0
220
0.0
230
1.0
 70
    12
 71
     3
 72
     8
 73
     4
 74
     0
 42
0.0000000001
 43
0.0000000001
 40
2.423848976656093
 40
2.423848976656093
 40
2.423848976656093
 40
2.423848976656093
 40
3.859336330523493
 40
3.859336330523493
 40
3.859336330523493
 40
3.859336330523493
 10
0.1734046910264146
 20
-0.0892297884889809
 30
0.0
 41
1.0
 10
0.1254105876803192
 20
-0.0918290562137986
 30
0.0
 41
0.8355277326700745
 10
0.0918290562137963
 20
-0.1254105876803192
 30
0.0
 41
0.8355277326700745
 10
0.0892297884889786
 20
-0.1734046910264146
 30
0.0
 41
1.0
  0
ARC
  5
1F2
330
1BF
100
AcDbEntity
  8
BLOCKS
100
AcDbCircle
 10
0.1782532903927131
 20
-0.1782474317755555
 30
0.0
 40
0.0609621141203476
100
AcDbArc
 50
88.86011665763154
 51
181.15059268871
  0
SPLINE
  5
1F3
330
1BF
100
AcDbEntity
  8
BLOCKS
100
AcDbSpline
210
0.0
220
0.0
230
1.0
 70
     8
 71
     3
 72
     8
 73
     4
 74
     0
 42
0.0000000001
 43
0.0000000001
 40
0.0
 40
0.0
 40
0.0
 40
0.0
 40
0.008549310516903
 40
0.008549310516903
 40
0.008549310516903
 40
0.008549310516903
 10
0.1078302649335865
 20
-0.3192619262135827
 30
0.0
 10
0.1082167102595395
 20
-0.316427663399611
 30
0.0
 10
0.1086690440650818
 20
-0.3136329904534341
 30
0.0
 10
0.1091877640343136
 20
-0.3108767333220363
 30
0.0
  0
ARC
  5
1F4
330
1BF
100
AcDbEntity
  8
BLOCKS
100
AcDbCircle
 10
-2.395232079667266
 20
-0.0902482588238013
 30
0.0
 40
2.51411926472983
100
AcDbArc
 50
354.9654886787869
 51
357.9662091509254
  0
ARC
  5
1F5
330
1BF
100
AcDbEntity
  8
BLOCKS
100
AcDbCircle
 10
-0.2473797355359329
 20
-0.6147849053588813
 30
0.0
 40
0.4193979905990136
100
AcDbArc
 50
315.0173639287562
 51
316.6777589487237
  0
ARC
  5
1F6
330
1BF
100
AcDbEntity
  8
BLOCKS
100
AcDbCircle
 10
-0.1826360887165811
 20
-0.8040393417204267
 30
0.0
 40
0.2597681825862061
100
AcDbArc
 50
337.7180627496319
 51
358.5770108769018
  0
ARC
  5
1F7
330
1BF
100
AcDbEntity
  8
BLOCKS
100
AcDbCircle
 10
-6.088142125220197
 20
-0.2813227479950842
 30
0.0
 40
6.187862040108157
100
AcDbArc
 50
355.0942440790202
 51
355.8752470420857
  0
ARC
  5
1F8
330
1BF
100
AcDbEntity
  8
BLOCKS
100
AcDbCircle
 10
0.0109462710178468
 20
-0.9380653141339177
 30
0.0
 40
0.0019985338940704
100
AcDbArc
 50
179.9952417694232
 51
247.6387226710726
  0
LINE
  5
1F9
330
1BF
100
AcDbEntity
  8
BLOCKS
100
AcDbLine
 10
0.0892297884889786
 20
-0.1734046910264146
 30
0.0
 11
0.0492692885588485
 21
-0.9112541803640738
 31
0.0
  0
LINE
  5
1FA
330
1BF
100
AcDbEntity
  8
BLOCKS
100
AcDbLine
 10
0.0836921237893466
 20
-0.7264054708278707
 30
0.0
 11
0.1078302649335865
 21
-0.3192619262135827
 31
0.0
  0
ARC
  5
1FB
330
1BF
100
AcDbEntity
  8
BLOCKS
100
AcDbCircle
 10
0.3785190235216419
 20
-0.3785190235216407
 30
0.0
 40
0.4560130272537221
100
AcDbArc
 50
229.7193819278111
 51
40.28061807219017
  0
CIRCLE
  5
1FC
330
1BF
100
AcDbEntity
  8
BLOCKS
100
AcDbCircle
 10
0.1884538362096009
 20
-0.6127179049215306
 30
0.0
 40
0.0070805240273353
  0
CIRCLE
  5
1FD
330
1BF
100
AcDbEntity
  8
BLOCKS
100
AcDbCircle
 10
0.1884033549317201
 20
-0.7187334408216316
 30
0.0
 40
0.0066059254606748
  0
CIRCLE
  5
1FE
330
1BF
100
AcDbEntity
  8
BLOCKS
100
AcDbCircle
 10
0.1885043174874818
 20
-0.5067023690214319
 30
0.0
 40
0.0075620451551397
  0
CIRCLE
  5
1FF
330
1BF
100
AcDbEntity
  8
BLOCKS
100
AcDbCircle
 10
0.1885547987653649
 20
-0.4006868331213309
 30
0.0
 40
0.0080469146994612
  0
CIRCLE
  5
200
330
1BF
100
AcDbEntity
  8
BLOCKS
100
AcDbCircle
 10
0.1856941466990065
 20
-0.1856626307902661
 30
0.0
 40
0.0672622248487453
  0
CIRCLE
  5
201
330
1BF
100
AcDbEntity
  8
BLOCKS
100
AcDbCircle
 10
0.1852538129085133
 20
-0.1854037354213256
 30
0.0
 40
0.0453405341287898
  0
ELLIPSE
  5
202
330
1BF
100
AcDbEntity
  8
BLOCKS
100
AcDbEllipse
 10
0.079093024828037
 20
-0.0788541773438055
 30
0.0
 11
0.1713049315447478
 21
0.1713049315448126
 31
0.0
210
0.0
220
0.0
230
1.0
 40
0.9990482215818575
 41
4.04642437757379
 42
5.377412279251755
  0
ARC
  5
203
330
1BF
100
AcDbEntity
  8
BLOCKS
100
AcDbCircle
 10
0.0906471140883241
 20
2.393661301263648
 30
0.0
 40
2.512529066085341
100
AcDbArc
 50
272.0258511008162
 51
275.0333528563993
  0
LINE
  5
204
330
1BF
100
AcDbEntity
  8
BLOCKS
100
AcDbLine
 10
0.0
 20
-0.0099939082701917
 30
0.0
 11
0.0
 21
-0.9387029646139911
 31
0.0
  0
LINE
  5
205
330
1BF
100
AcDbEntity
  8
BLOCKS
100
AcDbLine
 10
0.008947737130668
 20
-0.938065148162093
 30
0.0
 11
0.008947737130668
 21
-0.0109465187847059
 31
0.0
  0
ARC
  5
206
330
1BF
100
AcDbEntity
  8
BLOCKS
100
AcDbCircle
 10
0.0099926716390155
 20
-0.9387037921937007
 30
0.0
 40
0.0099926716732841
100
AcDbArc
 50
179.9952548401322
 51
247.5872933545542
  0
ARC
  5
207
330
1BF
100
AcDbEntity
  8
BLOCKS
100
AcDbCircle
 10
0.2812222269322115
 20
-0.2812222269322115
 30
0.0
 40
0.721222226932211
100
AcDbArc
 50
247.5825481946865
 51
0.0000000000000509
  0
ARC
  5
208
330
1BF
100
AcDbEntity
  8
BLOCKS
100
AcDbCircle
 10
0.2812222269322115
 20
-0.2812222269322115
 30
0.0
 40
0.7122744898015434
100
AcDbArc
 50
247.6339644404946
 51
0.0
  0
LINE
  5
209
330
1BF
100
AcDbEntity
  8
BLOCKS
100
AcDbLine
 10
0.9387029646139945
 20
0.0
 30
0.0
 11
0.0099939082701894
 21
0.0
 31
0.0
  0
LINE
  5
20A
330
1BF
100
AcDbEntity
  8
BLOCKS
100
AcDbLine
 10
0.0109465187847059
 20
-0.008947737130668
 30
0.0
 11
0.9380651481620953
 21
-0.008947737130668
 31
0.0
  0
LINE
  5
20B
330
1BF
100
AcDbEntity
  8
BLOCKS
100
AcDbLine
 10
0.9112541803640761
 20
-0.0492692885588463
 30
0.0
 11
0.1734046910264146
 21
-0.0892297884889809
 31
0.0
  0
ARC
  5
20C
330
1BF
100
AcDbEntity
  8
BLOCKS
100
AcDbCircle
 10
0.2778316973346864
 20
-0.2778316973346841
 30
0.0
 40
0.6733979631039353
100
AcDbArc
 50
250.1586692804893
 51
19.84133071951082
  0
ARC
  5
20D
330
1BF
100
AcDbEntity
  8
BLOCKS
100
AcDbCircle
 10
0.8040743930218287
 20
0.1824690717299359
 30
0.0
 40
0.2596003485055007
100
AcDbArc
 50
271.41617082188
 51
292.2887555515865
  0
ENDBLK
  5
210
330
1BF
100
AcDbEntity
  8
0
100
AcDbBlockEnd
  0
BLOCK
  5
27A
330
212
100
AcDbEntity
  8
0
100
AcDbBlockBegin
  2
80009CT
 70
     0
 10
0.0
 20
0.0
 30
0.0
  3
80009CT
  1

  0
LINE
  5
213
330
212
100
AcDbEntity
  8
BLOCKS
100
AcDbLine
 10
0.9934967167337527
 20
0.035
 30
0.0
 11
0.9870824314083803
 21
0.035
 31
0.0
  0
ARC
  5
214
330
212
100
AcDbEntity
  8
BLOCKS
100
AcDbCircle
 10
0.9934967167337527
 20
0.0270000000000005
 30
0.0
 40
0.008
100
AcDbArc
 50
1.999999999970665
 51
90.0
  0
LINE
  5
215
330
212
100
AcDbEntity
  8
BLOCKS
100
AcDbLine
 10
0.9961104560017247
 20
0.0
 30
0.0
 11
1.002444453864423
 21
0.0
 31
0.0
  0
LINE
  5
216
330
212
100
AcDbEntity
  8
BLOCKS
100
AcDbLine
 10
1.001491843349904
 20
0.0272791959736151
 30
0.0
 11
1.002444453864423
 21
0.0
 31
0.0
  0
ARC
  5
217
330
212
100
AcDbEntity
  8
BLOCKS
100
AcDbCircle
 10
0.9451541754683693
 20
-0.0159695938025368
 30
0.0
 40
0.0509695938026367
100
AcDbArc
 50
89.99988631612458
 51
102.7883725828583
  0
LINE
  5
218
330
212
100
AcDbEntity
  8
BLOCKS
100
AcDbLine
 10
0.9451542851329078
 20
0.035
 30
0.0
 11
0.9870824314083803
 21
0.035
 31
0.0
  0
ARC
  5
219
330
212
100
AcDbEntity
  8
BLOCKS
100
AcDbCircle
 10
0.9871166147623263
 20
0.026960993503842
 30
0.0
 40
0.0080390791728256
100
AcDbArc
 50
2.268471575011115
 51
90.24363086502047
  0
LINE
  5
21A
330
212
100
AcDbEntity
  8
BLOCKS
100
AcDbLine
 10
0.9951493958148148
 20
0.0272791960400741
 30
0.0
 11
0.9961104578840696
 21
0.0000000000663158
 31
0.0
  0
LINE
  5
21B
330
212
100
AcDbEntity
  8
BLOCKS
100
AcDbLine
 10
0.9961104560017247
 20
0.0
 30
0.0
 11
0.9910627668497046
 21
0.0
 31
0.0
  0
LINE
  5
21C
330
212
100
AcDbEntity
  8
BLOCKS
100
AcDbLine
 10
0.9901077349986962
 20
0.0271046985571275
 30
0.0
 11
0.9910627687479792
 21
0.0000000000668854
 31
0.0
  0
ARC
  5
21D
330
212
100
AcDbEntity
  8
BLOCKS
100
AcDbCircle
 10
0.9870952026595933
 20
0.026985124467609
 30
0.0
 40
0.0030149025822844
100
AcDbArc
 50
2.27300353295499
 51
90.24270800211541
  0
LINE
  5
21E
330
212
100
AcDbEntity
  8
BLOCKS
100
AcDbLine
 10
0.9870824314083803
 20
0.03
 30
0.0
 11
0.9451542844742016
 21
0.03
 31
0.0
  0
ARC
  5
21F
330
212
100
AcDbEntity
  8
BLOCKS
100
AcDbCircle
 10
0.9451541024474499
 20
-0.015870380233597
 30
0.0
 40
0.0458703802339105
100
AcDbArc
 50
89.99978765394713
 51
102.7870269678311
  0
ARC
  5
220
330
212
100
AcDbEntity
  8
BLOCKS
100
AcDbCircle
 10
0.72547179062424
 20
0.0210433392094592
 30
0.0
 40
0.008
100
AcDbArc
 50
242.3222691155893
 51
271.7683279895259
  0
ARC
  5
221
330
212
100
AcDbEntity
  8
BLOCKS
100
AcDbCircle
 10
0.7111974970825622
 20
0.0206026496757386
 30
0.0
 40
0.008
100
AcDbArc
 50
271.7683279895259
 51
301.214386863461
  0
ARC
  5
222
330
212
100
AcDbEntity
  8
BLOCKS
100
AcDbCircle
 10
0.7187249588413671
 20
0.0081803735368942
 30
0.0
 40
0.0065249999999997
100
AcDbArc
 50
62.32226911558997
 51
121.2143868634617
  0
LINE
  5
223
330
212
100
AcDbEntity
  8
BLOCKS
100
AcDbLine
 10
0.7844995568530431
 20
0.0098571253405851
 30
0.0
 11
0.7248249243713531
 21
0.0080147934671038
 31
0.0
  0
ARC
  5
224
330
212
100
AcDbEntity
  8
BLOCKS
100
AcDbCircle
 10
0.7281891184708843
 20
0.0787453760348035
 30
0.0
 40
0.0708105437933187
100
AcDbArc
 50
262.3073215574355
 51
267.276864429302
  0
ARC
  5
225
330
212
100
AcDbEntity
  8
BLOCKS
100
AcDbCircle
 10
0.705003469485148
 20
0.0774628462220517
 30
0.0
 40
0.0702411244862857
100
AcDbArc
 50
276.2470651504868
 51
281.2530088532849
  0
LINE
  5
226
330
212
100
AcDbEntity
  8
BLOCKS
100
AcDbLine
 10
0.7257186565939015
 20
0.0130471490420712
 30
0.0
 11
0.7844107993991658
 21
0.0148591485620727
 31
0.0
  0
ARC
  5
227
330
212
100
AcDbEntity
  8
BLOCKS
100
AcDbCircle
 10
0.6127501193112222
 20
0.0035907312048721
 30
0.0
 40
0.0073874120464893
100
AcDbArc
 50
69.06714045253409
 51
114.4695155265144
  0
ARC
  5
228
330
212
100
AcDbEntity
  8
BLOCKS
100
AcDbCircle
 10
0.6225885854788022
 20
0.0697450705322774
 30
0.0
 40
0.0650708728025393
100
AcDbArc
 50
261.2509365982725
 51
267.1077026745836
  0
ARC
  5
229
330
212
100
AcDbEntity
  8
BLOCKS
100
AcDbCircle
 10
0.5989153337663698
 20
0.0685590365770611
 30
0.0
 40
0.064613215862717
100
AcDbArc
 50
276.4159529129619
 51
282.3099138843471
  0
ARC
  5
22A
330
212
100
AcDbEntity
  8
BLOCKS
100
AcDbCircle
 10
0.6054648713755388
 20
0.0189647868621364
 30
0.0
 40
0.0096269772433066
100
AcDbArc
 50
272.7231196278612
 51
296.0339484135783
  0
ARC
  5
22B
330
212
100
AcDbEntity
  8
BLOCKS
100
AcDbCircle
 10
0.6190731118362147
 20
0.0193849133731828
 30
0.0
 40
0.0096269772433034
100
AcDbArc
 50
247.5027075654684
 51
270.8135363511918
  0
LINE
  5
22C
330
212
100
AcDbEntity
  8
BLOCKS
100
AcDbLine
 10
0.7126468246228411
 20
0.0076388196170433
 30
0.0
 11
0.6193051954721614
 21
0.0047570882790285
 31
0.0
  0
LINE
  5
22D
330
212
100
AcDbEntity
  8
BLOCKS
100
AcDbLine
 10
0.6192097996140252
 20
0.0097589065534009
 30
0.0
 11
0.7114443630522237
 21
0.0126064595083517
 31
0.0
  0
ARC
  5
22E
330
212
100
AcDbEntity
  8
BLOCKS
100
AcDbCircle
 10
0.7614564790534315
 20
0.7977510976245754
 30
0.0
 40
0.7832283860557688
100
AcDbArc
 50
271.6794260593483
 51
282.7169293545111
  0
ARC
  5
22F
330
212
100
AcDbEntity
  8
BLOCKS
100
AcDbCircle
 10
0.7613907752637897
 20
0.7982687075557829
 30
0.0
 40
0.7887501751147897
100
AcDbArc
 50
271.6788908761898
 51
282.7154298742865
  0
ARC
  5
230
330
212
100
AcDbEntity
  8
BLOCKS
100
AcDbCircle
 10
0.4008132917361787
 20
-0.0060048235514955
 30
0.0
 40
0.0105252246187409
100
AcDbArc
 50
70.065798209134
 51
113.4708577699163
  0
ARC
  5
231
330
212
100
AcDbEntity
  8
BLOCKS
100
AcDbCircle
 10
0.5067795636094913
 20
-0.0011376678245904
 30
0.0
 40
0.0088919833398401
100
AcDbArc
 50
69.44892387773719
 51
114.0877321013139
  0
ARC
  5
232
330
212
100
AcDbEntity
  8
BLOCKS
100
AcDbCircle
 10
0.5170076266529327
 20
0.0622811716227375
 30
0.0
 40
0.060867118082785
100
AcDbArc
 50
260.2224687346914
 51
266.965670884528
  0
ARC
  5
233
330
212
100
AcDbEntity
  8
BLOCKS
100
AcDbCircle
 10
0.4927162977871808
 20
0.061152656560995
 30
0.0
 40
0.0604862248469038
100
AcDbArc
 50
276.5577738550856
 51
283.3387903263293
  0
LINE
  5
234
330
212
100
AcDbEntity
  8
BLOCKS
100
AcDbLine
 10
0.4996241282003075
 20
0.0010621808163842
 30
0.0
 11
0.4082663065299563
 21
-0.0017583045348533
 31
0.0
  0
ARC
  5
235
330
212
100
AcDbEntity
  8
BLOCKS
100
AcDbCircle
 10
0.4114408274390781
 20
0.0558656723072477
 30
0.0
 40
0.057711353216689
100
AcDbArc
 50
259.2243823640538
 51
266.8467469719884
  0
ARC
  5
236
330
212
100
AcDbEntity
  8
BLOCKS
100
AcDbCircle
 10
0.3864406230122404
 20
0.054770363520787
 30
0.0
 40
0.0573856805500302
100
AcDbArc
 50
276.67653972336
 51
284.337192763697
  0
ARC
  5
237
330
212
100
AcDbEntity
  8
BLOCKS
100
AcDbCircle
 10
0.392501989445841
 20
0.0127885446212156
 30
0.0
 40
0.0100244371049971
100
AcDbArc
 50
272.3029653605669
 51
294.2629357289846
  0
ARC
  5
238
330
212
100
AcDbEntity
  8
BLOCKS
100
AcDbCircle
 10
0.4079494570562952
 20
0.0132654534978974
 30
0.0
 40
0.0100244371049956
100
AcDbArc
 50
249.2737202500646
 51
271.2336906184853
  0
LINE
  5
239
330
212
100
AcDbEntity
  8
BLOCKS
100
AcDbLine
 10
0.4081652861893623
 20
0.0032433400951595
 30
0.0
 11
0.4994138012200528
 21
0.0060604508281062
 31
0.0
  0
ARC
  5
23A
330
212
100
AcDbEntity
  8
BLOCKS
100
AcDbCircle
 10
0.498991301300714
 20
0.015828917699846
 30
0.0
 40
0.0097775994603024
100
AcDbArc
 50
272.4765794492106
 51
295.1743134447473
  0
ARC
  5
23B
330
212
100
AcDbEntity
  8
BLOCKS
100
AcDbCircle
 10
0.5135063739843396
 20
0.0162770407956896
 30
0.0
 40
0.0097775994603031
100
AcDbArc
 50
248.3623425343044
 51
271.06007652984
  0
LINE
  5
23C
330
212
100
AcDbEntity
  8
BLOCKS
100
AcDbLine
 10
0.2359056690717807
 20
-0.0260000000000002
 30
0.0
 11
0.2359009635846996
 21
-0.025847585434442
 31
0.0
  0
LINE
  5
23D
330
212
100
AcDbEntity
  8
BLOCKS
100
AcDbLine
 10
0.235905602050093
 20
-0.0260000000000002
 30
0.0
 11
0.2359056690717807
 21
-0.0260000000000002
 31
0.0
  0
ARC
  5
23E
330
212
100
AcDbEntity
  8
BLOCKS
100
AcDbCircle
 10
0.2979615155463171
 20
-0.0614260924658868
 30
0.0
 40
0.0562355606684634
100
AcDbArc
 50
91.77717928054056
 51
101.1386956635696
  0
SPLINE
  5
23F
330
212
100
AcDbEntity
  8
BLOCKS
100
AcDbSpline
210
0.0
220
0.0
230
1.0
 70
     8
 71
     3
 72
     8
 73
     4
 74
     0
 42
0.0000000001
 43
0.0000000001
 40
-203.1474001969581
 40
-203.1474001969581
 40
-203.1474001969581
 40
-203.1474001969581
 40
-170.4843406279952
 40
-170.4843406279952
 40
-170.4843406279952
 40
-170.4843406279952
 10
0.2870976494765318
 20
-0.0062498744003483
 30
0.0
 10
0.2757182316937951
 20
-0.0084896126723072
 30
0.0
 10
0.2643552143508419
 20
-0.0103956131237328
 30
0.0
 10
0.2529412524592408
 20
-0.012005400870064
 30
0.0
  0
ARC
  5
240
330
212
100
AcDbEntity
  8
BLOCKS
100
AcDbCircle
 10
0.245621973188604
 20
-0.0087919512483995
 30
0.0
 40
0.0079929812096318
100
AcDbArc
 50
283.7186064663039
 51
336.2935980631167
  0
LINE
  5
241
330
212
100
AcDbEntity
  8
BLOCKS
100
AcDbLine
 10
0.2391555292078465
 20
-0.0232448020159677
 30
0.0
 11
0.2475175526790781
 21
-0.01655693921791
 31
0.0
  0
LINE
  5
242
330
212
100
AcDbEntity
  8
BLOCKS
100
AcDbLine
 10
0.2359009094985095
 20
-0.0258476369338473
 30
0.0
 11
0.239155512512134
 21
-0.0232447811410998
 31
0.0
  0
ELLIPSE
  5
243
330
212
100
AcDbEntity
  8
BLOCKS
100
AcDbEllipse
 10
0.1858475942518498
 20
-0.0248905490949756
 30
0.0
 11
0.0500238001195183
 21
-1.62031169868931
 31
0.0
210
0.0
220
0.0
230
1.0
 40
0.03084356459723
 41
1.569159381054821
 42
1.569253417317698
  0
LINE
  5
244
330
212
100
AcDbEntity
  8
BLOCKS
100
AcDbLine
 10
0.235905602050093
 20
-0.0260000000000002
 30
0.0
 11
0.2309032207352061
 21
-0.0260000000000002
 31
0.0
  0
ELLIPSE
  5
245
330
212
100
AcDbEntity
  8
BLOCKS
100
AcDbEllipse
 10
0.1858475942518498
 20
-0.0248905490949756
 30
0.0
 11
0.0450214201075665
 21
-1.458280528820379
 31
0.0
210
0.0
220
0.0
230
1.0
 40
0.03084356459723
 41
1.569083301681191
 42
1.570796326794894
  0
LINE
  5
246
330
212
100
AcDbEntity
  8
BLOCKS
100
AcDbLine
 10
0.2308262285950946
 20
-0.0235020088488614
 30
0.0
 11
0.2454707366933053
 21
-0.011789100856638
 31
0.0
  0
ARC
  5
247
330
212
100
AcDbEntity
  8
BLOCKS
100
AcDbCircle
 10
0.2400634176997414
 20
-0.0058867840166226
 30
0.0
 40
0.0080047094132169
100
AcDbArc
 50
312.4939214970077
 51
325.322022227621
  0
ARC
  5
248
330
212
100
AcDbEntity
  8
BLOCKS
100
AcDbCircle
 10
0.2532680180835428
 20
-0.0150108199412682
 30
0.0
 40
0.008045511410701
100
AcDbArc
 50
98.10409670843402
 51
145.3908698220811
  0
SPLINE
  5
249
330
212
100
AcDbEntity
  8
BLOCKS
100
AcDbSpline
210
0.0
220
0.0
230
1.0
 70
     8
 71
     3
 72
     8
 73
     4
 74
     0
 42
0.0000000001
 43
0.0000000001
 40
-34.38876262933137
 40
-34.38876262933137
 40
-34.38876262933137
 40
-34.38876262933137
 40
0.0
 40
0.0
 40
0.0
 40
0.0
 10
0.2521338282757916
 20
-0.0070456539511906
 30
0.0
 10
0.263386547387604
 20
-0.0054580444544138
 30
0.0
 10
0.2745976311428603
 20
-0.0035783721299561
 30
0.0
 10
0.2858452634626519
 20
-0.0013671909482287
 30
0.0
  0
ARC
  5
24A
330
212
100
AcDbEntity
  8
BLOCKS
100
AcDbCircle
 10
0.2979317553064015
 20
-0.0628116063774871
 30
0.0
 40
0.0626218769483338
100
AcDbArc
 50
91.77953618408039
 51
101.1283506706237
  0
LINE
  5
24B
330
212
100
AcDbEntity
  8
BLOCKS
100
AcDbLine
 10
0.3931125154827714
 20
-0.0022261467500334
 30
0.0
 11
0.2962175014235799
 21
-0.0052175815584087
 31
0.0
  0
LINE
  5
24C
330
212
100
AcDbEntity
  8
BLOCKS
100
AcDbLine
 10
0.2959871097952464
 20
-0.0002199310015385
 30
0.0
 11
0.3929048064752987
 21
0.0027722040862295
 31
0.0
  0
ELLIPSE
  5
24D
330
212
100
AcDbEntity
  8
BLOCKS
100
AcDbEllipse
 10
0.0593795830581303
 20
0.0480033941358727
 30
0.0
 11
0.0076273555814929
 21
0.0184884679417596
 31
0.0
210
0.0
220
0.0
230
1.0
 40
0.7849160446501299
 41
3.106015820286095
 42
3.141593081561244
  0
ELLIPSE
  5
24E
330
212
100
AcDbEntity
  8
BLOCKS
100
AcDbEllipse
 10
0.1855006028587377
 20
-0.0136512147728263
 30
0.0
 11
0.0599714262554055
 21
0.0018514947724623
 31
0.0
210
0.0
220
0.0
230
0.9999999999999998
 40
0.03084356459723
 41
1.569844095291975
 42
2.086294117217015
  0
ELLIPSE
  5
24F
330
212
100
AcDbEntity
  8
BLOCKS
100
AcDbEllipse
 10
0.1855006028587377
 20
-0.0136512147728263
 30
0.0
 11
0.0599714262554055
 21
0.0018514947724623
 31
0.0
210
0.0
220
0.0
230
0.9999999999999998
 40
0.03084356459723
 41
2.086294117217015
 42
3.135806678609063
  0
ARC
  5
250
330
212
100
AcDbEntity
  8
BLOCKS
100
AcDbCircle
 10
0.0492821203820722
 20
0.023468102343021
 30
0.0
 40
0.0065319102609369
100
AcDbArc
 50
67.83458819775488
 51
90.11255662706458
  0
ARC
  5
251
330
212
100
AcDbEntity
  8
BLOCKS
100
AcDbCircle
 10
0.0412519523083802
 20
0.0105331173784885
 30
0.0
 40
0.0216925077046697
100
AcDbArc
 50
27.18932342570796
 51
61.04968042580811
  0
ARC
  5
252
330
212
100
AcDbEntity
  8
BLOCKS
100
AcDbCircle
 10
0.0910846706130406
 20
0.0377352749702516
 30
0.0
 40
0.035092305455332
100
AcDbArc
 50
209.5185201353295
 51
241.3809355074918
  0
LINE
  5
253
330
212
100
AcDbEntity
  8
BLOCKS
100
AcDbLine
 10
0.0742768574153183
 20
0.0069299716753972
 30
0.0
 11
0.0923339096711425
 21
-0.0019156028578118
 31
0.0
  0
SPLINE
  5
254
330
212
100
AcDbEntity
  8
BLOCKS
100
AcDbSpline
210
0.0
220
0.0
230
1.0
 70
    24
 71
     1
 72
     8
 73
     6
 74
     0
 42
0.0000000001
 43
0.0000000001
 40
0.1217951857454922
 40
0.1217951857454922
 40
0.3598115830292376
 40
0.7196231660584753
 40
1.079434749087712
 40
1.43924633211695
 40
1.799057915146187
 40
1.799057915146187
 10
0.1184591831823172
 20
-0.0202041737296577
 30
0.0
 10
0.1182390512134293
 20
-0.0202085736795175
 30
0.0
 10
0.1179057834756759
 20
-0.0202152702227181
 30
0.0
 10
0.1175720305080176
 20
-0.0202220117488537
 30
0.0
 10
0.117237799290624
 20
-0.0202287981424388
 30
0.0
 10
0.1169030968036759
 20
-0.0202356292879927
 30
0.0
  0
SPLINE
  5
255
330
212
100
AcDbEntity
  8
BLOCKS
100
AcDbSpline
210
0.0
220
0.0
230
1.0
 70
     8
 71
     1
 72
    74
 73
    72
 74
     0
 42
0.0000000001
 43
0.0000000001
 40
0.0
 40
0.0
 40
0.5569770305950446
 40
1.113954061190089
 40
1.670931091785133
 40
2.227908122380178
 40
2.784885152975222
 40
3.341862183570267
 40
3.898839214165311
 40
4.455816244760356
 40
5.0127932753554
 40
5.569770305950445
 40
6.12674733654549
 40
6.683724367140534
 40
7.240701397735579
 40
7.797678428330623
 40
8.354655458925668
 40
8.911632489520712
 40
9.468609520115757
 40
10.0255865507108
 40
11.12264652918129
 40
12.21970650765178
 40
13.31676648612228
 40
14.41382646459277
 40
15.51088644306326
 40
16.60794642153375
 40
17.70500640000424
 40
18.80206637847473
 40
19.89912635694523
 40
20.99618633541572
 40
22.09324631388621
 40
23.19030629235671
 40
24.2873662708272
 40
25.38442624929769
 40
26.48148622776818
 40
27.57854620623867
 40
28.67560618470916
 40
29.77266616317966
 40
30.86972614165015
 40
31.96678612012064
 40
33.27197700235242
 40
34.57716788458419
 40
35.88235876681597
 40
37.18754964904775
 40
38.49274053127953
 40
39.79793141351131
 40
41.10312229574308
 40
42.40831317797486
 40
43.71350406020664
 40
45.01869494243841
 40
46.3238858246702
 40
47.62907670690197
 40
48.93426758913375
 40
50.23945847136553
 40
51.54464935359731
 40
52.84984023582909
 40
54.15503111806087
 40
55.46022200029264
 40
56.76541288252442
 40
58.0706037647562
 40
61.31381107816694
 40
64.55701839157768
 40
67.80022570498843
 40
71.04343301839917
 40
74.28664033180992
 40
77.52984764522065
 40
80.77305495863139
 40
84.01626227204214
 40
87.25946958545289
 40
90.50267689886362
 40
93.74588421227436
 40
96.98909152568511
 40
97.89019061630895
 40
97.89019061630895
 10
0.1169027284271283
 20
-0.0202356236327273
 30
0.0
 10
0.1165893505694248
 20
-0.0202397088022349
 30
0.0
 10
0.1162765787791591
 20
-0.020239175696222
 30
0.0
 10
0.1159645502991407
 20
-0.0202340965617134
 30
0.0
 10
0.115653402372177
 20
-0.0202245436457349
 30
0.0
 10
0.1153432722410707
 20
-0.0202105891953113
 30
0.0
 10
0.115034297148627
 20
-0.0201923054574684
 30
0.0
 10
0.1147266143376555
 20
-0.0201697646792309
 30
0.0
 10
0.1144203610509544
 20
-0.0201430391076235
 30
0.0
 10
0.1141156745313356
 20
-0.0201122009896722
 30
0.0
 10
0.1138126920216018
 20
-0.0200773225724015
 30
0.0
 10
0.1135115507645605
 20
-0.0200384761028363
 30
0.0
 10
0.1132123880030122
 20
-0.0199957338280024
 30
0.0
 10
0.1129153409797709
 20
-0.0199491679949233
 30
0.0
 10
0.1126205469376327
 20
-0.0198988508506273
 30
0.0
 10
0.1123281431194118
 20
-0.0198448546421378
 30
0.0
 10
0.1120382667679087
 20
-0.0197872516164785
 30
0.0
 10
0.1117510551259284
 20
-0.0197261140206774
 30
0.0
 10
0.1114666454362805
 20
-0.0196615141017571
 30
0.0
 10
0.1109154228989496
 20
-0.0195249444460615
 30
0.0
 10
0.1103764299205795
 20
-0.0193768855709095
 30
0.0
 10
0.1098496489339959
 20
-0.0192180042453538
 30
0.0
 10
0.1093350623720289
 20
-0.0190489672384479
 30
0.0
 10
0.108832652667511
 20
-0.0188704413192431
 30
0.0
 10
0.1083424022532654
 20
-0.0186830932567898
 30
0.0
 10
0.1078642935621292
 20
-0.0184875898201415
 30
0.0
 10
0.1073983090269257
 20
-0.0182845977783495
 30
0.0
 10
0.1069444310804875
 20
-0.0180747839004676
 30
0.0
 10
0.1065026421556422
 20
-0.0178588149555458
 30
0.0
 10
0.1060729246852202
 20
-0.0176373577126356
 30
0.0
 10
0.1056552611020516
 20
-0.0174110789407917
 30
0.0
 10
0.1052496338389665
 20
-0.0171806454090643
 30
0.0
 10
0.1048560253287906
 20
-0.0169467238865048
 30
0.0
 10
0.1044744180043563
 20
-0.0167099811421667
 30
0.0
 10
0.1041047942984915
 20
-0.0164710839451004
 30
0.0
 10
0.1037471366440286
 20
-0.0162306990643595
 30
0.0
 10
0.1034014274737933
 20
-0.0159894932689952
 30
0.0
 10
0.103067649220618
 20
-0.0157481333280589
 30
0.0
 10
0.1027457843173306
 20
-0.0155072860106043
 30
0.0
 10
0.1023766679274377
 20
-0.0152216798353254
 30
0.0
 10
0.1020206903697772
 20
-0.0149368316455593
 30
0.0
 10
0.1016773640141855
 20
-0.0146527845991364
 30
0.0
 10
0.1013462012305035
 20
-0.014369581853889
 30
0.0
 10
0.1010267143885767
 20
-0.0140872665676489
 30
0.0
 10
0.1007184158582413
 20
-0.0138058818982472
 30
0.0
 10
0.1004208180093383
 20
-0.0135254710035179
 30
0.0
 10
0.1001334332117085
 20
-0.01324607704129
 30
0.0
 10
0.0998557738351929
 20
-0.0129677431693983
 30
0.0
 10
0.0995873522496345
 20
-0.0126905125456722
 30
0.0
 10
0.099327680824872
 20
-0.0124144283279452
 30
0.0
 10
0.0990762719307441
 20
-0.0121395336740466
 30
0.0
 10
0.098832637937096
 20
-0.0118658717418111
 30
0.0
 10
0.0985962912137666
 20
-0.0115934856890704
 30
0.0
 10
0.0983667441305943
 20
-0.0113224186736534
 30
0.0
 10
0.0981435090574223
 20
-0.0110527138533951
 30
0.0
 10
0.0979260983640893
 20
-0.0107844143861257
 30
0.0
 10
0.0977140244204384
 20
-0.0105175634296779
 30
0.0
 10
0.0975067995963082
 20
-0.010252204141882
 30
0.0
 10
0.0973039362615418
 20
-0.0099883796805716
 30
0.0
 10
0.0968148318724298
 20
-0.0093361793406029
 30
0.0
 10
0.0963448472552182
 20
-0.0086862083250878
 30
0.0
 10
0.0958927634143288
 20
-0.0080375446965707
 30
0.0
 10
0.0954573613541948
 20
-0.0073892665175981
 30
0.0
 10
0.0950374220792446
 20
-0.0067404518507169
 30
0.0
 10
0.0946317265939092
 20
-0.0060901787584749
 30
0.0
 10
0.0942390559026126
 20
-0.0054375253034175
 30
0.0
 10
0.0938581910097901
 20
-0.0047815695480915
 30
0.0
 10
0.0934879129198635
 20
-0.0041213895550436
 30
0.0
 10
0.0931270026372681
 20
-0.0034560633868205
 30
0.0
 10
0.0927742411664304
 20
-0.0027846691059676
 30
0.0
 10
0.0924284095117764
 20
-0.0021062847750341
 30
0.0
 10
0.0923339096711425
 20
-0.0019156028578118
 30
0.0
  0
ARC
  5
256
330
212
100
AcDbEntity
  8
BLOCKS
100
AcDbCircle
 10
0.1216270050293542
 20
-0.0105926381680956
 30
0.0
 40
0.0101200658042601
100
AcDbArc
 50
251.5889523809335
 51
253.8521567942265
  0
LINE
  5
257
330
212
100
AcDbEntity
  8
BLOCKS
100
AcDbLine
 10
0.1404720239557628
 20
-0.0260000000000002
 30
0.0
 11
0.1416301047177285
 21
-0.0260000000000002
 31
0.0
  0
SPLINE
  5
258
330
212
100
AcDbEntity
  8
BLOCKS
100
AcDbSpline
210
0.0
220
0.0
230
1.0
 70
    24
 71
     3
 72
     8
 73
     4
 74
     0
 42
0.0000000001
 43
0.0000000001
 40
0.1214451097545594
 40
0.1214451097545594
 40
0.1214451097545594
 40
0.1214451097545594
 40
0.126168736225875
 40
0.126168736225875
 40
0.126168736225875
 40
0.126168736225875
 10
0.1169030227639155
 20
-0.0202354960715707
 30
0.0
 10
0.1169639340389426
 20
-0.0202342702692568
 30
0.0
 10
0.1170229276284636
 20
-0.0202269685958163
 30
0.0
 10
0.1170799290427249
 20
-0.0202136260137581
 30
0.0
  0
SPLINE
  5
259
330
212
100
AcDbEntity
  8
BLOCKS
100
AcDbSpline
210
0.0
220
0.0
230
1.0
 70
    25
 71
     3
 72
     8
 73
     4
 74
     0
 42
0.0000000001
 43
0.0000000001
 40
0.1123886729064952
 40
0.1123886729064952
 40
0.1123886729064952
 40
0.1123886729064952
 40
0.1131313994303016
 40
0.1131313994303016
 40
0.1131313994303016
 40
0.1131313994303016
 10
0.1184307551058919
 20
-0.0201947060497582
 30
0.0
 10
0.1184266241509567
 20
-0.0201933249166916
 30
0.0
 10
0.1184238822794237
 20
-0.0201917573193487
 30
0.0
 10
0.1184225269603257
 20
-0.0201900073855131
 30
0.0
  0
SPLINE
  5
25A
330
212
100
AcDbEntity
  8
BLOCKS
100
AcDbSpline
210
0.0
220
0.0
230
1.0
 70
    25
 71
     3
 72
     8
 73
     4
 74
     0
 42
0.0000000001
 43
0.0000000001
 40
0.0316570121332565
 40
0.0316570121332565
 40
0.0316570121332565
 40
0.0316570121332565
 40
0.0316719941686882
 40
0.0316719941686882
 40
0.0316719941686882
 40
0.0316719941686882
 10
0.1231804248985282
 20
-0.0151125920051186
 30
0.0
 10
0.123181071210779
 20
-0.0151125802570937
 30
0.0
 10
0.1231817181093993
 20
-0.015112568430875
 30
0.0
 10
0.1231823655943071
 20
-0.0151125565264442
 30
0.0
  0
ELLIPSE
  5
25B
330
212
100
AcDbEntity
  8
BLOCKS
100
AcDbEllipse
 10
0.0885559049386666
 20
0.0270000000000005
 30
0.0
 11
-0.0030043964224368
 21
0.0
 31
0.0
210
0.0
220
0.0
230
1.0
 40
0.9985366703262112
 41
3.316125578789224
 42
4.712388980384689
  0
ELLIPSE
  5
25C
330
212
100
AcDbEntity
  8
BLOCKS
100
AcDbEllipse
 10
0.0885559049386666
 20
0.0270000000000005
 30
0.0
 11
-0.0080117237931647
 21
0.0
 31
0.0
210
0.0
220
0.0
230
1.0
 40
0.9985366703262116
 41
3.316125578789224
 42
4.712388980384683
  0
LINE
  5
25D
330
212
100
AcDbEntity
  8
BLOCKS
100
AcDbLine
 10
0.0964459126451698
 20
0.0283891854213357
 30
0.0
 11
0.1019581089640246
 21
-0.002826287878886
 31
0.0
  0
ARC
  5
25E
330
212
100
AcDbEntity
  8
BLOCKS
100
AcDbCircle
 10
0.1167352530824042
 20
-0.0002083397062802
 30
0.0
 40
0.0150072529962371
100
AcDbArc
 50
190.0467466158762
 51
271.0110836022325
  0
SPLINE
  5
25F
330
212
100
AcDbEntity
  8
BLOCKS
100
AcDbSpline
210
0.0
220
0.0
230
1.0
 70
    24
 71
     3
 72
     8
 73
     4
 74
     0
 42
0.0000000001
 43
0.0000000001
 40
-168.9926427713942
 40
-168.9926427713942
 40
-168.9926427713942
 40
-168.9926427713942
 40
-163.223245131089
 40
-163.223245131089
 40
-163.223245131089
 40
-163.223245131089
 10
0.117000213341712
 20
-0.0152132701936739
 30
0.0
 10
0.1189905093314678
 20
-0.0151793300313443
 30
0.0
 10
0.1209711429425488
 20
-0.0151461805763802
 30
0.0
 10
0.1229452028972969
 20
-0.0151130912461895
 30
0.0
  0
ARC
  5
260
330
212
100
AcDbEntity
  8
BLOCKS
100
AcDbCircle
 10
0.1230799518327149
 20
-0.0231991852859369
 30
0.0
 40
0.0080872167321094
100
AcDbArc
 50
72.36604927486268
 51
90.95474507018746
  0
LINE
  5
261
330
212
100
AcDbEntity
  8
BLOCKS
100
AcDbLine
 10
0.1255298136019019
 20
-0.015492027908723
 30
0.0
 11
0.1404719684025895
 21
-0.0260000789950618
 31
0.0
  0
LINE
  5
262
330
212
100
AcDbEntity
  8
BLOCKS
100
AcDbLine
 10
0.1404720239557628
 20
-0.0260000000000002
 30
0.0
 11
0.1317769917920259
 21
-0.0260000000000002
 31
0.0
  0
LINE
  5
263
330
212
100
AcDbEntity
  8
BLOCKS
100
AcDbLine
 10
0.124017622639069
 20
-0.0205434428191734
 30
0.0
 11
0.1317769774613907
 21
-0.0260000203784307
 31
0.0
  0
LINE
  5
264
330
212
100
AcDbEntity
  8
BLOCKS
100
AcDbLine
 10
0.1240176344045039
 20
-0.020543426088509
 30
0.0
 11
0.1213045187050511
 21
-0.0206271879705969
 31
0.0
  0
ARC
  5
265
330
212
100
AcDbEntity
  8
BLOCKS
100
AcDbCircle
 10
0.1210553514839171
 20
-0.0125523121362039
 30
0.0
 40
0.0080787192086518
100
AcDbArc
 50
250.979743179286
 51
271.7672330897033
  0
SPLINE
  5
266
330
212
100
AcDbEntity
  8
BLOCKS
100
AcDbSpline
210
0.0
220
0.0
230
1.0
 70
    24
 71
     3
 72
     8
 73
     4
 74
     0
 42
0.0000000001
 43
0.0000000001
 40
-44.53033566168101
 40
-44.53033566168101
 40
-44.53033566168101
 40
-44.53033566168101
 40
-43.30611585898998
 40
-43.30611585898998
 40
-43.30611585898998
 40
-43.30611585898998
 10
0.1184224852329134
 20
-0.0201899546955542
 30
0.0
 10
0.1179767239911098
 20
-0.0201975134971644
 30
0.0
 10
0.117530589754565
 20
-0.020205103296513
 30
0.0
 10
0.1170840572364841
 20
-0.0202127319044826
 30
0.0
  0
ARC
  5
267
330
212
100
AcDbEntity
  8
BLOCKS
100
AcDbCircle
 10
0.1167301016735246
 20
-0.0002061843810486
 30
0.0
 40
0.020009661488451
100
AcDbArc
 50
190.04604820767
 51
271.0130111406749
  0
LINE
  5
268
330
212
100
AcDbEntity
  8
BLOCKS
100
AcDbLine
 10
0.0970272136933318
 20
-0.003696564869324
 30
0.0
 11
0.0915146578286067
 21
0.0275209445330006
 31
0.0
  0
ARC
  5
269
330
212
100
AcDbEntity
  8
BLOCKS
100
AcDbCircle
 10
0.008947737130668
 20
0.0270000000000005
 30
0.0
 40
0.003
100
AcDbArc
 50
90.0
 51
178.0
  0
ARC
  5
26A
330
212
100
AcDbEntity
  8
BLOCKS
100
AcDbCircle
 10
0.008947737130668
 20
0.0270000000000005
 30
0.0
 40
0.008
100
AcDbArc
 50
90.0
 51
178.0
  0
LINE
  5
26B
330
212
100
AcDbEntity
  8
BLOCKS
100
AcDbLine
 10
0.0050030477214932
 20
0.0
 30
0.0
 11
0.0080944300516921
 21
0.0
 31
0.0
  0
LINE
  5
26C
330
212
100
AcDbEntity
  8
BLOCKS
100
AcDbLine
 10
0.0059495646496089
 20
0.0271046984901068
 30
0.0
 11
0.0050030477214932
 21
0.0
 31
0.0
  0
LINE
  5
26D
330
212
100
AcDbEntity
  8
BLOCKS
100
AcDbLine
 10
0.0050030477214932
 20
0.0
 30
0.0
 11
0.0
 21
0.0
 31
0.0
  0
LINE
  5
26E
330
212
100
AcDbEntity
  8
BLOCKS
100
AcDbLine
 10
0.0
 20
0.0
 30
0.0
 11
0.0009526105145142
 21
0.0272791959736196
 31
0.0
  0
LINE
  5
26F
330
212
100
AcDbEntity
  8
BLOCKS
100
AcDbLine
 10
0.0080944300516899
 20
0.0
 30
0.0
 11
0.0884234637441932
 21
0.0
 31
0.0
  0
LINE
  5
270
330
212
100
AcDbEntity
  8
BLOCKS
100
AcDbLine
 10
0.0885559049386666
 20
0.03
 30
0.0
 11
0.008947737130668
 21
0.03
 31
0.0
  0
LINE
  5
271
330
212
100
AcDbEntity
  8
BLOCKS
100
AcDbLine
 10
0.008947737130668
 20
0.035
 30
0.0
 11
0.0885559049386689
 21
0.035
 31
0.0
  0
ELLIPSE
  5
272
330
212
100
AcDbEntity
  8
BLOCKS
100
AcDbEllipse
 10
0.1855006028587377
 20
-0.0136512147728263
 30
0.0
 11
0.0599714262554055
 21
0.0018514947724623
 31
0.0
210
0.0
220
0.0
230
0.9999999999999998
 40
0.03084356459723
 41
0.0057859749807294
 42
1.569844095291975
  0
ELLIPSE
  5
273
330
212
100
AcDbEntity
  8
BLOCKS
100
AcDbEllipse
 10
0.1858475942518498
 20
-0.0248905490949767
 30
0.0
 11
0.0449785696915542
 21
0.0013886210793467
 31
0.0
210
0.0
220
0.0
230
1.0
 40
0.0308435645972296
 41
0.0
 42
2.956415911602415
  0
LINE
  5
274
330
212
100
AcDbEntity
  8
BLOCKS
100
AcDbLine
 10
0.1416301047177285
 20
-0.0260000000000002
 30
0.0
 11
0.2309032207352061
 21
-0.0260000000000002
 31
0.0
  0
LINE
  5
275
330
212
100
AcDbEntity
  8
BLOCKS
100
AcDbLine
 10
0.4652192249582823
 20
0.0
 30
0.0
 11
0.9910627668497046
 21
0.0
 31
0.0
  0
LINE
  5
276
330
212
100
AcDbEntity
  8
BLOCKS
100
AcDbLine
 10
0.0886005455452733
 20
0.035
 30
0.0
 11
0.9451542851329078
 21
0.035
 31
0.0
  0
LINE
  5
277
330
212
100
AcDbEntity
  8
BLOCKS
100
AcDbLine
 10
0.6061355778615417
 20
0.0043505033487736
 30
0.0
 11
0.513785669472909
 21
0.0014993893550729
 31
0.0
  0
LINE
  5
278
330
212
100
AcDbEntity
  8
BLOCKS
100
AcDbLine
 10
0.513687267105097
 20
0.0065011148096255
 30
0.0
 11
0.6059222443716135
 21
0.0093486805406769
 31
0.0
  0
ENDBLK
  5
27B
330
212
100
AcDbEntity
  8
0
100
AcDbBlockEnd
  0
BLOCK
  5
29C
330
27D
100
AcDbEntity
  8
0
100
AcDbBlockBegin
  2
80009AL
 70
     0
 10
0.0
 20
0.0
 30
0.0
  3
80009AL
  1

  0
ARC
  5
27E
330
27D
100
AcDbEntity
  8
BLOCKS
100
AcDbCircle
 10
0.9934967167337527
 20
0.0270000000000005
 30
0.0
 40
0.008
100
AcDbArc
 50
1.999999999970656
 51
90.0
  0
LINE
  5
27F
330
27D
100
AcDbEntity
  8
BLOCKS
100
AcDbLine
 10
1.001491843349904
 20
0.0272791959736174
 30
0.0
 11
1.002444453864423
 21
0.0
 31
0.0
  0
ARC
  5
280
330
27D
100
AcDbEntity
  8
BLOCKS
100
AcDbCircle
 10
0.0089477371306657
 20
0.0270000000000005
 30
0.0
 40
0.008
100
AcDbArc
 50
90.0
 51
177.9999999999998
  0
LINE
  5
281
330
27D
100
AcDbEntity
  8
BLOCKS
100
AcDbLine
 10
0.008947737130668
 20
0.035
 30
0.0
 11
0.0101859378993095
 21
0.035
 31
0.0
  0
LINE
  5
282
330
27D
100
AcDbEntity
  8
BLOCKS
100
AcDbLine
 10
0.2812222269322092
 20
0.035
 30
0.0
 11
0.0089477371306657
 21
0.035
 31
0.0
  0
ELLIPSE
  5
283
330
27D
100
AcDbEntity
  8
BLOCKS
100
AcDbEllipse
 10
0.3066661763923503
 20
0.0116397926003492
 30
0.0
 11
0.0041226252223205
 21
-0.0195704869964007
 31
0.0
210
0.0
220
0.0
230
1.0
 40
0.0890396833456011
 41
0.0000437080295403
 42
0.053926900918638
  0
ELLIPSE
  5
284
330
27D
100
AcDbEntity
  8
BLOCKS
100
AcDbEllipse
 10
0.3186450549216397
 20
0.0130662072061432
 30
0.0
 11
0.000580607144523
 21
-0.0199915706072267
 31
0.0
210
0.0
220
0.0
230
1.0
 40
0.0591577867820262
 41
0.0000441194538452
 42
0.0309025956901942
  0
LINE
  5
285
330
27D
100
AcDbEntity
  8
BLOCKS
100
AcDbLine
 10
0.2359056690717807
 20
-0.0259999999999991
 30
0.0
 11
0.2359008915373306
 21
-0.025845251761308
 31
0.0
  0
LINE
  5
286
330
27D
100
AcDbEntity
  8
BLOCKS
100
AcDbLine
 10
0.2359018709553448
 20
-0.0258769759098368
 30
0.0
 11
0.2471919358342939
 21
-0.0168636067769762
 31
0.0
  0
ARC
  5
287
330
27D
100
AcDbEntity
  8
BLOCKS
100
AcDbCircle
 10
0.245185574352638
 20
-0.0085236654821517
 30
0.0
 40
0.0085778847740098
100
AcDbArc
 50
283.5267507972245
 51
293.1005045526232
  0
ARC
  5
288
330
27D
100
AcDbEntity
  8
BLOCKS
100
AcDbCircle
 10
0.1937284994500305
 20
0.5478908377410108
 30
0.0
 40
0.5680146512466637
100
AcDbArc
 50
275.2939805019379
 51
281.8931316592537
  0
ARC
  5
289
330
27D
100
AcDbEntity
  8
BLOCKS
100
AcDbCircle
 10
0.3206336269273766
 20
-0.0546465206617336
 30
0.0
 40
0.0477419403256076
100
AcDbArc
 50
91.6899015208669
 51
101.9002087230934
  0
LINE
  5
28A
330
27D
100
AcDbEntity
  8
BLOCKS
100
AcDbLine
 10
0.0923222354080554
 20
-0.0019098840083097
 30
0.0
 11
0.0884234637441955
 21
0.0
 31
0.0
  0
LINE
  5
28B
330
27D
100
AcDbEntity
  8
BLOCKS
100
AcDbLine
 10
0.1317284222461649
 20
-0.0259999999999991
 30
0.0
 11
0.1811375303566547
 21
-0.0259999999999991
 31
0.0
  0
SPLINE
  5
28C
330
27D
100
AcDbEntity
  8
BLOCKS
100
AcDbSpline
210
0.0
220
0.0
230
1.0
 70
     8
 71
     3
 72
    14
 73
    10
 74
     0
 42
0.0000000001
 43
0.0000000001
 40
0.1255762079275064
 40
0.1255762079275064
 40
0.1255762079275064
 40
0.1255762079275064
 40
0.1325437680411989
 40
0.1325437680411989
 40
0.1395113281548914
 40
0.1395113281548914
 40
0.1464788882685839
 40
0.1464788882685839
 40
0.1534464483822765
 40
0.1534464483822765
 40
0.1534464483822765
 40
0.1534464483822765
 10
0.1856495241854145
 20
-0.0165649073778445
 30
0.0
 10
0.183318457615801
 20
-0.0166590465451361
 30
0.0
 10
0.1810072054066973
 20
-0.0167565906360335
 30
0.0
 10
0.1764339020317902
 20
-0.0169552951814785
 30
0.0
 10
0.1741698836133082
 20
-0.0170565347895308
 30
0.0
 10
0.1696863836825287
 20
-0.0172600676715229
 30
0.0
 10
0.1674665426207775
 20
-0.0173623782629295
 30
0.0
 10
0.1630737095605127
 20
-0.0175652512248166
 30
0.0
 10
0.1609260001979055
 20
-0.0176646315437313
 30
0.0
 10
0.1588263508177352
 20
-0.0177607313905765
 30
0.0
  0
ELLIPSE
  5
28D
330
27D
100
AcDbEntity
  8
BLOCKS
100
AcDbEllipse
 10
0.1856548206817229
 20
-0.0186464558807347
 30
0.0
 11
0.0616373041668524
 21
0.0019029253359355
 31
0.0
210
0.0
220
0.0
230
1.0
 40
0.0308435645972299
 41
2.020174831596196
 42
3.182748446031321
  0
LINE
  5
28E
330
27D
100
AcDbEntity
  8
BLOCKS
100
AcDbLine
 10
0.1317284222461649
 20
-0.0259999999999991
 30
0.0
 11
0.1240721246320982
 21
-0.0206259896318784
 31
0.0
  0
ARC
  5
28F
330
27D
100
AcDbEntity
  8
BLOCKS
100
AcDbCircle
 10
0.1228237439440954
 20
-0.0059705616696954
 30
0.0
 40
0.0148821840612362
100
AcDbArc
 50
252.9467685136923
 51
264.8893101384474
  0
ARC
  5
290
330
27D
100
AcDbEntity
  8
BLOCKS
100
AcDbCircle
 10
0.1273944519871384
 20
0.0372061300966698
 30
0.0
 40
0.0582986638153146
100
AcDbArc
 50
264.1950924775437
 51
267.2979227320638
  0
SPLINE
  5
291
330
27D
100
AcDbEntity
  8
BLOCKS
100
AcDbSpline
210
0.0
220
0.0
230
1.0
 70
     8
 71
     1
 72
    74
 73
    72
 74
     0
 42
0.0000000001
 43
0.0000000001
 40
0.0080998320816063
 40
0.0080998320816063
 40
0.5569694567109904
 40
1.11393891342198
 40
1.670908370132971
 40
2.227877826843961
 40
2.784847283554952
 40
3.341816740265942
 40
3.898786196976932
 40
4.455755653687923
 40
5.012725110398913
 40
5.569694567109904
 40
6.126664023820895
 40
6.683633480531884
 40
7.240602937242875
 40
7.797572393953865
 40
8.354541850664856
 40
8.911511307375846
 40
9.468480764086836
 40
10.02545022079782
 40
11.12536474726391
 40
12.22527927373
 40
13.32519380019609
 40
14.42510832666218
 40
15.52502285312827
 40
16.62493737959436
 40
17.72485190606045
 40
18.82476643252654
 40
19.92468095899263
 40
21.02459548545872
 40
22.12451001192481
 40
23.2244245383909
 40
24.32433906485699
 40
25.42425359132308
 40
26.52416811778917
 40
27.62408264425526
 40
28.72399717072135
 40
29.82391169718744
 40
30.92382622365353
 40
32.02374075011962
 40
33.33213943096936
 40
34.64053811181913
 40
35.94893679266887
 40
37.25733547351863
 40
38.56573415436838
 40
39.87413283521813
 40
41.18253151606788
 40
42.49093019691764
 40
43.79932887776739
 40
45.10772755861714
 40
46.4161262394669
 40
47.72452492031664
 40
49.0329236011664
 40
50.34132228201615
 40
51.64972096286589
 40
52.95811964371566
 40
54.26651832456541
 40
55.57491700541516
 40
56.88331568626491
 40
58.19171436711467
 40
61.43161657891728
 40
64.6715187907199
 40
67.91142100252251
 40
71.15132321432513
 40
74.39122542612773
 40
77.63112763793035
 40
80.87102984973297
 40
84.11093206153557
 40
87.35083427333819
 40
90.59073648514081
 40
93.83063869694343
 40
97.07054090874605
 40
97.95080265678148
 40
97.95080265678148
 10
0.1168878442361438
 20
-0.0202310153436645
 30
0.0
 10
0.1165793960069277
 20
-0.020235017276932
 30
0.0
 10
0.116266997022858
 20
-0.0202344718257336
 30
0.0
 10
0.1159553360869995
 20
-0.0202293917964926
 30
0.0
 10
0.1156445501402823
 20
-0.0202198490533556
 30
0.0
 10
0.1153347761236318
 20
-0.0202059154604672
 30
0.0
 10
0.1150261509779784
 20
-0.0201876628819696
 30
0.0
 10
0.1147188116442476
 20
-0.0201651631820073
 30
0.0
 10
0.114412895063374
 20
-0.020138488224726
 30
0.0
 10
0.1141085381762787
 20
-0.020107709874269
 30
0.0
 10
0.113805877923894
 20
-0.0200728999947808
 30
0.0
 10
0.113505051247148
 20
-0.0200341304504059
 30
0.0
 10
0.1132061950869661
 20
-0.0199914731052877
 30
0.0
 10
0.1129094463842807
 20
-0.0199449998235718
 30
0.0
 10
0.1126149420800175
 20
-0.0198947824694005
 30
0.0
 10
0.1123228191151065
 20
-0.0198408929069206
 30
0.0
 10
0.1120332144304757
 20
-0.0197834030002741
 30
0.0
 10
0.1117462649670506
 20
-0.0197223846136058
 30
0.0
 10
0.1114621076657659
 20
-0.0196579096110611
 30
0.0
 10
0.1109099290146787
 20
-0.019521227819655
 30
0.0
 10
0.1103700064373652
 20
-0.0193730134399016
 30
0.0
 10
0.109842322734371
 20
-0.0192139359803605
 30
0.0
 10
0.1093268607062532
 20
-0.0190446649495903
 30
0.0
 10
0.1088236031535553
 20
-0.0188658698561517
 30
0.0
 10
0.1083325328768296
 20
-0.0186782202086011
 30
0.0
 10
0.1078536326766243
 20
-0.0184823855154991
 30
0.0
 10
0.1073868853534873
 20
-0.0182790352854056
 30
0.0
 10
0.106932273707971
 20
-0.018068839026879
 30
0.0
 10
0.1064897805406235
 20
-0.017852466248479
 30
0.0
 10
0.1060593886519973
 20
-0.0176305864587641
 30
0.0
 10
0.1056410808426358
 20
-0.0174038691662941
 30
0.0
 10
0.1052348399130938
 20
-0.0171729838796296
 30
0.0
 10
0.1048406486639169
 20
-0.0169386001073258
 30
0.0
 10
0.10445848989566
 20
-0.0167013873579458
 30
0.0
 10
0.1040883464088665
 20
-0.016462015140047
 30
0.0
 10
0.1037302010040912
 20
-0.0162211529621891
 30
0.0
 10
0.1033840364818798
 20
-0.0159794703329317
 30
0.0
 10
0.1030498356427824
 20
-0.0157376367608333
 30
0.0
 10
0.1027275812873518
 20
-0.0154963217544526
 30
0.0
 10
0.1023580872483853
 20
-0.0152102071471939
 30
0.0
 10
0.1020017544782786
 20
-0.0149248544569389
 30
0.0
 10
0.1016580939479081
 20
-0.0146403063376943
 30
0.0
 10
0.1013266166281391
 20
-0.0143566054434643
 30
0.0
 10
0.1010068334898392
 20
-0.014073794428258
 30
0.0
 10
0.1006982555038803
 20
-0.0137919159460807
 30
0.0
 10
0.1004003936411254
 20
-0.0135110126509392
 30
0.0
 10
0.1001127588724489
 20
-0.0132311271968388
 30
0.0
 10
0.0998348621687183
 20
-0.0129523022377873
 30
0.0
 10
0.0995662145008009
 20
-0.0126745804277903
 30
0.0
 10
0.0993063268395645
 20
-0.0123980044208543
 30
0.0
 10
0.0990547101558787
 20
-0.0121226168709859
 30
0.0
 10
0.0988108754206132
 20
-0.0118484604321907
 30
0.0
 10
0.098574333604638
 20
-0.0115755777584764
 30
0.0
 10
0.0983445956788183
 20
-0.0113040115038484
 30
0.0
 10
0.0981211726140237
 20
-0.0110338043223135
 30
0.0
 10
0.097903575381124
 20
-0.0107649988678782
 30
0.0
 10
0.0976913149509869
 20
-0.0104976377945491
 30
0.0
 10
0.0974839022944798
 20
-0.0102317637563317
 30
0.0
 10
0.097280848382477
 20
-0.0099674194072338
 30
0.0
 10
0.0967929392622773
 20
-0.0093161677806268
 30
0.0
 10
0.0963240365974525
 20
-0.0086671003475703
 30
0.0
 10
0.0958729289651501
 20
-0.0080192997553991
 30
0.0
 10
0.0954384049425176
 20
-0.0073718486514463
 30
0.0
 10
0.0950192531066978
 20
-0.0067238296830499
 30
0.0
 10
0.0946142620348428
 20
-0.0060743254975432
 30
0.0
 10
0.0942222203040956
 20
-0.0054224187422608
 30
0.0
 10
0.0938419164916059
 20
-0.0047671920645382
 30
0.0
 10
0.0934721391745211
 20
-0.00410772811171
 30
0.0
 10
0.0931116769299843
 20
-0.0034431095311118
 30
0.0
 10
0.0927593183351473
 20
-0.002772418970078
 30
0.0
 10
0.0924138519671533
 20
-0.0020947390759432
 30
0.0
 10
0.0923215342936646
 20
-0.0019084693672289
 30
0.0
  0
SPLINE
  5
292
330
27D
100
AcDbEntity
  8
BLOCKS
100
AcDbSpline
210
0.0
220
0.0
230
1.0
 70
    24
 71
     1
 72
     8
 73
     6
 74
     0
 42
0.0000000001
 43
0.0000000001
 40
0.0
 40
0.0
 40
0.3643258517775647
 40
0.7286517035551295
 40
1.092977555332694
 40
1.457303407110258
 40
1.821629258887823
 40
1.821629258887823
 10
0.1185806877125196
 20
-0.0201969936216096
 30
0.0
 10
0.1182441084317747
 20
-0.0202036947957367
 30
0.0
 10
0.1179070197812325
 20
-0.0202104422996229
 30
0.0
 10
0.1175694290331376
 20
-0.0202172360081761
 30
0.0
 10
0.1172313434597254
 20
-0.0202240757963091
 30
0.0
 10
0.1168927703332474
 20
-0.0202309615389322
 30
0.0
  0
LINE
  5
293
330
27D
100
AcDbEntity
  8
BLOCKS
100
AcDbLine
 10
0.0
 20
0.0
 30
0.0
 11
0.0061827116883592
 21
0.0
 31
0.0
  0
LINE
  5
294
330
27D
100
AcDbEntity
  8
BLOCKS
100
AcDbLine
 10
0.1811375303566547
 20
-0.0259999999999991
 30
0.0
 11
0.2359056690717807
 21
-0.0259999999999991
 31
0.0
  0
ARC
  5
295
330
27D
100
AcDbEntity
  8
BLOCKS
100
AcDbCircle
 10
0.2182417841329834
 20
-0.4915274953956647
 30
0.0
 40
0.4760795263662101
100
AcDbArc
 50
86.34983418760697
 51
93.92552207573933
  0
LINE
  5
296
330
27D
100
AcDbEntity
  8
BLOCKS
100
AcDbLine
 10
0.0061827116883592
 20
0.0
 30
0.0
 11
0.2812222269322115
 21
0.0
 31
0.0
  0
LINE
  5
297
330
27D
100
AcDbEntity
  8
BLOCKS
100
AcDbLine
 10
0.0
 20
0.0
 30
0.0
 11
0.0009526105145142
 21
0.0272791959736208
 31
0.0
  0
LINE
  5
298
330
27D
100
AcDbEntity
  8
BLOCKS
100
AcDbLine
 10
0.9934967167337527
 20
0.035
 30
0.0
 11
0.2812222269322092
 21
0.035
 31
0.0
  0
LINE
  5
299
330
27D
100
AcDbEntity
  8
BLOCKS
100
AcDbLine
 10
0.2812222269322092
 20
0.0
 30
0.0
 11
1.002444453864423
 21
0.0
 31
0.0
  0
LINE
  5
29A
330
27D
100
AcDbEntity
  8
BLOCKS
100
AcDbLine
 10
0.5576810319655648
 20
0.0
 30
0.0
 11
0.3192256620661601
 21
-0.0069253634010829
 31
0.0
  0
ENDBLK
  5
29D
330
27D
100
AcDbEntity
  8
0
100
AcDbBlockEnd
  0
BLOCK
  5
2BD
330
29F
100
AcDbEntity
  8
0
100
AcDbBlockBegin
  2
80009AF
 70
     0
 10
0.0
 20
0.0
 30
0.0
  3
80009AF
  1

  0
LINE
  5
2A0
330
29F
100
AcDbEntity
  8
BLOCKS
100
AcDbLine
 10
0.9934967167337527
 20
0.035
 30
0.0
 11
0.9399135650028757
 21
0.035
 31
0.0
  0
ARC
  5
2A1
330
29F
100
AcDbEntity
  8
BLOCKS
100
AcDbCircle
 10
0.9934967167337527
 20
0.0270000000000005
 30
0.0
 40
0.008
100
AcDbArc
 50
1.999999999970665
 51
90.0
  0
ELLIPSE
  5
2A2
330
29F
100
AcDbEntity
  8
BLOCKS
100
AcDbEllipse
 10
0.9399135650028757
 20
0.0270000000000005
 30
0.0
 11
0.0
 21
0.008
 31
0.0
210
0.0
220
0.0
230
1.0
 40
0.9247717663652293
 41
4.747295565424575
 42
6.283185307179586
  0
LINE
  5
2A3
330
29F
100
AcDbEntity
  8
BLOCKS
100
AcDbLine
 10
0.9479416324361228
 20
0.0
 30
0.0
 11
1.002444453864423
 21
0.0
 31
0.0
  0
LINE
  5
2A4
330
29F
100
AcDbEntity
  8
BLOCKS
100
AcDbLine
 10
0.946858866594357
 20
0.0297558556873878
 30
0.0
 11
0.9468588888791465
 21
0.0297558579146198
 31
0.0
  0
LINE
  5
2A5
330
29F
100
AcDbEntity
  8
BLOCKS
100
AcDbLine
 10
0.9380651481620953
 20
0.035
 30
0.0
 11
0.9399135650028757
 21
0.035
 31
0.0
  0
LINE
  5
2A6
330
29F
100
AcDbEntity
  8
BLOCKS
100
AcDbLine
 10
1.001491843349904
 20
0.0272791959736162
 30
0.0
 11
1.002444453864423
 21
0.0
 31
0.0
  0
LINE
  5
2A7
330
29F
100
AcDbEntity
  8
BLOCKS
100
AcDbLine
 10
0.9473072834421463
 20
0.0272791971614242
 30
0.0
 11
0.9479416763574681
 21
0.000000001021416
 31
0.0
  0
LINE
  5
2A8
330
29F
100
AcDbEntity
  8
BLOCKS
100
AcDbLine
 10
0.9387029646139945
 20
0.0
 30
0.0
 11
0.9479416324361228
 21
0.0
 31
0.0
  0
LINE
  5
2A9
330
29F
100
AcDbEntity
  8
BLOCKS
100
AcDbLine
 10
0.2357477720896327
 20
-0.0259999999999991
 30
0.0
 11
0.2461203868056395
 21
-0.0177190728033247
 31
0.0
  0
ARC
  5
2AA
330
29F
100
AcDbEntity
  8
BLOCKS
100
AcDbCircle
 10
0.3208459797839623
 20
-0.0546675735684744
 30
0.0
 40
0.0477691417372844
100
AcDbArc
 50
91.69192093052746
 51
101.8981380625293
  0
LINE
  5
2AB
330
29F
100
AcDbEntity
  8
BLOCKS
100
AcDbLine
 10
0.3194371370707404
 20
-0.0069192216175816
 30
0.0
 11
0.5576810319655669
 21
0.0
 31
0.0
  0
SPLINE
  5
2AC
330
29F
100
AcDbEntity
  8
BLOCKS
100
AcDbSpline
210
0.0
220
0.0
230
1.0
 70
    25
 71
     1
 72
     4
 73
     2
 74
     0
 42
0.0000000001
 43
0.0000000001
 40
106.8092346391005
 40
106.8092346391005
 40
106.8099155409938
 40
106.8099155409938
 10
0.09141108441906
 20
0.0
 30
0.0
 10
0.0914110150730471
 20
0.0000001502305508
 30
0.0
  0
ELLIPSE
  5
2AD
330
29F
100
AcDbEntity
  8
BLOCKS
100
AcDbEllipse
 10
0.1170607859552297
 20
-0.0001293981684717
 30
0.0
 11
-0.0097362227212503
 21
0.0176524683043974
 31
0.0
210
0.0
220
0.0
230
1.0
 40
0.9896113712344044
 41
1.244729234878223
 42
2.622414900752495
  0
LINE
  5
2AE
330
29F
100
AcDbEntity
  8
BLOCKS
100
AcDbLine
 10
0.1317284222461649
 20
-0.0259999999999991
 30
0.0
 11
0.1240368865814935
 21
-0.0206012557906888
 31
0.0
  0
ARC
  5
2AF
330
29F
100
AcDbEntity
  8
BLOCKS
100
AcDbCircle
 10
0.1931634894767762
 20
0.6633571176919031
 30
0.0
 40
0.6836128891113623
100
AcDbArc
 50
267.8178060547445
 51
268.8508844552759
  0
SPLINE
  5
2B0
330
29F
100
AcDbEntity
  8
BLOCKS
100
AcDbSpline
210
0.0
220
0.0
230
1.0
 70
     8
 71
     1
 72
    74
 73
    72
 74
     0
 42
0.0000000001
 43
0.0000000001
 40
0.0
 40
0.0
 40
0.5569770305950855
 40
1.113954061190171
 40
1.670931091785256
 40
2.227908122380342
 40
2.784885152975428
 40
3.341862183570513
 40
3.898839214165599
 40
4.455816244760684
 40
5.01279327535577
 40
5.569770305950856
 40
6.126747336545942
 40
6.683724367141026
 40
7.240701397736112
 40
7.797678428331198
 40
8.354655458926284
 40
8.911632489521368
 40
9.468609520116455
 40
10.02558655071154
 40
11.12264652928053
 40
12.21970650784953
 40
13.31676648641852
 40
14.41382646498751
 40
15.5108864435565
 40
16.60794642212549
 40
17.70500640069449
 40
18.80206637926348
 40
19.89912635783247
 40
20.99618633640146
 40
22.09324631497046
 40
23.19030629353945
 40
24.28736627210844
 40
25.38442625067743
 40
26.48148622924642
 40
27.57854620781542
 40
28.67560618638441
 40
29.7726661649534
 40
30.86972614352239
 40
31.96678612209138
 40
33.2719770043391
 40
34.57716788658683
 40
35.88235876883454
 40
37.18754965108227
 40
38.49274053333
 40
39.79793141557771
 40
41.10312229782543
 40
42.40831318007315
 40
43.71350406232088
 40
45.01869494456859
 40
46.32388582681631
 40
47.62907670906403
 40
48.93426759131177
 40
50.23945847355948
 40
51.5446493558072
 40
52.84984023805492
 40
54.15503112030265
 40
55.46022200255038
 40
56.76541288479809
 40
58.07060376704581
 40
61.31381108034776
 40
64.55701839364973
 40
67.80022570695166
 40
71.04343302025363
 40
74.28664033355558
 40
77.52984764685753
 40
80.7730549601595
 40
84.01626227346145
 40
87.2594695867634
 40
90.50267690006535
 40
93.7458842133673
 40
96.98909152666926
 40
97.89019061641534
 40
97.89019061641534
 10
0.1169027284271351
 20
-0.0202356236327273
 30
0.0
 10
0.1165893505694294
 20
-0.0202397088022349
 30
0.0
 10
0.1162765787791659
 20
-0.020239175696222
 30
0.0
 10
0.115964550299152
 20
-0.0202340965617134
 30
0.0
 10
0.1156534023721906
 20
-0.0202245436457361
 30
0.0
 10
0.1153432722410889
 20
-0.0202105891953124
 30
0.0
 10
0.1150342971486498
 20
-0.0201923054574707
 30
0.0
 10
0.1147266143376783
 20
-0.0201697646792332
 30
0.0
 10
0.114420361050984
 20
-0.0201430391076269
 30
0.0
 10
0.1141156745313719
 20
-0.0201122009896767
 30
0.0
 10
0.1138126920216428
 20
-0.0200773225724072
 30
0.0
 10
0.1135115507646037
 20
-0.0200384761028431
 30
0.0
 10
0.1132123880030622
 20
-0.0199957338280103
 30
0.0
 10
0.1129153409798209
 20
-0.0199491679949335
 30
0.0
 10
0.1126205469376919
 20
-0.0198988508506386
 30
0.0
 10
0.1123281431194709
 20
-0.0198448546421491
 30
0.0
 10
0.1120382667679678
 20
-0.0197872516164921
 30
0.0
 10
0.111751055125992
 20
-0.0197261140206911
 30
0.0
 10
0.1114666454363396
 20
-0.0196615141017719
 30
0.0
 10
0.110915422898961
 20
-0.0195249444460637
 30
0.0
 10
0.1103764299205432
 20
-0.0193768855708982
 30
0.0
 10
0.1098496489339141
 20
-0.0192180042453288
 30
0.0
 10
0.1093350623719061
 20
-0.0190489672384058
 30
0.0
 10
0.108832652667345
 20
-0.0188704413191818
 30
0.0
 10
0.108342402253063
 20
-0.0186830932567091
 30
0.0
 10
0.1078642935618882
 20
-0.0184875898200403
 30
0.0
 10
0.1073983090266506
 20
-0.0182845977782267
 30
0.0
 10
0.1069444310801782
 20
-0.018074783900322
 30
0.0
 10
0.1065026421553057
 20
-0.0178588149553775
 30
0.0
 10
0.1060729246848541
 20
-0.0176373577124434
 30
0.0
 10
0.1056552611016605
 20
-0.0174110789405745
 30
0.0
 10
0.1052496338385481
 20
-0.0171806454088221
 30
0.0
 10
0.1048560253283495
 20
-0.0169467238862376
 30
0.0
 10
0.104474418003897
 20
-0.0167099811418757
 30
0.0
 10
0.104104794298014
 20
-0.0164710839447844
 30
0.0
 10
0.1037471366435329
 20
-0.0162306990640195
 30
0.0
 10
0.1034014274732817
 20
-0.0159894932686314
 30
0.0
 10
0.1030676492200928
 20
-0.0157481333276724
 30
0.0
 10
0.102745784316794
 20
-0.015507286010195
 30
0.0
 10
0.1023766679269193
 20
-0.0152216798349139
 30
0.0
 10
0.1020206903692724
 20
-0.0149368316451444
 30
0.0
 10
0.1016773640136944
 20
-0.014652784598718
 30
0.0
 10
0.1013462012300283
 20
-0.0143695818534684
 30
0.0
 10
0.1010267143881129
 20
-0.0140872665672271
 30
0.0
 10
0.1007184158577888
 20
-0.0138058818978243
 30
0.0
 10
0.1004208180088972
 20
-0.0135254710030927
 30
0.0
 10
0.100133433211281
 20
-0.0132460770408648
 30
0.0
 10
0.0998557738347745
 20
-0.0129677431689709
 30
0.0
 10
0.0995873522492275
 20
-0.0126905125452436
 30
0.0
 10
0.0993276808244718
 20
-0.0124144283275155
 30
0.0
 10
0.0990762719303575
 20
-0.0121395336736168
 30
0.0
 10
0.0988326379367163
 20
-0.0118658717413803
 30
0.0
 10
0.0985962912133937
 20
-0.0115934856886384
 30
0.0
 10
0.0983667441302282
 20
-0.0113224186732214
 30
0.0
 10
0.0981435090570631
 20
-0.0110527138529619
 30
0.0
 10
0.0979260983637369
 20
-0.0107844143856914
 30
0.0
 10
0.0977140244200928
 20
-0.0105175634292414
 30
0.0
 10
0.0975067995959694
 20
-0.0102522041414443
 30
0.0
 10
0.0973039362612099
 20
-0.0099883796801316
 30
0.0
 10
0.0968148318721296
 20
-0.0093361793401891
 30
0.0
 10
0.0963448472549453
 20
-0.0086862083246979
 30
0.0
 10
0.0958927634140855
 20
-0.0080375446962034
 30
0.0
 10
0.0954573613539788
 20
-0.0073892665172525
 30
0.0
 10
0.0950374220790514
 20
-0.006740451850394
 30
0.0
 10
0.0946317265937364
 20
-0.0060901787581724
 30
0.0
 10
0.0942390559024602
 20
-0.0054375253031367
 30
0.0
 10
0.0938581910096537
 20
-0.00478156954783
 30
0.0
 10
0.093487912919743
 20
-0.0041213895548026
 30
0.0
 10
0.0931270026371613
 20
-0.0034560633865999
 30
0.0
 10
0.0927742411663349
 20
-0.0027846691057675
 30
0.0
 10
0.0924284095116946
 20
-0.0021062847748533
 30
0.0
 10
0.0923339096711516
 20
-0.0019156028578163
 30
0.0
  0
SPLINE
  5
2B1
330
29F
100
AcDbEntity
  8
BLOCKS
100
AcDbSpline
210
0.0
220
0.0
230
1.0
 70
    24
 71
     1
 72
     8
 73
     6
 74
     0
 42
0.0000000001
 43
0.0000000001
 40
0.1218336396774775
 40
0.1218336396774775
 40
0.3598115830259965
 40
0.719623166051993
 40
1.079434749077989
 40
1.439246332103985
 40
1.799057915129982
 40
1.799057915129982
 10
0.1184591476177957
 20
-0.0202041744405142
 30
0.0
 10
0.1182390512134339
 20
-0.0202085736795164
 30
0.0
 10
0.1179057834756804
 20
-0.020215270222717
 30
0.0
 10
0.1175720305080176
 20
-0.0202220117488537
 30
0.0
 10
0.117237799290624
 20
-0.0202287981424388
 30
0.0
 10
0.1169030968036759
 20
-0.0202356292879915
 30
0.0
  0
LINE
  5
2B2
330
29F
100
AcDbEntity
  8
BLOCKS
100
AcDbLine
 10
0.0884234637441932
 20
0.0
 30
0.0
 11
0.0923339096711539
 21
-0.0019156028578163
 31
0.0
  0
LINE
  5
2B3
330
29F
100
AcDbEntity
  8
BLOCKS
100
AcDbLine
 10
0.0967900097484494
 20
0.0
 30
0.0
 11
0.0973934528631435
 21
-0.0036023617218098
 31
0.0
  0
ARC
  5
2B4
330
29F
100
AcDbEntity
  8
BLOCKS
100
AcDbCircle
 10
0.1446533576806996
 20
-0.2345266727341641
 30
0.0
 40
0.2159301219181646
100
AcDbArc
 50
84.05963052830292
 51
96.97523032463529
  0
ARC
  5
2B5
330
29F
100
AcDbEntity
  8
BLOCKS
100
AcDbCircle
 10
0.008947737130668
 20
0.0270000000000005
 30
0.0
 40
0.008
100
AcDbArc
 50
90.0
 51
178.0000000000001
  0
LINE
  5
2B6
330
29F
100
AcDbEntity
  8
BLOCKS
100
AcDbLine
 10
0.0
 20
0.0
 30
0.0
 11
0.0009526105145142
 21
0.0272791959736196
 31
0.0
  0
LINE
  5
2B7
330
29F
100
AcDbEntity
  8
BLOCKS
100
AcDbLine
 10
0.0
 20
0.0
 30
0.0
 11
0.0099939082701894
 21
0.0
 31
0.0
  0
ARC
  5
2B8
330
29F
100
AcDbEntity
  8
BLOCKS
100
AcDbCircle
 10
0.1918483444760522
 20
0.5618087857572346
 30
0.0
 40
0.5820590524868261
100
AcDbArc
 50
268.7798506817841
 51
281.8120857366227
  0
LINE
  5
2B9
330
29F
100
AcDbEntity
  8
BLOCKS
100
AcDbLine
 10
0.1317284222461649
 20
-0.0259999999999991
 30
0.0
 11
0.2357477720896327
 21
-0.0259999999999991
 31
0.0
  0
LINE
  5
2BA
330
29F
100
AcDbEntity
  8
BLOCKS
100
AcDbLine
 10
0.008947737130668
 20
0.035
 30
0.0
 11
0.9380651481620953
 21
0.035
 31
0.0
  0
LINE
  5
2BB
330
29F
100
AcDbEntity
  8
BLOCKS
100
AcDbLine
 10
0.9387029646139945
 20
0.0
 30
0.0
 11
0.0099939082701894
 21
0.0
 31
0.0
  0
ENDBLK
  5
2BE
330
29F
100
AcDbEntity
  8
0
100
AcDbBlockEnd
  0
BLOCK
  5
312
330
2CB
100
AcDbEntity
  8
0
100
AcDbBlockBegin
  2
80008PL
 70
     0
 10
0.0
 20
0.0
 30
0.0
  3
80008PL
  1

  0
ARC
  5
2CC
330
2CB
100
AcDbEntity
  8
BLOCKS
100
AcDbCircle
 10
0.8412159430855068
 20
-0.011207504603558
 30
0.0
 40
0.0112075046424827
100
AcDbArc
 50
22.29413724683527
 51
90.00477529315002
  0
CIRCLE
  5
2CD
330
2CB
100
AcDbEntity
  8
BLOCKS
  6
Continuous
100
AcDbCircle
 10
0.6426494575181855
 20
-0.1668063508684008
 30
0.0
 40
0.0073650840276585
  0
ARC
  5
2CE
330
2CB
100
AcDbEntity
  8
BLOCKS
100
AcDbCircle
 10
0.4941676708570785
 20
2.416700275480393
 30
0.0
 40
2.507169789985373
100
AcDbArc
 50
273.8942335457836
 51
275.7423860688801
  0
CIRCLE
  5
2CF
330
2CB
100
AcDbEntity
  8
BLOCKS
  6
Continuous
100
AcDbCircle
 10
0.5237452992919132
 20
-0.166862969304575
 30
0.0
 40
0.0081420148239227
  0
CIRCLE
  5
2D0
330
2CB
100
AcDbEntity
  8
BLOCKS
  6
Continuous
100
AcDbCircle
 10
0.6425928390820137
 20
-0.2857105090946743
 30
0.0
 40
0.0070678809099174
  0
CIRCLE
  5
2D1
330
2CB
100
AcDbEntity
  8
BLOCKS
  6
Continuous
100
AcDbCircle
 10
0.7020491356451713
 20
-0.2262060289953865
 30
0.0
 40
0.0070920135983034
  0
CIRCLE
  5
2D2
330
2CB
100
AcDbEntity
  8
BLOCKS
  6
Continuous
100
AcDbCircle
 10
0.6425362206458395
 20
-0.4046146673209456
 30
0.0
 40
0.0065367235054675
  0
CIRCLE
  5
2D3
330
2CB
100
AcDbEntity
  8
BLOCKS
  6
Continuous
100
AcDbCircle
 10
0.701990842926974
 20
-0.3451085129396347
 30
0.0
 40
0.006562540137486
  0
CIRCLE
  5
2D4
330
2CB
100
AcDbEntity
  8
BLOCKS
  6
Continuous
100
AcDbCircle
 10
0.5831464849548035
 20
-0.226264154967464
 30
0.0
 40
0.0073869503059328
  0
CIRCLE
  5
2D5
330
2CB
100
AcDbEntity
  8
BLOCKS
  6
Continuous
100
AcDbCircle
 10
0.5236886808557406
 20
-0.2857671275308485
 30
0.0
 40
0.0076032552869674
  0
CIRCLE
  5
2D6
330
2CB
100
AcDbEntity
  8
BLOCKS
  6
Continuous
100
AcDbCircle
 10
0.5830883589827259
 20
-0.3451668056578319
 30
0.0
 40
0.0072714177416339
  0
CIRCLE
  5
2D7
330
2CB
100
AcDbEntity
  8
BLOCKS
  6
Continuous
100
AcDbCircle
 10
0.5236079706515032
 20
-0.4046471939890558
 30
0.0
 40
0.006870050294844
  0
CIRCLE
  5
2D8
330
2CB
100
AcDbEntity
  8
BLOCKS
  6
Continuous
100
AcDbCircle
 10
0.4048211352971632
 20
-0.1668995819722727
 30
0.0
 40
0.008943955848111
  0
SPLINE
  5
2D9
330
2CB
100
AcDbEntity
  8
BLOCKS
100
AcDbSpline
210
0.0
220
0.0
230
1.0
 70
    24
 71
     3
 72
     8
 73
     4
 74
     0
 42
0.0000000001
 43
0.0000000001
 40
0.0
 40
0.0
 40
0.0
 40
0.0
 40
0.0030325321492295
 40
0.0030325321492295
 40
0.0030325321492295
 40
0.0030325321492295
 10
0.3183736594887094
 20
-0.1015840127712568
 30
0.0
 10
0.3172441390510775
 20
-0.101682439358126
 30
0.0
 10
0.3161172704614532
 20
-0.1017887507910245
 30
0.0
 10
0.3149930441055389
 20
-0.1019030045366185
 30
0.0
  0
ARC
  5
2DA
330
2CB
100
AcDbEntity
  8
BLOCKS
100
AcDbCircle
 10
-0.2108031949373478
 20
8.829648705649068
 30
0.0
 40
8.947015012657153
100
AcDbArc
 50
272.5028174712025
 51
273.3690871288226
  0
CIRCLE
  5
2DB
330
2CB
100
AcDbEntity
  8
BLOCKS
  6
Continuous
100
AcDbCircle
 10
0.4047632949177458
 20
-0.2858025182553001
 30
0.0
 40
0.0079073819446875
  0
CIRCLE
  5
2DC
330
2CB
100
AcDbEntity
  8
BLOCKS
  6
Continuous
100
AcDbCircle
 10
0.3453407469659405
 20
-0.2263799703034942
 30
0.0
 40
0.0086635467887601
  0
CIRCLE
  5
2DD
330
2CB
100
AcDbEntity
  8
BLOCKS
  6
Continuous
100
AcDbCircle
 10
0.4047279041932948
 20
-0.4047279041932939
 30
0.0
 40
0.0076032552869674
  0
CIRCLE
  5
2DE
330
2CB
100
AcDbEntity
  8
BLOCKS
  6
Continuous
100
AcDbCircle
 10
0.3452829065865226
 20
-0.3452829065865217
 30
0.0
 40
0.0079073819446875
  0
CIRCLE
  5
2DF
330
2CB
100
AcDbEntity
  8
BLOCKS
  6
Continuous
100
AcDbCircle
 10
0.2858603586347178
 20
-0.2858603586347181
 30
0.0
 40
0.008943955848111
  0
CIRCLE
  5
2E0
330
2CB
100
AcDbEntity
  8
BLOCKS
  6
Continuous
100
AcDbCircle
 10
0.2263799703034951
 20
-0.3453407469659396
 30
0.0
 40
0.0084306989416318
  0
CIRCLE
  5
2E1
330
2CB
100
AcDbEntity
  8
BLOCKS
  6
Continuous
100
AcDbCircle
 10
0.2858237459670212
 20
-0.4047845226294658
 30
0.0
 40
0.0081420148239227
  0
CIRCLE
  5
2E2
330
2CB
100
AcDbEntity
  8
BLOCKS
  6
Continuous
100
AcDbCircle
 10
0.1668995819722721
 20
-0.4048211352971635
 30
0.0
 40
0.0086635467887601
  0
CIRCLE
  5
2E3
330
2CB
100
AcDbEntity
  8
BLOCKS
  6
Continuous
100
AcDbCircle
 10
0.4642082925245174
 20
-0.34524751586207
 30
0.0
 40
0.0076032552869674
  0
CIRCLE
  5
2E4
330
2CB
100
AcDbEntity
  8
BLOCKS
  6
Continuous
100
AcDbCircle
 10
0.4642436832489691
 20
-0.2263221299240763
 30
0.0
 40
0.0083836221670025
  0
LINE
  5
2E5
330
2CB
100
AcDbEntity
  8
BLOCKS
100
AcDbLine
 10
0.6644418057087135
 20
-0.0846807580320592
 30
0.0
 11
0.3183736594887094
 21
-0.1015840127712545
 31
0.0
  0
CIRCLE
  5
2E6
330
2CB
100
AcDbEntity
  8
BLOCKS
  6
Continuous
100
AcDbCircle
 10
0.6424796022096669
 20
-0.523518825547219
 30
0.0
 40
0.0060109010846324
  0
CIRCLE
  5
2E7
330
2CB
100
AcDbEntity
  8
BLOCKS
  6
Continuous
100
AcDbCircle
 10
0.5830558323146162
 20
-0.4640950556521694
 30
0.0
 40
0.0063325661223739
  0
CIRCLE
  5
2E8
330
2CB
100
AcDbEntity
  8
BLOCKS
  6
Continuous
100
AcDbCircle
 10
0.523549677933306
 20
-0.5235496779333039
 30
0.0
 40
0.0063575294394653
  0
CIRCLE
  5
2E9
330
2CB
100
AcDbEntity
  8
BLOCKS
  6
Continuous
100
AcDbCircle
 10
0.58297159502771
 20
-0.5829715950277091
 30
0.0
 40
0.0060385199353673
  0
CIRCLE
  5
2EA
330
2CB
100
AcDbEntity
  8
BLOCKS
  6
Continuous
100
AcDbCircle
 10
0.5235188255472222
 20
-0.6424796022096667
 30
0.0
 40
0.0058237466924202
  0
CIRCLE
  5
2EB
330
2CB
100
AcDbEntity
  8
BLOCKS
  6
Continuous
100
AcDbCircle
 10
0.4046471939890578
 20
-0.5236079706515011
 30
0.0
 40
0.0070920135983047
  0
CIRCLE
  5
2EC
330
2CB
100
AcDbEntity
  8
BLOCKS
  6
Continuous
100
AcDbCircle
 10
0.345247515862072
 20
-0.4642082925245154
 30
0.0
 40
0.0076032552869674
  0
CIRCLE
  5
2ED
330
2CB
100
AcDbEntity
  8
BLOCKS
  6
Continuous
100
AcDbCircle
 10
0.40458890127086
 20
-0.6425104545957493
 30
0.0
 40
0.006562540137486
  0
CIRCLE
  5
2EE
330
2CB
100
AcDbEntity
  8
BLOCKS
  6
Continuous
100
AcDbCircle
 10
0.345190897425899
 20
-0.5831124507507889
 30
0.0
 40
0.0070678809099187
  0
CIRCLE
  5
2EF
330
2CB
100
AcDbEntity
  8
BLOCKS
  6
Continuous
100
AcDbCircle
 10
0.4640950556521714
 20
-0.5830558323146159
 30
0.0
 40
0.0065367235054675
  0
CIRCLE
  5
2F0
330
2CB
100
AcDbEntity
  8
BLOCKS
  6
Continuous
100
AcDbCircle
 10
0.2263433576357985
 20
-0.4642649109606896
 30
0.0
 40
0.0084014646338483
  0
CIRCLE
  5
2F1
330
2CB
100
AcDbEntity
  8
BLOCKS
  6
Continuous
100
AcDbCircle
 10
0.2857445432986899
 20
-0.5236660966235798
 30
0.0
 40
0.0075807046960524
  0
CIRCLE
  5
2F2
330
2CB
100
AcDbEntity
  8
BLOCKS
  6
Continuous
100
AcDbCircle
 10
0.1668629693045753
 20
-0.5237452992919123
 30
0.0
 40
0.0084054697785237
  0
CIRCLE
  5
2F3
330
2CB
100
AcDbEntity
  8
BLOCKS
  6
Continuous
100
AcDbCircle
 10
0.2857105090946757
 20
-0.6425928390820128
 30
0.0
 40
0.0070678809099187
  0
CIRCLE
  5
2F4
330
2CB
100
AcDbEntity
  8
BLOCKS
  6
Continuous
100
AcDbCircle
 10
0.2262867391996261
 20
-0.5831690691869631
 30
0.0
 40
0.0076032552869674
  0
CIRCLE
  5
2F5
330
2CB
100
AcDbEntity
  8
BLOCKS
  6
Continuous
100
AcDbCircle
 10
0.1667837666362442
 20
-0.6426268732860264
 30
0.0
 40
0.0075807046960524
  0
CIRCLE
  5
2F6
330
2CB
100
AcDbEntity
  8
BLOCKS
  6
Continuous
100
AcDbCircle
 10
0.3451085129396367
 20
-0.7019908429269731
 30
0.0
 40
0.0065624895555557
  0
CIRCLE
  5
2F7
330
2CB
100
AcDbEntity
  8
BLOCKS
  6
Continuous
100
AcDbCircle
 10
0.2262301207634525
 20
-0.7020732274132366
 30
0.0
 40
0.0070678809099187
  0
CIRCLE
  5
2F8
330
2CB
100
AcDbEntity
  8
BLOCKS
  6
Continuous
100
AcDbCircle
 10
0.4641275823202804
 20
-0.4641275823202785
 30
0.0
 40
0.0070920135983047
  0
SPLINE
  5
2F9
330
2CB
100
AcDbEntity
  8
BLOCKS
100
AcDbSpline
210
0.0
220
0.0
230
1.0
 70
    12
 71
     3
 72
     8
 73
     4
 74
     0
 42
0.0000000001
 43
0.0000000001
 40
2.356803477777957
 40
2.356803477777957
 40
2.356803477777957
 40
2.356803477777957
 40
3.926381829401628
 40
3.926381829401628
 40
3.926381829401628
 40
3.926381829401628
 10
-0.0000000000000014
 20
-0.0112088972636775
 30
0.0
 41
1.0
 10
-0.0000000000000014
 20
-0.0046412220760089
 30
0.0
 41
0.8050248461936602
 10
0.0046412220760124
 20
-0.0000000000000023
 30
0.0
 41
0.8050248461936602
 10
0.0112088972636744
 20
-0.0000000000000045
 30
0.0
 41
1.0
  0
SPLINE
  5
2FA
330
2CB
100
AcDbEntity
  8
BLOCKS
100
AcDbSpline
210
0.0
220
0.0
230
1.0
 70
    24
 71
     3
 72
     8
 73
     4
 74
     0
 42
0.0000000001
 43
0.0000000001
 40
0.0
 40
0.0
 40
0.0
 40
0.0
 40
0.0030331950258261
 40
0.0030331950258261
 40
0.0030331950258261
 40
0.0030331950258261
 10
0.1018934171631528
 20
-0.3152091032206863
 30
0.0
 10
0.1017788263186529
 20
-0.3163335455911579
 30
0.0
 10
0.1016721822027085
 20
-0.3174606322437921
 30
0.0
 10
0.1015734276809468
 20
-0.3185903729345432
 30
0.0
  0
ARC
  5
2FB
330
2CB
100
AcDbEntity
  8
BLOCKS
100
AcDbCircle
 10
-8.821867441530038
 20
0.2100966262246175
 30
0.0
 40
8.939208800141809
100
AcDbArc
 50
356.6311167620099
 51
357.4995398751354
  0
ARC
  5
2FC
330
2CB
100
AcDbEntity
  8
BLOCKS
100
AcDbCircle
 10
0.0112075046035796
 20
-0.8412159430854922
 30
0.0
 40
0.0112075046425053
100
AcDbArc
 50
179.9952247069476
 51
247.7058627530688
  0
ARC
  5
2FD
330
2CB
100
AcDbEntity
  8
BLOCKS
100
AcDbCircle
 10
-0.0367167502506098
 20
-0.7428336191892038
 30
0.0
 40
0.1146257860244826
100
AcDbArc
 50
328.0456858138905
 51
358.9047434166245
  0
ARC
  5
2FE
330
2CB
100
AcDbEntity
  8
BLOCKS
100
AcDbCircle
 10
-2.416602724543296
 20
-0.4941758938327974
 30
0.0
 40
2.507071905819862
100
AcDbArc
 50
354.257577849064
 51
356.1058025363011
  0
LINE
  5
2FF
330
2CB
100
AcDbEntity
  8
BLOCKS
100
AcDbLine
 10
0.1015734276809468
 20
-0.3185903729345409
 30
0.0
 11
0.0846807580320592
 21
-0.6644418057087126
 31
0.0
  0
LINE
  5
300
330
2CB
100
AcDbEntity
  8
BLOCKS
100
AcDbLine
 10
0.0
 20
-0.8412150090006502
 30
0.0
 11
0.0
 21
-0.0112088972636752
 31
0.0
  0
LINE
  5
301
330
2CB
100
AcDbEntity
  8
BLOCKS
100
AcDbLine
 10
0.0143679016676893
 20
-0.0143679016676902
 30
0.0
 11
0.0143679016676893
 21
-0.8390923745903545
 31
0.0
  0
LINE
  5
302
330
2CB
100
AcDbEntity
  8
BLOCKS
100
AcDbLine
 10
0.0459720305380708
 20
-0.8133074181845699
 30
0.0
 11
0.0739010702579387
 21
-0.1736272404479769
 31
0.0
  0
SPLINE
  5
303
330
2CB
100
AcDbEntity
  8
BLOCKS
100
AcDbSpline
210
0.0
220
0.0
230
1.0
 70
    12
 71
     3
 72
     8
 73
     4
 74
     0
 42
0.0000000001
 43
0.0000000001
 40
2.413661611519016
 40
2.413661611519016
 40
2.413661611519016
 40
2.413661611519016
 40
3.86952369566057
 40
3.86952369566057
 40
3.86952369566057
 40
3.86952369566057
 10
0.0739010702579387
 20
-0.1736272404479746
 30
0.0
 41
1.0
 10
0.0763996465107184
 20
-0.116400435749415
 30
0.0
 41
0.8310350211255348
 10
0.1164004357494099
 20
-0.0763996465107198
 30
0.0
 41
0.8310350211255348
 10
0.1736272404479775
 20
-0.0739010702579367
 30
0.0
 41
1.0
  0
ELLIPSE
  5
304
330
2CB
100
AcDbEntity
  8
BLOCKS
100
AcDbEllipse
 10
0.0823312602138205
 20
-0.082566384380491
 30
0.0
 11
-0.1675405793970369
 21
-0.1675405793969875
 31
0.0
210
0.0
220
0.0
230
0.9999999999999996
 40
0.999048221581858
 41
0.867214370944294
 42
2.275329511692157
  0
CIRCLE
  5
305
330
2CB
100
AcDbEntity
  8
BLOCKS
  6
Continuous
100
AcDbCircle
 10
0.186171812507072
 20
-0.1861479854515915
 30
0.0
 40
0.0672623341795889
  0
CIRCLE
  5
306
330
2CB
100
AcDbEntity
  8
BLOCKS
  6
Continuous
100
AcDbCircle
 10
0.1866558418595832
 20
-0.18632803737833
 30
0.0
 40
0.0502386201041858
  0
CIRCLE
  5
307
330
2CB
100
AcDbEntity
  8
BLOCKS
  6
Continuous
100
AcDbCircle
 10
0.1867721330463715
 20
-0.1865924161110706
 30
0.0
 40
0.0779929424527316
  0
ARC
  5
308
330
2CB
100
AcDbEntity
  8
BLOCKS
100
AcDbCircle
 10
0.2526031593374782
 20
-0.2526031593374796
 30
0.0
 40
0.6330289389948339
100
AcDbArc
 50
247.8927307138082
 51
270.0
  0
ARC
  5
309
330
2CB
100
AcDbEntity
  8
BLOCKS
100
AcDbCircle
 10
0.2526031593374782
 20
-0.2526031593374796
 30
0.0
 40
0.6473968406625229
100
AcDbArc
 50
247.7010874599992
 51
270.0
  0
ARC
  5
30A
330
2CB
100
AcDbEntity
  8
BLOCKS
100
AcDbCircle
 10
0.7428168562684343
 20
0.0367732511579015
 30
0.0
 40
0.1146825980985419
100
AcDbArc
 50
271.1030902908141
 51
301.9464804787306
  0
ARC
  5
30B
330
2CB
100
AcDbEntity
  8
BLOCKS
100
AcDbCircle
 10
0.2506630884362434
 20
-0.2506630884362448
 30
0.0
 40
0.5987211963689068
100
AcDbArc
 50
250.0085187161308
 51
19.99148128389117
  0
ARC
  5
30C
330
2CB
100
AcDbEntity
  8
BLOCKS
100
AcDbCircle
 10
0.2526031593374782
 20
-0.2526031593374796
 30
0.0
 40
0.6473968406625229
100
AcDbArc
 50
270.0
 51
22.29891253995555
  0
ARC
  5
30D
330
2CB
100
AcDbEntity
  8
BLOCKS
100
AcDbCircle
 10
0.2526031593374782
 20
-0.2526031593374796
 30
0.0
 40
0.6330289389948339
100
AcDbArc
 50
270.0
 51
22.10726928617638
  0
ARC
  5
30E
330
2CB
100
AcDbEntity
  8
BLOCKS
100
AcDbCircle
 10
0.2949490273371154
 20
-0.2949490273371157
 30
0.0
 40
0.4251325185695698
100
AcDbArc
 50
240.3569753349942
 51
29.64302466500111
  0
LINE
  5
30F
330
2CB
100
AcDbEntity
  8
BLOCKS
100
AcDbLine
 10
0.0112088972636744
 20
0.0
 30
0.0
 11
0.84121500900065
 21
0.0
 31
0.0
  0
LINE
  5
310
330
2CB
100
AcDbEntity
  8
BLOCKS
100
AcDbLine
 10
0.8390923745903556
 20
-0.0143679016676902
 30
0.0
 11
0.0143679016676893
 21
-0.0143679016676902
 31
0.0
  0
LINE
  5
311
330
2CB
100
AcDbEntity
  8
BLOCKS
100
AcDbLine
 10
0.1736272404479772
 20
-0.073901070257939
 30
0.0
 11
0.8133074181845698
 21
-0.0459720305380711
 31
0.0
  0
ENDBLK
  5
313
330
2CB
100
AcDbEntity
  8
0
100
AcDbBlockEnd
  0
BLOCK
  5
363
330
315
100
AcDbEntity
  8
0
100
AcDbBlockBegin
  2
80008CT
 70
     0
 10
0.0
 20
0.0
 30
0.0
  3
80008CT
  1

  0
LINE
  5
316
330
315
100
AcDbEntity
  8
BLOCKS
100
AcDbLine
 10
0.8163379849793251
 20
0.0394013267201353
 30
0.0
 11
0.8491934856132854
 21
0.0394013267201353
 31
0.0
  0
LINE
  5
317
330
315
100
AcDbEntity
  8
BLOCKS
100
AcDbLine
 10
0.8855020336589303
 20
0.0394013267201353
 30
0.0
 11
0.8491939632069669
 21
0.0394013267201353
 31
0.0
  0
ARC
  5
318
330
315
100
AcDbEntity
  8
BLOCKS
100
AcDbCircle
 10
0.8855279236681065
 20
0.0258630914869207
 30
0.0
 40
0.0101610116408132
100
AcDbArc
 50
2.159053187208894
 51
90.14598840299756
  0
ARC
  5
319
330
315
100
AcDbEntity
  8
BLOCKS
100
AcDbCircle
 10
0.8491920084763
 20
0.0052934793697966
 30
0.0
 40
0.030730590809804
100
AcDbArc
 50
89.99724693995734
 51
113.2035595264087
  0
LINE
  5
31A
330
315
100
AcDbEntity
  8
BLOCKS
100
AcDbLine
 10
0.8491934906650055
 20
0.0360240701441251
 30
0.0
 11
0.8855020336589303
 21
0.0360240701441251
 31
0.0
  0
LINE
  5
31B
330
315
100
AcDbEntity
  8
BLOCKS
100
AcDbLine
 10
0.8966030605334481
 20
0.0000000000000159
 30
0.0
 11
0.899999998863625
 21
0.0000000000000159
 31
0.0
  0
LINE
  5
31C
330
315
100
AcDbEntity
  8
BLOCKS
100
AcDbLine
 10
0.8443468051338243
 20
0.0000000000000159
 30
0.0
 11
0.8516333314320286
 21
0.0000000000000159
 31
0.0
  0
LINE
  5
31D
330
315
100
AcDbEntity
  8
BLOCKS
100
AcDbLine
 10
0.8966030605334481
 20
0.0000000000000159
 30
0.0
 11
0.8516333314320286
 21
0.0000000000000159
 31
0.0
  0
LINE
  5
31E
330
315
100
AcDbEntity
  8
BLOCKS
100
AcDbLine
 10
0.8956817231059927
 20
0.0262458941205614
 30
0.0
 11
0.8966030616776288
 21
0.0000000000401815
 31
0.0
  0
LINE
  5
31F
330
315
100
AcDbEntity
  8
BLOCKS
100
AcDbLine
 10
0.8990745744361346
 20
0.0263637586750224
 30
0.0
 11
0.9
 21
0.0000000000399052
 31
0.0
  0
LINE
  5
320
330
315
100
AcDbEntity
  8
BLOCKS
100
AcDbLine
 10
0.6467813360439506
 20
0.0000000000000159
 30
0.0
 11
0.6471105734402408
 21
0.0000000000000159
 31
0.0
  0
LINE
  5
321
330
315
100
AcDbEntity
  8
BLOCKS
100
AcDbLine
 10
0.6448166764303461
 20
-0.000067360283881
 30
0.0
 11
0.6448166764303461
 21
-0.0000576922279981
 31
0.0
  0
LINE
  5
322
330
315
100
AcDbEntity
  8
BLOCKS
100
AcDbLine
 10
0.6448166764303461
 20
-0.0000576922279981
 30
0.0
 11
0.6448166764303461
 21
0.0000000000000159
 31
0.0
  0
LINE
  5
323
330
315
100
AcDbEntity
  8
BLOCKS
100
AcDbLine
 10
0.6467813360439506
 20
0.0000000000000159
 30
0.0
 11
0.6448166764303437
 21
0.0000000000000159
 31
0.0
  0
LINE
  5
324
330
315
100
AcDbEntity
  8
BLOCKS
100
AcDbLine
 10
0.8443468051338243
 20
0.0000000000000159
 30
0.0
 11
0.5452589926505312
 21
0.0000000000000136
 31
0.0
  0
ARC
  5
325
330
315
100
AcDbEntity
  8
BLOCKS
100
AcDbCircle
 10
0.6970373316357735
 20
0.3610914842592354
 30
0.0
 40
0.3562361715019391
100
AcDbArc
 50
271.6987244868493
 51
293.1493499801383
  0
ARC
  5
326
330
315
100
AcDbEntity
  8
BLOCKS
100
AcDbCircle
 10
0.697060345103555
 20
0.3609683569211222
 30
0.0
 40
0.3527335217255387
100
AcDbArc
 50
271.6992852699909
 51
293.1506658696126
  0
ARC
  5
327
330
315
100
AcDbEntity
  8
BLOCKS
100
AcDbCircle
 10
0.8855365089290444
 20
0.0258537012134821
 30
0.0
 40
0.0135476693719901
100
AcDbArc
 50
2.157643883096801
 51
90.14580290917399
  0
ARC
  5
328
330
315
100
AcDbEntity
  8
BLOCKS
100
AcDbCircle
 10
0.8491919290118266
 20
0.0052549348624211
 30
0.0
 40
0.0341463918930684
100
AcDbArc
 50
89.99739269857624
 51
113.2047128136178
  0
LINE
  5
329
330
315
100
AcDbEntity
  8
BLOCKS
100
AcDbLine
 10
0.0741764423062114
 20
0.0394013267201353
 30
0.0
 11
0.0735941269653426
 21
0.0394013267201353
 31
0.0
  0
LINE
  5
32A
330
315
100
AcDbEntity
  8
BLOCKS
100
AcDbLine
 10
0.0735941269653426
 20
0.0394013267201353
 30
0.0
 11
0.0144214397084488
 21
0.0394013267201353
 31
0.0
  0
LINE
  5
32B
330
315
100
AcDbEntity
  8
BLOCKS
100
AcDbLine
 10
0.0741764423062114
 20
0.0394013267201353
 30
0.0
 11
0.1742742146889623
 21
0.0394013267201353
 31
0.0
  0
LINE
  5
32C
330
315
100
AcDbEntity
  8
BLOCKS
100
AcDbLine
 10
0.2412108996395387
 20
-0.0210971786442815
 30
0.0
 11
0.2537886696115493
 21
-0.0133037779068013
 31
0.0
  0
LINE
  5
32D
330
315
100
AcDbEntity
  8
BLOCKS
100
AcDbLine
 10
0.2377744285726362
 20
-0.0192515546722666
 30
0.0
 11
0.2543494618292891
 21
-0.0089812424851596
 31
0.0
  0
ELLIPSE
  5
32E
330
315
100
AcDbEntity
  8
BLOCKS
100
AcDbEllipse
 10
0.1872024586071257
 20
-0.0227771927338211
 30
0.0
 11
0.054010371651675
 21
0.0016674594388661
 31
0.0
210
0.0
220
0.0
230
-0.9999999999999998
 40
0.0308435645972299
 41
6.275613171779694
 42
6.283185307179586
  0
LINE
  5
32F
330
315
100
AcDbEntity
  8
BLOCKS
100
AcDbLine
 10
0.2382943911483778
 20
-0.0360240701440921
 30
0.0
 11
0.2416732553065913
 21
-0.0360240701440921
 31
0.0
  0
ELLIPSE
  5
330
330
315
100
AcDbEntity
  8
BLOCKS
100
AcDbEllipse
 10
0.187611428731459
 20
-0.036024068726631
 30
0.0
 11
0.0506829623731996
 21
-1.641662501875434
 31
0.0
210
0.0
220
0.0
230
-0.9999999999999998
 40
0.03084356459723
 41
4.703124246152905
 42
4.71334121275104
  0
ELLIPSE
  5
331
330
315
100
AcDbEntity
  8
BLOCKS
100
AcDbEllipse
 10
0.187611428731459
 20
-0.036024068726631
 30
0.0
 11
0.0540618265314129
 21
-1.75110666866713
 31
0.0
210
0.0
220
0.0
230
-1.0
 40
0.03084356459723
 41
4.704816844984797
 42
4.713341212697076
  0
SPLINE
  5
332
330
315
100
AcDbEntity
  8
BLOCKS
100
AcDbSpline
210
0.0
220
0.0
230
1.0
 70
     8
 71
     3
 72
     8
 73
     4
 74
     0
 42
0.0000000001
 43
0.0000000001
 40
77.82434061580888
 40
77.82434061580888
 40
77.82434061580888
 40
77.82434061580888
 40
81.07579564330617
 40
81.07579564330617
 40
81.07579564330617
 40
81.07579564330617
 10
0.2960475982742128
 20
-0.0043134165815968
 30
0.0
 10
0.2948280684516862
 20
-0.0043510670633714
 30
0.0
 10
0.2935753227059365
 20
-0.0044218887516763
 30
0.0
 10
0.2923020748415536
 20
-0.0045295482278425
 30
0.0
  0
SPLINE
  5
333
330
315
100
AcDbEntity
  8
BLOCKS
100
AcDbSpline
210
0.0
220
0.0
230
1.0
 70
     8
 71
     3
 72
     8
 73
     4
 74
     0
 42
0.0000000001
 43
0.0000000001
 40
218.7592377902409
 40
218.7592377902409
 40
218.7592377902409
 40
218.7592377902409
 40
221.8144673608926
 40
221.8144673608926
 40
221.8144673608926
 40
221.8144673608926
 10
0.2926835428394338
 20
-0.007892215446534
 30
0.0
 10
0.2938800185886726
 20
-0.0077913245448121
 30
0.0
 10
0.2950571722079189
 20
-0.0077244679930777
 30
0.0
 10
0.2962031033509197
 20
-0.0076890897195676
 30
0.0
  0
ARC
  5
334
330
315
100
AcDbEntity
  8
BLOCKS
100
AcDbCircle
 10
0.2522771229890134
 20
0.0141027666297384
 30
0.0
 40
0.0274481958719587
100
AcDbArc
 50
273.156822235702
 51
293.4230525758334
  0
LINE
  5
335
330
315
100
AcDbEntity
  8
BLOCKS
100
AcDbLine
 10
0.2577849493145527
 20
-0.0088751714222622
 30
0.0
 11
0.25434945730967
 21
-0.0089812351910427
 31
0.0
  0
SPLINE
  5
336
330
315
100
AcDbEntity
  8
BLOCKS
100
AcDbSpline
210
0.0
220
0.0
230
1.0
 70
     8
 71
     3
 72
    12
 73
     8
 74
     0
 42
0.0000000001
 43
0.0000000001
 40
0.1046038487367574
 40
0.1046038487367574
 40
0.1046038487367574
 40
0.1046038487367574
 40
0.1057250251345062
 40
0.1057250251345062
 40
0.111734109217664
 40
0.111734109217664
 40
0.1118635307600435
 40
0.1118635307600435
 40
0.1118635307600435
 40
0.1118635307600435
 10
0.2631882371119832
 20
-0.0110835927405322
 30
0.0
 10
0.2632288896097736
 20
-0.0110622217219168
 30
0.0
 10
0.263266213309231
 20
-0.0110409666369344
 30
0.0
 10
0.2634824555222064
 20
-0.0109065351481354
 30
0.0
 10
0.2635687408845013
 20
-0.0107966116891771
 30
0.0
 10
0.2635566308012267
 20
-0.0106880038545319
 30
0.0
 10
0.2635563298362524
 20
-0.0106857156427816
 30
0.0
 10
0.2635559831967578
 20
-0.010683429068057
 30
0.0
  0
ARC
  5
337
330
315
100
AcDbEntity
  8
BLOCKS
100
AcDbCircle
 10
0.2663020871302751
 20
-0.0155833303879604
 30
0.0
 40
0.008997661508847
100
AcDbArc
 50
94.09900487875644
 51
119.2403726059965
  0
ARC
  5
338
330
315
100
AcDbEntity
  8
BLOCKS
100
AcDbCircle
 10
0.2575076979155324
 20
0.0001286966153884
 30
0.0
 40
0.0090081356549962
100
AcDbArc
 50
271.7637166346356
 51
299.2328501969288
  0
ARC
  5
339
330
315
100
AcDbEntity
  8
BLOCKS
100
AcDbCircle
 10
0.2663011701228186
 20
-0.0155921012730687
 30
0.0
 40
0.0056241436719334
100
AcDbArc
 50
94.09825162222004
 51
119.2156284706185
  0
SPLINE
  5
33A
330
315
100
AcDbEntity
  8
BLOCKS
100
AcDbSpline
210
0.0
220
0.0
230
1.0
 70
     8
 71
     3
 72
     8
 73
     4
 74
     0
 42
0.0000000001
 43
0.0000000001
 40
-258.6945042551493
 40
-258.6945042551493
 40
-258.6945042551493
 40
-258.6945042551493
 40
-224.484598654767
 40
-224.484598654767
 40
-224.484598654767
 40
-224.484598654767
 10
0.2923020748415536
 20
-0.0045295482278425
 30
0.0
 10
0.2834002272315002
 20
-0.0052822439734473
 30
0.0
 10
0.274530531683871
 20
-0.0059734342973945
 30
0.0
 10
0.2656589317410555
 20
-0.0066086827496861
 30
0.0
  0
SPLINE
  5
33B
330
315
100
AcDbEntity
  8
BLOCKS
100
AcDbSpline
210
0.0
220
0.0
230
1.0
 70
     8
 71
     3
 72
     8
 73
     4
 74
     0
 42
0.0000000001
 43
0.0000000001
 40
-23.97744359423015
 40
-23.97744359423015
 40
-23.97744359423015
 40
-23.97744359423015
 40
0.0
 40
0.0
 40
0.0
 40
0.0
 10
0.2658992250751714
 20
-0.0099823223321732
 30
0.0
 10
0.2748035673659388
 20
-0.009345097926323
 30
0.0
 10
0.2837179639869021
 20
-0.0086505200736951
 30
0.0
 10
0.292683505795552
 20
-0.0078922165901872
 30
0.0
  0
ELLIPSE
  5
33C
330
315
100
AcDbEntity
  8
BLOCKS
100
AcDbEllipse
 10
0.187142317974467
 20
-0.020829188575201
 30
0.0
 11
0.0506347234234452
 21
0.0015632432239369
 31
0.0
210
0.0
220
0.0
230
-1.0
 40
0.0308435645972299
 41
0.0092471236330243
 42
1.571748558297817
  0
LINE
  5
33D
330
315
100
AcDbEntity
  8
BLOCKS
100
AcDbLine
 10
0.1875631668471999
 20
-0.0360240701440921
 30
0.0
 11
0.2382943911483778
 21
-0.0360240701440921
 31
0.0
  0
ELLIPSE
  5
33E
330
315
100
AcDbEntity
  8
BLOCKS
100
AcDbEllipse
 10
0.0735941269653426
 20
0.0258923004160943
 30
0.0
 11
-0.0101414221147288
 21
0.0
 31
0.0
210
0.0
220
0.0
230
-1.0
 40
0.9990482215818579
 41
1.570796326794896
 42
2.967059728390358
  0
ARC
  5
33F
330
315
100
AcDbEntity
  8
BLOCKS
100
AcDbCircle
 10
0.0144214397084488
 20
0.0258923004160943
 30
0.0
 40
0.0101317697280307
100
AcDbArc
 50
90.0
 51
178.0000000000224
  0
LINE
  5
340
330
315
100
AcDbEntity
  8
BLOCKS
100
AcDbLine
 10
0.0144214397084488
 20
0.0360240701441251
 30
0.0
 11
0.0735941269653426
 21
0.0360240701441251
 31
0.0
  0
ARC
  5
341
330
315
100
AcDbEntity
  8
BLOCKS
100
AcDbCircle
 10
0.1084496949892764
 20
0.0035742701842241
 30
0.0
 40
0.0203048527446928
100
AcDbArc
 50
190.0359838388727
 51
271.6352988738679
  0
ARC
  5
342
330
315
100
AcDbEntity
  8
BLOCKS
100
AcDbCircle
 10
0.1084469584755743
 20
0.0035680396646967
 30
0.0
 40
0.0169206977173222
100
AcDbArc
 50
190.0360166023508
 51
271.6360673007066
  0
LINE
  5
343
330
315
100
AcDbEntity
  8
BLOCKS
100
AcDbLine
 10
0.1193323021697097
 20
-0.0131496203429379
 30
0.0
 11
0.1365093146809977
 21
-0.0223779073490346
 31
0.0
  0
LINE
  5
344
330
315
100
AcDbEntity
  8
BLOCKS
100
AcDbLine
 10
0.1185309144580424
 20
-0.0165548364503332
 30
0.0
 11
0.1331932394379112
 21
-0.0244320023375747
 31
0.0
  0
LINE
  5
345
330
315
100
AcDbEntity
  8
BLOCKS
100
AcDbLine
 10
0.1090295368136162
 20
-0.0167223052909935
 30
0.0
 11
0.10981514314322
 21
-0.0166999882262269
 31
0.0
  0
ARC
  5
346
330
315
100
AcDbEntity
  8
BLOCKS
100
AcDbCircle
 10
0.1099749746659586
 20
-0.0223308956407675
 30
0.0
 40
0.0056331720511141
100
AcDbArc
 50
85.05450904138037
 51
91.62593897054476
  0
ARC
  5
347
330
315
100
AcDbEntity
  8
BLOCKS
100
AcDbCircle
 10
0.1115316957708853
 20
-0.0043542119102517
 30
0.0
 40
0.0124107895644523
100
AcDbArc
 50
265.049005580431
 51
271.7681306707082
  0
LINE
  5
348
330
315
100
AcDbEntity
  8
BLOCKS
100
AcDbLine
 10
0.1119146276372476
 20
-0.0167590924336128
 30
0.0
 11
0.1185309189928785
 21
-0.0165548280093208
 31
0.0
  0
ARC
  5
349
330
315
100
AcDbEntity
  8
BLOCKS
100
AcDbCircle
 10
0.1214933707178534
 20
0.0800357656550273
 30
0.0
 40
0.0975236479068699
100
AcDbArc
 50
263.8587194081972
 51
269.1887873179518
  0
SPLINE
  5
34A
330
315
100
AcDbEntity
  8
BLOCKS
100
AcDbSpline
210
0.0
220
0.0
230
1.0
 70
     8
 71
     3
 72
    10
 73
     6
 74
     0
 42
0.0000000001
 43
0.0000000001
 40
0.3265092652215362
 40
0.3265092652215362
 40
0.3265092652215362
 40
0.3265092652215362
 40
0.3349794371390304
 40
0.3349794371390304
 40
0.3356995740055483
 40
0.3356995740055483
 40
0.3356995740055483
 40
0.3356995740055483
 10
0.1104605953781766
 20
-0.0167187234231778
 30
0.0
 10
0.1104360615090445
 20
-0.016795473722209
 30
0.0
 10
0.1106061714626833
 20
-0.0168604440478566
 30
0.0
 10
0.1109951758408863
 20
-0.0169192279470326
 30
0.0
 10
0.1110270275522453
 20
-0.0169237562882086
 30
0.0
 10
0.1110602512681748
 20
-0.0169282075005231
 30
0.0
  0
ELLIPSE
  5
34B
330
315
100
AcDbEntity
  8
BLOCKS
100
AcDbEllipse
 10
0.187611428731459
 20
-0.036024068726631
 30
0.0
 11
0.0506829623731996
 21
-1.641662501875434
 31
0.0
210
0.0
220
0.0
230
-0.9999999999999998
 40
0.03084356459723
 41
1.571748557434385
 42
1.58006106102668
  0
ELLIPSE
  5
34C
330
315
100
AcDbEntity
  8
BLOCKS
100
AcDbEllipse
 10
0.1872024586071257
 20
-0.0227771927338211
 30
0.0
 11
0.054010371651675
 21
0.0016674594388661
 31
0.0
210
0.0
220
0.0
230
-0.9999999999999998
 40
0.0308435645972299
 41
3.141592653589789
 42
3.149164788989674
  0
LINE
  5
34D
330
315
100
AcDbEntity
  8
BLOCKS
100
AcDbLine
 10
0.1335495777336564
 20
-0.0360240701440921
 30
0.0
 11
0.1335496022437655
 21
-0.0360240701440921
 31
0.0
  0
ELLIPSE
  5
34E
330
315
100
AcDbEntity
  8
BLOCKS
100
AcDbEllipse
 10
0.187611428731459
 20
-0.036024068726631
 30
0.0
 11
0.0540618265314129
 21
-1.75110666866713
 31
0.0
210
0.0
220
0.0
230
-1.0
 40
0.03084356459723
 41
1.571748557488351
 42
1.578368462194788
  0
LINE
  5
34F
330
315
100
AcDbEntity
  8
BLOCKS
100
AcDbLine
 10
0.1335496022437655
 20
-0.0360240701440921
 30
0.0
 11
0.136928466401979
 21
-0.0360240701440921
 31
0.0
  0
ARC
  5
350
330
315
100
AcDbEntity
  8
BLOCKS
100
AcDbCircle
 10
0.1115267444152357
 20
-0.0043614186829268
 30
0.0
 40
0.0090248748557812
100
AcDbArc
 50
265.0693633141492
 51
271.7681109955334
  0
ARC
  5
351
330
315
100
AcDbEntity
  8
BLOCKS
100
AcDbCircle
 10
0.1099774836028951
 20
-0.0223333260738582
 30
0.0
 40
0.0090136862056607
100
AcDbArc
 50
85.0766855262718
 51
91.62673388673116
  0
LINE
  5
352
330
315
100
AcDbEntity
  8
BLOCKS
100
AcDbLine
 10
0.1089303815159633
 20
-0.0133457561774776
 30
0.0
 11
0.1097214714921847
 21
-0.0133232742267592
 31
0.0
  0
LINE
  5
353
330
315
100
AcDbEntity
  8
BLOCKS
100
AcDbLine
 10
0.1193323062307695
 20
-0.0131496127839114
 30
0.0
 11
0.1118052150625385
 21
-0.0133819962841881
 31
0.0
  0
LINE
  5
354
330
315
100
AcDbEntity
  8
BLOCKS
100
AcDbLine
 10
0.0033793151635018
 20
0.0000000000000159
 30
0.0
 11
0.0112547800627965
 21
0.0000000000000159
 31
0.0
  0
LINE
  5
355
330
315
100
AcDbEntity
  8
BLOCKS
100
AcDbLine
 10
0.0
 20
0.0000000000000159
 30
0.0
 11
0.0033793151635018
 21
0.0000000000000159
 31
0.0
  0
LINE
  5
356
330
315
100
AcDbEntity
  8
BLOCKS
100
AcDbLine
 10
0.0884618907492473
 20
0.0000000000000159
 30
0.0
 11
0.0112547800627954
 21
0.0000000000000159
 31
0.0
  0
LINE
  5
357
330
315
100
AcDbEntity
  8
BLOCKS
100
AcDbLine
 10
0.000920642738231
 20
0.0263637586350467
 30
0.0
 11
0.0
 21
0.0000000000000159
 31
0.0
  0
LINE
  5
358
330
315
100
AcDbEntity
  8
BLOCKS
100
AcDbLine
 10
0.0033793151635018
 20
0.0000000000000159
 30
0.0
 11
0.0042958419807849
 21
0.0262458940803094
 31
0.0
  0
LINE
  5
359
330
315
100
AcDbEntity
  8
BLOCKS
100
AcDbLine
 10
0.083581478090498
 20
0.0276516637659074
 30
0.0
 11
0.0884555088330967
 21
0.0000359708880251
 31
0.0
  0
LINE
  5
35A
330
315
100
AcDbEntity
  8
BLOCKS
100
AcDbLine
 10
0.0917851472405073
 20
0.0006194713404147
 30
0.0
 11
0.0869105951322149
 21
0.0282381182158451
 31
0.0
  0
ELLIPSE
  5
35B
330
315
100
AcDbEntity
  8
BLOCKS
100
AcDbEllipse
 10
0.187142317974467
 20
-0.020829188575201
 30
0.0
 11
0.0506347234234452
 21
0.0015632432239369
 31
0.0
210
0.0
220
0.0
230
-1.0
 40
0.0308435645972299
 41
1.571748558297817
 42
3.132345381569753
  0
LINE
  5
35C
330
315
100
AcDbEntity
  8
BLOCKS
100
AcDbLine
 10
0.136928466401979
 20
-0.0360240701440921
 30
0.0
 11
0.1875631668471999
 21
-0.0360240701440921
 31
0.0
  0
ELLIPSE
  5
35D
330
315
100
AcDbEntity
  8
BLOCKS
100
AcDbEllipse
 10
0.186841614811176
 20
-0.0110891677820905
 30
0.0
 11
0.0675129645645938
 21
0.0020843242985824
 31
0.0
210
0.0
220
0.0
230
-0.9999999999999998
 40
0.03084356459723
 41
0.1180810878218577
 42
3.02351156576793
  0
ELLIPSE
  5
35E
330
315
100
AcDbEntity
  8
BLOCKS
100
AcDbEllipse
 10
0.0735941269653426
 20
0.0258923004160943
 30
0.0
 11
-0.0135218961529717
 21
0.0
 31
0.0
210
0.0
220
0.0
230
-1.0
 40
0.9990482215818575
 41
1.570796326794896
 42
2.967059728390359
  0
ARC
  5
35F
330
315
100
AcDbEntity
  8
BLOCKS
100
AcDbCircle
 10
0.0144214397084488
 20
0.0258923004160943
 30
0.0
 40
0.0135090263040409
100
AcDbArc
 50
90.0
 51
178.0000000000224
  0
LINE
  5
360
330
315
100
AcDbEntity
  8
BLOCKS
100
AcDbLine
 10
0.7075202250852795
 20
0.008389956760027
 30
0.0
 11
0.2960475982742128
 21
-0.0043134165815968
 31
0.0
  0
LINE
  5
361
330
315
100
AcDbEntity
  8
BLOCKS
100
AcDbLine
 10
0.2962031033509197
 20
-0.0076890897195676
 30
0.0
 11
0.7075975938569958
 21
0.0050118713239112
 31
0.0
  0
LINE
  5
362
330
315
100
AcDbEntity
  8
BLOCKS
100
AcDbLine
 10
0.8163379849793251
 20
0.0394013267201353
 30
0.0
 11
0.1742742146889623
 21
0.0394013267201353
 31
0.0
  0
ENDBLK
  5
364
330
315
100
AcDbEntity
  8
0
100
AcDbBlockEnd
  0
BLOCK
  5
3A4
330
366
100
AcDbEntity
  8
0
100
AcDbBlockBegin
  2
80008AL
 70
     0
 10
0.0
 20
0.0
 30
0.0
  3
80008AL
  1

  0
ARC
  5
367
330
366
100
AcDbEntity
  8
BLOCKS
100
AcDbCircle
 10
0.885632098332311
 20
0.0257961780411233
 30
0.0
 40
0.0134588754997174
100
AcDbArc
 50
1.999999999977573
 51
90.0
  0
LINE
  5
368
330
366
100
AcDbEntity
  8
BLOCKS
100
AcDbLine
 10
0.8990827750487198
 20
0.0262658860222473
 30
0.0
 11
0.9
 21
0.0
 31
0.0
  0
SPLINE
  5
369
330
366
100
AcDbEntity
  8
BLOCKS
100
AcDbSpline
210
0.0
220
0.0
230
1.0
 70
    24
 71
     3
 72
     8
 73
     4
 74
     0
 42
0.0000000001
 43
0.0000000001
 40
0.0001134735278487
 40
0.0001134735278487
 40
0.0001134735278487
 40
0.0001134735278487
 40
0.6133087391166963
 40
0.6133087391166963
 40
0.6133087391166963
 40
0.6133087391166963
 10
0.0059164698858376
 20
0.0362706653558075
 30
0.0
 10
0.0060942177383663
 20
0.0364140843989571
 30
0.0
 10
0.0062754402310839
 20
0.036552828333065
 30
0.0
 10
0.0064601898941385
 20
0.0366869734309876
 30
0.0
  0
SPLINE
  5
36A
330
366
100
AcDbEntity
  8
BLOCKS
100
AcDbSpline
210
0.0
220
0.0
230
1.0
 70
    24
 71
     3
 72
     8
 73
     4
 74
     0
 42
0.0000000001
 43
0.0000000001
 40
0.000750853659572
 40
0.000750853659572
 40
0.000750853659572
 40
0.000750853659572
 40
0.6279648430475672
 40
0.6279648430475672
 40
0.6279648430475672
 40
0.6279648430475672
 10
0.0049658818539137
 20
0.0354265306410434
 30
0.0
 10
0.0051331387717551
 20
0.0355898243031902
 30
0.0
 10
0.0053044572283261
 20
0.0357485599281517
 30
0.0
 10
0.0054799256598301
 20
0.0359028694978088
 30
0.0
  0
ARC
  5
36B
330
366
100
AcDbEntity
  8
BLOCKS
100
AcDbCircle
 10
0.0143694043801065
 20
0.0257947569888052
 30
0.0
 40
0.0134609410741857
100
AcDbArc
 50
135.9766066121985
 51
139.4979530014758
  0
ARC
  5
36C
330
366
100
AcDbEntity
  8
BLOCKS
100
AcDbCircle
 10
0.0143694349685677
 20
0.025794729191806
 30
0.0
 40
0.0134609823865865
100
AcDbArc
 50
135.9766120165672
 51
139.4979475959543
  0
SPLINE
  5
36D
330
366
100
AcDbEntity
  8
BLOCKS
100
AcDbSpline
210
0.0
220
0.0
230
1.0
 70
    24
 71
     3
 72
     8
 73
     4
 74
     0
 42
0.0000000001
 43
0.0000000001
 40
0.3124321241478102
 40
0.3124321241478102
 40
0.3124321241478102
 40
0.3124321241478102
 40
0.4400755897664998
 40
0.4400755897664998
 40
0.4400755897664998
 40
0.4400755897664998
 10
0.0041222943192338
 20
0.034523655311375
 30
0.0
 10
0.004153162203902
 20
0.0345598924331012
 30
0.0
 10
0.0041842295500123
 20
0.0345959728552202
 30
0.0
 10
0.0042154619293297
 20
0.0346318595426055
 30
0.0
  0
SPLINE
  5
36E
330
366
100
AcDbEntity
  8
BLOCKS
100
AcDbSpline
210
0.0
220
0.0
230
1.0
 70
    24
 71
     3
 72
     8
 73
     4
 74
     0
 42
0.0000000001
 43
0.0000000001
 40
0.100749278135084
 40
0.100749278135084
 40
0.100749278135084
 40
0.100749278135084
 40
0.2360262880957258
 40
0.2360262880957258
 40
0.2360262880957258
 40
0.2360262880957258
 10
0.00397033814986
 20
0.0343420552039629
 30
0.0
 10
0.0040023678619446
 20
0.0343810248156933
 30
0.0
 10
0.0040346146502714
 20
0.0344198118161194
 30
0.0
 10
0.0040670783928135
 20
0.0344584163465402
 30
0.0
  0
SPLINE
  5
36F
330
366
100
AcDbEntity
  8
BLOCKS
100
AcDbSpline
210
0.0
220
0.0
230
1.0
 70
    24
 71
     3
 72
     8
 73
     4
 74
     0
 42
0.0000000001
 43
0.0000000001
 40
0.0009246827668595
 40
0.0009246827668595
 40
0.0009246827668595
 40
0.0009246827668595
 40
0.6297264782724758
 40
0.6297264782724758
 40
0.6297264782724758
 40
0.6297264782724758
 10
0.0032821600226725
 20
0.033428213177483
 30
0.0
 10
0.003415201154985
 20
0.0336214607991133
 30
0.0
 10
0.0035531786927686
 20
0.033811045695752
 30
0.0
 10
0.0036960770972155
 20
0.0339970005701298
 30
0.0
  0
SPLINE
  5
370
330
366
100
AcDbEntity
  8
BLOCKS
100
AcDbSpline
210
0.0
220
0.0
230
1.0
 70
    24
 71
     3
 72
     8
 73
     4
 74
     0
 42
0.0000000001
 43
0.0000000001
 40
0.0
 40
0.0
 40
0.0
 40
0.0
 40
0.6467180142216465
 40
0.6467180142216465
 40
0.6467180142216465
 40
0.6467180142216465
 10
0.0025730546500085
 20
0.0322787155417382
 30
0.0
 10
0.0026893420892668
 20
0.0324903008732645
 30
0.0
 10
0.0028112117988144
 20
0.0326985322768474
 30
0.0
 10
0.0029386574984483
 20
0.0329034776293474
 30
0.0
  0
SPLINE
  5
371
330
366
100
AcDbEntity
  8
BLOCKS
100
AcDbSpline
210
0.0
220
0.0
230
1.0
 70
    24
 71
     3
 72
     8
 73
     4
 74
     0
 42
0.0000000001
 43
0.0000000001
 40
0.0124677276981588
 40
0.0124677276981588
 40
0.0124677276981588
 40
0.0124677276981588
 40
0.1480659164682978
 40
0.1480659164682978
 40
0.1480659164682978
 40
0.1480659164682978
 10
0.0022088065908929
 20
0.0315665973015689
 30
0.0
 10
0.0022305164184058
 20
0.0316123429875575
 30
0.0
 10
0.0022524829584916
 20
0.0316579630214119
 30
0.0
 10
0.002274706422354
 20
0.0317034581680241
 30
0.0
  0
SPLINE
  5
372
330
366
100
AcDbEntity
  8
BLOCKS
100
AcDbSpline
210
0.0
220
0.0
230
1.0
 70
    24
 71
     3
 72
     8
 73
     4
 74
     0
 42
0.0000000001
 43
0.0000000001
 40
0.3004102671751336
 40
0.3004102671751336
 40
0.3004102671751336
 40
0.3004102671751336
 40
0.4491131755604984
 40
0.4491131755604984
 40
0.4491131755604984
 40
0.4491131755604984
 10
0.00199116313069
 20
0.0310836796124772
 30
0.0
 10
0.0020129835947
 20
0.031134755848434
 30
0.0
 10
0.0020351259667996
 20
0.0311857086249529
 30
0.0
 10
0.0020575733159694
 20
0.0312365022826293
 30
0.0
  0
SPLINE
  5
373
330
366
100
AcDbEntity
  8
BLOCKS
100
AcDbSpline
210
0.0
220
0.0
230
1.0
 70
    24
 71
     3
 72
     8
 73
     4
 74
     0
 42
0.0000000001
 43
0.0000000001
 40
0.0740721413089952
 40
0.0740721413089952
 40
0.0740721413089952
 40
0.0740721413089952
 40
0.2826536704858385
 40
0.2826536704858385
 40
0.2826536704858385
 40
0.2826536704858385
 10
0.0018937322595411
 20
0.030849537794777
 30
0.0
 10
0.0019229841727883
 20
0.0309217453761835
 30
0.0
 10
0.0019528608150017
 20
0.0309936929259266
 30
0.0
 10
0.0019833602502922
 20
0.0310653775781566
 30
0.0
  0
SPLINE
  5
374
330
366
100
AcDbEntity
  8
BLOCKS
100
AcDbSpline
210
0.0
220
0.0
230
1.0
 70
    24
 71
     3
 72
     8
 73
     4
 74
     0
 42
0.0000000001
 43
0.0000000001
 40
0.0515629488182357
 40
0.0515629488182357
 40
0.0515629488182357
 40
0.0515629488182357
 40
0.5152997359932226
 40
0.5152997359932226
 40
0.5152997359932226
 40
0.5152997359932226
 10
0.001554056969419
 20
0.0299128536670787
 30
0.0
 10
0.0016070544160766
 20
0.0300778086614878
 30
0.0
 10
0.0016632229169386
 20
0.0302416814394496
 30
0.0
 10
0.0017225354513721
 20
0.0304044363725461
 30
0.0
  0
SPLINE
  5
375
330
366
100
AcDbEntity
  8
BLOCKS
100
AcDbSpline
210
0.0
220
0.0
230
1.0
 70
    24
 71
     3
 72
     8
 73
     4
 74
     0
 42
0.0000000001
 43
0.0000000001
 40
0.0
 40
0.0
 40
0.0
 40
0.0
 40
0.4892303104807883
 40
0.4892303104807883
 40
0.4892303104807883
 40
0.4892303104807883
 10
0.0011941919784795
 20
0.0285520906529155
 30
0.0
 10
0.0012316374072691
 20
0.028731070807537
 30
0.0
 10
0.0012727241177652
 20
0.0289092286501932
 30
0.0
 10
0.0013174191115604
 20
0.0290865024702862
 30
0.0
  0
SPLINE
  5
376
330
366
100
AcDbEntity
  8
BLOCKS
100
AcDbSpline
210
0.0
220
0.0
230
1.0
 70
    24
 71
     3
 72
     8
 73
     4
 74
     0
 42
0.0000000001
 43
0.0000000001
 40
0.008021186045674
 40
0.008021186045674
 40
0.008021186045674
 40
0.008021186045674
 40
0.2604231068354923
 40
0.2604231068354923
 40
0.2604231068354923
 40
0.2604231068354923
 10
0.0010076502309175
 20
0.0274225353406723
 30
0.0
 10
0.001019052020838
 20
0.0275161972062256
 30
0.0
 10
0.0010314380925138
 20
0.0276097300612173
 30
0.0
 10
0.0010448062642922
 20
0.0277031281162044
 30
0.0
  0
SPLINE
  5
377
330
366
100
AcDbEntity
  8
BLOCKS
100
AcDbSpline
210
0.0
220
0.0
230
1.0
 70
    24
 71
     3
 72
     8
 73
     4
 74
     0
 42
0.0000000001
 43
0.0000000001
 40
0.1116947240557371
 40
0.1116947240557371
 40
0.1116947240557371
 40
0.1116947240557371
 40
0.2366379037821337
 40
0.2366379037821337
 40
0.2366379037821337
 40
0.2366379037821337
 10
0.0009351578531766
 20
0.0266344639234421
 30
0.0
 10
0.0009380673154726
 20
0.0266810843773305
 30
0.0
 10
0.0009412209226889
 20
0.0267277030526475
 30
0.0
 10
0.0009446158402829
 20
0.0267742914630185
 30
0.0
  0
SPLINE
  5
378
330
366
100
AcDbEntity
  8
BLOCKS
100
AcDbSpline
210
0.0
220
0.0
230
1.0
 70
    28
 71
     3
 72
     8
 73
     4
 74
     0
 42
0.0000000001
 43
0.0000000001
 40
3.176499238629679
 40
3.176499238629679
 40
3.176499238629679
 40
3.176499238629679
 40
3.178930065520264
 40
3.178930065520264
 40
3.178930065520264
 40
3.178930065520264
 10
0.000917224951279
 20
0.026265886022245
 30
0.0
 41
1.0
 10
0.000917569325452
 20
0.0262757476082834
 30
0.0
 41
0.999703869211482
 10
0.0009179245956409
 20
0.0262856102686692
 30
0.0
 41
0.999408207104188
 10
0.0009182907710181
 20
0.0262954739904763
 30
0.0
 41
0.999113013678118
  0
SPLINE
  5
379
330
366
100
AcDbEntity
  8
BLOCKS
100
AcDbSpline
210
0.0
220
0.0
230
1.0
 70
    24
 71
     3
 72
     8
 73
     4
 74
     0
 42
0.0000000001
 43
0.0000000001
 40
0.0173421099187756
 40
0.0173421099187756
 40
0.0173421099187756
 40
0.0173421099187756
 40
0.0183647043476356
 40
0.0183647043476356
 40
0.0183647043476356
 40
0.0183647043476356
 10
0.0010076497953662
 20
0.0274225353903626
 30
0.0
 10
0.0009609631250237
 20
0.0270390682683274
 30
0.0
 10
0.0009307616381159
 20
0.0266535260151045
 30
0.0
 10
0.0009172249512801
 20
0.026265886022245
 30
0.0
  0
ARC
  5
37A
330
366
100
AcDbEntity
  8
BLOCKS
100
AcDbCircle
 10
0.0143685347592737
 20
0.0257958094529954
 30
0.0
 40
0.0134596037847235
100
AcDbArc
 50
153.2218251985501
 51
155.9934438976934
  0
ARC
  5
37B
330
366
100
AcDbEntity
  8
BLOCKS
100
AcDbCircle
 10
0.0143685346838697
 20
0.0257958094887863
 30
0.0
 40
0.0134596037012814
100
AcDbArc
 50
153.2218251892975
 51
155.9934439023987
  0
ARC
  5
37C
330
366
100
AcDbEntity
  8
BLOCKS
100
AcDbCircle
 10
0.0143685347030112
 20
0.0257958094797004
 30
0.0
 40
0.0134596037224634
100
AcDbArc
 50
153.221825190167
 51
155.9934439004738
  0
SPLINE
  5
37D
330
366
100
AcDbEntity
  8
BLOCKS
100
AcDbSpline
210
0.0
220
0.0
230
1.0
 70
    24
 71
     3
 72
     8
 73
     4
 74
     0
 42
0.0000000001
 43
0.0000000001
 40
0.0013055160610705
 40
0.0013055160610705
 40
0.0013055160610705
 40
0.0013055160610705
 40
0.5833286401452073
 40
0.5833286401452073
 40
0.5833286401452073
 40
0.5833286401452073
 10
0.0020732013652457
 20
0.0312717304505486
 30
0.0
 10
0.0021615250182185
 20
0.0314700506416921
 30
0.0
 10
0.002254617230335
 20
0.0316661582260645
 30
0.0
 10
0.0023523724975053
 20
0.0318598657308166
 30
0.0
  0
ARC
  5
37E
330
366
100
AcDbEntity
  8
BLOCKS
100
AcDbCircle
 10
0.0143732740084352
 20
0.0257860579803457
 30
0.0
 40
0.0134702889471366
100
AcDbArc
 50
114.3405624759056
 51
122.9942249953439
  0
SPLINE
  5
37F
330
366
100
AcDbEntity
  8
BLOCKS
100
AcDbSpline
210
0.0
220
0.0
230
1.0
 70
    24
 71
     3
 72
     8
 73
     4
 74
     0
 42
0.0000000001
 43
0.0000000001
 40
0.0
 40
0.0
 40
0.0
 40
0.0
 40
0.6006591748197549
 40
0.6006591748197549
 40
0.6006591748197549
 40
0.6006591748197549
 10
0.0069244819491519
 20
0.0370094310755485
 30
0.0
 10
0.0071107735028374
 20
0.0371330936488516
 30
0.0
 10
0.0072999829957325
 20
0.0372519984828296
 30
0.0
 10
0.0074921382025309
 20
0.0373661912869375
 30
0.0
  0
SPLINE
  5
380
330
366
100
AcDbEntity
  8
BLOCKS
100
AcDbSpline
210
0.0
220
0.0
230
1.0
 70
    24
 71
     3
 72
     8
 73
     4
 74
     0
 42
0.0000000001
 43
0.0000000001
 40
0.0
 40
0.0
 40
0.0
 40
0.0
 40
0.1441348045880068
 40
0.1441348045880068
 40
0.1441348045880068
 40
0.1441348045880068
 10
0.0141333138669438
 20
0.0392530089579964
 30
0.0
 10
0.0141868558630449
 20
0.0392539423359267
 30
0.0
 10
0.0142404031632282
 20
0.0392545561523434
 30
0.0
 10
0.0142939517364289
 20
0.0392548503799753
 30
0.0
  0
SPLINE
  5
381
330
366
100
AcDbEntity
  8
BLOCKS
100
AcDbSpline
210
0.0
220
0.0
230
1.0
 70
    24
 71
     3
 72
     8
 73
     4
 74
     0
 42
0.0000000001
 43
0.0000000001
 40
0.000998462198048
 40
0.000998462198048
 40
0.000998462198048
 40
0.000998462198048
 40
0.153704426379059
 40
0.153704426379059
 40
0.153704426379059
 40
0.153704426379059
 10
0.0138990922787753
 20
0.0392468861328916
 30
0.0
 10
0.0139557928918225
 20
0.0392488623752752
 30
0.0
 10
0.014012501860384
 20
0.0392504799441508
 30
0.0
 10
0.0140692240619308
 20
0.0392517390255193
 30
0.0
  0
SPLINE
  5
382
330
366
100
AcDbEntity
  8
BLOCKS
100
AcDbSpline
210
0.0
220
0.0
230
1.0
 70
    24
 71
     3
 72
     8
 73
     4
 74
     0
 42
0.0000000001
 43
0.0000000001
 40
0.000001516566585
 40
0.000001516566585
 40
0.000001516566585
 40
0.000001516566585
 40
0.3097950117676067
 40
0.3097950117676067
 40
0.3097950117676067
 40
0.3097950117676067
 10
0.013427328481489
 20
0.0392221477393832
 30
0.0
 10
0.0135421493133254
 20
0.0392301917588293
 30
0.0
 10
0.0136570398927756
 20
0.0392367604614015
 30
0.0
 10
0.0137720379879204
 20
0.0392418567592859
 30
0.0
  0
SPLINE
  5
383
330
366
100
AcDbEntity
  8
BLOCKS
100
AcDbSpline
210
0.0
220
0.0
230
1.0
 70
    24
 71
     3
 72
     8
 73
     4
 74
     0
 42
0.0000000001
 43
0.0000000001
 40
0.0000742798340711
 40
0.0000742798340711
 40
0.0000742798340711
 40
0.0000742798340711
 40
0.6271650236254361
 40
0.6271650236254361
 40
0.6271650236254361
 40
0.6271650236254361
 10
0.0124851986302815
 20
0.0391227274125186
 30
0.0
 10
0.0127159323919716
 20
0.0391553259858438
 30
0.0
 10
0.0129472459875433
 20
0.0391818943673593
 30
0.0
 10
0.0131794328431022
 20
0.0392024777382767
 30
0.0
  0
SPLINE
  5
384
330
366
100
AcDbEntity
  8
BLOCKS
100
AcDbSpline
210
0.0
220
0.0
230
1.0
 70
    24
 71
     3
 72
     8
 73
     4
 74
     0
 42
0.0000000001
 43
0.0000000001
 40
0.000133978016628
 40
0.000133978016628
 40
0.000133978016628
 40
0.000133978016628
 40
0.6017313931451374
 40
0.6017313931451374
 40
0.6017313931451374
 40
0.6017313931451374
 10
0.011348858251597
 20
0.0389120796951625
 30
0.0
 10
0.0115667545309941
 20
0.0389622367667175
 30
0.0
 10
0.0117856767298497
 20
0.0390069100624601
 30
0.0
 10
0.0120058049675413
 20
0.0390461527164234
 30
0.0
  0
SPLINE
  5
385
330
366
100
AcDbEntity
  8
BLOCKS
100
AcDbSpline
210
0.0
220
0.0
230
1.0
 70
    24
 71
     3
 72
     8
 73
     4
 74
     0
 42
0.0000000001
 43
0.0000000001
 40
0.0
 40
0.0
 40
0.0
 40
0.0
 40
0.5945062150779238
 40
0.5945062150779238
 40
0.5945062150779238
 40
0.5945062150779238
 10
0.0102125131119249
 20
0.0385975167373226
 30
0.0
 10
0.0104227366879286
 20
0.0386657577406754
 30
0.0
 10
0.0106344168098735
 20
0.0387287439833199
 30
0.0
 10
0.0108477240831644
 20
0.038786546761462
 30
0.0
  0
SPLINE
  5
386
330
366
100
AcDbEntity
  8
BLOCKS
100
AcDbSpline
210
0.0
220
0.0
230
1.0
 70
    24
 71
     3
 72
     8
 73
     4
 74
     0
 42
0.0000000001
 43
0.0000000001
 40
0.0011523647626989
 40
0.0011523647626989
 40
0.0011523647626989
 40
0.0011523647626989
 40
0.2850554946392823
 40
0.2850554946392823
 40
0.2850554946392823
 40
0.2850554946392823
 10
0.0094099901266691
 20
0.038308590184065
 30
0.0
 10
0.0095081356163905
 20
0.0383474793367236
 30
0.0
 10
0.0096067143450387
 20
0.03838520370482
 30
0.0
 10
0.0097057353478681
 20
0.0384217685193244
 30
0.0
  0
SPLINE
  5
387
330
366
100
AcDbEntity
  8
BLOCKS
100
AcDbSpline
210
0.0
220
0.0
230
1.0
 70
    24
 71
     3
 72
     8
 73
     4
 74
     0
 42
0.0000000001
 43
0.0000000001
 40
0.0313302222053949
 40
0.0313302222053949
 40
0.0313302222053949
 40
0.0313302222053949
 40
0.1324100548621208
 40
0.1324100548621208
 40
0.1324100548621208
 40
0.1324100548621208
 10
0.0090292126228849
 20
0.0381509232809231
 30
0.0
 10
0.0090637193084126
 20
0.0381658341804473
 30
0.0
 10
0.0090982870188259
 20
0.0381805998781715
 30
0.0
 10
0.009132916234455
 20
0.0381952206349547
 30
0.0
  0
SPLINE
  5
388
330
366
100
AcDbEntity
  8
BLOCKS
100
AcDbSpline
210
0.0
220
0.0
230
1.0
 70
    24
 71
     3
 72
     8
 73
     4
 74
     0
 42
0.0000000001
 43
0.0000000001
 40
0.5982618889570395
 40
0.5982618889570395
 40
0.5982618889570395
 40
0.5982618889570395
 40
0.7314159822996065
 40
0.7314159822996065
 40
0.7314159822996065
 40
0.7314159822996065
 10
0.0085834940376606
 20
0.0379486246283978
 30
0.0
 10
0.008628222435957
 20
0.0379699147267252
 30
0.0
 10
0.0086730693450681
 20
0.0379909573475561
 30
0.0
 10
0.0087179827156592
 20
0.0380117305936801
 30
0.0
  0
SPLINE
  5
389
330
366
100
AcDbEntity
  8
BLOCKS
100
AcDbSpline
210
0.0
220
0.0
230
1.0
 70
    24
 71
     3
 72
     8
 73
     4
 74
     0
 42
0.0000000001
 43
0.0000000001
 40
0.0115970127159056
 40
0.0115970127159056
 40
0.0115970127159056
 40
0.0115970127159056
 40
0.5911819884153712
 40
0.5911819884153712
 40
0.5911819884153712
 40
0.5911819884153712
 10
0.0079995151561502
 20
0.0376530401958826
 30
0.0
 10
0.0081894865092499
 20
0.0377550755465973
 30
0.0
 10
0.0083817636191918
 20
0.0378524610177533
 30
0.0
 10
0.0085763611981406
 20
0.0379452269239869
 30
0.0
  0
SPLINE
  5
38A
330
366
100
AcDbEntity
  8
BLOCKS
100
AcDbSpline
210
0.0
220
0.0
230
1.0
 70
    24
 71
     3
 72
     8
 73
     4
 74
     0
 42
0.0000000001
 43
0.0000000001
 40
0.0008143108153806
 40
0.0008143108153806
 40
0.0008143108153806
 40
0.0008143108153806
 40
0.0010364712637102
 40
0.0010364712637102
 40
0.0010364712637102
 40
0.0010364712637102
 10
0.0134273284720916
 20
0.0392221478748275
 30
0.0
 10
0.0133445667387241
 20
0.039216349977321
 30
0.0
 10
0.013261935093725
 20
0.0392097919391358
 30
0.0
 10
0.0131794328291653
 20
0.0392024778974678
 30
0.0
  0
SPLINE
  5
38B
330
366
100
AcDbEntity
  8
BLOCKS
100
AcDbSpline
210
0.0
220
0.0
230
1.0
 70
    24
 71
     3
 72
     8
 73
     4
 74
     0
 42
0.0000000001
 43
0.0000000001
 40
0.0003934439954419
 40
0.0003934439954419
 40
0.0003934439954419
 40
0.0003934439954419
 40
0.0005065437394514
 40
0.0005065437394514
 40
0.0005065437394514
 40
0.0005065437394514
 10
0.0138990922786547
 20
0.0392468859954238
 30
0.0
 10
0.0138567067710119
 20
0.0392454086360863
 30
0.0
 10
0.0138143553902649
 20
0.0392437318640578
 30
0.0
 10
0.0137720379974064
 20
0.0392418564916375
 30
0.0
  0
LINE
  5
38C
330
366
100
AcDbEntity
  8
BLOCKS
100
AcDbLine
 10
0.2526031593374773
 20
0.0392550535408418
 30
0.0
 11
0.014367901667689
 21
0.0392550535408418
 31
0.0
  0
ELLIPSE
  5
38D
330
366
100
AcDbEntity
  8
BLOCKS
100
AcDbEllipse
 10
0.3178547598688556
 20
0.0105989632574006
 30
0.0
 11
0.0005925743684305
 21
-0.0201796146514469
 31
0.0
210
0.0
220
0.0
230
1.0
 40
0.0487645876326271
 41
0.0000441856702578
 42
0.0308852128808998
  0
ELLIPSE
  5
38E
330
366
100
AcDbEntity
  8
BLOCKS
100
AcDbEllipse
 10
0.3134746864528165
 20
0.0103408876189133
 30
0.0
 11
0.0017807356861815
 21
-0.0201096238721407
 31
0.0
210
0.0
220
0.0
230
0.9999999999999998
 40
0.0589559963099432
 41
0.0000462324793989
 42
0.0357997357572353
  0
LINE
  5
38F
330
366
100
AcDbEntity
  8
BLOCKS
100
AcDbLine
 10
0.2403187239253373
 20
-0.0210757509507357
 30
0.0
 11
0.2543212781311309
 21
-0.0124204867937965
 31
0.0
  0
LINE
  5
390
330
366
100
AcDbEntity
  8
BLOCKS
100
AcDbLine
 10
0.2407760938099227
 20
-0.0358903346659145
 30
0.0
 11
0.2403173536213023
 21
-0.0210313656850531
 31
0.0
  0
ELLIPSE
  5
391
330
366
100
AcDbEntity
  8
BLOCKS
100
AcDbEllipse
 10
0.1862517653755617
 20
-0.0144095168498871
 30
0.0
 11
0.0681634743090144
 21
0.0021044074526181
 31
0.0
210
0.0
220
0.0
230
1.0
 40
0.0308435645972299
 41
6.229711776691842
 42
7.853029402471555
  0
ELLIPSE
  5
392
330
366
100
AcDbEntity
  8
BLOCKS
100
AcDbEllipse
 10
0.1865074896538363
 20
-0.0226926348604502
 30
0.0
 11
-0.0538098639674658
 21
-0.0016612691753966
 31
0.0
210
0.0
220
0.0
230
0.9999999999999998
 40
0.0308435645972331
 41
3.141592653589797
 42
4.711436748881769
  0
ARC
  5
393
330
366
100
AcDbEntity
  8
BLOCKS
100
AcDbCircle
 10
0.1524931354545333
 20
1.828734124566044
 30
0.0
 40
1.845693433142125
100
AcDbArc
 50
273.0673035491106
 51
275.0591958142856
  0
ARC
  5
394
330
366
100
AcDbEntity
  8
BLOCKS
100
AcDbCircle
 10
0.3200409347748632
 20
-0.0638047477158966
 30
0.0
 40
0.0542475260058563
100
AcDbArc
 50
91.68334418487031
 51
95.06094091817734
  0
ARC
  5
395
330
366
100
AcDbEntity
  8
BLOCKS
100
AcDbCircle
 10
0.1135568560799083
 20
0.0150073309421976
 30
0.0
 40
0.032876826345704
100
AcDbArc
 50
216.6134411311862
 51
248.9816211995638
  0
LINE
  5
396
330
366
100
AcDbEntity
  8
BLOCKS
100
AcDbLine
 10
0.0871683679077887
 20
-0.0046021923196156
 30
0.0
 11
0.079513398143406
 21
0.0
 31
0.0
  0
LINE
  5
397
330
366
100
AcDbEntity
  8
BLOCKS
100
AcDbLine
 10
0.132698995990404
 20
-0.02439828930153
 30
0.0
 11
0.1181891909708543
 21
-0.0166232857512216
 31
0.0
  0
LINE
  5
398
330
366
100
AcDbEntity
  8
BLOCKS
100
AcDbLine
 10
0.1330537893185886
 20
-0.0358903346659145
 30
0.0
 11
0.132697625686369
 21
-0.0243539040358462
 31
0.0
  0
ARC
  5
399
330
366
100
AcDbEntity
  8
BLOCKS
100
AcDbCircle
 10
0.120977344070875
 20
0.0780729379316608
 30
0.0
 40
0.0954966925284562
100
AcDbArc
 50
264.3046596427019
 51
269.2137386192986
  0
ARC
  5
39A
330
366
100
AcDbEntity
  8
BLOCKS
100
AcDbCircle
 10
0.1105198582509774
 20
0.0134734501069727
 30
0.0
 40
0.0304415938969679
100
AcDbArc
 50
253.2860562707254
 51
271.8457833317719
  0
LINE
  5
39B
330
366
100
AcDbEntity
  8
BLOCKS
100
AcDbLine
 10
0.0
 20
0.0
 30
0.0
 11
0.0069558089873237
 21
0.0
 31
0.0
  0
ELLIPSE
  5
39C
330
366
100
AcDbEntity
  8
BLOCKS
100
AcDbEllipse
 10
0.1865074896538363
 20
-0.0226926348604502
 30
0.0
 11
-0.0538098639674658
 21
-0.0016612691753966
 31
0.0
210
0.0
220
0.0
230
0.9999999999999998
 40
0.0308435645972331
 41
4.711436748881769
 42
6.283185307179588
  0
LINE
  5
39D
330
366
100
AcDbEntity
  8
BLOCKS
100
AcDbLine
 10
0.1330537893185886
 20
-0.0358903346659145
 30
0.0
 11
0.2407760938099227
 21
-0.0358903346659145
 31
0.0
  0
LINE
  5
39E
330
366
100
AcDbEntity
  8
BLOCKS
100
AcDbLine
 10
0.0069558089873237
 20
0.0
 30
0.0
 11
0.2526031593374773
 21
0.0
 31
0.0
  0
ELLIPSE
  5
39F
330
366
100
AcDbEntity
  8
BLOCKS
100
AcDbEllipse
 10
0.1862517653755617
 20
-0.0144095168498871
 30
0.0
 11
0.0681634743090144
 21
0.0021044074526181
 31
0.0
210
0.0
220
0.0
230
1.0
 40
0.0308435645972299
 41
1.569844095291969
 42
3.195066184077526
  0
LINE
  5
3A0
330
366
100
AcDbEntity
  8
BLOCKS
100
AcDbLine
 10
0.0
 20
0.0
 30
0.0
 11
0.000917224951279
 21
0.026265886022245
 31
0.0
  0
LINE
  5
3A1
330
366
100
AcDbEntity
  8
BLOCKS
100
AcDbLine
 10
0.6447082451736515
 20
0.0
 30
0.0
 11
0.3184473342372871
 21
-0.0095806513940465
 31
0.0
  0
LINE
  5
3A2
330
366
100
AcDbEntity
  8
BLOCKS
100
AcDbLine
 10
0.885632098332311
 20
0.0392550535408418
 30
0.0
 11
0.2526031593374773
 21
0.0392550535408418
 31
0.0
  0
LINE
  5
3A3
330
366
100
AcDbEntity
  8
BLOCKS
100
AcDbLine
 10
0.2526031593374773
 20
0.0
 30
0.0
 11
0.9
 21
0.0
 31
0.0
  0
ENDBLK
  5
3A5
330
366
100
AcDbEntity
  8
0
100
AcDbBlockEnd
  0
BLOCK
  5
3B6
330
3B4
100
AcDbEntity
  8
0
100
AcDbBlockBegin
  2
x
 70
     0
 10
0.0
 20
0.0
 30
0.0
  3
x
  1

  0
INSERT
  5
3B5
330
3B4
100
AcDbEntity
  8
0
100
AcDbBlockReference
  2
80008CT
 10
0.0
 20
-0.0000000000000284
 30
0.0
  0
ENDBLK
  5
3B7
330
3B4
100
AcDbEntity
  8
0
100
AcDbBlockEnd
  0
ENDSEC
  0
SECTION
  2
ENTITIES
  0
INSERT
  5
314
330
23
100
AcDbEntity
  8
0
100
AcDbBlockReference
  2
80008PL
 10
35.37655579753548
 20
185.6690757194312
 30
0.0
  0
INSERT
  5
365
330
23
100
AcDbEntity
  8
0
100
AcDbBlockReference
  2
80008CT
 10
36.71417053531921
 20
185.3193219410335
 30
0.0
  0
INSERT
  5
3A6
330
23
100
AcDbEntity
  8
0
100
AcDbBlockReference
  2
80008AL
 10
37.88148710127447
 20
185.3193219410336
 30
0.0
  0
INSERT
  5
3A7
330
23
100
AcDbEntity
  8
0
100
AcDbBlockReference
  2
80009AF
 10
39.08286329289031
 20
185.3193219410336
 30
0.0
  0
ENDSEC
  0
SECTION
  2
OBJECTS
  0
DICTIONARY
  5
C
330
0
100
AcDbDictionary
281
     1
  3
ACAD_COLOR
350
1C
  3
ACAD_GROUP
350
D
  3
ACAD_LAYOUT
350
1A
  3
ACAD_MATERIAL
350
1B
  3
ACAD_MLEADERSTYLE
350
40E
  3
ACAD_MLINESTYLE
350
17
  3
ACAD_PLOTSETTINGS
350
19
  3
ACAD_PLOTSTYLENAME
350
E
  3
ACAD_SCALELIST
350
3FC
  3
ACAD_TABLESTYLE
350
1D
  3
ACAD_VISUALSTYLE
350
3E8
  3
ACDB_RECOMPOSE_DATA
350
41D
  3
AcDbVariableDictionary
350
158
  3
DWGPROPS
350
41E
  0
DICTIONARY
  5
412
330
10
100
AcDbDictionary
280
     1
281
     1
  3
ADSK_XREC_LAYER_RECONCILED
360
413
  0
DICTIONARY
  5
414
330
2F
100
AcDbDictionary
280
     1
281
     1
  3
ADSK_XREC_LAYER_RECONCILED
360
415
  0
DICTIONARY
  5
9D
330
31
100
AcDbDictionary
280
     1
281
     1
  0
DICTIONARY
  5
153
330
A2
100
AcDbDictionary
280
     1
281
     1
  0
DICTIONARY
  5
186
330
15A
100
AcDbDictionary
280
     1
281
     1
  0
DICTIONARY
  5
1B0
330
18A
100
AcDbDictionary
280
     1
281
     1
  0
DICTIONARY
  5
20E
330
1BF
100
AcDbDictionary
280
     1
281
     1
  0
DICTIONARY
  5
279
330
212
100
AcDbDictionary
280
     1
281
     1
  0
DICTIONARY
  5
29B
330
27D
100
AcDbDictionary
280
     1
281
     1
  0
DICTIONARY
  5
2BC
330
29F
100
AcDbDictionary
280
     1
281
     1
  0
DICTIONARY
  5
1C
102
{ACAD_REACTORS
330
C
102
}
330
C
100
AcDbDictionary
281
     1
  0
DICTIONARY
  5
D
102
{ACAD_REACTORS
330
C
102
}
330
C
100
AcDbDictionary
281
     1
  0
DICTIONARY
  5
1A
102
{ACAD_REACTORS
330
C
102
}
330
C
100
AcDbDictionary
281
     1
  3
Layout1
350
22
  3
Layout2
350
2A
  3
Model
350
26
  0
DICTIONARY
  5
1B
102
{ACAD_REACTORS
330
C
102
}
330
C
100
AcDbDictionary
281
     1
  3
ByBlock
350
3D8
  3
ByLayer
350
3D0
  3
Global
350
3E0
  0
DICTIONARY
  5
40E
102
{ACAD_REACTORS
330
C
102
}
330
C
100
AcDbDictionary
281
     1
  3
Standard
350
40F
  0
DICTIONARY
  5
17
102
{ACAD_REACTORS
330
C
102
}
330
C
100
AcDbDictionary
281
     1
  3
Standard
350
18
  0
DICTIONARY
  5
19
102
{ACAD_REACTORS
330
C
102
}
330
C
100
AcDbDictionary
281
     1
  0
ACDBDICTIONARYWDFLT
  5
E
102
{ACAD_REACTORS
330
C
102
}
330
C
100
AcDbDictionary
281
     1
  3
Normal
350
F
100
AcDbDictionaryWithDefault
340
F
  0
DICTIONARY
  5
3FC
102
{ACAD_REACTORS
330
C
102
}
330
C
100
AcDbDictionary
281
     1
  3
A0
350
3FD
  3
A1
350
3FE
  3
A2
350
3FF
  3
A3
350
400
  3
A4
350
401
  3
A5
350
402
  3
A6
350
403
  3
A7
350
404
  3
A8
350
405
  3
A9
350
406
  3
B0
350
407
  3
B1
350
408
  3
B2
350
409
  3
B3
350
40A
  3
B4
350
40B
  3
B5
350
40C
  3
B6
350
40D
  0
DICTIONARY
  5
1D
102
{ACAD_REACTORS
330
C
102
}
330
C
100
AcDbDictionary
281
     1
  3
Standard
350
1E
  0
DICTIONARY
  5
3E8
102
{ACAD_REACTORS
330
C
102
}
330
C
100
AcDbDictionary
281
     1
  3
2dWireframe
350
3EE
  3
3D Hidden
350
3F0
  3
3dWireframe
350
3EF
  3
Basic
350
3ED
  3
Brighten
350
3F4
  3
ColorChange
350
3F8
  3
Conceptual
350
3F1
  3
Dim
350
3F3
  3
EdgeColorOff
350
3FB
  3
Facepattern
350
3F7
  3
Flat
350
3E9
  3
FlatWithEdges
350
3EA
  3
Gouraud
350
3EB
  3
GouraudWithEdges
350
3EC
  3
JitterOff
350
3F9
  3
Linepattern
350
3F6
  3
OverhangOff
350
3FA
  3
Realistic
350
3F2
  3
Thicken
350
3F5
  0
XRECORD
  5
41D
102
{ACAD_REACTORS
330
C
102
}
330
C
100
AcDbXrecord
280
     1
 90
        1
330
1E
  0
DICTIONARY
  5
158
102
{ACAD_REACTORS
330
C
102
}
330
C
100
AcDbDictionary
281
     1
  3
CANNOSCALE
350
417
  3
CMLEADERSTYLE
350
416
  3
CTABLESTYLE
350
159
  3
DIMASSOC
350
3C1
  3
HIDETEXT
350
3C0
  3
INDEXCTL
350
419
  3
PROJECTNAME
350
3C2
  3
SORTENTS
350
418
  3
XCLIPFRAME
350
41A
  0
XRECORD
  5
41E
102
{ACAD_REACTORS
330
C
102
}
330
C
100
AcDbXrecord
280
     1
  1
DWGPROPS COOKIE
  2

  3

  4

  6

  7

  8
Julio
  9

300
=
301
=
302
=
303
=
304
=
305
=
306
=
307
=
308
=
309
=
 40
0.0059387615740741
 41
2453910.764054722
 42
2456150.736266632
  1

 90
        0
  0
XRECORD
  5
413
102
{ACAD_REACTORS
330
412
102
}
330
412
100
AcDbXrecord
280
     1
290
     1
  0
XRECORD
  5
415
102
{ACAD_REACTORS
330
414
102
}
330
414
100
AcDbXrecord
280
     1
290
     1
  0
LAYOUT
  5
22
102
{ACAD_XDICTIONARY
360
420
102
}
102
{ACAD_REACTORS
330
1A
102
}
330
1A
100
AcDbPlotSettings
  1

  2
HP DesignJet 500PS42+HPGL2 Card
  4

  6

 40
0.0
 41
0.0
 42
0.0
 43
0.0
 44
0.0
 45
0.0
 46
0.0
 47
0.0
 48
0.0
 49
0.0
140
0.0
141
0.0
142
1.0
143
1.0
 70
   688
 72
     0
 73
     0
 74
     5
  7
C:\Documents and Settings\Julio\Application Data\Autodesk\AutoCAD 2006\R16.2\enu\Plot Styles\sanindusa.ctb
 75
    16
147
1.0
148
0.0
149
0.0
100
AcDbLayout
  1
Layout1
 70
     1
 71
     1
 10
0.0
 20
0.0
 11
420.0
 21
297.0
 12
0.0
 22
0.0
 32
0.0
 14
1.000000000000000E+20
 24
1.000000000000000E+20
 34
1.000000000000000E+20
 15
-1.000000000000000E+20
 25
-1.000000000000000E+20
 35
-1.000000000000000E+20
146
0.0
 13
0.0
 23
0.0
 33
0.0
 16
1.0
 26
0.0
 36
0.0
 17
0.0
 27
1.0
 37
0.0
 76
     0
330
1F
  0
LAYOUT
  5
2A
102
{ACAD_XDICTIONARY
360
424
102
}
102
{ACAD_REACTORS
330
1A
102
}
330
1A
100
AcDbPlotSettings
  1

  2
HP DesignJet 500PS42+HPGL2 Card
  4

  6

 40
0.0
 41
0.0
 42
0.0
 43
0.0
 44
0.0
 45
0.0
 46
0.0
 47
0.0
 48
0.0
 49
0.0
140
0.0
141
0.0
142
1.0
143
1.0
 70
   688
 72
     0
 73
     0
 74
     5
  7
C:\Documents and Settings\Julio\Application Data\Autodesk\AutoCAD 2006\R16.2\enu\Plot Styles\sanindusa.ctb
 75
    16
147
1.0
148
0.0
149
0.0
100
AcDbLayout
  1
Layout2
 70
     1
 71
     2
 10
0.0
 20
0.0
 11
12.0
 21
9.0
 12
0.0
 22
0.0
 32
0.0
 14
0.0
 24
0.0
 34
0.0
 15
0.0
 25
0.0
 35
0.0
146
0.0
 13
0.0
 23
0.0
 33
0.0
 16
1.0
 26
0.0
 36
0.0
 17
0.0
 27
1.0
 37
0.0
 76
     0
330
27
  0
LAYOUT
  5
26
102
{ACAD_XDICTIONARY
360
422
102
}
102
{ACAD_REACTORS
330
1A
102
}
330
1A
100
AcDbPlotSettings
  1

  2
HP DesignJet 500PS42+HPGL2 Card
  4

  6

 40
0.0
 41
0.0
 42
0.0
 43
0.0
 44
0.0
 45
0.0
 46
0.0
 47
0.0
 48
0.0
 49
0.0
140
0.0
141
0.0
142
1.0
143
1.0
 70
  1712
 72
     0
 73
     0
 74
     0
  7
C:\Documents and Settings\Julio\Application Data\Autodesk\AutoCAD 2006\R16.2\enu\Plot Styles\sanindusa.ctb
 75
     0
147
1.0
148
0.0
149
0.0
100
AcDbLayout
  1
Model
 70
     1
 71
     0
 10
0.0
 20
0.0
 11
12.0
 21
9.0
 12
0.0
 22
0.0
 32
0.0
 14
0.0
 24
0.0
 34
0.0
 15
0.0
 25
0.0
 35
0.0
146
0.0
 13
0.0
 23
0.0
 33
0.0
 16
1.0
 26
0.0
 36
0.0
 17
0.0
 27
1.0
 37
0.0
 76
     0
330
23
331
3C7
  0
MATERIAL
  5
3D8
102
{ACAD_XDICTIONARY
360
3D9
102
}
102
{ACAD_REACTORS
330
1B
102
}
330
1B
100
AcDbMaterial
  1
ByBlock
 72
     0
 43
0.0008202099737533
 43
0.0
 43
0.0
 43
0.0
 43
0.0
 43
0.0008202099737533
 43
0.0
 43
0.0
 43
0.0
 43
0.0
 43
1.0
 43
0.0
 43
0.0
 43
0.0
 43
0.0
 43
1.0
 77
     0
 47
0.0008202099737533
 47
0.0
 47
0.0
 47
0.0
 47
0.0
 47
0.0008202099737533
 47
0.0
 47
0.0
 47
0.0
 47
0.0
 47
1.0
 47
0.0
 47
0.0
 47
0.0
 47
0.0
 47
1.0
171
     0
 49
0.0008202099737533
 49
0.0
 49
0.0
 49
0.0
 49
0.0
 49
0.0008202099737533
 49
0.0
 49
0.0
 49
0.0
 49
0.0
 49
1.0
 49
0.0
 49
0.0
 49
0.0
 49
0.0
 49
1.0
175
     0
142
0.0008202099737533
142
0.0
142
0.0
142
0.0
142
0.0
142
0.0008202099737533
142
0.0
142
0.0
142
0.0
142
0.0
142
1.0
142
0.0
142
0.0
142
0.0
142
0.0
142
1.0
179
     0
144
0.0008202099737533
144
0.0
144
0.0
144
0.0
144
0.0
144
0.0008202099737533
144
0.0
144
0.0
144
0.0
144
0.0
144
1.0
144
0.0
144
0.0
144
0.0
144
0.0
144
1.0
147
0.0008202099737533
147
0.0
147
0.0
147
0.0
147
0.0
147
0.0008202099737533
147
0.0
147
0.0
147
0.0
147
0.0
147
1.0
147
0.0
147
0.0
147
0.0
147
0.0
147
1.0
  0
MATERIAL
  5
3D0
102
{ACAD_XDICTIONARY
360
3D1
102
}
102
{ACAD_REACTORS
330
1B
102
}
330
1B
100
AcDbMaterial
  1
ByLayer
 72
     0
 43
0.0008202099737533
 43
0.0
 43
0.0
 43
0.0
 43
0.0
 43
0.0008202099737533
 43
0.0
 43
0.0
 43
0.0
 43
0.0
 43
1.0
 43
0.0
 43
0.0
 43
0.0
 43
0.0
 43
1.0
 77
     0
 47
0.0008202099737533
 47
0.0
 47
0.0
 47
0.0
 47
0.0
 47
0.0008202099737533
 47
0.0
 47
0.0
 47
0.0
 47
0.0
 47
1.0
 47
0.0
 47
0.0
 47
0.0
 47
0.0
 47
1.0
171
     0
 49
0.0008202099737533
 49
0.0
 49
0.0
 49
0.0
 49
0.0
 49
0.0008202099737533
 49
0.0
 49
0.0
 49
0.0
 49
0.0
 49
1.0
 49
0.0
 49
0.0
 49
0.0
 49
0.0
 49
1.0
175
     0
142
0.0008202099737533
142
0.0
142
0.0
142
0.0
142
0.0
142
0.0008202099737533
142
0.0
142
0.0
142
0.0
142
0.0
142
1.0
142
0.0
142
0.0
142
0.0
142
0.0
142
1.0
179
     0
144
0.0008202099737533
144
0.0
144
0.0
144
0.0
144
0.0
144
0.0008202099737533
144
0.0
144
0.0
144
0.0
144
0.0
144
1.0
144
0.0
144
0.0
144
0.0
144
0.0
144
1.0
147
0.0008202099737533
147
0.0
147
0.0
147
0.0
147
0.0
147
0.0008202099737533
147
0.0
147
0.0
147
0.0
147
0.0
147
1.0
147
0.0
147
0.0
147
0.0
147
0.0
147
1.0
  0
MATERIAL
  5
3E0
102
{ACAD_XDICTIONARY
360
3E1
102
}
102
{ACAD_REACTORS
330
1B
102
}
330
1B
100
AcDbMaterial
  1
Global
 72
     0
 43
0.0008202099737533
 43
0.0
 43
0.0
 43
0.0
 43
0.0
 43
0.0008202099737533
 43
0.0
 43
0.0
 43
0.0
 43
0.0
 43
1.0
 43
0.0
 43
0.0
 43
0.0
 43
0.0
 43
1.0
 77
     0
 47
0.0008202099737533
 47
0.0
 47
0.0
 47
0.0
 47
0.0
 47
0.0008202099737533
 47
0.0
 47
0.0
 47
0.0
 47
0.0
 47
1.0
 47
0.0
 47
0.0
 47
0.0
 47
0.0
 47
1.0
171
     0
 49
0.0008202099737533
 49
0.0
 49
0.0
 49
0.0
 49
0.0
 49
0.0008202099737533
 49
0.0
 49
0.0
 49
0.0
 49
0.0
 49
1.0
 49
0.0
 49
0.0
 49
0.0
 49
0.0
 49
1.0
175
     0
142
0.0008202099737533
142
0.0
142
0.0
142
0.0
142
0.0
142
0.0008202099737533
142
0.0
142
0.0
142
0.0
142
0.0
142
1.0
142
0.0
142
0.0
142
0.0
142
0.0
142
1.0
179
     0
144
0.0008202099737533
144
0.0
144
0.0
144
0.0
144
0.0
144
0.0008202099737533
144
0.0
144
0.0
144
0.0
144
0.0
144
1.0
144
0.0
144
0.0
144
0.0
144
0.0
144
1.0
147
0.0008202099737533
147
0.0
147
0.0
147
0.0
147
0.0
147
0.0008202099737533
147
0.0
147
0.0
147
0.0
147
0.0
147
1.0
147
0.0
147
0.0
147
0.0
147
0.0
147
1.0
  0
MLEADERSTYLE
  5
40F
102
{ACAD_REACTORS
330
40E
102
}
330
40E
100
AcDbMLeaderStyle
170
     2
171
     1
172
     0
 90
        2
 40
0.0
 41
0.0
173
     1
 91
-1056964608
340
14
 92
       -2
290
     1
 42
2.0
291
     1
 43
0.36
  3
Standard
 44
4.0
300

342
11
174
     1
178
     6
175
     1
176
     0
 93
-1056964608
 45
4.0
292
     0
297
     0
 46
4.0
 94
-1056964608
 47
1.0
 49
1.0
140
1.0
293
     1
141
0.0
294
     1
177
     0
142
1.0
295
     0
296
     0
143
0.125
1001
ACAD_MLEADERVER
1070
     2
  0
MLINESTYLE
  5
18
102
{ACAD_REACTORS
330
17
102
}
330
17
100
AcDbMlineStyle
  2
STANDARD
 70
     0
  3

 62
   256
 51
90.0
 52
90.0
 71
     2
 49
0.5
 62
   256
  6
BYLAYER
 49
-0.5
 62
   256
  6
BYLAYER
  0
ACDBPLACEHOLDER
  5
F
102
{ACAD_REACTORS
330
E
102
}
330
E
  0
SCALE
  5
3FD
102
{ACAD_REACTORS
330
3FC
102
}
330
3FC
100
AcDbScale
 70
     0
300
1:1
140
1.0
141
1.0
290
     1
  0
SCALE
  5
3FE
102
{ACAD_REACTORS
330
3FC
102
}
330
3FC
100
AcDbScale
 70
     0
300
1:2
140
1.0
141
2.0
290
     0
  0
SCALE
  5
3FF
102
{ACAD_REACTORS
330
3FC
102
}
330
3FC
100
AcDbScale
 70
     0
300
1:4
140
1.0
141
4.0
290
     0
  0
SCALE
  5
400
102
{ACAD_REACTORS
330
3FC
102
}
330
3FC
100
AcDbScale
 70
     0
300
1:5
140
1.0
141
5.0
290
     0
  0
SCALE
  5
401
102
{ACAD_REACTORS
330
3FC
102
}
330
3FC
100
AcDbScale
 70
     0
300
1:8
140
1.0
141
8.0
290
     0
  0
SCALE
  5
402
102
{ACAD_REACTORS
330
3FC
102
}
330
3FC
100
AcDbScale
 70
     0
300
1:10
140
1.0
141
10.0
290
     0
  0
SCALE
  5
403
102
{ACAD_REACTORS
330
3FC
102
}
330
3FC
100
AcDbScale
 70
     0
300
1:16
140
1.0
141
16.0
290
     0
  0
SCALE
  5
404
102
{ACAD_REACTORS
330
3FC
102
}
330
3FC
100
AcDbScale
 70
     0
300
1:20
140
1.0
141
20.0
290
     0
  0
SCALE
  5
405
102
{ACAD_REACTORS
330
3FC
102
}
330
3FC
100
AcDbScale
 70
     0
300
1:30
140
1.0
141
30.0
290
     0
  0
SCALE
  5
406
102
{ACAD_REACTORS
330
3FC
102
}
330
3FC
100
AcDbScale
 70
     0
300
1:40
140
1.0
141
40.0
290
     0
  0
SCALE
  5
407
102
{ACAD_REACTORS
330
3FC
102
}
330
3FC
100
AcDbScale
 70
     0
300
1:50
140
1.0
141
50.0
290
     0
  0
SCALE
  5
408
102
{ACAD_REACTORS
330
3FC
102
}
330
3FC
100
AcDbScale
 70
     0
300
1:100
140
1.0
141
100.0
290
     0
  0
SCALE
  5
409
102
{ACAD_REACTORS
330
3FC
102
}
330
3FC
100
AcDbScale
 70
     0
300
2:1
140
2.0
141
1.0
290
     0
  0
SCALE
  5
40A
102
{ACAD_REACTORS
330
3FC
102
}
330
3FC
100
AcDbScale
 70
     0
300
4:1
140
4.0
141
1.0
290
     0
  0
SCALE
  5
40B
102
{ACAD_REACTORS
330
3FC
102
}
330
3FC
100
AcDbScale
 70
     0
300
8:1
140
8.0
141
1.0
290
     0
  0
SCALE
  5
40C
102
{ACAD_REACTORS
330
3FC
102
}
330
3FC
100
AcDbScale
 70
     0
300
10:1
140
10.0
141
1.0
290
     0
  0
SCALE
  5
40D
102
{ACAD_REACTORS
330
3FC
102
}
330
3FC
100
AcDbScale
 70
     0
300
100:1
140
100.0
141
1.0
290
     0
  0
TABLESTYLE
  5
1E
102
{ACAD_XDICTIONARY
360
41B
102
}
102
{ACAD_REACTORS
330
1D
102
}
330
1D
100
AcDbTableStyle
  3
Standard
 70
     0
 71
     0
 40
1.5
 41
1.5
280
     0
281
     0
  7
Standard
140
4.5
170
     2
 62
     0
 63
     7
283
     0
274
    -2
284
     1
 64
     0
275
    -2
285
     1
 65
     0
276
    -2
286
     1
 66
     0
277
    -2
287
     1
 67
     0
278
    -2
288
     1
 68
     0
279
    -2
289
     1
 69
     0
  7
Standard
140
6.0
170
     5
 62
     0
 63
     7
283
     0
274
    -2
284
     1
 64
     0
275
    -2
285
     1
 65
     0
276
    -2
286
     1
 66
     0
277
    -2
287
     1
 67
     0
278
    -2
288
     1
 68
     0
279
    -2
289
     1
 69
     0
  7
Standard
140
4.5
170
     5
 62
     0
 63
     7
283
     0
274
    -2
284
     1
 64
     0
275
    -2
285
     1
 65
     0
276
    -2
286
     1
 66
     0
277
    -2
287
     1
 67
     0
278
    -2
288
     1
 68
     0
279
    -2
289
     1
 69
     0
  0
VISUALSTYLE
  5
3EE
102
{ACAD_XDICTIONARY
360
433
102
}
102
{ACAD_REACTORS
330
3E8
102
}
330
3E8
100
AcDbVisualStyle
  2
2dWireframe
 70
     4
 71
     0
 72
     2
 73
     0
 90
        0
 40
-0.6
 41
-30.0
 62
     5
 63
     7
 74
     1
 91
        4
 64
     7
 65
   257
 75
     1
175
     1
 42
1.0
 92
        0
 66
   257
 43
1.0
 76
     1
 77
     6
 78
     2
 67
     7
 79
     5
170
     0
171
     0
290
     0
174
     0
 93
        1
 44
0.0
173
     0
291
     0
 45
0.0
1001
ACAD
1000
AcDbSavedByObjectVersion
1070
     0
  0
VISUALSTYLE
  5
3F0
102
{ACAD_XDICTIONARY
360
437
102
}
102
{ACAD_REACTORS
330
3E8
102
}
330
3E8
100
AcDbVisualStyle
  2
3D Hidden
 70
     6
 71
     1
 72
     2
 73
     2
 90
        0
 40
-0.6
 41
-30.0
 62
     5
 63
     7
 74
     2
 91
        2
 64
     7
 65
   257
 75
     2
175
     1
 42
179.0
 92
        0
 66
   257
 43
1.0
 76
     1
 77
     6
 78
     2
 67
     7
 79
     3
170
     0
171
     0
290
     0
174
     0
 93
        1
 44
0.0
173
     0
291
     0
 45
0.0
1001
ACAD
1000
AcDbSavedByObjectVersion
1070
     0
  0
VISUALSTYLE
  5
3EF
102
{ACAD_XDICTIONARY
360
435
102
}
102
{ACAD_REACTORS
330
3E8
102
}
330
3E8
100
AcDbVisualStyle
  2
3dWireframe
 70
     5
 71
     0
 72
     2
 73
     0
 90
        0
 40
-0.6
 41
-30.0
 62
     5
 63
     7
 74
     1
 91
        4
 64
     7
 65
   257
 75
     1
175
     1
 42
1.0
 92
        0
 66
   257
 43
1.0
 76
     1
 77
     6
 78
     2
 67
     7
 79
     5
170
     0
171
     0
290
     0
174
     0
 93
        1
 44
0.0
173
     0
291
     0
 45
0.0
1001
ACAD
1000
AcDbSavedByObjectVersion
1070
     0
  0
VISUALSTYLE
  5
3ED
102
{ACAD_XDICTIONARY
360
431
102
}
102
{ACAD_REACTORS
330
3E8
102
}
330
3E8
100
AcDbVisualStyle
  2
Basic
 70
     7
 71
     1
 72
     0
 73
     1
 90
        0
 40
-0.6
 41
-30.0
 62
     5
 63
     7
 74
     0
 91
        4
 64
     7
 65
   257
 75
     1
175
     1
 42
1.0
 92
        8
 66
     7
 43
1.0
 76
     1
 77
     6
 78
     2
 67
     7
 79
     5
170
     0
171
     0
290
     0
174
     0
 93
        1
 44
0.0
173
     0
291
     1
 45
0.0
1001
ACAD
1000
AcDbSavedByObjectVersion
1070
     0
  0
VISUALSTYLE
  5
3F4
102
{ACAD_XDICTIONARY
360
43F
102
}
102
{ACAD_REACTORS
330
3E8
102
}
330
3E8
100
AcDbVisualStyle
  2
Brighten
 70
    12
 71
     2
 72
     2
 73
     0
 90
        0
 40
-0.6
 41
-30.0
 62
     5
 63
     7
 74
     1
 91
        4
 64
     7
 65
   257
 75
     1
175
     1
 42
1.0
 92
        8
 66
     7
 43
1.0
 76
     1
 77
     6
 78
     2
 67
     7
 79
     5
170
     0
171
     0
290
     0
174
     0
 93
        1
 44
50.0
173
     0
291
     1
 45
0.0
1001
ACAD
1000
AcDbSavedByObjectVersion
1070
     0
  0
VISUALSTYLE
  5
3F8
102
{ACAD_XDICTIONARY
360
447
102
}
102
{ACAD_REACTORS
330
3E8
102
}
330
3E8
100
AcDbVisualStyle
  2
ColorChange
 70
    16
 71
     2
 72
     2
 73
     3
 90
        0
 40
-0.6
 41
-30.0
 62
     5
 63
     8
 74
     1
 91
        4
 64
     7
 65
   257
 75
     1
175
     1
 42
1.0
 92
        8
 66
     8
 43
1.0
 76
     1
 77
     6
 78
     2
 67
     7
 79
     5
170
     0
171
     0
290
     0
174
     0
 93
        1
 44
0.0
173
     0
291
     1
 45
0.0
1001
ACAD
1000
AcDbSavedByObjectVersion
1070
     0
  0
VISUALSTYLE
  5
3F1
102
{ACAD_XDICTIONARY
360
439
102
}
102
{ACAD_REACTORS
330
3E8
102
}
330
3E8
100
AcDbVisualStyle
  2
Conceptual
 70
     9
 71
     3
 72
     2
 73
     0
 90
        0
 40
-0.6
 41
-30.0
 62
     5
 63
     7
 74
     2
 91
        2
 64
     7
 65
   257
 75
     1
175
     1
 42
179.0
 92
        8
 66
     7
 43
1.0
 76
     1
 77
     6
 78
     2
 67
     7
 79
     3
170
     0
171
     0
290
     0
174
     0
 93
        1
 44
0.0
173
     0
291
     0
 45
0.0
1001
ACAD
1000
AcDbSavedByObjectVersion
1070
     0
  0
VISUALSTYLE
  5
3F3
102
{ACAD_XDICTIONARY
360
43D
102
}
102
{ACAD_REACTORS
330
3E8
102
}
330
3E8
100
AcDbVisualStyle
  2
Dim
 70
    11
 71
     2
 72
     2
 73
     0
 90
        0
 40
-0.6
 41
-30.0
 62
     5
 63
     7
 74
     1
 91
        4
 64
     7
 65
   257
 75
     1
175
     1
 42
1.0
 92
        8
 66
     7
 43
1.0
 76
     1
 77
     6
 78
     2
 67
     7
 79
     5
170
     0
171
     0
290
     0
174
     0
 93
        1
 44
-50.0
173
     0
291
     1
 45
0.0
1001
ACAD
1000
AcDbSavedByObjectVersion
1070
     0
  0
VISUALSTYLE
  5
3FB
102
{ACAD_XDICTIONARY
360
44D
102
}
102
{ACAD_REACTORS
330
3E8
102
}
330
3E8
100
AcDbVisualStyle
  2
EdgeColorOff
 70
    22
 71
     2
 72
     2
 73
     0
 90
        0
 40
-0.6
 41
-30.0
 62
     5
 63
     7
 74
     1
 91
        4
 64
     7
 65
   257
 75
     1
175
     1
 42
1.0
 92
        8
 66
     7
 43
1.0
 76
     1
 77
     6
 78
     2
 67
     7
 79
     5
170
     0
171
     0
290
     0
174
     0
 93
        1
 44
0.0
173
     0
291
     1
 45
0.0
1001
ACAD
1000
AcDbSavedByObjectVersion
1070
     0
  0
VISUALSTYLE
  5
3F7
102
{ACAD_XDICTIONARY
360
445
102
}
102
{ACAD_REACTORS
330
3E8
102
}
330
3E8
100
AcDbVisualStyle
  2
Facepattern
 70
    15
 71
     2
 72
     2
 73
     0
 90
        0
 40
-0.6
 41
-30.0
 62
     5
 63
     7
 74
     1
 91
        4
 64
     7
 65
   257
 75
     1
175
     1
 42
1.0
 92
        8
 66
     7
 43
1.0
 76
     1
 77
     6
 78
     2
 67
     7
 79
     5
170
     0
171
     0
290
     0
174
     0
 93
        1
 44
0.0
173
     0
291
     1
 45
0.0
1001
ACAD
1000
AcDbSavedByObjectVersion
1070
     0
  0
VISUALSTYLE
  5
3E9
102
{ACAD_XDICTIONARY
360
429
102
}
102
{ACAD_REACTORS
330
3E8
102
}
330
3E8
100
AcDbVisualStyle
  2
Flat
 70
     0
 71
     2
 72
     1
 73
     1
 90
        2
 40
-0.6
 41
30.0
 62
     5
 63
     7
 74
     0
 91
        4
 64
     7
 65
   257
 75
     1
175
     1
 42
1.0
 92
        8
 66
     7
 43
1.0
 76
     1
 77
     6
 78
     2
 67
     7
 79
     5
170
     0
171
     0
290
     0
174
     0
 93
       13
 44
0.0
173
     0
291
     1
 45
0.0
1001
ACAD
1000
AcDbSavedByObjectVersion
1070
     0
  0
VISUALSTYLE
  5
3EA
102
{ACAD_XDICTIONARY
360
42B
102
}
102
{ACAD_REACTORS
330
3E8
102
}
330
3E8
100
AcDbVisualStyle
  2
FlatWithEdges
 70
     1
 71
     2
 72
     1
 73
     1
 90
        2
 40
-0.6
 41
30.0
 62
     5
 63
     7
 74
     1
 91
        4
 64
     7
 65
   257
 75
     1
175
     1
 42
1.0
 92
        0
 66
   257
 43
1.0
 76
     1
 77
     6
 78
     2
 67
     7
 79
     5
170
     0
171
     0
290
     0
174
     0
 93
       13
 44
0.0
173
     0
291
     1
 45
0.0
1001
ACAD
1000
AcDbSavedByObjectVersion
1070
     0
  0
VISUALSTYLE
  5
3EB
102
{ACAD_XDICTIONARY
360
42D
102
}
102
{ACAD_REACTORS
330
3E8
102
}
330
3E8
100
AcDbVisualStyle
  2
Gouraud
 70
     2
 71
     2
 72
     2
 73
     1
 90
        2
 40
-0.6
 41
30.0
 62
     5
 63
     7
 74
     0
 91
        4
 64
     7
 65
   257
 75
     1
175
     1
 42
1.0
 92
        0
 66
     7
 43
1.0
 76
     1
 77
     6
 78
     2
 67
     7
 79
     5
170
     0
171
     0
290
     0
174
     0
 93
       13
 44
0.0
173
     0
291
     1
 45
0.0
1001
ACAD
1000
AcDbSavedByObjectVersion
1070
     0
  0
VISUALSTYLE
  5
3EC
102
{ACAD_XDICTIONARY
360
42F
102
}
102
{ACAD_REACTORS
330
3E8
102
}
330
3E8
100
AcDbVisualStyle
  2
GouraudWithEdges
 70
     3
 71
     2
 72
     2
 73
     1
 90
        2
 40
-0.6
 41
30.0
 62
     5
 63
     7
 74
     1
 91
        4
 64
     7
 65
   257
 75
     1
175
     1
 42
1.0
 92
        0
 66
   257
 43
1.0
 76
     1
 77
     6
 78
     2
 67
     7
 79
     5
170
     0
171
     0
290
     0
174
     0
 93
       13
 44
0.0
173
     0
291
     1
 45
0.0
1001
ACAD
1000
AcDbSavedByObjectVersion
1070
     0
  0
VISUALSTYLE
  5
3F9
102
{ACAD_XDICTIONARY
360
449
102
}
102
{ACAD_REACTORS
330
3E8
102
}
330
3E8
100
AcDbVisualStyle
  2
JitterOff
 70
    20
 71
     2
 72
     2
 73
     0
 90
        0
 40
-0.6
 41
-30.0
 62
     5
 63
     7
 74
     1
 91
        4
 64
     7
 65
   257
 75
     1
175
     1
 42
1.0
 92
       10
 66
     7
 43
1.0
 76
     1
 77
     6
 78
     2
 67
     7
 79
     5
170
     0
171
     0
290
     0
174
     0
 93
        1
 44
0.0
173
     0
291
     1
 45
0.0
1001
ACAD
1000
AcDbSavedByObjectVersion
1070
     0
  0
VISUALSTYLE
  5
3F6
102
{ACAD_XDICTIONARY
360
443
102
}
102
{ACAD_REACTORS
330
3E8
102
}
330
3E8
100
AcDbVisualStyle
  2
Linepattern
 70
    14
 71
     2
 72
     2
 73
     0
 90
        0
 40
-0.6
 41
-30.0
 62
     5
 63
     7
 74
     1
 91
        4
 64
     7
 65
   257
 75
     7
175
     7
 42
1.0
 92
        8
 66
     7
 43
1.0
 76
     1
 77
     6
 78
     2
 67
     7
 79
     5
170
     0
171
     0
290
     0
174
     0
 93
        1
 44
0.0
173
     0
291
     1
 45
0.0
1001
ACAD
1000
AcDbSavedByObjectVersion
1070
     0
  0
VISUALSTYLE
  5
3FA
102
{ACAD_XDICTIONARY
360
44B
102
}
102
{ACAD_REACTORS
330
3E8
102
}
330
3E8
100
AcDbVisualStyle
  2
OverhangOff
 70
    21
 71
     2
 72
     2
 73
     0
 90
        0
 40
-0.6
 41
-30.0
 62
     5
 63
     7
 74
     1
 91
        4
 64
     7
 65
   257
 75
     1
175
     1
 42
1.0
 92
        9
 66
     7
 43
1.0
 76
     1
 77
     6
 78
     2
 67
     7
 79
     5
170
     0
171
     0
290
     0
174
     0
 93
        1
 44
0.0
173
     0
291
     1
 45
0.0
1001
ACAD
1000
AcDbSavedByObjectVersion
1070
     0
  0
VISUALSTYLE
  5
3F2
102
{ACAD_XDICTIONARY
360
43B
102
}
102
{ACAD_REACTORS
330
3E8
102
}
330
3E8
100
AcDbVisualStyle
  2
Realistic
 70
     8
 71
     2
 72
     2
 73
     0
 90
        0
 40
-0.6
 41
-30.0
 62
     5
 63
     7
 74
     1
 91
        0
 64
     7
 65
   257
 75
     1
175
     1
 42
1.0
 92
        8
 66
     8
 43
1.0
 76
     1
 77
     6
 78
     2
 67
     7
 79
     5
170
     0
171
     0
290
     0
174
     0
 93
       13
 44
0.0
173
     0
291
     0
 45
0.0
1001
ACAD
1000
AcDbSavedByObjectVersion
1070
     0
  0
VISUALSTYLE
  5
3F5
102
{ACAD_XDICTIONARY
360
441
102
}
102
{ACAD_REACTORS
330
3E8
102
}
330
3E8
100
AcDbVisualStyle
  2
Thicken
 70
    13
 71
     2
 72
     2
 73
     0
 90
        0
 40
-0.6
 41
-30.0
 62
     5
 63
     7
 74
     1
 91
        4
 64
     7
 65
   257
 75
     1
175
     1
 42
1.0
 92
       12
 66
     7
 43
1.0
 76
     1
 77
     6
 78
     2
 67
     7
 79
     5
170
     0
171
     0
290
     0
174
     0
 93
        1
 44
0.0
173
     0
291
     1
 45
0.0
1001
ACAD
1000
AcDbSavedByObjectVersion
1070
     0
  0
DICTIONARYVAR
  5
417
102
{ACAD_REACTORS
330
158
102
}
330
158
100
DictionaryVariables
280
     0
  1
1:1
  0
DICTIONARYVAR
  5
416
102
{ACAD_REACTORS
330
158
102
}
330
158
100
DictionaryVariables
280
     0
  1
STANDARD
  0
DICTIONARYVAR
  5
159
102
{ACAD_REACTORS
330
158
102
}
330
158
100
DictionaryVariables
280
     0
  1
STANDARD
  0
DICTIONARYVAR
  5
3C1
102
{ACAD_REACTORS
330
158
102
}
330
158
100
DictionaryVariables
280
     0
  1
2
  0
DICTIONARYVAR
  5
3C0
102
{ACAD_REACTORS
330
158
102
}
330
158
100
DictionaryVariables
280
     0
  1
1
  0
DICTIONARYVAR
  5
419
102
{ACAD_REACTORS
330
158
102
}
330
158
100
DictionaryVariables
280
     0
  1
0
  0
DICTIONARYVAR
  5
3C2
102
{ACAD_REACTORS
330
158
102
}
330
158
100
DictionaryVariables
280
     0
  1

  0
DICTIONARYVAR
  5
418
102
{ACAD_REACTORS
330
158
102
}
330
158
100
DictionaryVariables
280
     0
  1
127
  0
DICTIONARYVAR
  5
41A
102
{ACAD_REACTORS
330
158
102
}
330
158
100
DictionaryVariables
280
     0
  1
2
  0
DICTIONARY
  5
420
330
22
100
AcDbDictionary
280
     1
281
     1
  3
ACAD_XREC_ROUNDTRIP
360
421
  0
DICTIONARY
  5
424
330
2A
100
AcDbDictionary
280
     1
281
     1
  3
ACAD_XREC_ROUNDTRIP
360
425
  0
DICTIONARY
  5
422
330
26
100
AcDbDictionary
280
     1
281
     1
  3
ACAD_XREC_ROUNDTRIP
360
423
  0
DICTIONARY
  5
3D9
330
3D8
100
AcDbDictionary
280
     1
281
     1
  3
ACAD_XREC_ROUNDTRIP
360
427
  3
BUMPTILE
360
3DB
  3
DIFFUSETILE
360
3DA
  3
OPACITYTILE
360
3DE
  3
REFLECTIONTILE
360
3DD
  3
REFRACTIONTILE
360
3DF
  3
SPECULARTILE
360
3DC
  0
DICTIONARY
  5
3D1
330
3D0
100
AcDbDictionary
280
     1
281
     1
  3
ACAD_XREC_ROUNDTRIP
360
426
  3
BUMPTILE
360
3D3
  3
DIFFUSETILE
360
3D2
  3
OPACITYTILE
360
3D6
  3
REFLECTIONTILE
360
3D5
  3
REFRACTIONTILE
360
3D7
  3
SPECULARTILE
360
3D4
  0
DICTIONARY
  5
3E1
330
3E0
100
AcDbDictionary
280
     1
281
     1
  3
ACAD_XREC_ROUNDTRIP
360
428
  3
BUMPTILE
360
3E3
  3
DIFFUSETILE
360
3E2
  3
OPACITYTILE
360
3E6
  3
REFLECTIONTILE
360
3E5
  3
REFRACTIONTILE
360
3E7
  3
SPECULARTILE
360
3E4
  0
DICTIONARY
  5
41B
330
1E
100
AcDbDictionary
280
     1
281
     1
  3
ACAD_ROUNDTRIP_2008_TABLESTYLE_CELLSTYLEMAP
360
41C
  3
ACAD_XREC_ROUNDTRIP
360
41F
  0
DICTIONARY
  5
433
330
3EE
100
AcDbDictionary
280
     1
281
     1
  3
ACAD_XREC_ROUNDTRIP
360
434
  0
DICTIONARY
  5
437
330
3F0
100
AcDbDictionary
280
     1
281
     1
  3
ACAD_XREC_ROUNDTRIP
360
438
  0
DICTIONARY
  5
435
330
3EF
100
AcDbDictionary
280
     1
281
     1
  3
ACAD_XREC_ROUNDTRIP
360
436
  0
DICTIONARY
  5
431
330
3ED
100
AcDbDictionary
280
     1
281
     1
  3
ACAD_XREC_ROUNDTRIP
360
432
  0
DICTIONARY
  5
43F
330
3F4
100
AcDbDictionary
280
     1
281
     1
  3
ACAD_XREC_ROUNDTRIP
360
440
  0
DICTIONARY
  5
447
330
3F8
100
AcDbDictionary
280
     1
281
     1
  3
ACAD_XREC_ROUNDTRIP
360
448
  0
DICTIONARY
  5
439
330
3F1
100
AcDbDictionary
280
     1
281
     1
  3
ACAD_XREC_ROUNDTRIP
360
43A
  0
DICTIONARY
  5
43D
330
3F3
100
AcDbDictionary
280
     1
281
     1
  3
ACAD_XREC_ROUNDTRIP
360
43E
  0
DICTIONARY
  5
44D
330
3FB
100
AcDbDictionary
280
     1
281
     1
  3
ACAD_XREC_ROUNDTRIP
360
44E
  0
DICTIONARY
  5
445
330
3F7
100
AcDbDictionary
280
     1
281
     1
  3
ACAD_XREC_ROUNDTRIP
360
446
  0
DICTIONARY
  5
429
330
3E9
100
AcDbDictionary
280
     1
281
     1
  3
ACAD_XREC_ROUNDTRIP
360
42A
  0
DICTIONARY
  5
42B
330
3EA
100
AcDbDictionary
280
     1
281
     1
  3
ACAD_XREC_ROUNDTRIP
360
42C
  0
DICTIONARY
  5
42D
330
3EB
100
AcDbDictionary
280
     1
281
     1
  3
ACAD_XREC_ROUNDTRIP
360
42E
  0
DICTIONARY
  5
42F
330
3EC
100
AcDbDictionary
280
     1
281
     1
  3
ACAD_XREC_ROUNDTRIP
360
430
  0
DICTIONARY
  5
449
330
3F9
100
AcDbDictionary
280
     1
281
     1
  3
ACAD_XREC_ROUNDTRIP
360
44A
  0
DICTIONARY
  5
443
330
3F6
100
AcDbDictionary
280
     1
281
     1
  3
ACAD_XREC_ROUNDTRIP
360
444
  0
DICTIONARY
  5
44B
330
3FA
100
AcDbDictionary
280
     1
281
     1
  3
ACAD_XREC_ROUNDTRIP
360
44C
  0
DICTIONARY
  5
43B
330
3F2
100
AcDbDictionary
280
     1
281
     1
  3
ACAD_XREC_ROUNDTRIP
360
43C
  0
DICTIONARY
  5
441
330
3F5
100
AcDbDictionary
280
     1
281
     1
  3
ACAD_XREC_ROUNDTRIP
360
442
  0
XRECORD
  5
421
102
{ACAD_REACTORS
330
420
102
}
330
420
100
AcDbXrecord
280
     1
102
SHADEPLOT
 70
     0
102
SHADEPLOTRESLEVEL
 70
     2
102
SHADEPLOTCUSTOMDPI
 70
   300
  0
XRECORD
  5
425
102
{ACAD_REACTORS
330
424
102
}
330
424
100
AcDbXrecord
280
     1
102
SHADEPLOT
 70
     0
102
SHADEPLOTRESLEVEL
 70
     2
102
SHADEPLOTCUSTOMDPI
 70
   300
  0
XRECORD
  5
423
102
{ACAD_REACTORS
330
422
102
}
330
422
100
AcDbXrecord
280
     1
102
SHADEPLOT
 70
     0
102
SHADEPLOTRESLEVEL
 70
     2
102
SHADEPLOTCUSTOMDPI
 70
   300
  0
XRECORD
  5
427
102
{ACAD_REACTORS
330
3D9
102
}
330
3D9
100
AcDbXrecord
280
     1
102
MATERIAL
148
0.0
149
0.0
149
0.0
 93
        0
 94
      127
282
     0
 72
     0
 77
     0
171
     0
175
     0
179
     0
273
     0
  0
XRECORD
  5
3DB
102
{ACAD_REACTORS
330
3D9
102
}
330
3D9
100
AcDbXrecord
280
     1
270
     1
271
     1
  0
XRECORD
  5
3DA
102
{ACAD_REACTORS
330
3D9
102
}
330
3D9
100
AcDbXrecord
280
     1
270
     1
271
     1
  0
XRECORD
  5
3DE
102
{ACAD_REACTORS
330
3D9
102
}
330
3D9
100
AcDbXrecord
280
     1
270
     1
271
     1
  0
XRECORD
  5
3DD
102
{ACAD_REACTORS
330
3D9
102
}
330
3D9
100
AcDbXrecord
280
     1
270
     1
271
     1
  0
XRECORD
  5
3DF
102
{ACAD_REACTORS
330
3D9
102
}
330
3D9
100
AcDbXrecord
280
     1
270
     1
271
     1
  0
XRECORD
  5
3DC
102
{ACAD_REACTORS
330
3D9
102
}
330
3D9
100
AcDbXrecord
280
     1
270
     1
271
     1
  0
XRECORD
  5
426
102
{ACAD_REACTORS
330
3D1
102
}
330
3D1
100
AcDbXrecord
280
     1
102
MATERIAL
148
0.0
149
0.0
149
0.0
 93
        0
 94
      127
282
     0
 72
     0
 77
     0
171
     0
175
     0
179
     0
273
     0
  0
XRECORD
  5
3D3
102
{ACAD_REACTORS
330
3D1
102
}
330
3D1
100
AcDbXrecord
280
     1
270
     1
271
     1
  0
XRECORD
  5
3D2
102
{ACAD_REACTORS
330
3D1
102
}
330
3D1
100
AcDbXrecord
280
     1
270
     1
271
     1
  0
XRECORD
  5
3D6
102
{ACAD_REACTORS
330
3D1
102
}
330
3D1
100
AcDbXrecord
280
     1
270
     1
271
     1
  0
XRECORD
  5
3D5
102
{ACAD_REACTORS
330
3D1
102
}
330
3D1
100
AcDbXrecord
280
     1
270
     1
271
     1
  0
XRECORD
  5
3D7
102
{ACAD_REACTORS
330
3D1
102
}
330
3D1
100
AcDbXrecord
280
     1
270
     1
271
     1
  0
XRECORD
  5
3D4
102
{ACAD_REACTORS
330
3D1
102
}
330
3D1
100
AcDbXrecord
280
     1
270
     1
271
     1
  0
XRECORD
  5
428
102
{ACAD_REACTORS
330
3E1
102
}
330
3E1
100
AcDbXrecord
280
     1
102
MATERIAL
148
0.0
149
0.0
149
0.0
 93
        0
 94
      127
282
     0
 72
     0
 77
     0
171
     0
175
     0
179
     0
273
     0
  0
XRECORD
  5
3E3
102
{ACAD_REACTORS
330
3E1
102
}
330
3E1
100
AcDbXrecord
280
     1
270
     1
271
     1
  0
XRECORD
  5
3E2
102
{ACAD_REACTORS
330
3E1
102
}
330
3E1
100
AcDbXrecord
280
     1
270
     1
271
     1
  0
XRECORD
  5
3E6
102
{ACAD_REACTORS
330
3E1
102
}
330
3E1
100
AcDbXrecord
280
     1
270
     1
271
     1
  0
XRECORD
  5
3E5
102
{ACAD_REACTORS
330
3E1
102
}
330
3E1
100
AcDbXrecord
280
     1
270
     1
271
     1
  0
XRECORD
  5
3E7
102
{ACAD_REACTORS
330
3E1
102
}
330
3E1
100
AcDbXrecord
280
     1
270
     1
271
     1
  0
XRECORD
  5
3E4
102
{ACAD_REACTORS
330
3E1
102
}
330
3E1
100
AcDbXrecord
280
     1
270
     1
271
     1
  0
CELLSTYLEMAP
  5
41C
102
{ACAD_REACTORS
330
41B
102
}
330
41B
100
AcDbCellStyleMap
 90
        3
300
CELLSTYLE
  1
TABLEFORMAT_BEGIN
 90
        5
170
     1
 91
        0
 92
    32768
 62
   257
 93
        1
300
CONTENTFORMAT
  1
CONTENTFORMAT_BEGIN
 90
        0
 91
        0
 92
        4
 93
        0
300

 40
0.0
140
1.0
 94
        5
 62
     0
340
11
144
6.0
309
CONTENTFORMAT_END
171
     1
301
MARGIN
  1
CELLMARGIN_BEGIN
 40
1.5
 40
1.5
 40
1.5
 40
1.5
 40
0.18
 40
0.18
309
CELLMARGIN_END
 94
        6
 95
        1
302
GRIDFORMAT
  1
GRIDFORMAT_BEGIN
 90
        0
 91
        1
 62
     0
 92
       -2
340
0
 93
        0
 40
0.045
309
GRIDFORMAT_END
 95
        2
302
GRIDFORMAT
  1
GRIDFORMAT_BEGIN
 90
        0
 91
        1
 62
     0
 92
       -2
340
0
 93
        0
 40
0.045
309
GRIDFORMAT_END
 95
        4
302
GRIDFORMAT
  1
GRIDFORMAT_BEGIN
 90
        0
 91
        1
 62
     0
 92
       -2
340
0
 93
        0
 40
0.045
309
GRIDFORMAT_END
 95
        8
302
GRIDFORMAT
  1
GRIDFORMAT_BEGIN
 90
        0
 91
        1
 62
     0
 92
       -2
340
0
 93
        0
 40
0.045
309
GRIDFORMAT_END
 95
       16
302
GRIDFORMAT
  1
GRIDFORMAT_BEGIN
 90
        0
 91
        1
 62
     0
 92
       -2
340
0
 93
        0
 40
0.045
309
GRIDFORMAT_END
 95
       32
302
GRIDFORMAT
  1
GRIDFORMAT_BEGIN
 90
        0
 91
        1
 62
     0
 92
       -2
340
0
 93
        0
 40
0.045
309
GRIDFORMAT_END
309
TABLEFORMAT_END
  1
CELLSTYLE_BEGIN
 90
        1
 91
        1
300
_TITLE
309
CELLSTYLE_END
300
CELLSTYLE
  1
TABLEFORMAT_BEGIN
 90
        5
170
     1
 91
        0
 92
        0
 62
   257
 93
        1
300
CONTENTFORMAT
  1
CONTENTFORMAT_BEGIN
 90
        0
 91
        0
 92
        4
 93
        0
300

 40
0.0
140
1.0
 94
        5
 62
     0
340
11
144
4.5
309
CONTENTFORMAT_END
171
     1
301
MARGIN
  1
CELLMARGIN_BEGIN
 40
1.5
 40
1.5
 40
1.5
 40
1.5
 40
0.18
 40
0.18
309
CELLMARGIN_END
 94
        6
 95
        1
302
GRIDFORMAT
  1
GRIDFORMAT_BEGIN
 90
        0
 91
        1
 62
     0
 92
       -2
340
0
 93
        0
 40
0.045
309
GRIDFORMAT_END
 95
        2
302
GRIDFORMAT
  1
GRIDFORMAT_BEGIN
 90
        0
 91
        1
 62
     0
 92
       -2
340
0
 93
        0
 40
0.045
309
GRIDFORMAT_END
 95
        4
302
GRIDFORMAT
  1
GRIDFORMAT_BEGIN
 90
        0
 91
        1
 62
     0
 92
       -2
340
0
 93
        0
 40
0.045
309
GRIDFORMAT_END
 95
        8
302
GRIDFORMAT
  1
GRIDFORMAT_BEGIN
 90
        0
 91
        1
 62
     0
 92
       -2
340
0
 93
        0
 40
0.045
309
GRIDFORMAT_END
 95
       16
302
GRIDFORMAT
  1
GRIDFORMAT_BEGIN
 90
        0
 91
        1
 62
     0
 92
       -2
340
0
 93
        0
 40
0.045
309
GRIDFORMAT_END
 95
       32
302
GRIDFORMAT
  1
GRIDFORMAT_BEGIN
 90
        0
 91
        1
 62
     0
 92
       -2
340
0
 93
        0
 40
0.045
309
GRIDFORMAT_END
309
TABLEFORMAT_END
  1
CELLSTYLE_BEGIN
 90
        2
 91
        1
300
_HEADER
309
CELLSTYLE_END
300
CELLSTYLE
  1
TABLEFORMAT_BEGIN
 90
        5
170
     1
 91
        0
 92
        0
 62
   257
 93
        1
300
CONTENTFORMAT
  1
CONTENTFORMAT_BEGIN
 90
        0
 91
        0
 92
        4
 93
        0
300

 40
0.0
140
1.0
 94
        2
 62
     0
340
11
144
4.5
309
CONTENTFORMAT_END
171
     1
301
MARGIN
  1
CELLMARGIN_BEGIN
 40
1.5
 40
1.5
 40
1.5
 40
1.5
 40
0.18
 40
0.18
309
CELLMARGIN_END
 94
        6
 95
        1
302
GRIDFORMAT
  1
GRIDFORMAT_BEGIN
 90
        0
 91
        1
 62
     0
 92
       -2
340
0
 93
        0
 40
0.045
309
GRIDFORMAT_END
 95
        2
302
GRIDFORMAT
  1
GRIDFORMAT_BEGIN
 90
        0
 91
        1
 62
     0
 92
       -2
340
0
 93
        0
 40
0.045
309
GRIDFORMAT_END
 95
        4
302
GRIDFORMAT
  1
GRIDFORMAT_BEGIN
 90
        0
 91
        1
 62
     0
 92
       -2
340
0
 93
        0
 40
0.045
309
GRIDFORMAT_END
 95
        8
302
GRIDFORMAT
  1
GRIDFORMAT_BEGIN
 90
        0
 91
        1
 62
     0
 92
       -2
340
0
 93
        0
 40
0.045
309
GRIDFORMAT_END
 95
       16
302
GRIDFORMAT
  1
GRIDFORMAT_BEGIN
 90
        0
 91
        1
 62
     0
 92
       -2
340
0
 93
        0
 40
0.045
309
GRIDFORMAT_END
 95
       32
302
GRIDFORMAT
  1
GRIDFORMAT_BEGIN
 90
        0
 91
        1
 62
     0
 92
       -2
340
0
 93
        0
 40
0.045
309
GRIDFORMAT_END
309
TABLEFORMAT_END
  1
CELLSTYLE_BEGIN
 90
        3
 91
        2
300
_DATA
309
CELLSTYLE_END
  0
XRECORD
  5
41F
102
{ACAD_REACTORS
330
41B
102
}
330
41B
100
AcDbXrecord
280
     1
102
ACAD_ROUNDTRIP_PRE2007_TABLESTYLE
 90
        4
 91
        0
  1

 92
        4
 93
        0
  2

 94
        4
 95
        0
  3

  0
XRECORD
  5
434
102
{ACAD_REACTORS
330
433
102
}
330
433
100
AcDbXrecord
280
     1
102
RTVSPropertyOp0
 70
     1
102
RTVSPropertyOp1
 70
     1
102
RTVSPropertyOp2
 70
     1
102
RTVSPropertyOp3
 70
     1
102
RTVSPropertyOp4
 70
     1
102
RTVSPropertyOp5
 70
     1
102
RTVSPropertyOp6
 70
     1
102
RTVSPropertyOp7
 70
     1
102
RTVSPropertyOp8
 70
     1
102
RTVSPropertyOp9
 70
     1
102
RTVSPropertyOp10
 70
     1
102
RTVSPropertyOp11
 70
     1
102
RTVSPropertyOp12
 70
     1
102
RTVSPropertyOp13
 70
     1
102
RTVSPropertyOp14
 70
     1
102
RTVSPropertyOp15
 70
     1
102
RTVSPropertyOp16
 70
     1
102
RTVSPropertyOp17
 70
     1
102
RTVSPropertyOp18
 70
     1
102
RTVSPropertyOp19
 70
     1
102
RTVSPropertyOp20
 70
     1
102
RTVSPropertyOp21
 70
     1
102
RTVSPropertyOp22
 70
     1
102
RTVSPropertyOp23
 70
     1
102
RTVSPropertyOp24
 70
     1
102
RTVSPropertyOp25
 70
     1
102
RTVSPropertyOp26
 70
     1
102
RTVSPropertyOp27
 70
     1
  0
XRECORD
  5
438
102
{ACAD_REACTORS
330
437
102
}
330
437
100
AcDbXrecord
280
     1
102
RTVSPropertyOp0
 70
     1
102
RTVSPropertyOp1
 70
     1
102
RTVSPropertyOp2
 70
     1
102
RTVSPropertyOp3
 70
     1
102
RTVSPropertyOp4
 70
     1
102
RTVSPropertyOp5
 70
     1
102
RTVSPropertyOp6
 70
     1
102
RTVSPropertyOp7
 70
     1
102
RTVSPropertyOp8
 70
     1
102
RTVSPropertyOp9
 70
     1
102
RTVSPropertyOp10
 70
     1
102
RTVSPropertyOp11
 70
     1
102
RTVSPropertyOp12
 70
     1
102
RTVSPropertyOp13
 70
     1
102
RTVSPropertyOp14
 70
     1
102
RTVSPropertyOp15
 70
     1
102
RTVSPropertyOp16
 70
     1
102
RTVSPropertyOp17
 70
     1
102
RTVSPropertyOp18
 70
     1
102
RTVSPropertyOp19
 70
     1
102
RTVSPropertyOp20
 70
     1
102
RTVSPropertyOp21
 70
     1
102
RTVSPropertyOp22
 70
     1
102
RTVSPropertyOp23
 70
     1
102
RTVSPropertyOp24
 70
     1
102
RTVSPropertyOp25
 70
     1
102
RTVSPropertyOp26
 70
     1
102
RTVSPropertyOp27
 70
     1
  0
XRECORD
  5
436
102
{ACAD_REACTORS
330
435
102
}
330
435
100
AcDbXrecord
280
     1
102
RTVSPropertyOp0
 70
     1
102
RTVSPropertyOp1
 70
     1
102
RTVSPropertyOp2
 70
     1
102
RTVSPropertyOp3
 70
     1
102
RTVSPropertyOp4
 70
     1
102
RTVSPropertyOp5
 70
     1
102
RTVSPropertyOp6
 70
     1
102
RTVSPropertyOp7
 70
     1
102
RTVSPropertyOp8
 70
     1
102
RTVSPropertyOp9
 70
     1
102
RTVSPropertyOp10
 70
     1
102
RTVSPropertyOp11
 70
     1
102
RTVSPropertyOp12
 70
     1
102
RTVSPropertyOp13
 70
     1
102
RTVSPropertyOp14
 70
     1
102
RTVSPropertyOp15
 70
     1
102
RTVSPropertyOp16
 70
     1
102
RTVSPropertyOp17
 70
     1
102
RTVSPropertyOp18
 70
     1
102
RTVSPropertyOp19
 70
     1
102
RTVSPropertyOp20
 70
     1
102
RTVSPropertyOp21
 70
     1
102
RTVSPropertyOp22
 70
     1
102
RTVSPropertyOp23
 70
     1
102
RTVSPropertyOp24
 70
     1
102
RTVSPropertyOp25
 70
     1
102
RTVSPropertyOp26
 70
     1
102
RTVSPropertyOp27
 70
     1
  0
XRECORD
  5
432
102
{ACAD_REACTORS
330
431
102
}
330
431
100
AcDbXrecord
280
     1
102
RTVSPropertyOp0
 70
     1
102
RTVSPropertyOp1
 70
     1
102
RTVSPropertyOp2
 70
     1
102
RTVSPropertyOp3
 70
     1
102
RTVSPropertyOp4
 70
     1
102
RTVSPropertyOp5
 70
     1
102
RTVSPropertyOp6
 70
     1
102
RTVSPropertyOp7
 70
     1
102
RTVSPropertyOp8
 70
     1
102
RTVSPropertyOp9
 70
     1
102
RTVSPropertyOp10
 70
     1
102
RTVSPropertyOp11
 70
     1
102
RTVSPropertyOp12
 70
     1
102
RTVSPropertyOp13
 70
     1
102
RTVSPropertyOp14
 70
     1
102
RTVSPropertyOp15
 70
     1
102
RTVSPropertyOp16
 70
     1
102
RTVSPropertyOp17
 70
     1
102
RTVSPropertyOp18
 70
     1
102
RTVSPropertyOp19
 70
     1
102
RTVSPropertyOp20
 70
     1
102
RTVSPropertyOp21
 70
     1
102
RTVSPropertyOp22
 70
     1
102
RTVSPropertyOp23
 70
     1
102
RTVSPropertyOp24
 70
     1
102
RTVSPropertyOp25
 70
     1
102
RTVSPropertyOp26
 70
     1
102
RTVSPropertyOp27
 70
     1
  0
XRECORD
  5
440
102
{ACAD_REACTORS
330
43F
102
}
330
43F
100
AcDbXrecord
280
     1
102
RTVSPropertyOp0
 70
     1
102
RTVSPropertyOp1
 70
     1
102
RTVSPropertyOp2
 70
     1
102
RTVSPropertyOp3
 70
     1
102
RTVSPropertyOp4
 70
     1
102
RTVSPropertyOp5
 70
     1
102
RTVSPropertyOp6
 70
     1
102
RTVSPropertyOp7
 70
     1
102
RTVSPropertyOp8
 70
     1
102
RTVSPropertyOp9
 70
     1
102
RTVSPropertyOp10
 70
     1
102
RTVSPropertyOp11
 70
     1
102
RTVSPropertyOp12
 70
     1
102
RTVSPropertyOp13
 70
     1
102
RTVSPropertyOp14
 70
     1
102
RTVSPropertyOp15
 70
     1
102
RTVSPropertyOp16
 70
     1
102
RTVSPropertyOp17
 70
     1
102
RTVSPropertyOp18
 70
     1
102
RTVSPropertyOp19
 70
     1
102
RTVSPropertyOp20
 70
     1
102
RTVSPropertyOp21
 70
     1
102
RTVSPropertyOp22
 70
     1
102
RTVSPropertyOp23
 70
     1
102
RTVSPropertyOp24
 70
     1
102
RTVSPropertyOp25
 70
     1
102
RTVSPropertyOp26
 70
     1
102
RTVSPropertyOp27
 70
     1
  0
XRECORD
  5
448
102
{ACAD_REACTORS
330
447
102
}
330
447
100
AcDbXrecord
280
     1
102
RTVSPropertyOp0
 70
     1
102
RTVSPropertyOp1
 70
     1
102
RTVSPropertyOp2
 70
     1
102
RTVSPropertyOp3
 70
     1
102
RTVSPropertyOp4
 70
     1
102
RTVSPropertyOp5
 70
     1
102
RTVSPropertyOp6
 70
     1
102
RTVSPropertyOp7
 70
     1
102
RTVSPropertyOp8
 70
     1
102
RTVSPropertyOp9
 70
     1
102
RTVSPropertyOp10
 70
     1
102
RTVSPropertyOp11
 70
     1
102
RTVSPropertyOp12
 70
     1
102
RTVSPropertyOp13
 70
     1
102
RTVSPropertyOp14
 70
     1
102
RTVSPropertyOp15
 70
     1
102
RTVSPropertyOp16
 70
     1
102
RTVSPropertyOp17
 70
     1
102
RTVSPropertyOp18
 70
     1
102
RTVSPropertyOp19
 70
     1
102
RTVSPropertyOp20
 70
     1
102
RTVSPropertyOp21
 70
     1
102
RTVSPropertyOp22
 70
     1
102
RTVSPropertyOp23
 70
     1
102
RTVSPropertyOp24
 70
     1
102
RTVSPropertyOp25
 70
     1
102
RTVSPropertyOp26
 70
     1
102
RTVSPropertyOp27
 70
     1
  0
XRECORD
  5
43A
102
{ACAD_REACTORS
330
439
102
}
330
439
100
AcDbXrecord
280
     1
102
RTVSPropertyOp0
 70
     1
102
RTVSPropertyOp1
 70
     1
102
RTVSPropertyOp2
 70
     1
102
RTVSPropertyOp3
 70
     1
102
RTVSPropertyOp4
 70
     1
102
RTVSPropertyOp5
 70
     1
102
RTVSPropertyOp6
 70
     1
102
RTVSPropertyOp7
 70
     1
102
RTVSPropertyOp8
 70
     1
102
RTVSPropertyOp9
 70
     1
102
RTVSPropertyOp10
 70
     1
102
RTVSPropertyOp11
 70
     1
102
RTVSPropertyOp12
 70
     1
102
RTVSPropertyOp13
 70
     1
102
RTVSPropertyOp14
 70
     1
102
RTVSPropertyOp15
 70
     1
102
RTVSPropertyOp16
 70
     1
102
RTVSPropertyOp17
 70
     1
102
RTVSPropertyOp18
 70
     1
102
RTVSPropertyOp19
 70
     1
102
RTVSPropertyOp20
 70
     1
102
RTVSPropertyOp21
 70
     1
102
RTVSPropertyOp22
 70
     1
102
RTVSPropertyOp23
 70
     1
102
RTVSPropertyOp24
 70
     1
102
RTVSPropertyOp25
 70
     1
102
RTVSPropertyOp26
 70
     1
102
RTVSPropertyOp27
 70
     1
  0
XRECORD
  5
43E
102
{ACAD_REACTORS
330
43D
102
}
330
43D
100
AcDbXrecord
280
     1
102
RTVSPropertyOp0
 70
     1
102
RTVSPropertyOp1
 70
     1
102
RTVSPropertyOp2
 70
     1
102
RTVSPropertyOp3
 70
     1
102
RTVSPropertyOp4
 70
     1
102
RTVSPropertyOp5
 70
     1
102
RTVSPropertyOp6
 70
     1
102
RTVSPropertyOp7
 70
     1
102
RTVSPropertyOp8
 70
     1
102
RTVSPropertyOp9
 70
     1
102
RTVSPropertyOp10
 70
     1
102
RTVSPropertyOp11
 70
     1
102
RTVSPropertyOp12
 70
     1
102
RTVSPropertyOp13
 70
     1
102
RTVSPropertyOp14
 70
     1
102
RTVSPropertyOp15
 70
     1
102
RTVSPropertyOp16
 70
     1
102
RTVSPropertyOp17
 70
     1
102
RTVSPropertyOp18
 70
     1
102
RTVSPropertyOp19
 70
     1
102
RTVSPropertyOp20
 70
     1
102
RTVSPropertyOp21
 70
     1
102
RTVSPropertyOp22
 70
     1
102
RTVSPropertyOp23
 70
     1
102
RTVSPropertyOp24
 70
     1
102
RTVSPropertyOp25
 70
     1
102
RTVSPropertyOp26
 70
     1
102
RTVSPropertyOp27
 70
     1
  0
XRECORD
  5
44E
102
{ACAD_REACTORS
330
44D
102
}
330
44D
100
AcDbXrecord
280
     1
102
RTVSPropertyOp0
 70
     0
102
RTVSPropertyOp1
 70
     0
102
RTVSPropertyOp2
 70
     0
102
RTVSPropertyOp3
 70
     0
102
RTVSPropertyOp4
 70
     0
102
RTVSPropertyOp5
 70
     0
102
RTVSPropertyOp6
 70
     0
102
RTVSPropertyOp7
 70
     0
102
RTVSPropertyOp8
 70
     0
102
RTVSPropertyOp9
 70
     0
102
RTVSPropertyOp10
 70
     0
102
RTVSPropertyOp11
 70
     0
102
RTVSPropertyOp12
 70
     0
102
RTVSPropertyOp13
 70
     0
102
RTVSPropertyOp14
 70
     2
102
RTVSPropertyOp15
 70
     0
102
RTVSPropertyOp16
 70
     0
102
RTVSPropertyOp17
 70
     0
102
RTVSPropertyOp18
 70
     0
102
RTVSPropertyOp19
 70
     0
102
RTVSPropertyOp20
 70
     0
102
RTVSPropertyOp21
 70
     0
102
RTVSPropertyOp22
 70
     0
102
RTVSPropertyOp23
 70
     0
102
RTVSPropertyOp24
 70
     0
102
RTVSPropertyOp25
 70
     0
102
RTVSPropertyOp26
 70
     0
102
RTVSPropertyOp27
 70
     0
  0
XRECORD
  5
446
102
{ACAD_REACTORS
330
445
102
}
330
445
100
AcDbXrecord
280
     1
102
RTVSPropertyOp0
 70
     1
102
RTVSPropertyOp1
 70
     1
102
RTVSPropertyOp2
 70
     1
102
RTVSPropertyOp3
 70
     1
102
RTVSPropertyOp4
 70
     1
102
RTVSPropertyOp5
 70
     1
102
RTVSPropertyOp6
 70
     1
102
RTVSPropertyOp7
 70
     1
102
RTVSPropertyOp8
 70
     1
102
RTVSPropertyOp9
 70
     1
102
RTVSPropertyOp10
 70
     1
102
RTVSPropertyOp11
 70
     1
102
RTVSPropertyOp12
 70
     1
102
RTVSPropertyOp13
 70
     1
102
RTVSPropertyOp14
 70
     1
102
RTVSPropertyOp15
 70
     1
102
RTVSPropertyOp16
 70
     1
102
RTVSPropertyOp17
 70
     1
102
RTVSPropertyOp18
 70
     1
102
RTVSPropertyOp19
 70
     1
102
RTVSPropertyOp20
 70
     1
102
RTVSPropertyOp21
 70
     1
102
RTVSPropertyOp22
 70
     1
102
RTVSPropertyOp23
 70
     1
102
RTVSPropertyOp24
 70
     1
102
RTVSPropertyOp25
 70
     1
102
RTVSPropertyOp26
 70
     1
102
RTVSPropertyOp27
 70
     1
  0
XRECORD
  5
42A
102
{ACAD_REACTORS
330
429
102
}
330
429
100
AcDbXrecord
280
     1
102
RTVSPropertyOp0
 70
     1
102
RTVSPropertyOp1
 70
     1
102
RTVSPropertyOp2
 70
     1
102
RTVSPropertyOp3
 70
     1
102
RTVSPropertyOp4
 70
     1
102
RTVSPropertyOp5
 70
     1
102
RTVSPropertyOp6
 70
     1
102
RTVSPropertyOp7
 70
     1
102
RTVSPropertyOp8
 70
     1
102
RTVSPropertyOp9
 70
     1
102
RTVSPropertyOp10
 70
     1
102
RTVSPropertyOp11
 70
     1
102
RTVSPropertyOp12
 70
     1
102
RTVSPropertyOp13
 70
     1
102
RTVSPropertyOp14
 70
     1
102
RTVSPropertyOp15
 70
     1
102
RTVSPropertyOp16
 70
     1
102
RTVSPropertyOp17
 70
     1
102
RTVSPropertyOp18
 70
     1
102
RTVSPropertyOp19
 70
     1
102
RTVSPropertyOp20
 70
     1
102
RTVSPropertyOp21
 70
     1
102
RTVSPropertyOp22
 70
     1
102
RTVSPropertyOp23
 70
     1
102
RTVSPropertyOp24
 70
     1
102
RTVSPropertyOp25
 70
     1
102
RTVSPropertyOp26
 70
     1
102
RTVSPropertyOp27
 70
     1
  0
XRECORD
  5
42C
102
{ACAD_REACTORS
330
42B
102
}
330
42B
100
AcDbXrecord
280
     1
102
RTVSPropertyOp0
 70
     1
102
RTVSPropertyOp1
 70
     1
102
RTVSPropertyOp2
 70
     1
102
RTVSPropertyOp3
 70
     1
102
RTVSPropertyOp4
 70
     1
102
RTVSPropertyOp5
 70
     1
102
RTVSPropertyOp6
 70
     1
102
RTVSPropertyOp7
 70
     1
102
RTVSPropertyOp8
 70
     1
102
RTVSPropertyOp9
 70
     1
102
RTVSPropertyOp10
 70
     1
102
RTVSPropertyOp11
 70
     1
102
RTVSPropertyOp12
 70
     1
102
RTVSPropertyOp13
 70
     1
102
RTVSPropertyOp14
 70
     1
102
RTVSPropertyOp15
 70
     1
102
RTVSPropertyOp16
 70
     1
102
RTVSPropertyOp17
 70
     1
102
RTVSPropertyOp18
 70
     1
102
RTVSPropertyOp19
 70
     1
102
RTVSPropertyOp20
 70
     1
102
RTVSPropertyOp21
 70
     1
102
RTVSPropertyOp22
 70
     1
102
RTVSPropertyOp23
 70
     1
102
RTVSPropertyOp24
 70
     1
102
RTVSPropertyOp25
 70
     1
102
RTVSPropertyOp26
 70
     1
102
RTVSPropertyOp27
 70
     1
  0
XRECORD
  5
42E
102
{ACAD_REACTORS
330
42D
102
}
330
42D
100
AcDbXrecord
280
     1
102
RTVSPropertyOp0
 70
     1
102
RTVSPropertyOp1
 70
     1
102
RTVSPropertyOp2
 70
     1
102
RTVSPropertyOp3
 70
     1
102
RTVSPropertyOp4
 70
     1
102
RTVSPropertyOp5
 70
     1
102
RTVSPropertyOp6
 70
     1
102
RTVSPropertyOp7
 70
     1
102
RTVSPropertyOp8
 70
     1
102
RTVSPropertyOp9
 70
     1
102
RTVSPropertyOp10
 70
     1
102
RTVSPropertyOp11
 70
     1
102
RTVSPropertyOp12
 70
     1
102
RTVSPropertyOp13
 70
     1
102
RTVSPropertyOp14
 70
     1
102
RTVSPropertyOp15
 70
     1
102
RTVSPropertyOp16
 70
     1
102
RTVSPropertyOp17
 70
     1
102
RTVSPropertyOp18
 70
     1
102
RTVSPropertyOp19
 70
     1
102
RTVSPropertyOp20
 70
     1
102
RTVSPropertyOp21
 70
     1
102
RTVSPropertyOp22
 70
     1
102
RTVSPropertyOp23
 70
     1
102
RTVSPropertyOp24
 70
     1
102
RTVSPropertyOp25
 70
     1
102
RTVSPropertyOp26
 70
     1
102
RTVSPropertyOp27
 70
     1
  0
XRECORD
  5
430
102
{ACAD_REACTORS
330
42F
102
}
330
42F
100
AcDbXrecord
280
     1
102
RTVSPropertyOp0
 70
     1
102
RTVSPropertyOp1
 70
     1
102
RTVSPropertyOp2
 70
     1
102
RTVSPropertyOp3
 70
     1
102
RTVSPropertyOp4
 70
     1
102
RTVSPropertyOp5
 70
     1
102
RTVSPropertyOp6
 70
     1
102
RTVSPropertyOp7
 70
     1
102
RTVSPropertyOp8
 70
     1
102
RTVSPropertyOp9
 70
     1
102
RTVSPropertyOp10
 70
     1
102
RTVSPropertyOp11
 70
     1
102
RTVSPropertyOp12
 70
     1
102
RTVSPropertyOp13
 70
     1
102
RTVSPropertyOp14
 70
     1
102
RTVSPropertyOp15
 70
     1
102
RTVSPropertyOp16
 70
     1
102
RTVSPropertyOp17
 70
     1
102
RTVSPropertyOp18
 70
     1
102
RTVSPropertyOp19
 70
     1
102
RTVSPropertyOp20
 70
     1
102
RTVSPropertyOp21
 70
     1
102
RTVSPropertyOp22
 70
     1
102
RTVSPropertyOp23
 70
     1
102
RTVSPropertyOp24
 70
     1
102
RTVSPropertyOp25
 70
     1
102
RTVSPropertyOp26
 70
     1
102
RTVSPropertyOp27
 70
     1
  0
XRECORD
  5
44A
102
{ACAD_REACTORS
330
449
102
}
330
449
100
AcDbXrecord
280
     1
102
RTVSPropertyOp0
 70
     0
102
RTVSPropertyOp1
 70
     0
102
RTVSPropertyOp2
 70
     0
102
RTVSPropertyOp3
 70
     0
102
RTVSPropertyOp4
 70
     0
102
RTVSPropertyOp5
 70
     0
102
RTVSPropertyOp6
 70
     0
102
RTVSPropertyOp7
 70
     0
102
RTVSPropertyOp8
 70
     0
102
RTVSPropertyOp9
 70
     0
102
RTVSPropertyOp10
 70
     0
102
RTVSPropertyOp11
 70
     0
102
RTVSPropertyOp12
 70
     0
102
RTVSPropertyOp13
 70
     0
102
RTVSPropertyOp14
 70
     2
102
RTVSPropertyOp15
 70
     0
102
RTVSPropertyOp16
 70
     0
102
RTVSPropertyOp17
 70
     0
102
RTVSPropertyOp18
 70
     0
102
RTVSPropertyOp19
 70
     0
102
RTVSPropertyOp20
 70
     0
102
RTVSPropertyOp21
 70
     0
102
RTVSPropertyOp22
 70
     0
102
RTVSPropertyOp23
 70
     0
102
RTVSPropertyOp24
 70
     0
102
RTVSPropertyOp25
 70
     0
102
RTVSPropertyOp26
 70
     0
102
RTVSPropertyOp27
 70
     0
  0
XRECORD
  5
444
102
{ACAD_REACTORS
330
443
102
}
330
443
100
AcDbXrecord
280
     1
102
RTVSPropertyOp0
 70
     1
102
RTVSPropertyOp1
 70
     1
102
RTVSPropertyOp2
 70
     1
102
RTVSPropertyOp3
 70
     1
102
RTVSPropertyOp4
 70
     1
102
RTVSPropertyOp5
 70
     1
102
RTVSPropertyOp6
 70
     1
102
RTVSPropertyOp7
 70
     1
102
RTVSPropertyOp8
 70
     1
102
RTVSPropertyOp9
 70
     1
102
RTVSPropertyOp10
 70
     1
102
RTVSPropertyOp11
 70
     1
102
RTVSPropertyOp12
 70
     1
102
RTVSPropertyOp13
 70
     1
102
RTVSPropertyOp14
 70
     1
102
RTVSPropertyOp15
 70
     1
102
RTVSPropertyOp16
 70
     1
102
RTVSPropertyOp17
 70
     1
102
RTVSPropertyOp18
 70
     1
102
RTVSPropertyOp19
 70
     1
102
RTVSPropertyOp20
 70
     1
102
RTVSPropertyOp21
 70
     1
102
RTVSPropertyOp22
 70
     1
102
RTVSPropertyOp23
 70
     1
102
RTVSPropertyOp24
 70
     1
102
RTVSPropertyOp25
 70
     1
102
RTVSPropertyOp26
 70
     1
102
RTVSPropertyOp27
 70
     1
  0
XRECORD
  5
44C
102
{ACAD_REACTORS
330
44B
102
}
330
44B
100
AcDbXrecord
280
     1
102
RTVSPropertyOp0
 70
     0
102
RTVSPropertyOp1
 70
     0
102
RTVSPropertyOp2
 70
     0
102
RTVSPropertyOp3
 70
     0
102
RTVSPropertyOp4
 70
     0
102
RTVSPropertyOp5
 70
     0
102
RTVSPropertyOp6
 70
     0
102
RTVSPropertyOp7
 70
     0
102
RTVSPropertyOp8
 70
     0
102
RTVSPropertyOp9
 70
     0
102
RTVSPropertyOp10
 70
     0
102
RTVSPropertyOp11
 70
     0
102
RTVSPropertyOp12
 70
     0
102
RTVSPropertyOp13
 70
     0
102
RTVSPropertyOp14
 70
     2
102
RTVSPropertyOp15
 70
     0
102
RTVSPropertyOp16
 70
     0
102
RTVSPropertyOp17
 70
     0
102
RTVSPropertyOp18
 70
     0
102
RTVSPropertyOp19
 70
     0
102
RTVSPropertyOp20
 70
     0
102
RTVSPropertyOp21
 70
     0
102
RTVSPropertyOp22
 70
     0
102
RTVSPropertyOp23
 70
     0
102
RTVSPropertyOp24
 70
     0
102
RTVSPropertyOp25
 70
     0
102
RTVSPropertyOp26
 70
     0
102
RTVSPropertyOp27
 70
     0
  0
XRECORD
  5
43C
102
{ACAD_REACTORS
330
43B
102
}
330
43B
100
AcDbXrecord
280
     1
102
RTVSPropertyOp0
 70
     1
102
RTVSPropertyOp1
 70
     1
102
RTVSPropertyOp2
 70
     1
102
RTVSPropertyOp3
 70
     1
102
RTVSPropertyOp4
 70
     1
102
RTVSPropertyOp5
 70
     1
102
RTVSPropertyOp6
 70
     1
102
RTVSPropertyOp7
 70
     1
102
RTVSPropertyOp8
 70
     1
102
RTVSPropertyOp9
 70
     1
102
RTVSPropertyOp10
 70
     1
102
RTVSPropertyOp11
 70
     1
102
RTVSPropertyOp12
 70
     1
102
RTVSPropertyOp13
 70
     1
102
RTVSPropertyOp14
 70
     1
102
RTVSPropertyOp15
 70
     1
102
RTVSPropertyOp16
 70
     1
102
RTVSPropertyOp17
 70
     1
102
RTVSPropertyOp18
 70
     1
102
RTVSPropertyOp19
 70
     1
102
RTVSPropertyOp20
 70
     1
102
RTVSPropertyOp21
 70
     1
102
RTVSPropertyOp22
 70
     1
102
RTVSPropertyOp23
 70
     1
102
RTVSPropertyOp24
 70
     1
102
RTVSPropertyOp25
 70
     1
102
RTVSPropertyOp26
 70
     1
102
RTVSPropertyOp27
 70
     1
  0
XRECORD
  5
442
102
{ACAD_REACTORS
330
441
102
}
330
441
100
AcDbXrecord
280
     1
102
RTVSPropertyOp0
 70
     1
102
RTVSPropertyOp1
 70
     1
102
RTVSPropertyOp2
 70
     1
102
RTVSPropertyOp3
 70
     1
102
RTVSPropertyOp4
 70
     1
102
RTVSPropertyOp5
 70
     1
102
RTVSPropertyOp6
 70
     1
102
RTVSPropertyOp7
 70
     1
102
RTVSPropertyOp8
 70
     1
102
RTVSPropertyOp9
 70
     1
102
RTVSPropertyOp10
 70
     1
102
RTVSPropertyOp11
 70
     1
102
RTVSPropertyOp12
 70
     1
102
RTVSPropertyOp13
 70
     1
102
RTVSPropertyOp14
 70
     1
102
RTVSPropertyOp15
 70
     1
102
RTVSPropertyOp16
 70
     1
102
RTVSPropertyOp17
 70
     1
102
RTVSPropertyOp18
 70
     1
102
RTVSPropertyOp19
 70
     1
102
RTVSPropertyOp20
 70
     1
102
RTVSPropertyOp21
 70
     1
102
RTVSPropertyOp22
 70
     1
102
RTVSPropertyOp23
 70
     1
102
RTVSPropertyOp24
 70
     1
102
RTVSPropertyOp25
 70
     1
102
RTVSPropertyOp26
 70
     1
102
RTVSPropertyOp27
 70
     1
  0
ENDSEC
  0
EOF
