  0
SECTION
  2
HEADER
  9
$ACADVER
  1
AC1015
  9
$ACADMAINTVER
 70
    20
  9
$DWGCODEPAGE
  3
ANSI_1252
  9
$INSBASE
 10
0.0
 20
0.0
 30
0.0
  9
$EXTMIN
 10
64.87518415888212
 20
154.5273751389786
 30
-0.0015258207003583
  9
$EXTMAX
 10
69.84191951556363
 20
155.456406166377
 30
0.0000000349246037
  9
$LIMMIN
 10
0.0
 20
0.0
  9
$LIMMAX
 10
420.0
 20
297.0
  9
$ORTHOMODE
 70
     1
  9
$REGENMODE
 70
     1
  9
$FILLMODE
 70
     1
  9
$QTEXTMODE
 70
     0
  9
$MIRRTEXT
 70
     0
  9
$LTSCALE
 40
1.0
  9
$ATTMODE
 70
     1
  9
$TEXTSIZE
 40
2.5
  9
$TRACEWID
 40
1.0
  9
$TEXTSTYLE
  7
Standard
  9
$CLAYER
  8
0
  9
$CELTYPE
  6
ByLayer
  9
$CECOLOR
 62
   256
  9
$CELTSCALE
 40
1.0
  9
$DISPSILH
 70
     0
  9
$DIMSCALE
 40
1.0
  9
$DIMASZ
 40
2.5
  9
$DIMEXO
 40
0.625
  9
$DIMDLI
 40
3.75
  9
$DIMRND
 40
0.0
  9
$DIMDLE
 40
0.0
  9
$DIMEXE
 40
1.25
  9
$DIMTP
 40
0.0
  9
$DIMTM
 40
0.0
  9
$DIMTXT
 40
2.5
  9
$DIMCEN
 40
2.5
  9
$DIMTSZ
 40
0.0
  9
$DIMTOL
 70
     0
  9
$DIMLIM
 70
     0
  9
$DIMTIH
 70
     0
  9
$DIMTOH
 70
     0
  9
$DIMSE1
 70
     0
  9
$DIMSE2
 70
     0
  9
$DIMTAD
 70
     1
  9
$DIMZIN
 70
     8
  9
$DIMBLK
  1

  9
$DIMASO
 70
     1
  9
$DIMSHO
 70
     1
  9
$DIMPOST
  1

  9
$DIMAPOST
  1

  9
$DIMALT
 70
     0
  9
$DIMALTD
 70
     3
  9
$DIMALTF
 40
0.03937007874016
  9
$DIMLFAC
 40
1.0
  9
$DIMTOFL
 70
     1
  9
$DIMTVP
 40
0.0
  9
$DIMTIX
 70
     0
  9
$DIMSOXD
 70
     0
  9
$DIMSAH
 70
     0
  9
$DIMBLK1
  1

  9
$DIMBLK2
  1

  9
$DIMSTYLE
  2
ISO-25
  9
$DIMCLRD
 70
     0
  9
$DIMCLRE
 70
     0
  9
$DIMCLRT
 70
     0
  9
$DIMTFAC
 40
1.0
  9
$DIMGAP
 40
0.625
  9
$DIMJUST
 70
     0
  9
$DIMSD1
 70
     0
  9
$DIMSD2
 70
     0
  9
$DIMTOLJ
 70
     0
  9
$DIMTZIN
 70
     8
  9
$DIMALTZ
 70
     0
  9
$DIMALTTZ
 70
     0
  9
$DIMUPT
 70
     0
  9
$DIMDEC
 70
     2
  9
$DIMTDEC
 70
     2
  9
$DIMALTU
 70
     2
  9
$DIMALTTD
 70
     3
  9
$DIMTXSTY
  7
Standard
  9
$DIMAUNIT
 70
     0
  9
$DIMADEC
 70
     0
  9
$DIMALTRND
 40
0.0
  9
$DIMAZIN
 70
     0
  9
$DIMDSEP
 70
    44
  9
$DIMATFIT
 70
     3
  9
$DIMFRAC
 70
     0
  9
$DIMLDRBLK
  1

  9
$DIMLUNIT
 70
     2
  9
$DIMLWD
 70
    -2
  9
$DIMLWE
 70
    -2
  9
$DIMTMOVE
 70
     0
  9
$LUNITS
 70
     2
  9
$LUPREC
 70
     4
  9
$SKETCHINC
 40
1.0
  9
$FILLETRAD
 40
0.0
  9
$AUNITS
 70
     0
  9
$AUPREC
 70
     0
  9
$MENU
  1
.
  9
$ELEVATION
 40
0.0
  9
$PELEVATION
 40
0.0
  9
$THICKNESS
 40
0.0
  9
$LIMCHECK
 70
     0
  9
$CHAMFERA
 40
0.0
  9
$CHAMFERB
 40
0.0
  9
$CHAMFERC
 40
0.0
  9
$CHAMFERD
 40
0.0
  9
$SKPOLY
 70
     0
  9
$TDCREATE
 40
2453910.747796760
  9
$TDUCREATE
 40
2453910.706130093
  9
$TDUPDATE
 40
2456150.463849642
  9
$TDUUPDATE
 40
2456150.422182974
  9
$TDINDWG
 40
0.0128051042
  9
$TDUSRTIMER
 40
0.0128051042
  9
$USRTIMER
 70
     1
  9
$ANGBASE
 50
0.0
  9
$ANGDIR
 70
     0
  9
$PDMODE
 70
     0
  9
$PDSIZE
 40
0.0
  9
$PLINEWID
 40
0.0
  9
$SPLFRAME
 70
     0
  9
$SPLINETYPE
 70
     6
  9
$SPLINESEGS
 70
     8
  9
$HANDSEED
  5
24D
  9
$SURFTAB1
 70
     6
  9
$SURFTAB2
 70
     6
  9
$SURFTYPE
 70
     6
  9
$SURFU
 70
     6
  9
$SURFV
 70
     6
  9
$UCSBASE
  2

  9
$UCSNAME
  2

  9
$UCSORG
 10
0.0
 20
0.0
 30
0.0
  9
$UCSXDIR
 10
1.0
 20
0.0
 30
0.0
  9
$UCSYDIR
 10
0.0
 20
1.0
 30
0.0
  9
$UCSORTHOREF
  2

  9
$UCSORTHOVIEW
 70
     0
  9
$UCSORGTOP
 10
0.0
 20
0.0
 30
0.0
  9
$UCSORGBOTTOM
 10
0.0
 20
0.0
 30
0.0
  9
$UCSORGLEFT
 10
0.0
 20
0.0
 30
0.0
  9
$UCSORGRIGHT
 10
0.0
 20
0.0
 30
0.0
  9
$UCSORGFRONT
 10
0.0
 20
0.0
 30
0.0
  9
$UCSORGBACK
 10
0.0
 20
0.0
 30
0.0
  9
$PUCSBASE
  2

  9
$PUCSNAME
  2

  9
$PUCSORG
 10
0.0
 20
0.0
 30
0.0
  9
$PUCSXDIR
 10
1.0
 20
0.0
 30
0.0
  9
$PUCSYDIR
 10
0.0
 20
1.0
 30
0.0
  9
$PUCSORTHOREF
  2

  9
$PUCSORTHOVIEW
 70
     0
  9
$PUCSORGTOP
 10
0.0
 20
0.0
 30
0.0
  9
$PUCSORGBOTTOM
 10
0.0
 20
0.0
 30
0.0
  9
$PUCSORGLEFT
 10
0.0
 20
0.0
 30
0.0
  9
$PUCSORGRIGHT
 10
0.0
 20
0.0
 30
0.0
  9
$PUCSORGFRONT
 10
0.0
 20
0.0
 30
0.0
  9
$PUCSORGBACK
 10
0.0
 20
0.0
 30
0.0
  9
$USERI1
 70
     0
  9
$USERI2
 70
     0
  9
$USERI3
 70
     0
  9
$USERI4
 70
     0
  9
$USERI5
 70
     0
  9
$USERR1
 40
0.0
  9
$USERR2
 40
0.0
  9
$USERR3
 40
0.0
  9
$USERR4
 40
0.0
  9
$USERR5
 40
0.0
  9
$WORLDVIEW
 70
     1
  9
$SHADEDGE
 70
     3
  9
$SHADEDIF
 70
    70
  9
$TILEMODE
 70
     1
  9
$MAXACTVP
 70
    64
  9
$PINSBASE
 10
0.0
 20
0.0
 30
0.0
  9
$PLIMCHECK
 70
     0
  9
$PEXTMIN
 10
1.000000000000000E+20
 20
1.000000000000000E+20
 30
1.000000000000000E+20
  9
$PEXTMAX
 10
-1.000000000000000E+20
 20
-1.000000000000000E+20
 30
-1.000000000000000E+20
  9
$PLIMMIN
 10
0.0
 20
0.0
  9
$PLIMMAX
 10
420.0
 20
297.0
  9
$UNITMODE
 70
     0
  9
$VISRETAIN
 70
     1
  9
$PLINEGEN
 70
     0
  9
$PSLTSCALE
 70
     1
  9
$TREEDEPTH
 70
  3020
  9
$CMLSTYLE
  2
Standard
  9
$CMLJUST
 70
     0
  9
$CMLSCALE
 40
20.0
  9
$PROXYGRAPHICS
 70
     1
  9
$MEASUREMENT
 70
     1
  9
$CELWEIGHT
370
    -1
  9
$ENDCAPS
280
     0
  9
$JOINSTYLE
280
     0
  9
$LWDISPLAY
290
     0
  9
$INSUNITS
 70
     4
  9
$HYPERLINKBASE
  1

  9
$STYLESHEET
  1

  9
$XEDIT
290
     1
  9
$CEPSNTYPE
380
     0
  9
$PSTYLEMODE
290
     1
  9
$FINGERPRINTGUID
  2
{0D5379F1-9607-4901-B7D8-DAC2B9F304C2}
  9
$VERSIONGUID
  2
{02A4D543-43BE-47FB-980C-64033B48AE89}
  9
$EXTNAMES
290
     1
  9
$PSVPSCALE
 40
0.0
  9
$OLESTARTUP
290
     0
  0
ENDSEC
  0
SECTION
  2
CLASSES
  0
CLASS
  1
ACDBDICTIONARYWDFLT
  2
AcDbDictionaryWithDefault
  3
ObjectDBX Classes
 90
        0
280
     0
281
     0
  0
CLASS
  1
TABLESTYLE
  2
AcDbTableStyle
  3
ObjectDBX Classes
 90
     4095
280
     0
281
     0
  0
CLASS
  1
DICTIONARYVAR
  2
AcDbDictionaryVar
  3
ObjectDBX Classes
 90
        0
280
     0
281
     0
  0
CLASS
  1
SORTENTSTABLE
  2
AcDbSortentsTable
  3
ObjectDBX Classes
 90
        0
280
     0
281
     0
  0
CLASS
  1
ACDBPLACEHOLDER
  2
AcDbPlaceHolder
  3
ObjectDBX Classes
 90
        0
280
     0
281
     0
  0
CLASS
  1
LAYOUT
  2
AcDbLayout
  3
ObjectDBX Classes
 90
        0
280
     0
281
     0
  0
CLASS
  1
MATERIAL
  2
AcDbMaterial
  3
ObjectDBX Classes
 90
     1153
280
     0
281
     0
  0
CLASS
  1
VISUALSTYLE
  2
AcDbVisualStyle
  3
ObjectDBX Classes
 90
     4095
280
     0
281
     0
  0
CLASS
  1
SCALE
  2
AcDbScale
  3
ObjectDBX Classes
 90
     1153
280
     0
281
     0
  0
CLASS
  1
MLEADERSTYLE
  2
AcDbMLeaderStyle
  3
ACDB_MLEADERSTYLE_CLASS
 90
     4095
280
     0
281
     0
  0
CLASS
  1
AEC_REFEDIT_STATUS_TRACKER
  2
AecDbRefEditStatusTracker
  3
AecArchBase60|Product Desc: Autodesk Architectural Desktop 2007 |Company: Autodesk,Inc. |WEB Address: www.autodesk.com
 90
      129
280
     0
281
     0
  0
CLASS
  1
NPOCOLLECTION
  2
AcDbImpNonPersistentObjectsCollection
  3
ObjectDBX Classes
 90
     1153
280
     0
281
     0
  0
CLASS
  1
CELLSTYLEMAP
  2
AcDbCellStyleMap
  3
ObjectDBX Classes
 90
     1152
280
     0
281
     0
  0
ENDSEC
  0
SECTION
  2
TABLES
  0
TABLE
  2
VPORT
  5
8
330
0
100
AcDbSymbolTable
 70
     1
  0
VPORT
  5
182
330
8
100
AcDbSymbolTableRecord
100
AcDbViewportTableRecord
  2
*Active
 70
     0
 10
0.0
 20
0.0
 11
1.0
 21
1.0
 12
67.35855183722287
 22
154.9918906526778
 13
0.0
 23
0.0
 14
10.0
 24
10.0
 15
10.0
 25
10.0
 16
0.0
 26
0.0
 36
1.0
 17
0.0
 27
0.0
 37
0.0
 40
3.029905567285743
 41
1.645464025026068
 42
50.0
 43
0.0
 44
0.0
 50
0.0
 51
0.0
 71
     0
 72
  1000
 73
     1
 74
     3
 75
     0
 76
     0
 77
     0
 78
     0
281
     0
 65
     1
110
0.0
120
0.0
130
0.0
111
1.0
121
0.0
131
0.0
112
0.0
122
1.0
132
0.0
 79
     0
146
0.0
  0
ENDTAB
  0
TABLE
  2
LTYPE
  5
5
330
0
100
AcDbSymbolTable
 70
     1
  0
LTYPE
  5
14
330
5
100
AcDbSymbolTableRecord
100
AcDbLinetypeTableRecord
  2
ByBlock
 70
     0
  3

 72
    65
 73
     0
 40
0.0
  0
LTYPE
  5
15
330
5
100
AcDbSymbolTableRecord
100
AcDbLinetypeTableRecord
  2
ByLayer
 70
     0
  3

 72
    65
 73
     0
 40
0.0
  0
LTYPE
  5
16
330
5
100
AcDbSymbolTableRecord
100
AcDbLinetypeTableRecord
  2
Continuous
 70
     0
  3
Solid line
 72
    65
 73
     0
 40
0.0
  0
ENDTAB
  0
TABLE
  2
LAYER
  5
2
330
0
100
AcDbSymbolTable
 70
     3
  0
LAYER
  5
10
102
{ACAD_XDICTIONARY
360
1D1
102
}
330
2
100
AcDbSymbolTableRecord
100
AcDbLayerTableRecord
  2
0
 70
     0
 62
     7
  6
Continuous
370
    -3
390
F
  0
LAYER
  5
2F
102
{ACAD_XDICTIONARY
360
1D3
102
}
330
2
100
AcDbSymbolTableRecord
100
AcDbLayerTableRecord
  2
BLOCKS
 70
     0
 62
     3
  6
Continuous
370
    -3
390
F
  0
LAYER
  5
157
102
{ACAD_XDICTIONARY
360
1D5
102
}
330
2
100
AcDbSymbolTableRecord
100
AcDbLayerTableRecord
  2
sanindusa
 70
     0
 62
     3
  6
Continuous
370
    -3
390
F
  0
ENDTAB
  0
TABLE
  2
STYLE
  5
3
330
0
100
AcDbSymbolTable
 70
     2
  0
STYLE
  5
11
330
3
100
AcDbSymbolTableRecord
100
AcDbTextStyleTableRecord
  2
Standard
 70
     0
 40
0.0
 41
1.0
 50
0.0
 71
     0
 42
2.5
  3
txt
  4

  0
STYLE
  5
30
330
3
100
AcDbSymbolTableRecord
100
AcDbTextStyleTableRecord
  2
cotas
 70
     0
 40
2.5
 41
0.8
 50
0.0
 71
     0
 42
4.0
  3

  4

1001
ACAD
1000
Futura Bk BT
1071
       34
  0
ENDTAB
  0
TABLE
  2
VIEW
  5
6
330
0
100
AcDbSymbolTable
 70
     0
  0
ENDTAB
  0
TABLE
  2
UCS
  5
7
330
0
100
AcDbSymbolTable
 70
     0
  0
ENDTAB
  0
TABLE
  2
APPID
  5
9
330
0
100
AcDbSymbolTable
 70
     2
  0
APPID
  5
12
330
9
100
AcDbSymbolTableRecord
100
AcDbRegAppTableRecord
  2
ACAD
 70
     0
  0
APPID
  5
24C
330
9
100
AcDbSymbolTableRecord
100
AcDbRegAppTableRecord
  2
ACAD_MLEADERVER
 70
     0
  0
ENDTAB
  0
TABLE
  2
DIMSTYLE
  5
A
330
0
100
AcDbSymbolTable
 70
     2
100
AcDbDimStyleTable
 71
     0
  0
DIMSTYLE
105
2B
330
A
100
AcDbSymbolTableRecord
100
AcDbDimStyleTableRecord
  2
ISO-25
 70
     0
 41
2.5
 42
0.625
 43
3.75
 44
1.25
 73
     0
 74
     0
 77
     1
 78
     8
140
2.5
141
2.5
143
0.03937007874016
147
0.625
171
     3
172
     1
271
     2
272
     2
274
     3
278
    44
283
     0
284
     8
340
11
  0
DIMSTYLE
105
31
330
A
100
AcDbSymbolTableRecord
100
AcDbDimStyleTableRecord
  2
Standard
 70
     0
289
     0
340
11
  0
ENDTAB
  0
TABLE
  2
BLOCK_RECORD
  5
1
330
0
100
AcDbSymbolTable
 70
     5
  0
BLOCK_RECORD
  5
23
102
{ACAD_XDICTIONARY
360
155
102
}
330
1
100
AcDbSymbolTableRecord
100
AcDbBlockTableRecord
  2
*Model_Space
340
26
  0
BLOCK_RECORD
  5
1F
330
1
100
AcDbSymbolTableRecord
100
AcDbBlockTableRecord
  2
*Paper_Space
340
22
  0
BLOCK_RECORD
  5
27
330
1
100
AcDbSymbolTableRecord
100
AcDbBlockTableRecord
  2
*Paper_Space0
340
2A
  0
BLOCK_RECORD
  5
32
330
1
100
AcDbSymbolTableRecord
100
AcDbBlockTableRecord
  2
80005PL
340
0
102
{BLKREFS
331
1CE
102
}
  0
BLOCK_RECORD
  5
F9
330
1
100
AcDbSymbolTableRecord
100
AcDbBlockTableRecord
  2
80005CT
340
0
102
{BLKREFS
331
152
102
}
  0
BLOCK_RECORD
  5
158
330
1
100
AcDbSymbolTableRecord
100
AcDbBlockTableRecord
  2
80005AL
340
0
102
{BLKREFS
331
161
102
}
  0
BLOCK_RECORD
  5
162
330
1
100
AcDbSymbolTableRecord
100
AcDbBlockTableRecord
  2
80005AF
340
0
102
{BLKREFS
331
16B
102
}
  0
ENDTAB
  0
ENDSEC
  0
SECTION
  2
BLOCKS
  0
BLOCK
  5
24
330
23
100
AcDbEntity
  8
0
100
AcDbBlockBegin
  2
*Model_Space
 70
     0
 10
0.0
 20
0.0
 30
0.0
  3
*Model_Space
  1

  0
ENDBLK
  5
25
330
23
100
AcDbEntity
  8
0
100
AcDbBlockEnd
  0
BLOCK
  5
20
330
1F
100
AcDbEntity
 67
     1
  8
0
100
AcDbBlockBegin
  2
*Paper_Space
 70
     0
 10
0.0
 20
0.0
 30
0.0
  3
*Paper_Space
  1

  0
ENDBLK
  5
21
330
1F
100
AcDbEntity
 67
     1
  8
0
100
AcDbBlockEnd
  0
BLOCK
  5
28
330
27
100
AcDbEntity
 67
     1
  8
0
100
AcDbBlockBegin
  2
*Paper_Space0
 70
     0
 10
0.0
 20
0.0
 30
0.0
  3
*Paper_Space0
  1

  0
ENDBLK
  5
29
330
27
100
AcDbEntity
 67
     1
  8
0
100
AcDbBlockEnd
  0
BLOCK
  5
F3
330
32
100
AcDbEntity
  8
0
100
AcDbBlockBegin
  2
80005PL
 70
     0
 10
0.0
 20
0.0
 30
0.0
  3
80005PL
  1

  0
CIRCLE
  5
33
330
32
100
AcDbEntity
  8
BLOCKS
100
AcDbCircle
 10
0.6937044426712942
 20
0.5881041090746488
 30
0.0
 40
0.0079999999999999
  0
CIRCLE
  5
34
330
32
100
AcDbEntity
  8
BLOCKS
100
AcDbCircle
 10
0.6953555058578355
 20
0.5191231898326385
 30
0.0
 40
0.0080000000000002
  0
CIRCLE
  5
35
330
32
100
AcDbEntity
  8
BLOCKS
100
AcDbCircle
 10
0.6950757782159395
 20
0.4479299503653215
 30
0.0
 40
0.0079999999999998
  0
CIRCLE
  5
36
330
32
100
AcDbEntity
  8
BLOCKS
100
AcDbCircle
 10
0.6960340779851118
 20
0.3791740010180081
 30
0.0
 40
0.0079999999999999
  0
CIRCLE
  5
37
330
32
100
AcDbEntity
  8
BLOCKS
100
AcDbCircle
 10
0.7295170236869285
 20
0.3418432982796969
 30
0.0
 40
0.0080000000000002
  0
CIRCLE
  5
38
330
32
100
AcDbEntity
  8
BLOCKS
100
AcDbCircle
 10
0.7308732340862913
 20
0.413189087454349
 30
0.0
 40
0.0079999999999999
  0
CIRCLE
  5
39
330
32
100
AcDbEntity
  8
BLOCKS
100
AcDbCircle
 10
0.7296993121522496
 20
0.4823360765602502
 30
0.0
 40
0.0080000000000001
  0
CIRCLE
  5
3A
330
32
100
AcDbEntity
  8
BLOCKS
100
AcDbCircle
 10
0.5850394320030569
 20
0.6935432040364061
 30
0.0
 40
0.0079999999999997
  0
CIRCLE
  5
3B
330
32
100
AcDbEntity
  8
BLOCKS
100
AcDbCircle
 10
0.6210987540691236
 20
0.6584662776221376
 30
0.0
 40
0.0080000000000002
  0
CIRCLE
  5
3C
330
32
100
AcDbEntity
  8
BLOCKS
100
AcDbCircle
 10
0.6216377730246109
 20
0.5890720066795439
 30
0.0
 40
0.0079999999999998
  0
CIRCLE
  5
3D
330
32
100
AcDbEntity
  8
BLOCKS
100
AcDbCircle
 10
0.5896076795898603
 20
0.5532655946306898
 30
0.0
 40
0.0080000000000002
  0
CIRCLE
  5
3E
330
32
100
AcDbEntity
  8
BLOCKS
100
AcDbCircle
 10
0.5859599181389718
 20
0.6252017489600542
 30
0.0
 40
0.0080000000000001
  0
CIRCLE
  5
3F
330
32
100
AcDbEntity
  8
BLOCKS
100
AcDbCircle
 10
0.5511121873835578
 20
0.6615156286789614
 30
0.0
 40
0.0080000000000001
  0
CIRCLE
  5
40
330
32
100
AcDbEntity
  8
BLOCKS
100
AcDbCircle
 10
0.5153213165815283
 20
0.6934936939274872
 30
0.0
 40
0.0079999999999997
  0
CIRCLE
  5
41
330
32
100
AcDbEntity
  8
BLOCKS
100
AcDbCircle
 10
0.5531076034821468
 20
0.5903000633744922
 30
0.0
 40
0.0080000000000002
  0
CIRCLE
  5
42
330
32
100
AcDbEntity
  8
BLOCKS
100
AcDbCircle
 10
0.516041281422065
 20
0.5534289257489195
 30
0.0
 40
0.0080000000000002
  0
CIRCLE
  5
43
330
32
100
AcDbEntity
  8
BLOCKS
100
AcDbCircle
 10
0.5143854618380715
 20
0.6252759523815837
 30
0.0
 40
0.008
  0
CIRCLE
  5
44
330
32
100
AcDbEntity
  8
BLOCKS
100
AcDbCircle
 10
0.6247104890262995
 20
0.5182898374127604
 30
0.0
 40
0.0079999999999998
  0
CIRCLE
  5
45
330
32
100
AcDbEntity
  8
BLOCKS
100
AcDbCircle
 10
0.6246285797803899
 20
0.4480859755918334
 30
0.0
 40
0.0080000000000001
  0
CIRCLE
  5
46
330
32
100
AcDbEntity
  8
BLOCKS
100
AcDbCircle
 10
0.58969908829705
 20
0.4823670095409375
 30
0.0
 40
0.0080000000000002
  0
CIRCLE
  5
47
330
32
100
AcDbEntity
  8
BLOCKS
100
AcDbCircle
 10
0.6256166414535415
 20
0.3778454559701823
 30
0.0
 40
0.008
  0
CIRCLE
  5
48
330
32
100
AcDbEntity
  8
BLOCKS
100
AcDbCircle
 10
0.5895420120159884
 20
0.343185417681118
 30
0.0
 40
0.0080000000000002
  0
CIRCLE
  5
49
330
32
100
AcDbEntity
  8
BLOCKS
100
AcDbCircle
 10
0.5893843921050371
 20
0.4125015848804049
 30
0.0
 40
0.0079999999999998
  0
CIRCLE
  5
4A
330
32
100
AcDbEntity
  8
BLOCKS
100
AcDbCircle
 10
0.5535046340898202
 20
0.517681480800087
 30
0.0
 40
0.0080000000000005
  0
CIRCLE
  5
4B
330
32
100
AcDbEntity
  8
BLOCKS
100
AcDbCircle
 10
0.5554050972771324
 20
0.4476159093518175
 30
0.0
 40
0.0080000000000002
  0
CIRCLE
  5
4C
330
32
100
AcDbEntity
  8
BLOCKS
100
AcDbCircle
 10
0.5184803582813379
 20
0.4830980113577551
 30
0.0
 40
0.0080000000000001
  0
CIRCLE
  5
4D
330
32
100
AcDbEntity
  8
BLOCKS
100
AcDbCircle
 10
0.5547911599275518
 20
0.3762574505114355
 30
0.0
 40
0.0080000000000002
  0
CIRCLE
  5
4E
330
32
100
AcDbEntity
  8
BLOCKS
100
AcDbCircle
 10
0.5160332425784487
 20
0.341989167598125
 30
0.0
 40
0.0080000000000001
  0
CIRCLE
  5
4F
330
32
100
AcDbEntity
  8
BLOCKS
100
AcDbCircle
 10
0.5195717467678765
 20
0.4140545954831839
 30
0.0
 40
0.0080000000000003
  0
CIRCLE
  5
50
330
32
100
AcDbEntity
  8
BLOCKS
100
AcDbCircle
 10
0.6579832200970463
 20
0.3421090892174686
 30
0.0
 40
0.0080000000000001
  0
CIRCLE
  5
51
330
32
100
AcDbEntity
  8
BLOCKS
100
AcDbCircle
 10
0.6608611867888135
 20
0.4128564461831775
 30
0.0
 40
0.0080000000000001
  0
CIRCLE
  5
52
330
32
100
AcDbEntity
  8
BLOCKS
100
AcDbCircle
 10
0.659041006399773
 20
0.4824571013041532
 30
0.0
 40
0.008
  0
CIRCLE
  5
53
330
32
100
AcDbEntity
  8
BLOCKS
100
AcDbCircle
 10
0.65849268342982
 20
0.5532357685948126
 30
0.0
 40
0.0079999999999993
  0
CIRCLE
  5
54
330
32
100
AcDbEntity
  8
BLOCKS
100
AcDbCircle
 10
0.6574383314127887
 20
0.6235203291977997
 30
0.0
 40
0.0080000000000002
  0
CIRCLE
  5
55
330
32
100
AcDbEntity
  8
BLOCKS
100
AcDbCircle
 10
0.4806471927603866
 20
0.6598451457050021
 30
0.0
 40
0.0080000000000003
  0
CIRCLE
  5
56
330
32
100
AcDbEntity
  8
BLOCKS
100
AcDbCircle
 10
0.4792969518308996
 20
0.7304158685491018
 30
0.0
 40
0.0080000000000002
  0
CIRCLE
  5
57
330
32
100
AcDbEntity
  8
BLOCKS
100
AcDbCircle
 10
0.4448405851581152
 20
0.6950448505234239
 30
0.0
 40
0.0080000000000003
  0
CIRCLE
  5
58
330
32
100
AcDbEntity
  8
BLOCKS
100
AcDbCircle
 10
0.4820218884697693
 20
0.5889433799352821
 30
0.0
 40
0.008
  0
CIRCLE
  5
59
330
32
100
AcDbEntity
  8
BLOCKS
100
AcDbCircle
 10
0.4456848583781517
 20
0.6237498558260711
 30
0.0
 40
0.0079999999999998
  0
CIRCLE
  5
5A
330
32
100
AcDbEntity
  8
BLOCKS
100
AcDbCircle
 10
0.4452336919342202
 20
0.5556359308172774
 30
0.0
 40
0.0080000000000002
  0
CIRCLE
  5
5B
330
32
100
AcDbEntity
  8
BLOCKS
100
AcDbCircle
 10
0.3753677316874359
 20
0.6939672143555537
 30
0.0
 40
0.0079999999999991
  0
CIRCLE
  5
5C
330
32
100
AcDbEntity
  8
BLOCKS
100
AcDbCircle
 10
0.3410804526211018
 20
0.6578030659440163
 30
0.0
 40
0.0079999999999993
  0
CIRCLE
  5
5D
330
32
100
AcDbEntity
  8
BLOCKS
100
AcDbCircle
 10
0.3399747547932225
 20
0.729597673828963
 30
0.0
 40
0.0080000000000002
  0
CIRCLE
  5
5E
330
32
100
AcDbEntity
  8
BLOCKS
100
AcDbCircle
 10
0.3764781919606298
 20
0.5556746683646975
 30
0.0
 40
0.0080000000000002
  0
CIRCLE
  5
5F
330
32
100
AcDbEntity
  8
BLOCKS
100
AcDbCircle
 10
0.3769971101163742
 20
0.6242394121339987
 30
0.0
 40
0.008
  0
CIRCLE
  5
60
330
32
100
AcDbEntity
  8
BLOCKS
100
AcDbCircle
 10
0.3415501104845248
 20
0.5904379677872624
 30
0.0
 40
0.0080000000000005
  0
CIRCLE
  5
61
330
32
100
AcDbEntity
  8
BLOCKS
100
AcDbCircle
 10
0.4100062262173993
 20
0.6603275157681095
 30
0.0
 40
0.0079999999999996
  0
CIRCLE
  5
62
330
32
100
AcDbEntity
  8
BLOCKS
100
AcDbCircle
 10
0.4119406916178901
 20
0.5882784405068924
 30
0.0
 40
0.0079999999999993
  0
CIRCLE
  5
63
330
32
100
AcDbEntity
  8
BLOCKS
100
AcDbCircle
 10
0.408905215672819
 20
0.7300786180182616
 30
0.0
 40
0.0080000000000002
  0
CIRCLE
  5
64
330
32
100
AcDbEntity
  8
BLOCKS
100
AcDbCircle
 10
0.4448165085249889
 20
0.4848787273564302
 30
0.0
 40
0.0079999999999996
  0
CIRCLE
  5
65
330
32
100
AcDbEntity
  8
BLOCKS
100
AcDbCircle
 10
0.4490349358471008
 20
0.3420293417711514
 30
0.0
 40
0.0080000000000002
  0
CIRCLE
  5
66
330
32
100
AcDbEntity
  8
BLOCKS
100
AcDbCircle
 10
0.4468853636405333
 20
0.4135493682242191
 30
0.0
 40
0.0079999999999997
  0
CIRCLE
  5
67
330
32
100
AcDbEntity
  8
BLOCKS
100
AcDbCircle
 10
0.3421452246380181
 20
0.5178046955345543
 30
0.0
 40
0.0080000000000002
  0
CIRCLE
  5
68
330
32
100
AcDbEntity
  8
BLOCKS
100
AcDbCircle
 10
0.3423163530545639
 20
0.4481300608191305
 30
0.0
 40
0.0079999999999993
  0
CIRCLE
  5
69
330
32
100
AcDbEntity
  8
BLOCKS
100
AcDbCircle
 10
0.3747804013184464
 20
0.4840932654298774
 30
0.0
 40
0.0079999999999992
  0
CIRCLE
  5
6A
330
32
100
AcDbEntity
  8
BLOCKS
100
AcDbCircle
 10
0.3754683841629344
 20
0.3415153382205221
 30
0.0
 40
0.0080000000000003
  0
CIRCLE
  5
6B
330
32
100
AcDbEntity
  8
BLOCKS
100
AcDbCircle
 10
0.3387699660526709
 20
0.378702899125982
 30
0.0
 40
0.0080000000000001
  0
CIRCLE
  5
6C
330
32
100
AcDbEntity
  8
BLOCKS
100
AcDbCircle
 10
0.3772946395715621
 20
0.4129753397030448
 30
0.0
 40
0.0080000000000004
  0
CIRCLE
  5
6D
330
32
100
AcDbEntity
  8
BLOCKS
100
AcDbCircle
 10
0.4131877686268832
 20
0.3779883492132546
 30
0.0
 40
0.0080000000000003
  0
CIRCLE
  5
6E
330
32
100
AcDbEntity
  8
BLOCKS
100
AcDbCircle
 10
0.4114599807481568
 20
0.5194104538180159
 30
0.0
 40
0.0080000000000003
  0
CIRCLE
  5
6F
330
32
100
AcDbEntity
  8
BLOCKS
100
AcDbCircle
 10
0.4108405911166824
 20
0.4488122002291119
 30
0.0
 40
0.0080000000000002
  0
CIRCLE
  5
70
330
32
100
AcDbEntity
  8
BLOCKS
100
AcDbCircle
 10
0.3067718717751245
 20
0.6922628427859775
 30
0.0
 40
0.0079999999999995
  0
CIRCLE
  5
71
330
32
100
AcDbEntity
  8
BLOCKS
100
AcDbCircle
 10
0.2706153410842695
 20
0.6581641051440351
 30
0.0
 40
0.0080000000000002
  0
CIRCLE
  5
72
330
32
100
AcDbEntity
  8
BLOCKS
100
AcDbCircle
 10
0.269674155960904
 20
0.7290488550109956
 30
0.0
 40
0.007999999999999
  0
CIRCLE
  5
73
330
32
100
AcDbEntity
  8
BLOCKS
100
AcDbCircle
 10
0.3066470197006424
 20
0.5533246612930771
 30
0.0
 40
0.0079999999999995
  0
CIRCLE
  5
74
330
32
100
AcDbEntity
  8
BLOCKS
100
AcDbCircle
 10
0.3067237127914064
 20
0.6231234027945948
 30
0.0
 40
0.0080000000000002
  0
CIRCLE
  5
75
330
32
100
AcDbEntity
  8
BLOCKS
100
AcDbCircle
 10
0.2724532820338732
 20
0.5883109540664089
 30
0.0
 40
0.0080000000000005
  0
CIRCLE
  5
76
330
32
100
AcDbEntity
  8
BLOCKS
100
AcDbCircle
 10
0.2347017801538163
 20
0.6935335223945857
 30
0.0
 40
0.0080000000000001
  0
CIRCLE
  5
77
330
32
100
AcDbEntity
  8
BLOCKS
100
AcDbCircle
 10
0.2013637653203819
 20
0.658993969256759
 30
0.0
 40
0.0079999999999995
  0
CIRCLE
  5
78
330
32
100
AcDbEntity
  8
BLOCKS
100
AcDbCircle
 10
0.1999487431820194
 20
0.7289047766186343
 30
0.0
 40
0.0080000000000005
  0
CIRCLE
  5
79
330
32
100
AcDbEntity
  8
BLOCKS
100
AcDbCircle
 10
0.199843994110995
 20
0.5876341488459059
 30
0.0
 40
0.0080000000000002
  0
CIRCLE
  5
7A
330
32
100
AcDbEntity
  8
BLOCKS
100
AcDbCircle
 10
0.2368542399213834
 20
0.5524415848433387
 30
0.0
 40
0.0080000000000002
  0
CIRCLE
  5
7B
330
32
100
AcDbEntity
  8
BLOCKS
100
AcDbCircle
 10
0.2372776437424704
 20
0.6233141997096357
 30
0.0
 40
0.0080000000000002
  0
CIRCLE
  5
7C
330
32
100
AcDbEntity
  8
BLOCKS
100
AcDbCircle
 10
0.3067914517414124
 20
0.4830728117458352
 30
0.0
 40
0.0080000000000001
  0
CIRCLE
  5
7D
330
32
100
AcDbEntity
  8
BLOCKS
100
AcDbCircle
 10
0.2716177211505397
 20
0.5160391194539057
 30
0.0
 40
0.0079999999999992
  0
CIRCLE
  5
7E
330
32
100
AcDbEntity
  8
BLOCKS
100
AcDbCircle
 10
0.269903387184811
 20
0.4486260013274558
 30
0.0
 40
0.0080000000000002
  0
CIRCLE
  5
7F
330
32
100
AcDbEntity
  8
BLOCKS
100
AcDbCircle
 10
0.3057069901674891
 20
0.3382995092006956
 30
0.0
 40
0.0080000000000003
  0
CIRCLE
  5
80
330
32
100
AcDbEntity
  8
BLOCKS
100
AcDbCircle
 10
0.2703811471110589
 20
0.3743460418370864
 30
0.0
 40
0.0079999999999993
  0
CIRCLE
  5
81
330
32
100
AcDbEntity
  8
BLOCKS
100
AcDbCircle
 10
0.3044096722375366
 20
0.4131467175131628
 30
0.0
 40
0.0080000000000001
  0
CIRCLE
  5
82
330
32
100
AcDbEntity
  8
BLOCKS
100
AcDbCircle
 10
0.2353329124877723
 20
0.4833812187350316
 30
0.0
 40
0.008
  0
CIRCLE
  5
83
330
32
100
AcDbEntity
  8
BLOCKS
100
AcDbCircle
 10
0.1995938330227932
 20
0.5155581934825512
 30
0.0
 40
0.0080000000000002
  0
CIRCLE
  5
84
330
32
100
AcDbEntity
  8
BLOCKS
100
AcDbCircle
 10
0.1979787787284772
 20
0.4454870771652725
 30
0.0
 40
0.0079999999999994
  0
CIRCLE
  5
85
330
32
100
AcDbEntity
  8
BLOCKS
100
AcDbCircle
 10
0.2340260088413174
 20
0.340057690080381
 30
0.0
 40
0.0080000000000002
  0
CIRCLE
  5
86
330
32
100
AcDbEntity
  8
BLOCKS
100
AcDbCircle
 10
0.1994157421483828
 20
0.3736063602990771
 30
0.0
 40
0.0080000000000002
  0
CIRCLE
  5
87
330
32
100
AcDbEntity
  8
BLOCKS
100
AcDbCircle
 10
0.23438817636674
 20
0.4092829173081817
 30
0.0
 40
0.0080000000000002
  0
ARC
  5
88
330
32
100
AcDbEntity
  8
BLOCKS
100
AcDbCircle
 10
0.124891813439915
 20
0.7667393742782293
 30
0.0
 40
0.0199999999999997
100
AcDbArc
 50
89.82603494273359
 51
180.1807501476605
  0
ARC
  5
89
330
32
100
AcDbEntity
  8
BLOCKS
370
     0
100
AcDbCircle
 10
0.0120000000000016
 20
0.8841030090004698
 30
0.0
 40
0.012
100
AcDbArc
 50
90.0
 51
180.0
  0
POLYLINE
  5
8A
330
32
100
AcDbEntity
  8
BLOCKS
100
AcDb2dPolyline
 66
     1
 10
0.0
 20
0.0
 30
0.0
  0
VERTEX
  5
8B
330
8A
100
AcDbEntity
  8
BLOCKS
100
AcDbVertex
100
AcDb2dVertex
 10
0.0508318643468942
 20
0.7856257812044112
 30
0.0
 42
-0.1997067384197746
  0
VERTEX
  5
8C
330
8A
100
AcDbEntity
  8
BLOCKS
100
AcDbVertex
100
AcDb2dVertex
 10
0.0669380673300452
 20
0.8246865978514245
 30
0.0
 42
-0.1997202478959117
  0
VERTEX
  5
8D
330
8A
100
AcDbEntity
  8
BLOCKS
100
AcDbVertex
100
AcDb2dVertex
 10
0.105995509601596
 20
0.8407970897036967
 30
0.0
  0
SEQEND
  5
8E
330
8A
100
AcDbEntity
  8
BLOCKS
  0
LINE
  5
8F
330
32
100
AcDbEntity
  8
BLOCKS
370
     0
100
AcDbLine
 10
0.0120000000000016
 20
0.8961030090004703
 30
0.0
 11
0.4133608313642049
 21
0.8961030090004703
 31
0.0
  0
CIRCLE
  5
90
330
32
100
AcDbEntity
  8
BLOCKS
100
AcDbCircle
 10
0.1600151451593388
 20
0.3366754574053925
 30
0.0
 40
0.0080000000000003
  0
CIRCLE
  5
91
330
32
100
AcDbEntity
  8
BLOCKS
100
AcDbCircle
 10
0.1658556540656059
 20
0.4088380605399994
 30
0.0
 40
0.0080000000000002
  0
CIRCLE
  5
92
330
32
100
AcDbEntity
  8
BLOCKS
100
AcDbCircle
 10
0.1639267291131887
 20
0.6932208380168288
 30
0.0
 40
0.0080000000000002
  0
CIRCLE
  5
93
330
32
100
AcDbEntity
  8
BLOCKS
100
AcDbCircle
 10
0.1647183706975716
 20
0.6248970478268473
 30
0.0
 40
0.008
  0
CIRCLE
  5
94
330
32
100
AcDbEntity
  8
BLOCKS
100
AcDbCircle
 10
0.1648205420118097
 20
0.551806214456791
 30
0.0
 40
0.0079999999999991
  0
CIRCLE
  5
95
330
32
100
AcDbEntity
  8
BLOCKS
100
AcDbCircle
 10
0.1635971113264918
 20
0.4810173230299632
 30
0.0
 40
0.0079999999999989
  0
ARC
  5
96
330
32
100
AcDbEntity
  8
BLOCKS
370
     0
100
AcDbCircle
 10
0.4133608313642049
 20
0.4161030090004704
 30
0.0
 40
0.48
100
AcDbArc
 50
0.0
 51
90.0
  0
CIRCLE
  5
97
330
32
100
AcDbEntity
  8
BLOCKS
100
AcDbCircle
 10
0.4849943249668309
 20
0.3783628811030997
 30
0.0
 40
0.0080000000000002
  0
CIRCLE
  5
98
330
32
100
AcDbEntity
  8
BLOCKS
100
AcDbCircle
 10
0.4829146464927613
 20
0.5202441778507535
 30
0.0
 40
0.0080000000000003
  0
CIRCLE
  5
99
330
32
100
AcDbEntity
  8
BLOCKS
100
AcDbCircle
 10
0.4833257819145706
 20
0.4487986641921794
 30
0.0
 40
0.0080000000000003
  0
ARC
  5
9A
330
32
100
AcDbEntity
  8
BLOCKS
370
     0
100
AcDbCircle
 10
0.8813608313642044
 20
0.0120000000000022
 30
0.0
 40
0.012
100
AcDbArc
 50
270.0
 51
0.0
  0
POLYLINE
  5
9B
330
32
100
AcDbEntity
  8
BLOCKS
100
AcDb2dPolyline
 66
     1
 10
0.0
 20
0.0
 30
0.0
  0
VERTEX
  5
9C
330
9B
100
AcDbEntity
  8
BLOCKS
100
AcDbVertex
100
AcDb2dVertex
 10
0.8813795646554785
 20
-0.0000404232851179
 30
0.0
 42
0.1991974886177961
  0
VERTEX
  5
9D
330
9B
100
AcDbEntity
  8
BLOCKS
100
AcDbVertex
100
AcDb2dVertex
 10
0.8898592018056138
 20
0.0034878095962551
 30
0.0
 42
0.1988316939036554
  0
VERTEX
  5
9E
330
9B
100
AcDbEntity
  8
BLOCKS
100
AcDbVertex
100
AcDb2dVertex
 10
0.8933608313642002
 20
0.0119892526562472
 30
0.0
  0
SEQEND
  5
9F
330
9B
100
AcDbEntity
  8
BLOCKS
  0
ARC
  5
A0
330
32
100
AcDbEntity
  8
BLOCKS
100
AcDbCircle
 10
0.7663544561579489
 20
0.1285004279911857
 30
0.0
 40
0.0200000000000004
100
AcDbArc
 50
270.1236031552018
 51
0.1687645707541401
  0
CIRCLE
  5
A1
330
32
100
AcDbEntity
  8
BLOCKS
100
AcDbCircle
 10
0.5877785925953027
 20
0.2723362790468457
 30
0.0
 40
0.0079999999999998
  0
CIRCLE
  5
A2
330
32
100
AcDbEntity
  8
BLOCKS
100
AcDbCircle
 10
0.5555286065640554
 20
0.235294117801368
 30
0.0
 40
0.0079999999999998
  0
CIRCLE
  5
A3
330
32
100
AcDbEntity
  8
BLOCKS
100
AcDbCircle
 10
0.5200493992118913
 20
0.2708364926423053
 30
0.0
 40
0.0079999999999998
  0
CIRCLE
  5
A4
330
32
100
AcDbEntity
  8
BLOCKS
100
AcDbCircle
 10
0.5189925549427404
 20
0.1996635295327428
 30
0.0
 40
0.0079999999999999
  0
CIRCLE
  5
A5
330
32
100
AcDbEntity
  8
BLOCKS
100
AcDbCircle
 10
0.5522354563813838
 20
0.1658780778774997
 30
0.0
 40
0.0080000000000006
  0
POLYLINE
  5
A6
330
32
100
AcDbEntity
  8
BLOCKS
100
AcDb2dPolyline
 66
     1
 10
0.0
 20
0.0
 30
0.0
 70
     1
  0
VERTEX
  5
A7
330
A6
100
AcDbEntity
  8
BLOCKS
100
AcDbVertex
100
AcDb2dVertex
 10
0.6929964630265454
 20
0.2386856188124841
 30
0.0
 42
5.027950177135214
  0
VERTEX
  5
A8
330
A6
100
AcDbEntity
  8
BLOCKS
100
AcDbVertex
100
AcDb2dVertex
 10
0.722706207101835
 20
0.2281373768376932
 30
0.0
 42
0.1989190948341571
  0
VERTEX
  5
A9
330
A6
100
AcDbEntity
  8
BLOCKS
100
AcDbVertex
100
AcDb2dVertex
 10
0.6929964630265454
 20
0.2386856188124841
 30
0.0
  0
SEQEND
  5
AA
330
A6
100
AcDbEntity
  8
BLOCKS
  0
POLYLINE
  5
AB
330
32
100
AcDbEntity
  8
BLOCKS
100
AcDb2dPolyline
 66
     1
 10
0.0
 20
0.0
 30
0.0
 70
     1
  0
VERTEX
  5
AC
330
AB
100
AcDbEntity
  8
BLOCKS
100
AcDbVertex
100
AcDb2dVertex
 10
0.6474554591113951
 20
0.1655389753376608
 30
0.0
 42
-0.4143551695373368
  0
VERTEX
  5
AD
330
AB
100
AcDbEntity
  8
BLOCKS
100
AcDbVertex
100
AcDb2dVertex
 10
0.6629742574351281
 20
0.246585811577479
 30
0.0
 42
-0.4140655072924414
  0
VERTEX
  5
AE
330
AB
100
AcDbEntity
  8
BLOCKS
100
AcDbVertex
100
AcDb2dVertex
 10
0.7440473713215329
 20
0.2310610543813925
 30
0.0
 42
-0.4143551695373362
  0
VERTEX
  5
AF
330
AB
100
AcDbEntity
  8
BLOCKS
100
AcDbVertex
100
AcDb2dVertex
 10
0.7285285729977956
 20
0.1500142181415743
 30
0.0
 42
-0.4140784315105949
  0
VERTEX
  5
B0
330
AB
100
AcDbEntity
  8
BLOCKS
100
AcDbVertex
100
AcDb2dVertex
 10
0.6474554591113951
 20
0.1655389753376608
 30
0.0
  0
SEQEND
  5
B1
330
AB
100
AcDbEntity
  8
BLOCKS
  0
CIRCLE
  5
B2
330
32
100
AcDbEntity
  8
BLOCKS
100
AcDbCircle
 10
0.4489244823472996
 20
0.2717420108400131
 30
0.0
 40
0.0080000000000002
  0
CIRCLE
  5
B3
330
32
100
AcDbEntity
  8
BLOCKS
100
AcDbCircle
 10
0.4470619269209943
 20
0.199344960244963
 30
0.0
 40
0.0080000000000001
  0
CIRCLE
  5
B4
330
32
100
AcDbEntity
  8
BLOCKS
100
AcDbCircle
 10
0.3761384065908873
 20
0.2674937810481401
 30
0.0
 40
0.0080000000000002
  0
CIRCLE
  5
B5
330
32
100
AcDbEntity
  8
BLOCKS
100
AcDbCircle
 10
0.376284986331641
 20
0.1984270276824407
 30
0.0
 40
0.0079999999999991
  0
CIRCLE
  5
B6
330
32
100
AcDbEntity
  8
BLOCKS
100
AcDbCircle
 10
0.3403111137258543
 20
0.2307517084862877
 30
0.0
 40
0.0080000000000001
  0
CIRCLE
  5
B7
330
32
100
AcDbEntity
  8
BLOCKS
100
AcDbCircle
 10
0.3404024949530026
 20
0.1624705727907064
 30
0.0
 40
0.0080000000000002
  0
CIRCLE
  5
B8
330
32
100
AcDbEntity
  8
BLOCKS
100
AcDbCircle
 10
0.4109874157013906
 20
0.2355890198462293
 30
0.0
 40
0.0079999999999998
  0
CIRCLE
  5
B9
330
32
100
AcDbEntity
  8
BLOCKS
100
AcDbCircle
 10
0.4119108066678314
 20
0.1628975379014343
 30
0.0
 40
0.0079999999999998
  0
CIRCLE
  5
BA
330
32
100
AcDbEntity
  8
BLOCKS
100
AcDbCircle
 10
0.3060703305651782
 20
0.2684641151578069
 30
0.0
 40
0.0080000000000002
  0
CIRCLE
  5
BB
330
32
100
AcDbEntity
  8
BLOCKS
100
AcDbCircle
 10
0.3048170276650739
 20
0.1968753616669449
 30
0.0
 40
0.0079999999999994
  0
CIRCLE
  5
BC
330
32
100
AcDbEntity
  8
BLOCKS
100
AcDbCircle
 10
0.2704890132187416
 20
0.2332638556613358
 30
0.0
 40
0.0079999999999995
  0
ARC
  5
BD
330
32
100
AcDbEntity
  8
BLOCKS
100
AcDbCircle
 10
0.2936248628179669
 20
0.1274806153551833
 30
0.0
 40
0.02
100
AcDbArc
 50
204.5348549117605
 51
270.1236031552012
  0
CIRCLE
  5
BE
330
32
100
AcDbEntity
  8
BLOCKS
100
AcDbCircle
 10
0.2355510937918984
 20
0.2659303057084537
 30
0.0
 40
0.008
  0
ARC
  5
BF
330
32
100
AcDbEntity
  8
BLOCKS
100
AcDbCircle
 10
0.1263897287102759
 20
0.291918526482923
 30
0.0
 40
0.02
100
AcDbArc
 50
180.1807501476589
 51
250.6421830229499
  0
POLYLINE
  5
C0
330
32
100
AcDbEntity
  8
BLOCKS
100
AcDb2dPolyline
 66
     1
 10
0.0
 20
0.0
 30
0.0
  0
VERTEX
  5
C1
330
C0
100
AcDbEntity
  8
BLOCKS
100
AcDbVertex
100
AcDb2dVertex
 10
0.0870760648959527
 20
0.2278432331005137
 30
0.0
  0
VERTEX
  5
C2
330
C0
100
AcDbEntity
  8
BLOCKS
100
AcDbVertex
100
AcDb2dVertex
 10
0.0799937939708593
 20
0.2312231635001888
 30
0.0
  0
VERTEX
  5
C3
330
C0
100
AcDbEntity
  8
BLOCKS
100
AcDbVertex
100
AcDb2dVertex
 10
0.0732582156447165
 20
0.2357574683836049
 30
0.0
  0
VERTEX
  5
C4
330
C0
100
AcDbEntity
  8
BLOCKS
100
AcDbVertex
100
AcDb2dVertex
 10
0.0671393615166494
 20
0.2413875982257662
 30
0.0
  0
VERTEX
  5
C5
330
C0
100
AcDbEntity
  8
BLOCKS
100
AcDbVertex
100
AcDb2dVertex
 10
0.061888920066715
 20
0.2479711144220744
 30
0.0
  0
VERTEX
  5
C6
330
C0
100
AcDbEntity
  8
BLOCKS
100
AcDbVertex
100
AcDb2dVertex
 10
0.0577088081555189
 20
0.2552911045835606
 30
0.0
  0
VERTEX
  5
C7
330
C0
100
AcDbEntity
  8
BLOCKS
100
AcDbVertex
100
AcDb2dVertex
 10
0.0547262339365511
 20
0.2630792506412513
 30
0.0
  0
VERTEX
  5
C8
330
C0
100
AcDbEntity
  8
BLOCKS
100
AcDbVertex
100
AcDb2dVertex
 10
0.052981427954835
 20
0.2710476136953173
 30
0.0
  0
VERTEX
  5
C9
330
C0
100
AcDbEntity
  8
BLOCKS
100
AcDbVertex
100
AcDb2dVertex
 10
0.0524303620029673
 20
0.2789215454748683
 30
0.0
  0
SEQEND
  5
CA
330
C0
100
AcDbEntity
  8
BLOCKS
  0
ARC
  5
CB
330
32
100
AcDbEntity
  8
BLOCKS
370
     0
100
AcDbCircle
 10
0.0120000000000016
 20
0.012000000000001
 30
0.0
 40
0.012
100
AcDbArc
 50
180.0
 51
270.0
  0
POLYLINE
  5
CC
330
32
100
AcDbEntity
  8
BLOCKS
100
AcDb2dPolyline
 66
     1
 10
0.0
 20
0.0
 30
0.0
  0
VERTEX
  5
CD
330
CC
100
AcDbEntity
  8
BLOCKS
100
AcDbVertex
100
AcDb2dVertex
 10
0.2754306861990585
 20
0.1191756808485286
 30
0.0
  0
VERTEX
  5
CE
330
CC
100
AcDbEntity
  8
BLOCKS
100
AcDbVertex
100
AcDb2dVertex
 10
0.26927882406452
 20
0.1326529775233268
 30
0.0
 42
0.1949544086389525
  0
VERTEX
  5
CF
330
CC
100
AcDbEntity
  8
BLOCKS
100
AcDbVertex
100
AcDb2dVertex
 10
0.1215710963937477
 20
0.2723418276166171
 30
0.0
  0
VERTEX
  5
D0
330
CC
100
AcDbEntity
  8
BLOCKS
100
AcDbVertex
100
AcDb2dVertex
 10
0.1197603964979203
 20
0.2730491874797087
 30
0.0
  0
SEQEND
  5
D1
330
CC
100
AcDbEntity
  8
BLOCKS
  0
LINE
  5
D2
330
32
100
AcDbEntity
  8
BLOCKS
370
     0
100
AcDbLine
 10
0.0120000000000016
 20
0.0000000000000011
 30
0.0
 11
0.8813608313642044
 21
0.0000000000000023
 31
0.0
  0
LINE
  5
D3
330
32
100
AcDbEntity
  8
BLOCKS
100
AcDbLine
 10
0.7663976017649635
 20
0.1085004745298249
 30
0.0
 11
0.2936680084249861
 21
0.1074806618938226
 31
0.0
  0
CIRCLE
  5
D4
330
32
100
AcDbEntity
  8
BLOCKS
100
AcDbCircle
 10
0.4843039634071079
 20
0.2353469315983136
 30
0.0
 40
0.0080000000000001
  0
CIRCLE
  5
D5
330
32
100
AcDbEntity
  8
BLOCKS
100
AcDbCircle
 10
0.483376883403605
 20
0.1626455976244881
 30
0.0
 40
0.0080000000000002
  0
LINE
  5
D6
330
32
100
AcDbEntity
  8
BLOCKS
370
     0
100
AcDbLine
 10
0.8933608313642048
 20
0.0120000000000022
 30
0.0
 11
0.8933608313642048
 21
0.4161030090004704
 31
0.0
  0
LINE
  5
D7
330
32
100
AcDbEntity
  8
BLOCKS
370
     0
100
AcDbLine
 10
0.0000000000000011
 20
0.012000000000001
 30
0.0
 11
0.0000000000000011
 21
0.8841030090004698
 31
0.0
  0
LINE
  5
D8
330
32
100
AcDbEntity
  8
BLOCKS
100
AcDbLine
 10
0.1048919129602223
 20
0.766676280678878
 30
0.0
 11
0.1063898282305786
 21
0.2918554328835728
 31
0.0
  0
POLYLINE
  5
D9
330
32
100
AcDbEntity
  8
BLOCKS
100
AcDb2dPolyline
 66
     1
 10
0.0
 20
0.0
 30
0.0
  0
VERTEX
  5
DA
330
D9
100
AcDbEntity
  8
BLOCKS
100
AcDbVertex
100
AcDb2dVertex
 10
0.1249525386072696
 20
0.7867392820893678
 30
0.0
  0
VERTEX
  5
DB
330
D9
100
AcDbEntity
  8
BLOCKS
100
AcDbVertex
100
AcDb2dVertex
 10
0.4106566811445715
 20
0.7858718064973665
 30
0.0
 42
-0.4124386573406989
  0
VERTEX
  5
DC
330
D9
100
AcDbEntity
  8
BLOCKS
100
AcDbVertex
100
AcDb2dVertex
 10
0.7855226121626652
 20
0.4109411266167525
 30
0.0
  0
VERTEX
  5
DD
330
D9
100
AcDbEntity
  8
BLOCKS
100
AcDbVertex
100
AcDb2dVertex
 10
0.7863543693984616
 20
0.1285593378544104
 30
0.0
  0
SEQEND
  5
DE
330
D9
100
AcDbEntity
  8
BLOCKS
  0
LINE
  5
DF
330
32
100
AcDbEntity
  8
BLOCKS
100
AcDbLine
 10
0.0508318643468942
 20
0.7856257812044112
 30
0.0
 11
0.0524303620029673
 21
0.2789215454748683
 31
0.0
  0
POLYLINE
  5
E0
330
32
100
AcDbEntity
  8
BLOCKS
100
AcDb2dPolyline
 66
     1
 10
0.0
 20
0.0
 30
0.0
  0
VERTEX
  5
E1
330
E0
100
AcDbEntity
  8
BLOCKS
100
AcDbVertex
100
AcDb2dVertex
 10
0.105995509601596
 20
0.8407970897036955
 30
0.0
  0
VERTEX
  5
E2
330
E0
100
AcDbEntity
  8
BLOCKS
100
AcDbVertex
100
AcDb2dVertex
 10
0.4108214014014925
 20
0.8398715552728754
 30
0.0
 42
-0.4124402129052902
  0
VERTEX
  5
E3
330
E0
100
AcDbEntity
  8
BLOCKS
100
AcDbVertex
100
AcDb2dVertex
 10
0.8395223819650505
 20
0.4110988072522367
 30
0.0
  0
VERTEX
  5
E4
330
E0
100
AcDbEntity
  8
BLOCKS
100
AcDbVertex
100
AcDb2dVertex
 10
0.8404102183880945
 20
0.1096781204473189
 30
0.0
 42
-0.4158875625105139
  0
VERTEX
  5
E5
330
E0
100
AcDbEntity
  8
BLOCKS
100
AcDbVertex
100
AcDb2dVertex
 10
0.7858244267434453
 20
0.0545422580805314
 30
0.0
  0
VERTEX
  5
E6
330
E0
100
AcDbEntity
  8
BLOCKS
100
AcDbVertex
100
AcDb2dVertex
 10
0.2815455339552932
 20
0.0534543846023735
 30
0.0
 42
-0.2942809045401837
  0
VERTEX
  5
E7
330
E0
100
AcDbEntity
  8
BLOCKS
100
AcDbVertex
100
AcDb2dVertex
 10
0.2313901464537025
 20
0.0856150740481417
 30
0.0
  0
VERTEX
  5
E8
330
E0
100
AcDbEntity
  8
BLOCKS
100
AcDbVertex
100
AcDb2dVertex
 10
0.2201545471934582
 20
0.1102296543553587
 30
0.0
 42
0.1949544086389472
  0
VERTEX
  5
E9
330
E0
100
AcDbEntity
  8
BLOCKS
100
AcDbVertex
100
AcDb2dVertex
 10
0.1019218371776401
 20
0.2220436505894315
 30
0.0
  0
VERTEX
  5
EA
330
E0
100
AcDbEntity
  8
BLOCKS
100
AcDbVertex
100
AcDb2dVertex
 10
0.0870760648959527
 20
0.2278432331005137
 30
0.0
  0
SEQEND
  5
EB
330
E0
100
AcDbEntity
  8
BLOCKS
  0
CIRCLE
  5
EC
330
32
100
AcDbEntity
  8
BLOCKS
100
AcDbCircle
 10
0.3406534656197914
 20
0.3024928902696036
 30
0.0
 40
0.0079999999999991
  0
CIRCLE
  5
ED
330
32
100
AcDbEntity
  8
BLOCKS
100
AcDbCircle
 10
0.4123635910357621
 20
0.3070315514920696
 30
0.0
 40
0.0079999999999997
  0
CIRCLE
  5
EE
330
32
100
AcDbEntity
  8
BLOCKS
100
AcDbCircle
 10
0.268875769871745
 20
0.3040899827045439
 30
0.0
 40
0.0080000000000002
  0
CIRCLE
  5
EF
330
32
100
AcDbEntity
  8
BLOCKS
100
AcDbCircle
 10
0.1995312096014754
 20
0.30033641008426
 30
0.0
 40
0.0080000000000002
  0
CIRCLE
  5
F0
330
32
100
AcDbEntity
  8
BLOCKS
100
AcDbCircle
 10
0.6233479969767199
 20
0.3073022159091647
 30
0.0
 40
0.0080000000000002
  0
CIRCLE
  5
F1
330
32
100
AcDbEntity
  8
BLOCKS
100
AcDbCircle
 10
0.5538703896947459
 20
0.3056318850255718
 30
0.0
 40
0.0079999999999998
  0
CIRCLE
  5
F2
330
32
100
AcDbEntity
  8
BLOCKS
100
AcDbCircle
 10
0.484054540519453
 20
0.3050375289636088
 30
0.0
 40
0.0079999999999997
  0
ENDBLK
  5
F4
330
32
100
AcDbEntity
  8
0
100
AcDbBlockEnd
  0
BLOCK
  5
150
330
F9
100
AcDbEntity
  8
0
100
AcDbBlockBegin
  2
80005CT
 70
     0
 10
0.0
 20
0.0
 30
0.0
  3
80005CT
  1

  0
ARC
  5
FA
330
F9
100
AcDbEntity
  8
BLOCKS
370
     0
100
AcDbCircle
 10
1.248396048480603
 20
0.1126959719383956
 30
0.0
 40
0.0009999999999995
100
AcDbArc
 50
359.8915225798392
 51
89.37276287212673
  0
LINE
  5
FB
330
F9
100
AcDbEntity
  8
BLOCKS
370
     0
100
AcDbLine
 10
1.177183782143847
 20
0.1144756488308519
 30
0.0
 11
1.173599796332637
 21
0.113858725971362
 31
0.0
  0
LINE
  5
FC
330
F9
100
AcDbEntity
  8
BLOCKS
370
     0
100
AcDbLine
 10
1.17654376606395
 20
0.1224831349948568
 30
0.0
 11
1.17167043099504
 21
0.1216442723530008
 31
0.0
  0
LINE
  5
FD
330
F9
100
AcDbEntity
  8
BLOCKS
370
     0
100
AcDbLine
 10
1.17167043099504
 20
0.1216442723530008
 30
0.0
 11
1.169387472986872
 21
0.1208994190441967
 31
0.0
  0
LINE
  5
FE
330
F9
100
AcDbEntity
  8
BLOCKS
370
     0
100
AcDbLine
 10
1.173599796332637
 20
0.113858725971362
 30
0.0
 11
1.172313876308066
 21
0.1134391730134314
 31
0.0
  0
LINE
  5
FF
330
F9
100
AcDbEntity
  8
BLOCKS
370
     0
100
AcDbLine
 10
1.172313876308066
 20
0.1134391730134314
 30
0.0
 11
1.171044428670275
 21
0.1128534921398511
 31
0.0
  0
LINE
  5
100
330
F9
100
AcDbEntity
  8
BLOCKS
370
     0
100
AcDbLine
 10
1.171044428670275
 20
0.1128534921398511
 30
0.0
 11
1.169911597522727
 21
0.1121407165117182
 31
0.0
  0
LINE
  5
101
330
F9
100
AcDbEntity
  8
BLOCKS
370
     0
100
AcDbLine
 10
1.248406995615014
 20
0.1136959120167251
 30
0.0
 11
1.177183782143847
 21
0.1144756488308519
 31
0.0
  0
ARC
  5
102
330
F9
100
AcDbEntity
  8
BLOCKS
370
     0
100
AcDbCircle
 10
1.248397538808867
 20
0.113483134994857
 30
0.0
 40
0.009
100
AcDbArc
 50
359.8915225798394
 51
90.0
  0
LINE
  5
103
330
F9
100
AcDbEntity
  8
BLOCKS
370
     0
100
AcDbLine
 10
1.249182712746514
 20
0.0000151462961173
 30
0.0
 11
1.25718269840836
 21
-0.0000000000000011
 31
0.0
  0
LINE
  5
104
330
F9
100
AcDbEntity
  8
BLOCKS
370
     0
100
AcDbLine
 10
1.249182712746514
 20
0.0000151462961173
 30
0.0
 11
1.249396046688334
 21
0.1126940786513808
 31
0.0
  0
LINE
  5
105
330
F9
100
AcDbEntity
  8
BLOCKS
370
     0
100
AcDbLine
 10
1.25718269840836
 20
-0.0000000000000011
 30
0.0
 11
1.257397522678443
 21
0.1134660954117237
 31
0.0
  0
LINE
  5
106
330
F9
100
AcDbEntity
  8
BLOCKS
370
     0
100
AcDbLine
 10
1.168832490396225
 20
0.1112347122698816
 30
0.0
 11
1.167743724001429
 21
0.1100509114435897
 31
0.0
  0
LINE
  5
107
330
F9
100
AcDbEntity
  8
BLOCKS
370
     0
100
AcDbLine
 10
1.167743724001429
 20
0.1100509114435897
 30
0.0
 11
1.151509196350857
 21
0.0866654163181636
 31
0.0
  0
LINE
  5
108
330
F9
100
AcDbEntity
  8
BLOCKS
370
     0
100
AcDbLine
 10
1.167222539312001
 20
0.1199005907284845
 30
0.0
 11
1.165187293457256
 21
0.1186200171446228
 31
0.0
  0
LINE
  5
109
330
F9
100
AcDbEntity
  8
BLOCKS
370
     0
100
AcDbLine
 10
1.165187293457256
 20
0.1186200171446228
 30
0.0
 11
1.163293398909472
 21
0.1170299280313702
 31
0.0
  0
LINE
  5
10A
330
F9
100
AcDbEntity
  8
BLOCKS
370
     0
100
AcDbLine
 10
1.163293398909472
 20
0.1170299280313702
 30
0.0
 11
1.161484528671144
 21
0.1150631681340985
 31
0.0
  0
LINE
  5
10B
330
F9
100
AcDbEntity
  8
BLOCKS
370
     0
100
AcDbLine
 10
1.161484528671144
 20
0.1150631681340985
 30
0.0
 11
1.144964565924892
 21
0.0912665097655906
 31
0.0
  0
ARC
  5
10C
330
F9
100
AcDbEntity
  8
BLOCKS
370
     0
100
AcDbCircle
 10
1.084384145637304
 20
0.0665213778500902
 30
0.0
 40
0.0430000000000009
100
AcDbArc
 50
271.2424492095607
 51
324.5519112391573
  0
ARC
  5
10D
330
F9
100
AcDbEntity
  8
BLOCKS
370
     0
100
AcDbCircle
 10
1.084384145637304
 20
0.0665213778500891
 30
0.0
 40
0.0349999999999999
100
AcDbArc
 50
271.2424492095597
 51
324.5519112391577
  0
LINE
  5
10E
330
F9
100
AcDbEntity
  8
BLOCKS
370
     0
100
AcDbLine
 10
1.151509196350857
 20
0.0866654163181636
 30
0.0
 11
1.119413722131485
 21
0.0415828780828986
 31
0.0
  0
LINE
  5
10F
330
F9
100
AcDbEntity
  8
BLOCKS
370
     0
100
AcDbLine
 10
1.144964565924892
 20
0.0912665097655906
 30
0.0
 11
1.112896591620942
 21
0.0462225989698175
 31
0.0
  0
LINE
  5
110
330
F9
100
AcDbEntity
  8
BLOCKS
370
     0
100
AcDbLine
 10
1.169911597522727
 20
0.1121407165117182
 30
0.0
 11
1.168832490396225
 21
0.1112347122698816
 31
0.0
  0
LINE
  5
111
330
F9
100
AcDbEntity
  8
BLOCKS
370
     0
100
AcDbLine
 10
1.169387472986872
 20
0.1208994190441967
 30
0.0
 11
1.167222539312001
 21
0.1199005907284845
 31
0.0
  0
LINE
  5
112
330
F9
100
AcDbEntity
  8
BLOCKS
370
     0
100
AcDbLine
 10
0.3199227974586302
 20
0.0077455682455638
 30
0.0
 11
0.3144418238089656
 21
0.0061174782865317
 31
0.0
  0
LINE
  5
113
330
F9
100
AcDbEntity
  8
BLOCKS
370
     0
100
AcDbLine
 10
0.3309546906460719
 20
0.0053720110737027
 30
0.0
 11
0.3266921492601796
 21
0.0020304596039307
 31
0.0
  0
LINE
  5
114
330
F9
100
AcDbEntity
  8
BLOCKS
370
     0
100
AcDbLine
 10
0.3266921492601796
 20
0.0020304596039307
 30
0.0
 11
0.322726246253942
 21
0.0002328351105348
 31
0.0
  0
LINE
  5
115
330
F9
100
AcDbEntity
  8
BLOCKS
370
     0
100
AcDbLine
 10
0.322726246253942
 20
0.0002328351105348
 30
0.0
 11
0.3162093453491388
 21
-0.0017029707526774
 31
0.0
  0
LINE
  5
116
330
F9
100
AcDbEntity
  8
BLOCKS
370
     0
100
AcDbLine
 10
0.3252324702429814
 20
0.0110513713229159
 30
0.0
 11
0.3225134330719084
 21
0.008919825413368
 31
0.0
  0
LINE
  5
117
330
F9
100
AcDbEntity
  8
BLOCKS
370
     0
100
AcDbLine
 10
0.3225134330719084
 20
0.008919825413368
 30
0.0
 11
0.3199227974586302
 21
0.0077455682455638
 31
0.0
  0
ARC
  5
118
330
F9
100
AcDbEntity
  8
BLOCKS
370
     0
100
AcDbCircle
 10
0.3375715689002027
 20
-0.0046885983189657
 30
0.0
 40
0.02
100
AcDbArc
 50
91.24244920955973
 51
128.0941069289227
  0
ARC
  5
119
330
F9
100
AcDbEntity
  8
BLOCKS
370
     0
100
AcDbCircle
 10
0.3365072850418255
 20
-0.0017109752651436
 30
0.0
 40
0.009
100
AcDbArc
 50
91.24244920955971
 51
128.0941069289236
  0
LINE
  5
11A
330
F9
100
AcDbEntity
  8
BLOCKS
370
     0
100
AcDbLine
 10
0.3162093453491388
 20
-0.0017029707526774
 30
0.0
 11
0.3078872102631021
 21
-0.0030102713301505
 31
0.0
  0
LINE
  5
11B
330
F9
100
AcDbEntity
  8
BLOCKS
370
     0
100
AcDbLine
 10
0.3144418238089656
 20
0.0061174782865317
 30
0.0
 11
0.3072383232639277
 21
0.0049859008337478
 31
0.0
  0
LINE
  5
11C
330
F9
100
AcDbEntity
  8
BLOCKS
370
     0
100
AcDbLine
 10
0.2420562228538984
 20
-0.0034138663133717
 30
0.0
 11
0.2345307477401684
 21
-0.002779610872343
 31
0.0
  0
LINE
  5
11D
330
F9
100
AcDbEntity
  8
BLOCKS
370
     0
100
AcDbLine
 10
0.2423682681273431
 20
0.0045881971102472
 30
0.0
 11
0.2359740565114498
 21
0.0051271084011876
 31
0.0
  0
LINE
  5
11E
330
F9
100
AcDbEntity
  8
BLOCKS
370
     0
100
AcDbLine
 10
0.2345307477401684
 20
-0.002779610872343
 30
0.0
 11
0.2295710846045176
 21
-0.0013693952671713
 31
0.0
  0
LINE
  5
11F
330
F9
100
AcDbEntity
  8
BLOCKS
370
     0
100
AcDbLine
 10
0.2359740565114498
 20
0.0051271084011876
 30
0.0
 11
0.2321871895236291
 21
0.006203854699246
 31
0.0
  0
LINE
  5
120
330
F9
100
AcDbEntity
  8
BLOCKS
370
     0
100
AcDbLine
 10
0.2321871895236291
 20
0.006203854699246
 30
0.0
 11
0.2290995588634041
 21
0.0074665048561099
 31
0.0
  0
LINE
  5
121
330
F9
100
AcDbEntity
  8
BLOCKS
370
     0
100
AcDbLine
 10
0.2255073720556629
 20
0.0002924120705245
 30
0.0
 11
0.2162903919470955
 21
0.0058205185752161
 31
0.0
  0
ARC
  5
122
330
F9
100
AcDbEntity
  8
BLOCKS
370
     0
100
AcDbCircle
 10
0.2116612118867442
 20
-0.001897686654554
 30
0.0
 40
0.009
100
AcDbArc
 50
59.04575887496104
 51
86.79160406244214
  0
ARC
  5
123
330
F9
100
AcDbEntity
  8
BLOCKS
370
     0
100
AcDbCircle
 10
0.2107535492688066
 20
-0.0048515166744642
 30
0.0
 40
0.02
100
AcDbArc
 50
59.04575887496108
 51
86.79160406244347
  0
LINE
  5
124
330
F9
100
AcDbEntity
  8
BLOCKS
370
     0
100
AcDbLine
 10
0.2295710846045176
 20
-0.0013693952671713
 30
0.0
 11
0.2255073720556629
 21
0.0002924120705245
 31
0.0
  0
LINE
  5
125
330
F9
100
AcDbEntity
  8
BLOCKS
370
     0
100
AcDbLine
 10
0.2290995588634041
 20
0.0074665048561099
 30
0.0
 11
0.2210406160695856
 21
0.0123000505028028
 31
0.0
  0
LINE
  5
126
330
F9
100
AcDbEntity
  8
BLOCKS
370
     0
100
AcDbLine
 10
0.3078872102631021
 20
-0.0030102713301505
 30
0.0
 11
0.2420562228538984
 21
-0.0034138663133717
 31
0.0
  0
LINE
  5
127
330
F9
100
AcDbEntity
  8
BLOCKS
370
     0
100
AcDbLine
 10
0.3072383232639277
 20
0.0049859008337478
 30
0.0
 11
0.2423682681273431
 21
0.0045881971102472
 31
0.0
  0
LINE
  5
128
330
F9
100
AcDbEntity
  8
BLOCKS
370
     0
100
AcDbLine
 10
0.0960093276207135
 20
0.0864412287052221
 30
0.0
 11
0.0799862384467451
 21
0.1099720995692075
 31
0.0
  0
LINE
  5
129
330
F9
100
AcDbEntity
  8
BLOCKS
370
     0
100
AcDbLine
 10
0.1025951629529391
 20
0.0909831469454878
 30
0.0
 11
0.0862903561897656
 21
0.1149277370454854
 31
0.0
  0
LINE
  5
12A
330
F9
100
AcDbEntity
  8
BLOCKS
370
     0
100
AcDbLine
 10
0.0799862384467451
 20
0.1099720995692075
 30
0.0
 11
0.0789081861560772
 21
0.1111656656198932
 31
0.0
  0
LINE
  5
12B
330
F9
100
AcDbEntity
  8
BLOCKS
370
     0
100
AcDbLine
 10
0.0789081861560772
 20
0.1111656656198932
 30
0.0
 11
0.077837288894666
 21
0.1120813593089599
 31
0.0
  0
LINE
  5
12C
330
F9
100
AcDbEntity
  8
BLOCKS
370
     0
100
AcDbLine
 10
0.077837288894666
 20
0.1120813593089599
 30
0.0
 11
0.0767109281790363
 21
0.1128043164606538
 31
0.0
  0
LINE
  5
12D
330
F9
100
AcDbEntity
  8
BLOCKS
370
     0
100
AcDbLine
 10
0.0767109281790363
 20
0.1128043164606538
 30
0.0
 11
0.0754468109872733
 21
0.1134014153773091
 31
0.0
  0
LINE
  5
12E
330
F9
100
AcDbEntity
  8
BLOCKS
370
     0
100
AcDbLine
 10
0.0754468109872733
 20
0.1134014153773091
 30
0.0
 11
0.0741647247274341
 21
0.1138325415959787
 31
0.0
  0
LINE
  5
12F
330
F9
100
AcDbEntity
  8
BLOCKS
370
     0
100
AcDbLine
 10
0.0741647247274341
 20
0.1138325415959787
 30
0.0
 11
0.0705864449703677
 21
0.1144817427125042
 31
0.0
  0
LINE
  5
130
330
F9
100
AcDbEntity
  8
BLOCKS
370
     0
100
AcDbLine
 10
0.0862903561897656
 20
0.1149277370454854
 30
0.0
 11
0.0844992863025436
 21
0.1169107208305149
 31
0.0
  0
LINE
  5
131
330
F9
100
AcDbEntity
  8
BLOCKS
370
     0
100
AcDbLine
 10
0.0844992863025436
 20
0.1169107208305149
 30
0.0
 11
0.0826198005361903
 21
0.1185178154762377
 31
0.0
  0
LINE
  5
132
330
F9
100
AcDbEntity
  8
BLOCKS
370
     0
100
AcDbLine
 10
0.0826198005361903
 20
0.1185178154762377
 30
0.0
 11
0.0805961794675022
 21
0.1198166811980502
 31
0.0
  0
LINE
  5
133
330
F9
100
AcDbEntity
  8
BLOCKS
370
     0
100
AcDbLine
 10
0.0805961794675022
 20
0.1198166811980502
 30
0.0
 11
0.0784403364095033
 21
0.1208349820033845
 31
0.0
  0
LINE
  5
134
330
F9
100
AcDbEntity
  8
BLOCKS
370
     0
100
AcDbLine
 10
0.0784403364095033
 20
0.1208349820033845
 30
0.0
 11
0.0761641846752264
 21
0.1216003818996762
 31
0.0
  0
LINE
  5
135
330
F9
100
AcDbEntity
  8
BLOCKS
370
     0
100
AcDbLine
 10
0.0761641846752264
 20
0.1216003818996762
 30
0.0
 11
0.0712986084299428
 21
0.1224831349948568
 31
0.0
  0
LINE
  5
136
330
F9
100
AcDbEntity
  8
BLOCKS
370
     0
100
AcDbLine
 10
0.1673712075576168
 20
0.0103715948245929
 30
0.0
 11
0.1605009151347076
 21
0.0124081705581705
 31
0.0
  0
LINE
  5
137
330
F9
100
AcDbEntity
  8
BLOCKS
370
     0
100
AcDbLine
 10
0.1691675178371042
 20
0.0181831990004696
 30
0.0
 11
0.1632331266466735
 21
0.0199423434950597
 31
0.0
  0
LINE
  5
138
330
F9
100
AcDbEntity
  8
BLOCKS
370
     0
100
AcDbLine
 10
0.1605009151347076
 20
0.0124081705581705
 30
0.0
 11
0.155314972138267
 21
0.0146473953623331
 31
0.0
  0
LINE
  5
139
330
F9
100
AcDbEntity
  8
BLOCKS
370
     0
100
AcDbLine
 10
0.155314972138267
 20
0.0146473953623331
 30
0.0
 11
0.1503082839330454
 21
0.0174206919050153
 31
0.0
  0
LINE
  5
13A
330
F9
100
AcDbEntity
  8
BLOCKS
370
     0
100
AcDbLine
 10
0.1632331266466735
 20
0.0199423434950597
 30
0.0
 11
0.1588473296784832
 21
0.0218360753320519
 31
0.0
  0
LINE
  5
13B
330
F9
100
AcDbEntity
  8
BLOCKS
370
     0
100
AcDbLine
 10
0.1588473296784832
 20
0.0218360753320519
 30
0.0
 11
0.1546484020225216
 21
0.0241619384723026
 31
0.0
  0
LINE
  5
13C
330
F9
100
AcDbEntity
  8
BLOCKS
370
     0
100
AcDbLine
 10
0.1546484020225216
 20
0.0241619384723026
 30
0.0
 11
0.1469216383506273
 21
0.0298930697321009
 31
0.0
  0
LINE
  5
13D
330
F9
100
AcDbEntity
  8
BLOCKS
370
     0
100
AcDbLine
 10
0.1744386627965196
 20
0.0092029774741911
 30
0.0
 11
0.1673712075576168
 21
0.0103715948245929
 31
0.0
  0
LINE
  5
13E
330
F9
100
AcDbEntity
  8
BLOCKS
370
     0
100
AcDbLine
 10
0.1753176357260463
 20
0.0171662651495865
 30
0.0
 11
0.1691675178371042
 21
0.0181831990004696
 31
0.0
  0
LINE
  5
13F
330
F9
100
AcDbEntity
  8
BLOCKS
370
     0
100
AcDbLine
 10
0.1417086555702463
 20
0.0237992484424638
 30
0.0
 11
0.1354851360190423
 21
0.0299205698929097
 31
0.0
  0
LINE
  5
140
330
F9
100
AcDbEntity
  8
BLOCKS
370
     0
100
AcDbLine
 10
0.1503082839330454
 20
0.0174206919050153
 30
0.0
 11
0.1417086555702463
 21
0.0237992484424638
 31
0.0
  0
LINE
  5
141
330
F9
100
AcDbEntity
  8
BLOCKS
370
     0
100
AcDbLine
 10
0.1469216383506273
 20
0.0298930697321009
 30
0.0
 11
0.1416211853837013
 21
0.0351064825247454
 31
0.0
  0
LINE
  5
142
330
F9
100
AcDbEntity
  8
BLOCKS
370
     0
100
AcDbLine
 10
0.1354851360190423
 20
0.0299205698929097
 30
0.0
 11
0.0960093276207135
 21
0.0864412287052221
 31
0.0
  0
LINE
  5
143
330
F9
100
AcDbEntity
  8
BLOCKS
370
     0
100
AcDbLine
 10
0.1416211853837013
 20
0.0351064825247454
 30
0.0
 11
0.1025951629529391
 21
0.0909831469454878
 31
0.0
  0
ARC
  5
144
330
F9
100
AcDbEntity
  8
BLOCKS
370
     0
100
AcDbCircle
 10
0.0092101388530136
 20
0.1133630393352121
 30
0.0
 40
0.0009999999999999
100
AcDbArc
 50
90.11080964840051
 51
179.8915225798438
  0
ARC
  5
145
330
F9
100
AcDbEntity
  8
BLOCKS
370
     0
100
AcDbCircle
 10
0.0092101388530136
 20
0.1133630393352121
 30
0.0
 40
0.0089999999999998
100
AcDbArc
 50
90.11080964839488
 51
179.8915225798392
  0
LINE
  5
146
330
F9
100
AcDbEntity
  8
BLOCKS
370
     0
100
AcDbLine
 10
0.0
 20
0.0023802119440836
 30
0.0
 11
0.0079999856618451
 21
0.0023650656479651
 31
0.0
  0
LINE
  5
147
330
F9
100
AcDbEntity
  8
BLOCKS
370
     0
100
AcDbLine
 10
0.008210140645283
 20
0.1133649326222269
 30
0.0
 11
0.0079999856618451
 21
0.0023650656479651
 31
0.0
  0
LINE
  5
148
330
F9
100
AcDbEntity
  8
BLOCKS
370
     0
100
AcDbLine
 10
0.0002101549834379
 20
0.1133800789183454
 30
0.0
 11
0.0
 21
0.0023802119440836
 31
0.0
  0
LINE
  5
149
330
F9
100
AcDbEntity
  8
BLOCKS
370
     0
100
AcDbLine
 10
0.0705864449703677
 20
0.1144817427125042
 30
0.0
 11
0.0092082048610109
 21
0.1143630374650479
 31
0.0
  0
LINE
  5
14A
330
F9
100
AcDbEntity
  8
BLOCKS
370
     0
100
AcDbLine
 10
0.0712986084299428
 20
0.1224831349948568
 30
0.0
 11
0.0091927329249984
 21
0.1223630225037334
 31
0.0
  0
LINE
  5
14B
330
F9
100
AcDbEntity
  8
BLOCKS
370
     0
100
AcDbLine
 10
0.2121649222007
 20
0.0070882065074863
 30
0.0
 11
0.1744386627965196
 21
0.0092029774741911
 31
0.0
  0
LINE
  5
14C
330
F9
100
AcDbEntity
  8
BLOCKS
370
     0
100
AcDbLine
 10
0.2118729055220501
 20
0.0151171347967375
 30
0.0
 11
0.1753176357260463
 21
0.0171662651495865
 31
0.0
  0
LINE
  5
14D
330
F9
100
AcDbEntity
  8
BLOCKS
370
     0
100
AcDbLine
 10
1.085316520229571
 20
0.0235314874382755
 30
0.0
 11
0.3363121368713473
 21
0.007286908774538
 31
0.0
  0
LINE
  5
14E
330
F9
100
AcDbEntity
  8
BLOCKS
370
     0
100
AcDbLine
 10
1.08514305518915
 20
0.0315296065846599
 30
0.0
 11
0.3371379062991491
 21
0.0153066995469942
 31
0.0
  0
LINE
  5
14F
330
F9
100
AcDbEntity
  8
BLOCKS
370
     0
100
AcDbLine
 10
0.0712986084299428
 20
0.1224831349948568
 30
0.0
 11
1.248397538808867
 21
0.1224831349948568
 31
0.0
  0
ENDBLK
  5
151
330
F9
100
AcDbEntity
  8
0
100
AcDbBlockEnd
  0
BLOCK
  5
15F
330
158
100
AcDbEntity
  8
0
100
AcDbBlockBegin
  2
80005AL
 70
     0
 10
0.0
 20
0.0
 30
0.0
  3
80005AL
  1

  0
ARC
  5
159
330
158
100
AcDbEntity
  8
BLOCKS
370
     0
100
AcDbCircle
 10
0.8853685418959413
 20
0.1110012206785359
 30
0.0
 40
0.009
100
AcDbArc
 50
359.0563261111863
 51
90.94367388354964
  0
LINE
  5
15A
330
158
100
AcDbEntity
  8
BLOCKS
370
     0
100
AcDbLine
 10
0.8962649935567458
 20
0.0000000000000006
 30
0.0
 11
0.8943673212174042
 21
0.1108529954323882
 31
0.0
  0
LINE
  5
15B
330
158
100
AcDbEntity
  8
BLOCKS
370
     0
100
AcDbLine
 10
0.0018308209806139
 20
0.1111494459246893
 30
0.0
 11
0.0
 21
0.0000000000000006
 31
0.0
  0
ARC
  5
15C
330
158
100
AcDbEntity
  8
BLOCKS
370
     0
100
AcDbCircle
 10
0.010829600302078
 20
0.1110012206785365
 30
0.0
 40
0.009
100
AcDbArc
 50
82.50365859212585
 51
179.0563261111863
  0
LINE
  5
15D
330
158
100
AcDbEntity
  8
BLOCKS
370
     0
100
AcDbLine
 10
0.8962649935567458
 20
0.0000000000000006
 30
0.0
 11
0.0
 21
0.0000000000000006
 31
0.0
  0
LINE
  5
15E
330
158
100
AcDbEntity
  8
BLOCKS
370
     0
100
AcDbLine
 10
0.0109778255482274
 20
0.1200000000000006
 30
0.0
 11
0.8852203166506177
 21
0.1200000000000006
 31
0.0
  0
ENDBLK
  5
160
330
158
100
AcDbEntity
  8
0
100
AcDbBlockEnd
  0
BLOCK
  5
169
330
162
100
AcDbEntity
  8
0
100
AcDbBlockBegin
  2
80005AF
 70
     0
 10
0.0
 20
0.0
 30
0.0
  3
80005AF
  1

  0
ARC
  5
163
330
162
100
AcDbEntity
  8
BLOCKS
370
     0
100
AcDbCircle
 10
0.8853685418959413
 20
0.1110012206785359
 30
0.0
 40
0.009
100
AcDbArc
 50
359.0563261111863
 51
90.94367388354964
  0
LINE
  5
164
330
162
100
AcDbEntity
  8
BLOCKS
370
     0
100
AcDbLine
 10
0.8962649935567458
 20
0.0000000000000006
 30
0.0
 11
0.8943673212174042
 21
0.1108529954323882
 31
0.0
  0
ARC
  5
165
330
162
100
AcDbEntity
  8
BLOCKS
370
     0
100
AcDbCircle
 10
0.010829600302078
 20
0.1110012206785365
 30
0.0
 40
0.009
100
AcDbArc
 50
82.50365859212585
 51
179.0563261111863
  0
LINE
  5
166
330
162
100
AcDbEntity
  8
BLOCKS
370
     0
100
AcDbLine
 10
0.0018308209806139
 20
0.1111494459246893
 30
0.0
 11
0.0
 21
0.0000000000000006
 31
0.0
  0
LINE
  5
167
330
162
100
AcDbEntity
  8
BLOCKS
370
     0
100
AcDbLine
 10
0.8962649935567458
 20
0.0000000000000006
 30
0.0
 11
0.0
 21
0.0000000000000006
 31
0.0
  0
LINE
  5
168
330
162
100
AcDbEntity
  8
BLOCKS
370
     0
100
AcDbLine
 10
0.0109778255482274
 20
0.1200000000000006
 30
0.0
 11
0.8852203166506177
 21
0.1200000000000006
 31
0.0
  0
ENDBLK
  5
16A
330
162
100
AcDbEntity
  8
0
100
AcDbBlockEnd
  0
ENDSEC
  0
SECTION
  2
ENTITIES
  0
INSERT
  5
152
330
23
100
AcDbEntity
  8
0
100
AcDbBlockReference
  2
80005CT
 10
66.12577069734709
 20
154.7763939006499
 30
0.0
  0
LINE
  5
153
330
23
100
AcDbEntity
  8
sanindusa
100
AcDbLine
 10
66.13377068300893
 20
154.7787589662979
 30
0.0
 11
66.34850017666041
 21
154.7783524210073
 31
0.0
  0
LINE
  5
154
330
23
100
AcDbEntity
  8
sanindusa
100
AcDbLine
 10
66.45187235341062
 20
154.7781567074566
 30
0.0
 11
67.37495341009361
 21
154.776409046946
 31
0.0
  0
INSERT
  5
161
330
23
100
AcDbEntity
  8
0
100
AcDbBlockReference
  2
80005AL
 10
67.73615529116773
 20
154.7763939006499
 30
0.0
  0
INSERT
  5
16B
330
23
100
AcDbEntity
  8
0
100
AcDbBlockReference
  2
80005AF
 10
68.94063184018262
 20
154.7763939006499
 30
0.0
  0
INSERT
  5
1CE
330
23
100
AcDbEntity
  8
0
100
AcDbBlockReference
  2
80005PL
 10
64.88864613144812
 20
154.5422083588008
 30
0.0
 41
-1.0
 50
270.0
  0
ENDSEC
  0
SECTION
  2
OBJECTS
  0
DICTIONARY
  5
C
330
0
100
AcDbDictionary
281
     1
  3
ACAD_COLOR
350
1C
  3
ACAD_GROUP
350
D
  3
ACAD_LAYOUT
350
1A
  3
ACAD_MATERIAL
350
1B
  3
ACAD_MLEADERSTYLE
350
1C9
  3
ACAD_MLINESTYLE
350
17
  3
ACAD_PLOTSETTINGS
350
19
  3
ACAD_PLOTSTYLENAME
350
E
  3
ACAD_SCALELIST
350
1B7
  3
ACAD_TABLESTYLE
350
1D
  3
ACAD_VISUALSTYLE
350
1A3
  3
ACDB_RECOMPOSE_DATA
350
21A
  3
AcDbVariableDictionary
350
F7
  3
Autodesk_PNP
350
1CD
  3
DWGPROPS
350
21B
  0
DICTIONARY
  5
1D1
330
10
100
AcDbDictionary
280
     1
281
     1
  3
ADSK_XREC_LAYER_RECONCILED
360
1D2
  0
DICTIONARY
  5
1D3
330
2F
100
AcDbDictionary
280
     1
281
     1
  3
ADSK_XREC_LAYER_RECONCILED
360
1D4
  0
DICTIONARY
  5
1D5
330
157
100
AcDbDictionary
280
     1
281
     1
  3
ADSK_XREC_LAYER_RECONCILED
360
1D6
  0
DICTIONARY
  5
155
330
23
100
AcDbDictionary
280
     1
281
     1
  3
ACAD_SORTENTS
360
156
  0
DICTIONARY
  5
1C
102
{ACAD_REACTORS
330
C
102
}
330
C
100
AcDbDictionary
281
     1
  0
DICTIONARY
  5
D
102
{ACAD_REACTORS
330
C
102
}
330
C
100
AcDbDictionary
281
     1
  0
DICTIONARY
  5
1A
102
{ACAD_REACTORS
330
C
102
}
330
C
100
AcDbDictionary
281
     1
  3
Layout1
350
22
  3
Layout2
350
2A
  3
Model
350
26
  0
DICTIONARY
  5
1B
102
{ACAD_REACTORS
330
C
102
}
330
C
100
AcDbDictionary
281
     1
  3
ByBlock
350
193
  3
ByLayer
350
18B
  3
Global
350
19B
  0
DICTIONARY
  5
1C9
102
{ACAD_REACTORS
330
C
102
}
330
C
100
AcDbDictionary
281
     1
  3
Standard
350
1CA
  0
DICTIONARY
  5
17
102
{ACAD_REACTORS
330
C
102
}
330
C
100
AcDbDictionary
281
     1
  3
Standard
350
18
  0
DICTIONARY
  5
19
102
{ACAD_REACTORS
330
C
102
}
330
C
100
AcDbDictionary
281
     1
  0
ACDBDICTIONARYWDFLT
  5
E
102
{ACAD_REACTORS
330
C
102
}
330
C
100
AcDbDictionary
281
     1
  3
Normal
350
F
100
AcDbDictionaryWithDefault
340
F
  0
DICTIONARY
  5
1B7
102
{ACAD_REACTORS
330
C
102
}
330
C
100
AcDbDictionary
281
     1
  3
A0
350
1B8
  3
A1
350
1B9
  3
A2
350
1BA
  3
A3
350
1BB
  3
A4
350
1BC
  3
A5
350
1BD
  3
A6
350
1BE
  3
A7
350
1BF
  3
A8
350
1C0
  3
A9
350
1C1
  3
B0
350
1C2
  3
B1
350
1C3
  3
B2
350
1C4
  3
B3
350
1C5
  3
B4
350
1C6
  3
B5
350
1C7
  3
B6
350
1C8
  0
DICTIONARY
  5
1D
102
{ACAD_REACTORS
330
C
102
}
330
C
100
AcDbDictionary
281
     1
  3
Standard
350
1E
  0
DICTIONARY
  5
1A3
102
{ACAD_REACTORS
330
C
102
}
330
C
100
AcDbDictionary
281
     1
  3
2dWireframe
350
1A9
  3
3D Hidden
350
1AB
  3
3dWireframe
350
1AA
  3
Basic
350
1A8
  3
Brighten
350
1AF
  3
ColorChange
350
1B3
  3
Conceptual
350
1AC
  3
Dim
350
1AE
  3
EdgeColorOff
350
1B6
  3
Facepattern
350
1B2
  3
Flat
350
1A4
  3
FlatWithEdges
350
1A5
  3
Gouraud
350
1A6
  3
GouraudWithEdges
350
1A7
  3
JitterOff
350
1B4
  3
Linepattern
350
1B1
  3
OverhangOff
350
1B5
  3
Realistic
350
1AD
  3
Thicken
350
1B0
  0
XRECORD
  5
21A
102
{ACAD_REACTORS
330
C
102
}
330
C
100
AcDbXrecord
280
     1
 90
        1
330
1E
  0
DICTIONARY
  5
F7
102
{ACAD_REACTORS
330
C
102
}
330
C
100
AcDbDictionary
281
     1
  3
CANNOSCALE
350
214
  3
CMLEADERSTYLE
350
213
  3
CTABLESTYLE
350
F8
  3
DIMASSOC
350
175
  3
HIDETEXT
350
174
  3
INDEXCTL
350
216
  3
PROJECTNAME
350
176
  3
SORTENTS
350
215
  3
XCLIPFRAME
350
217
  0
DICTIONARY
  5
1CD
102
{ACAD_REACTORS
330
C
102
}
330
C
100
AcDbDictionary
281
     1
  0
XRECORD
  5
21B
102
{ACAD_REACTORS
330
C
102
}
330
C
100
AcDbXrecord
280
     1
  1
DWGPROPS COOKIE
  2

  3

  4

  6

  7

  8
Julio
  9

300
=
301
=
302
=
303
=
304
=
305
=
306
=
307
=
308
=
309
=
 40
0.0128049189814815
 41
2453910.74779676
 42
2456150.463849642
  1

 90
        0
  0
XRECORD
  5
1D2
102
{ACAD_REACTORS
330
1D1
102
}
330
1D1
100
AcDbXrecord
280
     1
290
     1
  0
XRECORD
  5
1D4
102
{ACAD_REACTORS
330
1D3
102
}
330
1D3
100
AcDbXrecord
280
     1
290
     1
  0
XRECORD
  5
1D6
102
{ACAD_REACTORS
330
1D5
102
}
330
1D5
100
AcDbXrecord
280
     1
290
     1
  0
SORTENTSTABLE
  5
156
102
{ACAD_REACTORS
330
155
102
}
330
155
100
AcDbSortentsTable
330
23
331
152
  5
152
331
153
  5
153
331
154
  5
154
  0
LAYOUT
  5
22
102
{ACAD_XDICTIONARY
360
21D
102
}
102
{ACAD_REACTORS
330
1A
102
}
330
1A
100
AcDbPlotSettings
  1

  2
HP DesignJet 500PS42+HPGL2 Card
  4

  6

 40
0.0
 41
0.0
 42
0.0
 43
0.0
 44
0.0
 45
0.0
 46
0.0
 47
0.0
 48
0.0
 49
0.0
140
0.0
141
0.0
142
1.0
143
1.0
 70
   688
 72
     0
 73
     0
 74
     5
  7
C:\Documents and Settings\Julio\Application Data\Autodesk\AutoCAD 2006\R16.2\enu\Plot Styles\sanindusa.ctb
 75
    16
147
1.0
148
0.0
149
0.0
100
AcDbLayout
  1
Layout1
 70
     1
 71
     1
 10
0.0
 20
0.0
 11
420.0
 21
297.0
 12
0.0
 22
0.0
 32
0.0
 14
1.000000000000000E+20
 24
1.000000000000000E+20
 34
1.000000000000000E+20
 15
-1.000000000000000E+20
 25
-1.000000000000000E+20
 35
-1.000000000000000E+20
146
0.0
 13
0.0
 23
0.0
 33
0.0
 16
1.0
 26
0.0
 36
0.0
 17
0.0
 27
1.0
 37
0.0
 76
     0
330
1F
  0
LAYOUT
  5
2A
102
{ACAD_XDICTIONARY
360
221
102
}
102
{ACAD_REACTORS
330
1A
102
}
330
1A
100
AcDbPlotSettings
  1

  2
HP DesignJet 500PS42+HPGL2 Card
  4

  6

 40
0.0
 41
0.0
 42
0.0
 43
0.0
 44
0.0
 45
0.0
 46
0.0
 47
0.0
 48
0.0
 49
0.0
140
0.0
141
0.0
142
1.0
143
1.0
 70
   688
 72
     0
 73
     0
 74
     5
  7
C:\Documents and Settings\Julio\Application Data\Autodesk\AutoCAD 2006\R16.2\enu\Plot Styles\sanindusa.ctb
 75
    16
147
1.0
148
0.0
149
0.0
100
AcDbLayout
  1
Layout2
 70
     1
 71
     2
 10
0.0
 20
0.0
 11
12.0
 21
9.0
 12
0.0
 22
0.0
 32
0.0
 14
0.0
 24
0.0
 34
0.0
 15
0.0
 25
0.0
 35
0.0
146
0.0
 13
0.0
 23
0.0
 33
0.0
 16
1.0
 26
0.0
 36
0.0
 17
0.0
 27
1.0
 37
0.0
 76
     0
330
27
  0
LAYOUT
  5
26
102
{ACAD_XDICTIONARY
360
21F
102
}
102
{ACAD_REACTORS
330
1A
102
}
330
1A
100
AcDbPlotSettings
  1

  2
HP DesignJet 500PS42+HPGL2 Card
  4

  6

 40
0.0
 41
0.0
 42
0.0
 43
0.0
 44
0.0
 45
0.0
 46
0.0
 47
0.0
 48
0.0
 49
0.0
140
0.0
141
0.0
142
1.0
143
1.0
 70
  1712
 72
     0
 73
     0
 74
     0
  7
C:\Documents and Settings\Julio\Application Data\Autodesk\AutoCAD 2006\R16.2\enu\Plot Styles\sanindusa.ctb
 75
     0
147
1.0
148
0.0
149
0.0
100
AcDbLayout
  1
Model
 70
     1
 71
     0
 10
0.0
 20
0.0
 11
12.0
 21
9.0
 12
0.0
 22
0.0
 32
0.0
 14
0.0
 24
0.0
 34
0.0
 15
0.0
 25
0.0
 35
0.0
146
0.0
 13
0.0
 23
0.0
 33
0.0
 16
1.0
 26
0.0
 36
0.0
 17
0.0
 27
1.0
 37
0.0
 76
     0
330
23
331
182
  0
MATERIAL
  5
193
102
{ACAD_XDICTIONARY
360
194
102
}
102
{ACAD_REACTORS
330
1B
102
}
330
1B
100
AcDbMaterial
  1
ByBlock
 72
     0
 43
0.0008202099737533
 43
0.0
 43
0.0
 43
0.0
 43
0.0
 43
0.0008202099737533
 43
0.0
 43
0.0
 43
0.0
 43
0.0
 43
1.0
 43
0.0
 43
0.0
 43
0.0
 43
0.0
 43
1.0
 77
     0
 47
0.0008202099737533
 47
0.0
 47
0.0
 47
0.0
 47
0.0
 47
0.0008202099737533
 47
0.0
 47
0.0
 47
0.0
 47
0.0
 47
1.0
 47
0.0
 47
0.0
 47
0.0
 47
0.0
 47
1.0
171
     0
 49
0.0008202099737533
 49
0.0
 49
0.0
 49
0.0
 49
0.0
 49
0.0008202099737533
 49
0.0
 49
0.0
 49
0.0
 49
0.0
 49
1.0
 49
0.0
 49
0.0
 49
0.0
 49
0.0
 49
1.0
175
     0
142
0.0008202099737533
142
0.0
142
0.0
142
0.0
142
0.0
142
0.0008202099737533
142
0.0
142
0.0
142
0.0
142
0.0
142
1.0
142
0.0
142
0.0
142
0.0
142
0.0
142
1.0
179
     0
144
0.0008202099737533
144
0.0
144
0.0
144
0.0
144
0.0
144
0.0008202099737533
144
0.0
144
0.0
144
0.0
144
0.0
144
1.0
144
0.0
144
0.0
144
0.0
144
0.0
144
1.0
147
0.0008202099737533
147
0.0
147
0.0
147
0.0
147
0.0
147
0.0008202099737533
147
0.0
147
0.0
147
0.0
147
0.0
147
1.0
147
0.0
147
0.0
147
0.0
147
0.0
147
1.0
  0
MATERIAL
  5
18B
102
{ACAD_XDICTIONARY
360
18C
102
}
102
{ACAD_REACTORS
330
1B
102
}
330
1B
100
AcDbMaterial
  1
ByLayer
 72
     0
 43
0.0008202099737533
 43
0.0
 43
0.0
 43
0.0
 43
0.0
 43
0.0008202099737533
 43
0.0
 43
0.0
 43
0.0
 43
0.0
 43
1.0
 43
0.0
 43
0.0
 43
0.0
 43
0.0
 43
1.0
 77
     0
 47
0.0008202099737533
 47
0.0
 47
0.0
 47
0.0
 47
0.0
 47
0.0008202099737533
 47
0.0
 47
0.0
 47
0.0
 47
0.0
 47
1.0
 47
0.0
 47
0.0
 47
0.0
 47
0.0
 47
1.0
171
     0
 49
0.0008202099737533
 49
0.0
 49
0.0
 49
0.0
 49
0.0
 49
0.0008202099737533
 49
0.0
 49
0.0
 49
0.0
 49
0.0
 49
1.0
 49
0.0
 49
0.0
 49
0.0
 49
0.0
 49
1.0
175
     0
142
0.0008202099737533
142
0.0
142
0.0
142
0.0
142
0.0
142
0.0008202099737533
142
0.0
142
0.0
142
0.0
142
0.0
142
1.0
142
0.0
142
0.0
142
0.0
142
0.0
142
1.0
179
     0
144
0.0008202099737533
144
0.0
144
0.0
144
0.0
144
0.0
144
0.0008202099737533
144
0.0
144
0.0
144
0.0
144
0.0
144
1.0
144
0.0
144
0.0
144
0.0
144
0.0
144
1.0
147
0.0008202099737533
147
0.0
147
0.0
147
0.0
147
0.0
147
0.0008202099737533
147
0.0
147
0.0
147
0.0
147
0.0
147
1.0
147
0.0
147
0.0
147
0.0
147
0.0
147
1.0
  0
MATERIAL
  5
19B
102
{ACAD_XDICTIONARY
360
19C
102
}
102
{ACAD_REACTORS
330
1B
102
}
330
1B
100
AcDbMaterial
  1
Global
 72
     0
 43
0.0008202099737533
 43
0.0
 43
0.0
 43
0.0
 43
0.0
 43
0.0008202099737533
 43
0.0
 43
0.0
 43
0.0
 43
0.0
 43
1.0
 43
0.0
 43
0.0
 43
0.0
 43
0.0
 43
1.0
 77
     0
 47
0.0008202099737533
 47
0.0
 47
0.0
 47
0.0
 47
0.0
 47
0.0008202099737533
 47
0.0
 47
0.0
 47
0.0
 47
0.0
 47
1.0
 47
0.0
 47
0.0
 47
0.0
 47
0.0
 47
1.0
171
     0
 49
0.0008202099737533
 49
0.0
 49
0.0
 49
0.0
 49
0.0
 49
0.0008202099737533
 49
0.0
 49
0.0
 49
0.0
 49
0.0
 49
1.0
 49
0.0
 49
0.0
 49
0.0
 49
0.0
 49
1.0
175
     0
142
0.0008202099737533
142
0.0
142
0.0
142
0.0
142
0.0
142
0.0008202099737533
142
0.0
142
0.0
142
0.0
142
0.0
142
1.0
142
0.0
142
0.0
142
0.0
142
0.0
142
1.0
179
     0
144
0.0008202099737533
144
0.0
144
0.0
144
0.0
144
0.0
144
0.0008202099737533
144
0.0
144
0.0
144
0.0
144
0.0
144
1.0
144
0.0
144
0.0
144
0.0
144
0.0
144
1.0
147
0.0008202099737533
147
0.0
147
0.0
147
0.0
147
0.0
147
0.0008202099737533
147
0.0
147
0.0
147
0.0
147
0.0
147
1.0
147
0.0
147
0.0
147
0.0
147
0.0
147
1.0
  0
MLEADERSTYLE
  5
1CA
102
{ACAD_REACTORS
330
1C9
102
}
330
1C9
100
AcDbMLeaderStyle
170
     2
171
     1
172
     0
 90
        2
 40
0.0
 41
0.0
173
     1
 91
-1056964608
340
14
 92
       -2
290
     1
 42
2.0
291
     1
 43
0.36
  3
Standard
 44
4.0
300

342
11
174
     1
178
     6
175
     1
176
     0
 93
-1056964608
 45
4.0
292
     0
297
     0
 46
4.0
 94
-1056964608
 47
1.0
 49
1.0
140
1.0
293
     1
141
0.0
294
     1
177
     0
142
1.0
295
     0
296
     0
143
0.125
1001
ACAD_MLEADERVER
1070
     2
  0
MLINESTYLE
  5
18
102
{ACAD_REACTORS
330
17
102
}
330
17
100
AcDbMlineStyle
  2
STANDARD
 70
     0
  3

 62
   256
 51
90.0
 52
90.0
 71
     2
 49
0.5
 62
   256
  6
BYLAYER
 49
-0.5
 62
   256
  6
BYLAYER
  0
ACDBPLACEHOLDER
  5
F
102
{ACAD_REACTORS
330
E
102
}
330
E
  0
SCALE
  5
1B8
102
{ACAD_REACTORS
330
1B7
102
}
330
1B7
100
AcDbScale
 70
     0
300
1:1
140
1.0
141
1.0
290
     1
  0
SCALE
  5
1B9
102
{ACAD_REACTORS
330
1B7
102
}
330
1B7
100
AcDbScale
 70
     0
300
1:2
140
1.0
141
2.0
290
     0
  0
SCALE
  5
1BA
102
{ACAD_REACTORS
330
1B7
102
}
330
1B7
100
AcDbScale
 70
     0
300
1:4
140
1.0
141
4.0
290
     0
  0
SCALE
  5
1BB
102
{ACAD_REACTORS
330
1B7
102
}
330
1B7
100
AcDbScale
 70
     0
300
1:5
140
1.0
141
5.0
290
     0
  0
SCALE
  5
1BC
102
{ACAD_REACTORS
330
1B7
102
}
330
1B7
100
AcDbScale
 70
     0
300
1:8
140
1.0
141
8.0
290
     0
  0
SCALE
  5
1BD
102
{ACAD_REACTORS
330
1B7
102
}
330
1B7
100
AcDbScale
 70
     0
300
1:10
140
1.0
141
10.0
290
     0
  0
SCALE
  5
1BE
102
{ACAD_REACTORS
330
1B7
102
}
330
1B7
100
AcDbScale
 70
     0
300
1:16
140
1.0
141
16.0
290
     0
  0
SCALE
  5
1BF
102
{ACAD_REACTORS
330
1B7
102
}
330
1B7
100
AcDbScale
 70
     0
300
1:20
140
1.0
141
20.0
290
     0
  0
SCALE
  5
1C0
102
{ACAD_REACTORS
330
1B7
102
}
330
1B7
100
AcDbScale
 70
     0
300
1:30
140
1.0
141
30.0
290
     0
  0
SCALE
  5
1C1
102
{ACAD_REACTORS
330
1B7
102
}
330
1B7
100
AcDbScale
 70
     0
300
1:40
140
1.0
141
40.0
290
     0
  0
SCALE
  5
1C2
102
{ACAD_REACTORS
330
1B7
102
}
330
1B7
100
AcDbScale
 70
     0
300
1:50
140
1.0
141
50.0
290
     0
  0
SCALE
  5
1C3
102
{ACAD_REACTORS
330
1B7
102
}
330
1B7
100
AcDbScale
 70
     0
300
1:100
140
1.0
141
100.0
290
     0
  0
SCALE
  5
1C4
102
{ACAD_REACTORS
330
1B7
102
}
330
1B7
100
AcDbScale
 70
     0
300
2:1
140
2.0
141
1.0
290
     0
  0
SCALE
  5
1C5
102
{ACAD_REACTORS
330
1B7
102
}
330
1B7
100
AcDbScale
 70
     0
300
4:1
140
4.0
141
1.0
290
     0
  0
SCALE
  5
1C6
102
{ACAD_REACTORS
330
1B7
102
}
330
1B7
100
AcDbScale
 70
     0
300
8:1
140
8.0
141
1.0
290
     0
  0
SCALE
  5
1C7
102
{ACAD_REACTORS
330
1B7
102
}
330
1B7
100
AcDbScale
 70
     0
300
10:1
140
10.0
141
1.0
290
     0
  0
SCALE
  5
1C8
102
{ACAD_REACTORS
330
1B7
102
}
330
1B7
100
AcDbScale
 70
     0
300
100:1
140
100.0
141
1.0
290
     0
  0
TABLESTYLE
  5
1E
102
{ACAD_XDICTIONARY
360
218
102
}
102
{ACAD_REACTORS
330
1D
102
}
330
1D
100
AcDbTableStyle
  3
Standard
 70
     0
 71
     0
 40
1.5
 41
1.5
280
     0
281
     0
  7
Standard
140
4.5
170
     2
 62
     0
 63
     7
283
     0
274
    -2
284
     1
 64
     0
275
    -2
285
     1
 65
     0
276
    -2
286
     1
 66
     0
277
    -2
287
     1
 67
     0
278
    -2
288
     1
 68
     0
279
    -2
289
     1
 69
     0
  7
Standard
140
6.0
170
     5
 62
     0
 63
     7
283
     0
274
    -2
284
     1
 64
     0
275
    -2
285
     1
 65
     0
276
    -2
286
     1
 66
     0
277
    -2
287
     1
 67
     0
278
    -2
288
     1
 68
     0
279
    -2
289
     1
 69
     0
  7
Standard
140
4.5
170
     5
 62
     0
 63
     7
283
     0
274
    -2
284
     1
 64
     0
275
    -2
285
     1
 65
     0
276
    -2
286
     1
 66
     0
277
    -2
287
     1
 67
     0
278
    -2
288
     1
 68
     0
279
    -2
289
     1
 69
     0
  0
VISUALSTYLE
  5
1A9
102
{ACAD_XDICTIONARY
360
230
102
}
102
{ACAD_REACTORS
330
1A3
102
}
330
1A3
100
AcDbVisualStyle
  2
2dWireframe
 70
     4
 71
     0
 72
     2
 73
     0
 90
        0
 40
-0.6
 41
-30.0
 62
     5
 63
     7
 74
     1
 91
        4
 64
     7
 65
   257
 75
     1
175
     1
 42
1.0
 92
        0
 66
   257
 43
1.0
 76
     1
 77
     6
 78
     2
 67
     7
 79
     5
170
     0
171
     0
290
     0
174
     0
 93
        1
 44
0.0
173
     0
291
     0
 45
0.0
1001
ACAD
1000
AcDbSavedByObjectVersion
1070
     0
  0
VISUALSTYLE
  5
1AB
102
{ACAD_XDICTIONARY
360
234
102
}
102
{ACAD_REACTORS
330
1A3
102
}
330
1A3
100
AcDbVisualStyle
  2
3D Hidden
 70
     6
 71
     1
 72
     2
 73
     2
 90
        0
 40
-0.6
 41
-30.0
 62
     5
 63
     7
 74
     2
 91
        2
 64
     7
 65
   257
 75
     2
175
     1
 42
179.0
 92
        0
 66
   257
 43
1.0
 76
     1
 77
     6
 78
     2
 67
     7
 79
     3
170
     0
171
     0
290
     0
174
     0
 93
        1
 44
0.0
173
     0
291
     0
 45
0.0
1001
ACAD
1000
AcDbSavedByObjectVersion
1070
     0
  0
VISUALSTYLE
  5
1AA
102
{ACAD_XDICTIONARY
360
232
102
}
102
{ACAD_REACTORS
330
1A3
102
}
330
1A3
100
AcDbVisualStyle
  2
3dWireframe
 70
     5
 71
     0
 72
     2
 73
     0
 90
        0
 40
-0.6
 41
-30.0
 62
     5
 63
     7
 74
     1
 91
        4
 64
     7
 65
   257
 75
     1
175
     1
 42
1.0
 92
        0
 66
   257
 43
1.0
 76
     1
 77
     6
 78
     2
 67
     7
 79
     5
170
     0
171
     0
290
     0
174
     0
 93
        1
 44
0.0
173
     0
291
     0
 45
0.0
1001
ACAD
1000
AcDbSavedByObjectVersion
1070
     0
  0
VISUALSTYLE
  5
1A8
102
{ACAD_XDICTIONARY
360
22E
102
}
102
{ACAD_REACTORS
330
1A3
102
}
330
1A3
100
AcDbVisualStyle
  2
Basic
 70
     7
 71
     1
 72
     0
 73
     1
 90
        0
 40
-0.6
 41
-30.0
 62
     5
 63
     7
 74
     0
 91
        4
 64
     7
 65
   257
 75
     1
175
     1
 42
1.0
 92
        8
 66
     7
 43
1.0
 76
     1
 77
     6
 78
     2
 67
     7
 79
     5
170
     0
171
     0
290
     0
174
     0
 93
        1
 44
0.0
173
     0
291
     1
 45
0.0
1001
ACAD
1000
AcDbSavedByObjectVersion
1070
     0
  0
VISUALSTYLE
  5
1AF
102
{ACAD_XDICTIONARY
360
23C
102
}
102
{ACAD_REACTORS
330
1A3
102
}
330
1A3
100
AcDbVisualStyle
  2
Brighten
 70
    12
 71
     2
 72
     2
 73
     0
 90
        0
 40
-0.6
 41
-30.0
 62
     5
 63
     7
 74
     1
 91
        4
 64
     7
 65
   257
 75
     1
175
     1
 42
1.0
 92
        8
 66
     7
 43
1.0
 76
     1
 77
     6
 78
     2
 67
     7
 79
     5
170
     0
171
     0
290
     0
174
     0
 93
        1
 44
50.0
173
     0
291
     1
 45
0.0
1001
ACAD
1000
AcDbSavedByObjectVersion
1070
     0
  0
VISUALSTYLE
  5
1B3
102
{ACAD_XDICTIONARY
360
244
102
}
102
{ACAD_REACTORS
330
1A3
102
}
330
1A3
100
AcDbVisualStyle
  2
ColorChange
 70
    16
 71
     2
 72
     2
 73
     3
 90
        0
 40
-0.6
 41
-30.0
 62
     5
 63
     8
 74
     1
 91
        4
 64
     7
 65
   257
 75
     1
175
     1
 42
1.0
 92
        8
 66
     8
 43
1.0
 76
     1
 77
     6
 78
     2
 67
     7
 79
     5
170
     0
171
     0
290
     0
174
     0
 93
        1
 44
0.0
173
     0
291
     1
 45
0.0
1001
ACAD
1000
AcDbSavedByObjectVersion
1070
     0
  0
VISUALSTYLE
  5
1AC
102
{ACAD_XDICTIONARY
360
236
102
}
102
{ACAD_REACTORS
330
1A3
102
}
330
1A3
100
AcDbVisualStyle
  2
Conceptual
 70
     9
 71
     3
 72
     2
 73
     0
 90
        0
 40
-0.6
 41
-30.0
 62
     5
 63
     7
 74
     2
 91
        2
 64
     7
 65
   257
 75
     1
175
     1
 42
179.0
 92
        8
 66
     7
 43
1.0
 76
     1
 77
     6
 78
     2
 67
     7
 79
     3
170
     0
171
     0
290
     0
174
     0
 93
        1
 44
0.0
173
     0
291
     0
 45
0.0
1001
ACAD
1000
AcDbSavedByObjectVersion
1070
     0
  0
VISUALSTYLE
  5
1AE
102
{ACAD_XDICTIONARY
360
23A
102
}
102
{ACAD_REACTORS
330
1A3
102
}
330
1A3
100
AcDbVisualStyle
  2
Dim
 70
    11
 71
     2
 72
     2
 73
     0
 90
        0
 40
-0.6
 41
-30.0
 62
     5
 63
     7
 74
     1
 91
        4
 64
     7
 65
   257
 75
     1
175
     1
 42
1.0
 92
        8
 66
     7
 43
1.0
 76
     1
 77
     6
 78
     2
 67
     7
 79
     5
170
     0
171
     0
290
     0
174
     0
 93
        1
 44
-50.0
173
     0
291
     1
 45
0.0
1001
ACAD
1000
AcDbSavedByObjectVersion
1070
     0
  0
VISUALSTYLE
  5
1B6
102
{ACAD_XDICTIONARY
360
24A
102
}
102
{ACAD_REACTORS
330
1A3
102
}
330
1A3
100
AcDbVisualStyle
  2
EdgeColorOff
 70
    22
 71
     2
 72
     2
 73
     0
 90
        0
 40
-0.6
 41
-30.0
 62
     5
 63
     7
 74
     1
 91
        4
 64
     7
 65
   257
 75
     1
175
     1
 42
1.0
 92
        8
 66
     7
 43
1.0
 76
     1
 77
     6
 78
     2
 67
     7
 79
     5
170
     0
171
     0
290
     0
174
     0
 93
        1
 44
0.0
173
     0
291
     1
 45
0.0
1001
ACAD
1000
AcDbSavedByObjectVersion
1070
     0
  0
VISUALSTYLE
  5
1B2
102
{ACAD_XDICTIONARY
360
242
102
}
102
{ACAD_REACTORS
330
1A3
102
}
330
1A3
100
AcDbVisualStyle
  2
Facepattern
 70
    15
 71
     2
 72
     2
 73
     0
 90
        0
 40
-0.6
 41
-30.0
 62
     5
 63
     7
 74
     1
 91
        4
 64
     7
 65
   257
 75
     1
175
     1
 42
1.0
 92
        8
 66
     7
 43
1.0
 76
     1
 77
     6
 78
     2
 67
     7
 79
     5
170
     0
171
     0
290
     0
174
     0
 93
        1
 44
0.0
173
     0
291
     1
 45
0.0
1001
ACAD
1000
AcDbSavedByObjectVersion
1070
     0
  0
VISUALSTYLE
  5
1A4
102
{ACAD_XDICTIONARY
360
226
102
}
102
{ACAD_REACTORS
330
1A3
102
}
330
1A3
100
AcDbVisualStyle
  2
Flat
 70
     0
 71
     2
 72
     1
 73
     1
 90
        2
 40
-0.6
 41
30.0
 62
     5
 63
     7
 74
     0
 91
        4
 64
     7
 65
   257
 75
     1
175
     1
 42
1.0
 92
        8
 66
     7
 43
1.0
 76
     1
 77
     6
 78
     2
 67
     7
 79
     5
170
     0
171
     0
290
     0
174
     0
 93
       13
 44
0.0
173
     0
291
     1
 45
0.0
1001
ACAD
1000
AcDbSavedByObjectVersion
1070
     0
  0
VISUALSTYLE
  5
1A5
102
{ACAD_XDICTIONARY
360
228
102
}
102
{ACAD_REACTORS
330
1A3
102
}
330
1A3
100
AcDbVisualStyle
  2
FlatWithEdges
 70
     1
 71
     2
 72
     1
 73
     1
 90
        2
 40
-0.6
 41
30.0
 62
     5
 63
     7
 74
     1
 91
        4
 64
     7
 65
   257
 75
     1
175
     1
 42
1.0
 92
        0
 66
   257
 43
1.0
 76
     1
 77
     6
 78
     2
 67
     7
 79
     5
170
     0
171
     0
290
     0
174
     0
 93
       13
 44
0.0
173
     0
291
     1
 45
0.0
1001
ACAD
1000
AcDbSavedByObjectVersion
1070
     0
  0
VISUALSTYLE
  5
1A6
102
{ACAD_XDICTIONARY
360
22A
102
}
102
{ACAD_REACTORS
330
1A3
102
}
330
1A3
100
AcDbVisualStyle
  2
Gouraud
 70
     2
 71
     2
 72
     2
 73
     1
 90
        2
 40
-0.6
 41
30.0
 62
     5
 63
     7
 74
     0
 91
        4
 64
     7
 65
   257
 75
     1
175
     1
 42
1.0
 92
        0
 66
     7
 43
1.0
 76
     1
 77
     6
 78
     2
 67
     7
 79
     5
170
     0
171
     0
290
     0
174
     0
 93
       13
 44
0.0
173
     0
291
     1
 45
0.0
1001
ACAD
1000
AcDbSavedByObjectVersion
1070
     0
  0
VISUALSTYLE
  5
1A7
102
{ACAD_XDICTIONARY
360
22C
102
}
102
{ACAD_REACTORS
330
1A3
102
}
330
1A3
100
AcDbVisualStyle
  2
GouraudWithEdges
 70
     3
 71
     2
 72
     2
 73
     1
 90
        2
 40
-0.6
 41
30.0
 62
     5
 63
     7
 74
     1
 91
        4
 64
     7
 65
   257
 75
     1
175
     1
 42
1.0
 92
        0
 66
   257
 43
1.0
 76
     1
 77
     6
 78
     2
 67
     7
 79
     5
170
     0
171
     0
290
     0
174
     0
 93
       13
 44
0.0
173
     0
291
     1
 45
0.0
1001
ACAD
1000
AcDbSavedByObjectVersion
1070
     0
  0
VISUALSTYLE
  5
1B4
102
{ACAD_XDICTIONARY
360
246
102
}
102
{ACAD_REACTORS
330
1A3
102
}
330
1A3
100
AcDbVisualStyle
  2
JitterOff
 70
    20
 71
     2
 72
     2
 73
     0
 90
        0
 40
-0.6
 41
-30.0
 62
     5
 63
     7
 74
     1
 91
        4
 64
     7
 65
   257
 75
     1
175
     1
 42
1.0
 92
       10
 66
     7
 43
1.0
 76
     1
 77
     6
 78
     2
 67
     7
 79
     5
170
     0
171
     0
290
     0
174
     0
 93
        1
 44
0.0
173
     0
291
     1
 45
0.0
1001
ACAD
1000
AcDbSavedByObjectVersion
1070
     0
  0
VISUALSTYLE
  5
1B1
102
{ACAD_XDICTIONARY
360
240
102
}
102
{ACAD_REACTORS
330
1A3
102
}
330
1A3
100
AcDbVisualStyle
  2
Linepattern
 70
    14
 71
     2
 72
     2
 73
     0
 90
        0
 40
-0.6
 41
-30.0
 62
     5
 63
     7
 74
     1
 91
        4
 64
     7
 65
   257
 75
     7
175
     7
 42
1.0
 92
        8
 66
     7
 43
1.0
 76
     1
 77
     6
 78
     2
 67
     7
 79
     5
170
     0
171
     0
290
     0
174
     0
 93
        1
 44
0.0
173
     0
291
     1
 45
0.0
1001
ACAD
1000
AcDbSavedByObjectVersion
1070
     0
  0
VISUALSTYLE
  5
1B5
102
{ACAD_XDICTIONARY
360
248
102
}
102
{ACAD_REACTORS
330
1A3
102
}
330
1A3
100
AcDbVisualStyle
  2
OverhangOff
 70
    21
 71
     2
 72
     2
 73
     0
 90
        0
 40
-0.6
 41
-30.0
 62
     5
 63
     7
 74
     1
 91
        4
 64
     7
 65
   257
 75
     1
175
     1
 42
1.0
 92
        9
 66
     7
 43
1.0
 76
     1
 77
     6
 78
     2
 67
     7
 79
     5
170
     0
171
     0
290
     0
174
     0
 93
        1
 44
0.0
173
     0
291
     1
 45
0.0
1001
ACAD
1000
AcDbSavedByObjectVersion
1070
     0
  0
VISUALSTYLE
  5
1AD
102
{ACAD_XDICTIONARY
360
238
102
}
102
{ACAD_REACTORS
330
1A3
102
}
330
1A3
100
AcDbVisualStyle
  2
Realistic
 70
     8
 71
     2
 72
     2
 73
     0
 90
        0
 40
-0.6
 41
-30.0
 62
     5
 63
     7
 74
     1
 91
        0
 64
     7
 65
   257
 75
     1
175
     1
 42
1.0
 92
        8
 66
     8
 43
1.0
 76
     1
 77
     6
 78
     2
 67
     7
 79
     5
170
     0
171
     0
290
     0
174
     0
 93
       13
 44
0.0
173
     0
291
     0
 45
0.0
1001
ACAD
1000
AcDbSavedByObjectVersion
1070
     0
  0
VISUALSTYLE
  5
1B0
102
{ACAD_XDICTIONARY
360
23E
102
}
102
{ACAD_REACTORS
330
1A3
102
}
330
1A3
100
AcDbVisualStyle
  2
Thicken
 70
    13
 71
     2
 72
     2
 73
     0
 90
        0
 40
-0.6
 41
-30.0
 62
     5
 63
     7
 74
     1
 91
        4
 64
     7
 65
   257
 75
     1
175
     1
 42
1.0
 92
       12
 66
     7
 43
1.0
 76
     1
 77
     6
 78
     2
 67
     7
 79
     5
170
     0
171
     0
290
     0
174
     0
 93
        1
 44
0.0
173
     0
291
     1
 45
0.0
1001
ACAD
1000
AcDbSavedByObjectVersion
1070
     0
  0
DICTIONARYVAR
  5
214
102
{ACAD_REACTORS
330
F7
102
}
330
F7
100
DictionaryVariables
280
     0
  1
1:1
  0
DICTIONARYVAR
  5
213
102
{ACAD_REACTORS
330
F7
102
}
330
F7
100
DictionaryVariables
280
     0
  1
STANDARD
  0
DICTIONARYVAR
  5
F8
102
{ACAD_REACTORS
330
F7
102
}
330
F7
100
DictionaryVariables
280
     0
  1
STANDARD
  0
DICTIONARYVAR
  5
175
102
{ACAD_REACTORS
330
F7
102
}
330
F7
100
DictionaryVariables
280
     0
  1
2
  0
DICTIONARYVAR
  5
174
102
{ACAD_REACTORS
330
F7
102
}
330
F7
100
DictionaryVariables
280
     0
  1
1
  0
DICTIONARYVAR
  5
216
102
{ACAD_REACTORS
330
F7
102
}
330
F7
100
DictionaryVariables
280
     0
  1
0
  0
DICTIONARYVAR
  5
176
102
{ACAD_REACTORS
330
F7
102
}
330
F7
100
DictionaryVariables
280
     0
  1

  0
DICTIONARYVAR
  5
215
102
{ACAD_REACTORS
330
F7
102
}
330
F7
100
DictionaryVariables
280
     0
  1
127
  0
DICTIONARYVAR
  5
217
102
{ACAD_REACTORS
330
F7
102
}
330
F7
100
DictionaryVariables
280
     0
  1
2
  0
DICTIONARY
  5
21D
330
22
100
AcDbDictionary
280
     1
281
     1
  3
ACAD_XREC_ROUNDTRIP
360
21E
  0
DICTIONARY
  5
221
330
2A
100
AcDbDictionary
280
     1
281
     1
  3
ACAD_XREC_ROUNDTRIP
360
222
  0
DICTIONARY
  5
21F
330
26
100
AcDbDictionary
280
     1
281
     1
  3
ACAD_XREC_ROUNDTRIP
360
220
  0
DICTIONARY
  5
194
330
193
100
AcDbDictionary
280
     1
281
     1
  3
ACAD_XREC_ROUNDTRIP
360
224
  3
BUMPTILE
360
196
  3
DIFFUSETILE
360
195
  3
OPACITYTILE
360
199
  3
REFLECTIONTILE
360
198
  3
REFRACTIONTILE
360
19A
  3
SPECULARTILE
360
197
  0
DICTIONARY
  5
18C
330
18B
100
AcDbDictionary
280
     1
281
     1
  3
ACAD_XREC_ROUNDTRIP
360
223
  3
BUMPTILE
360
18E
  3
DIFFUSETILE
360
18D
  3
OPACITYTILE
360
191
  3
REFLECTIONTILE
360
190
  3
REFRACTIONTILE
360
192
  3
SPECULARTILE
360
18F
  0
DICTIONARY
  5
19C
330
19B
100
AcDbDictionary
280
     1
281
     1
  3
ACAD_XREC_ROUNDTRIP
360
225
  3
BUMPTILE
360
19E
  3
DIFFUSETILE
360
19D
  3
OPACITYTILE
360
1A1
  3
REFLECTIONTILE
360
1A0
  3
REFRACTIONTILE
360
1A2
  3
SPECULARTILE
360
19F
  0
DICTIONARY
  5
218
330
1E
100
AcDbDictionary
280
     1
281
     1
  3
ACAD_ROUNDTRIP_2008_TABLESTYLE_CELLSTYLEMAP
360
219
  3
ACAD_XREC_ROUNDTRIP
360
21C
  0
DICTIONARY
  5
230
330
1A9
100
AcDbDictionary
280
     1
281
     1
  3
ACAD_XREC_ROUNDTRIP
360
231
  0
DICTIONARY
  5
234
330
1AB
100
AcDbDictionary
280
     1
281
     1
  3
ACAD_XREC_ROUNDTRIP
360
235
  0
DICTIONARY
  5
232
330
1AA
100
AcDbDictionary
280
     1
281
     1
  3
ACAD_XREC_ROUNDTRIP
360
233
  0
DICTIONARY
  5
22E
330
1A8
100
AcDbDictionary
280
     1
281
     1
  3
ACAD_XREC_ROUNDTRIP
360
22F
  0
DICTIONARY
  5
23C
330
1AF
100
AcDbDictionary
280
     1
281
     1
  3
ACAD_XREC_ROUNDTRIP
360
23D
  0
DICTIONARY
  5
244
330
1B3
100
AcDbDictionary
280
     1
281
     1
  3
ACAD_XREC_ROUNDTRIP
360
245
  0
DICTIONARY
  5
236
330
1AC
100
AcDbDictionary
280
     1
281
     1
  3
ACAD_XREC_ROUNDTRIP
360
237
  0
DICTIONARY
  5
23A
330
1AE
100
AcDbDictionary
280
     1
281
     1
  3
ACAD_XREC_ROUNDTRIP
360
23B
  0
DICTIONARY
  5
24A
330
1B6
100
AcDbDictionary
280
     1
281
     1
  3
ACAD_XREC_ROUNDTRIP
360
24B
  0
DICTIONARY
  5
242
330
1B2
100
AcDbDictionary
280
     1
281
     1
  3
ACAD_XREC_ROUNDTRIP
360
243
  0
DICTIONARY
  5
226
330
1A4
100
AcDbDictionary
280
     1
281
     1
  3
ACAD_XREC_ROUNDTRIP
360
227
  0
DICTIONARY
  5
228
330
1A5
100
AcDbDictionary
280
     1
281
     1
  3
ACAD_XREC_ROUNDTRIP
360
229
  0
DICTIONARY
  5
22A
330
1A6
100
AcDbDictionary
280
     1
281
     1
  3
ACAD_XREC_ROUNDTRIP
360
22B
  0
DICTIONARY
  5
22C
330
1A7
100
AcDbDictionary
280
     1
281
     1
  3
ACAD_XREC_ROUNDTRIP
360
22D
  0
DICTIONARY
  5
246
330
1B4
100
AcDbDictionary
280
     1
281
     1
  3
ACAD_XREC_ROUNDTRIP
360
247
  0
DICTIONARY
  5
240
330
1B1
100
AcDbDictionary
280
     1
281
     1
  3
ACAD_XREC_ROUNDTRIP
360
241
  0
DICTIONARY
  5
248
330
1B5
100
AcDbDictionary
280
     1
281
     1
  3
ACAD_XREC_ROUNDTRIP
360
249
  0
DICTIONARY
  5
238
330
1AD
100
AcDbDictionary
280
     1
281
     1
  3
ACAD_XREC_ROUNDTRIP
360
239
  0
DICTIONARY
  5
23E
330
1B0
100
AcDbDictionary
280
     1
281
     1
  3
ACAD_XREC_ROUNDTRIP
360
23F
  0
XRECORD
  5
21E
102
{ACAD_REACTORS
330
21D
102
}
330
21D
100
AcDbXrecord
280
     1
102
SHADEPLOT
 70
     0
102
SHADEPLOTRESLEVEL
 70
     2
102
SHADEPLOTCUSTOMDPI
 70
   300
  0
XRECORD
  5
222
102
{ACAD_REACTORS
330
221
102
}
330
221
100
AcDbXrecord
280
     1
102
SHADEPLOT
 70
     0
102
SHADEPLOTRESLEVEL
 70
     2
102
SHADEPLOTCUSTOMDPI
 70
   300
  0
XRECORD
  5
220
102
{ACAD_REACTORS
330
21F
102
}
330
21F
100
AcDbXrecord
280
     1
102
SHADEPLOT
 70
     0
102
SHADEPLOTRESLEVEL
 70
     2
102
SHADEPLOTCUSTOMDPI
 70
   300
  0
XRECORD
  5
224
102
{ACAD_REACTORS
330
194
102
}
330
194
100
AcDbXrecord
280
     1
102
MATERIAL
148
0.0
149
0.0
149
0.0
 93
        0
 94
      127
282
     0
 72
     0
 77
     0
171
     0
175
     0
179
     0
273
     0
  0
XRECORD
  5
196
102
{ACAD_REACTORS
330
194
102
}
330
194
100
AcDbXrecord
280
     1
270
     1
271
     1
  0
XRECORD
  5
195
102
{ACAD_REACTORS
330
194
102
}
330
194
100
AcDbXrecord
280
     1
270
     1
271
     1
  0
XRECORD
  5
199
102
{ACAD_REACTORS
330
194
102
}
330
194
100
AcDbXrecord
280
     1
270
     1
271
     1
  0
XRECORD
  5
198
102
{ACAD_REACTORS
330
194
102
}
330
194
100
AcDbXrecord
280
     1
270
     1
271
     1
  0
XRECORD
  5
19A
102
{ACAD_REACTORS
330
194
102
}
330
194
100
AcDbXrecord
280
     1
270
     1
271
     1
  0
XRECORD
  5
197
102
{ACAD_REACTORS
330
194
102
}
330
194
100
AcDbXrecord
280
     1
270
     1
271
     1
  0
XRECORD
  5
223
102
{ACAD_REACTORS
330
18C
102
}
330
18C
100
AcDbXrecord
280
     1
102
MATERIAL
148
0.0
149
0.0
149
0.0
 93
        0
 94
      127
282
     0
 72
     0
 77
     0
171
     0
175
     0
179
     0
273
     0
  0
XRECORD
  5
18E
102
{ACAD_REACTORS
330
18C
102
}
330
18C
100
AcDbXrecord
280
     1
270
     1
271
     1
  0
XRECORD
  5
18D
102
{ACAD_REACTORS
330
18C
102
}
330
18C
100
AcDbXrecord
280
     1
270
     1
271
     1
  0
XRECORD
  5
191
102
{ACAD_REACTORS
330
18C
102
}
330
18C
100
AcDbXrecord
280
     1
270
     1
271
     1
  0
XRECORD
  5
190
102
{ACAD_REACTORS
330
18C
102
}
330
18C
100
AcDbXrecord
280
     1
270
     1
271
     1
  0
XRECORD
  5
192
102
{ACAD_REACTORS
330
18C
102
}
330
18C
100
AcDbXrecord
280
     1
270
     1
271
     1
  0
XRECORD
  5
18F
102
{ACAD_REACTORS
330
18C
102
}
330
18C
100
AcDbXrecord
280
     1
270
     1
271
     1
  0
XRECORD
  5
225
102
{ACAD_REACTORS
330
19C
102
}
330
19C
100
AcDbXrecord
280
     1
102
MATERIAL
148
0.0
149
0.0
149
0.0
 93
        0
 94
      127
282
     0
 72
     0
 77
     0
171
     0
175
     0
179
     0
273
     0
  0
XRECORD
  5
19E
102
{ACAD_REACTORS
330
19C
102
}
330
19C
100
AcDbXrecord
280
     1
270
     1
271
     1
  0
XRECORD
  5
19D
102
{ACAD_REACTORS
330
19C
102
}
330
19C
100
AcDbXrecord
280
     1
270
     1
271
     1
  0
XRECORD
  5
1A1
102
{ACAD_REACTORS
330
19C
102
}
330
19C
100
AcDbXrecord
280
     1
270
     1
271
     1
  0
XRECORD
  5
1A0
102
{ACAD_REACTORS
330
19C
102
}
330
19C
100
AcDbXrecord
280
     1
270
     1
271
     1
  0
XRECORD
  5
1A2
102
{ACAD_REACTORS
330
19C
102
}
330
19C
100
AcDbXrecord
280
     1
270
     1
271
     1
  0
XRECORD
  5
19F
102
{ACAD_REACTORS
330
19C
102
}
330
19C
100
AcDbXrecord
280
     1
270
     1
271
     1
  0
CELLSTYLEMAP
  5
219
102
{ACAD_REACTORS
330
218
102
}
330
218
100
AcDbCellStyleMap
 90
        3
300
CELLSTYLE
  1
TABLEFORMAT_BEGIN
 90
        5
170
     1
 91
        0
 92
    32768
 62
   257
 93
        1
300
CONTENTFORMAT
  1
CONTENTFORMAT_BEGIN
 90
        0
 91
        0
 92
        4
 93
        0
300

 40
0.0
140
1.0
 94
        5
 62
     0
340
11
144
6.0
309
CONTENTFORMAT_END
171
     1
301
MARGIN
  1
CELLMARGIN_BEGIN
 40
1.5
 40
1.5
 40
1.5
 40
1.5
 40
0.18
 40
0.18
309
CELLMARGIN_END
 94
        6
 95
        1
302
GRIDFORMAT
  1
GRIDFORMAT_BEGIN
 90
        0
 91
        1
 62
     0
 92
       -2
340
0
 93
        0
 40
0.045
309
GRIDFORMAT_END
 95
        2
302
GRIDFORMAT
  1
GRIDFORMAT_BEGIN
 90
        0
 91
        1
 62
     0
 92
       -2
340
0
 93
        0
 40
0.045
309
GRIDFORMAT_END
 95
        4
302
GRIDFORMAT
  1
GRIDFORMAT_BEGIN
 90
        0
 91
        1
 62
     0
 92
       -2
340
0
 93
        0
 40
0.045
309
GRIDFORMAT_END
 95
        8
302
GRIDFORMAT
  1
GRIDFORMAT_BEGIN
 90
        0
 91
        1
 62
     0
 92
       -2
340
0
 93
        0
 40
0.045
309
GRIDFORMAT_END
 95
       16
302
GRIDFORMAT
  1
GRIDFORMAT_BEGIN
 90
        0
 91
        1
 62
     0
 92
       -2
340
0
 93
        0
 40
0.045
309
GRIDFORMAT_END
 95
       32
302
GRIDFORMAT
  1
GRIDFORMAT_BEGIN
 90
        0
 91
        1
 62
     0
 92
       -2
340
0
 93
        0
 40
0.045
309
GRIDFORMAT_END
309
TABLEFORMAT_END
  1
CELLSTYLE_BEGIN
 90
        1
 91
        1
300
_TITLE
309
CELLSTYLE_END
300
CELLSTYLE
  1
TABLEFORMAT_BEGIN
 90
        5
170
     1
 91
        0
 92
        0
 62
   257
 93
        1
300
CONTENTFORMAT
  1
CONTENTFORMAT_BEGIN
 90
        0
 91
        0
 92
        4
 93
        0
300

 40
0.0
140
1.0
 94
        5
 62
     0
340
11
144
4.5
309
CONTENTFORMAT_END
171
     1
301
MARGIN
  1
CELLMARGIN_BEGIN
 40
1.5
 40
1.5
 40
1.5
 40
1.5
 40
0.18
 40
0.18
309
CELLMARGIN_END
 94
        6
 95
        1
302
GRIDFORMAT
  1
GRIDFORMAT_BEGIN
 90
        0
 91
        1
 62
     0
 92
       -2
340
0
 93
        0
 40
0.045
309
GRIDFORMAT_END
 95
        2
302
GRIDFORMAT
  1
GRIDFORMAT_BEGIN
 90
        0
 91
        1
 62
     0
 92
       -2
340
0
 93
        0
 40
0.045
309
GRIDFORMAT_END
 95
        4
302
GRIDFORMAT
  1
GRIDFORMAT_BEGIN
 90
        0
 91
        1
 62
     0
 92
       -2
340
0
 93
        0
 40
0.045
309
GRIDFORMAT_END
 95
        8
302
GRIDFORMAT
  1
GRIDFORMAT_BEGIN
 90
        0
 91
        1
 62
     0
 92
       -2
340
0
 93
        0
 40
0.045
309
GRIDFORMAT_END
 95
       16
302
GRIDFORMAT
  1
GRIDFORMAT_BEGIN
 90
        0
 91
        1
 62
     0
 92
       -2
340
0
 93
        0
 40
0.045
309
GRIDFORMAT_END
 95
       32
302
GRIDFORMAT
  1
GRIDFORMAT_BEGIN
 90
        0
 91
        1
 62
     0
 92
       -2
340
0
 93
        0
 40
0.045
309
GRIDFORMAT_END
309
TABLEFORMAT_END
  1
CELLSTYLE_BEGIN
 90
        2
 91
        1
300
_HEADER
309
CELLSTYLE_END
300
CELLSTYLE
  1
TABLEFORMAT_BEGIN
 90
        5
170
     1
 91
        0
 92
        0
 62
   257
 93
        1
300
CONTENTFORMAT
  1
CONTENTFORMAT_BEGIN
 90
        0
 91
        0
 92
        4
 93
        0
300

 40
0.0
140
1.0
 94
        2
 62
     0
340
11
144
4.5
309
CONTENTFORMAT_END
171
     1
301
MARGIN
  1
CELLMARGIN_BEGIN
 40
1.5
 40
1.5
 40
1.5
 40
1.5
 40
0.18
 40
0.18
309
CELLMARGIN_END
 94
        6
 95
        1
302
GRIDFORMAT
  1
GRIDFORMAT_BEGIN
 90
        0
 91
        1
 62
     0
 92
       -2
340
0
 93
        0
 40
0.045
309
GRIDFORMAT_END
 95
        2
302
GRIDFORMAT
  1
GRIDFORMAT_BEGIN
 90
        0
 91
        1
 62
     0
 92
       -2
340
0
 93
        0
 40
0.045
309
GRIDFORMAT_END
 95
        4
302
GRIDFORMAT
  1
GRIDFORMAT_BEGIN
 90
        0
 91
        1
 62
     0
 92
       -2
340
0
 93
        0
 40
0.045
309
GRIDFORMAT_END
 95
        8
302
GRIDFORMAT
  1
GRIDFORMAT_BEGIN
 90
        0
 91
        1
 62
     0
 92
       -2
340
0
 93
        0
 40
0.045
309
GRIDFORMAT_END
 95
       16
302
GRIDFORMAT
  1
GRIDFORMAT_BEGIN
 90
        0
 91
        1
 62
     0
 92
       -2
340
0
 93
        0
 40
0.045
309
GRIDFORMAT_END
 95
       32
302
GRIDFORMAT
  1
GRIDFORMAT_BEGIN
 90
        0
 91
        1
 62
     0
 92
       -2
340
0
 93
        0
 40
0.045
309
GRIDFORMAT_END
309
TABLEFORMAT_END
  1
CELLSTYLE_BEGIN
 90
        3
 91
        2
300
_DATA
309
CELLSTYLE_END
  0
XRECORD
  5
21C
102
{ACAD_REACTORS
330
218
102
}
330
218
100
AcDbXrecord
280
     1
102
ACAD_ROUNDTRIP_PRE2007_TABLESTYLE
 90
        4
 91
        0
  1

 92
        4
 93
        0
  2

 94
        4
 95
        0
  3

  0
XRECORD
  5
231
102
{ACAD_REACTORS
330
230
102
}
330
230
100
AcDbXrecord
280
     1
102
RTVSPropertyOp0
 70
     1
102
RTVSPropertyOp1
 70
     1
102
RTVSPropertyOp2
 70
     1
102
RTVSPropertyOp3
 70
     1
102
RTVSPropertyOp4
 70
     1
102
RTVSPropertyOp5
 70
     1
102
RTVSPropertyOp6
 70
     1
102
RTVSPropertyOp7
 70
     1
102
RTVSPropertyOp8
 70
     1
102
RTVSPropertyOp9
 70
     1
102
RTVSPropertyOp10
 70
     1
102
RTVSPropertyOp11
 70
     1
102
RTVSPropertyOp12
 70
     1
102
RTVSPropertyOp13
 70
     1
102
RTVSPropertyOp14
 70
     1
102
RTVSPropertyOp15
 70
     1
102
RTVSPropertyOp16
 70
     1
102
RTVSPropertyOp17
 70
     1
102
RTVSPropertyOp18
 70
     1
102
RTVSPropertyOp19
 70
     1
102
RTVSPropertyOp20
 70
     1
102
RTVSPropertyOp21
 70
     1
102
RTVSPropertyOp22
 70
     1
102
RTVSPropertyOp23
 70
     1
102
RTVSPropertyOp24
 70
     1
102
RTVSPropertyOp25
 70
     1
102
RTVSPropertyOp26
 70
     1
102
RTVSPropertyOp27
 70
     1
  0
XRECORD
  5
235
102
{ACAD_REACTORS
330
234
102
}
330
234
100
AcDbXrecord
280
     1
102
RTVSPropertyOp0
 70
     1
102
RTVSPropertyOp1
 70
     1
102
RTVSPropertyOp2
 70
     1
102
RTVSPropertyOp3
 70
     1
102
RTVSPropertyOp4
 70
     1
102
RTVSPropertyOp5
 70
     1
102
RTVSPropertyOp6
 70
     1
102
RTVSPropertyOp7
 70
     1
102
RTVSPropertyOp8
 70
     1
102
RTVSPropertyOp9
 70
     1
102
RTVSPropertyOp10
 70
     1
102
RTVSPropertyOp11
 70
     1
102
RTVSPropertyOp12
 70
     1
102
RTVSPropertyOp13
 70
     1
102
RTVSPropertyOp14
 70
     1
102
RTVSPropertyOp15
 70
     1
102
RTVSPropertyOp16
 70
     1
102
RTVSPropertyOp17
 70
     1
102
RTVSPropertyOp18
 70
     1
102
RTVSPropertyOp19
 70
     1
102
RTVSPropertyOp20
 70
     1
102
RTVSPropertyOp21
 70
     1
102
RTVSPropertyOp22
 70
     1
102
RTVSPropertyOp23
 70
     1
102
RTVSPropertyOp24
 70
     1
102
RTVSPropertyOp25
 70
     1
102
RTVSPropertyOp26
 70
     1
102
RTVSPropertyOp27
 70
     1
  0
XRECORD
  5
233
102
{ACAD_REACTORS
330
232
102
}
330
232
100
AcDbXrecord
280
     1
102
RTVSPropertyOp0
 70
     1
102
RTVSPropertyOp1
 70
     1
102
RTVSPropertyOp2
 70
     1
102
RTVSPropertyOp3
 70
     1
102
RTVSPropertyOp4
 70
     1
102
RTVSPropertyOp5
 70
     1
102
RTVSPropertyOp6
 70
     1
102
RTVSPropertyOp7
 70
     1
102
RTVSPropertyOp8
 70
     1
102
RTVSPropertyOp9
 70
     1
102
RTVSPropertyOp10
 70
     1
102
RTVSPropertyOp11
 70
     1
102
RTVSPropertyOp12
 70
     1
102
RTVSPropertyOp13
 70
     1
102
RTVSPropertyOp14
 70
     1
102
RTVSPropertyOp15
 70
     1
102
RTVSPropertyOp16
 70
     1
102
RTVSPropertyOp17
 70
     1
102
RTVSPropertyOp18
 70
     1
102
RTVSPropertyOp19
 70
     1
102
RTVSPropertyOp20
 70
     1
102
RTVSPropertyOp21
 70
     1
102
RTVSPropertyOp22
 70
     1
102
RTVSPropertyOp23
 70
     1
102
RTVSPropertyOp24
 70
     1
102
RTVSPropertyOp25
 70
     1
102
RTVSPropertyOp26
 70
     1
102
RTVSPropertyOp27
 70
     1
  0
XRECORD
  5
22F
102
{ACAD_REACTORS
330
22E
102
}
330
22E
100
AcDbXrecord
280
     1
102
RTVSPropertyOp0
 70
     1
102
RTVSPropertyOp1
 70
     1
102
RTVSPropertyOp2
 70
     1
102
RTVSPropertyOp3
 70
     1
102
RTVSPropertyOp4
 70
     1
102
RTVSPropertyOp5
 70
     1
102
RTVSPropertyOp6
 70
     1
102
RTVSPropertyOp7
 70
     1
102
RTVSPropertyOp8
 70
     1
102
RTVSPropertyOp9
 70
     1
102
RTVSPropertyOp10
 70
     1
102
RTVSPropertyOp11
 70
     1
102
RTVSPropertyOp12
 70
     1
102
RTVSPropertyOp13
 70
     1
102
RTVSPropertyOp14
 70
     1
102
RTVSPropertyOp15
 70
     1
102
RTVSPropertyOp16
 70
     1
102
RTVSPropertyOp17
 70
     1
102
RTVSPropertyOp18
 70
     1
102
RTVSPropertyOp19
 70
     1
102
RTVSPropertyOp20
 70
     1
102
RTVSPropertyOp21
 70
     1
102
RTVSPropertyOp22
 70
     1
102
RTVSPropertyOp23
 70
     1
102
RTVSPropertyOp24
 70
     1
102
RTVSPropertyOp25
 70
     1
102
RTVSPropertyOp26
 70
     1
102
RTVSPropertyOp27
 70
     1
  0
XRECORD
  5
23D
102
{ACAD_REACTORS
330
23C
102
}
330
23C
100
AcDbXrecord
280
     1
102
RTVSPropertyOp0
 70
     1
102
RTVSPropertyOp1
 70
     1
102
RTVSPropertyOp2
 70
     1
102
RTVSPropertyOp3
 70
     1
102
RTVSPropertyOp4
 70
     1
102
RTVSPropertyOp5
 70
     1
102
RTVSPropertyOp6
 70
     1
102
RTVSPropertyOp7
 70
     1
102
RTVSPropertyOp8
 70
     1
102
RTVSPropertyOp9
 70
     1
102
RTVSPropertyOp10
 70
     1
102
RTVSPropertyOp11
 70
     1
102
RTVSPropertyOp12
 70
     1
102
RTVSPropertyOp13
 70
     1
102
RTVSPropertyOp14
 70
     1
102
RTVSPropertyOp15
 70
     1
102
RTVSPropertyOp16
 70
     1
102
RTVSPropertyOp17
 70
     1
102
RTVSPropertyOp18
 70
     1
102
RTVSPropertyOp19
 70
     1
102
RTVSPropertyOp20
 70
     1
102
RTVSPropertyOp21
 70
     1
102
RTVSPropertyOp22
 70
     1
102
RTVSPropertyOp23
 70
     1
102
RTVSPropertyOp24
 70
     1
102
RTVSPropertyOp25
 70
     1
102
RTVSPropertyOp26
 70
     1
102
RTVSPropertyOp27
 70
     1
  0
XRECORD
  5
245
102
{ACAD_REACTORS
330
244
102
}
330
244
100
AcDbXrecord
280
     1
102
RTVSPropertyOp0
 70
     1
102
RTVSPropertyOp1
 70
     1
102
RTVSPropertyOp2
 70
     1
102
RTVSPropertyOp3
 70
     1
102
RTVSPropertyOp4
 70
     1
102
RTVSPropertyOp5
 70
     1
102
RTVSPropertyOp6
 70
     1
102
RTVSPropertyOp7
 70
     1
102
RTVSPropertyOp8
 70
     1
102
RTVSPropertyOp9
 70
     1
102
RTVSPropertyOp10
 70
     1
102
RTVSPropertyOp11
 70
     1
102
RTVSPropertyOp12
 70
     1
102
RTVSPropertyOp13
 70
     1
102
RTVSPropertyOp14
 70
     1
102
RTVSPropertyOp15
 70
     1
102
RTVSPropertyOp16
 70
     1
102
RTVSPropertyOp17
 70
     1
102
RTVSPropertyOp18
 70
     1
102
RTVSPropertyOp19
 70
     1
102
RTVSPropertyOp20
 70
     1
102
RTVSPropertyOp21
 70
     1
102
RTVSPropertyOp22
 70
     1
102
RTVSPropertyOp23
 70
     1
102
RTVSPropertyOp24
 70
     1
102
RTVSPropertyOp25
 70
     1
102
RTVSPropertyOp26
 70
     1
102
RTVSPropertyOp27
 70
     1
  0
XRECORD
  5
237
102
{ACAD_REACTORS
330
236
102
}
330
236
100
AcDbXrecord
280
     1
102
RTVSPropertyOp0
 70
     1
102
RTVSPropertyOp1
 70
     1
102
RTVSPropertyOp2
 70
     1
102
RTVSPropertyOp3
 70
     1
102
RTVSPropertyOp4
 70
     1
102
RTVSPropertyOp5
 70
     1
102
RTVSPropertyOp6
 70
     1
102
RTVSPropertyOp7
 70
     1
102
RTVSPropertyOp8
 70
     1
102
RTVSPropertyOp9
 70
     1
102
RTVSPropertyOp10
 70
     1
102
RTVSPropertyOp11
 70
     1
102
RTVSPropertyOp12
 70
     1
102
RTVSPropertyOp13
 70
     1
102
RTVSPropertyOp14
 70
     1
102
RTVSPropertyOp15
 70
     1
102
RTVSPropertyOp16
 70
     1
102
RTVSPropertyOp17
 70
     1
102
RTVSPropertyOp18
 70
     1
102
RTVSPropertyOp19
 70
     1
102
RTVSPropertyOp20
 70
     1
102
RTVSPropertyOp21
 70
     1
102
RTVSPropertyOp22
 70
     1
102
RTVSPropertyOp23
 70
     1
102
RTVSPropertyOp24
 70
     1
102
RTVSPropertyOp25
 70
     1
102
RTVSPropertyOp26
 70
     1
102
RTVSPropertyOp27
 70
     1
  0
XRECORD
  5
23B
102
{ACAD_REACTORS
330
23A
102
}
330
23A
100
AcDbXrecord
280
     1
102
RTVSPropertyOp0
 70
     1
102
RTVSPropertyOp1
 70
     1
102
RTVSPropertyOp2
 70
     1
102
RTVSPropertyOp3
 70
     1
102
RTVSPropertyOp4
 70
     1
102
RTVSPropertyOp5
 70
     1
102
RTVSPropertyOp6
 70
     1
102
RTVSPropertyOp7
 70
     1
102
RTVSPropertyOp8
 70
     1
102
RTVSPropertyOp9
 70
     1
102
RTVSPropertyOp10
 70
     1
102
RTVSPropertyOp11
 70
     1
102
RTVSPropertyOp12
 70
     1
102
RTVSPropertyOp13
 70
     1
102
RTVSPropertyOp14
 70
     1
102
RTVSPropertyOp15
 70
     1
102
RTVSPropertyOp16
 70
     1
102
RTVSPropertyOp17
 70
     1
102
RTVSPropertyOp18
 70
     1
102
RTVSPropertyOp19
 70
     1
102
RTVSPropertyOp20
 70
     1
102
RTVSPropertyOp21
 70
     1
102
RTVSPropertyOp22
 70
     1
102
RTVSPropertyOp23
 70
     1
102
RTVSPropertyOp24
 70
     1
102
RTVSPropertyOp25
 70
     1
102
RTVSPropertyOp26
 70
     1
102
RTVSPropertyOp27
 70
     1
  0
XRECORD
  5
24B
102
{ACAD_REACTORS
330
24A
102
}
330
24A
100
AcDbXrecord
280
     1
102
RTVSPropertyOp0
 70
     0
102
RTVSPropertyOp1
 70
     0
102
RTVSPropertyOp2
 70
     0
102
RTVSPropertyOp3
 70
     0
102
RTVSPropertyOp4
 70
     0
102
RTVSPropertyOp5
 70
     0
102
RTVSPropertyOp6
 70
     0
102
RTVSPropertyOp7
 70
     0
102
RTVSPropertyOp8
 70
     0
102
RTVSPropertyOp9
 70
     0
102
RTVSPropertyOp10
 70
     0
102
RTVSPropertyOp11
 70
     0
102
RTVSPropertyOp12
 70
     0
102
RTVSPropertyOp13
 70
     0
102
RTVSPropertyOp14
 70
     2
102
RTVSPropertyOp15
 70
     0
102
RTVSPropertyOp16
 70
     0
102
RTVSPropertyOp17
 70
     0
102
RTVSPropertyOp18
 70
     0
102
RTVSPropertyOp19
 70
     0
102
RTVSPropertyOp20
 70
     0
102
RTVSPropertyOp21
 70
     0
102
RTVSPropertyOp22
 70
     0
102
RTVSPropertyOp23
 70
     0
102
RTVSPropertyOp24
 70
     0
102
RTVSPropertyOp25
 70
     0
102
RTVSPropertyOp26
 70
     0
102
RTVSPropertyOp27
 70
     0
  0
XRECORD
  5
243
102
{ACAD_REACTORS
330
242
102
}
330
242
100
AcDbXrecord
280
     1
102
RTVSPropertyOp0
 70
     1
102
RTVSPropertyOp1
 70
     1
102
RTVSPropertyOp2
 70
     1
102
RTVSPropertyOp3
 70
     1
102
RTVSPropertyOp4
 70
     1
102
RTVSPropertyOp5
 70
     1
102
RTVSPropertyOp6
 70
     1
102
RTVSPropertyOp7
 70
     1
102
RTVSPropertyOp8
 70
     1
102
RTVSPropertyOp9
 70
     1
102
RTVSPropertyOp10
 70
     1
102
RTVSPropertyOp11
 70
     1
102
RTVSPropertyOp12
 70
     1
102
RTVSPropertyOp13
 70
     1
102
RTVSPropertyOp14
 70
     1
102
RTVSPropertyOp15
 70
     1
102
RTVSPropertyOp16
 70
     1
102
RTVSPropertyOp17
 70
     1
102
RTVSPropertyOp18
 70
     1
102
RTVSPropertyOp19
 70
     1
102
RTVSPropertyOp20
 70
     1
102
RTVSPropertyOp21
 70
     1
102
RTVSPropertyOp22
 70
     1
102
RTVSPropertyOp23
 70
     1
102
RTVSPropertyOp24
 70
     1
102
RTVSPropertyOp25
 70
     1
102
RTVSPropertyOp26
 70
     1
102
RTVSPropertyOp27
 70
     1
  0
XRECORD
  5
227
102
{ACAD_REACTORS
330
226
102
}
330
226
100
AcDbXrecord
280
     1
102
RTVSPropertyOp0
 70
     1
102
RTVSPropertyOp1
 70
     1
102
RTVSPropertyOp2
 70
     1
102
RTVSPropertyOp3
 70
     1
102
RTVSPropertyOp4
 70
     1
102
RTVSPropertyOp5
 70
     1
102
RTVSPropertyOp6
 70
     1
102
RTVSPropertyOp7
 70
     1
102
RTVSPropertyOp8
 70
     1
102
RTVSPropertyOp9
 70
     1
102
RTVSPropertyOp10
 70
     1
102
RTVSPropertyOp11
 70
     1
102
RTVSPropertyOp12
 70
     1
102
RTVSPropertyOp13
 70
     1
102
RTVSPropertyOp14
 70
     1
102
RTVSPropertyOp15
 70
     1
102
RTVSPropertyOp16
 70
     1
102
RTVSPropertyOp17
 70
     1
102
RTVSPropertyOp18
 70
     1
102
RTVSPropertyOp19
 70
     1
102
RTVSPropertyOp20
 70
     1
102
RTVSPropertyOp21
 70
     1
102
RTVSPropertyOp22
 70
     1
102
RTVSPropertyOp23
 70
     1
102
RTVSPropertyOp24
 70
     1
102
RTVSPropertyOp25
 70
     1
102
RTVSPropertyOp26
 70
     1
102
RTVSPropertyOp27
 70
     1
  0
XRECORD
  5
229
102
{ACAD_REACTORS
330
228
102
}
330
228
100
AcDbXrecord
280
     1
102
RTVSPropertyOp0
 70
     1
102
RTVSPropertyOp1
 70
     1
102
RTVSPropertyOp2
 70
     1
102
RTVSPropertyOp3
 70
     1
102
RTVSPropertyOp4
 70
     1
102
RTVSPropertyOp5
 70
     1
102
RTVSPropertyOp6
 70
     1
102
RTVSPropertyOp7
 70
     1
102
RTVSPropertyOp8
 70
     1
102
RTVSPropertyOp9
 70
     1
102
RTVSPropertyOp10
 70
     1
102
RTVSPropertyOp11
 70
     1
102
RTVSPropertyOp12
 70
     1
102
RTVSPropertyOp13
 70
     1
102
RTVSPropertyOp14
 70
     1
102
RTVSPropertyOp15
 70
     1
102
RTVSPropertyOp16
 70
     1
102
RTVSPropertyOp17
 70
     1
102
RTVSPropertyOp18
 70
     1
102
RTVSPropertyOp19
 70
     1
102
RTVSPropertyOp20
 70
     1
102
RTVSPropertyOp21
 70
     1
102
RTVSPropertyOp22
 70
     1
102
RTVSPropertyOp23
 70
     1
102
RTVSPropertyOp24
 70
     1
102
RTVSPropertyOp25
 70
     1
102
RTVSPropertyOp26
 70
     1
102
RTVSPropertyOp27
 70
     1
  0
XRECORD
  5
22B
102
{ACAD_REACTORS
330
22A
102
}
330
22A
100
AcDbXrecord
280
     1
102
RTVSPropertyOp0
 70
     1
102
RTVSPropertyOp1
 70
     1
102
RTVSPropertyOp2
 70
     1
102
RTVSPropertyOp3
 70
     1
102
RTVSPropertyOp4
 70
     1
102
RTVSPropertyOp5
 70
     1
102
RTVSPropertyOp6
 70
     1
102
RTVSPropertyOp7
 70
     1
102
RTVSPropertyOp8
 70
     1
102
RTVSPropertyOp9
 70
     1
102
RTVSPropertyOp10
 70
     1
102
RTVSPropertyOp11
 70
     1
102
RTVSPropertyOp12
 70
     1
102
RTVSPropertyOp13
 70
     1
102
RTVSPropertyOp14
 70
     1
102
RTVSPropertyOp15
 70
     1
102
RTVSPropertyOp16
 70
     1
102
RTVSPropertyOp17
 70
     1
102
RTVSPropertyOp18
 70
     1
102
RTVSPropertyOp19
 70
     1
102
RTVSPropertyOp20
 70
     1
102
RTVSPropertyOp21
 70
     1
102
RTVSPropertyOp22
 70
     1
102
RTVSPropertyOp23
 70
     1
102
RTVSPropertyOp24
 70
     1
102
RTVSPropertyOp25
 70
     1
102
RTVSPropertyOp26
 70
     1
102
RTVSPropertyOp27
 70
     1
  0
XRECORD
  5
22D
102
{ACAD_REACTORS
330
22C
102
}
330
22C
100
AcDbXrecord
280
     1
102
RTVSPropertyOp0
 70
     1
102
RTVSPropertyOp1
 70
     1
102
RTVSPropertyOp2
 70
     1
102
RTVSPropertyOp3
 70
     1
102
RTVSPropertyOp4
 70
     1
102
RTVSPropertyOp5
 70
     1
102
RTVSPropertyOp6
 70
     1
102
RTVSPropertyOp7
 70
     1
102
RTVSPropertyOp8
 70
     1
102
RTVSPropertyOp9
 70
     1
102
RTVSPropertyOp10
 70
     1
102
RTVSPropertyOp11
 70
     1
102
RTVSPropertyOp12
 70
     1
102
RTVSPropertyOp13
 70
     1
102
RTVSPropertyOp14
 70
     1
102
RTVSPropertyOp15
 70
     1
102
RTVSPropertyOp16
 70
     1
102
RTVSPropertyOp17
 70
     1
102
RTVSPropertyOp18
 70
     1
102
RTVSPropertyOp19
 70
     1
102
RTVSPropertyOp20
 70
     1
102
RTVSPropertyOp21
 70
     1
102
RTVSPropertyOp22
 70
     1
102
RTVSPropertyOp23
 70
     1
102
RTVSPropertyOp24
 70
     1
102
RTVSPropertyOp25
 70
     1
102
RTVSPropertyOp26
 70
     1
102
RTVSPropertyOp27
 70
     1
  0
XRECORD
  5
247
102
{ACAD_REACTORS
330
246
102
}
330
246
100
AcDbXrecord
280
     1
102
RTVSPropertyOp0
 70
     0
102
RTVSPropertyOp1
 70
     0
102
RTVSPropertyOp2
 70
     0
102
RTVSPropertyOp3
 70
     0
102
RTVSPropertyOp4
 70
     0
102
RTVSPropertyOp5
 70
     0
102
RTVSPropertyOp6
 70
     0
102
RTVSPropertyOp7
 70
     0
102
RTVSPropertyOp8
 70
     0
102
RTVSPropertyOp9
 70
     0
102
RTVSPropertyOp10
 70
     0
102
RTVSPropertyOp11
 70
     0
102
RTVSPropertyOp12
 70
     0
102
RTVSPropertyOp13
 70
     0
102
RTVSPropertyOp14
 70
     2
102
RTVSPropertyOp15
 70
     0
102
RTVSPropertyOp16
 70
     0
102
RTVSPropertyOp17
 70
     0
102
RTVSPropertyOp18
 70
     0
102
RTVSPropertyOp19
 70
     0
102
RTVSPropertyOp20
 70
     0
102
RTVSPropertyOp21
 70
     0
102
RTVSPropertyOp22
 70
     0
102
RTVSPropertyOp23
 70
     0
102
RTVSPropertyOp24
 70
     0
102
RTVSPropertyOp25
 70
     0
102
RTVSPropertyOp26
 70
     0
102
RTVSPropertyOp27
 70
     0
  0
XRECORD
  5
241
102
{ACAD_REACTORS
330
240
102
}
330
240
100
AcDbXrecord
280
     1
102
RTVSPropertyOp0
 70
     1
102
RTVSPropertyOp1
 70
     1
102
RTVSPropertyOp2
 70
     1
102
RTVSPropertyOp3
 70
     1
102
RTVSPropertyOp4
 70
     1
102
RTVSPropertyOp5
 70
     1
102
RTVSPropertyOp6
 70
     1
102
RTVSPropertyOp7
 70
     1
102
RTVSPropertyOp8
 70
     1
102
RTVSPropertyOp9
 70
     1
102
RTVSPropertyOp10
 70
     1
102
RTVSPropertyOp11
 70
     1
102
RTVSPropertyOp12
 70
     1
102
RTVSPropertyOp13
 70
     1
102
RTVSPropertyOp14
 70
     1
102
RTVSPropertyOp15
 70
     1
102
RTVSPropertyOp16
 70
     1
102
RTVSPropertyOp17
 70
     1
102
RTVSPropertyOp18
 70
     1
102
RTVSPropertyOp19
 70
     1
102
RTVSPropertyOp20
 70
     1
102
RTVSPropertyOp21
 70
     1
102
RTVSPropertyOp22
 70
     1
102
RTVSPropertyOp23
 70
     1
102
RTVSPropertyOp24
 70
     1
102
RTVSPropertyOp25
 70
     1
102
RTVSPropertyOp26
 70
     1
102
RTVSPropertyOp27
 70
     1
  0
XRECORD
  5
249
102
{ACAD_REACTORS
330
248
102
}
330
248
100
AcDbXrecord
280
     1
102
RTVSPropertyOp0
 70
     0
102
RTVSPropertyOp1
 70
     0
102
RTVSPropertyOp2
 70
     0
102
RTVSPropertyOp3
 70
     0
102
RTVSPropertyOp4
 70
     0
102
RTVSPropertyOp5
 70
     0
102
RTVSPropertyOp6
 70
     0
102
RTVSPropertyOp7
 70
     0
102
RTVSPropertyOp8
 70
     0
102
RTVSPropertyOp9
 70
     0
102
RTVSPropertyOp10
 70
     0
102
RTVSPropertyOp11
 70
     0
102
RTVSPropertyOp12
 70
     0
102
RTVSPropertyOp13
 70
     0
102
RTVSPropertyOp14
 70
     2
102
RTVSPropertyOp15
 70
     0
102
RTVSPropertyOp16
 70
     0
102
RTVSPropertyOp17
 70
     0
102
RTVSPropertyOp18
 70
     0
102
RTVSPropertyOp19
 70
     0
102
RTVSPropertyOp20
 70
     0
102
RTVSPropertyOp21
 70
     0
102
RTVSPropertyOp22
 70
     0
102
RTVSPropertyOp23
 70
     0
102
RTVSPropertyOp24
 70
     0
102
RTVSPropertyOp25
 70
     0
102
RTVSPropertyOp26
 70
     0
102
RTVSPropertyOp27
 70
     0
  0
XRECORD
  5
239
102
{ACAD_REACTORS
330
238
102
}
330
238
100
AcDbXrecord
280
     1
102
RTVSPropertyOp0
 70
     1
102
RTVSPropertyOp1
 70
     1
102
RTVSPropertyOp2
 70
     1
102
RTVSPropertyOp3
 70
     1
102
RTVSPropertyOp4
 70
     1
102
RTVSPropertyOp5
 70
     1
102
RTVSPropertyOp6
 70
     1
102
RTVSPropertyOp7
 70
     1
102
RTVSPropertyOp8
 70
     1
102
RTVSPropertyOp9
 70
     1
102
RTVSPropertyOp10
 70
     1
102
RTVSPropertyOp11
 70
     1
102
RTVSPropertyOp12
 70
     1
102
RTVSPropertyOp13
 70
     1
102
RTVSPropertyOp14
 70
     1
102
RTVSPropertyOp15
 70
     1
102
RTVSPropertyOp16
 70
     1
102
RTVSPropertyOp17
 70
     1
102
RTVSPropertyOp18
 70
     1
102
RTVSPropertyOp19
 70
     1
102
RTVSPropertyOp20
 70
     1
102
RTVSPropertyOp21
 70
     1
102
RTVSPropertyOp22
 70
     1
102
RTVSPropertyOp23
 70
     1
102
RTVSPropertyOp24
 70
     1
102
RTVSPropertyOp25
 70
     1
102
RTVSPropertyOp26
 70
     1
102
RTVSPropertyOp27
 70
     1
  0
XRECORD
  5
23F
102
{ACAD_REACTORS
330
23E
102
}
330
23E
100
AcDbXrecord
280
     1
102
RTVSPropertyOp0
 70
     1
102
RTVSPropertyOp1
 70
     1
102
RTVSPropertyOp2
 70
     1
102
RTVSPropertyOp3
 70
     1
102
RTVSPropertyOp4
 70
     1
102
RTVSPropertyOp5
 70
     1
102
RTVSPropertyOp6
 70
     1
102
RTVSPropertyOp7
 70
     1
102
RTVSPropertyOp8
 70
     1
102
RTVSPropertyOp9
 70
     1
102
RTVSPropertyOp10
 70
     1
102
RTVSPropertyOp11
 70
     1
102
RTVSPropertyOp12
 70
     1
102
RTVSPropertyOp13
 70
     1
102
RTVSPropertyOp14
 70
     1
102
RTVSPropertyOp15
 70
     1
102
RTVSPropertyOp16
 70
     1
102
RTVSPropertyOp17
 70
     1
102
RTVSPropertyOp18
 70
     1
102
RTVSPropertyOp19
 70
     1
102
RTVSPropertyOp20
 70
     1
102
RTVSPropertyOp21
 70
     1
102
RTVSPropertyOp22
 70
     1
102
RTVSPropertyOp23
 70
     1
102
RTVSPropertyOp24
 70
     1
102
RTVSPropertyOp25
 70
     1
102
RTVSPropertyOp26
 70
     1
102
RTVSPropertyOp27
 70
     1
  0
ENDSEC
  0
EOF
