  0
SECTION
  2
HEADER
  9
$ACADVER
  1
AC1015
  9
$ACADMAINTVER
 70
    20
  9
$DWGCODEPAGE
  3
ANSI_1252
  9
$INSBASE
 10
0.0
 20
0.0
 30
0.0
  9
$EXTMIN
 10
3806.350203970776
 20
2341.774632030331
 30
0.0
  9
$EXTMAX
 10
3810.487487058774
 20
2342.524632030331
 30
0.0
  9
$LIMMIN
 10
0.0
 20
0.0
  9
$LIMMAX
 10
420.0
 20
297.0
  9
$ORTHOMODE
 70
     0
  9
$REGENMODE
 70
     1
  9
$FILLMODE
 70
     1
  9
$QTEXTMODE
 70
     0
  9
$MIRRTEXT
 70
     1
  9
$LTSCALE
 40
1.0
  9
$ATTMODE
 70
     1
  9
$TEXTSIZE
 40
2.5
  9
$TRACEWID
 40
1.0
  9
$TEXTSTYLE
  7
SANINDUSA
  9
$CLAYER
  8
cotas
  9
$CELTYPE
  6
ByLayer
  9
$CECOLOR
 62
   256
  9
$CELTSCALE
 40
1.0
  9
$DISPSILH
 70
     0
  9
$DIMSCALE
 40
1.0
  9
$DIMASZ
 40
2.0
  9
$DIMEXO
 40
1.0
  9
$DIMDLI
 40
1.0
  9
$DIMRND
 40
0.0
  9
$DIMDLE
 40
0.0
  9
$DIMEXE
 40
1.0
  9
$DIMTP
 40
0.0
  9
$DIMTM
 40
0.0
  9
$DIMTXT
 40
2.0
  9
$DIMCEN
 40
0.0
  9
$DIMTSZ
 40
0.0
  9
$DIMTOL
 70
     0
  9
$DIMLIM
 70
     0
  9
$DIMTIH
 70
     0
  9
$DIMTOH
 70
     0
  9
$DIMSE1
 70
     0
  9
$DIMSE2
 70
     0
  9
$DIMTAD
 70
     1
  9
$DIMZIN
 70
     8
  9
$DIMBLK
  1

  9
$DIMASO
 70
     1
  9
$DIMSHO
 70
     1
  9
$DIMPOST
  1

  9
$DIMAPOST
  1

  9
$DIMALT
 70
     0
  9
$DIMALTD
 70
     3
  9
$DIMALTF
 40
0.03937007874016
  9
$DIMLFAC
 40
1.0
  9
$DIMTOFL
 70
     1
  9
$DIMTVP
 40
0.0
  9
$DIMTIX
 70
     0
  9
$DIMSOXD
 70
     0
  9
$DIMSAH
 70
     0
  9
$DIMBLK1
  1

  9
$DIMBLK2
  1

  9
$DIMSTYLE
  2
SANINDUSA
  9
$DIMCLRD
 70
   256
  9
$DIMCLRE
 70
   256
  9
$DIMCLRT
 70
   256
  9
$DIMTFAC
 40
1.0
  9
$DIMGAP
 40
1.0
  9
$DIMJUST
 70
     0
  9
$DIMSD1
 70
     0
  9
$DIMSD2
 70
     0
  9
$DIMTOLJ
 70
     0
  9
$DIMTZIN
 70
     8
  9
$DIMALTZ
 70
     0
  9
$DIMALTTZ
 70
     0
  9
$DIMUPT
 70
     0
  9
$DIMDEC
 70
     1
  9
$DIMTDEC
 70
     1
  9
$DIMALTU
 70
     2
  9
$DIMALTTD
 70
     3
  9
$DIMTXSTY
  7
SANINDUSA
  9
$DIMAUNIT
 70
     0
  9
$DIMADEC
 70
     1
  9
$DIMALTRND
 40
0.0
  9
$DIMAZIN
 70
     0
  9
$DIMDSEP
 70
    44
  9
$DIMATFIT
 70
     3
  9
$DIMFRAC
 70
     0
  9
$DIMLDRBLK
  1

  9
$DIMLUNIT
 70
     2
  9
$DIMLWD
 70
    -1
  9
$DIMLWE
 70
    -1
  9
$DIMTMOVE
 70
     0
  9
$LUNITS
 70
     2
  9
$LUPREC
 70
     4
  9
$SKETCHINC
 40
1.0
  9
$FILLETRAD
 40
0.0
  9
$AUNITS
 70
     0
  9
$AUPREC
 70
     0
  9
$MENU
  1
.
  9
$ELEVATION
 40
0.0
  9
$PELEVATION
 40
0.0
  9
$THICKNESS
 40
0.0
  9
$LIMCHECK
 70
     0
  9
$CHAMFERA
 40
10.0
  9
$CHAMFERB
 40
10.0
  9
$CHAMFERC
 40
20.0
  9
$CHAMFERD
 40
0.0
  9
$SKPOLY
 70
     0
  9
$TDCREATE
 40
2453160.384392361
  9
$TDUCREATE
 40
2453160.342725695
  9
$TDUPDATE
 40
2456150.451869931
  9
$TDUUPDATE
 40
2456150.410203264
  9
$TDINDWG
 40
0.0108110880
  9
$TDUSRTIMER
 40
0.0108110880
  9
$USRTIMER
 70
     1
  9
$ANGBASE
 50
0.0
  9
$ANGDIR
 70
     0
  9
$PDMODE
 70
     0
  9
$PDSIZE
 40
0.0
  9
$PLINEWID
 40
0.0
  9
$SPLFRAME
 70
     0
  9
$SPLINETYPE
 70
     6
  9
$SPLINESEGS
 70
     8
  9
$HANDSEED
  5
14D0
  9
$SURFTAB1
 70
     6
  9
$SURFTAB2
 70
     6
  9
$SURFTYPE
 70
     6
  9
$SURFU
 70
     6
  9
$SURFV
 70
     6
  9
$UCSBASE
  2

  9
$UCSNAME
  2

  9
$UCSORG
 10
0.0
 20
0.0
 30
0.0
  9
$UCSXDIR
 10
1.0
 20
0.0
 30
0.0
  9
$UCSYDIR
 10
0.0
 20
1.0
 30
0.0
  9
$UCSORTHOREF
  2

  9
$UCSORTHOVIEW
 70
     0
  9
$UCSORGTOP
 10
0.0
 20
0.0
 30
0.0
  9
$UCSORGBOTTOM
 10
0.0
 20
0.0
 30
0.0
  9
$UCSORGLEFT
 10
0.0
 20
0.0
 30
0.0
  9
$UCSORGRIGHT
 10
0.0
 20
0.0
 30
0.0
  9
$UCSORGFRONT
 10
0.0
 20
0.0
 30
0.0
  9
$UCSORGBACK
 10
0.0
 20
0.0
 30
0.0
  9
$PUCSBASE
  2

  9
$PUCSNAME
  2

  9
$PUCSORG
 10
0.0
 20
0.0
 30
0.0
  9
$PUCSXDIR
 10
1.0
 20
0.0
 30
0.0
  9
$PUCSYDIR
 10
0.0
 20
1.0
 30
0.0
  9
$PUCSORTHOREF
  2

  9
$PUCSORTHOVIEW
 70
     0
  9
$PUCSORGTOP
 10
0.0
 20
0.0
 30
0.0
  9
$PUCSORGBOTTOM
 10
0.0
 20
0.0
 30
0.0
  9
$PUCSORGLEFT
 10
0.0
 20
0.0
 30
0.0
  9
$PUCSORGRIGHT
 10
0.0
 20
0.0
 30
0.0
  9
$PUCSORGFRONT
 10
0.0
 20
0.0
 30
0.0
  9
$PUCSORGBACK
 10
0.0
 20
0.0
 30
0.0
  9
$USERI1
 70
     0
  9
$USERI2
 70
     0
  9
$USERI3
 70
     0
  9
$USERI4
 70
     0
  9
$USERI5
 70
     0
  9
$USERR1
 40
0.0
  9
$USERR2
 40
0.0
  9
$USERR3
 40
0.0
  9
$USERR4
 40
0.0
  9
$USERR5
 40
0.0
  9
$WORLDVIEW
 70
     1
  9
$SHADEDGE
 70
     3
  9
$SHADEDIF
 70
    70
  9
$TILEMODE
 70
     1
  9
$MAXACTVP
 70
    64
  9
$PINSBASE
 10
0.0
 20
0.0
 30
0.0
  9
$PLIMCHECK
 70
     0
  9
$PEXTMIN
 10
1.000000000000000E+20
 20
1.000000000000000E+20
 30
1.000000000000000E+20
  9
$PEXTMAX
 10
-1.000000000000000E+20
 20
-1.000000000000000E+20
 30
-1.000000000000000E+20
  9
$PLIMMIN
 10
0.0
 20
0.0
  9
$PLIMMAX
 10
420.0
 20
297.0
  9
$UNITMODE
 70
     0
  9
$VISRETAIN
 70
     1
  9
$PLINEGEN
 70
     0
  9
$PSLTSCALE
 70
     1
  9
$TREEDEPTH
 70
  3020
  9
$CMLSTYLE
  2
Standard
  9
$CMLJUST
 70
     0
  9
$CMLSCALE
 40
20.0
  9
$PROXYGRAPHICS
 70
     1
  9
$MEASUREMENT
 70
     1
  9
$CELWEIGHT
370
    -1
  9
$ENDCAPS
280
     0
  9
$JOINSTYLE
280
     0
  9
$LWDISPLAY
290
     0
  9
$INSUNITS
 70
     4
  9
$HYPERLINKBASE
  1

  9
$STYLESHEET
  1
monochrome.ctb
  9
$XEDIT
290
     1
  9
$CEPSNTYPE
380
     0
  9
$PSTYLEMODE
290
     1
  9
$FINGERPRINTGUID
  2
{B98A73AA-52AA-4C10-B469-C0E7150AC31F}
  9
$VERSIONGUID
  2
{E91B89F8-8A33-42A1-A22C-6C954BFBF228}
  9
$EXTNAMES
290
     1
  9
$PSVPSCALE
 40
0.0
  9
$OLESTARTUP
290
     0
  0
ENDSEC
  0
SECTION
  2
CLASSES
  0
CLASS
  1
ACDBDICTIONARYWDFLT
  2
AcDbDictionaryWithDefault
  3
ObjectDBX Classes
 90
        0
280
     0
281
     0
  0
CLASS
  1
ACDBPLACEHOLDER
  2
AcDbPlaceHolder
  3
ObjectDBX Classes
 90
        0
280
     0
281
     0
  0
CLASS
  1
LAYOUT
  2
AcDbLayout
  3
ObjectDBX Classes
 90
        0
280
     0
281
     0
  0
CLASS
  1
DICTIONARYVAR
  2
AcDbDictionaryVar
  3
ObjectDBX Classes
 90
        0
280
     0
281
     0
  0
CLASS
  1
DIMASSOC
  2
AcDbDimAssoc
  3
"AcDbDimAssoc|Product Desc:     AcDim ARX App For Dimension|Company:          Autodesk, Inc.|WEB Address:      www.autodesk.com"
 90
    32768
280
     0
281
     0
  0
CLASS
  1
MATERIAL
  2
AcDbMaterial
  3
ObjectDBX Classes
 90
     1153
280
     0
281
     0
  0
CLASS
  1
VISUALSTYLE
  2
AcDbVisualStyle
  3
ObjectDBX Classes
 90
     4095
280
     0
281
     0
  0
CLASS
  1
TABLESTYLE
  2
AcDbTableStyle
  3
ObjectDBX Classes
 90
     4095
280
     0
281
     0
  0
CLASS
  1
SCALE
  2
AcDbScale
  3
ObjectDBX Classes
 90
     1153
280
     0
281
     0
  0
CLASS
  1
MLEADERSTYLE
  2
AcDbMLeaderStyle
  3
ACDB_MLEADERSTYLE_CLASS
 90
     4095
280
     0
281
     0
  0
CLASS
  1
CELLSTYLEMAP
  2
AcDbCellStyleMap
  3
ObjectDBX Classes
 90
     1152
280
     0
281
     0
  0
ENDSEC
  0
SECTION
  2
TABLES
  0
TABLE
  2
VPORT
  5
8
330
0
100
AcDbSymbolTable
 70
     1
  0
VPORT
  5
1428
330
8
100
AcDbSymbolTableRecord
100
AcDbViewportTableRecord
  2
*Active
 70
     0
 10
0.0
 20
0.0
 11
1.0
 21
1.0
 12
3808.418845514776
 22
2342.149632030331
 13
0.0
 23
0.0
 14
10.0
 24
10.0
 15
10.0
 25
10.0
 16
0.0
 26
0.0
 36
1.0
 17
0.0
 27
0.0
 37
0.0
 40
2.523906784141555
 41
1.645464025026068
 42
50.0
 43
0.0
 44
0.0
 50
0.0
 51
0.0
 71
     0
 72
   100
 73
     1
 74
     2
 75
     0
 76
     1
 77
     0
 78
     0
281
     0
 65
     1
110
0.0
120
0.0
130
0.0
111
1.0
121
0.0
131
0.0
112
0.0
122
1.0
132
0.0
 79
     0
146
0.0
  0
ENDTAB
  0
TABLE
  2
LTYPE
  5
5
330
0
100
AcDbSymbolTable
 70
     3
  0
LTYPE
  5
14
330
5
100
AcDbSymbolTableRecord
100
AcDbLinetypeTableRecord
  2
ByBlock
 70
     0
  3

 72
    65
 73
     0
 40
0.0
  0
LTYPE
  5
15
330
5
100
AcDbSymbolTableRecord
100
AcDbLinetypeTableRecord
  2
ByLayer
 70
     0
  3

 72
    65
 73
     0
 40
0.0
  0
LTYPE
  5
16
330
5
100
AcDbSymbolTableRecord
100
AcDbLinetypeTableRecord
  2
Continuous
 70
     0
  3
Solid line
 72
    65
 73
     0
 40
0.0
  0
LTYPE
  5
2D
330
5
100
AcDbSymbolTableRecord
100
AcDbLinetypeTableRecord
  2
DASHDOT
 70
     0
  3
Dash dot __ . __ . __ . __ . __ . __ . __ . __
 72
    65
 73
     4
 40
25.4
 49
12.7
 74
     0
 49
-6.349999999999999
 74
     0
 49
0.0
 74
     0
 49
-6.349999999999999
 74
     0
  0
LTYPE
  5
2E
330
5
100
AcDbSymbolTableRecord
100
AcDbLinetypeTableRecord
  2
HIDDEN
 70
     0
  3
Hidden __ __ __ __ __ __ __ __ __ __ __ __ __ _
 72
    65
 73
     2
 40
9.524999999999998
 49
6.349999999999999
 74
     0
 49
-3.174999999999999
 74
     0
  0
ENDTAB
  0
TABLE
  2
LAYER
  5
2
330
0
100
AcDbSymbolTable
 70
    16
  0
LAYER
  5
10
102
{ACAD_XDICTIONARY
360
1473
102
}
330
2
100
AcDbSymbolTableRecord
100
AcDbLayerTableRecord
  2
0
 70
     0
 62
     7
  6
Continuous
370
    -3
390
F
  0
LAYER
  5
2F
102
{ACAD_XDICTIONARY
360
1475
102
}
330
2
100
AcDbSymbolTableRecord
100
AcDbLayerTableRecord
  2
1
 70
     0
 62
     1
  6
Continuous
370
    -3
390
F
  0
LAYER
  5
30
102
{ACAD_XDICTIONARY
360
1477
102
}
330
2
100
AcDbSymbolTableRecord
100
AcDbLayerTableRecord
  2
2
 70
     0
 62
     2
  6
Continuous
370
    -3
390
F
  0
LAYER
  5
31
102
{ACAD_XDICTIONARY
360
1479
102
}
330
2
100
AcDbSymbolTableRecord
100
AcDbLayerTableRecord
  2
3
 70
     0
 62
     3
  6
Continuous
370
    -3
390
F
  0
LAYER
  5
32
102
{ACAD_XDICTIONARY
360
147B
102
}
330
2
100
AcDbSymbolTableRecord
100
AcDbLayerTableRecord
  2
4
 70
     0
 62
     4
  6
Continuous
370
    -3
390
F
  0
LAYER
  5
33
102
{ACAD_XDICTIONARY
360
147D
102
}
330
2
100
AcDbSymbolTableRecord
100
AcDbLayerTableRecord
  2
5
 70
     0
 62
     5
  6
Continuous
370
    -3
390
F
  0
LAYER
  5
34
102
{ACAD_XDICTIONARY
360
147F
102
}
330
2
100
AcDbSymbolTableRecord
100
AcDbLayerTableRecord
  2
6
 70
     0
 62
     6
  6
Continuous
370
    -3
390
F
  0
LAYER
  5
35
102
{ACAD_XDICTIONARY
360
1481
102
}
330
2
100
AcDbSymbolTableRecord
100
AcDbLayerTableRecord
  2
7
 70
     0
 62
     7
  6
Continuous
370
    -3
390
F
  0
LAYER
  5
36
102
{ACAD_XDICTIONARY
360
1483
102
}
330
2
100
AcDbSymbolTableRecord
100
AcDbLayerTableRecord
  2
cen
 70
     0
 62
     7
  6
DASHDOT
370
    -3
390
F
  0
LAYER
  5
37
102
{ACAD_XDICTIONARY
360
1485
102
}
330
2
100
AcDbSymbolTableRecord
100
AcDbLayerTableRecord
  2
hid
 70
     0
 62
     7
  6
HIDDEN
370
    -3
390
F
  0
LAYER
  5
5D6
102
{ACAD_XDICTIONARY
360
1487
102
}
330
2
100
AcDbSymbolTableRecord
100
AcDbLayerTableRecord
  2
hatch
 70
     0
 62
     9
  6
Continuous
370
    -3
390
F
  0
LAYER
  5
8AF
102
{ACAD_XDICTIONARY
360
1489
102
}
330
2
100
AcDbSymbolTableRecord
100
AcDbLayerTableRecord
  2
9
 70
     0
 62
     9
  6
Continuous
370
    -3
390
F
  0
LAYER
  5
8F8
102
{ACAD_XDICTIONARY
360
148B
102
}
330
2
100
AcDbSymbolTableRecord
100
AcDbLayerTableRecord
  2
leg fin
 70
     0
 62
     9
  6
Continuous
370
    -3
390
F
  0
LAYER
  5
91D
102
{ACAD_XDICTIONARY
360
148D
102
}
330
2
100
AcDbSymbolTableRecord
100
AcDbLayerTableRecord
  2
cotas
 70
     0
 62
     1
  6
Continuous
370
    -3
390
F
  0
LAYER
  5
92F
330
2
100
AcDbSymbolTableRecord
100
AcDbLayerTableRecord
  2
Defpoints
 70
     0
 62
     7
  6
Continuous
290
     0
370
    -3
390
F
  0
LAYER
  5
BA2
102
{ACAD_XDICTIONARY
360
148F
102
}
330
2
100
AcDbSymbolTableRecord
100
AcDbLayerTableRecord
  2
Sanindusa
 70
     0
 62
     3
  6
Continuous
370
    -3
390
F
  0
ENDTAB
  0
TABLE
  2
STYLE
  5
3
330
0
100
AcDbSymbolTable
 70
     3
  0
STYLE
  5
11
330
3
100
AcDbSymbolTableRecord
100
AcDbTextStyleTableRecord
  2
Standard
 70
     0
 40
0.0
 41
1.0
 50
0.0
 71
     0
 42
2.5
  3
Avgardn.ttf
  4

1001
ACAD
1000
AvantGarde Bk BT
1071
       34
  0
STYLE
  5
2C
330
3
100
AcDbSymbolTableRecord
100
AcDbTextStyleTableRecord
  2

 70
     1
 40
0.0
 41
1.0
 50
0.0
 71
     0
 42
2.5
  3
ltypeshp.shx
  4

  0
STYLE
  5
91F
330
3
100
AcDbSymbolTableRecord
100
AcDbTextStyleTableRecord
  2
SANINDUSA
 70
     0
 40
0.0
 41
1.0
 50
0.0
 71
     0
 42
2.5
  3
verdana.TTF
  4

1001
ACAD
1000
Verdana
1071
       34
  0
ENDTAB
  0
TABLE
  2
VIEW
  5
6
330
0
100
AcDbSymbolTable
 70
     0
  0
ENDTAB
  0
TABLE
  2
UCS
  5
7
330
0
100
AcDbSymbolTable
 70
     0
  0
ENDTAB
  0
TABLE
  2
APPID
  5
9
330
0
100
AcDbSymbolTable
 70
     3
  0
APPID
  5
12
330
9
100
AcDbSymbolTableRecord
100
AcDbRegAppTableRecord
  2
ACAD
 70
     0
  0
APPID
  5
3A
330
9
100
AcDbSymbolTableRecord
100
AcDbRegAppTableRecord
  2
DCO15
 70
     0
  0
APPID
  5
14CF
330
9
100
AcDbSymbolTableRecord
100
AcDbRegAppTableRecord
  2
ACAD_MLEADERVER
 70
     0
  0
ENDTAB
  0
TABLE
  2
DIMSTYLE
  5
A
330
0
100
AcDbSymbolTable
 70
     2
100
AcDbDimStyleTable
 71
     1
340
921
  0
DIMSTYLE
105
45
330
A
100
AcDbSymbolTableRecord
100
AcDbDimStyleTableRecord
  2
STANDARD
 70
     0
289
     0
340
11
  0
DIMSTYLE
105
921
330
A
100
AcDbSymbolTableRecord
100
AcDbDimStyleTableRecord
  2
SANINDUSA
 70
     0
 41
2.0
 42
1.0
 43
1.0
 44
1.0
 73
     0
 74
     0
 77
     1
 78
     8
140
2.0
141
0.0
143
0.03937007874016
147
1.0
171
     3
172
     1
176
   256
177
   256
178
   256
179
     1
271
     1
272
     1
274
     3
278
    44
283
     0
284
     8
340
91F
371
    -1
372
    -1
  0
ENDTAB
  0
TABLE
  2
BLOCK_RECORD
  5
1
330
0
100
AcDbSymbolTable
 70
    56
  0
BLOCK_RECORD
  5
1F
330
1
100
AcDbSymbolTableRecord
100
AcDbBlockTableRecord
  2
*Model_Space
340
22
  0
BLOCK_RECORD
  5
1B
330
1
100
AcDbSymbolTableRecord
100
AcDbBlockTableRecord
  2
*Paper_Space
340
1E
  0
BLOCK_RECORD
  5
23
330
1
100
AcDbSymbolTableRecord
100
AcDbBlockTableRecord
  2
*Paper_Space0
340
26
  0
BLOCK_RECORD
  5
919
330
1
100
AcDbSymbolTableRecord
100
AcDbBlockTableRecord
  2
_DotSmall
340
0
  0
BLOCK_RECORD
  5
922
330
1
100
AcDbSymbolTableRecord
100
AcDbBlockTableRecord
  2
base para cotas
340
0
310
2800000020000000200000000100080000000000000400000000000000000000000000000000000000000000000080000080000000808000800000008000800080800000C0C0C000C0DCC000F0CAA6000020400000206000002080000020A0000020C0000020E00000400000004020000040400000406000004080000040A0
310
000040C0000040E00000600000006020000060400000606000006080000060A0000060C0000060E00000800000008020000080400000806000008080000080A0000080C0000080E00000A0000000A0200000A0400000A0600000A0800000A0A00000A0C00000A0E00000C0000000C0200000C0400000C0600000C0800000C0
310
A00000C0C00000C0E00000E0000000E0200000E0400000E0600000E0800000E0A00000E0C00000E0E00040000000400020004000400040006000400080004000A0004000C0004000E00040200000402020004020400040206000402080004020A0004020C0004020E000404000004040200040404000404060004040800040
310
40A0004040C0004040E00040600000406020004060400040606000406080004060A0004060C0004060E00040800000408020004080400040806000408080004080A0004080C0004080E00040A0000040A0200040A0400040A0600040A0800040A0A00040A0C00040A0E00040C0000040C0200040C0400040C0600040C08000
310
40C0A00040C0C00040C0E00040E0000040E0200040E0400040E0600040E0800040E0A00040E0C00040E0E00080000000800020008000400080006000800080008000A0008000C0008000E00080200000802020008020400080206000802080008020A0008020C0008020E00080400000804020008040400080406000804080
310
008040A0008040C0008040E00080600000806020008060400080606000806080008060A0008060C0008060E00080800000808020008080400080806000808080008080A0008080C0008080E00080A0000080A0200080A0400080A0600080A0800080A0A00080A0C00080A0E00080C0000080C0200080C0400080C0600080C0
310
800080C0A00080C0C00080C0E00080E0000080E0200080E0400080E0600080E0800080E0A00080E0C00080E0E000C0000000C0002000C0004000C0006000C0008000C000A000C000C000C000E000C0200000C0202000C0204000C0206000C0208000C020A000C020C000C020E000C0400000C0402000C0404000C0406000C0
310
408000C040A000C040C000C040E000C0600000C0602000C0604000C0606000C0608000C060A000C060C000C060E000C0800000C0802000C0804000C0806000C0808000C080A000C080C000C080E000C0A00000C0A02000C0A04000C0A06000C0A08000C0A0A000C0A0C000C0A0E000C0C00000C0C02000C0C04000C0C06000
310
C0C08000C0C0A000F0FBFF00A4A0A000808080000000FF0000FF000000FFFF00FF000000FF00FF00FFFF0000FFFFFF00A4A4A4A4A4A4A4A4A4A4A4A4A4A4A4A4A4A4A4A4A4A4A4A4A4A4A4A4A4A4A4A4A4A4A4A4A4A4A4A4A4A4A4A4A4A4A4A4A4A4A4A4A4A4A4A4A4A4A4A4A4A4A4A4A4A4A4A4A4A4A4A4A4A4A4A4A4A4A4
310
A4A4A4A4A4A4A4A4A4A4A4A4A4A4A4A4A4A4A4A4A4A4A4A4A4A4A4A4A4A4A4A4A4A4A4A4A4A4A4A4A4A4A4A4A4A4A4A4A4A4A4A4A4A4A4A4A4A4A4A4A4A4A4A4A4A4A4A4A4A4A4A4A4A4A4A4A4A4A4A4A4A4A4A4A4A4A4A4A4A4A4A4A4A4A4A4A4A4A4A4A4A4A4A4A4A4A4A4A4A4A4A4A4A4A4A4A4A4A4A4A4A4A4A4A4A4A4
310
A4A4A4A4A4A4A4A4A4A4A4A4A4A4A4A4A4A4A4A4A4A4A4A4A4A4A4A4A4A4A4A4A4A4A4A4A4A4A4A4A4A4A4A4A4A4A4A4A4A4A4A4A4A4A4A4A4A4A4A4A4A4A4A4A4A4A4A4A4A4A4A4A4A4A4A4A4A4A4A4A4A4A4A4A4A4A4A4A4A4A4A4A4A4A4A4A4A4A4A4A4A4A4A4A4A4A4A4A4A4A4A4A4A4A4A4A4A4A4A4A4A4A4A4A4A4A4
310
A4A4A4A4A4A4A4A4A4A4A4A4A4A4A4A4A4A4A4A4A4A4A4A4A4A4A4A4A4A4A4A4A4A4A4A4A4A4A4A4A4A4A4A4A4A4A4A4A4A4A4A4A4A4A4A4A4A4A4A4A4A4A4A4A4A4A4A4A4A4A4A4A4A4A4A4A4A4A4A4A4A4A4A4A4A4A4A4A4A4A4A4A4A4A4A4A4A4A4A4A4A4A4A4A4A4A4A4A4A4A4A4A4A4A4A4F9F9F9F9F9F9F9F9F9F9F9
310
F9F9F9F9F9F9F9F9F9F9F9F9F9F9F9F9F9F9F9A4A4F9F9F9F9F9F9F9F9F9F9F9F9F9F9F9F9F9F9F9F9F9F9F9F9F9F9F9F9F9F9A4A4F9F9F9F9F9F9F9F9F9F9F9F9F9F9F9F9F9F9F9F9F9F9F9F9F9F9F9F9F9F9A4A4F9A4A4A4A4A4A4A4A4A4A4A4A4A4A4A4A4A4A4A4A4A4A4A4A4A4A4A4A4F9A4A4A4A4A4A4A4A4A4A4A4A4
310
A4A4A4A4A4A4A4A4A4A4A4A4A4A4A4A4A4A4A4A4A4A4A4A4A4A4A4A4A4A4A4A4A4A4A4A4A4A4A4A4A4A4A4A4A4A4A4A4A4A4A4A4A4A4A4A4A4A4A4A4A4A4A4A4A4A4A4A4A4A4A4A4A4A4A4A4A4A4A4A4A4A4A4A4A4A4A4A4A4A4A4A4A4A4A4A4A4A4A4A4A4A4A4A4A4A4A4A4A4A4A4A4A4A4A4A4A4A4A4A4A4A4A4A4A4A4A4
310
A4A4A4A4A4A4A4A4A4A4A4A4A4A4A4A4A4A4A4A4A4A4A4A4A4A4A4A4A4A4A4A4A4A4A4A4A4A4A4A4A4A4A4A4A4A4A4A4A4A4A4A4A4A4A4A4A4A4A4A4A4A4A4A4A4A4A4A4A4A4A4A4A4A4A4A4A4A4A4A4A4A4A4A4A4A4A4A4A4A4A4A4A4A4A4A4A4A4A4A4A4A4A4A4A4A4A4A4A4A4A4A4A4A4A4A4A4A4A4A4A4A4A4A4A4A4A4
310
A4A4A4A4A4A4A4A4A4A4A4A4A4A4A4A4A4A4A4A4A4A4A4A4A4A4A4A4A4A4A4A4A4A4A4A4A4A4A4A4A4A4A4A4A4A4A4A4A4A4A4A4A4A4A4A4A4A4A4A4A4A4A4A4A4A4A4A4A4A4A4A4A4A4A4A4A4A4A4A4A4A4A4A4A4A4A4A4A4A4A4A4A4A4A4A4A4A4A4A4A4A4A4A4A4A4A4A4A4A4A4A4A4A4A4A4A4A4A4A4A4A4A4A4A4A4A4
310
A4A4A4A4A4A4A4A4A4A4A4A4A4A4A4A4A4A4A4A4A4A4A4A4A4A4A4A4A4A4A4A4A4A4A4A4A4A4A4A4A4A4A4A4A4A4A4A4A4A4A4A4A4A4A4A4
1001
ACAD
1000
DesignCenter Data
1002
{
1070
     1
1070
     4
1002
}
  0
BLOCK_RECORD
  5
AA8
330
1
100
AcDbSymbolTableRecord
100
AcDbBlockTableRecord
  2
_CLOSED
340
0
  0
ENDTAB
  0
ENDSEC
  0
SECTION
  2
BLOCKS
  0
BLOCK
  5
20
330
1F
100
AcDbEntity
  8
0
100
AcDbBlockBegin
  2
*Model_Space
 70
     0
 10
0.0
 20
0.0
 30
0.0
  3
*Model_Space
  1

  0
ENDBLK
  5
21
330
1F
100
AcDbEntity
  8
0
100
AcDbBlockEnd
  0
BLOCK
  5
1C
330
1B
100
AcDbEntity
 67
     1
  8
0
100
AcDbBlockBegin
  2
*Paper_Space
 70
     0
 10
0.0
 20
0.0
 30
0.0
  3
*Paper_Space
  1

  0
ENDBLK
  5
1D
330
1B
100
AcDbEntity
 67
     1
  8
0
100
AcDbBlockEnd
  0
BLOCK
  5
24
330
23
100
AcDbEntity
 67
     1
  8
0
100
AcDbBlockBegin
  2
*Paper_Space0
 70
     0
 10
0.0
 20
0.0
 30
0.0
  3
*Paper_Space0
  1

  0
ENDBLK
  5
25
330
23
100
AcDbEntity
 67
     1
  8
0
100
AcDbBlockEnd
  0
BLOCK
  5
91B
330
919
100
AcDbEntity
  8
0
100
AcDbBlockBegin
  2
_DotSmall
 70
     0
 10
0.0
 20
0.0
 30
0.0
  3
_DotSmall
  1

  0
LWPOLYLINE
  5
91A
330
919
100
AcDbEntity
  8
0
  6
ByBlock
 62
     0
100
AcDbPolyline
 90
        2
 70
     1
 43
0.5
 10
-0.0625
 20
0.0
 42
1.0
 10
0.0625
 20
0.0
 42
1.0
  0
ENDBLK
  5
91C
330
919
100
AcDbEntity
  8
0
100
AcDbBlockEnd
  0
BLOCK
  5
92A
330
922
100
AcDbEntity
  8
0
100
AcDbBlockBegin
  2
base para cotas
 70
     0
 10
0.0
 20
0.0
 30
0.0
  3
base para cotas
  1

  0
LINE
  5
B36
330
922
100
AcDbEntity
  8
cotas
100
AcDbLine
 10
0.0
 20
-30.0
 30
0.0
 11
327.1260136525398
 21
-30.0
 31
0.0
  0
LINE
  5
B37
330
922
100
AcDbEntity
  8
cotas
100
AcDbLine
 10
0.0
 20
-25.0
 30
0.0
 11
327.1260136525398
 21
-25.0
 31
0.0
  0
LINE
  5
B38
330
922
100
AcDbEntity
  8
cotas
100
AcDbLine
 10
0.0
 20
-20.0
 30
0.0
 11
327.1260136525398
 21
-20.0
 31
0.0
  0
LINE
  5
B39
330
922
100
AcDbEntity
  8
cotas
100
AcDbLine
 10
0.0
 20
-15.0
 30
0.0
 11
327.1260136525398
 21
-15.0
 31
0.0
  0
LINE
  5
B3A
330
922
100
AcDbEntity
  8
cotas
100
AcDbLine
 10
0.0
 20
-10.0
 30
0.0
 11
327.1260136525398
 21
-10.0
 31
0.0
  0
LINE
  5
B3B
330
922
100
AcDbEntity
  8
cotas
100
AcDbLine
 10
0.0
 20
0.0
 30
0.0
 11
0.0
 21
-30.0
 31
0.0
  0
LINE
  5
B3C
330
922
100
AcDbEntity
  8
cotas
100
AcDbLine
 10
327.1260136525398
 20
-30.0
 30
0.0
 11
327.1260136525398
 21
0.0
 31
0.0
  0
ENDBLK
  5
92B
330
922
100
AcDbEntity
  8
0
100
AcDbBlockEnd
  0
BLOCK
  5
AAD
330
AA8
100
AcDbEntity
  8
0
100
AcDbBlockBegin
  2
_CLOSED
 70
     0
 10
0.0
 20
0.0
 30
0.0
  3
_CLOSED
  1

  0
LINE
  5
AA9
330
AA8
100
AcDbEntity
  8
0
100
AcDbLine
 10
-1.0
 20
0.166667
 30
0.0
 11
0.0
 21
0.0
 31
0.0
  0
LINE
  5
AAA
330
AA8
100
AcDbEntity
  8
0
100
AcDbLine
 10
0.0
 20
0.0
 30
0.0
 11
-1.0
 21
-0.166667
 31
0.0
  0
LINE
  5
AAB
330
AA8
100
AcDbEntity
  8
0
100
AcDbLine
 10
-1.0
 20
0.166667
 30
0.0
 11
-1.0
 21
-0.166667
 31
0.0
  0
LINE
  5
AAC
330
AA8
100
AcDbEntity
  8
0
100
AcDbLine
 10
0.0
 20
0.0
 30
0.0
 11
-1.0
 21
0.0
 31
0.0
  0
ENDBLK
  5
AAE
330
AA8
100
AcDbEntity
  8
0
100
AcDbBlockEnd
  0
ENDSEC
  0
SECTION
  2
ENTITIES
  0
LINE
  5
FB6
330
1F
100
AcDbEntity
  8
Sanindusa
100
AcDbLine
 10
3808.826595977812
 20
2342.03520592177
 30
0.0
 11
3809.176595977812
 21
2342.03520592177
 31
0.0
  0
LINE
  5
FB7
330
1F
100
AcDbEntity
  8
Sanindusa
100
AcDbLine
 10
3808.826595977812
 20
2342.16520592177
 30
0.0
 11
3809.166465241266
 21
2342.16520592177
 31
0.0
  0
LINE
  5
FBA
330
1F
100
AcDbEntity
  8
Sanindusa
100
AcDbLine
 10
3807.092205189231
 20
2342.524632030331
 30
0.0
 11
3806.358202752353
 21
2342.524632030331
 31
0.0
  0
LINE
  5
FBB
330
1F
100
AcDbEntity
  8
Sanindusa
100
AcDbLine
 10
3806.547560177619
 20
2342.420349995976
 30
0.0
 11
3806.966409463967
 21
2342.41767035122
 31
0.0
  0
LINE
  5
FBC
330
1F
100
AcDbEntity
  8
Sanindusa
100
AcDbLine
 10
3807.013890840762
 20
2342.465151728015
 30
0.0
 11
3806.521661124014
 21
2342.465151728015
 31
0.0
  0
ARC
  5
FC0
330
1F
100
AcDbEntity
  8
Sanindusa
100
AcDbCircle
 10
3806.750203970792
 20
2342.124632030332
 30
0.0
 40
0.35
100
AcDbArc
 50
270.0
 51
0.0
  0
ARC
  5
FC2
330
1F
100
AcDbEntity
  8
Sanindusa
100
AcDbCircle
 10
3806.750203970792
 20
2342.124632030332
 30
0.0
 40
0.2905196976832312
100
AcDbArc
 50
270.0
 51
0.0
  0
LWPOLYLINE
  5
FC6
330
1F
100
AcDbEntity
  8
Sanindusa
100
AcDbPolyline
 90
       25
 70
   128
 43
0.0
 10
3806.994216401859
 20
2342.124632030332
 10
3806.993896718851
 20
2342.111248171925
 10
3806.992847874175
 20
2342.097891693791
 10
3806.991074555343
 20
2342.084622114208
 10
3806.987941871561
 20
2342.068669542451
 10
3806.98374225602
 20
2342.052908542056
 10
3806.978510017595
 20
2342.037440461404
 10
3806.972279465158
 20
2342.022366648874
 10
3806.965084907586
 20
2342.007788452844
 10
3806.956783981987
 20
2341.993503936355
 10
3806.947505779355
 20
2341.979765939221
 10
3806.937319229555
 20
2341.966663095051
 10
3806.926293262451
 20
2341.954284037454
 10
3806.914496807908
 20
2341.942717400041
 10
3806.901934590831
 20
2341.931984687971
 10
3806.888630912782
 20
2341.922091263491
 10
3806.874680167192
 20
2341.913097974223
 10
3806.860176747493
 20
2341.905065667788
 10
3806.845215047112
 20
2341.898055191809
 10
3806.829807502825
 20
2341.892085599396
 10
3806.813978003162
 20
2341.887153506301
 10
3806.797835782349
 20
2341.883285105318
 10
3806.781490074613
 20
2341.880506589242
 10
3806.76505011418
 20
2341.878844150866
 10
3806.750203970792
 20
2341.87830586895
  0
LINE
  5
FC9
330
1F
100
AcDbEntity
  8
Sanindusa
100
AcDbLine
 10
3806.350203970792
 20
2342.51663324877
 30
0.0
 11
3806.350203970792
 21
2341.782630811893
 31
0.0
  0
LINE
  5
FCD
330
1F
100
AcDbEntity
  8
Sanindusa
100
AcDbLine
 10
3806.452105417318
 20
2341.90336630457
 30
0.0
 11
3806.453716221625
 21
2342.327691459713
 31
0.0
  0
LINE
  5
FCE
330
1F
100
AcDbEntity
  8
Sanindusa
100
AcDbLine
 10
3806.409684273109
 20
2342.353174877109
 30
0.0
 11
3806.409684273109
 21
2341.860945160362
 31
0.0
  0
LWPOLYLINE
  5
FE8
330
1F
100
AcDbEntity
  8
Sanindusa
100
AcDbPolyline
 90
       15
 70
   128
 43
0.0
 10
3806.409684273108
 20
2341.860945160362
 10
3806.4097105168
 20
2341.857633663199
 10
3806.410074282566
 20
2341.854435062049
 10
3806.410772092603
 20
2341.851379937313
 10
3806.411797275461
 20
2341.848497497678
 10
3806.413140029823
 20
2341.845815300865
 10
3806.414787518212
 20
2341.843358990164
 10
3806.416723989727
 20
2341.841152049267
 10
3806.418930930624
 20
2341.839215577753
 10
3806.421387241325
 20
2341.837568089363
 10
3806.424069438138
 20
2341.836225335001
 10
3806.426951877773
 20
2341.835200152143
 10
3806.430007002509
 20
2341.834502342106
 10
3806.433205603659
 20
2341.83413857634
 10
3806.436517100822
 20
2341.834112332648
  0
LINE
  5
FEC
330
1F
100
AcDbEntity
  8
Sanindusa
100
AcDbLine
 10
3806.358202752353
 20
2341.774632030331
 30
0.0
 11
3806.750203970792
 21
2341.774632030331
 31
0.0
  0
LINE
  5
FEE
330
1F
100
AcDbEntity
  8
Sanindusa
100
AcDbLine
 10
3806.436517100822
 20
2341.834112332648
 30
0.0
 11
3806.750203970792
 21
2341.834112332648
 31
0.0
  0
ARC
  5
FF1
330
1F
100
AcDbEntity
  8
Sanindusa
100
AcDbCircle
 10
3806.358202247884
 20
2341.782630307423
 30
0.0
 40
0.0079982771072471
100
AcDbArc
 50
180.0
 51
270.0036137778868
  0
LINE
  5
FFC
330
1F
100
AcDbEntity
  8
Sanindusa
100
AcDbLine
 10
3806.750203970792
 20
2341.87830586895
 30
0.0
 11
3806.47896219135
 21
2341.876557423176
 31
0.0
  0
LWPOLYLINE
  5
FFF
330
1F
100
AcDbEntity
  8
Sanindusa
100
AcDbPolyline
 90
       13
 70
   128
 43
0.0
 10
3806.478962191349
 20
2341.876557423176
 10
3806.475642588947
 20
2341.877154585314
 10
3806.472396004398
 20
2341.878122885642
 10
3806.469264673266
 20
2341.879449727321
 10
3806.466289331758
 20
2341.881117849159
 10
3806.463508686777
 20
2341.883105550177
 10
3806.460958912374
 20
2341.885386971915
 10
3806.458673179151
 20
2341.887932434831
 10
3806.456681222736
 20
2341.890708824415
 10
3806.45500895695
 20
2341.893680021974
 10
3806.453678136681
 20
2341.896807374516
 10
3806.452706074878
 20
2341.900050197593
 10
3806.452105417317
 20
2341.90336630457
  0
LWPOLYLINE
  5
1004
330
1F
100
AcDbEntity
  8
Sanindusa
100
AcDbPolyline
 90
       20
 70
   128
 43
0.0
 10
3806.534690722302
 20
2341.926069468636
 10
3806.534499362943
 20
2341.927215618968
 10
3806.533946243678
 20
2341.928237566127
 10
3806.533091303563
 20
2341.929024566282
 10
3806.532027188623
 20
2341.929491335754
 10
3806.530869212225
 20
2341.929587292827
 10
3806.52974285908
 20
2341.929302039065
 10
3806.528770187026
 20
2341.928666486138
 10
3806.528056600175
 20
2341.927749506069
 10
3806.527679426734
 20
2341.926650467875
 10
3806.527679539297
 20
2341.925488469398
 10
3806.528056925666
 20
2341.924389431204
 10
3806.528770690174
 20
2341.923472451134
 10
3806.529743485361
 20
2341.922836898207
 10
3806.530869893772
 20
2341.922551644445
 10
3806.532027851579
 20
2341.922647601519
 10
3806.533091876085
 20
2341.92311437099
 10
3806.533946663727
 20
2341.923901371145
 10
3806.534499584999
 20
2341.924923318304
 10
3806.534690722302
 20
2341.926069468636
  0
LWPOLYLINE
  5
100A
330
1F
100
AcDbEntity
  8
Sanindusa
100
AcDbPolyline
 90
       20
 70
   128
 43
0.0
 10
3806.504690290042
 20
2341.956071521556
 10
3806.504498930684
 20
2341.957217671888
 10
3806.503945811419
 20
2341.958239619048
 10
3806.503090871303
 20
2341.959026619202
 10
3806.502026756364
 20
2341.959493388674
 10
3806.500868779966
 20
2341.959589345747
 10
3806.49974242682
 20
2341.959304091985
 10
3806.498769754766
 20
2341.958668539059
 10
3806.498056167915
 20
2341.957751558989
 10
3806.497678994474
 20
2341.956652520795
 10
3806.497679107037
 20
2341.955490522318
 10
3806.498056493407
 20
2341.954391484124
 10
3806.498770257915
 20
2341.953474504054
 10
3806.4997430531
 20
2341.952838951128
 10
3806.500869461512
 20
2341.952553697365
 10
3806.502027419319
 20
2341.952649654439
 10
3806.503091443826
 20
2341.953116423911
 10
3806.503946231467
 20
2341.953903424065
 10
3806.504499152739
 20
2341.954925371224
 10
3806.504690290042
 20
2341.956071521556
  0
LWPOLYLINE
  5
100C
330
1F
100
AcDbEntity
  8
Sanindusa
100
AcDbPolyline
 90
       20
 70
   128
 43
0.0
 10
3806.53495644362
 20
2341.996066946874
 10
3806.534765084261
 20
2341.997213097206
 10
3806.534211964996
 20
2341.998235044365
 10
3806.533357024881
 20
2341.99902204452
 10
3806.532292909941
 20
2341.999488813991
 10
3806.531134933544
 20
2341.999584771065
 10
3806.530008580398
 20
2341.999299517302
 10
3806.529035908344
 20
2341.998663964377
 10
3806.528322321493
 20
2341.997746984306
 10
3806.527945148051
 20
2341.996647946112
 10
3806.527945260615
 20
2341.995485947636
 10
3806.528322646985
 20
2341.994386909441
 10
3806.529036411492
 20
2341.993469929372
 10
3806.530009206678
 20
2341.992834376445
 10
3806.53113561509
 20
2341.992549122683
 10
3806.532293572896
 20
2341.992645079757
 10
3806.533357597403
 20
2341.993111849228
 10
3806.534212385045
 20
2341.993898849383
 10
3806.534765306317
 20
2341.994920796542
 10
3806.53495644362
 20
2341.996066946874
  0
LWPOLYLINE
  5
100D
330
1F
100
AcDbEntity
  8
Sanindusa
100
AcDbPolyline
 90
       20
 70
   128
 43
0.0
 10
3806.574683019562
 20
2341.956522700177
 10
3806.574491660203
 20
2341.95766885051
 10
3806.573938540939
 20
2341.958690797669
 10
3806.573083600823
 20
2341.959477797824
 10
3806.572019485884
 20
2341.959944567296
 10
3806.570861509486
 20
2341.960040524369
 10
3806.569735156339
 20
2341.959755270607
 10
3806.568762484287
 20
2341.95911971768
 10
3806.568048897435
 20
2341.95820273761
 10
3806.567671723993
 20
2341.957103699416
 10
3806.567671836557
 20
2341.955941700939
 10
3806.568049222926
 20
2341.954842662746
 10
3806.568762987434
 20
2341.953925682676
 10
3806.56973578262
 20
2341.953290129749
 10
3806.570862191031
 20
2341.953004875987
 10
3806.572020148838
 20
2341.953100833061
 10
3806.573084173346
 20
2341.953567602532
 10
3806.573938960987
 20
2341.954354602687
 10
3806.574491882259
 20
2341.955376549846
 10
3806.574683019562
 20
2341.956522700177
  0
LWPOLYLINE
  5
1011
330
1F
100
AcDbEntity
  8
Sanindusa
100
AcDbPolyline
 90
       20
 70
   128
 43
0.0
 10
3806.50495601136
 20
2342.026068999794
 10
3806.504764652002
 20
2342.027215150126
 10
3806.504211532736
 20
2342.028237097285
 10
3806.503356592621
 20
2342.02902409744
 10
3806.502292477682
 20
2342.029490866911
 10
3806.501134501284
 20
2342.029586823985
 10
3806.500008148138
 20
2342.029301570223
 10
3806.499035476085
 20
2342.028666017296
 10
3806.498321889233
 20
2342.027749037226
 10
3806.497944715792
 20
2342.026649999032
 10
3806.497944828355
 20
2342.025488000555
 10
3806.498322214724
 20
2342.024388962362
 10
3806.499035979232
 20
2342.023471982292
 10
3806.500008774418
 20
2342.022836429365
 10
3806.50113518283
 20
2342.022551175603
 10
3806.502293140637
 20
2342.022647132677
 10
3806.503357165143
 20
2342.023113902149
 10
3806.504211952785
 20
2342.023900902303
 10
3806.504764874057
 20
2342.024922849462
 10
3806.50495601136
 20
2342.026068999794
  0
LWPOLYLINE
  5
1012
330
1F
100
AcDbEntity
  8
Sanindusa
100
AcDbPolyline
 90
       20
 70
   128
 43
0.0
 10
3806.57494874088
 20
2342.026520178416
 10
3806.574757381521
 20
2342.027666328748
 10
3806.574204262256
 20
2342.028688275907
 10
3806.573349322141
 20
2342.029475276061
 10
3806.572285207201
 20
2342.029942045533
 10
3806.571127230803
 20
2342.030038002607
 10
3806.570000877658
 20
2342.029752748844
 10
3806.569028205604
 20
2342.029117195918
 10
3806.568314618753
 20
2342.028200215848
 10
3806.567937445311
 20
2342.027101177654
 10
3806.567937557875
 20
2342.025939179178
 10
3806.568314944244
 20
2342.024840140983
 10
3806.569028708752
 20
2342.023923160914
 10
3806.570001503938
 20
2342.023287607987
 10
3806.571127912349
 20
2342.023002354225
 10
3806.572285870156
 20
2342.023098311298
 10
3806.573349894664
 20
2342.02356508077
 10
3806.574204682305
 20
2342.024352080924
 10
3806.574757603577
 20
2342.025374028084
 10
3806.57494874088
 20
2342.026520178416
  0
LWPOLYLINE
  5
1013
330
1F
100
AcDbEntity
  8
Sanindusa
100
AcDbPolyline
 90
       20
 70
   128
 43
0.0
 10
3806.535222164938
 20
2342.066064425111
 10
3806.535030805579
 20
2342.067210575444
 10
3806.534477686314
 20
2342.068232522603
 10
3806.533622746199
 20
2342.069019522757
 10
3806.53255863126
 20
2342.069486292229
 10
3806.531400654862
 20
2342.069582249303
 10
3806.530274301716
 20
2342.069296995541
 10
3806.529301629662
 20
2342.068661442614
 10
3806.528588042811
 20
2342.067744462544
 10
3806.52821086937
 20
2342.06664542435
 10
3806.528210981932
 20
2342.065483425873
 10
3806.528588368303
 20
2342.064384387679
 10
3806.52930213281
 20
2342.063467407609
 10
3806.530274927996
 20
2342.062831854683
 10
3806.531401336407
 20
2342.062546600921
 10
3806.532559294214
 20
2342.062642557994
 10
3806.533623318722
 20
2342.063109327466
 10
3806.534478106363
 20
2342.063896327621
 10
3806.535031027635
 20
2342.06491827478
 10
3806.535222164938
 20
2342.066064425111
  0
LWPOLYLINE
  5
1015
330
1F
100
AcDbEntity
  8
Sanindusa
100
AcDbPolyline
 90
       20
 70
   128
 43
0.0
 10
3806.505221732678
 20
2342.096066478032
 10
3806.505030373319
 20
2342.097212628364
 10
3806.504477254055
 20
2342.098234575523
 10
3806.503622313939
 20
2342.099021575677
 10
3806.502558198999
 20
2342.099488345149
 10
3806.501400222602
 20
2342.099584302223
 10
3806.500273869456
 20
2342.099299048461
 10
3806.499301197403
 20
2342.098663495534
 10
3806.498587610551
 20
2342.097746515464
 10
3806.498210437109
 20
2342.09664747727
 10
3806.498210549673
 20
2342.095485478793
 10
3806.498587936043
 20
2342.094386440599
 10
3806.49930170055
 20
2342.093469460529
 10
3806.500274495736
 20
2342.092833907603
 10
3806.501400904147
 20
2342.092548653841
 10
3806.502558861954
 20
2342.092644610914
 10
3806.503622886462
 20
2342.093111380386
 10
3806.504477674103
 20
2342.09389838054
 10
3806.505030595376
 20
2342.0949203277
 10
3806.505221732678
 20
2342.096066478032
  0
LWPOLYLINE
  5
1017
330
1F
100
AcDbEntity
  8
Sanindusa
100
AcDbPolyline
 90
       20
 70
   128
 43
0.0
 10
3806.575214462198
 20
2342.096517656653
 10
3806.575023102839
 20
2342.097663806985
 10
3806.574469983574
 20
2342.098685754145
 10
3806.573615043459
 20
2342.099472754299
 10
3806.57255092852
 20
2342.09993952377
 10
3806.571392952122
 20
2342.100035480845
 10
3806.570266598976
 20
2342.099750227082
 10
3806.569293926922
 20
2342.099114674155
 10
3806.568580340071
 20
2342.098197694086
 10
3806.568203166629
 20
2342.097098655892
 10
3806.568203279193
 20
2342.095936657415
 10
3806.568580665562
 20
2342.094837619221
 10
3806.56929443007
 20
2342.093920639151
 10
3806.570267225256
 20
2342.093285086225
 10
3806.571393633667
 20
2342.092999832463
 10
3806.572551591474
 20
2342.093095789536
 10
3806.573615615981
 20
2342.093562559008
 10
3806.574470403623
 20
2342.094349559162
 10
3806.575023324895
 20
2342.095371506321
 10
3806.575214462198
 20
2342.096517656653
  0
LWPOLYLINE
  5
1018
330
1F
100
AcDbEntity
  8
Sanindusa
100
AcDbPolyline
 90
       20
 70
   128
 43
0.0
 10
3806.535487886256
 20
2342.136061903349
 10
3806.535296526897
 20
2342.137208053681
 10
3806.534743407632
 20
2342.13823000084
 10
3806.533888467516
 20
2342.139017000995
 10
3806.532824352578
 20
2342.139483770466
 10
3806.531666376179
 20
2342.139579727541
 10
3806.530540023034
 20
2342.139294473778
 10
3806.52956735098
 20
2342.138658920851
 10
3806.528853764129
 20
2342.137741940782
 10
3806.528476590687
 20
2342.136642902588
 10
3806.52847670325
 20
2342.135480904111
 10
3806.52885408962
 20
2342.134381865917
 10
3806.529567854128
 20
2342.133464885847
 10
3806.530540649314
 20
2342.132829332921
 10
3806.531667057726
 20
2342.132544079158
 10
3806.532825015533
 20
2342.132640036232
 10
3806.533889040039
 20
2342.133106805704
 10
3806.534743827681
 20
2342.133893805858
 10
3806.535296748953
 20
2342.134915753018
 10
3806.535487886256
 20
2342.136061903349
  0
LWPOLYLINE
  5
101A
330
1F
100
AcDbEntity
  8
Sanindusa
100
AcDbPolyline
 90
       20
 70
   128
 43
0.0
 10
3806.814927361699
 20
2341.99787166136
 10
3806.81473600234
 20
2341.999017811692
 10
3806.814182883075
 20
2342.000039758852
 10
3806.81332794296
 20
2342.000826759006
 10
3806.81226382802
 20
2342.001293528477
 10
3806.811105851622
 20
2342.001389485551
 10
3806.809979498477
 20
2342.001104231789
 10
3806.809006826423
 20
2342.000468678863
 10
3806.808293239572
 20
2341.999551698792
 10
3806.80791606613
 20
2341.998452660599
 10
3806.807916178693
 20
2341.997290662122
 10
3806.808293565063
 20
2341.996191623928
 10
3806.809007329571
 20
2341.995274643858
 10
3806.809980124757
 20
2341.994639090931
 10
3806.811106533168
 20
2341.994353837169
 10
3806.812264490975
 20
2341.994449794243
 10
3806.813328515482
 20
2341.994916563715
 10
3806.814183303123
 20
2341.995703563869
 10
3806.814736224396
 20
2341.996725511028
 10
3806.814927361699
 20
2341.99787166136
  0
LWPOLYLINE
  5
1020
330
1F
100
AcDbEntity
  8
Sanindusa
100
AcDbPolyline
 90
       20
 70
   128
 43
0.0
 10
3806.674676181341
 20
2341.926971825879
 10
3806.674484821983
 20
2341.928117976211
 10
3806.673931702718
 20
2341.929139923371
 10
3806.673076762603
 20
2341.929926923525
 10
3806.672012647663
 20
2341.930393692996
 10
3806.670854671265
 20
2341.93048965007
 10
3806.669728318119
 20
2341.930204396308
 10
3806.668755646066
 20
2341.929568843381
 10
3806.668042059214
 20
2341.928651863312
 10
3806.667664885773
 20
2341.927552825117
 10
3806.667664998336
 20
2341.926390826641
 10
3806.668042384706
 20
2341.925291788447
 10
3806.668756149214
 20
2341.924374808377
 10
3806.669728944399
 20
2341.923739255451
 10
3806.670855352811
 20
2341.923454001689
 10
3806.672013310618
 20
2341.923549958762
 10
3806.673077335125
 20
2341.924016728234
 10
3806.673932122766
 20
2341.924803728388
 10
3806.674485044038
 20
2341.925825675547
 10
3806.674676181341
 20
2341.926971825879
  0
LWPOLYLINE
  5
1022
330
1F
100
AcDbEntity
  8
Sanindusa
100
AcDbPolyline
 90
       20
 70
   128
 43
0.0
 10
3806.604683451822
 20
2341.926520647258
 10
3806.604492092463
 20
2341.92766679759
 10
3806.603938973199
 20
2341.928688744749
 10
3806.603084033083
 20
2341.929475744903
 10
3806.602019918143
 20
2341.929942514375
 10
3806.600861941745
 20
2341.930038471449
 10
3806.599735588599
 20
2341.929753217687
 10
3806.598762916546
 20
2341.92911766476
 10
3806.598049329695
 20
2341.92820068469
 10
3806.597672156253
 20
2341.927101646496
 10
3806.597672268816
 20
2341.925939648019
 10
3806.598049655186
 20
2341.924840609825
 10
3806.598763419694
 20
2341.923923629755
 10
3806.59973621488
 20
2341.923288076829
 10
3806.600862623291
 20
2341.923002823067
 10
3806.602020581098
 20
2341.92309878014
 10
3806.603084605605
 20
2341.923565549612
 10
3806.603939393247
 20
2341.924352549766
 10
3806.604492314519
 20
2341.925374496926
 10
3806.604683451822
 20
2341.926520647258
  0
LWPOLYLINE
  5
1026
330
1F
100
AcDbEntity
  8
Sanindusa
100
AcDbPolyline
 90
       20
 70
   128
 43
0.0
 10
3806.604949173139
 20
2341.996518125495
 10
3806.604757813781
 20
2341.997664275828
 10
3806.604204694516
 20
2341.998686222987
 10
3806.6033497544
 20
2341.999473223141
 10
3806.602285639461
 20
2341.999939992613
 10
3806.601127663063
 20
2342.000035949686
 10
3806.600001309918
 20
2341.999750695924
 10
3806.599028637864
 20
2341.999115142998
 10
3806.598315051013
 20
2341.998198162928
 10
3806.597937877571
 20
2341.997099124734
 10
3806.597937990134
 20
2341.995937126257
 10
3806.598315376504
 20
2341.994838088063
 10
3806.599029141012
 20
2341.993921107993
 10
3806.600001936198
 20
2341.993285555067
 10
3806.601128344609
 20
2341.993000301305
 10
3806.602286302416
 20
2341.993096258378
 10
3806.603350326923
 20
2341.99356302785
 10
3806.604205114565
 20
2341.994350028004
 10
3806.604758035837
 20
2341.995371975164
 10
3806.604949173139
 20
2341.996518125495
  0
LWPOLYLINE
  5
1027
330
1F
100
AcDbEntity
  8
Sanindusa
100
AcDbPolyline
 90
       20
 70
   128
 43
0.0
 10
3806.674941902659
 20
2341.996969304117
 10
3806.674750543301
 20
2341.998115454449
 10
3806.674197424036
 20
2341.999137401608
 10
3806.67334248392
 20
2341.999924401763
 10
3806.672278368981
 20
2342.000391171234
 10
3806.671120392583
 20
2342.000487128307
 10
3806.669994039437
 20
2342.000201874546
 10
3806.669021367384
 20
2341.999566321619
 10
3806.668307780532
 20
2341.99864934155
 10
3806.66793060709
 20
2341.997550303355
 10
3806.667930719654
 20
2341.996388304879
 10
3806.668308106024
 20
2341.995289266685
 10
3806.669021870532
 20
2341.994372286615
 10
3806.669994665718
 20
2341.993736733689
 10
3806.671121074129
 20
2341.993451479926
 10
3806.672279031936
 20
2341.993547437
 10
3806.673343056443
 20
2341.994014206471
 10
3806.674197844085
 20
2341.994801206626
 10
3806.674750765357
 20
2341.995823153785
 10
3806.674941902659
 20
2341.996969304117
  0
LWPOLYLINE
  5
1028
330
1F
100
AcDbEntity
  8
Sanindusa
100
AcDbPolyline
 90
       20
 70
   128
 43
0.0
 10
3806.644675749082
 20
2341.956973878799
 10
3806.644484389723
 20
2341.958120029131
 10
3806.643931270458
 20
2341.959141976291
 10
3806.643076330342
 20
2341.959928976445
 10
3806.642012215404
 20
2341.960395745917
 10
3806.640854239005
 20
2341.96049170299
 10
3806.63972788586
 20
2341.960206449229
 10
3806.638755213806
 20
2341.959570896301
 10
3806.638041626955
 20
2341.958653916232
 10
3806.637664453513
 20
2341.957554878038
 10
3806.637664566076
 20
2341.956392879561
 10
3806.638041952446
 20
2341.955293841367
 10
3806.638755716954
 20
2341.954376861297
 10
3806.63972851214
 20
2341.95374130837
 10
3806.640854920551
 20
2341.953456054609
 10
3806.642012878358
 20
2341.953552011682
 10
3806.643076902865
 20
2341.954018781153
 10
3806.643931690507
 20
2341.954805781308
 10
3806.644484611778
 20
2341.955827728467
 10
3806.644675749082
 20
2341.956973878799
  0
LWPOLYLINE
  5
1029
330
1F
100
AcDbEntity
  8
Sanindusa
100
AcDbPolyline
 90
       20
 70
   128
 43
0.0
 10
3806.814661640381
 20
2341.927874183122
 10
3806.814470281022
 20
2341.929020333454
 10
3806.813917161758
 20
2341.930042280614
 10
3806.813062221642
 20
2341.930829280768
 10
3806.811998106702
 20
2341.93129605024
 10
3806.810840130304
 20
2341.931392007313
 10
3806.809713777158
 20
2341.931106753551
 10
3806.808741105106
 20
2341.930471200625
 10
3806.808027518254
 20
2341.929554220555
 10
3806.807650344813
 20
2341.928455182361
 10
3806.807650457376
 20
2341.927293183884
 10
3806.808027843745
 20
2341.92619414569
 10
3806.808741608254
 20
2341.92527716562
 10
3806.809714403439
 20
2341.924641612694
 10
3806.810840811851
 20
2341.924356358932
 10
3806.811998769658
 20
2341.924452316005
 10
3806.813062794164
 20
2341.924919085477
 10
3806.813917581806
 20
2341.925706085631
 10
3806.814470503077
 20
2341.92672803279
 10
3806.814661640381
 20
2341.927874183122
  0
LWPOLYLINE
  5
102B
330
1F
100
AcDbEntity
  8
Sanindusa
100
AcDbPolyline
 90
       20
 70
   128
 43
0.0
 10
3806.744668910861
 20
2341.927423004501
 10
3806.744477551502
 20
2341.928569154833
 10
3806.743924432238
 20
2341.929591101992
 10
3806.743069492122
 20
2341.930378102146
 10
3806.742005377183
 20
2341.930844871618
 10
3806.740847400785
 20
2341.930940828692
 10
3806.739721047639
 20
2341.930655574929
 10
3806.738748375585
 20
2341.930020022003
 10
3806.738034788734
 20
2341.929103041933
 10
3806.737657615292
 20
2341.928004003739
 10
3806.737657727856
 20
2341.926842005263
 10
3806.738035114225
 20
2341.925742967069
 10
3806.738748878733
 20
2341.924825986999
 10
3806.73972167392
 20
2341.924190434072
 10
3806.740848082331
 20
2341.92390518031
 10
3806.742006040138
 20
2341.924001137384
 10
3806.743070064645
 20
2341.924467906855
 10
3806.743924852286
 20
2341.92525490701
 10
3806.744477773558
 20
2341.926276854169
 10
3806.744668910861
 20
2341.927423004501
  0
LWPOLYLINE
  5
102D
330
1F
100
AcDbEntity
  8
Sanindusa
100
AcDbPolyline
 90
       20
 70
   128
 43
0.0
 10
3806.744934632179
 20
2341.997420482739
 10
3806.74474327282
 20
2341.99856663307
 10
3806.744190153555
 20
2341.99958858023
 10
3806.74333521344
 20
2342.000375580384
 10
3806.742271098501
 20
2342.000842349856
 10
3806.741113122103
 20
2342.00093830693
 10
3806.739986768956
 20
2342.000653053167
 10
3806.739014096903
 20
2342.000017500241
 10
3806.738300510052
 20
2341.999100520171
 10
3806.737923336611
 20
2341.998001481977
 10
3806.737923449174
 20
2341.9968394835
 10
3806.738300835544
 20
2341.995740445306
 10
3806.739014600051
 20
2341.994823465237
 10
3806.739987395238
 20
2341.99418791231
 10
3806.741113803648
 20
2341.993902658547
 10
3806.742271761456
 20
2341.993998615622
 10
3806.743335785962
 20
2341.994465385093
 10
3806.744190573604
 20
2341.995252385248
 10
3806.744743494876
 20
2341.996274332407
 10
3806.744934632179
 20
2341.997420482739
  0
LWPOLYLINE
  5
102E
330
1F
100
AcDbEntity
  8
Sanindusa
100
AcDbPolyline
 90
       20
 70
   128
 43
0.0
 10
3806.714668478601
 20
2341.957425057421
 10
3806.714477119243
 20
2341.958571207753
 10
3806.713923999978
 20
2341.959593154912
 10
3806.713069059862
 20
2341.960380155066
 10
3806.712004944923
 20
2341.960846924538
 10
3806.710846968525
 20
2341.960942881612
 10
3806.709720615379
 20
2341.96065762785
 10
3806.708747943325
 20
2341.960022074923
 10
3806.708034356475
 20
2341.959105094853
 10
3806.707657183033
 20
2341.958006056659
 10
3806.707657295596
 20
2341.956844058183
 10
3806.708034681966
 20
2341.955745019989
 10
3806.708748446474
 20
2341.954828039919
 10
3806.709721241659
 20
2341.954192486992
 10
3806.710847650071
 20
2341.95390723323
 10
3806.712005607878
 20
2341.954003190304
 10
3806.713069632385
 20
2341.954469959775
 10
3806.713924420026
 20
2341.95525695993
 10
3806.714477341298
 20
2341.956278907089
 10
3806.714668478601
 20
2341.957425057421
  0
LWPOLYLINE
  5
1030
330
1F
100
AcDbEntity
  8
Sanindusa
100
AcDbPolyline
 90
       20
 70
   128
 43
0.0
 10
3806.784661208121
 20
2341.957876236043
 10
3806.784469848762
 20
2341.959022386374
 10
3806.783916729498
 20
2341.960044333533
 10
3806.783061789382
 20
2341.960831333688
 10
3806.781997674443
 20
2341.96129810316
 10
3806.780839698045
 20
2341.961394060234
 10
3806.779713344898
 20
2341.961108806471
 10
3806.778740672846
 20
2341.960473253545
 10
3806.778027085994
 20
2341.959556273475
 10
3806.777649912553
 20
2341.958457235281
 10
3806.777650025116
 20
2341.957295236804
 10
3806.778027411485
 20
2341.95619619861
 10
3806.778741175993
 20
2341.955279218541
 10
3806.779713971179
 20
2341.954643665614
 10
3806.78084037959
 20
2341.954358411852
 10
3806.781998337397
 20
2341.954454368925
 10
3806.783062361905
 20
2341.954921138397
 10
3806.783917149547
 20
2341.955708138552
 10
3806.784470070818
 20
2341.956730085711
 10
3806.784661208121
 20
2341.957876236043
  0
LWPOLYLINE
  5
1034
330
1F
100
AcDbEntity
  8
Sanindusa
100
AcDbPolyline
 90
       20
 70
   128
 43
0.0
 10
3806.605214894457
 20
2342.066515603733
 10
3806.605023535098
 20
2342.067661754065
 10
3806.604470415834
 20
2342.068683701224
 10
3806.603615475719
 20
2342.069470701379
 10
3806.602551360779
 20
2342.069937470851
 10
3806.601393384381
 20
2342.070033427924
 10
3806.600267031235
 20
2342.069748174162
 10
3806.599294359182
 20
2342.069112621235
 10
3806.598580772331
 20
2342.068195641166
 10
3806.598203598889
 20
2342.067096602971
 10
3806.598203711452
 20
2342.065934604495
 10
3806.598581097822
 20
2342.064835566301
 10
3806.59929486233
 20
2342.063918586231
 10
3806.600267657515
 20
2342.063283033304
 10
3806.601394065927
 20
2342.062997779542
 10
3806.602552023734
 20
2342.063093736616
 10
3806.603616048241
 20
2342.063560506088
 10
3806.604470835883
 20
2342.064347506242
 10
3806.605023757155
 20
2342.065369453401
 10
3806.605214894457
 20
2342.066515603733
  0
LWPOLYLINE
  5
1035
330
1F
100
AcDbEntity
  8
Sanindusa
100
AcDbPolyline
 90
       20
 70
   128
 43
0.0
 10
3806.6449414704
 20
2342.026971357037
 10
3806.644750111041
 20
2342.02811750737
 10
3806.644196991776
 20
2342.029139454528
 10
3806.64334205166
 20
2342.029926454683
 10
3806.642277936721
 20
2342.030393224154
 10
3806.641119960323
 20
2342.030489181228
 10
3806.639993607177
 20
2342.030203927466
 10
3806.639020935124
 20
2342.02956837454
 10
3806.638307348272
 20
2342.028651394469
 10
3806.637930174832
 20
2342.027552356276
 10
3806.637930287394
 20
2342.026390357799
 10
3806.638307673764
 20
2342.025291319604
 10
3806.639021438272
 20
2342.024374339535
 10
3806.639994233458
 20
2342.023738786608
 10
3806.641120641869
 20
2342.023453532847
 10
3806.642278599676
 20
2342.02354948992
 10
3806.643342624183
 20
2342.024016259391
 10
3806.644197411825
 20
2342.024803259546
 10
3806.644750333096
 20
2342.025825206705
 10
3806.6449414704
 20
2342.026971357037
  0
LWPOLYLINE
  5
1036
330
1F
100
AcDbEntity
  8
Sanindusa
100
AcDbPolyline
 90
       20
 70
   128
 43
0.0
 10
3806.675207623977
 20
2342.066966782355
 10
3806.675016264618
 20
2342.068112932687
 10
3806.674463145354
 20
2342.069134879846
 10
3806.673608205238
 20
2342.069921880001
 10
3806.672544090299
 20
2342.070388649472
 10
3806.671386113901
 20
2342.070484606546
 10
3806.670259760755
 20
2342.070199352784
 10
3806.669287088702
 20
2342.069563799857
 10
3806.66857350185
 20
2342.068646819788
 10
3806.668196328409
 20
2342.067547781593
 10
3806.668196440972
 20
2342.066385783116
 10
3806.668573827342
 20
2342.065286744922
 10
3806.669287591849
 20
2342.064369764853
 10
3806.670260387035
 20
2342.063734211926
 10
3806.671386795446
 20
2342.063448958164
 10
3806.672544753253
 20
2342.063544915237
 10
3806.67360877776
 20
2342.064011684709
 10
3806.674463565403
 20
2342.064798684864
 10
3806.675016486675
 20
2342.065820632023
 10
3806.675207623977
 20
2342.066966782355
  0
LWPOLYLINE
  5
1039
330
1F
100
AcDbEntity
  8
Sanindusa
100
AcDbPolyline
 90
       20
 70
   128
 43
0.0
 10
3806.605480615775
 20
2342.136513081971
 10
3806.605289256417
 20
2342.137659232303
 10
3806.604736137153
 20
2342.138681179462
 10
3806.603881197037
 20
2342.139468179617
 10
3806.602817082097
 20
2342.139934949088
 10
3806.6016591057
 20
2342.140030906162
 10
3806.600532752553
 20
2342.1397456524
 10
3806.599560080499
 20
2342.139110099473
 10
3806.598846493649
 20
2342.138193119403
 10
3806.598469320207
 20
2342.137094081209
 10
3806.598469432771
 20
2342.135932082733
 10
3806.59884681914
 20
2342.134833044539
 10
3806.599560583648
 20
2342.133916064469
 10
3806.600533378833
 20
2342.133280511542
 10
3806.601659787245
 20
2342.13299525778
 10
3806.602817745052
 20
2342.133091214854
 10
3806.603881769559
 20
2342.133557984325
 10
3806.604736557201
 20
2342.13434498448
 10
3806.605289478472
 20
2342.135366931639
 10
3806.605480615775
 20
2342.136513081971
  0
LWPOLYLINE
  5
103B
330
1F
100
AcDbEntity
  8
Sanindusa
100
AcDbPolyline
 90
       20
 70
   128
 43
0.0
 10
3806.675473345296
 20
2342.136964260593
 10
3806.675281985936
 20
2342.138110410925
 10
3806.674728866672
 20
2342.139132358084
 10
3806.673873926556
 20
2342.139919358238
 10
3806.672809811617
 20
2342.14038612771
 10
3806.671651835219
 20
2342.140482084783
 10
3806.670525482072
 20
2342.140196831021
 10
3806.66955281002
 20
2342.139561278095
 10
3806.668839223168
 20
2342.138644298024
 10
3806.668462049727
 20
2342.137545259831
 10
3806.66846216229
 20
2342.136383261355
 10
3806.66883954866
 20
2342.13528422316
 10
3806.669553313167
 20
2342.13436724309
 10
3806.670526108354
 20
2342.133731690164
 10
3806.671652516764
 20
2342.133446436402
 10
3806.672810474572
 20
2342.133542393475
 10
3806.673874499079
 20
2342.134009162947
 10
3806.674729286721
 20
2342.134796163101
 10
3806.675282207992
 20
2342.135818110261
 10
3806.675473345296
 20
2342.136964260593
  0
LWPOLYLINE
  5
103D
330
1F
100
AcDbEntity
  8
Sanindusa
100
AcDbPolyline
 90
       20
 70
   128
 43
0.0
 10
3806.645207191717
 20
2342.096968835275
 10
3806.645015832359
 20
2342.098114985607
 10
3806.644462713094
 20
2342.099136932766
 10
3806.643607772978
 20
2342.099923932921
 10
3806.642543658039
 20
2342.100390702392
 10
3806.641385681641
 20
2342.100486659466
 10
3806.640259328496
 20
2342.100201405703
 10
3806.639286656441
 20
2342.099565852777
 10
3806.638573069591
 20
2342.098648872707
 10
3806.638195896148
 20
2342.097549834513
 10
3806.638196008712
 20
2342.096387836037
 10
3806.638573395082
 20
2342.095288797843
 10
3806.639287159589
 20
2342.094371817773
 10
3806.640259954776
 20
2342.093736264846
 10
3806.641386363187
 20
2342.093451011084
 10
3806.642544320994
 20
2342.093546968158
 10
3806.643608345501
 20
2342.094013737629
 10
3806.644463133142
 20
2342.094800737784
 10
3806.645016054414
 20
2342.095822684943
 10
3806.645207191717
 20
2342.096968835275
  0
LWPOLYLINE
  5
103E
330
1F
100
AcDbEntity
  8
Sanindusa
100
AcDbPolyline
 90
       20
 70
   128
 43
0.0
 10
3806.714934199919
 20
2342.027422535659
 10
3806.71474284056
 20
2342.028568685991
 10
3806.714189721296
 20
2342.02959063315
 10
3806.713334781181
 20
2342.030377633304
 10
3806.712270666241
 20
2342.030844402776
 10
3806.711112689843
 20
2342.030940359849
 10
3806.709986336697
 20
2342.030655106087
 10
3806.709013664644
 20
2342.030019553161
 10
3806.708300077792
 20
2342.029102573091
 10
3806.707922904351
 20
2342.028003534897
 10
3806.707923016914
 20
2342.02684153642
 10
3806.708300403284
 20
2342.025742498226
 10
3806.709014167792
 20
2342.024825518157
 10
3806.709986962977
 20
2342.02418996523
 10
3806.711113371389
 20
2342.023904711468
 10
3806.712271329196
 20
2342.024000668541
 10
3806.713335353702
 20
2342.024467438013
 10
3806.714190141344
 20
2342.025254438167
 10
3806.714743062616
 20
2342.026276385327
 10
3806.714934199919
 20
2342.027422535659
  0
LWPOLYLINE
  5
1040
330
1F
100
AcDbEntity
  8
Sanindusa
100
AcDbPolyline
 90
       20
 70
   128
 43
0.0
 10
3806.745200353497
 20
2342.067417960977
 10
3806.745008994138
 20
2342.068564111308
 10
3806.744455874873
 20
2342.069586058467
 10
3806.743600934758
 20
2342.070373058622
 10
3806.742536819819
 20
2342.070839828094
 10
3806.741378843421
 20
2342.070935785167
 10
3806.740252490275
 20
2342.070650531405
 10
3806.739279818221
 20
2342.070014978478
 10
3806.73856623137
 20
2342.069097998409
 10
3806.738189057929
 20
2342.067998960215
 10
3806.738189170492
 20
2342.066836961738
 10
3806.738566556862
 20
2342.065737923544
 10
3806.739280321369
 20
2342.064820943474
 10
3806.740253116555
 20
2342.064185390547
 10
3806.741379524967
 20
2342.063900136786
 10
3806.742537482773
 20
2342.063996093859
 10
3806.743601507281
 20
2342.06446286333
 10
3806.744456294922
 20
2342.065249863485
 10
3806.745009216194
 20
2342.066271810644
 10
3806.745200353497
 20
2342.067417960977
  0
LWPOLYLINE
  5
1043
330
1F
100
AcDbEntity
  8
Sanindusa
100
AcDbPolyline
 90
       20
 70
   128
 43
0.0
 10
3806.784926929439
 20
2342.027873714281
 10
3806.78473557008
 20
2342.029019864612
 10
3806.784182450816
 20
2342.030041811771
 10
3806.7833275107
 20
2342.030828811926
 10
3806.78226339576
 20
2342.031295581397
 10
3806.781105419363
 20
2342.031391538471
 10
3806.779979066217
 20
2342.031106284709
 10
3806.779006394164
 20
2342.030470731782
 10
3806.778292807312
 20
2342.029553751713
 10
3806.77791563387
 20
2342.028454713519
 10
3806.777915746434
 20
2342.027292715042
 10
3806.778293132803
 20
2342.026193676848
 10
3806.779006897312
 20
2342.025276696778
 10
3806.779979692498
 20
2342.024641143852
 10
3806.781106100908
 20
2342.024355890089
 10
3806.782264058715
 20
2342.024451847163
 10
3806.783328083223
 20
2342.024918616635
 10
3806.784182870865
 20
2342.025705616789
 10
3806.784735792136
 20
2342.026727563948
 10
3806.784926929439
 20
2342.027873714281
  0
LWPOLYLINE
  5
1044
330
1F
100
AcDbEntity
  8
Sanindusa
100
AcDbPolyline
 90
       20
 70
   128
 43
0.0
 10
3806.815193083016
 20
2342.067869139598
 10
3806.815001723658
 20
2342.06901528993
 10
3806.814448604393
 20
2342.070037237089
 10
3806.813593664278
 20
2342.070824237243
 10
3806.812529549338
 20
2342.071291006715
 10
3806.811371572941
 20
2342.071386963789
 10
3806.810245219795
 20
2342.071101710027
 10
3806.809272547741
 20
2342.0704661571
 10
3806.80855896089
 20
2342.06954917703
 10
3806.808181787448
 20
2342.068450138837
 10
3806.808181900012
 20
2342.067288140359
 10
3806.808559286382
 20
2342.066189102165
 10
3806.809273050889
 20
2342.065272122096
 10
3806.810245846075
 20
2342.064636569169
 10
3806.811372254486
 20
2342.064351315407
 10
3806.812530212293
 20
2342.06444727248
 10
3806.8135942368
 20
2342.064914041952
 10
3806.814449024442
 20
2342.065701042107
 10
3806.815001945714
 20
2342.066722989266
 10
3806.815193083016
 20
2342.067869139598
  0
LWPOLYLINE
  5
1046
330
1F
100
AcDbEntity
  8
Sanindusa
100
AcDbPolyline
 90
       20
 70
   128
 43
0.0
 10
3806.745466074815
 20
2342.137415439214
 10
3806.745274715456
 20
2342.138561589546
 10
3806.744721596191
 20
2342.139583536706
 10
3806.743866656076
 20
2342.14037053686
 10
3806.742802541137
 20
2342.140837306331
 10
3806.741644564739
 20
2342.140933263405
 10
3806.740518211593
 20
2342.140648009643
 10
3806.739545539539
 20
2342.140012456717
 10
3806.738831952688
 20
2342.139095476647
 10
3806.738454779246
 20
2342.137996438452
 10
3806.738454891809
 20
2342.136834439976
 10
3806.73883227818
 20
2342.135735401782
 10
3806.739546042687
 20
2342.134818421712
 10
3806.740518837873
 20
2342.134182868785
 10
3806.741645246285
 20
2342.133897615023
 10
3806.742803204091
 20
2342.133993572097
 10
3806.743867228599
 20
2342.134460341569
 10
3806.74472201624
 20
2342.135247341723
 10
3806.745274937512
 20
2342.136269288882
 10
3806.745466074815
 20
2342.137415439214
  0
LWPOLYLINE
  5
1048
330
1F
100
AcDbEntity
  8
Sanindusa
100
AcDbPolyline
 90
       20
 70
   128
 43
0.0
 10
3806.715199921237
 20
2342.097420013896
 10
3806.715008561879
 20
2342.098566164228
 10
3806.714455442614
 20
2342.099588111388
 10
3806.713600502499
 20
2342.100375111542
 10
3806.712536387559
 20
2342.100841881014
 10
3806.711378411161
 20
2342.100937838087
 10
3806.710252058015
 20
2342.100652584325
 10
3806.709279385962
 20
2342.100017031399
 10
3806.70856579911
 20
2342.099100051329
 10
3806.708188625669
 20
2342.098001013135
 10
3806.708188738232
 20
2342.096839014658
 10
3806.708566124602
 20
2342.095739976464
 10
3806.70927988911
 20
2342.094822996394
 10
3806.710252684295
 20
2342.094187443468
 10
3806.711379092707
 20
2342.093902189706
 10
3806.712537050514
 20
2342.093998146779
 10
3806.713601075021
 20
2342.094464916251
 10
3806.714455862663
 20
2342.095251916405
 10
3806.715008783934
 20
2342.096273863564
 10
3806.715199921237
 20
2342.097420013896
  0
LWPOLYLINE
  5
104A
330
1F
100
AcDbEntity
  8
Sanindusa
100
AcDbPolyline
 90
       20
 70
   128
 43
0.0
 10
3806.785192650757
 20
2342.097871192518
 10
3806.785001291398
 20
2342.09901734285
 10
3806.784448172133
 20
2342.100039290009
 10
3806.783593232018
 20
2342.100826290164
 10
3806.782529117079
 20
2342.101293059636
 10
3806.781371140681
 20
2342.101389016709
 10
3806.780244787534
 20
2342.101103762947
 10
3806.779272115481
 20
2342.10046821002
 10
3806.77855852863
 20
2342.099551229951
 10
3806.778181355188
 20
2342.098452191756
 10
3806.778181467752
 20
2342.097290193279
 10
3806.778558854121
 20
2342.096191155086
 10
3806.779272618629
 20
2342.095274175016
 10
3806.780245413815
 20
2342.094638622089
 10
3806.781371822226
 20
2342.094353368327
 10
3806.782529780033
 20
2342.094449325401
 10
3806.783593804541
 20
2342.094916094872
 10
3806.784448592182
 20
2342.095703095027
 10
3806.785001513454
 20
2342.096725042186
 10
3806.785192650757
 20
2342.097871192518
  0
LWPOLYLINE
  5
104C
330
1F
100
AcDbEntity
  8
Sanindusa
100
AcDbPolyline
 90
       20
 70
   128
 43
0.0
 10
3806.815458804334
 20
2342.137866617836
 10
3806.815267444976
 20
2342.139012768168
 10
3806.814714325712
 20
2342.140034715327
 10
3806.813859385595
 20
2342.140821715481
 10
3806.812795270656
 20
2342.141288484953
 10
3806.811637294258
 20
2342.141384442027
 10
3806.810510941112
 20
2342.141099188264
 10
3806.809538269059
 20
2342.140463635338
 10
3806.808824682208
 20
2342.139546655268
 10
3806.808447508767
 20
2342.138447617074
 10
3806.80844762133
 20
2342.137285618597
 10
3806.808825007699
 20
2342.136186580404
 10
3806.809538772207
 20
2342.135269600333
 10
3806.810511567393
 20
2342.134634047407
 10
3806.811637975804
 20
2342.134348793645
 10
3806.812795933611
 20
2342.134444750719
 10
3806.813859958118
 20
2342.13491152019
 10
3806.81471474576
 20
2342.135698520344
 10
3806.815267667032
 20
2342.136720467504
 10
3806.815458804334
 20
2342.137866617836
  0
LWPOLYLINE
  5
105D
330
1F
100
AcDbEntity
  8
Sanindusa
100
AcDbPolyline
 90
        8
 70
   128
 43
0.0
 10
3806.521661124014
 20
2342.465151728015
 10
3806.517088291847
 20
2342.464910785794
 10
3806.512623392925
 20
2342.46389365692
 10
3806.508452721257
 20
2342.46208806847
 10
3806.504685919226
 20
2342.45954536986
 10
3806.501554862166
 20
2342.45645427479
 10
3806.498997765676
 20
2342.452874068993
 10
3806.497579181103
 20
2342.450153623312
  0
LWPOLYLINE
  5
1060
330
1F
100
AcDbEntity
  8
Sanindusa
100
AcDbPolyline
 90
       20
 70
   128
 43
0.0
 10
3806.57627734747
 20
2342.376507569604
 10
3806.576085988111
 20
2342.377653719937
 10
3806.575532868846
 20
2342.378675667096
 10
3806.57467792873
 20
2342.37946266725
 10
3806.573613813791
 20
2342.379929436722
 10
3806.572455837393
 20
2342.380025393795
 10
3806.571329484248
 20
2342.379740140033
 10
3806.570356812194
 20
2342.379104587107
 10
3806.569643225343
 20
2342.378187607037
 10
3806.569266051901
 20
2342.377088568843
 10
3806.569266164464
 20
2342.375926570366
 10
3806.569643550835
 20
2342.374827532172
 10
3806.570357315342
 20
2342.373910552102
 10
3806.571330110528
 20
2342.373274999175
 10
3806.572456518939
 20
2342.372989745413
 10
3806.573614476746
 20
2342.373085702487
 10
3806.574678501253
 20
2342.373552471959
 10
3806.575533288895
 20
2342.374339472113
 10
3806.576086210167
 20
2342.375361419272
 10
3806.57627734747
 20
2342.376507569604
  0
LWPOLYLINE
  5
1061
330
1F
100
AcDbEntity
  8
Sanindusa
100
AcDbPolyline
 90
       20
 70
   128
 43
0.0
 10
3806.576011626152
 20
2342.306510091367
 10
3806.575820266793
 20
2342.307656241699
 10
3806.575267147528
 20
2342.308678188858
 10
3806.574412207413
 20
2342.309465189012
 10
3806.573348092474
 20
2342.309931958484
 10
3806.572190116075
 20
2342.310027915557
 10
3806.571063762929
 20
2342.309742661795
 10
3806.570091090876
 20
2342.309107108869
 10
3806.569377504025
 20
2342.308190128798
 10
3806.569000330583
 20
2342.307091090605
 10
3806.569000443147
 20
2342.305929092129
 10
3806.569377829517
 20
2342.304830053934
 10
3806.570091594024
 20
2342.303913073864
 10
3806.57106438921
 20
2342.303277520938
 10
3806.572190797621
 20
2342.302992267176
 10
3806.573348755428
 20
2342.303088224249
 10
3806.574412779935
 20
2342.303554993721
 10
3806.575267567577
 20
2342.304341993875
 10
3806.575820488848
 20
2342.305363941035
 10
3806.576011626152
 20
2342.306510091367
  0
LWPOLYLINE
  5
1063
330
1F
100
AcDbEntity
  8
Sanindusa
100
AcDbPolyline
 90
       20
 70
   128
 43
0.0
 10
3806.575480183516
 20
2342.166515134891
 10
3806.575288824157
 20
2342.167661285223
 10
3806.574735704892
 20
2342.168683232382
 10
3806.573880764776
 20
2342.169470232537
 10
3806.572816649838
 20
2342.169937002008
 10
3806.57165867344
 20
2342.170032959081
 10
3806.570532320293
 20
2342.16974770532
 10
3806.56955964824
 20
2342.169112152393
 10
3806.568846061389
 20
2342.168195172324
 10
3806.568468887947
 20
2342.167096134129
 10
3806.56846900051
 20
2342.165934135653
 10
3806.56884638688
 20
2342.164835097459
 10
3806.569560151388
 20
2342.163918117389
 10
3806.570532946574
 20
2342.163282564463
 10
3806.571659354985
 20
2342.1629973107
 10
3806.572817312792
 20
2342.163093267774
 10
3806.5738813373
 20
2342.163560037245
 10
3806.574736124941
 20
2342.1643470374
 10
3806.575289046213
 20
2342.165368984559
 10
3806.575480183516
 20
2342.166515134891
  0
LWPOLYLINE
  5
1065
330
1F
100
AcDbEntity
  8
Sanindusa
100
AcDbPolyline
 90
       20
 70
   128
 43
0.0
 10
3806.575745904833
 20
2342.236512613129
 10
3806.575554545474
 20
2342.237658763461
 10
3806.57500142621
 20
2342.23868071062
 10
3806.574146486094
 20
2342.239467710775
 10
3806.573082371155
 20
2342.239934480246
 10
3806.571924394758
 20
2342.24003043732
 10
3806.570798041612
 20
2342.239745183558
 10
3806.569825369558
 20
2342.239109630631
 10
3806.569111782707
 20
2342.238192650562
 10
3806.568734609265
 20
2342.237093612367
 10
3806.568734721828
 20
2342.23593161389
 10
3806.569112108198
 20
2342.234832575696
 10
3806.569825872706
 20
2342.233915595627
 10
3806.570798667891
 20
2342.2332800427
 10
3806.571925076303
 20
2342.232994788938
 10
3806.57308303411
 20
2342.233090746011
 10
3806.574147058618
 20
2342.233557515483
 10
3806.575001846259
 20
2342.234344515638
 10
3806.575554767531
 20
2342.235366462797
 10
3806.575745904833
 20
2342.236512613129
  0
LWPOLYLINE
  5
1067
330
1F
100
AcDbEntity
  8
Sanindusa
100
AcDbPolyline
 90
       20
 70
   128
 43
0.0
 10
3806.506018896632
 20
2342.306058912745
 10
3806.505827537273
 20
2342.307205063077
 10
3806.505274418009
 20
2342.308227010236
 10
3806.504419477893
 20
2342.309014010391
 10
3806.503355362954
 20
2342.309480779862
 10
3806.502197386556
 20
2342.309576736936
 10
3806.501071033409
 20
2342.309291483174
 10
3806.500098361357
 20
2342.308655930247
 10
3806.499384774505
 20
2342.307738950177
 10
3806.499007601063
 20
2342.306639911984
 10
3806.499007713627
 20
2342.305477913507
 10
3806.499385099996
 20
2342.304378875313
 10
3806.500098864504
 20
2342.303461895243
 10
3806.50107165969
 20
2342.302826342316
 10
3806.502198068101
 20
2342.302541088554
 10
3806.503356025908
 20
2342.302637045628
 10
3806.504420050416
 20
2342.303103815099
 10
3806.505274838057
 20
2342.303890815254
 10
3806.505827759329
 20
2342.304912762413
 10
3806.506018896632
 20
2342.306058912745
  0
LWPOLYLINE
  5
1069
330
1F
100
AcDbEntity
  8
Sanindusa
100
AcDbPolyline
 90
       20
 70
   128
 43
0.0
 10
3806.505487453995
 20
2342.16606395627
 10
3806.505296094637
 20
2342.167210106602
 10
3806.504742975373
 20
2342.168232053761
 10
3806.503888035257
 20
2342.169019053915
 10
3806.502823920317
 20
2342.169485823387
 10
3806.50166594392
 20
2342.16958178046
 10
3806.500539590774
 20
2342.169296526698
 10
3806.49956691872
 20
2342.168660973772
 10
3806.498853331869
 20
2342.167743993702
 10
3806.498476158428
 20
2342.166644955508
 10
3806.498476270991
 20
2342.165482957031
 10
3806.498853657361
 20
2342.164383918837
 10
3806.499567421868
 20
2342.163466938767
 10
3806.500540217054
 20
2342.162831385841
 10
3806.501666625465
 20
2342.162546132079
 10
3806.502824583272
 20
2342.162642089152
 10
3806.50388860778
 20
2342.163108858624
 10
3806.504743395421
 20
2342.163895858778
 10
3806.505296316693
 20
2342.164917805938
 10
3806.505487453995
 20
2342.16606395627
  0
LWPOLYLINE
  5
106C
330
1F
100
AcDbEntity
  8
Sanindusa
100
AcDbPolyline
 90
       20
 70
   128
 43
0.0
 10
3806.535753607574
 20
2342.206059381587
 10
3806.535562248215
 20
2342.207205531919
 10
3806.53500912895
 20
2342.208227479078
 10
3806.534154188835
 20
2342.209014479233
 10
3806.533090073895
 20
2342.209481248704
 10
3806.531932097497
 20
2342.209577205778
 10
3806.530805744352
 20
2342.209291952016
 10
3806.529833072298
 20
2342.208656399089
 10
3806.529119485447
 20
2342.20773941902
 10
3806.528742312006
 20
2342.206640380826
 10
3806.528742424569
 20
2342.205478382349
 10
3806.529119810938
 20
2342.204379344155
 10
3806.529833575446
 20
2342.203462364085
 10
3806.530806370632
 20
2342.202826811158
 10
3806.531932779043
 20
2342.202541557396
 10
3806.53309073685
 20
2342.202637514469
 10
3806.534154761357
 20
2342.203104283941
 10
3806.535009548999
 20
2342.203891284096
 10
3806.535562470271
 20
2342.204913231255
 10
3806.535753607574
 20
2342.206059381587
  0
LWPOLYLINE
  5
106D
330
1F
100
AcDbEntity
  8
Sanindusa
100
AcDbPolyline
 90
       20
 70
   128
 43
0.0
 10
3806.505753175314
 20
2342.236061434507
 10
3806.505561815955
 20
2342.237207584839
 10
3806.505008696691
 20
2342.238229531998
 10
3806.504153756575
 20
2342.239016532153
 10
3806.503089641636
 20
2342.239483301625
 10
3806.501931665238
 20
2342.239579258698
 10
3806.500805312091
 20
2342.239294004936
 10
3806.499832640039
 20
2342.238658452009
 10
3806.499119053187
 20
2342.23774147194
 10
3806.498741879746
 20
2342.236642433746
 10
3806.498741992309
 20
2342.235480435269
 10
3806.499119378678
 20
2342.234381397075
 10
3806.499833143186
 20
2342.233464417005
 10
3806.500805938372
 20
2342.232828864078
 10
3806.501932346783
 20
2342.232543610316
 10
3806.50309030459
 20
2342.23263956739
 10
3806.504154329097
 20
2342.233106336862
 10
3806.505009116739
 20
2342.233893337016
 10
3806.505562038011
 20
2342.234915284175
 10
3806.505753175314
 20
2342.236061434507
  0
LWPOLYLINE
  5
106F
330
1F
100
AcDbEntity
  8
Sanindusa
100
AcDbPolyline
 90
       20
 70
   128
 43
0.0
 10
3806.536019328892
 20
2342.276056859825
 10
3806.535827969533
 20
2342.277203010157
 10
3806.535274850268
 20
2342.278224957316
 10
3806.534419910152
 20
2342.279011957471
 10
3806.533355795213
 20
2342.279478726942
 10
3806.532197818815
 20
2342.279574684016
 10
3806.53107146567
 20
2342.279289430254
 10
3806.530098793615
 20
2342.278653877327
 10
3806.529385206765
 20
2342.277736897258
 10
3806.529008033323
 20
2342.276637859063
 10
3806.529008145886
 20
2342.275475860587
 10
3806.529385532257
 20
2342.274376822393
 10
3806.530099296764
 20
2342.273459842322
 10
3806.53107209195
 20
2342.272824289396
 10
3806.532198500361
 20
2342.272539035634
 10
3806.533356458168
 20
2342.272634992708
 10
3806.534420482675
 20
2342.273101762179
 10
3806.535275270317
 20
2342.273888762333
 10
3806.535828191589
 20
2342.274910709493
 10
3806.536019328892
 20
2342.276056859825
  0
ARC
  5
1073
330
1F
100
AcDbEntity
  8
Sanindusa
100
AcDbCircle
 10
3806.354240801486
 20
2342.520595199639
 30
0.0
 40
0.1597119492928116
100
AcDbArc
 50
296.1711427368887
 51
333.8288572630938
  0
LWPOLYLINE
  5
1078
330
1F
100
AcDbEntity
  8
Sanindusa
100
AcDbPolyline
 90
        8
 70
   128
 43
0.0
 10
3806.424682377811
 20
2342.377256820021
 10
3806.420684348122
 20
2342.375025278246
 10
3806.417125862667
 20
2342.37214380235
 10
3806.414180254638
 20
2342.368683789438
 10
3806.411922379975
 20
2342.36474041044
 10
3806.41047592659
 20
2342.360585683973
 10
3806.409758939339
 20
2342.356245336328
 10
3806.409684273108
 20
2342.35317487711
  0
ARC
  5
107B
330
1F
100
AcDbEntity
  8
Sanindusa
100
AcDbCircle
 10
3806.355658960109
 20
2342.521439901832
 30
0.0
 40
0.2037346229225808
100
AcDbArc
 50
302.7592281690965
 51
326.2720656425931
  0
LWPOLYLINE
  5
107F
330
1F
100
AcDbEntity
  8
Sanindusa
100
AcDbPolyline
 90
        7
 70
   128
 43
0.0
 10
3806.453716221625
 20
2342.327691459714
 10
3806.454338681938
 20
2342.332004456209
 10
3806.455606611039
 20
2342.336298813697
 10
3806.457460628452
 20
2342.340330176257
 10
3806.459933299568
 20
2342.344140972159
 10
3806.462687837398
 20
2342.347304812634
 10
3806.465901786378
 20
2342.350108889363
  0
LWPOLYLINE
  5
1080
330
1F
100
AcDbEntity
  8
Sanindusa
100
AcDbPolyline
 90
       20
 70
   128
 43
0.0
 10
3806.536285050209
 20
2342.346054338062
 10
3806.53609369085
 20
2342.347200488395
 10
3806.535540571586
 20
2342.348222435554
 10
3806.534685631471
 20
2342.349009435709
 10
3806.533621516531
 20
2342.34947620518
 10
3806.532463540133
 20
2342.349572162254
 10
3806.531337186988
 20
2342.349286908492
 10
3806.530364514934
 20
2342.348651355565
 10
3806.529650928083
 20
2342.347734375495
 10
3806.529273754641
 20
2342.346635337301
 10
3806.529273867204
 20
2342.345473338824
 10
3806.529651253575
 20
2342.34437430063
 10
3806.530365018082
 20
2342.343457320561
 10
3806.531337813268
 20
2342.342821767634
 10
3806.532464221679
 20
2342.342536513872
 10
3806.533622179486
 20
2342.342632470945
 10
3806.534686203993
 20
2342.343099240417
 10
3806.535540991635
 20
2342.343886240572
 10
3806.536093912907
 20
2342.344908187731
 10
3806.536285050209
 20
2342.346054338062
  0
LWPOLYLINE
  5
1084
330
1F
100
AcDbEntity
  8
Sanindusa
100
AcDbPolyline
 90
        7
 70
   128
 43
0.0
 10
3806.525101686573
 20
2342.408316256974
 10
3806.528004416619
 20
2342.41158680019
 10
3806.531439440843
 20
2342.414485328564
 10
3806.535216835234
 20
2342.416836523644
 10
3806.539390987815
 20
2342.418661136355
 10
3806.543385262798
 20
2342.419775505773
 10
3806.547560177619
 20
2342.420349995976
  0
LWPOLYLINE
  5
108D
330
1F
100
AcDbEntity
  8
Sanindusa
100
AcDbPolyline
 90
       20
 70
   128
 43
0.0
 10
3806.605746337093
 20
2342.206510560209
 10
3806.605554977735
 20
2342.207656710541
 10
3806.60500185847
 20
2342.2086786577
 10
3806.604146918355
 20
2342.209465657854
 10
3806.603082803415
 20
2342.209932427326
 10
3806.601924827017
 20
2342.2100283844
 10
3806.600798473871
 20
2342.209743130638
 10
3806.599825801818
 20
2342.209107577711
 10
3806.599112214966
 20
2342.208190597641
 10
3806.598735041525
 20
2342.207091559447
 10
3806.598735154088
 20
2342.20592956097
 10
3806.599112540458
 20
2342.204830522776
 10
3806.599826304966
 20
2342.203913542706
 10
3806.600799100152
 20
2342.20327798978
 10
3806.601925508563
 20
2342.202992736018
 10
3806.60308346637
 20
2342.203088693092
 10
3806.604147490876
 20
2342.203555462563
 10
3806.605002278518
 20
2342.204342462717
 10
3806.605555199791
 20
2342.205364409876
 10
3806.605746337093
 20
2342.206510560209
  0
LWPOLYLINE
  5
1090
330
1F
100
AcDbEntity
  8
Sanindusa
100
AcDbPolyline
 90
       20
 70
   128
 43
0.0
 10
3806.675739066614
 20
2342.20696173883
 10
3806.675547707254
 20
2342.208107889163
 10
3806.67499458799
 20
2342.209129836322
 10
3806.674139647874
 20
2342.209916836476
 10
3806.673075532934
 20
2342.210383605948
 10
3806.671917556537
 20
2342.210479563021
 10
3806.670791203391
 20
2342.210194309259
 10
3806.669818531338
 20
2342.209558756333
 10
3806.669104944486
 20
2342.208641776263
 10
3806.668727771045
 20
2342.207542738069
 10
3806.668727883608
 20
2342.206380739592
 10
3806.669105269977
 20
2342.205281701398
 10
3806.669819034486
 20
2342.204364721328
 10
3806.670791829672
 20
2342.203729168401
 10
3806.671918238083
 20
2342.203443914639
 10
3806.67307619589
 20
2342.203539871713
 10
3806.674140220397
 20
2342.204006641185
 10
3806.674995008039
 20
2342.204793641339
 10
3806.67554792931
 20
2342.205815588498
 10
3806.675739066614
 20
2342.20696173883
  0
LWPOLYLINE
  5
1091
330
1F
100
AcDbEntity
  8
Sanindusa
100
AcDbPolyline
 90
       20
 70
   128
 43
0.0
 10
3806.645472913035
 20
2342.166966313513
 10
3806.645281553676
 20
2342.168112463844
 10
3806.644728434412
 20
2342.169134411004
 10
3806.643873494297
 20
2342.169921411158
 10
3806.642809379357
 20
2342.17038818063
 10
3806.641651402959
 20
2342.170484137704
 10
3806.640525049814
 20
2342.170198883941
 10
3806.63955237776
 20
2342.169563331015
 10
3806.638838790909
 20
2342.168646350945
 10
3806.638461617467
 20
2342.167547312751
 10
3806.63846173003
 20
2342.166385314274
 10
3806.638839116401
 20
2342.16528627608
 10
3806.639552880908
 20
2342.164369296011
 10
3806.640525676094
 20
2342.163733743084
 10
3806.641652084504
 20
2342.163448489321
 10
3806.642810042312
 20
2342.163544446396
 10
3806.643874066819
 20
2342.164011215867
 10
3806.644728854461
 20
2342.164798216022
 10
3806.645281775733
 20
2342.165820163181
 10
3806.645472913035
 20
2342.166966313513
  0
LWPOLYLINE
  5
1093
330
1F
100
AcDbEntity
  8
Sanindusa
100
AcDbPolyline
 90
       20
 70
   128
 43
0.0
 10
3806.606012058411
 20
2342.276508038446
 10
3806.605820699053
 20
2342.277654188778
 10
3806.605267579788
 20
2342.278676135938
 10
3806.604412639673
 20
2342.279463136092
 10
3806.603348524733
 20
2342.279929905564
 10
3806.602190548335
 20
2342.280025862637
 10
3806.601064195189
 20
2342.279740608876
 10
3806.600091523136
 20
2342.279105055949
 10
3806.599377936284
 20
2342.278188075879
 10
3806.599000762843
 20
2342.277089037684
 10
3806.599000875407
 20
2342.275927039208
 10
3806.599378261776
 20
2342.274828001015
 10
3806.600092026284
 20
2342.273911020944
 10
3806.60106482147
 20
2342.273275468018
 10
3806.602191229881
 20
2342.272990214256
 10
3806.603349187688
 20
2342.27308617133
 10
3806.604413212195
 20
2342.273552940801
 10
3806.605267999837
 20
2342.274339940955
 10
3806.605820921109
 20
2342.275361888114
 10
3806.606012058411
 20
2342.276508038446
  0
LWPOLYLINE
  5
1095
330
1F
100
AcDbEntity
  8
Sanindusa
100
AcDbPolyline
 90
       20
 70
   128
 43
0.0
 10
3806.676004787931
 20
2342.276959217068
 10
3806.675813428572
 20
2342.2781053674
 10
3806.675260309307
 20
2342.279127314559
 10
3806.674405369192
 20
2342.279914314714
 10
3806.673341254253
 20
2342.280381084185
 10
3806.672183277855
 20
2342.280477041259
 10
3806.671056924709
 20
2342.280191787497
 10
3806.670084252655
 20
2342.27955623457
 10
3806.669370665804
 20
2342.2786392545
 10
3806.668993492362
 20
2342.277540216306
 10
3806.668993604926
 20
2342.276378217829
 10
3806.669370991296
 20
2342.275279179636
 10
3806.670084755803
 20
2342.274362199566
 10
3806.671057550989
 20
2342.273726646639
 10
3806.6721839594
 20
2342.273441392877
 10
3806.673341917207
 20
2342.273537349951
 10
3806.674405941715
 20
2342.274004119422
 10
3806.675260729356
 20
2342.274791119577
 10
3806.675813650628
 20
2342.275813066736
 10
3806.676004787931
 20
2342.276959217068
  0
LWPOLYLINE
  5
1097
330
1F
100
AcDbEntity
  8
Sanindusa
100
AcDbPolyline
 90
       20
 70
   128
 43
0.0
 10
3806.645738634353
 20
2342.236963791751
 10
3806.645547274995
 20
2342.238109942082
 10
3806.64499415573
 20
2342.239131889241
 10
3806.644139215615
 20
2342.239918889396
 10
3806.643075100675
 20
2342.240385658868
 10
3806.641917124277
 20
2342.240481615942
 10
3806.640790771131
 20
2342.240196362179
 10
3806.639818099078
 20
2342.239560809252
 10
3806.639104512227
 20
2342.238643829183
 10
3806.638727338785
 20
2342.237544790989
 10
3806.638727451348
 20
2342.236382792512
 10
3806.639104837718
 20
2342.235283754318
 10
3806.639818602226
 20
2342.234366774248
 10
3806.640791397411
 20
2342.233731221321
 10
3806.641917805823
 20
2342.23344596756
 10
3806.64307576363
 20
2342.233541924633
 10
3806.644139788137
 20
2342.234008694104
 10
3806.644994575779
 20
2342.234795694259
 10
3806.64554749705
 20
2342.235817641418
 10
3806.645738634353
 20
2342.236963791751
  0
LWPOLYLINE
  5
1099
330
1F
100
AcDbEntity
  8
Sanindusa
100
AcDbPolyline
 90
       20
 70
   128
 43
0.0
 10
3806.745731796133
 20
2342.207412917451
 10
3806.745540436774
 20
2342.208559067784
 10
3806.74498731751
 20
2342.209581014943
 10
3806.744132377394
 20
2342.210368015098
 10
3806.743068262455
 20
2342.21083478457
 10
3806.741910286056
 20
2342.210930741643
 10
3806.740783932911
 20
2342.210645487881
 10
3806.739811260857
 20
2342.210009934954
 10
3806.739097674006
 20
2342.209092954884
 10
3806.738720500565
 20
2342.20799391669
 10
3806.738720613128
 20
2342.206831918213
 10
3806.739097999498
 20
2342.205732880019
 10
3806.739811764006
 20
2342.20481589995
 10
3806.740784559191
 20
2342.204180347023
 10
3806.741910967602
 20
2342.203895093261
 10
3806.74306892541
 20
2342.203991050334
 10
3806.744132949916
 20
2342.204457819806
 10
3806.744987737558
 20
2342.205244819961
 10
3806.745540658829
 20
2342.20626676712
 10
3806.745731796133
 20
2342.207412917451
  0
LWPOLYLINE
  5
109A
330
1F
100
AcDbEntity
  8
Sanindusa
100
AcDbPolyline
 90
       20
 70
   128
 43
0.0
 10
3806.715465642555
 20
2342.167417492134
 10
3806.715274283197
 20
2342.168563642466
 10
3806.714721163931
 20
2342.169585589626
 10
3806.713866223816
 20
2342.17037258978
 10
3806.712802108876
 20
2342.170839359251
 10
3806.711644132479
 20
2342.170935316325
 10
3806.710517779333
 20
2342.170650062563
 10
3806.70954510728
 20
2342.170014509637
 10
3806.708831520428
 20
2342.169097529566
 10
3806.708454346987
 20
2342.167998491373
 10
3806.708454459549
 20
2342.166836492896
 10
3806.70883184592
 20
2342.165737454702
 10
3806.709545610427
 20
2342.164820474632
 10
3806.710518405613
 20
2342.164184921705
 10
3806.711644814024
 20
2342.163899667943
 10
3806.712802771831
 20
2342.163995625017
 10
3806.713866796338
 20
2342.164462394489
 10
3806.714721583981
 20
2342.165249394643
 10
3806.715274505253
 20
2342.166271341802
 10
3806.715465642555
 20
2342.167417492134
  0
LWPOLYLINE
  5
109D
330
1F
100
AcDbEntity
  8
Sanindusa
100
AcDbPolyline
 90
       20
 70
   128
 43
0.0
 10
3806.785458372075
 20
2342.167868670756
 10
3806.785267012716
 20
2342.169014821088
 10
3806.784713893451
 20
2342.170036768247
 10
3806.783858953336
 20
2342.170823768402
 10
3806.782794838396
 20
2342.171290537873
 10
3806.781636861999
 20
2342.171386494947
 10
3806.780510508853
 20
2342.171101241185
 10
3806.779537836799
 20
2342.170465688258
 10
3806.778824249948
 20
2342.169548708188
 10
3806.778447076506
 20
2342.168449669994
 10
3806.77844718907
 20
2342.167287671518
 10
3806.77882457544
 20
2342.166188633323
 10
3806.779538339947
 20
2342.165271653254
 10
3806.780511135133
 20
2342.164636100327
 10
3806.781637543544
 20
2342.164350846565
 10
3806.782795501352
 20
2342.164446803638
 10
3806.783859525859
 20
2342.16491357311
 10
3806.7847143135
 20
2342.165700573264
 10
3806.785267234772
 20
2342.166722520424
 10
3806.785458372075
 20
2342.167868670756
  0
LWPOLYLINE
  5
109F
330
1F
100
AcDbEntity
  8
Sanindusa
100
AcDbPolyline
 90
       20
 70
   128
 43
0.0
 10
3806.815724525653
 20
2342.207864096073
 10
3806.815533166293
 20
2342.209010246405
 10
3806.814980047029
 20
2342.210032193564
 10
3806.814125106914
 20
2342.210819193719
 10
3806.813060991974
 20
2342.211285963191
 10
3806.811903015577
 20
2342.211381920265
 10
3806.81077666243
 20
2342.211096666503
 10
3806.809803990377
 20
2342.210461113575
 10
3806.809090403525
 20
2342.209544133506
 10
3806.808713230084
 20
2342.208445095312
 10
3806.808713342647
 20
2342.207283096835
 10
3806.809090729017
 20
2342.206184058641
 10
3806.809804493525
 20
2342.205267078571
 10
3806.810777288711
 20
2342.204631525645
 10
3806.811903697122
 20
2342.204346271882
 10
3806.813061654929
 20
2342.204442228956
 10
3806.814125679436
 20
2342.204908998428
 10
3806.814980467077
 20
2342.205695998582
 10
3806.81553338835
 20
2342.206717945741
 10
3806.815724525653
 20
2342.207864096073
  0
LWPOLYLINE
  5
10A0
330
1F
100
AcDbEntity
  8
Sanindusa
100
AcDbPolyline
 90
       20
 70
   128
 43
0.0
 10
3806.745997517451
 20
2342.27741039569
 10
3806.745806158092
 20
2342.278556546022
 10
3806.745253038828
 20
2342.279578493181
 10
3806.744398098712
 20
2342.280365493335
 10
3806.743333983772
 20
2342.280832262807
 10
3806.742176007374
 20
2342.280928219881
 10
3806.741049654229
 20
2342.280642966118
 10
3806.740076982175
 20
2342.280007413192
 10
3806.739363395324
 20
2342.279090433122
 10
3806.738986221882
 20
2342.277991394928
 10
3806.738986334445
 20
2342.276829396451
 10
3806.739363720815
 20
2342.275730358257
 10
3806.740077485324
 20
2342.274813378188
 10
3806.741050280509
 20
2342.274177825261
 10
3806.742176688921
 20
2342.273892571499
 10
3806.743334646727
 20
2342.273988528572
 10
3806.744398671234
 20
2342.274455298044
 10
3806.745253458876
 20
2342.275242298199
 10
3806.745806380148
 20
2342.276264245358
 10
3806.745997517451
 20
2342.27741039569
  0
LWPOLYLINE
  5
10A3
330
1F
100
AcDbEntity
  8
Sanindusa
100
AcDbPolyline
 90
       20
 70
   128
 43
0.0
 10
3806.715731363873
 20
2342.237414970372
 10
3806.715540004514
 20
2342.238561120704
 10
3806.71498688525
 20
2342.239583067863
 10
3806.714131945134
 20
2342.240370068017
 10
3806.713067830195
 20
2342.240836837489
 10
3806.711909853797
 20
2342.240932794563
 10
3806.710783500651
 20
2342.240647540801
 10
3806.709810828598
 20
2342.240011987875
 10
3806.709097241746
 20
2342.239095007804
 10
3806.708720068305
 20
2342.237995969611
 10
3806.708720180868
 20
2342.236833971133
 10
3806.709097567238
 20
2342.235734932939
 10
3806.709811331745
 20
2342.23481795287
 10
3806.710784126931
 20
2342.234182399943
 10
3806.711910535342
 20
2342.233897146181
 10
3806.713068493149
 20
2342.233993103255
 10
3806.714132517657
 20
2342.234459872726
 10
3806.714987305298
 20
2342.235246872881
 10
3806.71554022657
 20
2342.23626882004
 10
3806.715731363873
 20
2342.237414970372
  0
LWPOLYLINE
  5
10A4
330
1F
100
AcDbEntity
  8
Sanindusa
100
AcDbPolyline
 90
       20
 70
   128
 43
0.0
 10
3806.81599024697
 20
2342.277861574311
 10
3806.815798887612
 20
2342.279007724643
 10
3806.815245768347
 20
2342.280029671802
 10
3806.814390828232
 20
2342.280816671957
 10
3806.813326713292
 20
2342.281283441428
 10
3806.812168736894
 20
2342.281379398502
 10
3806.811042383748
 20
2342.28109414474
 10
3806.810069711695
 20
2342.280458591813
 10
3806.809356124843
 20
2342.279541611744
 10
3806.808978951402
 20
2342.27844257355
 10
3806.808979063966
 20
2342.277280575073
 10
3806.809356450335
 20
2342.276181536879
 10
3806.810070214843
 20
2342.275264556809
 10
3806.811043010029
 20
2342.274629003882
 10
3806.81216941844
 20
2342.274343750121
 10
3806.813327376247
 20
2342.274439707194
 10
3806.814391400754
 20
2342.274906476665
 10
3806.815246188396
 20
2342.27569347682
 10
3806.815799109667
 20
2342.276715423979
 10
3806.81599024697
 20
2342.277861574311
  0
LWPOLYLINE
  5
10A5
330
1F
100
AcDbEntity
  8
Sanindusa
100
AcDbPolyline
 90
       20
 70
   128
 43
0.0
 10
3806.785724093393
 20
2342.237866148993
 10
3806.785532734034
 20
2342.239012299326
 10
3806.784979614769
 20
2342.240034246485
 10
3806.784124674653
 20
2342.240821246639
 10
3806.783060559715
 20
2342.241288016111
 10
3806.781902583317
 20
2342.241383973185
 10
3806.780776230171
 20
2342.241098719422
 10
3806.779803558117
 20
2342.240463166496
 10
3806.779089971266
 20
2342.239546186426
 10
3806.778712797824
 20
2342.238447148232
 10
3806.778712910387
 20
2342.237285149755
 10
3806.779090296757
 20
2342.236186111561
 10
3806.779804061265
 20
2342.235269131491
 10
3806.780776856451
 20
2342.234633578565
 10
3806.781903264862
 20
2342.234348324803
 10
3806.783061222669
 20
2342.234444281876
 10
3806.784125247176
 20
2342.234911051348
 10
3806.784980034819
 20
2342.235698051502
 10
3806.78553295609
 20
2342.236719998662
 10
3806.785724093393
 20
2342.237866148993
  0
LWPOLYLINE
  5
10A8
330
1F
100
AcDbEntity
  8
Sanindusa
100
AcDbPolyline
 90
       20
 70
   128
 43
0.0
 10
3806.646270076989
 20
2342.376958748226
 10
3806.64607871763
 20
2342.378104898558
 10
3806.645525598366
 20
2342.379126845717
 10
3806.644670658251
 20
2342.379913845872
 10
3806.643606543311
 20
2342.380380615344
 10
3806.642448566913
 20
2342.380476572417
 10
3806.641322213767
 20
2342.380191318655
 10
3806.640349541714
 20
2342.379555765728
 10
3806.639635954862
 20
2342.378638785659
 10
3806.639258781421
 20
2342.377539747464
 10
3806.639258893984
 20
2342.376377748988
 10
3806.639636280354
 20
2342.375278710793
 10
3806.640350044862
 20
2342.374361730724
 10
3806.641322840048
 20
2342.373726177797
 10
3806.642449248459
 20
2342.373440924035
 10
3806.643607206266
 20
2342.373536881109
 10
3806.644671230773
 20
2342.37400365058
 10
3806.645526018414
 20
2342.374790650735
 10
3806.646078939687
 20
2342.375812597894
 10
3806.646270076989
 20
2342.376958748226
  0
LWPOLYLINE
  5
10A9
330
1F
100
AcDbEntity
  8
Sanindusa
100
AcDbPolyline
 90
       20
 70
   128
 43
0.0
 10
3806.606277779729
 20
2342.346505516684
 10
3806.606086420371
 20
2342.347651667016
 10
3806.605533301106
 20
2342.348673614175
 10
3806.60467836099
 20
2342.34946061433
 10
3806.603614246051
 20
2342.349927383802
 10
3806.602456269653
 20
2342.350023340875
 10
3806.601329916507
 20
2342.349738087113
 10
3806.600357244454
 20
2342.349102534186
 10
3806.599643657602
 20
2342.348185554117
 10
3806.599266484161
 20
2342.347086515923
 10
3806.599266596724
 20
2342.345924517446
 10
3806.599643983094
 20
2342.344825479251
 10
3806.600357747601
 20
2342.343908499182
 10
3806.601330542788
 20
2342.343272946255
 10
3806.602456951198
 20
2342.342987692493
 10
3806.603614909005
 20
2342.343083649567
 10
3806.604678933513
 20
2342.343550419038
 10
3806.605533721155
 20
2342.344337419193
 10
3806.606086642427
 20
2342.345359366352
 10
3806.606277779729
 20
2342.346505516684
  0
LWPOLYLINE
  5
10AB
330
1F
100
AcDbEntity
  8
Sanindusa
100
AcDbPolyline
 90
       20
 70
   128
 43
0.0
 10
3806.676270509249
 20
2342.346956695306
 10
3806.67607914989
 20
2342.348102845638
 10
3806.675526030625
 20
2342.349124792797
 10
3806.67467109051
 20
2342.349911792951
 10
3806.673606975571
 20
2342.350378562423
 10
3806.672448999173
 20
2342.350474519497
 10
3806.671322646027
 20
2342.350189265735
 10
3806.670349973973
 20
2342.349553712808
 10
3806.669636387122
 20
2342.348636732738
 10
3806.669259213681
 20
2342.347537694544
 10
3806.669259326244
 20
2342.346375696067
 10
3806.669636712614
 20
2342.345276657873
 10
3806.670350477121
 20
2342.344359677804
 10
3806.671323272307
 20
2342.343724124877
 10
3806.672449680718
 20
2342.343438871115
 10
3806.673607638526
 20
2342.343534828189
 10
3806.674671663033
 20
2342.34400159766
 10
3806.675526450675
 20
2342.344788597815
 10
3806.676079371946
 20
2342.345810544974
 10
3806.676270509249
 20
2342.346956695306
  0
LWPOLYLINE
  5
10AE
330
1F
100
AcDbEntity
  8
Sanindusa
100
AcDbPolyline
 90
       20
 70
   128
 43
0.0
 10
3806.786255536028
 20
2342.377861105469
 10
3806.78606417667
 20
2342.379007255801
 10
3806.785511057405
 20
2342.38002920296
 10
3806.78465611729
 20
2342.380816203115
 10
3806.78359200235
 20
2342.381282972586
 10
3806.782434025952
 20
2342.38137892966
 10
3806.781307672807
 20
2342.381093675898
 10
3806.780335000753
 20
2342.380458122971
 10
3806.779621413902
 20
2342.379541142902
 10
3806.77924424046
 20
2342.378442104707
 10
3806.779244353024
 20
2342.377280106231
 10
3806.779621739393
 20
2342.376181068037
 10
3806.780335503901
 20
2342.375264087967
 10
3806.781308299087
 20
2342.37462853504
 10
3806.782434707498
 20
2342.374343281278
 10
3806.783592665306
 20
2342.374439238352
 10
3806.784656689812
 20
2342.374906007824
 10
3806.785511477454
 20
2342.375693007978
 10
3806.786064398726
 20
2342.376714955137
 10
3806.786255536028
 20
2342.377861105469
  0
LWPOLYLINE
  5
10AF
330
1F
100
AcDbEntity
  8
Sanindusa
100
AcDbPolyline
 90
       20
 70
   128
 43
0.0
 10
3806.716262806509
 20
2342.377409926848
 10
3806.716071447151
 20
2342.378556077179
 10
3806.715518327886
 20
2342.379578024338
 10
3806.71466338777
 20
2342.380365024493
 10
3806.713599272831
 20
2342.380831793965
 10
3806.712441296433
 20
2342.380927751039
 10
3806.711314943287
 20
2342.380642497277
 10
3806.710342271233
 20
2342.38000694435
 10
3806.709628684382
 20
2342.37908996428
 10
3806.70925151094
 20
2342.377990926086
 10
3806.709251623504
 20
2342.376828927609
 10
3806.709629009873
 20
2342.375729889415
 10
3806.710342774381
 20
2342.374812909345
 10
3806.711315569567
 20
2342.374177356419
 10
3806.712441977978
 20
2342.373892102656
 10
3806.713599935785
 20
2342.37398805973
 10
3806.714663960292
 20
2342.374454829202
 10
3806.715518747934
 20
2342.375241829356
 10
3806.716071669206
 20
2342.376263776515
 10
3806.716262806509
 20
2342.377409926848
  0
LWPOLYLINE
  5
10B1
330
1F
100
AcDbEntity
  8
Sanindusa
100
AcDbPolyline
 90
       20
 70
   128
 43
0.0
 10
3806.746263238769
 20
2342.347407873927
 10
3806.746071879409
 20
2342.348554024259
 10
3806.745518760145
 20
2342.349575971418
 10
3806.74466382003
 20
2342.350362971573
 10
3806.74359970509
 20
2342.350829741045
 10
3806.742441728692
 20
2342.350925698118
 10
3806.741315375547
 20
2342.350640444356
 10
3806.740342703493
 20
2342.350004891429
 10
3806.739629116642
 20
2342.34908791136
 10
3806.739251943201
 20
2342.347988873166
 10
3806.739252055763
 20
2342.346826874689
 10
3806.739629442134
 20
2342.345727836495
 10
3806.740343206641
 20
2342.344810856426
 10
3806.741316001827
 20
2342.344175303499
 10
3806.742442410238
 20
2342.343890049736
 10
3806.743600368045
 20
2342.34398600681
 10
3806.744664392552
 20
2342.344452776282
 10
3806.745519180194
 20
2342.345239776436
 10
3806.746072101466
 20
2342.346261723596
 10
3806.746263238769
 20
2342.347407873927
  0
LWPOLYLINE
  5
10B3
330
1F
100
AcDbEntity
  8
Sanindusa
100
AcDbPolyline
 90
       20
 70
   128
 43
0.0
 10
3806.715997085191
 20
2342.30741244861
 10
3806.715805725832
 20
2342.308558598942
 10
3806.715252606568
 20
2342.309580546101
 10
3806.714397666452
 20
2342.310367546255
 10
3806.713333551512
 20
2342.310834315727
 10
3806.712175575114
 20
2342.310930272801
 10
3806.711049221969
 20
2342.310645019038
 10
3806.710076549915
 20
2342.310009466112
 10
3806.709362963064
 20
2342.309092486042
 10
3806.708985789623
 20
2342.307993447848
 10
3806.708985902186
 20
2342.306831449371
 10
3806.709363288555
 20
2342.305732411178
 10
3806.710077053064
 20
2342.304815431107
 10
3806.711049848249
 20
2342.304179878181
 10
3806.712176256661
 20
2342.303894624419
 10
3806.713334214468
 20
2342.303990581493
 10
3806.714398238975
 20
2342.304457350964
 10
3806.715253026617
 20
2342.305244351118
 10
3806.715805947888
 20
2342.306266298278
 10
3806.715997085191
 20
2342.30741244861
  0
LWPOLYLINE
  5
10B4
330
1F
100
AcDbEntity
  8
Sanindusa
100
AcDbPolyline
 90
       20
 70
   128
 43
0.0
 10
3806.785989814711
 20
2342.307863627231
 10
3806.785798455352
 20
2342.309009777563
 10
3806.785245336087
 20
2342.310031724723
 10
3806.784390395972
 20
2342.310818724877
 10
3806.783326281033
 20
2342.311285494348
 10
3806.782168304635
 20
2342.311381451422
 10
3806.781041951488
 20
2342.31109619766
 10
3806.780069279435
 20
2342.310460644734
 10
3806.779355692583
 20
2342.309543664664
 10
3806.778978519142
 20
2342.30844462647
 10
3806.778978631706
 20
2342.307282627993
 10
3806.779356018076
 20
2342.306183589799
 10
3806.780069782583
 20
2342.305266609729
 10
3806.781042577769
 20
2342.304631056803
 10
3806.78216898618
 20
2342.30434580304
 10
3806.783326943988
 20
2342.304441760114
 10
3806.784390968495
 20
2342.304908529586
 10
3806.785245756136
 20
2342.30569552974
 10
3806.785798677408
 20
2342.306717476899
 10
3806.785989814711
 20
2342.307863627231
  0
ARC
  5
10BD
330
1F
100
AcDbEntity
  8
Sanindusa
100
AcDbCircle
 10
3806.358202247884
 20
2342.51663375324
 30
0.0
 40
0.0079982771072471
100
AcDbArc
 50
89.99638622211319
 51
180.0
  0
LINE
  5
10C3
330
1F
100
AcDbEntity
  8
Sanindusa
100
AcDbLine
 10
3808.426595977812
 20
2342.03520592177
 30
0.0
 11
3808.428727932796
 21
2342.157345541022
 31
0.0
  0
LINE
  5
10C5
330
1F
100
AcDbEntity
  8
Sanindusa
100
AcDbLine
 10
3808.434594759373
 20
2342.03520592177
 30
0.0
 11
3808.826595977812
 21
2342.03520592177
 31
0.0
  0
LINE
  5
10C6
330
1F
100
AcDbEntity
  8
Sanindusa
100
AcDbLine
 10
3808.434594759373
 20
2342.03520592177
 30
0.0
 11
3808.426595977812
 21
2342.03520592177
 31
0.0
  0
LINE
  5
10C8
330
1F
100
AcDbEntity
  8
Sanindusa
100
AcDbLine
 10
3808.436726714357
 20
2342.16520592177
 30
0.0
 11
3808.826595977812
 21
2342.16520592177
 31
0.0
  0
ARC
  5
10CB
330
1F
100
AcDbEntity
  8
Sanindusa
100
AcDbCircle
 10
3808.436726714357
 20
2342.15720592177
 30
0.0
 40
0.0080000000000001
100
AcDbArc
 50
90.0
 51
178.9999999998549
  0
LINE
  5
10CE
330
1F
100
AcDbEntity
  8
Sanindusa
100
AcDbLine
 10
3807.100203970792
 20
2342.124632030332
 30
0.0
 11
3807.100203970792
 21
2342.51663324877
 31
0.0
  0
LINE
  5
10D3
330
1F
100
AcDbEntity
  8
Sanindusa
100
AcDbLine
 10
3806.993218828631
 20
2342.390814060457
 30
0.0
 11
3806.994216401859
 21
2342.124632030332
 31
0.0
  0
LINE
  5
10D4
330
1F
100
AcDbEntity
  8
Sanindusa
100
AcDbLine
 10
3807.040723668475
 20
2342.124632030332
 30
0.0
 11
3807.040723668475
 21
2342.438318900301
 31
0.0
  0
LWPOLYLINE
  5
10D5
330
1F
100
AcDbEntity
  8
Sanindusa
100
AcDbPolyline
 90
       20
 70
   128
 43
0.0
 10
3806.884920091219
 20
2341.998322839982
 10
3806.88472873186
 20
2341.999468990314
 10
3806.884175612595
 20
2342.000490937473
 10
3806.88332067248
 20
2342.001277937628
 10
3806.88225655754
 20
2342.001744707099
 10
3806.881098581142
 20
2342.001840664173
 10
3806.879972227996
 20
2342.001555410411
 10
3806.878999555943
 20
2342.000919857484
 10
3806.878285969091
 20
2342.000002877414
 10
3806.87790879565
 20
2341.99890383922
 10
3806.877908908214
 20
2341.997741840744
 10
3806.878286294583
 20
2341.996642802549
 10
3806.879000059091
 20
2341.99572582248
 10
3806.879972854277
 20
2341.995090269553
 10
3806.881099262688
 20
2341.994805015791
 10
3806.882257220495
 20
2341.994900972864
 10
3806.883321245002
 20
2341.995367742336
 10
3806.884176032644
 20
2341.99615474249
 10
3806.884728953916
 20
2341.99717668965
 10
3806.884920091219
 20
2341.998322839982
  0
LWPOLYLINE
  5
10D7
330
1F
100
AcDbEntity
  8
Sanindusa
100
AcDbPolyline
 90
       20
 70
   128
 43
0.0
 10
3806.854653937641
 20
2341.958327414664
 10
3806.854462578282
 20
2341.959473564996
 10
3806.853909459017
 20
2341.960495512156
 10
3806.853054518902
 20
2341.96128251231
 10
3806.851990403963
 20
2341.961749281782
 10
3806.850832427565
 20
2341.961845238855
 10
3806.849706074419
 20
2341.961559985093
 10
3806.848733402365
 20
2341.960924432166
 10
3806.848019815514
 20
2341.960007452096
 10
3806.847642642072
 20
2341.958908413903
 10
3806.847642754635
 20
2341.957746415426
 10
3806.848020141006
 20
2341.956647377232
 10
3806.848733905513
 20
2341.955730397162
 10
3806.849706700699
 20
2341.955094844236
 10
3806.850833109109
 20
2341.954809590474
 10
3806.851991066917
 20
2341.954905547547
 10
3806.853055091425
 20
2341.955372317019
 10
3806.853909879066
 20
2341.956159317173
 10
3806.854462800338
 20
2341.957181264332
 10
3806.854653937641
 20
2341.958327414664
  0
LWPOLYLINE
  5
10D9
330
1F
100
AcDbEntity
  8
Sanindusa
100
AcDbPolyline
 90
       20
 70
   128
 43
0.0
 10
3806.885185812536
 20
2342.068320318219
 10
3806.884994453178
 20
2342.069466468552
 10
3806.884441333913
 20
2342.070488415711
 10
3806.883586393797
 20
2342.071275415865
 10
3806.882522278858
 20
2342.071742185336
 10
3806.881364302461
 20
2342.071838142411
 10
3806.880237949314
 20
2342.071552888648
 10
3806.879265277261
 20
2342.070917335722
 10
3806.87855169041
 20
2342.070000355652
 10
3806.878174516968
 20
2342.068901317458
 10
3806.878174629531
 20
2342.067739318981
 10
3806.878552015901
 20
2342.066640280787
 10
3806.879265780408
 20
2342.065723300717
 10
3806.880238575594
 20
2342.065087747791
 10
3806.881364984005
 20
2342.064802494029
 10
3806.882522941812
 20
2342.064898451102
 10
3806.88358696632
 20
2342.065365220574
 10
3806.884441753961
 20
2342.066152220728
 10
3806.884994675234
 20
2342.067174167888
 10
3806.885185812536
 20
2342.068320318219
  0
LWPOLYLINE
  5
10DC
330
1F
100
AcDbEntity
  8
Sanindusa
100
AcDbPolyline
 90
       20
 70
   128
 43
0.0
 10
3806.854919658959
 20
2342.028324892902
 10
3806.8547282996
 20
2342.029471043234
 10
3806.854175180335
 20
2342.030492990393
 10
3806.85332024022
 20
2342.031279990548
 10
3806.852256125281
 20
2342.031746760019
 10
3806.851098148882
 20
2342.031842717093
 10
3806.849971795736
 20
2342.031557463331
 10
3806.848999123683
 20
2342.030921910404
 10
3806.848285536832
 20
2342.030004930334
 10
3806.847908363391
 20
2342.02890589214
 10
3806.847908475953
 20
2342.027743893664
 10
3806.848285862324
 20
2342.02664485547
 10
3806.848999626831
 20
2342.0257278754
 10
3806.849972422017
 20
2342.025092322473
 10
3806.851098830428
 20
2342.024807068711
 10
3806.852256788236
 20
2342.024903025785
 10
3806.853320812742
 20
2342.025369795257
 10
3806.854175600384
 20
2342.026156795411
 10
3806.854728521655
 20
2342.02717874257
 10
3806.854919658959
 20
2342.028324892902
  0
LWPOLYLINE
  5
10DE
330
1F
100
AcDbEntity
  8
Sanindusa
100
AcDbPolyline
 90
       20
 70
   128
 43
0.0
 10
3806.924912388478
 20
2342.028776071523
 10
3806.924721029119
 20
2342.029922221856
 10
3806.924167909855
 20
2342.030944169015
 10
3806.92331296974
 20
2342.03173116917
 10
3806.9222488548
 20
2342.032197938641
 10
3806.921090878402
 20
2342.032293895714
 10
3806.919964525256
 20
2342.032008641952
 10
3806.918991853203
 20
2342.031373089026
 10
3806.918278266351
 20
2342.030456108956
 10
3806.91790109291
 20
2342.029357070762
 10
3806.917901205473
 20
2342.028195072285
 10
3806.918278591843
 20
2342.027096034091
 10
3806.918992356351
 20
2342.026179054021
 10
3806.919965151536
 20
2342.025543501094
 10
3806.921091559948
 20
2342.025258247333
 10
3806.922249517755
 20
2342.025354204406
 10
3806.923313542262
 20
2342.025820973878
 10
3806.924168329903
 20
2342.026607974032
 10
3806.924721251176
 20
2342.027629921191
 10
3806.924912388478
 20
2342.028776071523
  0
LWPOLYLINE
  5
10DF
330
1F
100
AcDbEntity
  8
Sanindusa
100
AcDbPolyline
 90
       20
 70
   128
 43
0.0
 10
3806.885451533855
 20
2342.138317796457
 10
3806.885260174495
 20
2342.139463946789
 10
3806.884707055231
 20
2342.140485893949
 10
3806.883852115115
 20
2342.141272894103
 10
3806.882788000176
 20
2342.141739663574
 10
3806.881630023779
 20
2342.141835620648
 10
3806.880503670632
 20
2342.141550366886
 10
3806.879530998579
 20
2342.14091481396
 10
3806.878817411727
 20
2342.13999783389
 10
3806.878440238286
 20
2342.138898795695
 10
3806.878440350849
 20
2342.137736797219
 10
3806.878817737219
 20
2342.136637759025
 10
3806.879531501726
 20
2342.135720778955
 10
3806.880504296913
 20
2342.135085226029
 10
3806.881630705323
 20
2342.134799972266
 10
3806.882788663131
 20
2342.13489592934
 10
3806.883852687639
 20
2342.135362698812
 10
3806.88470747528
 20
2342.136149698966
 10
3806.885260396552
 20
2342.137171646125
 10
3806.885451533855
 20
2342.138317796457
  0
LWPOLYLINE
  5
10E1
330
1F
100
AcDbEntity
  8
Sanindusa
100
AcDbPolyline
 90
       20
 70
   128
 43
0.0
 10
3806.855185380277
 20
2342.09832237114
 10
3806.854994020918
 20
2342.099468521471
 10
3806.854440901653
 20
2342.100490468631
 10
3806.853585961538
 20
2342.101277468785
 10
3806.852521846598
 20
2342.101744238257
 10
3806.8513638702
 20
2342.101840195331
 10
3806.850237517055
 20
2342.101554941569
 10
3806.849264845001
 20
2342.100919388641
 10
3806.84855125815
 20
2342.100002408572
 10
3806.848174084708
 20
2342.098903370378
 10
3806.848174197271
 20
2342.097741371901
 10
3806.848551583641
 20
2342.096642333707
 10
3806.849265348149
 20
2342.095725353637
 10
3806.850238143335
 20
2342.095089800711
 10
3806.851364551746
 20
2342.094804546949
 10
3806.852522509553
 20
2342.094900504022
 10
3806.85358653406
 20
2342.095367273494
 10
3806.854441321702
 20
2342.096154273648
 10
3806.854994242974
 20
2342.097176220807
 10
3806.855185380277
 20
2342.09832237114
  0
LWPOLYLINE
  5
10E3
330
1F
100
AcDbEntity
  8
Sanindusa
100
AcDbPolyline
 90
       20
 70
   128
 43
0.0
 10
3806.925178109796
 20
2342.098773549761
 10
3806.924986750438
 20
2342.099919700094
 10
3806.924433631173
 20
2342.100941647252
 10
3806.923578691058
 20
2342.101728647406
 10
3806.922514576118
 20
2342.102195416878
 10
3806.921356599719
 20
2342.102291373952
 10
3806.920230246574
 20
2342.10200612019
 10
3806.91925757452
 20
2342.101370567263
 10
3806.918543987669
 20
2342.100453587193
 10
3806.918166814228
 20
2342.099354549
 10
3806.918166926791
 20
2342.098192550523
 10
3806.918544313161
 20
2342.097093512329
 10
3806.919258077669
 20
2342.096176532259
 10
3806.920230872855
 20
2342.095540979332
 10
3806.921357281266
 20
2342.09525572557
 10
3806.922515239073
 20
2342.095351682644
 10
3806.92357926358
 20
2342.095818452115
 10
3806.924434051222
 20
2342.09660545227
 10
3806.924986972493
 20
2342.097627399429
 10
3806.925178109796
 20
2342.098773549761
  0
LWPOLYLINE
  5
10E5
330
1F
100
AcDbEntity
  8
Sanindusa
100
AcDbPolyline
 90
       20
 70
   128
 43
0.0
 10
3806.955178542056
 20
2342.068771496841
 10
3806.954987182697
 20
2342.069917647173
 10
3806.954434063433
 20
2342.070939594332
 10
3806.953579123317
 20
2342.071726594487
 10
3806.952515008378
 20
2342.072193363958
 10
3806.95135703198
 20
2342.072289321032
 10
3806.950230678834
 20
2342.07200406727
 10
3806.94925800678
 20
2342.071368514343
 10
3806.94854441993
 20
2342.070451534274
 10
3806.948167246487
 20
2342.069352496079
 10
3806.948167359051
 20
2342.068190497603
 10
3806.94854474542
 20
2342.067091459409
 10
3806.949258509929
 20
2342.066174479339
 10
3806.950231305114
 20
2342.065538926412
 10
3806.951357713526
 20
2342.06525367265
 10
3806.952515671333
 20
2342.065349629724
 10
3806.95357969584
 20
2342.065816399195
 10
3806.954434483481
 20
2342.06660339935
 10
3806.954987404753
 20
2342.067625346509
 10
3806.955178542056
 20
2342.068771496841
  0
LWPOLYLINE
  5
10E7
330
1F
100
AcDbEntity
  8
Sanindusa
100
AcDbPolyline
 90
       20
 70
   128
 43
0.0
 10
3806.955444263374
 20
2342.138768975079
 10
3806.955252904015
 20
2342.139915125411
 10
3806.95469978475
 20
2342.14093707257
 10
3806.953844844635
 20
2342.141724072725
 10
3806.952780729696
 20
2342.142190842196
 10
3806.951622753298
 20
2342.14228679927
 10
3806.950496400152
 20
2342.142001545507
 10
3806.949523728098
 20
2342.141365992581
 10
3806.948810141248
 20
2342.140449012511
 10
3806.948432967806
 20
2342.139349974317
 10
3806.948433080368
 20
2342.138187975841
 10
3806.948810466739
 20
2342.137088937646
 10
3806.949524231246
 20
2342.136171957577
 10
3806.950497026432
 20
2342.13553640465
 10
3806.951623434843
 20
2342.135251150888
 10
3806.952781392651
 20
2342.135347107962
 10
3806.953845417158
 20
2342.135813877433
 10
3806.9547002048
 20
2342.136600877588
 10
3806.955253126071
 20
2342.137622824747
 10
3806.955444263374
 20
2342.138768975079
  0
LWPOLYLINE
  5
10ED
330
1F
100
AcDbEntity
  8
Sanindusa
100
AcDbPolyline
 90
       15
 70
   128
 43
0.0
 10
3807.040723668475
 20
2342.438318900302
 10
3807.040697424783
 20
2342.441630397464
 10
3807.040333659017
 20
2342.444828998615
 10
3807.03963584898
 20
2342.44788412335
 10
3807.038610666122
 20
2342.450766562986
 10
3807.037267911761
 20
2342.453448759798
 10
3807.035620423371
 20
2342.4559050705
 10
3807.033683951857
 20
2342.458112011397
 10
3807.03147701096
 20
2342.460048482911
 10
3807.029020700259
 20
2342.4616959713
 10
3807.026338503446
 20
2342.463038725662
 10
3807.023456063811
 20
2342.46406390852
 10
3807.020400939074
 20
2342.464761718558
 10
3807.017202337925
 20
2342.465125484324
 10
3807.013890840762
 20
2342.465151728015
  0
LWPOLYLINE
  5
10F2
330
1F
100
AcDbEntity
  8
Sanindusa
100
AcDbPolyline
 90
       57
 70
   128
 43
0.0
 10
3806.859880079068
 20
2342.304194888292
 10
3806.862619850217
 20
2342.299981487075
 10
3806.865729625194
 20
2342.296033286181
 10
3806.870054766435
 20
2342.291568576747
 10
3806.874866264961
 20
2342.287601691888
 10
3806.880073624461
 20
2342.284207210617
 10
3806.885632616545
 20
2342.281425615684
 10
3806.891485744236
 20
2342.27927473737
 10
3806.897522951802
 20
2342.277794978969
 10
3806.903689844754
 20
2342.277009837641
 10
3806.909925566679
 20
2342.276917323609
 10
3806.916112886201
 20
2342.277519142589
 10
3806.92219283527
 20
2342.278819511704
 10
3806.928108484778
 20
2342.280796416412
 10
3806.933748614908
 20
2342.28341267282
 10
3806.939055921807
 20
2342.286652592311
 10
3806.943984218268
 20
2342.29047667473
 10
3806.948440819144
 20
2342.294813013693
 10
3806.952376454458
 20
2342.299627354907
 10
3806.955761048605
 20
2342.304867533068
 10
3806.9585309134
 20
2342.310434999236
 10
3806.960650682746
 20
2342.316280490318
 10
3806.962109558575
 20
2342.322345390082
 10
3806.962880059686
 20
2342.328515614213
 10
3806.962945136868
 20
2342.334732550999
 10
3806.962314085363
 20
2342.340937727156
 10
3806.960998747928
 20
2342.347014408522
 10
3806.959002449604
 20
2342.352901661158
 10
3806.956353330737
 20
2342.358547397719
 10
3806.953101212894
 20
2342.363845423347
 10
3806.949269137017
 20
2342.368739688519
 10
3806.944901106367
 20
2342.373190008784
 10
3806.940079275076
 20
2342.377112707728
 10
3806.934843366888
 20
2342.380462877326
 10
3806.929248688957
 20
2342.383216739795
 10
3806.923400444778
 20
2342.385322549659
 10
3806.917350385104
 20
2342.386751201165
 10
3806.911159120441
 20
2342.387498331002
 10
3806.904943049808
 20
2342.387549929433
 10
3806.898760364094
 20
2342.386895610966
 10
3806.892669990509
 20
2342.385551291297
 10
3806.886786428891
 20
2342.383542266488
 10
3806.881168188958
 20
2342.380878059349
 10
3806.875865474015
 20
2342.377593137878
 10
3806.870977998751
 20
2342.373749271064
 10
3806.866558213008
 20
2342.36937519749
 10
3806.862641668854
 20
2342.364519751063
 10
3806.859302049764
 20
2342.359274239319
 10
3806.856579624394
 20
2342.353683762738
 10
3806.854491398782
 20
2342.347805630056
 10
3806.853076690715
 20
2342.341750405452
 10
3806.852358609955
 20
2342.335574494789
 10
3806.852334086223
 20
2342.329337112495
 10
3806.853003613984
 20
2342.323155597598
 10
3806.854519873777
 20
2342.316580590656
 10
3806.856829064705
 20
2342.310213363635
 10
3806.859880079068
 20
2342.304194888292
  0
CIRCLE
  5
10F4
330
1F
100
AcDbEntity
  8
Sanindusa
100
AcDbCircle
 10
3806.908072015808
 20
2342.332500075347
 30
0.0
 40
0.0300000000000003
  0
LWPOLYLINE
  5
10F6
330
1F
100
AcDbEntity
  8
Sanindusa
100
AcDbPolyline
 90
       20
 70
   128
 43
0.0
 10
3806.885717255172
 20
2342.208315274695
 10
3806.885525895813
 20
2342.209461425027
 10
3806.884972776549
 20
2342.210483372186
 10
3806.884117836433
 20
2342.211270372341
 10
3806.883053721494
 20
2342.211737141812
 10
3806.881895745096
 20
2342.211833098886
 10
3806.88076939195
 20
2342.211547845124
 10
3806.879796719897
 20
2342.210912292197
 10
3806.879083133046
 20
2342.209995312128
 10
3806.878705959604
 20
2342.208896273933
 10
3806.878706072167
 20
2342.207734275457
 10
3806.879083458536
 20
2342.206635237263
 10
3806.879797223045
 20
2342.205718257193
 10
3806.88077001823
 20
2342.205082704266
 10
3806.881896426642
 20
2342.204797450504
 10
3806.883054384449
 20
2342.204893407578
 10
3806.884118408956
 20
2342.20536017705
 10
3806.884973196598
 20
2342.206147177204
 10
3806.885526117869
 20
2342.207169124363
 10
3806.885717255172
 20
2342.208315274695
  0
LWPOLYLINE
  5
10F7
330
1F
100
AcDbEntity
  8
Sanindusa
100
AcDbPolyline
 90
       20
 70
   128
 43
0.0
 10
3806.855451101595
 20
2342.168319849378
 10
3806.855259742236
 20
2342.16946599971
 10
3806.854706622971
 20
2342.170487946868
 10
3806.853851682856
 20
2342.171274947023
 10
3806.852787567916
 20
2342.171741716494
 10
3806.851629591518
 20
2342.171837673568
 10
3806.850503238372
 20
2342.171552419806
 10
3806.849530566319
 20
2342.17091686688
 10
3806.848816979467
 20
2342.16999988681
 10
3806.848439806026
 20
2342.168900848616
 10
3806.848439918589
 20
2342.167738850139
 10
3806.84881730496
 20
2342.166639811945
 10
3806.849531069467
 20
2342.165722831875
 10
3806.850503864653
 20
2342.165087278949
 10
3806.851630273064
 20
2342.164802025187
 10
3806.852788230871
 20
2342.16489798226
 10
3806.853852255378
 20
2342.165364751731
 10
3806.85470704302
 20
2342.166151751886
 10
3806.855259964292
 20
2342.167173699045
 10
3806.855451101595
 20
2342.168319849378
  0
LWPOLYLINE
  5
10F9
330
1F
100
AcDbEntity
  8
Sanindusa
100
AcDbPolyline
 90
       20
 70
   128
 43
0.0
 10
3806.925443831114
 20
2342.168771027999
 10
3806.925252471756
 20
2342.169917178331
 10
3806.924699352491
 20
2342.17093912549
 10
3806.923844412376
 20
2342.171726125644
 10
3806.922780297436
 20
2342.172192895116
 10
3806.921622321038
 20
2342.17228885219
 10
3806.920495967892
 20
2342.172003598427
 10
3806.919523295839
 20
2342.171368045501
 10
3806.918809708987
 20
2342.170451065431
 10
3806.918432535546
 20
2342.169352027237
 10
3806.918432648109
 20
2342.168190028761
 10
3806.918810034479
 20
2342.167090990566
 10
3806.919523798987
 20
2342.166174010497
 10
3806.920496594172
 20
2342.16553845757
 10
3806.921623002584
 20
2342.165253203808
 10
3806.922780960391
 20
2342.165349160882
 10
3806.923844984897
 20
2342.165815930354
 10
3806.924699772539
 20
2342.166602930508
 10
3806.925252693812
 20
2342.167624877667
 10
3806.925443831114
 20
2342.168771027999
  0
LWPOLYLINE
  5
10FB
330
1F
100
AcDbEntity
  8
Sanindusa
100
AcDbPolyline
 90
       20
 70
   128
 43
0.0
 10
3806.855716822912
 20
2342.238317327615
 10
3806.855525463554
 20
2342.239463477947
 10
3806.854972344289
 20
2342.240485425106
 10
3806.854117404173
 20
2342.241272425261
 10
3806.853053289234
 20
2342.241739194732
 10
3806.851895312836
 20
2342.241835151806
 10
3806.85076895969
 20
2342.241549898044
 10
3806.849796287637
 20
2342.240914345117
 10
3806.849082700786
 20
2342.239997365048
 10
3806.848705527345
 20
2342.238898326853
 10
3806.848705639907
 20
2342.237736328377
 10
3806.849083026278
 20
2342.236637290183
 10
3806.849796790785
 20
2342.235720310113
 10
3806.850769585971
 20
2342.235084757186
 10
3806.851895994382
 20
2342.234799503424
 10
3806.853053952189
 20
2342.234895460498
 10
3806.854117976696
 20
2342.235362229969
 10
3806.854972764338
 20
2342.236149230124
 10
3806.855525685609
 20
2342.237171177283
 10
3806.855716822912
 20
2342.238317327615
  0
LWPOLYLINE
  5
10FE
330
1F
100
AcDbEntity
  8
Sanindusa
100
AcDbPolyline
 90
       20
 70
   128
 43
0.0
 10
3806.955709984692
 20
2342.208766453317
 10
3806.955518625333
 20
2342.209912603649
 10
3806.954965506069
 20
2342.210934550808
 10
3806.954110565953
 20
2342.211721550962
 10
3806.953046451014
 20
2342.212188320434
 10
3806.951888474616
 20
2342.212284277508
 10
3806.95076212147
 20
2342.211999023745
 10
3806.949789449416
 20
2342.211363470819
 10
3806.949075862565
 20
2342.210446490749
 10
3806.948698689124
 20
2342.209347452555
 10
3806.948698801687
 20
2342.208185454079
 10
3806.949076188057
 20
2342.207086415884
 10
3806.949789952565
 20
2342.206169435815
 10
3806.95076274775
 20
2342.205533882887
 10
3806.951889156162
 20
2342.205248629126
 10
3806.953047113969
 20
2342.205344586199
 10
3806.954111138476
 20
2342.205811355671
 10
3806.954965926117
 20
2342.206598355826
 10
3806.955518847389
 20
2342.207620302985
 10
3806.955709984692
 20
2342.208766453317
  0
LWPOLYLINE
  5
1106
330
1F
100
AcDbEntity
  8
Sanindusa
100
AcDbPolyline
 90
       13
 70
   128
 43
0.0
 10
3806.966409463966
 20
2342.41767035122
 10
3806.969713779044
 20
2342.417057901758
 10
3806.972946746101
 20
2342.416075983936
 10
3806.976066306725
 20
2342.41473737175
 10
3806.979031877835
 20
2342.413059479513
 10
3806.981804879632
 20
2342.411064135312
 10
3806.984349237498
 20
2342.408777297038
 10
3806.986631851297
 20
2342.406228714697
 10
3806.988623025982
 20
2342.403451543383
 10
3806.990296857901
 20
2342.400481911956
 10
3806.99163157179
 20
2342.397358453034
 10
3806.99260980405
 20
2342.394121800416
 10
3806.993218828631
 20
2342.390814060457
  0
ARC
  5
1119
330
1F
100
AcDbEntity
  8
Sanindusa
100
AcDbCircle
 10
3807.092205693701
 20
2342.51663375324
 30
0.0
 40
0.0079982771072477
100
AcDbArc
 50
0.0
 51
90.0036137778868
  0
LINE
  5
1120
330
1F
100
AcDbEntity
  8
Sanindusa
100
AcDbLine
 10
3809.174464022827
 20
2342.157345541022
 30
0.0
 11
3809.176595977812
 21
2342.03520592177
 31
0.0
  0
ARC
  5
1121
330
1F
100
AcDbEntity
  8
Sanindusa
100
AcDbCircle
 10
3809.166465241266
 20
2342.15720592177
 30
0.0
 40
0.0080000000000001
100
AcDbArc
 50
1.000000000027812
 51
90.0
  0
LINE
  5
1124
330
1F
100
AcDbEntity
  8
Sanindusa
100
AcDbLine
 10
3809.593223963963
 20
2342.075941146271
 30
0.0
 11
3809.894406169241
 21
2342.072719530462
 31
0.0
  0
LINE
  5
1125
330
1F
100
AcDbEntity
  8
Sanindusa
100
AcDbLine
 10
3810.15895273892
 20
2342.056886352185
 30
0.0
 11
3809.602813228639
 21
2342.064903591877
 31
0.0
  0
LINE
  5
1126
330
1F
100
AcDbEntity
  8
Sanindusa
100
AcDbLine
 10
3810.159463048623
 20
2342.052878551922
 30
0.0
 11
3809.602755764552
 21
2342.060903976571
 31
0.0
  0
LINE
  5
1127
330
1F
100
AcDbEntity
  8
Sanindusa
100
AcDbLine
 10
3809.957641971374
 20
2342.03520592177
 30
0.0
 11
3809.438625594114
 21
2342.03520592177
 31
0.0
  0
LINE
  5
1128
330
1F
100
AcDbEntity
  8
Sanindusa
100
AcDbLine
 10
3809.528171759975
 20
2342.16520592177
 30
0.0
 11
3809.876230730588
 21
2342.16520592177
 31
0.0
  0
LINE
  5
1129
330
1F
100
AcDbEntity
  8
Sanindusa
100
AcDbLine
 10
3809.881290377105
 20
2342.160783624143
 30
0.0
 11
3809.533231406491
 21
2342.160783624143
 31
0.0
  0
LINE
  5
112D
330
1F
100
AcDbEntity
  8
Sanindusa
100
AcDbLine
 10
3809.586771022312
 20
2342.073354674196
 30
0.0
 11
3809.524213394772
 21
2342.161824717048
 31
0.0
  0
LINE
  5
112E
330
1F
100
AcDbEntity
  8
Sanindusa
100
AcDbLine
 10
3809.583505033557
 20
2342.071045276558
 30
0.0
 11
3809.520947406018
 21
2342.159515319409
 31
0.0
  0
LINE
  5
112F
330
1F
100
AcDbEntity
  8
Sanindusa
100
AcDbLine
 10
3809.533231406491
 20
2342.160783624143
 30
0.0
 11
3809.593223963963
 21
2342.075941146271
 31
0.0
  0
LINE
  5
1130
330
1F
100
AcDbEntity
  8
Sanindusa
100
AcDbLine
 10
3809.433452876657
 20
2342.03520592177
 30
0.0
 11
3809.436469343167
 21
2342.157403343146
 31
0.0
  0
LINE
  5
1131
330
1F
100
AcDbEntity
  8
Sanindusa
100
AcDbLine
 10
3809.437454095188
 20
2342.03520592177
 30
0.0
 11
3809.440468125006
 21
2342.157304632458
 31
0.0
  0
LINE
  5
1134
330
1F
100
AcDbEntity
  8
Sanindusa
100
AcDbLine
 10
3809.433452876657
 20
2342.03520592177
 30
0.0
 11
3809.437454095188
 21
2342.03520592177
 31
0.0
  0
LINE
  5
1136
330
1F
100
AcDbEntity
  8
Sanindusa
100
AcDbLine
 10
3809.444466906845
 20
2342.16520592177
 30
0.0
 11
3809.517681417263
 21
2342.16520592177
 31
0.0
  0
LINE
  5
1137
330
1F
100
AcDbEntity
  8
Sanindusa
100
AcDbLine
 10
3809.444466906845
 20
2342.161205921771
 30
0.0
 11
3809.517681417263
 21
2342.161205921771
 31
0.0
  0
ARC
  5
1138
330
1F
100
AcDbEntity
  8
Sanindusa
100
AcDbCircle
 10
3809.444466906845
 20
2342.15720592177
 30
0.0
 40
0.008
100
AcDbArc
 50
89.99999999997395
 51
178.5859300006757
  0
ARC
  5
1139
330
1F
100
AcDbEntity
  8
Sanindusa
100
AcDbCircle
 10
3809.444466906845
 20
2342.15720592177
 30
0.0
 40
0.0040000000000001
100
AcDbArc
 50
89.99999999997395
 51
178.5859300006757
  0
LINE
  5
113C
330
1F
100
AcDbEntity
  8
Sanindusa
100
AcDbLine
 10
3809.533231406491
 20
2342.160783624143
 30
0.0
 11
3809.524213394772
 21
2342.161824717048
 31
0.0
  0
LWPOLYLINE
  5
113D
330
1F
100
AcDbEntity
  8
Sanindusa
100
AcDbPolyline
 90
        9
 70
   128
 43
0.0
 10
3809.528171759975
 20
2342.16520592177
 10
3809.528952136327
 20
2342.165129432703
 10
3809.529717590115
 20
2342.164901428145
 10
3809.530453484126
 20
2342.16452626806
 10
3809.531145746399
 20
2342.164011126359
 10
3809.53178113931
 20
2342.16336585372
 10
3809.532347512706
 20
2342.162602789219
 10
3809.532834036244
 20
2342.161736524377
 10
3809.53323140649
 20
2342.160783624143
  0
ARC
  5
113E
330
1F
100
AcDbEntity
  8
Sanindusa
100
AcDbCircle
 10
3809.517681417263
 20
2342.15720592177
 30
0.0
 40
0.0079999999999999
100
AcDbArc
 50
35.26432936997128
 51
90.0
  0
ARC
  5
113F
330
1F
100
AcDbEntity
  8
Sanindusa
100
AcDbCircle
 10
3809.517681417263
 20
2342.15720592177
 30
0.0
 40
0.0039999999999997
100
AcDbArc
 50
35.26432936997128
 51
90.0
  0
LINE
  5
1140
330
1F
100
AcDbEntity
  8
Sanindusa
100
AcDbLine
 10
3809.517681417263
 20
2342.16520592177
 30
0.0
 11
3809.528171759975
 21
2342.16520592177
 31
0.0
  0
LWPOLYLINE
  5
1141
330
1F
100
AcDbEntity
  8
Sanindusa
100
AcDbPolyline
 90
        5
 70
   128
 43
0.0
 10
3809.605584794656
 20
2342.064887620459
 10
3809.604384255147
 20
2342.064899574691
 10
3809.603506402146
 20
2342.064906328957
 10
3809.602977459635
 20
2342.064907681487
 10
3809.602813228638
 20
2342.064903591877
  0
LWPOLYLINE
  5
1142
330
1F
100
AcDbEntity
  8
Sanindusa
100
AcDbPolyline
 90
        7
 70
   128
 43
0.0
 10
3809.586771022312
 20
2342.073354674196
 10
3809.58695467894
 20
2342.073432934139
 10
3809.587509356952
 20
2342.073658072873
 10
3809.588427840417
 20
2342.074027161518
 10
3809.58969818057
 20
2342.074535398513
 10
3809.591303851265
 20
2342.075176172088
 10
3809.593223963963
 20
2342.075941146271
  0
ARC
  5
1143
330
1F
100
AcDbEntity
  8
Sanindusa
100
AcDbCircle
 10
3809.603101307952
 20
2342.084901979005
 30
0.0
 40
0.0200004619300721
100
AcDbArc
 50
215.2645045146992
 51
269.174704081705
  0
ARC
  5
1144
330
1F
100
AcDbEntity
  8
Sanindusa
100
AcDbCircle
 10
3809.603101385255
 20
2342.084902059275
 30
0.0
 40
0.0240005713919534
100
AcDbArc
 50
215.2645252421145
 51
269.1748824755332
  0
LWPOLYLINE
  5
1145
330
1F
100
AcDbEntity
  8
Sanindusa
100
AcDbPolyline
 90
        9
 70
   128
 43
0.0
 10
3809.605584794656
 20
2342.064887620459
 10
3809.603666690276
 20
2342.065109368428
 10
3809.601789806544
 20
2342.065700580066
 10
3809.599989208143
 20
2342.066650210123
 10
3809.598298534563
 20
2342.067940517238
 10
3809.596749371637
 20
2342.069547395381
 10
3809.595370661435
 20
2342.071440824222
 10
3809.594188161567
 20
2342.073585429976
 10
3809.593223963963
 20
2342.075941146271
  0
LWPOLYLINE
  5
1146
330
1F
100
AcDbEntity
  8
Sanindusa
100
AcDbPolyline
 90
       19
 70
   128
 43
0.0
 10
3809.67210298483
 20
2342.063998363917
 10
3809.672167349184
 20
2342.0639937632
 10
3809.672536886338
 20
2342.063982368447
 10
3809.672536921915
 20
2342.063976144238
 10
3809.672167454131
 20
2342.063975402681
 10
3809.671447009644
 20
2342.063980180962
 10
3809.670411714547
 20
2342.063990239476
 10
3809.66911348286
 20
2342.064005073849
 10
3809.667617413342
 20
2342.064023940221
 10
3809.665998525164
 20
2342.064045892557
 10
3809.66433799614
 20
2342.064069830072
 10
3809.662719092129
 20
2342.064094552441
 10
3809.661222991738
 20
2342.06411881998
 10
3809.659924715687
 20
2342.064141415814
 10
3809.658889364959
 20
2342.064161206893
 10
3809.658168856363
 20
2342.064177200809
 10
3809.657799319209
 20
2342.064188595562
 10
3809.657799283632
 20
2342.064194819771
 10
3809.65813080107
 20
2342.064195485158
  0
LWPOLYLINE
  5
1147
330
1F
100
AcDbEntity
  8
Sanindusa
100
AcDbPolyline
 90
        7
 70
   128
 43
0.0
 10
3809.67210298483
 20
2342.063998363917
 10
3809.672045851064
 20
2342.06400172756
 10
3809.671824033888
 20
2342.064019072568
 10
3809.671204222416
 20
2342.064094573951
 10
3809.670187291747
 20
2342.064305742411
 10
3809.668847612594
 20
2342.064761034521
 10
3809.668708909362
 20
2342.064820658053
  0
LWPOLYLINE
  5
1148
330
1F
100
AcDbEntity
  8
Sanindusa
100
AcDbPolyline
 90
        8
 70
   128
 43
0.0
 10
3809.661649959576
 20
2342.064922419016
 10
3809.660825062697
 20
2342.064629771711
 10
3809.65991478931
 20
2342.064397234266
 10
3809.659146760074
 20
2342.064270067898
 10
3809.658608346392
 20
2342.06421722675
 10
3809.658338056308
 20
2342.064201910906
 10
3809.658204785316
 20
2342.06419720075
 10
3809.65813080107
 20
2342.064195485158
  0
ARC
  5
1149
330
1F
100
AcDbEntity
  8
Sanindusa
100
AcDbCircle
 10
3809.665058794486
 20
2342.056502989759
 30
0.0
 40
0.009083333333334
100
AcDbArc
 50
66.30627387946034
 51
112.0419025311676
  0
LWPOLYLINE
  5
114B
330
1F
100
AcDbEntity
  8
Sanindusa
100
AcDbPolyline
 90
        7
 70
   128
 43
0.0
 10
3809.721785423724
 20
2342.063307930414
 10
3809.721728289957
 20
2342.063311294058
 10
3809.721506472781
 20
2342.063328639065
 10
3809.72088666131
 20
2342.06340414045
 10
3809.719869730641
 20
2342.063615308908
 10
3809.718530051488
 20
2342.064070601019
 10
3809.718391348255
 20
2342.06413022455
  0
LWPOLYLINE
  5
114C
330
1F
100
AcDbEntity
  8
Sanindusa
100
AcDbPolyline
 90
        8
 70
   128
 43
0.0
 10
3809.71133239847
 20
2342.064231985514
 10
3809.710507501591
 20
2342.063939338208
 10
3809.709597228204
 20
2342.063706800763
 10
3809.708829198968
 20
2342.063579634396
 10
3809.708290785286
 20
2342.063526793247
 10
3809.708020495202
 20
2342.063511477403
 10
3809.70788722421
 20
2342.063506767248
 10
3809.707813239964
 20
2342.063505051655
  0
ARC
  5
114D
330
1F
100
AcDbEntity
  8
Sanindusa
100
AcDbCircle
 10
3809.71474123338
 20
2342.055812556257
 30
0.0
 40
0.0090833333333333
100
AcDbArc
 50
66.30627387946034
 51
112.0419025311676
  0
LWPOLYLINE
  5
114F
330
1F
100
AcDbEntity
  8
Sanindusa
100
AcDbPolyline
 90
       19
 70
   128
 43
0.0
 10
3809.721785423724
 20
2342.063307930414
 10
3809.721849788078
 20
2342.063303329697
 10
3809.722219325232
 20
2342.063291934944
 10
3809.722219360809
 20
2342.063285710735
 10
3809.721849893025
 20
2342.063284969179
 10
3809.721129448538
 20
2342.063289747459
 10
3809.720094153441
 20
2342.063299805973
 10
3809.718795921754
 20
2342.063314640346
 10
3809.717299852236
 20
2342.063333506719
 10
3809.715680964058
 20
2342.063355459054
 10
3809.714020435034
 20
2342.06337939657
 10
3809.712401531022
 20
2342.063404118938
 10
3809.710905430631
 20
2342.063428386477
 10
3809.70960715458
 20
2342.063450982311
 10
3809.708571803853
 20
2342.06347077339
 10
3809.707851295257
 20
2342.063486767307
 10
3809.707481758103
 20
2342.06349816206
 10
3809.707481722526
 20
2342.063504386269
 10
3809.707813239964
 20
2342.063505051655
  0
ARC
  5
1155
330
1F
100
AcDbEntity
  8
Sanindusa
100
AcDbCircle
 10
3809.764553744499
 20
2342.055069186679
 30
0.0
 40
0.009083333333334
100
AcDbArc
 50
66.30627387946034
 51
112.0419025311676
  0
LWPOLYLINE
  5
115C
330
1F
100
AcDbEntity
  8
Sanindusa
100
AcDbPolyline
 90
        7
 70
   128
 43
0.0
 10
3809.771597934844
 20
2342.062564560836
 10
3809.771540801077
 20
2342.06256792448
 10
3809.771318983901
 20
2342.062585269487
 10
3809.77069917243
 20
2342.062660770871
 10
3809.769682241761
 20
2342.06287193933
 10
3809.768342562608
 20
2342.063327231441
 10
3809.768203859376
 20
2342.063386854972
  0
LWPOLYLINE
  5
1161
330
1F
100
AcDbEntity
  8
Sanindusa
100
AcDbPolyline
 90
        9
 70
   128
 43
0.0
 10
3809.76114490959
 20
2342.063488615936
 10
3809.760320012711
 20
2342.06319596863
 10
3809.759409739324
 20
2342.062963431184
 10
3809.758641710088
 20
2342.062836264817
 10
3809.758103296406
 20
2342.062783423669
 10
3809.757833006321
 20
2342.062768107825
 10
3809.75769973533
 20
2342.062763397669
 10
3809.757621794407
 20
2342.062761590327
 10
3809.757576539281
 20
2342.062760936956
  0
LINE
  5
1163
330
1F
100
AcDbEntity
  8
Sanindusa
100
AcDbLine
 10
3810.31033834625
 20
2342.05470399564
 30
0.0
 11
3810.278367126119
 21
2342.05516488887
 31
0.0
  0
LINE
  5
116B
330
1F
100
AcDbEntity
  8
Sanindusa
100
AcDbLine
 10
3810.310280105806
 20
2342.050704391527
 30
0.0
 11
3810.27772228092
 21
2342.05117374118
 31
0.0
  0
LINE
  5
116C
330
1F
100
AcDbEntity
  8
Sanindusa
100
AcDbLine
 10
3810.387708528941
 20
2342.160783624143
 30
0.0
 11
3810.039649558326
 21
2342.160783624143
 31
0.0
  0
LINE
  5
116D
330
1F
100
AcDbEntity
  8
Sanindusa
100
AcDbLine
 10
3810.044709204843
 20
2342.16520592177
 30
0.0
 11
3810.392768175456
 21
2342.16520592177
 31
0.0
  0
LINE
  5
116E
330
1F
100
AcDbEntity
  8
Sanindusa
100
AcDbLine
 10
3810.026283346223
 20
2342.071179959978
 30
0.0
 11
3810.320559721917
 21
2342.065820658499
 31
0.0
  0
LINE
  5
116F
330
1F
100
AcDbEntity
  8
Sanindusa
100
AcDbLine
 10
3810.307622320032
 20
2342.054767132686
 30
0.0
 11
3810.168533277471
 21
2342.05730019403
 31
0.0
  0
LINE
  5
1170
330
1F
100
AcDbEntity
  8
Sanindusa
100
AcDbLine
 10
3810.482314341317
 20
2342.03520592177
 30
0.0
 11
3809.963297964057
 21
2342.03520592177
 31
0.0
  0
LWPOLYLINE
  5
1171
330
1F
100
AcDbEntity
  8
Sanindusa
100
AcDbPolyline
 90
        9
 70
   128
 43
0.0
 10
3810.039649558326
 20
2342.160783624143
 10
3810.040046928573
 20
2342.161736524377
 10
3810.040533452111
 20
2342.162602789219
 10
3810.041099825506
 20
2342.16336585372
 10
3810.041735218418
 20
2342.164011126359
 10
3810.04242748069
 20
2342.16452626806
 10
3810.043163374702
 20
2342.164901428145
 10
3810.04392882849
 20
2342.165129432703
 10
3810.044709204842
 20
2342.16520592177
  0
LINE
  5
1172
330
1F
100
AcDbEntity
  8
Sanindusa
100
AcDbLine
 10
3810.009706433719
 20
2342.16520592177
 30
0.0
 11
3810.044709204843
 21
2342.16520592177
 31
0.0
  0
LWPOLYLINE
  5
1174
330
1F
100
AcDbEntity
  8
Sanindusa
100
AcDbPolyline
 90
        3
 70
   128
 43
0.0
 10
3810.039649558326
 20
2342.160783624143
 10
3810.03338862301
 20
2342.116609454177
 10
3810.026283346223
 20
2342.071179959978
  0
LWPOLYLINE
  5
1175
330
1F
100
AcDbEntity
  8
Sanindusa
100
AcDbPolyline
 90
        3
 70
   128
 43
0.0
 10
3810.001893656457
 20
2342.071306342153
 10
3810.007476906104
 20
2342.116609454177
 10
3810.01201579165
 20
2342.160783624143
  0
LWPOLYLINE
  5
1176
330
1F
100
AcDbEntity
  8
Sanindusa
100
AcDbPolyline
 90
        3
 70
   128
 43
0.0
 10
3809.90892414378
 20
2342.160783624143
 10
3809.913374546491
 20
2342.117389321527
 10
3809.918874181232
 20
2342.072610674532
  0
LWPOLYLINE
  5
1177
330
1F
100
AcDbEntity
  8
Sanindusa
100
AcDbPolyline
 90
        3
 70
   128
 43
0.0
 10
3809.894406169241
 20
2342.072719530462
 10
3809.887434828692
 20
2342.117389321527
 10
3809.881290377104
 20
2342.160783624143
  0
LWPOLYLINE
  5
1178
330
1F
100
AcDbEntity
  8
Sanindusa
100
AcDbPolyline
 90
        7
 70
   128
 43
0.0
 10
3809.920775323752
 20
2342.060440324253
 10
3809.920718189985
 20
2342.060443687896
 10
3809.920496372809
 20
2342.060461032904
 10
3809.919876561338
 20
2342.060536534288
 10
3809.918859630669
 20
2342.060747702747
 10
3809.917519951515
 20
2342.061202994857
 10
3809.917381248283
 20
2342.061262618389
  0
LWPOLYLINE
  5
117B
330
1F
100
AcDbEntity
  8
Sanindusa
100
AcDbPolyline
 90
       19
 70
   128
 43
0.0
 10
3809.920775323752
 20
2342.060440324253
 10
3809.920839688105
 20
2342.060435723536
 10
3809.921209225259
 20
2342.060424328783
 10
3809.921209260836
 20
2342.060418104574
 10
3809.920839793053
 20
2342.060417363017
 10
3809.920119348565
 20
2342.060422141297
 10
3809.919084053468
 20
2342.060432199811
 10
3809.917785821781
 20
2342.060447034184
 10
3809.916289752263
 20
2342.060465900558
 10
3809.914670864085
 20
2342.060487852893
 10
3809.913010335061
 20
2342.060511790408
 10
3809.91139143105
 20
2342.060536512777
 10
3809.909895330659
 20
2342.060560780315
 10
3809.908597054608
 20
2342.060583376149
 10
3809.90756170388
 20
2342.060603167229
 10
3809.906841195284
 20
2342.060619161145
 10
3809.90647165813
 20
2342.060630555899
 10
3809.906471622553
 20
2342.060636780107
 10
3809.906753928188
 20
2342.060636700373
  0
ARC
  5
1180
330
1F
100
AcDbEntity
  8
Sanindusa
100
AcDbCircle
 10
3810.733882977298
 20
2391.304414081856
 30
0.0
 40
49.23854898425715
100
AcDbArc
 50
269.0515825952713
 51
269.1481990318119
  0
LWPOLYLINE
  5
1182
330
1F
100
AcDbEntity
  8
Sanindusa
100
AcDbPolyline
 90
        9
 70
   128
 43
0.0
 10
3809.860639859603
 20
2342.062054812855
 10
3809.859814962725
 20
2342.061762165549
 10
3809.858904689337
 20
2342.061529628104
 10
3809.858136660102
 20
2342.061402461736
 10
3809.85759824642
 20
2342.061349620588
 10
3809.857327956335
 20
2342.061334304744
 10
3809.857194685343
 20
2342.061329594589
 10
3809.857116744421
 20
2342.061327787247
 10
3809.857071489295
 20
2342.061327133875
  0
LWPOLYLINE
  5
1186
330
1F
100
AcDbEntity
  8
Sanindusa
100
AcDbPolyline
 90
       19
 70
   128
 43
0.0
 10
3809.871092884858
 20
2342.061130757755
 10
3809.871157249211
 20
2342.061126157038
 10
3809.871526786365
 20
2342.061114762285
 10
3809.871526821943
 20
2342.061108538076
 10
3809.871157354159
 20
2342.061107796519
 10
3809.870436909671
 20
2342.0611125748
 10
3809.869401614574
 20
2342.061122633314
 10
3809.868103382888
 20
2342.061137467687
 10
3809.866607313369
 20
2342.06115633406
 10
3809.864988425191
 20
2342.061178286396
 10
3809.863327896168
 20
2342.06120222391
 10
3809.861708992156
 20
2342.061226946279
 10
3809.860212891765
 20
2342.061251213818
 10
3809.858914615715
 20
2342.061273809652
 10
3809.857879264987
 20
2342.061293600731
 10
3809.857158756391
 20
2342.061309594648
 10
3809.856789219236
 20
2342.061320989401
 10
3809.856789183659
 20
2342.06132721361
 10
3809.857071489295
 20
2342.061327133875
  0
LWPOLYLINE
  5
118A
330
1F
100
AcDbEntity
  8
Sanindusa
100
AcDbPolyline
 90
        7
 70
   128
 43
0.0
 10
3809.821280373738
 20
2342.061874127333
 10
3809.821223239971
 20
2342.061877490977
 10
3809.821001422795
 20
2342.061894835985
 10
3809.820381611324
 20
2342.061970337368
 10
3809.819364680655
 20
2342.062181505828
 10
3809.818025001502
 20
2342.062636797939
 10
3809.817886298269
 20
2342.06269642147
  0
LWPOLYLINE
  5
118F
330
1F
100
AcDbEntity
  8
Sanindusa
100
AcDbPolyline
 90
        8
 70
   128
 43
0.0
 10
3809.810827348484
 20
2342.062798182433
 10
3809.810002451605
 20
2342.062505535128
 10
3809.809092178218
 20
2342.062272997682
 10
3809.808324148981
 20
2342.062145831315
 10
3809.8077857353
 20
2342.062092990166
 10
3809.807515445215
 20
2342.062077674323
 10
3809.807382174224
 20
2342.062072964167
 10
3809.807308189978
 20
2342.062071248575
  0
ARC
  5
1196
330
1F
100
AcDbEntity
  8
Sanindusa
100
AcDbCircle
 10
3809.814236183393
 20
2342.054378753177
 30
0.0
 40
0.0090833333333334
100
AcDbArc
 50
66.30627387946034
 51
112.0419025311676
  0
LWPOLYLINE
  5
119A
330
1F
100
AcDbEntity
  8
Sanindusa
100
AcDbPolyline
 90
       19
 70
   128
 43
0.0
 10
3809.821280373738
 20
2342.061874127333
 10
3809.821344738091
 20
2342.061869526617
 10
3809.821714275246
 20
2342.061858131863
 10
3809.821714310823
 20
2342.061851907654
 10
3809.821344843039
 20
2342.061851166098
 10
3809.820624398551
 20
2342.061855944379
 10
3809.819589103454
 20
2342.061866002893
 10
3809.818290871767
 20
2342.061880837265
 10
3809.816794802249
 20
2342.061899703638
 10
3809.815175914071
 20
2342.061921655973
 10
3809.813515385048
 20
2342.061945593489
 10
3809.811896481036
 20
2342.061970315857
 10
3809.810400380645
 20
2342.061994583397
 10
3809.809102104594
 20
2342.06201717923
 10
3809.808066753867
 20
2342.062036970309
 10
3809.807346245271
 20
2342.062052964226
 10
3809.806976708117
 20
2342.062064358979
 10
3809.806976672539
 20
2342.062070583188
 10
3809.807308189978
 20
2342.062071248575
  0
LWPOLYLINE
  5
11A0
330
1F
100
AcDbEntity
  8
Sanindusa
100
AcDbPolyline
 90
        9
 70
   128
 43
0.0
 10
3809.910322298497
 20
2342.061364379352
 10
3809.909497401618
 20
2342.061071732047
 10
3809.908587128231
 20
2342.060839194601
 10
3809.907819098996
 20
2342.060712028234
 10
3809.907280685314
 20
2342.060659187086
 10
3809.907010395228
 20
2342.060643871242
 10
3809.906877124237
 20
2342.060639161086
 10
3809.906799183314
 20
2342.060637353744
 10
3809.906753928188
 20
2342.060636700373
  0
ARC
  5
11A1
330
1F
100
AcDbEntity
  8
Sanindusa
100
AcDbCircle
 10
3809.913731133407
 20
2342.052944950095
 30
0.0
 40
0.0090833333333334
100
AcDbArc
 50
66.30627387946034
 51
112.0419025311676
  0
LWPOLYLINE
  5
11B7
330
1F
100
AcDbEntity
  8
Sanindusa
100
AcDbPolyline
 90
        7
 70
   128
 43
0.0
 10
3809.916229935323
 20
2342.062501794186
 10
3809.916663593823
 20
2342.063259028559
 10
3809.917199284185
 20
2342.064546748671
 10
3809.917697230758
 20
2342.066159310286
 10
3809.918147923193
 20
2342.068065914875
 10
3809.918542753658
 20
2342.070230147948
 10
3809.918874181232
 20
2342.072610674532
  0
LWPOLYLINE
  5
11B8
330
1F
100
AcDbEntity
  8
Sanindusa
100
AcDbPolyline
 90
        9
 70
   128
 43
0.0
 10
3809.906766999936
 20
2342.061666004649
 10
3809.904848895556
 20
2342.061887752619
 10
3809.902972011823
 20
2342.062478964257
 10
3809.901171413422
 20
2342.063428594315
 10
3809.899480739842
 20
2342.064718901429
 10
3809.897931576915
 20
2342.066325779572
 10
3809.896552866713
 20
2342.068219208413
 10
3809.895370366846
 20
2342.070363814167
 10
3809.894406169241
 20
2342.072719530462
  0
LWPOLYLINE
  5
11B9
330
1F
100
AcDbEntity
  8
Sanindusa
100
AcDbPolyline
 90
        7
 70
   128
 43
0.0
 10
3809.894406169241
 20
2342.072719530462
 10
3809.897896064217
 20
2342.072189787103
 10
3809.901829194784
 20
2342.071853437853
 10
3809.905990786872
 20
2342.071733705876
 10
3809.91043386901
 20
2342.071833504762
 10
3809.914618794443
 20
2342.072124129418
 10
3809.918874181232
 20
2342.072610674532
  0
ARC
  5
11BA
330
1F
100
AcDbEntity
  8
Sanindusa
100
AcDbCircle
 10
3809.864048694513
 20
2342.053635383598
 30
0.0
 40
0.0090833333333337
100
AcDbArc
 50
66.30627387946034
 51
112.0419025311676
  0
LWPOLYLINE
  5
11C7
330
1F
100
AcDbEntity
  8
Sanindusa
100
AcDbPolyline
 90
        7
 70
   128
 43
0.0
 10
3809.871092884858
 20
2342.061130757755
 10
3809.871035751092
 20
2342.061134121399
 10
3809.870813933915
 20
2342.061151466406
 10
3809.870194122444
 20
2342.06122696779
 10
3809.869177191775
 20
2342.061438136249
 10
3809.867837512621
 20
2342.06189342836
 10
3809.867698809389
 20
2342.061953051891
  0
LINE
  5
11CA
330
1F
100
AcDbEntity
  8
Sanindusa
100
AcDbLine
 10
3809.957641971374
 20
2342.03520592177
 30
0.0
 11
3809.963297964057
 21
2342.03520592177
 31
0.0
  0
ARC
  5
11CC
330
1F
100
AcDbEntity
  8
Sanindusa
100
AcDbCircle
 10
3809.963543644527
 20
2342.052201580517
 30
0.0
 40
0.0090833333333333
100
AcDbArc
 50
66.30627387946034
 51
112.0419025311676
  0
LWPOLYLINE
  5
11D2
330
1F
100
AcDbEntity
  8
Sanindusa
100
AcDbPolyline
 90
       19
 70
   128
 43
0.0
 10
3809.970587834872
 20
2342.059696954674
 10
3809.970652199225
 20
2342.059692353958
 10
3809.971021736379
 20
2342.059680959204
 10
3809.971021771956
 20
2342.059674734995
 10
3809.970652304173
 20
2342.059673993439
 10
3809.969931859685
 20
2342.059678771719
 10
3809.968896564588
 20
2342.059688830234
 10
3809.967598332902
 20
2342.059703664606
 10
3809.966102263383
 20
2342.059722530979
 10
3809.964483375205
 20
2342.059744483314
 10
3809.962822846181
 20
2342.059768420829
 10
3809.96120394217
 20
2342.059793143199
 10
3809.959707841779
 20
2342.059817410737
 10
3809.958409565728
 20
2342.059840006571
 10
3809.957374215
 20
2342.05985979765
 10
3809.956653706404
 20
2342.059875791568
 10
3809.956284169249
 20
2342.05988718632
 10
3809.956284133673
 20
2342.059893410529
 10
3809.956566439307
 20
2342.059893330795
  0
LWPOLYLINE
  5
11D3
330
1F
100
AcDbEntity
  8
Sanindusa
100
AcDbPolyline
 90
        9
 70
   128
 43
0.0
 10
3809.960134809617
 20
2342.060621009774
 10
3809.959309912738
 20
2342.060328362468
 10
3809.958399639351
 20
2342.060095825023
 10
3809.957631610115
 20
2342.059968658656
 10
3809.957093196433
 20
2342.059915817507
 10
3809.956822906349
 20
2342.059900501663
 10
3809.956689635357
 20
2342.059895791507
 10
3809.956611694435
 20
2342.059893984166
 10
3809.956566439307
 20
2342.059893330795
  0
LWPOLYLINE
  5
11DE
330
1F
100
AcDbEntity
  8
Sanindusa
100
AcDbPolyline
 90
        7
 70
   128
 43
0.0
 10
3809.970587834872
 20
2342.059696954674
 10
3809.970530701105
 20
2342.059700318318
 10
3809.970308883928
 20
2342.059717663325
 10
3809.969689072456
 20
2342.059793164709
 10
3809.968672141788
 20
2342.060004333168
 10
3809.967332462636
 20
2342.06045962528
 10
3809.967193759403
 20
2342.060519248811
  0
ARC
  5
11E9
330
1F
100
AcDbEntity
  8
Sanindusa
100
AcDbCircle
 10
3810.01322608342
 20
2342.051511147015
 30
0.0
 40
0.0090833333333334
100
AcDbArc
 50
66.30627387946034
 51
112.0419025311676
  0
LWPOLYLINE
  5
11EF
330
1F
100
AcDbEntity
  8
Sanindusa
100
AcDbPolyline
 90
       20
 70
   128
 43
0.0
 10
3810.020270273766
 20
2342.059006521172
 10
3810.020334638119
 20
2342.059001920455
 10
3810.020704175273
 20
2342.058990525702
 10
3810.02070421085
 20
2342.058984301493
 10
3810.020334743067
 20
2342.058983559936
 10
3810.019614298579
 20
2342.058988338217
 10
3810.018579003481
 20
2342.058998396731
 10
3810.017280771795
 20
2342.059013231104
 10
3810.015784702276
 20
2342.059032097477
 10
3810.014165814099
 20
2342.059054049812
 10
3810.012505285075
 20
2342.059077987327
 10
3810.010886381064
 20
2342.059102709696
 10
3810.009390280672
 20
2342.059126977235
 10
3810.008092004622
 20
2342.059149573069
 10
3810.007056653894
 20
2342.059169364148
 10
3810.006336145298
 20
2342.059185358065
 10
3810.005966608144
 20
2342.059196752817
 10
3810.005966572566
 20
2342.059202977027
 10
3810.006248878202
 20
2342.059202897292
 10
3810.006248878202
 20
2342.059202897292
  0
LWPOLYLINE
  5
11F0
330
1F
100
AcDbEntity
  8
Sanindusa
100
AcDbPolyline
 90
       10
 70
   128
 43
0.0
 10
3810.009817248511
 20
2342.059930576272
 10
3810.008992351632
 20
2342.059637928966
 10
3810.008082078245
 20
2342.059405391521
 10
3810.007314049009
 20
2342.059278225153
 10
3810.006775635327
 20
2342.059225384005
 10
3810.006505345242
 20
2342.059210068161
 10
3810.006372074251
 20
2342.059205358006
 10
3810.006294133329
 20
2342.059203550663
 10
3810.006248878202
 20
2342.059202897292
 10
3810.006254612438
 20
2342.059202912041
  0
LWPOLYLINE
  5
11FC
330
1F
100
AcDbEntity
  8
Sanindusa
100
AcDbPolyline
 90
        7
 70
   128
 43
0.0
 10
3810.020270273766
 20
2342.059006521172
 10
3810.020213139999
 20
2342.059009884815
 10
3810.019991322823
 20
2342.059027229823
 10
3810.019371511351
 20
2342.059102731207
 10
3810.018354580682
 20
2342.059313899666
 10
3810.017014901529
 20
2342.059769191777
 10
3810.016876198297
 20
2342.059828815308
  0
LWPOLYLINE
  5
1202
330
1F
100
AcDbEntity
  8
Sanindusa
100
AcDbPolyline
 90
        8
 70
   128
 43
0.0
 10
3810.026283346223
 20
2342.071179959978
 10
3810.025254316385
 20
2342.068782342428
 10
3810.024000034533
 20
2342.066604583814
 10
3810.022544814558
 20
2342.064688899355
 10
3810.020916865479
 20
2342.063072424042
 10
3810.019147744616
 20
2342.061786492781
 10
3810.017271745867
 20
2342.060856032976
 10
3810.016688146067
 20
2342.060647346714
  0
LWPOLYLINE
  5
1208
330
1F
100
AcDbEntity
  8
Sanindusa
100
AcDbPolyline
 90
        7
 70
   128
 43
0.0
 10
3810.001893656457
 20
2342.071306342153
 10
3810.006258819844
 20
2342.070767547721
 10
3810.010737317835
 20
2342.070426292545
 10
3810.015070885009
 20
2342.070305821208
 10
3810.019312652626
 20
2342.070408105675
 10
3810.022925009724
 20
2342.07069792488
 10
3810.026283346223
 20
2342.071179959978
  0
LWPOLYLINE
  5
1209
330
1F
100
AcDbEntity
  8
Sanindusa
100
AcDbPolyline
 90
        9
 70
   128
 43
0.0
 10
3810.001893656457
 20
2342.071306342153
 10
3810.002136161282
 20
2342.068937856989
 10
3810.002442574388
 20
2342.066783150901
 10
3810.002807105427
 20
2342.064882941791
 10
3810.003222865785
 20
2342.063273138279
 10
3810.003681998759
 20
2342.061984161137
 10
3810.004175828021
 20
2342.061040368419
 10
3810.004695021584
 20
2342.060459595158
 10
3810.005229768147
 20
2342.06025281634
  0
LINE
  5
120A
330
1F
100
AcDbEntity
  8
Sanindusa
100
AcDbLine
 10
3810.01201579165
 20
2342.160783624143
 30
0.0
 11
3809.908924143781
 21
2342.160783624143
 31
0.0
  0
LINE
  5
120B
330
1F
100
AcDbEntity
  8
Sanindusa
100
AcDbLine
 10
3809.911233501713
 20
2342.16520592177
 30
0.0
 11
3810.009706433719
 21
2342.16520592177
 31
0.0
  0
LINE
  5
120C
330
1F
100
AcDbEntity
  8
Sanindusa
100
AcDbLine
 10
3809.876230730588
 20
2342.16520592177
 30
0.0
 11
3809.911233501713
 21
2342.16520592177
 31
0.0
  0
LWPOLYLINE
  5
120D
330
1F
100
AcDbEntity
  8
Sanindusa
100
AcDbPolyline
 90
        8
 70
   128
 43
0.0
 10
3809.90892414378
 20
2342.160783624143
 10
3809.904519171555
 20
2342.161027862695
 10
3809.899965431212
 20
2342.161192378624
 10
3809.895435973209
 20
2342.161265400568
 10
3809.891051024692
 20
2342.161245992284
 10
3809.887090392436
 20
2342.161139011311
 10
3809.883514316637
 20
2342.160954066375
 10
3809.881290377104
 20
2342.160783624143
  0
LWPOLYLINE
  5
120E
330
1F
100
AcDbEntity
  8
Sanindusa
100
AcDbPolyline
 90
        9
 70
   128
 43
0.0
 10
3809.876230730588
 20
2342.16520592177
 10
3809.877011106941
 20
2342.165129432703
 10
3809.877776560729
 20
2342.164901428145
 10
3809.87851245474
 20
2342.16452626806
 10
3809.879204717013
 20
2342.164011126359
 10
3809.879840109924
 20
2342.16336585372
 10
3809.880406483319
 20
2342.162602789219
 10
3809.880893006858
 20
2342.161736524377
 10
3809.881290377104
 20
2342.160783624143
  0
LWPOLYLINE
  5
120F
330
1F
100
AcDbEntity
  8
Sanindusa
100
AcDbPolyline
 90
        9
 70
   128
 43
0.0
 10
3809.90892414378
 20
2342.160783624143
 10
3809.909105514185
 20
2342.161736524377
 10
3809.909327576534
 20
2342.162602789219
 10
3809.909586084493
 20
2342.16336585372
 10
3809.909876094803
 20
2342.164011126359
 10
3809.910192061811
 20
2342.16452626806
 10
3809.91052794351
 20
2342.164901428145
 10
3809.910877317083
 20
2342.165129432703
 10
3809.911233501712
 20
2342.16520592177
  0
LWPOLYLINE
  5
1210
330
1F
100
AcDbEntity
  8
Sanindusa
100
AcDbPolyline
 90
        9
 70
   128
 43
0.0
 10
3810.01201579165
 20
2342.160783624143
 10
3810.011834421246
 20
2342.161736524377
 10
3810.011612358898
 20
2342.162602789219
 10
3810.011353850939
 20
2342.16336585372
 10
3810.011063840627
 20
2342.164011126359
 10
3810.01074787362
 20
2342.16452626806
 10
3810.01041199192
 20
2342.164901428145
 10
3810.010062618348
 20
2342.165129432703
 10
3810.009706433719
 20
2342.16520592177
  0
LWPOLYLINE
  5
1211
330
1F
100
AcDbEntity
  8
Sanindusa
100
AcDbPolyline
 90
        8
 70
   128
 43
0.0
 10
3810.039649558326
 20
2342.160783624143
 10
3810.036245705814
 20
2342.161025605903
 10
3810.032369326785
 20
2342.161190144167
 10
3810.02814347273
 20
2342.161264793158
 10
3810.02368198204
 20
2342.161247365431
 10
3810.019282256075
 20
2342.161141409298
 10
3810.01494252801
 20
2342.160955731539
 10
3810.01201579165
 20
2342.160783624143
  0
ARC
  5
1213
330
1F
100
AcDbEntity
  8
Sanindusa
100
AcDbCircle
 10
3810.17774789597
 20
2342.059205921771
 30
0.0
 40
0.0190000000000001
100
AcDbArc
 50
209.981639368845
 51
270.0
  0
ARC
  5
1214
330
1F
100
AcDbEntity
  8
Sanindusa
100
AcDbCircle
 10
3810.162396079219
 20
2342.049660319906
 30
0.0
 40
0.0091280426703559
100
AcDbArc
 50
66.3630271746333
 51
111.5924817285669
  0
LWPOLYLINE
  5
1215
330
1F
100
AcDbEntity
  8
Sanindusa
100
AcDbPolyline
 90
       20
 70
   128
 43
0.0
 10
3810.169473603404
 20
2342.057196675153
 10
3810.169514318986
 20
2342.057195663231
 10
3810.16988385614
 20
2342.057184268478
 10
3810.169883891717
 20
2342.057178044269
 10
3810.169514423934
 20
2342.057177302713
 10
3810.168793979446
 20
2342.057182080993
 10
3810.167758684349
 20
2342.057192139508
 10
3810.166460452663
 20
2342.05720697388
 10
3810.164964383144
 20
2342.057225840253
 10
3810.163345494967
 20
2342.057247792588
 10
3810.161684965942
 20
2342.057271730104
 10
3810.160066061931
 20
2342.057296452472
 10
3810.15856996154
 20
2342.057320720011
 10
3810.157271685489
 20
2342.057343315845
 10
3810.156236334761
 20
2342.057363106924
 10
3810.155515826166
 20
2342.057379100841
 10
3810.155146289011
 20
2342.057390495594
 10
3810.155146253434
 20
2342.057396719803
 10
3810.155515721218
 20
2342.05739746136
 10
3810.155679373366
 20
2342.057396696319
  0
LINE
  5
1216
330
1F
100
AcDbEntity
  8
Sanindusa
100
AcDbLine
 10
3810.164755112179
 20
2342.051710084968
 30
0.0
 11
3810.163211633361
 21
2342.054385448253
 31
0.0
  0
ARC
  5
1217
330
1F
100
AcDbEntity
  8
Sanindusa
100
AcDbCircle
 10
3810.17774789597
 20
2342.059205921771
 30
0.0
 40
0.0150000000000001
100
AcDbArc
 50
209.981639368845
 51
270.0
  0
LWPOLYLINE
  5
121A
330
1F
100
AcDbEntity
  8
Sanindusa
100
AcDbPolyline
 90
        7
 70
   128
 43
0.0
 10
3810.070082784886
 20
2342.058263151594
 10
3810.070025651119
 20
2342.058266515237
 10
3810.069803833942
 20
2342.058283860245
 10
3810.069184022471
 20
2342.058359361629
 10
3810.068167091802
 20
2342.058570530087
 10
3810.066827412649
 20
2342.059025822199
 10
3810.066688709417
 20
2342.05908544573
  0
LWPOLYLINE
  5
1223
330
1F
100
AcDbEntity
  8
Sanindusa
100
AcDbPolyline
 90
       10
 70
   128
 43
0.0
 10
3810.059629759631
 20
2342.059187206694
 10
3810.058804862752
 20
2342.058894559388
 10
3810.057894589365
 20
2342.058662021942
 10
3810.057126560129
 20
2342.058534855575
 10
3810.056588146447
 20
2342.058482014427
 10
3810.056317856363
 20
2342.058466698583
 10
3810.056184585371
 20
2342.058461988427
 10
3810.056106644448
 20
2342.058460181085
 10
3810.056061389321
 20
2342.058459527714
 10
3810.056067123558
 20
2342.058459542463
  0
ARC
  5
122C
330
1F
100
AcDbEntity
  8
Sanindusa
100
AcDbCircle
 10
3810.06303859454
 20
2342.050767777437
 30
0.0
 40
0.0090833333333336
100
AcDbArc
 50
66.30627387946034
 51
112.0419025311676
  0
LWPOLYLINE
  5
1231
330
1F
100
AcDbEntity
  8
Sanindusa
100
AcDbPolyline
 90
       20
 70
   128
 43
0.0
 10
3810.070082784886
 20
2342.058263151594
 10
3810.070147149238
 20
2342.058258550876
 10
3810.070516686393
 20
2342.058247156123
 10
3810.07051672197
 20
2342.058240931915
 10
3810.070147254186
 20
2342.058240190358
 10
3810.069426809698
 20
2342.058244968638
 10
3810.068391514601
 20
2342.058255027153
 10
3810.067093282916
 20
2342.058269861525
 10
3810.065597213397
 20
2342.058288727898
 10
3810.063978325219
 20
2342.058310680234
 10
3810.062317796195
 20
2342.058334617749
 10
3810.060698892184
 20
2342.058359340118
 10
3810.059202791793
 20
2342.058383607657
 10
3810.057904515742
 20
2342.058406203491
 10
3810.056869165014
 20
2342.05842599457
 10
3810.056148656418
 20
2342.058441988486
 10
3810.055779119263
 20
2342.05845338324
 10
3810.055779083686
 20
2342.058459607448
 10
3810.056061389321
 20
2342.058459527714
 10
3810.056061389321
 20
2342.058459527714
  0
LWPOLYLINE
  5
1232
330
1F
100
AcDbEntity
  8
Sanindusa
100
AcDbPolyline
 90
        4
 70
   128
 43
0.0
 10
3810.15895273892
 20
2342.056886352185
 10
3810.160603537911
 20
2342.056580666971
 10
3810.162060096128
 20
2342.055745791359
 10
3810.163211633361
 20
2342.054385448253
  0
LINE
  5
1233
330
1F
100
AcDbEntity
  8
Sanindusa
100
AcDbLine
 10
3810.161290369835
 20
2342.049711195154
 30
0.0
 11
3810.159463048623
 21
2342.052878551922
 31
0.0
  0
LWPOLYLINE
  5
1234
330
1F
100
AcDbEntity
  8
Sanindusa
100
AcDbPolyline
 90
       10
 70
   128
 43
0.0
 10
3810.15903693628
 20
2342.058147800199
 10
3810.1581720325
 20
2342.057831671743
 10
3810.157261759112
 20
2342.057599134297
 10
3810.156493729876
 20
2342.05747196793
 10
3810.155955316194
 20
2342.057419126781
 10
3810.15568502611
 20
2342.057403810938
 10
3810.155551755118
 20
2342.057399100782
 10
3810.155473814196
 20
2342.05739729344
 10
3810.155428559069
 20
2342.057396640068
 10
3810.155434293305
 20
2342.057396654817
  0
LWPOLYLINE
  5
1235
330
1F
100
AcDbEntity
  8
Sanindusa
100
AcDbPolyline
 90
       10
 70
   128
 43
0.0
 10
3810.109312198525
 20
2342.058496773191
 10
3810.108487301646
 20
2342.058204125885
 10
3810.107577028258
 20
2342.05797158844
 10
3810.106808999023
 20
2342.057844422072
 10
3810.106270585341
 20
2342.057791580924
 10
3810.106000295256
 20
2342.05777626508
 10
3810.105867024264
 20
2342.057771554924
 10
3810.105789083342
 20
2342.057769747583
 10
3810.105743828215
 20
2342.057769094211
 10
3810.105749562452
 20
2342.05776910896
  0
LWPOLYLINE
  5
1239
330
1F
100
AcDbEntity
  8
Sanindusa
100
AcDbPolyline
 90
       20
 70
   128
 43
0.0
 10
3810.119765223779
 20
2342.057572718092
 10
3810.119829588132
 20
2342.057568117374
 10
3810.120199125286
 20
2342.057556722621
 10
3810.120199160864
 20
2342.057550498412
 10
3810.11982969308
 20
2342.057549756856
 10
3810.119109248592
 20
2342.057554535136
 10
3810.118073953495
 20
2342.05756459365
 10
3810.116775721809
 20
2342.057579428023
 10
3810.11527965229
 20
2342.057598294396
 10
3810.113660764113
 20
2342.057620246731
 10
3810.112000235089
 20
2342.057644184246
 10
3810.110381331077
 20
2342.057668906615
 10
3810.108885230686
 20
2342.057693174155
 10
3810.107586954636
 20
2342.057715769988
 10
3810.106551603908
 20
2342.057735561067
 10
3810.105831095312
 20
2342.057751554984
 10
3810.105461558157
 20
2342.057762949737
 10
3810.10546152258
 20
2342.057769173946
 10
3810.105743828215
 20
2342.057769094211
 10
3810.105743828215
 20
2342.057769094211
  0
LWPOLYLINE
  5
123A
330
1F
100
AcDbEntity
  8
Sanindusa
100
AcDbPolyline
 90
        7
 70
   128
 43
0.0
 10
3810.119765223779
 20
2342.057572718092
 10
3810.119708090013
 20
2342.057576081735
 10
3810.119486272835
 20
2342.057593426742
 10
3810.118866461364
 20
2342.057668928126
 10
3810.117849530696
 20
2342.057880096585
 10
3810.116509851543
 20
2342.058335388696
 10
3810.116372071533
 20
2342.058406005776
  0
ARC
  5
1244
330
1F
100
AcDbEntity
  8
Sanindusa
100
AcDbCircle
 10
3810.112721033434
 20
2342.050077343934
 30
0.0
 40
0.0090833333333334
100
AcDbArc
 50
66.30627387946034
 51
112.0419025311676
  0
ARC
  5
124A
330
1F
100
AcDbEntity
  8
Sanindusa
100
AcDbCircle
 10
3810.260420978232
 20
2342.059205921771
 30
0.0
 40
0.0190000000000001
100
AcDbArc
 50
270.0
 51
330.018360631155
  0
LINE
  5
124B
330
1F
100
AcDbEntity
  8
Sanindusa
100
AcDbLine
 10
3810.249084437101
 20
2342.04420592177
 30
0.0
 11
3810.249084437101
 21
2342.040205921771
 31
0.0
  0
LINE
  5
124C
330
1F
100
AcDbEntity
  8
Sanindusa
100
AcDbLine
 10
3810.189084437102
 20
2342.040205921771
 30
0.0
 11
3810.189084437102
 21
2342.04420592177
 31
0.0
  0
LINE
  5
1251
330
1F
100
AcDbEntity
  8
Sanindusa
100
AcDbLine
 10
3810.189084437102
 20
2342.040205921771
 30
0.0
 11
3810.17774789597
 21
2342.040205921771
 31
0.0
  0
LINE
  5
1252
330
1F
100
AcDbEntity
  8
Sanindusa
100
AcDbLine
 10
3810.260420978232
 20
2342.040205921771
 30
0.0
 11
3810.249084437101
 21
2342.040205921771
 31
0.0
  0
LINE
  5
1254
330
1F
100
AcDbEntity
  8
Sanindusa
100
AcDbLine
 10
3810.189084437102
 20
2342.04420592177
 30
0.0
 11
3810.249084437101
 21
2342.04420592177
 31
0.0
  0
LINE
  5
1255
330
1F
100
AcDbEntity
  8
Sanindusa
100
AcDbLine
 10
3810.189084437102
 20
2342.04420592177
 30
0.0
 11
3810.17774789597
 21
2342.04420592177
 31
0.0
  0
LWPOLYLINE
  5
1256
330
1F
100
AcDbEntity
  8
Sanindusa
100
AcDbPolyline
 90
        7
 70
   128
 43
0.0
 10
3810.169449954633
 20
2342.057200263949
 10
3810.169392820866
 20
2342.057203627592
 10
3810.169171003689
 20
2342.0572209726
 10
3810.168551192218
 20
2342.057296473983
 10
3810.16753426155
 20
2342.057507642442
 10
3810.166194582397
 20
2342.057962934553
 10
3810.166055879164
 20
2342.058022558085
  0
ARC
  5
1257
330
1F
100
AcDbEntity
  8
Sanindusa
100
AcDbCircle
 10
3810.260420978232
 20
2342.059205921771
 30
0.0
 40
0.0150000000000001
100
AcDbArc
 50
270.0
 51
330.018360631155
  0
LINE
  5
1258
330
1F
100
AcDbEntity
  8
Sanindusa
100
AcDbLine
 10
3810.27772228092
 20
2342.05117374118
 30
0.0
 11
3810.276878504367
 21
2342.049711195154
 31
0.0
  0
LINE
  5
1259
330
1F
100
AcDbEntity
  8
Sanindusa
100
AcDbLine
 10
3810.273964089554
 20
2342.052663986021
 30
0.0
 11
3810.273413762023
 21
2342.051710084968
 31
0.0
  0
LWPOLYLINE
  5
125A
330
1F
100
AcDbEntity
  8
Sanindusa
100
AcDbPolyline
 90
        5
 70
   128
 43
0.0
 10
3810.273964089554
 20
2342.052663986022
 10
3810.275035300982
 20
2342.053956719389
 10
3810.276474029642
 20
2342.054822002232
 10
3810.27811806099
 20
2342.055162274669
 10
3810.278367126119
 20
2342.05516488887
  0
LINE
  5
125B
330
1F
100
AcDbEntity
  8
Sanindusa
100
AcDbLine
 10
3810.260420978232
 20
2342.04420592177
 30
0.0
 11
3810.249084437101
 21
2342.04420592177
 31
0.0
  0
LINE
  5
125C
330
1F
100
AcDbEntity
  8
Sanindusa
100
AcDbLine
 10
3810.484470592264
 20
2342.157403343146
 30
0.0
 11
3810.487487058774
 21
2342.03520592177
 31
0.0
  0
LINE
  5
125D
330
1F
100
AcDbEntity
  8
Sanindusa
100
AcDbLine
 10
3810.480471810425
 20
2342.157304632458
 30
0.0
 11
3810.483485840243
 21
2342.03520592177
 31
0.0
  0
LINE
  5
125F
330
1F
100
AcDbEntity
  8
Sanindusa
100
AcDbLine
 10
3810.399992529413
 20
2342.159515319409
 30
0.0
 11
3810.330222707271
 21
2342.060845670359
 31
0.0
  0
LINE
  5
1260
330
1F
100
AcDbEntity
  8
Sanindusa
100
AcDbLine
 10
3810.396726540659
 20
2342.161824717048
 30
0.0
 11
3810.326956718517
 21
2342.063155067998
 31
0.0
  0
LINE
  5
1261
330
1F
100
AcDbEntity
  8
Sanindusa
100
AcDbLine
 10
3810.320559721917
 20
2342.065820658499
 30
0.0
 11
3810.387708528941
 21
2342.160783624143
 31
0.0
  0
ARC
  5
1264
330
1F
100
AcDbEntity
  8
Sanindusa
100
AcDbCircle
 10
3810.310626443423
 20
2342.074702375392
 30
0.0
 40
0.0200004548115255
100
AcDbArc
 50
269.1735232632703
 51
324.7354719941836
  0
ARC
  5
1266
330
1F
100
AcDbEntity
  8
Sanindusa
100
AcDbCircle
 10
3810.310626366886
 20
2342.074702459432
 30
0.0
 40
0.0240005658245871
100
AcDbArc
 50
269.1733533742353
 51
324.7354467799706
  0
LWPOLYLINE
  5
1268
330
1F
100
AcDbEntity
  8
Sanindusa
100
AcDbPolyline
 90
        9
 70
   128
 43
0.0
 10
3810.320559721917
 20
2342.065820658499
 10
3810.319530692078
 20
2342.063423040949
 10
3810.318276410226
 20
2342.061245282335
 10
3810.316821190251
 20
2342.059329597876
 10
3810.315193241171
 20
2342.057713122563
 10
3810.313424120309
 20
2342.056427191301
 10
3810.311548121561
 20
2342.055496731497
 10
3810.309601610617
 20
2342.054939779843
 10
3810.307622320032
 20
2342.054767132686
  0
LINE
  5
1269
330
1F
100
AcDbEntity
  8
Sanindusa
100
AcDbLine
 10
3810.483485840243
 20
2342.03520592177
 30
0.0
 11
3810.487487058774
 21
2342.03520592177
 31
0.0
  0
LINE
  5
126B
330
1F
100
AcDbEntity
  8
Sanindusa
100
AcDbLine
 10
3810.403258518169
 20
2342.16520592177
 30
0.0
 11
3810.476473028586
 21
2342.16520592177
 31
0.0
  0
LINE
  5
126C
330
1F
100
AcDbEntity
  8
Sanindusa
100
AcDbLine
 10
3810.403258518169
 20
2342.161205921771
 30
0.0
 11
3810.476473028586
 21
2342.161205921771
 31
0.0
  0
LWPOLYLINE
  5
1270
330
1F
100
AcDbEntity
  8
Sanindusa
100
AcDbPolyline
 90
        9
 70
   128
 43
0.0
 10
3810.387708528941
 20
2342.160783624143
 10
3810.388105899187
 20
2342.161736524377
 10
3810.388592422724
 20
2342.162602789219
 10
3810.38915879612
 20
2342.16336585372
 10
3810.389794189031
 20
2342.164011126359
 10
3810.390486451304
 20
2342.16452626806
 10
3810.391222345316
 20
2342.164901428145
 10
3810.391987799103
 20
2342.165129432703
 10
3810.392768175456
 20
2342.16520592177
  0
ARC
  5
1271
330
1F
100
AcDbEntity
  8
Sanindusa
100
AcDbCircle
 10
3810.403258518169
 20
2342.15720592177
 30
0.0
 40
0.0039999999999999
100
AcDbArc
 50
90.0
 51
144.7356706300287
  0
ARC
  5
1272
330
1F
100
AcDbEntity
  8
Sanindusa
100
AcDbCircle
 10
3810.403258518169
 20
2342.15720592177
 30
0.0
 40
0.008
100
AcDbArc
 50
90.0
 51
144.7356706300394
  0
LINE
  5
1273
330
1F
100
AcDbEntity
  8
Sanindusa
100
AcDbLine
 10
3810.392768175456
 20
2342.16520592177
 30
0.0
 11
3810.403258518169
 21
2342.16520592177
 31
0.0
  0
ARC
  5
1274
330
1F
100
AcDbEntity
  8
Sanindusa
100
AcDbCircle
 10
3810.476473028586
 20
2342.15720592177
 30
0.0
 40
0.0040000000000001
100
AcDbArc
 50
1.414069999324322
 51
90.0
  0
ARC
  5
1277
330
1F
100
AcDbEntity
  8
Sanindusa
100
AcDbCircle
 10
3810.476473028586
 20
2342.15720592177
 30
0.0
 40
0.0080000000000002
100
AcDbArc
 50
1.414069999324322
 51
90.0
  0
LINE
  5
13F0
330
1F
100
AcDbEntity
  8
Sanindusa
100
AcDbLine
 10
3808.165841380595
 20
2342.16520592177
 30
0.0
 11
3807.77597211714
 21
2342.16520592177
 31
0.0
  0
LINE
  5
13F2
330
1F
100
AcDbEntity
  8
Sanindusa
100
AcDbLine
 10
3808.167973335579
 20
2342.03520592177
 30
0.0
 11
3807.77597211714
 21
2342.03520592177
 31
0.0
  0
LINE
  5
13F4
330
1F
100
AcDbEntity
  8
Sanindusa
100
AcDbLine
 10
3808.17597211714
 20
2342.03520592177
 30
0.0
 11
3808.173840162156
 21
2342.157345541022
 31
0.0
  0
LINE
  5
13F5
330
1F
100
AcDbEntity
  8
Sanindusa
100
AcDbLine
 10
3808.167973335579
 20
2342.03520592177
 30
0.0
 11
3808.17597211714
 21
2342.03520592177
 31
0.0
  0
ARC
  5
13F6
330
1F
100
AcDbEntity
  8
Sanindusa
100
AcDbCircle
 10
3808.165841380595
 20
2342.15720592177
 30
0.0
 40
0.0080000000000001
100
AcDbArc
 50
1.000000000145054
 51
90.0
  0
LINE
  5
13F9
330
1F
100
AcDbEntity
  8
Sanindusa
100
AcDbLine
 10
3807.428104072125
 20
2342.157345541022
 30
0.0
 11
3807.42597211714
 21
2342.03520592177
 31
0.0
  0
LINE
  5
13FB
330
1F
100
AcDbEntity
  8
Sanindusa
100
AcDbLine
 10
3807.77597211714
 20
2342.03520592177
 30
0.0
 11
3807.42597211714
 21
2342.03520592177
 31
0.0
  0
LINE
  5
13FC
330
1F
100
AcDbEntity
  8
Sanindusa
100
AcDbLine
 10
3807.77597211714
 20
2342.16520592177
 30
0.0
 11
3807.436102853685
 21
2342.16520592177
 31
0.0
  0
ARC
  5
13FF
330
1F
100
AcDbEntity
  8
Sanindusa
100
AcDbCircle
 10
3807.436102853685
 20
2342.15720592177
 30
0.0
 40
0.0080000000000001
100
AcDbArc
 50
90.0
 51
178.9999999999722
  0
ENDSEC
  0
SECTION
  2
OBJECTS
  0
DICTIONARY
  5
C
330
0
100
AcDbDictionary
281
     1
  3
ACAD_COLOR
350
1457
  3
ACAD_GROUP
350
D
  3
ACAD_LAYOUT
350
1A
  3
ACAD_MATERIAL
350
142A
  3
ACAD_MLEADERSTYLE
350
146C
  3
ACAD_MLINESTYLE
350
17
  3
ACAD_PLOTSETTINGS
350
19
  3
ACAD_PLOTSTYLENAME
350
E
  3
ACAD_SCALELIST
350
145A
  3
ACAD_TABLESTYLE
350
1458
  3
ACAD_VISUALSTYLE
350
1443
  3
ACDB_RECOMPOSE_DATA
350
1499
  3
AcDbVariableDictionary
350
3D
  3
ASE_INDEX_DICTIONARY
350
B99
  3
DWGPROPS
350
149A
  0
DICTIONARY
  5
1473
330
10
100
AcDbDictionary
280
     1
281
     1
  3
ADSK_XREC_LAYER_RECONCILED
360
1474
  0
DICTIONARY
  5
1475
330
2F
100
AcDbDictionary
280
     1
281
     1
  3
ADSK_XREC_LAYER_RECONCILED
360
1476
  0
DICTIONARY
  5
1477
330
30
100
AcDbDictionary
280
     1
281
     1
  3
ADSK_XREC_LAYER_RECONCILED
360
1478
  0
DICTIONARY
  5
1479
330
31
100
AcDbDictionary
280
     1
281
     1
  3
ADSK_XREC_LAYER_RECONCILED
360
147A
  0
DICTIONARY
  5
147B
330
32
100
AcDbDictionary
280
     1
281
     1
  3
ADSK_XREC_LAYER_RECONCILED
360
147C
  0
DICTIONARY
  5
147D
330
33
100
AcDbDictionary
280
     1
281
     1
  3
ADSK_XREC_LAYER_RECONCILED
360
147E
  0
DICTIONARY
  5
147F
330
34
100
AcDbDictionary
280
     1
281
     1
  3
ADSK_XREC_LAYER_RECONCILED
360
1480
  0
DICTIONARY
  5
1481
330
35
100
AcDbDictionary
280
     1
281
     1
  3
ADSK_XREC_LAYER_RECONCILED
360
1482
  0
DICTIONARY
  5
1483
330
36
100
AcDbDictionary
280
     1
281
     1
  3
ADSK_XREC_LAYER_RECONCILED
360
1484
  0
DICTIONARY
  5
1485
330
37
100
AcDbDictionary
280
     1
281
     1
  3
ADSK_XREC_LAYER_RECONCILED
360
1486
  0
DICTIONARY
  5
1487
330
5D6
100
AcDbDictionary
280
     1
281
     1
  3
ADSK_XREC_LAYER_RECONCILED
360
1488
  0
DICTIONARY
  5
1489
330
8AF
100
AcDbDictionary
280
     1
281
     1
  3
ADSK_XREC_LAYER_RECONCILED
360
148A
  0
DICTIONARY
  5
148B
330
8F8
100
AcDbDictionary
280
     1
281
     1
  3
ADSK_XREC_LAYER_RECONCILED
360
148C
  0
DICTIONARY
  5
148D
330
91D
100
AcDbDictionary
280
     1
281
     1
  3
ADSK_XREC_LAYER_RECONCILED
360
148E
  0
DICTIONARY
  5
148F
330
BA2
100
AcDbDictionary
280
     1
281
     1
  3
ADSK_XREC_LAYER_RECONCILED
360
1490
  0
DICTIONARY
  5
1457
102
{ACAD_REACTORS
330
C
102
}
330
C
100
AcDbDictionary
281
     1
  0
DICTIONARY
  5
D
102
{ACAD_REACTORS
330
C
102
}
330
C
100
AcDbDictionary
281
     1
  0
DICTIONARY
  5
1A
102
{ACAD_REACTORS
330
C
102
}
330
C
100
AcDbDictionary
281
     1
  3
Layout1
350
1E
  3
Layout2
350
26
  3
Model
350
22
  0
DICTIONARY
  5
142A
102
{ACAD_REACTORS
330
C
102
}
330
C
100
AcDbDictionary
281
     1
  3
ByBlock
350
1433
  3
ByLayer
350
142B
  3
Global
350
143B
  0
DICTIONARY
  5
146C
102
{ACAD_REACTORS
330
C
102
}
330
C
100
AcDbDictionary
281
     1
  3
Standard
350
146D
  0
DICTIONARY
  5
17
102
{ACAD_REACTORS
330
C
102
}
330
C
100
AcDbDictionary
281
     1
  3
Standard
350
18
  0
DICTIONARY
  5
19
102
{ACAD_REACTORS
330
C
102
}
330
C
100
AcDbDictionary
281
     1
  0
ACDBDICTIONARYWDFLT
  5
E
102
{ACAD_REACTORS
330
C
102
}
330
C
100
AcDbDictionary
281
     1
  3
Normal
350
F
100
AcDbDictionaryWithDefault
340
F
  0
DICTIONARY
  5
145A
102
{ACAD_REACTORS
330
C
102
}
330
C
100
AcDbDictionary
281
     1
  3
A0
350
145B
  3
A1
350
145C
  3
A2
350
145D
  3
A3
350
145E
  3
A4
350
145F
  3
A5
350
1460
  3
A6
350
1461
  3
A7
350
1462
  3
A8
350
1463
  3
A9
350
1464
  3
B0
350
1465
  3
B1
350
1466
  3
B2
350
1467
  3
B3
350
1468
  3
B4
350
1469
  3
B5
350
146A
  3
B6
350
146B
  0
DICTIONARY
  5
1458
102
{ACAD_REACTORS
330
C
102
}
330
C
100
AcDbDictionary
281
     1
  3
Standard
350
1459
  0
DICTIONARY
  5
1443
102
{ACAD_REACTORS
330
C
102
}
330
C
100
AcDbDictionary
281
     1
  3
2dWireframe
350
1449
  3
3D Hidden
350
144B
  3
3dWireframe
350
144A
  3
Basic
350
1448
  3
Brighten
350
144F
  3
ColorChange
350
1453
  3
Conceptual
350
144C
  3
Dim
350
144E
  3
EdgeColorOff
350
1456
  3
Facepattern
350
1452
  3
Flat
350
1444
  3
FlatWithEdges
350
1445
  3
Gouraud
350
1446
  3
GouraudWithEdges
350
1447
  3
JitterOff
350
1454
  3
Linepattern
350
1451
  3
OverhangOff
350
1455
  3
Realistic
350
144D
  3
Thicken
350
1450
  0
XRECORD
  5
1499
102
{ACAD_REACTORS
330
C
102
}
330
C
100
AcDbXrecord
280
     1
 90
        1
330
1459
  0
DICTIONARY
  5
3D
102
{ACAD_REACTORS
330
C
102
}
330
C
100
AcDbDictionary
281
     1
  3
CANNOSCALE
350
1493
  3
CMLEADERSTYLE
350
1492
  3
CTABLESTYLE
350
1491
  3
DIMASSOC
350
3F
  3
HIDETEXT
350
3E
  3
INDEXCTL
350
1495
  3
SORTENTS
350
1494
  3
XCLIPFRAME
350
1496
  0
DICTIONARY
  5
B99
102
{ACAD_REACTORS
330
C
102
}
330
C
100
AcDbDictionary
281
     1
  3
ASEBlockHierarchyIndexRecord
350
B9A
1001
DCO15
1040
1497176544.203
  0
XRECORD
  5
149A
102
{ACAD_REACTORS
330
C
102
}
330
C
100
AcDbXrecord
280
     1
  1
DWGPROPS COOKIE
  2

  3

  4

  6

  7

  8
Julio
  9

300
=
301
=
302
=
303
=
304
=
305
=
306
=
307
=
308
=
309
=
 40
0.0108107175925926
 41
2453160.384392361
 42
2456150.451869931
  1

 90
        0
  0
XRECORD
  5
1474
102
{ACAD_REACTORS
330
1473
102
}
330
1473
100
AcDbXrecord
280
     1
290
     1
  0
XRECORD
  5
1476
102
{ACAD_REACTORS
330
1475
102
}
330
1475
100
AcDbXrecord
280
     1
290
     1
  0
XRECORD
  5
1478
102
{ACAD_REACTORS
330
1477
102
}
330
1477
100
AcDbXrecord
280
     1
290
     1
  0
XRECORD
  5
147A
102
{ACAD_REACTORS
330
1479
102
}
330
1479
100
AcDbXrecord
280
     1
290
     1
  0
XRECORD
  5
147C
102
{ACAD_REACTORS
330
147B
102
}
330
147B
100
AcDbXrecord
280
     1
290
     1
  0
XRECORD
  5
147E
102
{ACAD_REACTORS
330
147D
102
}
330
147D
100
AcDbXrecord
280
     1
290
     1
  0
XRECORD
  5
1480
102
{ACAD_REACTORS
330
147F
102
}
330
147F
100
AcDbXrecord
280
     1
290
     1
  0
XRECORD
  5
1482
102
{ACAD_REACTORS
330
1481
102
}
330
1481
100
AcDbXrecord
280
     1
290
     1
  0
XRECORD
  5
1484
102
{ACAD_REACTORS
330
1483
102
}
330
1483
100
AcDbXrecord
280
     1
290
     1
  0
XRECORD
  5
1486
102
{ACAD_REACTORS
330
1485
102
}
330
1485
100
AcDbXrecord
280
     1
290
     1
  0
XRECORD
  5
1488
102
{ACAD_REACTORS
330
1487
102
}
330
1487
100
AcDbXrecord
280
     1
290
     1
  0
XRECORD
  5
148A
102
{ACAD_REACTORS
330
1489
102
}
330
1489
100
AcDbXrecord
280
     1
290
     1
  0
XRECORD
  5
148C
102
{ACAD_REACTORS
330
148B
102
}
330
148B
100
AcDbXrecord
280
     1
290
     1
  0
XRECORD
  5
148E
102
{ACAD_REACTORS
330
148D
102
}
330
148D
100
AcDbXrecord
280
     1
290
     1
  0
XRECORD
  5
1490
102
{ACAD_REACTORS
330
148F
102
}
330
148F
100
AcDbXrecord
280
     1
290
     1
  0
LAYOUT
  5
1E
102
{ACAD_XDICTIONARY
360
149B
102
}
102
{ACAD_REACTORS
330
1A
102
}
330
1A
100
AcDbPlotSettings
  1

  2
Ploter HP500
  4

  6

 40
0.0
 41
0.0
 42
0.0
 43
0.0
 44
0.0
 45
0.0
 46
0.0
 47
0.0
 48
0.0
 49
0.0
140
0.0
141
0.0
142
1.0
143
1.0
 70
   688
 72
     0
 73
     0
 74
     5
  7
monochrome.ctb
 75
    16
147
1.0
148
0.0
149
0.0
100
AcDbLayout
  1
Layout1
 70
     1
 71
     1
 10
0.0
 20
0.0
 11
420.0
 21
297.0
 12
0.0
 22
0.0
 32
0.0
 14
1.000000000000000E+20
 24
1.000000000000000E+20
 34
1.000000000000000E+20
 15
-1.000000000000000E+20
 25
-1.000000000000000E+20
 35
-1.000000000000000E+20
146
0.0
 13
0.0
 23
0.0
 33
0.0
 16
1.0
 26
0.0
 36
0.0
 17
0.0
 27
1.0
 37
0.0
 76
     0
330
1B
  0
LAYOUT
  5
26
102
{ACAD_XDICTIONARY
360
149F
102
}
102
{ACAD_REACTORS
330
1A
102
}
330
1A
100
AcDbPlotSettings
  1

  2
Ploter HP500
  4

  6

 40
0.0
 41
0.0
 42
0.0
 43
0.0
 44
0.0
 45
0.0
 46
0.0
 47
0.0
 48
0.0
 49
0.0
140
0.0
141
0.0
142
1.0
143
1.0
 70
   688
 72
     0
 73
     0
 74
     5
  7
monochrome.ctb
 75
    16
147
1.0
148
0.0
149
0.0
100
AcDbLayout
  1
Layout2
 70
     1
 71
     2
 10
0.0
 20
0.0
 11
12.0
 21
9.0
 12
0.0
 22
0.0
 32
0.0
 14
0.0
 24
0.0
 34
0.0
 15
0.0
 25
0.0
 35
0.0
146
0.0
 13
0.0
 23
0.0
 33
0.0
 16
1.0
 26
0.0
 36
0.0
 17
0.0
 27
1.0
 37
0.0
 76
     0
330
23
  0
LAYOUT
  5
22
102
{ACAD_XDICTIONARY
360
149D
102
}
102
{ACAD_REACTORS
330
1A
102
}
330
1A
100
AcDbPlotSettings
  1

  2
Ploter HP500
  4
User268
  6

 40
4.995333194732666
 41
16.97565841674804
 42
4.995330810546875
 43
16.97567749023437
 44
209.9733276367187
 45
296.9259948730469
 46
0.0
 47
0.0
 48
0.0
 49
0.0
140
0.0
141
0.0
142
1.0
143
1.0
 70
 11952
 72
     1
 73
     1
 74
     0
  7

 75
     0
147
1.0
148
-427.5957866592534
149
7.362384574453926
100
AcDbLayout
  1
Model
 70
     1
 71
     0
 10
0.0
 20
0.0
 11
12.0
 21
9.0
 12
0.0
 22
0.0
 32
0.0
 14
0.0
 24
0.0
 34
0.0
 15
0.0
 25
0.0
 35
0.0
146
0.0
 13
0.0
 23
0.0
 33
0.0
 16
1.0
 26
0.0
 36
0.0
 17
0.0
 27
1.0
 37
0.0
 76
     0
330
1F
331
1428
  0
MATERIAL
  5
1433
102
{ACAD_XDICTIONARY
360
1434
102
}
102
{ACAD_REACTORS
330
142A
102
}
330
142A
100
AcDbMaterial
  1
ByBlock
 72
     0
 43
0.0008202099737533
 43
0.0
 43
0.0
 43
0.0
 43
0.0
 43
0.0008202099737533
 43
0.0
 43
0.0
 43
0.0
 43
0.0
 43
1.0
 43
0.0
 43
0.0
 43
0.0
 43
0.0
 43
1.0
 77
     0
 47
0.0008202099737533
 47
0.0
 47
0.0
 47
0.0
 47
0.0
 47
0.0008202099737533
 47
0.0
 47
0.0
 47
0.0
 47
0.0
 47
1.0
 47
0.0
 47
0.0
 47
0.0
 47
0.0
 47
1.0
171
     0
 49
0.0008202099737533
 49
0.0
 49
0.0
 49
0.0
 49
0.0
 49
0.0008202099737533
 49
0.0
 49
0.0
 49
0.0
 49
0.0
 49
1.0
 49
0.0
 49
0.0
 49
0.0
 49
0.0
 49
1.0
175
     0
142
0.0008202099737533
142
0.0
142
0.0
142
0.0
142
0.0
142
0.0008202099737533
142
0.0
142
0.0
142
0.0
142
0.0
142
1.0
142
0.0
142
0.0
142
0.0
142
0.0
142
1.0
179
     0
144
0.0008202099737533
144
0.0
144
0.0
144
0.0
144
0.0
144
0.0008202099737533
144
0.0
144
0.0
144
0.0
144
0.0
144
1.0
144
0.0
144
0.0
144
0.0
144
0.0
144
1.0
147
0.0008202099737533
147
0.0
147
0.0
147
0.0
147
0.0
147
0.0008202099737533
147
0.0
147
0.0
147
0.0
147
0.0
147
1.0
147
0.0
147
0.0
147
0.0
147
0.0
147
1.0
  0
MATERIAL
  5
142B
102
{ACAD_XDICTIONARY
360
142C
102
}
102
{ACAD_REACTORS
330
142A
102
}
330
142A
100
AcDbMaterial
  1
ByLayer
 72
     0
 43
0.0008202099737533
 43
0.0
 43
0.0
 43
0.0
 43
0.0
 43
0.0008202099737533
 43
0.0
 43
0.0
 43
0.0
 43
0.0
 43
1.0
 43
0.0
 43
0.0
 43
0.0
 43
0.0
 43
1.0
 77
     0
 47
0.0008202099737533
 47
0.0
 47
0.0
 47
0.0
 47
0.0
 47
0.0008202099737533
 47
0.0
 47
0.0
 47
0.0
 47
0.0
 47
1.0
 47
0.0
 47
0.0
 47
0.0
 47
0.0
 47
1.0
171
     0
 49
0.0008202099737533
 49
0.0
 49
0.0
 49
0.0
 49
0.0
 49
0.0008202099737533
 49
0.0
 49
0.0
 49
0.0
 49
0.0
 49
1.0
 49
0.0
 49
0.0
 49
0.0
 49
0.0
 49
1.0
175
     0
142
0.0008202099737533
142
0.0
142
0.0
142
0.0
142
0.0
142
0.0008202099737533
142
0.0
142
0.0
142
0.0
142
0.0
142
1.0
142
0.0
142
0.0
142
0.0
142
0.0
142
1.0
179
     0
144
0.0008202099737533
144
0.0
144
0.0
144
0.0
144
0.0
144
0.0008202099737533
144
0.0
144
0.0
144
0.0
144
0.0
144
1.0
144
0.0
144
0.0
144
0.0
144
0.0
144
1.0
147
0.0008202099737533
147
0.0
147
0.0
147
0.0
147
0.0
147
0.0008202099737533
147
0.0
147
0.0
147
0.0
147
0.0
147
1.0
147
0.0
147
0.0
147
0.0
147
0.0
147
1.0
  0
MATERIAL
  5
143B
102
{ACAD_XDICTIONARY
360
143C
102
}
102
{ACAD_REACTORS
330
142A
102
}
330
142A
100
AcDbMaterial
  1
Global
 72
     0
 43
0.0008202099737533
 43
0.0
 43
0.0
 43
0.0
 43
0.0
 43
0.0008202099737533
 43
0.0
 43
0.0
 43
0.0
 43
0.0
 43
1.0
 43
0.0
 43
0.0
 43
0.0
 43
0.0
 43
1.0
 77
     0
 47
0.0008202099737533
 47
0.0
 47
0.0
 47
0.0
 47
0.0
 47
0.0008202099737533
 47
0.0
 47
0.0
 47
0.0
 47
0.0
 47
1.0
 47
0.0
 47
0.0
 47
0.0
 47
0.0
 47
1.0
171
     0
 49
0.0008202099737533
 49
0.0
 49
0.0
 49
0.0
 49
0.0
 49
0.0008202099737533
 49
0.0
 49
0.0
 49
0.0
 49
0.0
 49
1.0
 49
0.0
 49
0.0
 49
0.0
 49
0.0
 49
1.0
175
     0
142
0.0008202099737533
142
0.0
142
0.0
142
0.0
142
0.0
142
0.0008202099737533
142
0.0
142
0.0
142
0.0
142
0.0
142
1.0
142
0.0
142
0.0
142
0.0
142
0.0
142
1.0
179
     0
144
0.0008202099737533
144
0.0
144
0.0
144
0.0
144
0.0
144
0.0008202099737533
144
0.0
144
0.0
144
0.0
144
0.0
144
1.0
144
0.0
144
0.0
144
0.0
144
0.0
144
1.0
147
0.0008202099737533
147
0.0
147
0.0
147
0.0
147
0.0
147
0.0008202099737533
147
0.0
147
0.0
147
0.0
147
0.0
147
1.0
147
0.0
147
0.0
147
0.0
147
0.0
147
1.0
  0
MLEADERSTYLE
  5
146D
102
{ACAD_REACTORS
330
146C
102
}
330
146C
100
AcDbMLeaderStyle
170
     2
171
     1
172
     0
 90
        2
 40
0.0
 41
0.0
173
     1
 91
-1056964608
340
14
 92
       -2
290
     1
 42
2.0
291
     1
 43
0.36
  3
Standard
 44
4.0
300

342
11
174
     1
178
     6
175
     1
176
     0
 93
-1056964608
 45
4.0
292
     0
297
     0
 46
4.0
 94
-1056964608
 47
1.0
 49
1.0
140
1.0
293
     1
141
0.0
294
     1
177
     0
142
1.0
295
     0
296
     0
143
0.125
1001
ACAD_MLEADERVER
1070
     2
  0
MLINESTYLE
  5
18
102
{ACAD_REACTORS
330
17
102
}
330
17
100
AcDbMlineStyle
  2
STANDARD
 70
     0
  3

 62
   256
 51
90.0
 52
90.0
 71
     2
 49
0.5
 62
   256
  6
BYLAYER
 49
-0.5
 62
   256
  6
BYLAYER
  0
ACDBPLACEHOLDER
  5
F
102
{ACAD_REACTORS
330
E
102
}
330
E
  0
SCALE
  5
145B
102
{ACAD_REACTORS
330
145A
102
}
330
145A
100
AcDbScale
 70
     0
300
1:1
140
1.0
141
1.0
290
     1
  0
SCALE
  5
145C
102
{ACAD_REACTORS
330
145A
102
}
330
145A
100
AcDbScale
 70
     0
300
1:2
140
1.0
141
2.0
290
     0
  0
SCALE
  5
145D
102
{ACAD_REACTORS
330
145A
102
}
330
145A
100
AcDbScale
 70
     0
300
1:4
140
1.0
141
4.0
290
     0
  0
SCALE
  5
145E
102
{ACAD_REACTORS
330
145A
102
}
330
145A
100
AcDbScale
 70
     0
300
1:5
140
1.0
141
5.0
290
     0
  0
SCALE
  5
145F
102
{ACAD_REACTORS
330
145A
102
}
330
145A
100
AcDbScale
 70
     0
300
1:8
140
1.0
141
8.0
290
     0
  0
SCALE
  5
1460
102
{ACAD_REACTORS
330
145A
102
}
330
145A
100
AcDbScale
 70
     0
300
1:10
140
1.0
141
10.0
290
     0
  0
SCALE
  5
1461
102
{ACAD_REACTORS
330
145A
102
}
330
145A
100
AcDbScale
 70
     0
300
1:16
140
1.0
141
16.0
290
     0
  0
SCALE
  5
1462
102
{ACAD_REACTORS
330
145A
102
}
330
145A
100
AcDbScale
 70
     0
300
1:20
140
1.0
141
20.0
290
     0
  0
SCALE
  5
1463
102
{ACAD_REACTORS
330
145A
102
}
330
145A
100
AcDbScale
 70
     0
300
1:30
140
1.0
141
30.0
290
     0
  0
SCALE
  5
1464
102
{ACAD_REACTORS
330
145A
102
}
330
145A
100
AcDbScale
 70
     0
300
1:40
140
1.0
141
40.0
290
     0
  0
SCALE
  5
1465
102
{ACAD_REACTORS
330
145A
102
}
330
145A
100
AcDbScale
 70
     0
300
1:50
140
1.0
141
50.0
290
     0
  0
SCALE
  5
1466
102
{ACAD_REACTORS
330
145A
102
}
330
145A
100
AcDbScale
 70
     0
300
1:100
140
1.0
141
100.0
290
     0
  0
SCALE
  5
1467
102
{ACAD_REACTORS
330
145A
102
}
330
145A
100
AcDbScale
 70
     0
300
2:1
140
2.0
141
1.0
290
     0
  0
SCALE
  5
1468
102
{ACAD_REACTORS
330
145A
102
}
330
145A
100
AcDbScale
 70
     0
300
4:1
140
4.0
141
1.0
290
     0
  0
SCALE
  5
1469
102
{ACAD_REACTORS
330
145A
102
}
330
145A
100
AcDbScale
 70
     0
300
8:1
140
8.0
141
1.0
290
     0
  0
SCALE
  5
146A
102
{ACAD_REACTORS
330
145A
102
}
330
145A
100
AcDbScale
 70
     0
300
10:1
140
10.0
141
1.0
290
     0
  0
SCALE
  5
146B
102
{ACAD_REACTORS
330
145A
102
}
330
145A
100
AcDbScale
 70
     0
300
100:1
140
100.0
141
1.0
290
     0
  0
TABLESTYLE
  5
1459
102
{ACAD_XDICTIONARY
360
1497
102
}
102
{ACAD_REACTORS
330
1458
102
}
330
1458
100
AcDbTableStyle
  3
Standard
 70
     0
 71
     0
 40
1.5
 41
1.5
280
     0
281
     0
  7
Standard
140
4.5
170
     2
 62
     0
 63
     7
283
     0
274
    -2
284
     1
 64
     0
275
    -2
285
     1
 65
     0
276
    -2
286
     1
 66
     0
277
    -2
287
     1
 67
     0
278
    -2
288
     1
 68
     0
279
    -2
289
     1
 69
     0
  7
Standard
140
6.0
170
     5
 62
     0
 63
     7
283
     0
274
    -2
284
     1
 64
     0
275
    -2
285
     1
 65
     0
276
    -2
286
     1
 66
     0
277
    -2
287
     1
 67
     0
278
    -2
288
     1
 68
     0
279
    -2
289
     1
 69
     0
  7
Standard
140
4.5
170
     5
 62
     0
 63
     7
283
     0
274
    -2
284
     1
 64
     0
275
    -2
285
     1
 65
     0
276
    -2
286
     1
 66
     0
277
    -2
287
     1
 67
     0
278
    -2
288
     1
 68
     0
279
    -2
289
     1
 69
     0
  0
VISUALSTYLE
  5
1449
102
{ACAD_XDICTIONARY
360
14B2
102
}
102
{ACAD_REACTORS
330
1443
102
}
330
1443
100
AcDbVisualStyle
  2
2dWireframe
 70
     4
 71
     0
 72
     2
 73
     0
 90
        0
 40
-0.6
 41
-30.0
 62
     5
 63
     7
 74
     1
 91
        4
 64
     7
 65
   257
 75
     1
175
     1
 42
1.0
 92
        0
 66
   257
 43
1.0
 76
     1
 77
     6
 78
     2
 67
     7
 79
     5
170
     0
171
     0
290
     0
174
     0
 93
        1
 44
0.0
173
     0
291
     0
 45
0.0
1001
ACAD
1000
AcDbSavedByObjectVersion
1070
     0
  0
VISUALSTYLE
  5
144B
102
{ACAD_XDICTIONARY
360
14B6
102
}
102
{ACAD_REACTORS
330
1443
102
}
330
1443
100
AcDbVisualStyle
  2
3D Hidden
 70
     6
 71
     1
 72
     2
 73
     2
 90
        0
 40
-0.6
 41
-30.0
 62
     5
 63
     7
 74
     2
 91
        2
 64
     7
 65
   257
 75
     2
175
     1
 42
179.0
 92
        0
 66
   257
 43
1.0
 76
     1
 77
     6
 78
     2
 67
     7
 79
     3
170
     0
171
     0
290
     0
174
     0
 93
        1
 44
0.0
173
     0
291
     0
 45
0.0
1001
ACAD
1000
AcDbSavedByObjectVersion
1070
     0
  0
VISUALSTYLE
  5
144A
102
{ACAD_XDICTIONARY
360
14B4
102
}
102
{ACAD_REACTORS
330
1443
102
}
330
1443
100
AcDbVisualStyle
  2
3dWireframe
 70
     5
 71
     0
 72
     2
 73
     0
 90
        0
 40
-0.6
 41
-30.0
 62
     5
 63
     7
 74
     1
 91
        4
 64
     7
 65
   257
 75
     1
175
     1
 42
1.0
 92
        0
 66
   257
 43
1.0
 76
     1
 77
     6
 78
     2
 67
     7
 79
     5
170
     0
171
     0
290
     0
174
     0
 93
        1
 44
0.0
173
     0
291
     0
 45
0.0
1001
ACAD
1000
AcDbSavedByObjectVersion
1070
     0
  0
VISUALSTYLE
  5
1448
102
{ACAD_XDICTIONARY
360
14B0
102
}
102
{ACAD_REACTORS
330
1443
102
}
330
1443
100
AcDbVisualStyle
  2
Basic
 70
     7
 71
     1
 72
     0
 73
     1
 90
        0
 40
-0.6
 41
-30.0
 62
     5
 63
     7
 74
     0
 91
        4
 64
     7
 65
   257
 75
     1
175
     1
 42
1.0
 92
        8
 66
     7
 43
1.0
 76
     1
 77
     6
 78
     2
 67
     7
 79
     5
170
     0
171
     0
290
     0
174
     0
 93
        1
 44
0.0
173
     0
291
     1
 45
0.0
1001
ACAD
1000
AcDbSavedByObjectVersion
1070
     0
  0
VISUALSTYLE
  5
144F
102
{ACAD_XDICTIONARY
360
14BE
102
}
102
{ACAD_REACTORS
330
1443
102
}
330
1443
100
AcDbVisualStyle
  2
Brighten
 70
    12
 71
     2
 72
     2
 73
     0
 90
        0
 40
-0.6
 41
-30.0
 62
     5
 63
     7
 74
     1
 91
        4
 64
     7
 65
   257
 75
     1
175
     1
 42
1.0
 92
        8
 66
     7
 43
1.0
 76
     1
 77
     6
 78
     2
 67
     7
 79
     5
170
     0
171
     0
290
     0
174
     0
 93
        1
 44
50.0
173
     0
291
     1
 45
0.0
1001
ACAD
1000
AcDbSavedByObjectVersion
1070
     0
  0
VISUALSTYLE
  5
1453
102
{ACAD_XDICTIONARY
360
14C6
102
}
102
{ACAD_REACTORS
330
1443
102
}
330
1443
100
AcDbVisualStyle
  2
ColorChange
 70
    16
 71
     2
 72
     2
 73
     3
 90
        0
 40
-0.6
 41
-30.0
 62
     5
 63
     8
 74
     1
 91
        4
 64
     7
 65
   257
 75
     1
175
     1
 42
1.0
 92
        8
 66
     8
 43
1.0
 76
     1
 77
     6
 78
     2
 67
     7
 79
     5
170
     0
171
     0
290
     0
174
     0
 93
        1
 44
0.0
173
     0
291
     1
 45
0.0
1001
ACAD
1000
AcDbSavedByObjectVersion
1070
     0
  0
VISUALSTYLE
  5
144C
102
{ACAD_XDICTIONARY
360
14B8
102
}
102
{ACAD_REACTORS
330
1443
102
}
330
1443
100
AcDbVisualStyle
  2
Conceptual
 70
     9
 71
     3
 72
     2
 73
     0
 90
        0
 40
-0.6
 41
-30.0
 62
     5
 63
     7
 74
     2
 91
        2
 64
     7
 65
   257
 75
     1
175
     1
 42
179.0
 92
        8
 66
     7
 43
1.0
 76
     1
 77
     6
 78
     2
 67
     7
 79
     3
170
     0
171
     0
290
     0
174
     0
 93
        1
 44
0.0
173
     0
291
     0
 45
0.0
1001
ACAD
1000
AcDbSavedByObjectVersion
1070
     0
  0
VISUALSTYLE
  5
144E
102
{ACAD_XDICTIONARY
360
14BC
102
}
102
{ACAD_REACTORS
330
1443
102
}
330
1443
100
AcDbVisualStyle
  2
Dim
 70
    11
 71
     2
 72
     2
 73
     0
 90
        0
 40
-0.6
 41
-30.0
 62
     5
 63
     7
 74
     1
 91
        4
 64
     7
 65
   257
 75
     1
175
     1
 42
1.0
 92
        8
 66
     7
 43
1.0
 76
     1
 77
     6
 78
     2
 67
     7
 79
     5
170
     0
171
     0
290
     0
174
     0
 93
        1
 44
-50.0
173
     0
291
     1
 45
0.0
1001
ACAD
1000
AcDbSavedByObjectVersion
1070
     0
  0
VISUALSTYLE
  5
1456
102
{ACAD_XDICTIONARY
360
14CC
102
}
102
{ACAD_REACTORS
330
1443
102
}
330
1443
100
AcDbVisualStyle
  2
EdgeColorOff
 70
    22
 71
     2
 72
     2
 73
     0
 90
        0
 40
-0.6
 41
-30.0
 62
     5
 63
     7
 74
     1
 91
        4
 64
     7
 65
   257
 75
     1
175
     1
 42
1.0
 92
        8
 66
     7
 43
1.0
 76
     1
 77
     6
 78
     2
 67
     7
 79
     5
170
     0
171
     0
290
     0
174
     0
 93
        1
 44
0.0
173
     0
291
     1
 45
0.0
1001
ACAD
1000
AcDbSavedByObjectVersion
1070
     0
  0
VISUALSTYLE
  5
1452
102
{ACAD_XDICTIONARY
360
14C4
102
}
102
{ACAD_REACTORS
330
1443
102
}
330
1443
100
AcDbVisualStyle
  2
Facepattern
 70
    15
 71
     2
 72
     2
 73
     0
 90
        0
 40
-0.6
 41
-30.0
 62
     5
 63
     7
 74
     1
 91
        4
 64
     7
 65
   257
 75
     1
175
     1
 42
1.0
 92
        8
 66
     7
 43
1.0
 76
     1
 77
     6
 78
     2
 67
     7
 79
     5
170
     0
171
     0
290
     0
174
     0
 93
        1
 44
0.0
173
     0
291
     1
 45
0.0
1001
ACAD
1000
AcDbSavedByObjectVersion
1070
     0
  0
VISUALSTYLE
  5
1444
102
{ACAD_XDICTIONARY
360
14A8
102
}
102
{ACAD_REACTORS
330
1443
102
}
330
1443
100
AcDbVisualStyle
  2
Flat
 70
     0
 71
     2
 72
     1
 73
     1
 90
        2
 40
-0.6
 41
30.0
 62
     5
 63
     7
 74
     0
 91
        4
 64
     7
 65
   257
 75
     1
175
     1
 42
1.0
 92
        8
 66
     7
 43
1.0
 76
     1
 77
     6
 78
     2
 67
     7
 79
     5
170
     0
171
     0
290
     0
174
     0
 93
       13
 44
0.0
173
     0
291
     1
 45
0.0
1001
ACAD
1000
AcDbSavedByObjectVersion
1070
     0
  0
VISUALSTYLE
  5
1445
102
{ACAD_XDICTIONARY
360
14AA
102
}
102
{ACAD_REACTORS
330
1443
102
}
330
1443
100
AcDbVisualStyle
  2
FlatWithEdges
 70
     1
 71
     2
 72
     1
 73
     1
 90
        2
 40
-0.6
 41
30.0
 62
     5
 63
     7
 74
     1
 91
        4
 64
     7
 65
   257
 75
     1
175
     1
 42
1.0
 92
        0
 66
   257
 43
1.0
 76
     1
 77
     6
 78
     2
 67
     7
 79
     5
170
     0
171
     0
290
     0
174
     0
 93
       13
 44
0.0
173
     0
291
     1
 45
0.0
1001
ACAD
1000
AcDbSavedByObjectVersion
1070
     0
  0
VISUALSTYLE
  5
1446
102
{ACAD_XDICTIONARY
360
14AC
102
}
102
{ACAD_REACTORS
330
1443
102
}
330
1443
100
AcDbVisualStyle
  2
Gouraud
 70
     2
 71
     2
 72
     2
 73
     1
 90
        2
 40
-0.6
 41
30.0
 62
     5
 63
     7
 74
     0
 91
        4
 64
     7
 65
   257
 75
     1
175
     1
 42
1.0
 92
        0
 66
     7
 43
1.0
 76
     1
 77
     6
 78
     2
 67
     7
 79
     5
170
     0
171
     0
290
     0
174
     0
 93
       13
 44
0.0
173
     0
291
     1
 45
0.0
1001
ACAD
1000
AcDbSavedByObjectVersion
1070
     0
  0
VISUALSTYLE
  5
1447
102
{ACAD_XDICTIONARY
360
14AE
102
}
102
{ACAD_REACTORS
330
1443
102
}
330
1443
100
AcDbVisualStyle
  2
GouraudWithEdges
 70
     3
 71
     2
 72
     2
 73
     1
 90
        2
 40
-0.6
 41
30.0
 62
     5
 63
     7
 74
     1
 91
        4
 64
     7
 65
   257
 75
     1
175
     1
 42
1.0
 92
        0
 66
   257
 43
1.0
 76
     1
 77
     6
 78
     2
 67
     7
 79
     5
170
     0
171
     0
290
     0
174
     0
 93
       13
 44
0.0
173
     0
291
     1
 45
0.0
1001
ACAD
1000
AcDbSavedByObjectVersion
1070
     0
  0
VISUALSTYLE
  5
1454
102
{ACAD_XDICTIONARY
360
14C8
102
}
102
{ACAD_REACTORS
330
1443
102
}
330
1443
100
AcDbVisualStyle
  2
JitterOff
 70
    20
 71
     2
 72
     2
 73
     0
 90
        0
 40
-0.6
 41
-30.0
 62
     5
 63
     7
 74
     1
 91
        4
 64
     7
 65
   257
 75
     1
175
     1
 42
1.0
 92
       10
 66
     7
 43
1.0
 76
     1
 77
     6
 78
     2
 67
     7
 79
     5
170
     0
171
     0
290
     0
174
     0
 93
        1
 44
0.0
173
     0
291
     1
 45
0.0
1001
ACAD
1000
AcDbSavedByObjectVersion
1070
     0
  0
VISUALSTYLE
  5
1451
102
{ACAD_XDICTIONARY
360
14C2
102
}
102
{ACAD_REACTORS
330
1443
102
}
330
1443
100
AcDbVisualStyle
  2
Linepattern
 70
    14
 71
     2
 72
     2
 73
     0
 90
        0
 40
-0.6
 41
-30.0
 62
     5
 63
     7
 74
     1
 91
        4
 64
     7
 65
   257
 75
     7
175
     7
 42
1.0
 92
        8
 66
     7
 43
1.0
 76
     1
 77
     6
 78
     2
 67
     7
 79
     5
170
     0
171
     0
290
     0
174
     0
 93
        1
 44
0.0
173
     0
291
     1
 45
0.0
1001
ACAD
1000
AcDbSavedByObjectVersion
1070
     0
  0
VISUALSTYLE
  5
1455
102
{ACAD_XDICTIONARY
360
14CA
102
}
102
{ACAD_REACTORS
330
1443
102
}
330
1443
100
AcDbVisualStyle
  2
OverhangOff
 70
    21
 71
     2
 72
     2
 73
     0
 90
        0
 40
-0.6
 41
-30.0
 62
     5
 63
     7
 74
     1
 91
        4
 64
     7
 65
   257
 75
     1
175
     1
 42
1.0
 92
        9
 66
     7
 43
1.0
 76
     1
 77
     6
 78
     2
 67
     7
 79
     5
170
     0
171
     0
290
     0
174
     0
 93
        1
 44
0.0
173
     0
291
     1
 45
0.0
1001
ACAD
1000
AcDbSavedByObjectVersion
1070
     0
  0
VISUALSTYLE
  5
144D
102
{ACAD_XDICTIONARY
360
14BA
102
}
102
{ACAD_REACTORS
330
1443
102
}
330
1443
100
AcDbVisualStyle
  2
Realistic
 70
     8
 71
     2
 72
     2
 73
     0
 90
        0
 40
-0.6
 41
-30.0
 62
     5
 63
     7
 74
     1
 91
        0
 64
     7
 65
   257
 75
     1
175
     1
 42
1.0
 92
        8
 66
     8
 43
1.0
 76
     1
 77
     6
 78
     2
 67
     7
 79
     5
170
     0
171
     0
290
     0
174
     0
 93
       13
 44
0.0
173
     0
291
     0
 45
0.0
1001
ACAD
1000
AcDbSavedByObjectVersion
1070
     0
  0
VISUALSTYLE
  5
1450
102
{ACAD_XDICTIONARY
360
14C0
102
}
102
{ACAD_REACTORS
330
1443
102
}
330
1443
100
AcDbVisualStyle
  2
Thicken
 70
    13
 71
     2
 72
     2
 73
     0
 90
        0
 40
-0.6
 41
-30.0
 62
     5
 63
     7
 74
     1
 91
        4
 64
     7
 65
   257
 75
     1
175
     1
 42
1.0
 92
       12
 66
     7
 43
1.0
 76
     1
 77
     6
 78
     2
 67
     7
 79
     5
170
     0
171
     0
290
     0
174
     0
 93
        1
 44
0.0
173
     0
291
     1
 45
0.0
1001
ACAD
1000
AcDbSavedByObjectVersion
1070
     0
  0
DICTIONARYVAR
  5
1493
102
{ACAD_REACTORS
330
3D
102
}
330
3D
100
DictionaryVariables
280
     0
  1
1:1
  0
DICTIONARYVAR
  5
1492
102
{ACAD_REACTORS
330
3D
102
}
330
3D
100
DictionaryVariables
280
     0
  1
STANDARD
  0
DICTIONARYVAR
  5
1491
102
{ACAD_REACTORS
330
3D
102
}
330
3D
100
DictionaryVariables
280
     0
  1
STANDARD
  0
DICTIONARYVAR
  5
3F
102
{ACAD_REACTORS
330
3D
102
}
330
3D
100
DictionaryVariables
280
     0
  1
2
  0
DICTIONARYVAR
  5
3E
102
{ACAD_REACTORS
330
3D
102
}
330
3D
100
DictionaryVariables
280
     0
  1
1
  0
DICTIONARYVAR
  5
1495
102
{ACAD_REACTORS
330
3D
102
}
330
3D
100
DictionaryVariables
280
     0
  1
0
  0
DICTIONARYVAR
  5
1494
102
{ACAD_REACTORS
330
3D
102
}
330
3D
100
DictionaryVariables
280
     0
  1
127
  0
DICTIONARYVAR
  5
1496
102
{ACAD_REACTORS
330
3D
102
}
330
3D
100
DictionaryVariables
280
     0
  1
2
  0
XRECORD
  5
B9A
102
{ACAD_REACTORS
330
B99
102
}
330
B99
100
AcDbXrecord
280
     1
  0
DICTIONARY
  5
149B
330
1E
100
AcDbDictionary
280
     1
281
     1
  3
ACAD_XREC_ROUNDTRIP
360
149C
  0
DICTIONARY
  5
149F
330
26
100
AcDbDictionary
280
     1
281
     1
  3
ACAD_XREC_ROUNDTRIP
360
14A0
  0
DICTIONARY
  5
149D
330
22
100
AcDbDictionary
280
     1
281
     1
  3
ACAD_XREC_ROUNDTRIP
360
149E
  0
DICTIONARY
  5
1434
330
1433
100
AcDbDictionary
280
     1
281
     1
  3
ACAD_XREC_ROUNDTRIP
360
14A6
  3
BUMPTILE
360
1436
  3
DIFFUSETILE
360
1435
  3
OPACITYTILE
360
1439
  3
REFLECTIONTILE
360
1438
  3
REFRACTIONTILE
360
143A
  3
SPECULARTILE
360
1437
  0
DICTIONARY
  5
142C
330
142B
100
AcDbDictionary
280
     1
281
     1
  3
ACAD_XREC_ROUNDTRIP
360
14A5
  3
BUMPTILE
360
142E
  3
DIFFUSETILE
360
142D
  3
OPACITYTILE
360
1431
  3
REFLECTIONTILE
360
1430
  3
REFRACTIONTILE
360
1432
  3
SPECULARTILE
360
142F
  0
DICTIONARY
  5
143C
330
143B
100
AcDbDictionary
280
     1
281
     1
  3
ACAD_XREC_ROUNDTRIP
360
14A7
  3
BUMPTILE
360
143E
  3
DIFFUSETILE
360
143D
  3
OPACITYTILE
360
1441
  3
REFLECTIONTILE
360
1440
  3
REFRACTIONTILE
360
1442
  3
SPECULARTILE
360
143F
  0
DICTIONARY
  5
1497
330
1459
100
AcDbDictionary
280
     1
281
     1
  3
ACAD_ROUNDTRIP_2008_TABLESTYLE_CELLSTYLEMAP
360
1498
  3
ACAD_XREC_ROUNDTRIP
360
14CE
  0
DICTIONARY
  5
14B2
330
1449
100
AcDbDictionary
280
     1
281
     1
  3
ACAD_XREC_ROUNDTRIP
360
14B3
  0
DICTIONARY
  5
14B6
330
144B
100
AcDbDictionary
280
     1
281
     1
  3
ACAD_XREC_ROUNDTRIP
360
14B7
  0
DICTIONARY
  5
14B4
330
144A
100
AcDbDictionary
280
     1
281
     1
  3
ACAD_XREC_ROUNDTRIP
360
14B5
  0
DICTIONARY
  5
14B0
330
1448
100
AcDbDictionary
280
     1
281
     1
  3
ACAD_XREC_ROUNDTRIP
360
14B1
  0
DICTIONARY
  5
14BE
330
144F
100
AcDbDictionary
280
     1
281
     1
  3
ACAD_XREC_ROUNDTRIP
360
14BF
  0
DICTIONARY
  5
14C6
330
1453
100
AcDbDictionary
280
     1
281
     1
  3
ACAD_XREC_ROUNDTRIP
360
14C7
  0
DICTIONARY
  5
14B8
330
144C
100
AcDbDictionary
280
     1
281
     1
  3
ACAD_XREC_ROUNDTRIP
360
14B9
  0
DICTIONARY
  5
14BC
330
144E
100
AcDbDictionary
280
     1
281
     1
  3
ACAD_XREC_ROUNDTRIP
360
14BD
  0
DICTIONARY
  5
14CC
330
1456
100
AcDbDictionary
280
     1
281
     1
  3
ACAD_XREC_ROUNDTRIP
360
14CD
  0
DICTIONARY
  5
14C4
330
1452
100
AcDbDictionary
280
     1
281
     1
  3
ACAD_XREC_ROUNDTRIP
360
14C5
  0
DICTIONARY
  5
14A8
330
1444
100
AcDbDictionary
280
     1
281
     1
  3
ACAD_XREC_ROUNDTRIP
360
14A9
  0
DICTIONARY
  5
14AA
330
1445
100
AcDbDictionary
280
     1
281
     1
  3
ACAD_XREC_ROUNDTRIP
360
14AB
  0
DICTIONARY
  5
14AC
330
1446
100
AcDbDictionary
280
     1
281
     1
  3
ACAD_XREC_ROUNDTRIP
360
14AD
  0
DICTIONARY
  5
14AE
330
1447
100
AcDbDictionary
280
     1
281
     1
  3
ACAD_XREC_ROUNDTRIP
360
14AF
  0
DICTIONARY
  5
14C8
330
1454
100
AcDbDictionary
280
     1
281
     1
  3
ACAD_XREC_ROUNDTRIP
360
14C9
  0
DICTIONARY
  5
14C2
330
1451
100
AcDbDictionary
280
     1
281
     1
  3
ACAD_XREC_ROUNDTRIP
360
14C3
  0
DICTIONARY
  5
14CA
330
1455
100
AcDbDictionary
280
     1
281
     1
  3
ACAD_XREC_ROUNDTRIP
360
14CB
  0
DICTIONARY
  5
14BA
330
144D
100
AcDbDictionary
280
     1
281
     1
  3
ACAD_XREC_ROUNDTRIP
360
14BB
  0
DICTIONARY
  5
14C0
330
1450
100
AcDbDictionary
280
     1
281
     1
  3
ACAD_XREC_ROUNDTRIP
360
14C1
  0
XRECORD
  5
149C
102
{ACAD_REACTORS
330
149B
102
}
330
149B
100
AcDbXrecord
280
     1
102
SHADEPLOT
 70
     0
102
SHADEPLOTRESLEVEL
 70
     2
102
SHADEPLOTCUSTOMDPI
 70
   300
  0
XRECORD
  5
14A0
102
{ACAD_REACTORS
330
149F
102
}
330
149F
100
AcDbXrecord
280
     1
102
SHADEPLOT
 70
     0
102
SHADEPLOTRESLEVEL
 70
     2
102
SHADEPLOTCUSTOMDPI
 70
   300
  0
XRECORD
  5
149E
102
{ACAD_REACTORS
330
149D
102
}
330
149D
100
AcDbXrecord
280
     1
102
SHADEPLOT
 70
     0
102
SHADEPLOTRESLEVEL
 70
     2
102
SHADEPLOTCUSTOMDPI
 70
   300
  0
XRECORD
  5
14A6
102
{ACAD_REACTORS
330
1434
102
}
330
1434
100
AcDbXrecord
280
     1
102
MATERIAL
148
0.0
149
0.0
149
0.0
 93
        0
 94
      127
282
     0
 72
     0
 77
     0
171
     0
175
     0
179
     0
273
     0
  0
XRECORD
  5
1436
102
{ACAD_REACTORS
330
1434
102
}
330
1434
100
AcDbXrecord
280
     1
270
     1
271
     1
  0
XRECORD
  5
1435
102
{ACAD_REACTORS
330
1434
102
}
330
1434
100
AcDbXrecord
280
     1
270
     1
271
     1
  0
XRECORD
  5
1439
102
{ACAD_REACTORS
330
1434
102
}
330
1434
100
AcDbXrecord
280
     1
270
     1
271
     1
  0
XRECORD
  5
1438
102
{ACAD_REACTORS
330
1434
102
}
330
1434
100
AcDbXrecord
280
     1
270
     1
271
     1
  0
XRECORD
  5
143A
102
{ACAD_REACTORS
330
1434
102
}
330
1434
100
AcDbXrecord
280
     1
270
     1
271
     1
  0
XRECORD
  5
1437
102
{ACAD_REACTORS
330
1434
102
}
330
1434
100
AcDbXrecord
280
     1
270
     1
271
     1
  0
XRECORD
  5
14A5
102
{ACAD_REACTORS
330
142C
102
}
330
142C
100
AcDbXrecord
280
     1
102
MATERIAL
148
0.0
149
0.0
149
0.0
 93
        0
 94
      127
282
     0
 72
     0
 77
     0
171
     0
175
     0
179
     0
273
     0
  0
XRECORD
  5
142E
102
{ACAD_REACTORS
330
142C
102
}
330
142C
100
AcDbXrecord
280
     1
270
     1
271
     1
  0
XRECORD
  5
142D
102
{ACAD_REACTORS
330
142C
102
}
330
142C
100
AcDbXrecord
280
     1
270
     1
271
     1
  0
XRECORD
  5
1431
102
{ACAD_REACTORS
330
142C
102
}
330
142C
100
AcDbXrecord
280
     1
270
     1
271
     1
  0
XRECORD
  5
1430
102
{ACAD_REACTORS
330
142C
102
}
330
142C
100
AcDbXrecord
280
     1
270
     1
271
     1
  0
XRECORD
  5
1432
102
{ACAD_REACTORS
330
142C
102
}
330
142C
100
AcDbXrecord
280
     1
270
     1
271
     1
  0
XRECORD
  5
142F
102
{ACAD_REACTORS
330
142C
102
}
330
142C
100
AcDbXrecord
280
     1
270
     1
271
     1
  0
XRECORD
  5
14A7
102
{ACAD_REACTORS
330
143C
102
}
330
143C
100
AcDbXrecord
280
     1
102
MATERIAL
148
0.0
149
0.0
149
0.0
 93
        0
 94
      127
282
     0
 72
     0
 77
     0
171
     0
175
     0
179
     0
273
     0
  0
XRECORD
  5
143E
102
{ACAD_REACTORS
330
143C
102
}
330
143C
100
AcDbXrecord
280
     1
270
     1
271
     1
  0
XRECORD
  5
143D
102
{ACAD_REACTORS
330
143C
102
}
330
143C
100
AcDbXrecord
280
     1
270
     1
271
     1
  0
XRECORD
  5
1441
102
{ACAD_REACTORS
330
143C
102
}
330
143C
100
AcDbXrecord
280
     1
270
     1
271
     1
  0
XRECORD
  5
1440
102
{ACAD_REACTORS
330
143C
102
}
330
143C
100
AcDbXrecord
280
     1
270
     1
271
     1
  0
XRECORD
  5
1442
102
{ACAD_REACTORS
330
143C
102
}
330
143C
100
AcDbXrecord
280
     1
270
     1
271
     1
  0
XRECORD
  5
143F
102
{ACAD_REACTORS
330
143C
102
}
330
143C
100
AcDbXrecord
280
     1
270
     1
271
     1
  0
CELLSTYLEMAP
  5
1498
102
{ACAD_REACTORS
330
1497
102
}
330
1497
100
AcDbCellStyleMap
 90
        3
300
CELLSTYLE
  1
TABLEFORMAT_BEGIN
 90
        5
170
     1
 91
        0
 92
    32768
 62
   257
 93
        1
300
CONTENTFORMAT
  1
CONTENTFORMAT_BEGIN
 90
        0
 91
        0
 92
      512
 93
        0
300

 40
0.0
140
1.0
 94
        5
 62
     0
340
11
144
6.0
309
CONTENTFORMAT_END
171
     1
301
MARGIN
  1
CELLMARGIN_BEGIN
 40
1.5
 40
1.5
 40
1.5
 40
1.5
 40
4.5
 40
4.5
309
CELLMARGIN_END
 94
        6
 95
        1
302
GRIDFORMAT
  1
GRIDFORMAT_BEGIN
 90
        0
 91
        1
 62
     0
 92
       -2
340
0
 93
        0
 40
1.125
309
GRIDFORMAT_END
 95
        2
302
GRIDFORMAT
  1
GRIDFORMAT_BEGIN
 90
        0
 91
        1
 62
     0
 92
       -2
340
0
 93
        0
 40
1.125
309
GRIDFORMAT_END
 95
        4
302
GRIDFORMAT
  1
GRIDFORMAT_BEGIN
 90
        0
 91
        1
 62
     0
 92
       -2
340
0
 93
        0
 40
1.125
309
GRIDFORMAT_END
 95
        8
302
GRIDFORMAT
  1
GRIDFORMAT_BEGIN
 90
        0
 91
        1
 62
     0
 92
       -2
340
0
 93
        0
 40
1.125
309
GRIDFORMAT_END
 95
       16
302
GRIDFORMAT
  1
GRIDFORMAT_BEGIN
 90
        0
 91
        1
 62
     0
 92
       -2
340
0
 93
        0
 40
1.125
309
GRIDFORMAT_END
 95
       32
302
GRIDFORMAT
  1
GRIDFORMAT_BEGIN
 90
        0
 91
        1
 62
     0
 92
       -2
340
0
 93
        0
 40
1.125
309
GRIDFORMAT_END
309
TABLEFORMAT_END
  1
CELLSTYLE_BEGIN
 90
        1
 91
        1
300
_TITLE
309
CELLSTYLE_END
300
CELLSTYLE
  1
TABLEFORMAT_BEGIN
 90
        5
170
     1
 91
        0
 92
        0
 62
   257
 93
        1
300
CONTENTFORMAT
  1
CONTENTFORMAT_BEGIN
 90
        0
 91
        0
 92
      512
 93
        0
300

 40
0.0
140
1.0
 94
        5
 62
     0
340
11
144
4.5
309
CONTENTFORMAT_END
171
     1
301
MARGIN
  1
CELLMARGIN_BEGIN
 40
1.5
 40
1.5
 40
1.5
 40
1.5
 40
4.5
 40
4.5
309
CELLMARGIN_END
 94
        6
 95
        1
302
GRIDFORMAT
  1
GRIDFORMAT_BEGIN
 90
        0
 91
        1
 62
     0
 92
       -2
340
0
 93
        0
 40
1.125
309
GRIDFORMAT_END
 95
        2
302
GRIDFORMAT
  1
GRIDFORMAT_BEGIN
 90
        0
 91
        1
 62
     0
 92
       -2
340
0
 93
        0
 40
1.125
309
GRIDFORMAT_END
 95
        4
302
GRIDFORMAT
  1
GRIDFORMAT_BEGIN
 90
        0
 91
        1
 62
     0
 92
       -2
340
0
 93
        0
 40
1.125
309
GRIDFORMAT_END
 95
        8
302
GRIDFORMAT
  1
GRIDFORMAT_BEGIN
 90
        0
 91
        1
 62
     0
 92
       -2
340
0
 93
        0
 40
1.125
309
GRIDFORMAT_END
 95
       16
302
GRIDFORMAT
  1
GRIDFORMAT_BEGIN
 90
        0
 91
        1
 62
     0
 92
       -2
340
0
 93
        0
 40
1.125
309
GRIDFORMAT_END
 95
       32
302
GRIDFORMAT
  1
GRIDFORMAT_BEGIN
 90
        0
 91
        1
 62
     0
 92
       -2
340
0
 93
        0
 40
1.125
309
GRIDFORMAT_END
309
TABLEFORMAT_END
  1
CELLSTYLE_BEGIN
 90
        2
 91
        1
300
_HEADER
309
CELLSTYLE_END
300
CELLSTYLE
  1
TABLEFORMAT_BEGIN
 90
        5
170
     1
 91
        0
 92
        0
 62
   257
 93
        1
300
CONTENTFORMAT
  1
CONTENTFORMAT_BEGIN
 90
        0
 91
        0
 92
      512
 93
        0
300

 40
0.0
140
1.0
 94
        2
 62
     0
340
11
144
4.5
309
CONTENTFORMAT_END
171
     1
301
MARGIN
  1
CELLMARGIN_BEGIN
 40
1.5
 40
1.5
 40
1.5
 40
1.5
 40
4.5
 40
4.5
309
CELLMARGIN_END
 94
        6
 95
        1
302
GRIDFORMAT
  1
GRIDFORMAT_BEGIN
 90
        0
 91
        1
 62
     0
 92
       -2
340
0
 93
        0
 40
1.125
309
GRIDFORMAT_END
 95
        2
302
GRIDFORMAT
  1
GRIDFORMAT_BEGIN
 90
        0
 91
        1
 62
     0
 92
       -2
340
0
 93
        0
 40
1.125
309
GRIDFORMAT_END
 95
        4
302
GRIDFORMAT
  1
GRIDFORMAT_BEGIN
 90
        0
 91
        1
 62
     0
 92
       -2
340
0
 93
        0
 40
1.125
309
GRIDFORMAT_END
 95
        8
302
GRIDFORMAT
  1
GRIDFORMAT_BEGIN
 90
        0
 91
        1
 62
     0
 92
       -2
340
0
 93
        0
 40
1.125
309
GRIDFORMAT_END
 95
       16
302
GRIDFORMAT
  1
GRIDFORMAT_BEGIN
 90
        0
 91
        1
 62
     0
 92
       -2
340
0
 93
        0
 40
1.125
309
GRIDFORMAT_END
 95
       32
302
GRIDFORMAT
  1
GRIDFORMAT_BEGIN
 90
        0
 91
        1
 62
     0
 92
       -2
340
0
 93
        0
 40
1.125
309
GRIDFORMAT_END
309
TABLEFORMAT_END
  1
CELLSTYLE_BEGIN
 90
        3
 91
        2
300
_DATA
309
CELLSTYLE_END
  0
XRECORD
  5
14CE
102
{ACAD_REACTORS
330
1497
102
}
330
1497
100
AcDbXrecord
280
     1
102
ACAD_ROUNDTRIP_PRE2007_TABLESTYLE
 90
      512
 91
        0
  1

 92
      512
 93
        0
  2

 94
      512
 95
        0
  3

  0
XRECORD
  5
14B3
102
{ACAD_REACTORS
330
14B2
102
}
330
14B2
100
AcDbXrecord
280
     1
102
RTVSPropertyOp0
 70
     1
102
RTVSPropertyOp1
 70
     1
102
RTVSPropertyOp2
 70
     1
102
RTVSPropertyOp3
 70
     1
102
RTVSPropertyOp4
 70
     1
102
RTVSPropertyOp5
 70
     1
102
RTVSPropertyOp6
 70
     1
102
RTVSPropertyOp7
 70
     1
102
RTVSPropertyOp8
 70
     1
102
RTVSPropertyOp9
 70
     1
102
RTVSPropertyOp10
 70
     1
102
RTVSPropertyOp11
 70
     1
102
RTVSPropertyOp12
 70
     1
102
RTVSPropertyOp13
 70
     1
102
RTVSPropertyOp14
 70
     1
102
RTVSPropertyOp15
 70
     1
102
RTVSPropertyOp16
 70
     1
102
RTVSPropertyOp17
 70
     1
102
RTVSPropertyOp18
 70
     1
102
RTVSPropertyOp19
 70
     1
102
RTVSPropertyOp20
 70
     1
102
RTVSPropertyOp21
 70
     1
102
RTVSPropertyOp22
 70
     1
102
RTVSPropertyOp23
 70
     1
102
RTVSPropertyOp24
 70
     1
102
RTVSPropertyOp25
 70
     1
102
RTVSPropertyOp26
 70
     1
102
RTVSPropertyOp27
 70
     1
  0
XRECORD
  5
14B7
102
{ACAD_REACTORS
330
14B6
102
}
330
14B6
100
AcDbXrecord
280
     1
102
RTVSPropertyOp0
 70
     1
102
RTVSPropertyOp1
 70
     1
102
RTVSPropertyOp2
 70
     1
102
RTVSPropertyOp3
 70
     1
102
RTVSPropertyOp4
 70
     1
102
RTVSPropertyOp5
 70
     1
102
RTVSPropertyOp6
 70
     1
102
RTVSPropertyOp7
 70
     1
102
RTVSPropertyOp8
 70
     1
102
RTVSPropertyOp9
 70
     1
102
RTVSPropertyOp10
 70
     1
102
RTVSPropertyOp11
 70
     1
102
RTVSPropertyOp12
 70
     1
102
RTVSPropertyOp13
 70
     1
102
RTVSPropertyOp14
 70
     1
102
RTVSPropertyOp15
 70
     1
102
RTVSPropertyOp16
 70
     1
102
RTVSPropertyOp17
 70
     1
102
RTVSPropertyOp18
 70
     1
102
RTVSPropertyOp19
 70
     1
102
RTVSPropertyOp20
 70
     1
102
RTVSPropertyOp21
 70
     1
102
RTVSPropertyOp22
 70
     1
102
RTVSPropertyOp23
 70
     1
102
RTVSPropertyOp24
 70
     1
102
RTVSPropertyOp25
 70
     1
102
RTVSPropertyOp26
 70
     1
102
RTVSPropertyOp27
 70
     1
  0
XRECORD
  5
14B5
102
{ACAD_REACTORS
330
14B4
102
}
330
14B4
100
AcDbXrecord
280
     1
102
RTVSPropertyOp0
 70
     1
102
RTVSPropertyOp1
 70
     1
102
RTVSPropertyOp2
 70
     1
102
RTVSPropertyOp3
 70
     1
102
RTVSPropertyOp4
 70
     1
102
RTVSPropertyOp5
 70
     1
102
RTVSPropertyOp6
 70
     1
102
RTVSPropertyOp7
 70
     1
102
RTVSPropertyOp8
 70
     1
102
RTVSPropertyOp9
 70
     1
102
RTVSPropertyOp10
 70
     1
102
RTVSPropertyOp11
 70
     1
102
RTVSPropertyOp12
 70
     1
102
RTVSPropertyOp13
 70
     1
102
RTVSPropertyOp14
 70
     1
102
RTVSPropertyOp15
 70
     1
102
RTVSPropertyOp16
 70
     1
102
RTVSPropertyOp17
 70
     1
102
RTVSPropertyOp18
 70
     1
102
RTVSPropertyOp19
 70
     1
102
RTVSPropertyOp20
 70
     1
102
RTVSPropertyOp21
 70
     1
102
RTVSPropertyOp22
 70
     1
102
RTVSPropertyOp23
 70
     1
102
RTVSPropertyOp24
 70
     1
102
RTVSPropertyOp25
 70
     1
102
RTVSPropertyOp26
 70
     1
102
RTVSPropertyOp27
 70
     1
  0
XRECORD
  5
14B1
102
{ACAD_REACTORS
330
14B0
102
}
330
14B0
100
AcDbXrecord
280
     1
102
RTVSPropertyOp0
 70
     1
102
RTVSPropertyOp1
 70
     1
102
RTVSPropertyOp2
 70
     1
102
RTVSPropertyOp3
 70
     1
102
RTVSPropertyOp4
 70
     1
102
RTVSPropertyOp5
 70
     1
102
RTVSPropertyOp6
 70
     1
102
RTVSPropertyOp7
 70
     1
102
RTVSPropertyOp8
 70
     1
102
RTVSPropertyOp9
 70
     1
102
RTVSPropertyOp10
 70
     1
102
RTVSPropertyOp11
 70
     1
102
RTVSPropertyOp12
 70
     1
102
RTVSPropertyOp13
 70
     1
102
RTVSPropertyOp14
 70
     1
102
RTVSPropertyOp15
 70
     1
102
RTVSPropertyOp16
 70
     1
102
RTVSPropertyOp17
 70
     1
102
RTVSPropertyOp18
 70
     1
102
RTVSPropertyOp19
 70
     1
102
RTVSPropertyOp20
 70
     1
102
RTVSPropertyOp21
 70
     1
102
RTVSPropertyOp22
 70
     1
102
RTVSPropertyOp23
 70
     1
102
RTVSPropertyOp24
 70
     1
102
RTVSPropertyOp25
 70
     1
102
RTVSPropertyOp26
 70
     1
102
RTVSPropertyOp27
 70
     1
  0
XRECORD
  5
14BF
102
{ACAD_REACTORS
330
14BE
102
}
330
14BE
100
AcDbXrecord
280
     1
102
RTVSPropertyOp0
 70
     1
102
RTVSPropertyOp1
 70
     1
102
RTVSPropertyOp2
 70
     1
102
RTVSPropertyOp3
 70
     1
102
RTVSPropertyOp4
 70
     1
102
RTVSPropertyOp5
 70
     1
102
RTVSPropertyOp6
 70
     1
102
RTVSPropertyOp7
 70
     1
102
RTVSPropertyOp8
 70
     1
102
RTVSPropertyOp9
 70
     1
102
RTVSPropertyOp10
 70
     1
102
RTVSPropertyOp11
 70
     1
102
RTVSPropertyOp12
 70
     1
102
RTVSPropertyOp13
 70
     1
102
RTVSPropertyOp14
 70
     1
102
RTVSPropertyOp15
 70
     1
102
RTVSPropertyOp16
 70
     1
102
RTVSPropertyOp17
 70
     1
102
RTVSPropertyOp18
 70
     1
102
RTVSPropertyOp19
 70
     1
102
RTVSPropertyOp20
 70
     1
102
RTVSPropertyOp21
 70
     1
102
RTVSPropertyOp22
 70
     1
102
RTVSPropertyOp23
 70
     1
102
RTVSPropertyOp24
 70
     1
102
RTVSPropertyOp25
 70
     1
102
RTVSPropertyOp26
 70
     1
102
RTVSPropertyOp27
 70
     1
  0
XRECORD
  5
14C7
102
{ACAD_REACTORS
330
14C6
102
}
330
14C6
100
AcDbXrecord
280
     1
102
RTVSPropertyOp0
 70
     1
102
RTVSPropertyOp1
 70
     1
102
RTVSPropertyOp2
 70
     1
102
RTVSPropertyOp3
 70
     1
102
RTVSPropertyOp4
 70
     1
102
RTVSPropertyOp5
 70
     1
102
RTVSPropertyOp6
 70
     1
102
RTVSPropertyOp7
 70
     1
102
RTVSPropertyOp8
 70
     1
102
RTVSPropertyOp9
 70
     1
102
RTVSPropertyOp10
 70
     1
102
RTVSPropertyOp11
 70
     1
102
RTVSPropertyOp12
 70
     1
102
RTVSPropertyOp13
 70
     1
102
RTVSPropertyOp14
 70
     1
102
RTVSPropertyOp15
 70
     1
102
RTVSPropertyOp16
 70
     1
102
RTVSPropertyOp17
 70
     1
102
RTVSPropertyOp18
 70
     1
102
RTVSPropertyOp19
 70
     1
102
RTVSPropertyOp20
 70
     1
102
RTVSPropertyOp21
 70
     1
102
RTVSPropertyOp22
 70
     1
102
RTVSPropertyOp23
 70
     1
102
RTVSPropertyOp24
 70
     1
102
RTVSPropertyOp25
 70
     1
102
RTVSPropertyOp26
 70
     1
102
RTVSPropertyOp27
 70
     1
  0
XRECORD
  5
14B9
102
{ACAD_REACTORS
330
14B8
102
}
330
14B8
100
AcDbXrecord
280
     1
102
RTVSPropertyOp0
 70
     1
102
RTVSPropertyOp1
 70
     1
102
RTVSPropertyOp2
 70
     1
102
RTVSPropertyOp3
 70
     1
102
RTVSPropertyOp4
 70
     1
102
RTVSPropertyOp5
 70
     1
102
RTVSPropertyOp6
 70
     1
102
RTVSPropertyOp7
 70
     1
102
RTVSPropertyOp8
 70
     1
102
RTVSPropertyOp9
 70
     1
102
RTVSPropertyOp10
 70
     1
102
RTVSPropertyOp11
 70
     1
102
RTVSPropertyOp12
 70
     1
102
RTVSPropertyOp13
 70
     1
102
RTVSPropertyOp14
 70
     1
102
RTVSPropertyOp15
 70
     1
102
RTVSPropertyOp16
 70
     1
102
RTVSPropertyOp17
 70
     1
102
RTVSPropertyOp18
 70
     1
102
RTVSPropertyOp19
 70
     1
102
RTVSPropertyOp20
 70
     1
102
RTVSPropertyOp21
 70
     1
102
RTVSPropertyOp22
 70
     1
102
RTVSPropertyOp23
 70
     1
102
RTVSPropertyOp24
 70
     1
102
RTVSPropertyOp25
 70
     1
102
RTVSPropertyOp26
 70
     1
102
RTVSPropertyOp27
 70
     1
  0
XRECORD
  5
14BD
102
{ACAD_REACTORS
330
14BC
102
}
330
14BC
100
AcDbXrecord
280
     1
102
RTVSPropertyOp0
 70
     1
102
RTVSPropertyOp1
 70
     1
102
RTVSPropertyOp2
 70
     1
102
RTVSPropertyOp3
 70
     1
102
RTVSPropertyOp4
 70
     1
102
RTVSPropertyOp5
 70
     1
102
RTVSPropertyOp6
 70
     1
102
RTVSPropertyOp7
 70
     1
102
RTVSPropertyOp8
 70
     1
102
RTVSPropertyOp9
 70
     1
102
RTVSPropertyOp10
 70
     1
102
RTVSPropertyOp11
 70
     1
102
RTVSPropertyOp12
 70
     1
102
RTVSPropertyOp13
 70
     1
102
RTVSPropertyOp14
 70
     1
102
RTVSPropertyOp15
 70
     1
102
RTVSPropertyOp16
 70
     1
102
RTVSPropertyOp17
 70
     1
102
RTVSPropertyOp18
 70
     1
102
RTVSPropertyOp19
 70
     1
102
RTVSPropertyOp20
 70
     1
102
RTVSPropertyOp21
 70
     1
102
RTVSPropertyOp22
 70
     1
102
RTVSPropertyOp23
 70
     1
102
RTVSPropertyOp24
 70
     1
102
RTVSPropertyOp25
 70
     1
102
RTVSPropertyOp26
 70
     1
102
RTVSPropertyOp27
 70
     1
  0
XRECORD
  5
14CD
102
{ACAD_REACTORS
330
14CC
102
}
330
14CC
100
AcDbXrecord
280
     1
102
RTVSPropertyOp0
 70
     0
102
RTVSPropertyOp1
 70
     0
102
RTVSPropertyOp2
 70
     0
102
RTVSPropertyOp3
 70
     0
102
RTVSPropertyOp4
 70
     0
102
RTVSPropertyOp5
 70
     0
102
RTVSPropertyOp6
 70
     0
102
RTVSPropertyOp7
 70
     0
102
RTVSPropertyOp8
 70
     0
102
RTVSPropertyOp9
 70
     0
102
RTVSPropertyOp10
 70
     0
102
RTVSPropertyOp11
 70
     0
102
RTVSPropertyOp12
 70
     0
102
RTVSPropertyOp13
 70
     0
102
RTVSPropertyOp14
 70
     2
102
RTVSPropertyOp15
 70
     0
102
RTVSPropertyOp16
 70
     0
102
RTVSPropertyOp17
 70
     0
102
RTVSPropertyOp18
 70
     0
102
RTVSPropertyOp19
 70
     0
102
RTVSPropertyOp20
 70
     0
102
RTVSPropertyOp21
 70
     0
102
RTVSPropertyOp22
 70
     0
102
RTVSPropertyOp23
 70
     0
102
RTVSPropertyOp24
 70
     0
102
RTVSPropertyOp25
 70
     0
102
RTVSPropertyOp26
 70
     0
102
RTVSPropertyOp27
 70
     0
  0
XRECORD
  5
14C5
102
{ACAD_REACTORS
330
14C4
102
}
330
14C4
100
AcDbXrecord
280
     1
102
RTVSPropertyOp0
 70
     1
102
RTVSPropertyOp1
 70
     1
102
RTVSPropertyOp2
 70
     1
102
RTVSPropertyOp3
 70
     1
102
RTVSPropertyOp4
 70
     1
102
RTVSPropertyOp5
 70
     1
102
RTVSPropertyOp6
 70
     1
102
RTVSPropertyOp7
 70
     1
102
RTVSPropertyOp8
 70
     1
102
RTVSPropertyOp9
 70
     1
102
RTVSPropertyOp10
 70
     1
102
RTVSPropertyOp11
 70
     1
102
RTVSPropertyOp12
 70
     1
102
RTVSPropertyOp13
 70
     1
102
RTVSPropertyOp14
 70
     1
102
RTVSPropertyOp15
 70
     1
102
RTVSPropertyOp16
 70
     1
102
RTVSPropertyOp17
 70
     1
102
RTVSPropertyOp18
 70
     1
102
RTVSPropertyOp19
 70
     1
102
RTVSPropertyOp20
 70
     1
102
RTVSPropertyOp21
 70
     1
102
RTVSPropertyOp22
 70
     1
102
RTVSPropertyOp23
 70
     1
102
RTVSPropertyOp24
 70
     1
102
RTVSPropertyOp25
 70
     1
102
RTVSPropertyOp26
 70
     1
102
RTVSPropertyOp27
 70
     1
  0
XRECORD
  5
14A9
102
{ACAD_REACTORS
330
14A8
102
}
330
14A8
100
AcDbXrecord
280
     1
102
RTVSPropertyOp0
 70
     1
102
RTVSPropertyOp1
 70
     1
102
RTVSPropertyOp2
 70
     1
102
RTVSPropertyOp3
 70
     1
102
RTVSPropertyOp4
 70
     1
102
RTVSPropertyOp5
 70
     1
102
RTVSPropertyOp6
 70
     1
102
RTVSPropertyOp7
 70
     1
102
RTVSPropertyOp8
 70
     1
102
RTVSPropertyOp9
 70
     1
102
RTVSPropertyOp10
 70
     1
102
RTVSPropertyOp11
 70
     1
102
RTVSPropertyOp12
 70
     1
102
RTVSPropertyOp13
 70
     1
102
RTVSPropertyOp14
 70
     1
102
RTVSPropertyOp15
 70
     1
102
RTVSPropertyOp16
 70
     1
102
RTVSPropertyOp17
 70
     1
102
RTVSPropertyOp18
 70
     1
102
RTVSPropertyOp19
 70
     1
102
RTVSPropertyOp20
 70
     1
102
RTVSPropertyOp21
 70
     1
102
RTVSPropertyOp22
 70
     1
102
RTVSPropertyOp23
 70
     1
102
RTVSPropertyOp24
 70
     1
102
RTVSPropertyOp25
 70
     1
102
RTVSPropertyOp26
 70
     1
102
RTVSPropertyOp27
 70
     1
  0
XRECORD
  5
14AB
102
{ACAD_REACTORS
330
14AA
102
}
330
14AA
100
AcDbXrecord
280
     1
102
RTVSPropertyOp0
 70
     1
102
RTVSPropertyOp1
 70
     1
102
RTVSPropertyOp2
 70
     1
102
RTVSPropertyOp3
 70
     1
102
RTVSPropertyOp4
 70
     1
102
RTVSPropertyOp5
 70
     1
102
RTVSPropertyOp6
 70
     1
102
RTVSPropertyOp7
 70
     1
102
RTVSPropertyOp8
 70
     1
102
RTVSPropertyOp9
 70
     1
102
RTVSPropertyOp10
 70
     1
102
RTVSPropertyOp11
 70
     1
102
RTVSPropertyOp12
 70
     1
102
RTVSPropertyOp13
 70
     1
102
RTVSPropertyOp14
 70
     1
102
RTVSPropertyOp15
 70
     1
102
RTVSPropertyOp16
 70
     1
102
RTVSPropertyOp17
 70
     1
102
RTVSPropertyOp18
 70
     1
102
RTVSPropertyOp19
 70
     1
102
RTVSPropertyOp20
 70
     1
102
RTVSPropertyOp21
 70
     1
102
RTVSPropertyOp22
 70
     1
102
RTVSPropertyOp23
 70
     1
102
RTVSPropertyOp24
 70
     1
102
RTVSPropertyOp25
 70
     1
102
RTVSPropertyOp26
 70
     1
102
RTVSPropertyOp27
 70
     1
  0
XRECORD
  5
14AD
102
{ACAD_REACTORS
330
14AC
102
}
330
14AC
100
AcDbXrecord
280
     1
102
RTVSPropertyOp0
 70
     1
102
RTVSPropertyOp1
 70
     1
102
RTVSPropertyOp2
 70
     1
102
RTVSPropertyOp3
 70
     1
102
RTVSPropertyOp4
 70
     1
102
RTVSPropertyOp5
 70
     1
102
RTVSPropertyOp6
 70
     1
102
RTVSPropertyOp7
 70
     1
102
RTVSPropertyOp8
 70
     1
102
RTVSPropertyOp9
 70
     1
102
RTVSPropertyOp10
 70
     1
102
RTVSPropertyOp11
 70
     1
102
RTVSPropertyOp12
 70
     1
102
RTVSPropertyOp13
 70
     1
102
RTVSPropertyOp14
 70
     1
102
RTVSPropertyOp15
 70
     1
102
RTVSPropertyOp16
 70
     1
102
RTVSPropertyOp17
 70
     1
102
RTVSPropertyOp18
 70
     1
102
RTVSPropertyOp19
 70
     1
102
RTVSPropertyOp20
 70
     1
102
RTVSPropertyOp21
 70
     1
102
RTVSPropertyOp22
 70
     1
102
RTVSPropertyOp23
 70
     1
102
RTVSPropertyOp24
 70
     1
102
RTVSPropertyOp25
 70
     1
102
RTVSPropertyOp26
 70
     1
102
RTVSPropertyOp27
 70
     1
  0
XRECORD
  5
14AF
102
{ACAD_REACTORS
330
14AE
102
}
330
14AE
100
AcDbXrecord
280
     1
102
RTVSPropertyOp0
 70
     1
102
RTVSPropertyOp1
 70
     1
102
RTVSPropertyOp2
 70
     1
102
RTVSPropertyOp3
 70
     1
102
RTVSPropertyOp4
 70
     1
102
RTVSPropertyOp5
 70
     1
102
RTVSPropertyOp6
 70
     1
102
RTVSPropertyOp7
 70
     1
102
RTVSPropertyOp8
 70
     1
102
RTVSPropertyOp9
 70
     1
102
RTVSPropertyOp10
 70
     1
102
RTVSPropertyOp11
 70
     1
102
RTVSPropertyOp12
 70
     1
102
RTVSPropertyOp13
 70
     1
102
RTVSPropertyOp14
 70
     1
102
RTVSPropertyOp15
 70
     1
102
RTVSPropertyOp16
 70
     1
102
RTVSPropertyOp17
 70
     1
102
RTVSPropertyOp18
 70
     1
102
RTVSPropertyOp19
 70
     1
102
RTVSPropertyOp20
 70
     1
102
RTVSPropertyOp21
 70
     1
102
RTVSPropertyOp22
 70
     1
102
RTVSPropertyOp23
 70
     1
102
RTVSPropertyOp24
 70
     1
102
RTVSPropertyOp25
 70
     1
102
RTVSPropertyOp26
 70
     1
102
RTVSPropertyOp27
 70
     1
  0
XRECORD
  5
14C9
102
{ACAD_REACTORS
330
14C8
102
}
330
14C8
100
AcDbXrecord
280
     1
102
RTVSPropertyOp0
 70
     0
102
RTVSPropertyOp1
 70
     0
102
RTVSPropertyOp2
 70
     0
102
RTVSPropertyOp3
 70
     0
102
RTVSPropertyOp4
 70
     0
102
RTVSPropertyOp5
 70
     0
102
RTVSPropertyOp6
 70
     0
102
RTVSPropertyOp7
 70
     0
102
RTVSPropertyOp8
 70
     0
102
RTVSPropertyOp9
 70
     0
102
RTVSPropertyOp10
 70
     0
102
RTVSPropertyOp11
 70
     0
102
RTVSPropertyOp12
 70
     0
102
RTVSPropertyOp13
 70
     0
102
RTVSPropertyOp14
 70
     2
102
RTVSPropertyOp15
 70
     0
102
RTVSPropertyOp16
 70
     0
102
RTVSPropertyOp17
 70
     0
102
RTVSPropertyOp18
 70
     0
102
RTVSPropertyOp19
 70
     0
102
RTVSPropertyOp20
 70
     0
102
RTVSPropertyOp21
 70
     0
102
RTVSPropertyOp22
 70
     0
102
RTVSPropertyOp23
 70
     0
102
RTVSPropertyOp24
 70
     0
102
RTVSPropertyOp25
 70
     0
102
RTVSPropertyOp26
 70
     0
102
RTVSPropertyOp27
 70
     0
  0
XRECORD
  5
14C3
102
{ACAD_REACTORS
330
14C2
102
}
330
14C2
100
AcDbXrecord
280
     1
102
RTVSPropertyOp0
 70
     1
102
RTVSPropertyOp1
 70
     1
102
RTVSPropertyOp2
 70
     1
102
RTVSPropertyOp3
 70
     1
102
RTVSPropertyOp4
 70
     1
102
RTVSPropertyOp5
 70
     1
102
RTVSPropertyOp6
 70
     1
102
RTVSPropertyOp7
 70
     1
102
RTVSPropertyOp8
 70
     1
102
RTVSPropertyOp9
 70
     1
102
RTVSPropertyOp10
 70
     1
102
RTVSPropertyOp11
 70
     1
102
RTVSPropertyOp12
 70
     1
102
RTVSPropertyOp13
 70
     1
102
RTVSPropertyOp14
 70
     1
102
RTVSPropertyOp15
 70
     1
102
RTVSPropertyOp16
 70
     1
102
RTVSPropertyOp17
 70
     1
102
RTVSPropertyOp18
 70
     1
102
RTVSPropertyOp19
 70
     1
102
RTVSPropertyOp20
 70
     1
102
RTVSPropertyOp21
 70
     1
102
RTVSPropertyOp22
 70
     1
102
RTVSPropertyOp23
 70
     1
102
RTVSPropertyOp24
 70
     1
102
RTVSPropertyOp25
 70
     1
102
RTVSPropertyOp26
 70
     1
102
RTVSPropertyOp27
 70
     1
  0
XRECORD
  5
14CB
102
{ACAD_REACTORS
330
14CA
102
}
330
14CA
100
AcDbXrecord
280
     1
102
RTVSPropertyOp0
 70
     0
102
RTVSPropertyOp1
 70
     0
102
RTVSPropertyOp2
 70
     0
102
RTVSPropertyOp3
 70
     0
102
RTVSPropertyOp4
 70
     0
102
RTVSPropertyOp5
 70
     0
102
RTVSPropertyOp6
 70
     0
102
RTVSPropertyOp7
 70
     0
102
RTVSPropertyOp8
 70
     0
102
RTVSPropertyOp9
 70
     0
102
RTVSPropertyOp10
 70
     0
102
RTVSPropertyOp11
 70
     0
102
RTVSPropertyOp12
 70
     0
102
RTVSPropertyOp13
 70
     0
102
RTVSPropertyOp14
 70
     2
102
RTVSPropertyOp15
 70
     0
102
RTVSPropertyOp16
 70
     0
102
RTVSPropertyOp17
 70
     0
102
RTVSPropertyOp18
 70
     0
102
RTVSPropertyOp19
 70
     0
102
RTVSPropertyOp20
 70
     0
102
RTVSPropertyOp21
 70
     0
102
RTVSPropertyOp22
 70
     0
102
RTVSPropertyOp23
 70
     0
102
RTVSPropertyOp24
 70
     0
102
RTVSPropertyOp25
 70
     0
102
RTVSPropertyOp26
 70
     0
102
RTVSPropertyOp27
 70
     0
  0
XRECORD
  5
14BB
102
{ACAD_REACTORS
330
14BA
102
}
330
14BA
100
AcDbXrecord
280
     1
102
RTVSPropertyOp0
 70
     1
102
RTVSPropertyOp1
 70
     1
102
RTVSPropertyOp2
 70
     1
102
RTVSPropertyOp3
 70
     1
102
RTVSPropertyOp4
 70
     1
102
RTVSPropertyOp5
 70
     1
102
RTVSPropertyOp6
 70
     1
102
RTVSPropertyOp7
 70
     1
102
RTVSPropertyOp8
 70
     1
102
RTVSPropertyOp9
 70
     1
102
RTVSPropertyOp10
 70
     1
102
RTVSPropertyOp11
 70
     1
102
RTVSPropertyOp12
 70
     1
102
RTVSPropertyOp13
 70
     1
102
RTVSPropertyOp14
 70
     1
102
RTVSPropertyOp15
 70
     1
102
RTVSPropertyOp16
 70
     1
102
RTVSPropertyOp17
 70
     1
102
RTVSPropertyOp18
 70
     1
102
RTVSPropertyOp19
 70
     1
102
RTVSPropertyOp20
 70
     1
102
RTVSPropertyOp21
 70
     1
102
RTVSPropertyOp22
 70
     1
102
RTVSPropertyOp23
 70
     1
102
RTVSPropertyOp24
 70
     1
102
RTVSPropertyOp25
 70
     1
102
RTVSPropertyOp26
 70
     1
102
RTVSPropertyOp27
 70
     1
  0
XRECORD
  5
14C1
102
{ACAD_REACTORS
330
14C0
102
}
330
14C0
100
AcDbXrecord
280
     1
102
RTVSPropertyOp0
 70
     1
102
RTVSPropertyOp1
 70
     1
102
RTVSPropertyOp2
 70
     1
102
RTVSPropertyOp3
 70
     1
102
RTVSPropertyOp4
 70
     1
102
RTVSPropertyOp5
 70
     1
102
RTVSPropertyOp6
 70
     1
102
RTVSPropertyOp7
 70
     1
102
RTVSPropertyOp8
 70
     1
102
RTVSPropertyOp9
 70
     1
102
RTVSPropertyOp10
 70
     1
102
RTVSPropertyOp11
 70
     1
102
RTVSPropertyOp12
 70
     1
102
RTVSPropertyOp13
 70
     1
102
RTVSPropertyOp14
 70
     1
102
RTVSPropertyOp15
 70
     1
102
RTVSPropertyOp16
 70
     1
102
RTVSPropertyOp17
 70
     1
102
RTVSPropertyOp18
 70
     1
102
RTVSPropertyOp19
 70
     1
102
RTVSPropertyOp20
 70
     1
102
RTVSPropertyOp21
 70
     1
102
RTVSPropertyOp22
 70
     1
102
RTVSPropertyOp23
 70
     1
102
RTVSPropertyOp24
 70
     1
102
RTVSPropertyOp25
 70
     1
102
RTVSPropertyOp26
 70
     1
102
RTVSPropertyOp27
 70
     1
  0
ENDSEC
  0
EOF
