  0
SECTION
  2
HEADER
  9
$ACADVER
  1
AC1015
  9
$ACADMAINTVER
 70
    20
  9
$DWGCODEPAGE
  3
ANSI_1252
  9
$INSBASE
 10
0.0
 20
0.0
 30
0.0
  9
$EXTMIN
 10
2916.125207500956
 20
2100.324536853797
 30
0.0
  9
$EXTMAX
 10
2917.897357024012
 20
2100.836536853902
 30
0.0
  9
$LIMMIN
 10
0.0
 20
0.0
  9
$LIMMAX
 10
420.0
 20
297.0
  9
$ORTHOMODE
 70
     1
  9
$REGENMODE
 70
     1
  9
$FILLMODE
 70
     1
  9
$QTEXTMODE
 70
     0
  9
$MIRRTEXT
 70
     1
  9
$LTSCALE
 40
1.0
  9
$ATTMODE
 70
     1
  9
$TEXTSIZE
 40
2.5
  9
$TRACEWID
 40
1.0
  9
$TEXTSTYLE
  7
SANINDUSA
  9
$CLAYER
  8
0
  9
$CELTYPE
  6
ByLayer
  9
$CECOLOR
 62
   256
  9
$CELTSCALE
 40
1.0
  9
$DISPSILH
 70
     0
  9
$DIMSCALE
 40
1.0
  9
$DIMASZ
 40
2.0
  9
$DIMEXO
 40
1.0
  9
$DIMDLI
 40
1.0
  9
$DIMRND
 40
0.0
  9
$DIMDLE
 40
0.0
  9
$DIMEXE
 40
1.0
  9
$DIMTP
 40
0.0
  9
$DIMTM
 40
0.0
  9
$DIMTXT
 40
2.0
  9
$DIMCEN
 40
0.0
  9
$DIMTSZ
 40
0.0
  9
$DIMTOL
 70
     0
  9
$DIMLIM
 70
     0
  9
$DIMTIH
 70
     0
  9
$DIMTOH
 70
     0
  9
$DIMSE1
 70
     0
  9
$DIMSE2
 70
     0
  9
$DIMTAD
 70
     1
  9
$DIMZIN
 70
     8
  9
$DIMBLK
  1

  9
$DIMASO
 70
     1
  9
$DIMSHO
 70
     1
  9
$DIMPOST
  1

  9
$DIMAPOST
  1

  9
$DIMALT
 70
     0
  9
$DIMALTD
 70
     3
  9
$DIMALTF
 40
0.03937007874016
  9
$DIMLFAC
 40
1.0
  9
$DIMTOFL
 70
     1
  9
$DIMTVP
 40
0.0
  9
$DIMTIX
 70
     0
  9
$DIMSOXD
 70
     0
  9
$DIMSAH
 70
     0
  9
$DIMBLK1
  1

  9
$DIMBLK2
  1

  9
$DIMSTYLE
  2
SANINDUSA
  9
$DIMCLRD
 70
   256
  9
$DIMCLRE
 70
   256
  9
$DIMCLRT
 70
   256
  9
$DIMTFAC
 40
1.0
  9
$DIMGAP
 40
1.0
  9
$DIMJUST
 70
     0
  9
$DIMSD1
 70
     0
  9
$DIMSD2
 70
     0
  9
$DIMTOLJ
 70
     0
  9
$DIMTZIN
 70
     8
  9
$DIMALTZ
 70
     0
  9
$DIMALTTZ
 70
     0
  9
$DIMUPT
 70
     0
  9
$DIMDEC
 70
     1
  9
$DIMTDEC
 70
     1
  9
$DIMALTU
 70
     2
  9
$DIMALTTD
 70
     3
  9
$DIMTXSTY
  7
SANINDUSA
  9
$DIMAUNIT
 70
     0
  9
$DIMADEC
 70
     1
  9
$DIMALTRND
 40
0.0
  9
$DIMAZIN
 70
     0
  9
$DIMDSEP
 70
    44
  9
$DIMATFIT
 70
     3
  9
$DIMFRAC
 70
     0
  9
$DIMLDRBLK
  1

  9
$DIMLUNIT
 70
     2
  9
$DIMLWD
 70
    -1
  9
$DIMLWE
 70
    -1
  9
$DIMTMOVE
 70
     0
  9
$LUNITS
 70
     2
  9
$LUPREC
 70
     4
  9
$SKETCHINC
 40
1.0
  9
$FILLETRAD
 40
3.0
  9
$AUNITS
 70
     0
  9
$AUPREC
 70
     0
  9
$MENU
  1
.
  9
$ELEVATION
 40
0.0
  9
$PELEVATION
 40
0.0
  9
$THICKNESS
 40
0.0
  9
$LIMCHECK
 70
     0
  9
$CHAMFERA
 40
10.0
  9
$CHAMFERB
 40
10.0
  9
$CHAMFERC
 40
20.0
  9
$CHAMFERD
 40
0.0
  9
$SKPOLY
 70
     0
  9
$TDCREATE
 40
2458249.408473947
  9
$TDUCREATE
 40
2458249.366807280
  9
$TDUPDATE
 40
2458249.414112442
  9
$TDUUPDATE
 40
2458249.372445776
  9
$TDINDWG
 40
0.0056399421
  9
$TDUSRTIMER
 40
0.0056399421
  9
$USRTIMER
 70
     1
  9
$ANGBASE
 50
0.0
  9
$ANGDIR
 70
     0
  9
$PDMODE
 70
     0
  9
$PDSIZE
 40
0.0
  9
$PLINEWID
 40
0.0
  9
$SPLFRAME
 70
     0
  9
$SPLINETYPE
 70
     6
  9
$SPLINESEGS
 70
     8
  9
$HANDSEED
  5
1461
  9
$SURFTAB1
 70
     6
  9
$SURFTAB2
 70
     6
  9
$SURFTYPE
 70
     6
  9
$SURFU
 70
     6
  9
$SURFV
 70
     6
  9
$UCSBASE
  2

  9
$UCSNAME
  2

  9
$UCSORG
 10
0.0
 20
0.0
 30
0.0
  9
$UCSXDIR
 10
1.0
 20
0.0
 30
0.0
  9
$UCSYDIR
 10
0.0
 20
1.0
 30
0.0
  9
$UCSORTHOREF
  2

  9
$UCSORTHOVIEW
 70
     0
  9
$UCSORGTOP
 10
0.0
 20
0.0
 30
0.0
  9
$UCSORGBOTTOM
 10
0.0
 20
0.0
 30
0.0
  9
$UCSORGLEFT
 10
0.0
 20
0.0
 30
0.0
  9
$UCSORGRIGHT
 10
0.0
 20
0.0
 30
0.0
  9
$UCSORGFRONT
 10
0.0
 20
0.0
 30
0.0
  9
$UCSORGBACK
 10
0.0
 20
0.0
 30
0.0
  9
$PUCSBASE
  2

  9
$PUCSNAME
  2

  9
$PUCSORG
 10
0.0
 20
0.0
 30
0.0
  9
$PUCSXDIR
 10
1.0
 20
0.0
 30
0.0
  9
$PUCSYDIR
 10
0.0
 20
1.0
 30
0.0
  9
$PUCSORTHOREF
  2

  9
$PUCSORTHOVIEW
 70
     0
  9
$PUCSORGTOP
 10
0.0
 20
0.0
 30
0.0
  9
$PUCSORGBOTTOM
 10
0.0
 20
0.0
 30
0.0
  9
$PUCSORGLEFT
 10
0.0
 20
0.0
 30
0.0
  9
$PUCSORGRIGHT
 10
0.0
 20
0.0
 30
0.0
  9
$PUCSORGFRONT
 10
0.0
 20
0.0
 30
0.0
  9
$PUCSORGBACK
 10
0.0
 20
0.0
 30
0.0
  9
$USERI1
 70
     0
  9
$USERI2
 70
     0
  9
$USERI3
 70
     0
  9
$USERI4
 70
     0
  9
$USERI5
 70
     0
  9
$USERR1
 40
0.0
  9
$USERR2
 40
0.0
  9
$USERR3
 40
0.0
  9
$USERR4
 40
0.0
  9
$USERR5
 40
0.0
  9
$WORLDVIEW
 70
     1
  9
$SHADEDGE
 70
     3
  9
$SHADEDIF
 70
    70
  9
$TILEMODE
 70
     1
  9
$MAXACTVP
 70
    64
  9
$PINSBASE
 10
0.0
 20
0.0
 30
0.0
  9
$PLIMCHECK
 70
     0
  9
$PEXTMIN
 10
1.000000000000000E+20
 20
1.000000000000000E+20
 30
1.000000000000000E+20
  9
$PEXTMAX
 10
-1.000000000000000E+20
 20
-1.000000000000000E+20
 30
-1.000000000000000E+20
  9
$PLIMMIN
 10
0.0
 20
0.0
  9
$PLIMMAX
 10
420.0
 20
297.0
  9
$UNITMODE
 70
     0
  9
$VISRETAIN
 70
     1
  9
$PLINEGEN
 70
     0
  9
$PSLTSCALE
 70
     1
  9
$TREEDEPTH
 70
  3020
  9
$CMLSTYLE
  2
Standard
  9
$CMLJUST
 70
     0
  9
$CMLSCALE
 40
20.0
  9
$PROXYGRAPHICS
 70
     1
  9
$MEASUREMENT
 70
     1
  9
$CELWEIGHT
370
    -1
  9
$ENDCAPS
280
     0
  9
$JOINSTYLE
280
     0
  9
$LWDISPLAY
290
     0
  9
$INSUNITS
 70
     4
  9
$HYPERLINKBASE
  1

  9
$STYLESHEET
  1
sanindusa.ctb
  9
$XEDIT
290
     1
  9
$CEPSNTYPE
380
     0
  9
$PSTYLEMODE
290
     1
  9
$FINGERPRINTGUID
  2
{3DACEF0F-1454-4B15-B51D-434DEA529710}
  9
$VERSIONGUID
  2
{E8194EBF-E436-4E8F-9C13-8526AF909545}
  9
$EXTNAMES
290
     1
  9
$PSVPSCALE
 40
0.0
  9
$OLESTARTUP
290
     0
  0
ENDSEC
  0
SECTION
  2
CLASSES
  0
CLASS
  1
ACDBDICTIONARYWDFLT
  2
AcDbDictionaryWithDefault
  3
ObjectDBX Classes
 90
        0
280
     0
281
     0
  0
CLASS
  1
ACDBPLACEHOLDER
  2
AcDbPlaceHolder
  3
ObjectDBX Classes
 90
        0
280
     0
281
     0
  0
CLASS
  1
LAYOUT
  2
AcDbLayout
  3
ObjectDBX Classes
 90
        0
280
     0
281
     0
  0
CLASS
  1
DICTIONARYVAR
  2
AcDbDictionaryVar
  3
ObjectDBX Classes
 90
        0
280
     0
281
     0
  0
CLASS
  1
DIMASSOC
  2
AcDbDimAssoc
  3
"AcDbDimAssoc|Product Desc:     AcDim ARX App For Dimension|Company:          Autodesk, Inc.|WEB Address:      www.autodesk.com"
 90
        0
280
     0
281
     0
  0
CLASS
  1
TABLESTYLE
  2
AcDbTableStyle
  3
ObjectDBX Classes
 90
     4095
280
     0
281
     0
  0
CLASS
  1
MATERIAL
  2
AcDbMaterial
  3
ObjectDBX Classes
 90
     1153
280
     0
281
     0
  0
CLASS
  1
VISUALSTYLE
  2
AcDbVisualStyle
  3
ObjectDBX Classes
 90
     4095
280
     0
281
     0
  0
CLASS
  1
SCALE
  2
AcDbScale
  3
ObjectDBX Classes
 90
     1153
280
     0
281
     0
  0
CLASS
  1
MLEADERSTYLE
  2
AcDbMLeaderStyle
  3
ACDB_MLEADERSTYLE_CLASS
 90
     4095
280
     0
281
     0
  0
CLASS
  1
ACDBSECTIONVIEWSTYLE
  2
AcDbSectionViewStyle
  3
ObjectDBX Classes
 90
     1025
280
     0
281
     0
  0
CLASS
  1
ACDBDETAILVIEWSTYLE
  2
AcDbDetailViewStyle
  3
ObjectDBX Classes
 90
     1025
280
     0
281
     0
  0
CLASS
  1
CELLSTYLEMAP
  2
AcDbCellStyleMap
  3
ObjectDBX Classes
 90
     1152
280
     0
281
     0
  0
CLASS
  1
SOLID_BACKGROUND
  2
AcDbSolidBackground
  3
SCENEOE
 90
     4095
280
     0
281
     0
  0
CLASS
  1
NPOCOLLECTION
  2
AcDbImpNonPersistentObjectsCollection
  3
ObjectDBX Classes
 90
     1153
280
     0
281
     0
  0
ENDSEC
  0
SECTION
  2
TABLES
  0
TABLE
  2
VPORT
  5
8
330
0
100
AcDbSymbolTable
 70
     1
  0
VPORT
  5
1068
330
8
100
AcDbSymbolTableRecord
100
AcDbViewportTableRecord
  2
*Active
 70
     0
 10
0.0
 20
0.0
 11
1.0
 21
1.0
 12
2917.011282262484
 22
2100.58053685385
 13
0.0
 23
0.0
 14
10.0
 24
10.0
 15
10.0
 25
10.0
 16
0.0
 26
0.0
 36
1.0
 17
0.0
 27
0.0
 37
0.0
 40
1.087845330950117
 41
1.635233160621761
 42
50.0
 43
0.0
 44
0.0
 50
0.0
 51
0.0
 71
     0
 72
   100
 73
     1
 74
     2
 75
     0
 76
     0
 77
     0
 78
     0
281
     0
 65
     1
110
0.0
120
0.0
130
0.0
111
1.0
121
0.0
131
0.0
112
0.0
122
1.0
132
0.0
 79
     0
146
0.0
1001
ACAD_NAV_VCDISPLAY
1070
     3
  0
ENDTAB
  0
TABLE
  2
LTYPE
  5
5
330
0
100
AcDbSymbolTable
 70
     5
  0
LTYPE
  5
14
330
5
100
AcDbSymbolTableRecord
100
AcDbLinetypeTableRecord
  2
ByBlock
 70
     0
  3

 72
    65
 73
     0
 40
0.0
  0
LTYPE
  5
15
330
5
100
AcDbSymbolTableRecord
100
AcDbLinetypeTableRecord
  2
ByLayer
 70
     0
  3

 72
    65
 73
     0
 40
0.0
  0
LTYPE
  5
16
330
5
100
AcDbSymbolTableRecord
100
AcDbLinetypeTableRecord
  2
Continuous
 70
     0
  3
Solid line
 72
    65
 73
     0
 40
0.0
  0
LTYPE
  5
2D
330
5
100
AcDbSymbolTableRecord
100
AcDbLinetypeTableRecord
  2
DASHDOT
 70
     0
  3
Dash dot __ . __ . __ . __ . __ . __ . __ . __
 72
    65
 73
     4
 40
25.4
 49
12.7
 74
     0
 49
-6.349999999999999
 74
     0
 49
0.0
 74
     0
 49
-6.349999999999999
 74
     0
  0
LTYPE
  5
2E
330
5
100
AcDbSymbolTableRecord
100
AcDbLinetypeTableRecord
  2
HIDDEN
 70
     0
  3
Hidden __ __ __ __ __ __ __ __ __ __ __ __ __ _
 72
    65
 73
     2
 40
9.524999999999998
 49
6.349999999999999
 74
     0
 49
-3.174999999999999
 74
     0
  0
LTYPE
  5
C75
330
5
100
AcDbSymbolTableRecord
100
AcDbLinetypeTableRecord
  2
AM_ISO02W050
 70
     0
  3
__ __ __ __ __ __ __ __ __ __ __ __ __ __ __
 72
    65
 73
     2
 40
7.5
 49
6.0
 74
     0
 49
-1.5
 74
     0
  0
LTYPE
  5
C76
330
5
100
AcDbSymbolTableRecord
100
AcDbLinetypeTableRecord
  2
AM_ISO08W050
 70
     0
  3
____ . ____ . ____ . ____ . ____ . ____ . ____
 72
    65
 73
     4
 40
18.0
 49
12.0
 74
     0
 49
-1.5
 74
     0
 49
3.0
 74
     0
 49
-1.5
 74
     0
  0
ENDTAB
  0
TABLE
  2
LAYER
  5
2
102
{ACAD_XDICTIONARY
360
1051
102
}
330
0
100
AcDbSymbolTable
 70
    17
  0
LAYER
  5
10
102
{ACAD_XDICTIONARY
360
1395
102
}
330
2
100
AcDbSymbolTableRecord
100
AcDbLayerTableRecord
  2
0
 70
     0
 62
     7
  6
Continuous
370
    -3
390
F
  0
LAYER
  5
2F
102
{ACAD_XDICTIONARY
360
1397
102
}
330
2
100
AcDbSymbolTableRecord
100
AcDbLayerTableRecord
  2
1
 70
     0
 62
     1
  6
Continuous
370
    -3
390
F
  0
LAYER
  5
30
102
{ACAD_XDICTIONARY
360
1399
102
}
330
2
100
AcDbSymbolTableRecord
100
AcDbLayerTableRecord
  2
2
 70
     0
 62
     2
  6
Continuous
370
    -3
390
F
  0
LAYER
  5
31
102
{ACAD_XDICTIONARY
360
139B
102
}
330
2
100
AcDbSymbolTableRecord
100
AcDbLayerTableRecord
  2
3
 70
     0
 62
     3
  6
Continuous
370
    -3
390
F
  0
LAYER
  5
32
102
{ACAD_XDICTIONARY
360
139D
102
}
330
2
100
AcDbSymbolTableRecord
100
AcDbLayerTableRecord
  2
4
 70
     0
 62
     4
  6
Continuous
370
    -3
390
F
  0
LAYER
  5
33
102
{ACAD_XDICTIONARY
360
139F
102
}
330
2
100
AcDbSymbolTableRecord
100
AcDbLayerTableRecord
  2
5
 70
     0
 62
     5
  6
Continuous
370
    -3
390
F
  0
LAYER
  5
34
102
{ACAD_XDICTIONARY
360
13A1
102
}
330
2
100
AcDbSymbolTableRecord
100
AcDbLayerTableRecord
  2
6
 70
     0
 62
     6
  6
Continuous
370
    -3
390
F
  0
LAYER
  5
35
102
{ACAD_XDICTIONARY
360
13A3
102
}
330
2
100
AcDbSymbolTableRecord
100
AcDbLayerTableRecord
  2
7
 70
     0
 62
     7
  6
Continuous
370
    -3
390
F
  0
LAYER
  5
36
102
{ACAD_XDICTIONARY
360
13A5
102
}
330
2
100
AcDbSymbolTableRecord
100
AcDbLayerTableRecord
  2
cen
 70
     0
 62
     7
  6
DASHDOT
370
    -3
390
F
  0
LAYER
  5
37
102
{ACAD_XDICTIONARY
360
13A7
102
}
330
2
100
AcDbSymbolTableRecord
100
AcDbLayerTableRecord
  2
hid
 70
     0
 62
     7
  6
HIDDEN
370
    -3
390
F
  0
LAYER
  5
5D6
102
{ACAD_XDICTIONARY
360
13A9
102
}
330
2
100
AcDbSymbolTableRecord
100
AcDbLayerTableRecord
  2
hatch
 70
     0
 62
     9
  6
Continuous
370
    -3
390
F
  0
LAYER
  5
8AF
102
{ACAD_XDICTIONARY
360
13AB
102
}
330
2
100
AcDbSymbolTableRecord
100
AcDbLayerTableRecord
  2
9
 70
     0
 62
     9
  6
Continuous
370
    -3
390
F
  0
LAYER
  5
8F8
102
{ACAD_XDICTIONARY
360
13AD
102
}
330
2
100
AcDbSymbolTableRecord
100
AcDbLayerTableRecord
  2
leg fin
 70
     0
 62
     9
  6
Continuous
370
    -3
390
F
  0
LAYER
  5
91D
102
{ACAD_XDICTIONARY
360
13AF
102
}
330
2
100
AcDbSymbolTableRecord
100
AcDbLayerTableRecord
  2
cotas
 70
     0
 62
     1
  6
Continuous
370
    -3
390
F
  0
LAYER
  5
92F
330
2
100
AcDbSymbolTableRecord
100
AcDbLayerTableRecord
  2
Defpoints
 70
     0
 62
     7
  6
Continuous
290
     0
370
    -3
390
F
  0
LAYER
  5
C7B
102
{ACAD_XDICTIONARY
360
13B1
102
}
330
2
100
AcDbSymbolTableRecord
100
AcDbLayerTableRecord
  2
SANINDUSA
 70
     0
 62
     3
  6
Continuous
370
    -3
390
F
  0
LAYER
  5
1060
102
{ACAD_XDICTIONARY
360
13B3
102
}
330
2
100
AcDbSymbolTableRecord
100
AcDbLayerTableRecord
  2
hid1
 70
     0
 62
     9
  6
HIDDEN
370
    -3
390
F
1001
AcAecLayerStandard
1000

1000

  0
ENDTAB
  0
TABLE
  2
STYLE
  5
3
330
0
100
AcDbSymbolTable
 70
     4
  0
STYLE
  5
11
330
3
100
AcDbSymbolTableRecord
100
AcDbTextStyleTableRecord
  2
Standard
 70
     0
 40
0.0
 41
1.0
 50
0.0
 71
     0
 42
2.5
  3
Avgardn.ttf
  4

1001
ACAD
1000
AvantGarde Bk BT
1071
       34
  0
STYLE
  5
2C
330
3
100
AcDbSymbolTableRecord
100
AcDbTextStyleTableRecord
  2

 70
     1
 40
0.0
 41
1.0
 50
0.0
 71
     0
 42
2.5
  3
ltypeshp.shx
  4

  0
STYLE
  5
91F
330
3
100
AcDbSymbolTableRecord
100
AcDbTextStyleTableRecord
  2
SANINDUSA
 70
     0
 40
0.0
 41
1.0
 50
0.0
 71
     0
 42
2.5
  3
verdana.ttf
  4

1001
ACAD
1000
Verdana
1071
       34
  0
STYLE
  5
C7C
330
3
100
AcDbSymbolTableRecord
100
AcDbTextStyleTableRecord
  2
futura
 70
     0
 40
0.0
 41
1.0
 50
0.0
 71
     0
 42
2.5
  3
zuricrm.ttf
  4

1001
ACAD
1000
Zurich BT
1071
       34
  0
ENDTAB
  0
TABLE
  2
VIEW
  5
6
330
0
100
AcDbSymbolTable
 70
     0
  0
ENDTAB
  0
TABLE
  2
UCS
  5
7
330
0
100
AcDbSymbolTable
 70
     0
  0
ENDTAB
  0
TABLE
  2
APPID
  5
9
330
0
100
AcDbSymbolTable
 70
    14
  0
APPID
  5
12
330
9
100
AcDbSymbolTableRecord
100
AcDbRegAppTableRecord
  2
ACAD
 70
     0
  0
APPID
  5
3A
330
9
100
AcDbSymbolTableRecord
100
AcDbRegAppTableRecord
  2
DCO15
 70
     0
  0
APPID
  5
EEE
330
9
100
AcDbSymbolTableRecord
100
AcDbRegAppTableRecord
  2
ACAD_DSTYLE_DIMTEXT_FILL
 70
     0
  0
APPID
  5
EEF
330
9
100
AcDbSymbolTableRecord
100
AcDbRegAppTableRecord
  2
ACAD_DSTYLE_DIMEXT_LENGTH
 70
     0
  0
APPID
  5
EF0
330
9
100
AcDbSymbolTableRecord
100
AcDbRegAppTableRecord
  2
ACAD_DSTYLE_DIMEXT_ENABLED
 70
     0
  0
APPID
  5
EF1
330
9
100
AcDbSymbolTableRecord
100
AcDbRegAppTableRecord
  2
ACAD_DSTYLE_DIM_LINETYPE
 70
     0
  0
APPID
  5
EF2
330
9
100
AcDbSymbolTableRecord
100
AcDbRegAppTableRecord
  2
ACAD_DSTYLE_DIM_EXT1_LINETYPE
 70
     0
  0
APPID
  5
EF3
330
9
100
AcDbSymbolTableRecord
100
AcDbRegAppTableRecord
  2
ACAD_DSTYLE_DIM_EXT2_LINETYPE
 70
     0
  0
APPID
  5
FAF
330
9
100
AcDbSymbolTableRecord
100
AcDbRegAppTableRecord
  2
ACAD_DSTYLE_DIMJOGGED_JOGANGLE_SYMBOL
 70
     0
  0
APPID
  5
1013
330
9
100
AcDbSymbolTableRecord
100
AcDbRegAppTableRecord
  2
ACAD_DSTYLE_DIMARC_LENGTH_SYMBOL
 70
     0
  0
APPID
  5
1061
330
9
100
AcDbSymbolTableRecord
100
AcDbRegAppTableRecord
  2
AcAecLayerStandard
 70
     0
  0
APPID
  5
10BC
330
9
100
AcDbSymbolTableRecord
100
AcDbRegAppTableRecord
  2
ACAD_NAV_VCDISPLAY
 70
     0
  0
APPID
  5
13FF
330
9
100
AcDbSymbolTableRecord
100
AcDbRegAppTableRecord
  2
ACAD_DSTYLE_DIMRADIAL_EXTENSION
 70
     0
  0
APPID
  5
145C
330
9
100
AcDbSymbolTableRecord
100
AcDbRegAppTableRecord
  2
ACAD_MLEADERVER
 70
     0
  0
ENDTAB
  0
TABLE
  2
DIMSTYLE
  5
A
330
0
100
AcDbSymbolTable
 70
     4
100
AcDbDimStyleTable
 71
     1
340
921
  0
DIMSTYLE
105
45
330
A
100
AcDbSymbolTableRecord
100
AcDbDimStyleTableRecord
  2
STANDARD
 70
     0
289
     0
340
11
  0
DIMSTYLE
105
921
330
A
100
AcDbSymbolTableRecord
100
AcDbDimStyleTableRecord
  2
SANINDUSA
 70
     0
 41
2.0
 42
1.0
 43
1.0
 44
1.0
 73
     0
 74
     0
 77
     1
 78
     8
140
2.0
141
0.0
143
0.03937007874016
147
1.0
171
     3
172
     1
176
   256
177
   256
178
   256
179
     1
271
     1
272
     1
274
     3
278
    44
283
     0
284
     8
340
91F
371
    -1
372
    -1
1001
ACAD_DSTYLE_DIMJOGGED_JOGANGLE_SYMBOL
1070
   384
1040
1.570796326794896
  0
DIMSTYLE
105
C7D
330
A
100
AcDbSymbolTableRecord
100
AcDbDimStyleTableRecord
  2
AM_ISO
 70
     0
  4
"
 41
2.5
 42
1.0
 43
10.0
 44
1.0
 47
0.1
 48
0.1
 73
     0
 74
     0
 77
     1
 78
     8
 79
     2
140
3.5
141
0.0
143
0.0393701
146
0.71
147
1.5
172
     1
176
   256
177
   256
178
     2
271
     2
272
     3
274
     4
283
     0
284
     8
340
11
371
    -1
372
    -1
  0
DIMSTYLE
105
10CC
330
A
100
AcDbSymbolTableRecord
100
AcDbDimStyleTableRecord
  2
ISO-25
 70
     0
 41
2.5
 42
0.625
 43
3.75
 44
1.25
 73
     0
 74
     0
 77
     1
 78
     8
140
2.5
141
2.5
143
0.03937007874016
147
0.625
171
     3
172
     1
271
     2
272
     2
274
     3
278
    44
283
     0
284
     8
340
11
  0
ENDTAB
  0
TABLE
  2
BLOCK_RECORD
  5
1
330
0
100
AcDbSymbolTable
 70
     9
  0
BLOCK_RECORD
  5
1F
330
1
100
AcDbSymbolTableRecord
100
AcDbBlockTableRecord
  2
*Model_Space
340
22
  0
BLOCK_RECORD
  5
1B
330
1
100
AcDbSymbolTableRecord
100
AcDbBlockTableRecord
  2
*Paper_Space
340
1E
  0
BLOCK_RECORD
  5
23
330
1
100
AcDbSymbolTableRecord
100
AcDbBlockTableRecord
  2
*Paper_Space0
340
26
  0
BLOCK_RECORD
  5
919
330
1
100
AcDbSymbolTableRecord
100
AcDbBlockTableRecord
  2
_DotSmall
340
0
  0
BLOCK_RECORD
  5
922
330
1
100
AcDbSymbolTableRecord
100
AcDbBlockTableRecord
  2
base para cotas
340
0
310
2800000020000000200000000100080000000000000400000000000000000000000000000000000000000000000080000080000000808000800000008000800080800000C0C0C000C0DCC000F0CAA6000020400000206000002080000020A0000020C0000020E00000400000004020000040400000406000004080000040A0
310
000040C0000040E00000600000006020000060400000606000006080000060A0000060C0000060E00000800000008020000080400000806000008080000080A0000080C0000080E00000A0000000A0200000A0400000A0600000A0800000A0A00000A0C00000A0E00000C0000000C0200000C0400000C0600000C0800000C0
310
A00000C0C00000C0E00000E0000000E0200000E0400000E0600000E0800000E0A00000E0C00000E0E00040000000400020004000400040006000400080004000A0004000C0004000E00040200000402020004020400040206000402080004020A0004020C0004020E000404000004040200040404000404060004040800040
310
40A0004040C0004040E00040600000406020004060400040606000406080004060A0004060C0004060E00040800000408020004080400040806000408080004080A0004080C0004080E00040A0000040A0200040A0400040A0600040A0800040A0A00040A0C00040A0E00040C0000040C0200040C0400040C0600040C08000
310
40C0A00040C0C00040C0E00040E0000040E0200040E0400040E0600040E0800040E0A00040E0C00040E0E00080000000800020008000400080006000800080008000A0008000C0008000E00080200000802020008020400080206000802080008020A0008020C0008020E00080400000804020008040400080406000804080
310
008040A0008040C0008040E00080600000806020008060400080606000806080008060A0008060C0008060E00080800000808020008080400080806000808080008080A0008080C0008080E00080A0000080A0200080A0400080A0600080A0800080A0A00080A0C00080A0E00080C0000080C0200080C0400080C0600080C0
310
800080C0A00080C0C00080C0E00080E0000080E0200080E0400080E0600080E0800080E0A00080E0C00080E0E000C0000000C0002000C0004000C0006000C0008000C000A000C000C000C000E000C0200000C0202000C0204000C0206000C0208000C020A000C020C000C020E000C0400000C0402000C0404000C0406000C0
310
408000C040A000C040C000C040E000C0600000C0602000C0604000C0606000C0608000C060A000C060C000C060E000C0800000C0802000C0804000C0806000C0808000C080A000C080C000C080E000C0A00000C0A02000C0A04000C0A06000C0A08000C0A0A000C0A0C000C0A0E000C0C00000C0C02000C0C04000C0C06000
310
C0C08000C0C0A000F0FBFF00A4A0A000808080000000FF0000FF000000FFFF00FF000000FF00FF00FFFF0000FFFFFF00A4A4A4A4A4A4A4A4A4A4A4A4A4A4A4A4A4A4A4A4A4A4A4A4A4A4A4A4A4A4A4A4A4A4A4A4A4A4A4A4A4A4A4A4A4A4A4A4A4A4A4A4A4A4A4A4A4A4A4A4A4A4A4A4A4A4A4A4A4A4A4A4A4A4A4A4A4A4A4
310
A4A4A4A4A4A4A4A4A4A4A4A4A4A4A4A4A4A4A4A4A4A4A4A4A4A4A4A4A4A4A4A4A4A4A4A4A4A4A4A4A4A4A4A4A4A4A4A4A4A4A4A4A4A4A4A4A4A4A4A4A4A4A4A4A4A4A4A4A4A4A4A4A4A4A4A4A4A4A4A4A4A4A4A4A4A4A4A4A4A4A4A4A4A4A4A4A4A4A4A4A4A4A4A4A4A4A4A4A4A4A4A4A4A4A4A4A4A4A4A4A4A4A4A4A4A4A4
310
A4A4A4A4A4A4A4A4A4A4A4A4A4A4A4A4A4A4A4A4A4A4A4A4A4A4A4A4A4A4A4A4A4A4A4A4A4A4A4A4A4A4A4A4A4A4A4A4A4A4A4A4A4A4A4A4A4A4A4A4A4A4A4A4A4A4A4A4A4A4A4A4A4A4A4A4A4A4A4A4A4A4A4A4A4A4A4A4A4A4A4A4A4A4A4A4A4A4A4A4A4A4A4A4A4A4A4A4A4A4A4A4A4A4A4A4A4A4A4A4A4A4A4A4A4A4A4
310
A4A4A4A4A4A4A4A4A4A4A4A4A4A4A4A4A4A4A4A4A4A4A4A4A4A4A4A4A4A4A4A4A4A4A4A4A4A4A4A4A4A4A4A4A4A4A4A4A4A4A4A4A4A4A4A4A4A4A4A4A4A4A4A4A4A4A4A4A4A4A4A4A4A4A4A4A4A4A4A4A4A4A4A4A4A4A4A4A4A4A4A4A4A4A4A4A4A4A4A4A4A4A4A4A4A4A4A4A4A4A4A4A4A4A4A4F9F9F9F9F9F9F9F9F9F9F9
310
F9F9F9F9F9F9F9F9F9F9F9F9F9F9F9F9F9F9F9A4A4F9F9F9F9F9F9F9F9F9F9F9F9F9F9F9F9F9F9F9F9F9F9F9F9F9F9F9F9F9F9A4A4F9F9F9F9F9F9F9F9F9F9F9F9F9F9F9F9F9F9F9F9F9F9F9F9F9F9F9F9F9F9A4A4F9A4A4A4A4A4A4A4A4A4A4A4A4A4A4A4A4A4A4A4A4A4A4A4A4A4A4A4A4F9A4A4A4A4A4A4A4A4A4A4A4A4
310
A4A4A4A4A4A4A4A4A4A4A4A4A4A4A4A4A4A4A4A4A4A4A4A4A4A4A4A4A4A4A4A4A4A4A4A4A4A4A4A4A4A4A4A4A4A4A4A4A4A4A4A4A4A4A4A4A4A4A4A4A4A4A4A4A4A4A4A4A4A4A4A4A4A4A4A4A4A4A4A4A4A4A4A4A4A4A4A4A4A4A4A4A4A4A4A4A4A4A4A4A4A4A4A4A4A4A4A4A4A4A4A4A4A4A4A4A4A4A4A4A4A4A4A4A4A4A4
310
A4A4A4A4A4A4A4A4A4A4A4A4A4A4A4A4A4A4A4A4A4A4A4A4A4A4A4A4A4A4A4A4A4A4A4A4A4A4A4A4A4A4A4A4A4A4A4A4A4A4A4A4A4A4A4A4A4A4A4A4A4A4A4A4A4A4A4A4A4A4A4A4A4A4A4A4A4A4A4A4A4A4A4A4A4A4A4A4A4A4A4A4A4A4A4A4A4A4A4A4A4A4A4A4A4A4A4A4A4A4A4A4A4A4A4A4A4A4A4A4A4A4A4A4A4A4A4
310
A4A4A4A4A4A4A4A4A4A4A4A4A4A4A4A4A4A4A4A4A4A4A4A4A4A4A4A4A4A4A4A4A4A4A4A4A4A4A4A4A4A4A4A4A4A4A4A4A4A4A4A4A4A4A4A4A4A4A4A4A4A4A4A4A4A4A4A4A4A4A4A4A4A4A4A4A4A4A4A4A4A4A4A4A4A4A4A4A4A4A4A4A4A4A4A4A4A4A4A4A4A4A4A4A4A4A4A4A4A4A4A4A4A4A4A4A4A4A4A4A4A4A4A4A4A4A4
310
A4A4A4A4A4A4A4A4A4A4A4A4A4A4A4A4A4A4A4A4A4A4A4A4A4A4A4A4A4A4A4A4A4A4A4A4A4A4A4A4A4A4A4A4A4A4A4A4A4A4A4A4A4A4A4A4
1001
ACAD
1000
DesignCenter Data
1002
{
1070
     1
1070
     4
1002
}
  0
BLOCK_RECORD
  5
AA8
330
1
100
AcDbSymbolTableRecord
100
AcDbBlockTableRecord
  2
_CLOSED
340
0
  0
BLOCK_RECORD
  5
B79
330
1
100
AcDbSymbolTableRecord
100
AcDbBlockTableRecord
  2
nota revisoes
340
0
1001
ACAD
1000
DesignCenter Data
1002
{
1070
     1
1070
     4
1002
}
  0
BLOCK_RECORD
  5
B8E
330
1
100
AcDbSymbolTableRecord
100
AcDbBlockTableRecord
  2
a3l
340
0
1001
ACAD
1000
DesignCenter Data
1002
{
1070
     1
1070
     4
1002
}
  0
BLOCK_RECORD
  5
B9E
330
1
100
AcDbSymbolTableRecord
100
AcDbBlockTableRecord
  2
legenda desenvolvimento
340
0
1001
ACAD
1000
DesignCenter Data
1002
{
1070
     1
1070
     4
1002
}
  0
BLOCK_RECORD
  5
1401
330
1
100
AcDbSymbolTableRecord
100
AcDbBlockTableRecord
  2
*D8
340
0
  0
ENDTAB
  0
ENDSEC
  0
SECTION
  2
BLOCKS
  0
BLOCK
  5
20
330
1F
100
AcDbEntity
  8
0
100
AcDbBlockBegin
  2
*Model_Space
 70
     0
 10
0.0
 20
0.0
 30
0.0
  3
*Model_Space
  1

  0
ENDBLK
  5
21
330
1F
100
AcDbEntity
  8
0
100
AcDbBlockEnd
  0
BLOCK
  5
1C
330
1B
100
AcDbEntity
 67
     1
  8
0
100
AcDbBlockBegin
  2
*Paper_Space
 70
     0
 10
0.0
 20
0.0
 30
0.0
  3
*Paper_Space
  1

  0
ENDBLK
  5
1D
330
1B
100
AcDbEntity
 67
     1
  8
0
100
AcDbBlockEnd
  0
BLOCK
  5
24
330
23
100
AcDbEntity
 67
     1
  8
0
100
AcDbBlockBegin
  2
*Paper_Space0
 70
     0
 10
0.0
 20
0.0
 30
0.0
  3
*Paper_Space0
  1

  0
ENDBLK
  5
25
330
23
100
AcDbEntity
 67
     1
  8
0
100
AcDbBlockEnd
  0
BLOCK
  5
91B
330
919
100
AcDbEntity
  8
0
100
AcDbBlockBegin
  2
_DotSmall
 70
     0
 10
0.0
 20
0.0
 30
0.0
  3
_DotSmall
  1

  0
LWPOLYLINE
  5
91A
330
919
100
AcDbEntity
  8
0
  6
ByBlock
 62
     0
100
AcDbPolyline
 90
        2
 70
     1
 43
0.5
 10
-0.0625
 20
0.0
 42
1.0
 10
0.0625
 20
0.0
 42
1.0
  0
ENDBLK
  5
91C
330
919
100
AcDbEntity
  8
0
100
AcDbBlockEnd
  0
BLOCK
  5
92A
330
922
100
AcDbEntity
  8
0
100
AcDbBlockBegin
  2
base para cotas
 70
     0
 10
0.0
 20
0.0
 30
0.0
  3
base para cotas
  1

  0
LINE
  5
B36
330
922
100
AcDbEntity
  8
cotas
100
AcDbLine
 10
0.0
 20
-30.0
 30
0.0
 11
327.1260136525398
 21
-30.0
 31
0.0
  0
LINE
  5
B37
330
922
100
AcDbEntity
  8
cotas
100
AcDbLine
 10
0.0
 20
-25.0
 30
0.0
 11
327.1260136525398
 21
-25.0
 31
0.0
  0
LINE
  5
B38
330
922
100
AcDbEntity
  8
cotas
100
AcDbLine
 10
0.0
 20
-20.0
 30
0.0
 11
327.1260136525398
 21
-20.0
 31
0.0
  0
LINE
  5
B39
330
922
100
AcDbEntity
  8
cotas
100
AcDbLine
 10
0.0
 20
-15.0
 30
0.0
 11
327.1260136525398
 21
-15.0
 31
0.0
  0
LINE
  5
B3A
330
922
100
AcDbEntity
  8
cotas
100
AcDbLine
 10
0.0
 20
-10.0
 30
0.0
 11
327.1260136525398
 21
-10.0
 31
0.0
  0
LINE
  5
B3B
330
922
100
AcDbEntity
  8
cotas
100
AcDbLine
 10
0.0
 20
0.0
 30
0.0
 11
0.0
 21
-30.0
 31
0.0
  0
LINE
  5
B3C
330
922
100
AcDbEntity
  8
cotas
100
AcDbLine
 10
327.1260136525398
 20
-30.0
 30
0.0
 11
327.1260136525398
 21
0.0
 31
0.0
  0
ENDBLK
  5
92B
330
922
100
AcDbEntity
  8
0
100
AcDbBlockEnd
  0
BLOCK
  5
AAD
330
AA8
100
AcDbEntity
  8
0
100
AcDbBlockBegin
  2
_CLOSED
 70
     0
 10
0.0
 20
0.0
 30
0.0
  3
_CLOSED
  1

  0
LINE
  5
AA9
330
AA8
100
AcDbEntity
  8
0
100
AcDbLine
 10
-1.0
 20
0.166667
 30
0.0
 11
0.0
 21
0.0
 31
0.0
  0
LINE
  5
AAA
330
AA8
100
AcDbEntity
  8
0
100
AcDbLine
 10
0.0
 20
0.0
 30
0.0
 11
-1.0
 21
-0.166667
 31
0.0
  0
LINE
  5
AAB
330
AA8
100
AcDbEntity
  8
0
100
AcDbLine
 10
-1.0
 20
0.166667
 30
0.0
 11
-1.0
 21
-0.166667
 31
0.0
  0
LINE
  5
AAC
330
AA8
100
AcDbEntity
  8
0
100
AcDbLine
 10
0.0
 20
0.0
 30
0.0
 11
-1.0
 21
0.0
 31
0.0
  0
ENDBLK
  5
AAE
330
AA8
100
AcDbEntity
  8
0
100
AcDbBlockEnd
  0
BLOCK
  5
B7C
330
B79
100
AcDbEntity
  8
0
100
AcDbBlockBegin
  2
nota revisoes
 70
     0
 10
0.0
 20
0.0
 30
0.0
  3
nota revisoes
  1

  0
CIRCLE
  5
B7A
330
B79
100
AcDbEntity
  8
4
100
AcDbCircle
 10
0.0
 20
0.0
 30
0.0
 40
13.69426055101189
  0
TEXT
  5
B7B
330
B79
100
AcDbEntity
  8
4
100
AcDbText
 10
-5.496248358154345
 20
-5.354545554066362
 30
0.0
 40
12.0
  1
1
  7
SANINDUSA
 72
     1
 11
-0.249774214433728
 21
-5.354545554066362
 31
0.0
100
AcDbText
  0
ENDBLK
  5
B7D
330
B79
100
AcDbEntity
  8
0
100
AcDbBlockEnd
  0
BLOCK
  5
B9C
330
B8E
100
AcDbEntity
  8
0
100
AcDbBlockBegin
  2
a3l
 70
     0
 10
0.0
 20
0.0
 30
0.0
  3
a3l
  1

  0
LINE
  5
B8F
330
B8E
100
AcDbEntity
  8
1
100
AcDbLine
 10
-364.2925296599447
 20
-362.1188951399395
 30
0.0
 11
-364.2925296599447
 21
-65.11889513993946
 31
0.0
  0
LINE
  5
B90
330
B8E
100
AcDbEntity
  8
4
100
AcDbLine
 10
-369.2925296599447
 20
-357.1188951399395
 30
0.0
 11
-369.2925296599447
 21
-70.11889513993946
 31
0.0
  0
LINE
  5
B91
330
B8E
100
AcDbEntity
  8
1
100
AcDbLine
 10
-784.2925296599446
 20
-65.11889513993946
 30
0.0
 11
-784.2925296599446
 21
-362.1188951399395
 31
0.0
  0
LINE
  5
B92
330
B8E
100
AcDbEntity
  8
4
100
AcDbLine
 10
-759.2925296599446
 20
-357.1188951399395
 30
0.0
 11
-759.2925296599446
 21
-70.11889513993946
 31
0.0
  0
LINE
  5
B93
330
B8E
100
AcDbEntity
  8
1
100
AcDbLine
 10
-784.2925296599446
 20
-362.1188951399395
 30
0.0
 11
-364.2925296599447
 21
-362.1188951399395
 31
0.0
  0
LINE
  5
B94
330
B8E
100
AcDbEntity
  8
4
100
AcDbLine
 10
-759.2925296599446
 20
-357.1188951399395
 30
0.0
 11
-369.2925296599447
 21
-357.1188951399395
 31
0.0
  0
LINE
  5
B95
330
B8E
100
AcDbEntity
  8
1
100
AcDbLine
 10
-654.2925296599446
 20
-357.1188951399395
 30
0.0
 11
-654.2925296599446
 21
-362.1188951399395
 31
0.0
  0
LINE
  5
B96
330
B8E
100
AcDbEntity
  8
1
100
AcDbLine
 10
-364.2925296599447
 20
-65.11889513993946
 30
0.0
 11
-784.2925296599446
 21
-65.11889513993946
 31
0.0
  0
LINE
  5
B97
330
B8E
100
AcDbEntity
  8
4
100
AcDbLine
 10
-369.2925296599447
 20
-70.11889513993946
 30
0.0
 11
-759.2925296599446
 21
-70.11889513993946
 31
0.0
  0
LINE
  5
B98
330
B8E
100
AcDbEntity
  8
1
100
AcDbLine
 10
-654.2925296599446
 20
-65.11889513993946
 30
0.0
 11
-654.2925296599446
 21
-70.11889513993946
 31
0.0
  0
LINE
  5
B99
330
B8E
100
AcDbEntity
  8
1
100
AcDbLine
 10
-549.2925296599446
 20
-70.11889513993946
 30
0.0
 11
-549.2925296599446
 21
-65.11889513993946
 31
0.0
  0
LINE
  5
B9A
330
B8E
100
AcDbEntity
  8
1
100
AcDbLine
 10
-369.2925296599447
 20
-65.11889513993946
 30
0.0
 11
-364.2925296599447
 21
-65.11889513993946
 31
0.0
  0
LINE
  5
B9B
330
B8E
100
AcDbEntity
  8
1
100
AcDbLine
 10
-549.2925296599446
 20
-357.1188951399395
 30
0.0
 11
-549.2925296599446
 21
-362.1188951399395
 31
0.0
  0
ENDBLK
  5
B9D
330
B8E
100
AcDbEntity
  8
0
100
AcDbBlockEnd
  0
BLOCK
  5
C13
330
B9E
100
AcDbEntity
  8
0
100
AcDbBlockBegin
  2
legenda desenvolvimento
 70
     2
 10
0.0
 20
0.0
 30
0.0
  3
legenda desenvolvimento
  1

  0
ATTDEF
  5
B9F
330
B9E
100
AcDbEntity
  8
1
100
AcDbText
 10
-108.606245802552
 20
55.5
 30
0.0
 40
4.0
  1
XXXXXXXXXXXXXX
 41
0.8
  7
SANINDUSA
 72
     4
 11
-87.5
 21
57.5
 31
0.0
100
AcDbAttributeDefinition
  3
Nome do Produto:
  2
PRODUTO
 70
     0
  0
ATTDEF
  5
BA0
330
B9E
100
AcDbEntity
  8
1
100
AcDbText
 10
-97.9997966101695
 20
41.25
 30
0.0
 40
3.0
  1
XXXXXXXXX
 41
0.8
  7
futura
 72
     4
 11
-87.5
 21
42.75
 31
0.0
100
AcDbAttributeDefinition
  3
Nome da Peça:
  2
PECA
 70
     0
  0
ATTDEF
  5
BA1
330
B9E
100
AcDbEntity
  8
1
100
AcDbText
 10
-133.4422431161853
 20
21.11745296763252
 30
0.0
 40
2.5
  1
X
 41
0.8
  7
SANINDUSA
 72
     4
 11
-132.5
 21
22.36745296763252
 31
0.0
100
AcDbAttributeDefinition
  3
Cod. TESTE:
  2
TESTE
 70
     0
  0
ATTDEF
  5
BA2
330
B9E
100
AcDbEntity
  8
1
100
AcDbText
 10
-124.3844862323707
 20
21.11745296763252
 30
0.0
 40
2.5
  1
XX
 41
0.8
  7
SANINDUSA
 72
     4
 11
-122.5
 21
22.36745296763252
 31
0.0
100
AcDbAttributeDefinition
  3
Cod. Ano:
  2
ANO
 70
     0
  0
ATTDEF
  5
BA3
330
B9E
100
AcDbEntity
  8
1
100
AcDbText
 10
-112.526889953052
 20
21.11745296763252
 30
0.0
 40
2.5
  1
XXX
 41
0.8
  7
SANINDUSA
 72
     4
 11
-109.700160604496
 21
22.36745296763252
 31
0.0
100
AcDbAttributeDefinition
  3
Cod. Sequência:
  2
SEQUENCIA
 70
     0
  0
ATTDEF
  5
BA4
330
B9E
100
AcDbEntity
  8
1
100
AcDbText
 10
-99.35382430979316
 20
21.11745296763252
 30
0.0
 40
2.5
  1
XX
 41
0.8
  7
SANINDUSA
 72
     4
 11
-97.46933807742244
 21
22.36745296763252
 31
0.0
100
AcDbAttributeDefinition
  3
Cod. Tipo:
  2
TIPO
 70
     0
  0
ATTDEF
  5
BA5
330
B9E
100
AcDbEntity
  8
1
100
AcDbText
 10
-87.42035911468438
 20
21.11745296763252
 30
0.0
 40
2.5
  1
XXX
 41
0.8
  7
SANINDUSA
 72
     4
 11
-84.59362976612828
 21
22.36745296763252
 31
0.0
100
AcDbAttributeDefinition
  3
Cod. Produto:
  2
PRODUTO
 70
     0
  0
ATTDEF
  5
BA6
330
B9E
100
AcDbEntity
  8
1
100
AcDbText
 10
-74.62051971917853
 20
21.11745296763252
 30
0.0
 40
2.5
  1
XXX
 41
0.8
  7
SANINDUSA
 72
     4
 11
-71.79379037062244
 21
22.36745296763252
 31
0.0
100
AcDbAttributeDefinition
  3
Cod. Peça:
  2
PECA
 70
     0
  0
ATTDEF
  5
BA7
330
B9E
100
AcDbEntity
  8
1
100
AcDbText
 10
-61.10603446650329
 20
21.11745296763252
 30
0.0
 40
2.5
  1
XX
 41
0.8
  7
SANINDUSA
 72
     4
 11
-59.22154823413257
 21
22.36745296763252
 31
0.0
100
AcDbAttributeDefinition
  3
Cod. Revisão:
  2
REV
 70
     0
  0
ATTDEF
  5
BA8
330
B9E
100
AcDbEntity
  8
1
100
AcDbText
 10
-48.43615325006194
 20
21.11745296763252
 30
0.0
 40
2.5
  1
XX
 41
0.8
  7
SANINDUSA
 72
     4
 11
-46.55166701769121
 21
22.36745296763252
 31
0.0
100
AcDbAttributeDefinition
  3
Cod. Alteração:
  2
ALT
 70
     0
  0
ATTDEF
  5
BA9
330
B9E
100
AcDbEntity
  8
1
100
AcDbText
 10
-35.19086635325722
 20
23.98875083948959
 30
0.0
 40
3.0
  1
1/XXX
 41
0.8
  7
SANINDUSA
 72
     4
 11
-30.0
 21
25.25
 31
0.0
100
AcDbAttributeDefinition
  3
Escala geral:
  2
ESCALA
 70
     0
  0
ATTDEF
  5
BAA
330
B9E
100
AcDbEntity
  8
1
100
AcDbText
 10
-15.65345869711215
 20
23.75
 30
0.0
 40
3.0
  1
XXXXX
 41
0.8
  7
SANINDUSA
 72
     4
 11
-10.0
 21
25.25
 31
0.0
100
AcDbAttributeDefinition
  3
Folha:
  2
FOLHA
 70
     0
  0
ATTDEF
  5
BAB
330
B9E
100
AcDbEntity
  8
1
100
AcDbText
 10
-178.5146998822042
 20
56.9531347542807
 30
0.0
 40
2.0
  1
xx
 41
0.8
  7
SANINDUSA
 72
     4
 11
-177.2123493113513
 21
57.70330265219877
 31
0.0
100
AcDbAttributeDefinition
  3
revisão
  2
REV.
 70
     0
  0
ATTDEF
  5
BAC
330
B9E
100
AcDbEntity
  8
1
100
AcDbText
 10
-172.7849640077129
 20
56.9531347542807
 30
0.0
 40
2.0
  1
xx
 41
0.8
  7
SANINDUSA
 72
     4
 11
-171.48261343686
 21
57.70330265219877
 31
0.0
100
AcDbAttributeDefinition
  3
alteração
  2
ALT.
 70
     0
  0
ATTDEF
  5
BAD
330
B9E
100
AcDbEntity
  8
1
100
AcDbText
 10
-168.007199951307
 20
56.70330265219877
 30
0.0
 40
2.0
  1
xx/xx/xxxx
 41
0.8
  7
SANINDUSA
 11
-168.007199951307
 21
57.70330265219877
 31
0.0
100
AcDbAttributeDefinition
  3
data
  2
DATA
 70
     0
 74
     2
  0
ATTDEF
  5
BAE
330
B9E
100
AcDbEntity
  8
1
100
AcDbText
 10
-168.5396372253371
 20
13.15916722632639
 30
0.0
 40
2.0
  1
XX/XX/XXXX
 41
0.8
  7
SANINDUSA
 72
     4
 11
-161.5099528734231
 21
14.0
 31
0.0
100
AcDbAttributeDefinition
  3
Data projecto
  2
DATA_PROJ
 70
     0
  0
ATTDEF
  5
BAF
330
B9E
100
AcDbEntity
  8
1
100
AcDbText
 10
-150.8658110728766
 20
13.24983210208193
 30
0.0
 40
2.0
  1
xxxxxxxx
 41
0.8
  7
SANINDUSA
 72
     4
 11
-145.6564087894649
 21
14.0
 31
0.0
100
AcDbAttributeDefinition
  3
nome de quem projectou
  2
NOME
 70
     0
  0
ATTDEF
  5
BB0
330
B9E
100
AcDbEntity
  8
1
100
AcDbText
 10
-168.5396372253371
 20
9.159167226326394
 30
0.0
 40
2.0
  1
XX/XX/XXXX
 41
0.8
  7
SANINDUSA
 72
     4
 11
-161.5099528734231
 21
10.0
 31
0.0
100
AcDbAttributeDefinition
  3
Data desenhou
  2
DATA_DES
 70
     0
  0
ATTDEF
  5
BB1
330
B9E
100
AcDbEntity
  8
1
100
AcDbText
 10
-151.516986358303
 20
9.249832102081933
 30
0.0
 40
2.0
  1
xxxxxxxxx
 41
0.8
  7
SANINDUSA
 72
     4
 11
-145.6564087894649
 21
10.0
 31
0.0
100
AcDbAttributeDefinition
  3
nome
  2
NOME
 70
     0
  0
ATTDEF
  5
BB2
330
B9E
100
AcDbEntity
  8
1
100
AcDbText
 10
-127.2924214135946
 20
14.1979876583216
 30
0.0
 40
2.0
  1
Vitreous China
 41
0.8
  7
SANINDUSA
 72
     4
 11
-119.231709526422
 21
15.22216495852308
 31
0.0
100
AcDbAttributeDefinition
  3
Nome do Material:
  2
MATERIAL
 70
     0
  0
ATTDEF
  5
BB3
330
B9E
100
AcDbEntity
  8
1
100
AcDbText
 10
-103.1563452122093
 20
14.38019043949261
 30
0.0
 40
2.0
  1
Branco
 41
0.8
  7
SANINDUSA
 72
     4
 11
-99.33418268702462
 21
15.35937109765245
 31
0.0
100
AcDbAttributeDefinition
  3
cor da peça
  2
COR
 70
     0
  0
ATTDEF
  5
BB4
330
B9E
100
AcDbEntity
  8
1
100
AcDbText
 10
-116.7235057085292
 20
5.975822699798522
 30
0.0
 40
2.0
  1
Vidrado
 41
0.8
  7
SANINDUSA
 72
     4
 11
-112.5
 21
7.0
 31
0.0
100
AcDbAttributeDefinition
  3
Tipo de acabamento:
  2
ACABAMENTO
 70
     0
  0
ATTDEF
  5
BB5
330
B9E
100
AcDbEntity
  8
1
100
AcDbText
 10
-79.18527869967246
 20
16.65066409850533
 30
0.0
 40
2.0
  1
XXXXXXX
 41
0.8
  7
SANINDUSA
 72
     4
 11
-73.90871724903445
 21
17.65066409850533
 31
0.0
100
AcDbAttributeDefinition
  3
Normas
  2
NORMAS
 70
     0
  0
ATTDEF
  5
BB6
330
B9E
100
AcDbEntity
  8
1
100
AcDbText
 10
-30.55312290127603
 20
14.0
 30
0.0
 40
2.0
  1
XXXXXXXXXXXXXX
 41
0.8
  7
SANINDUSA
 72
     4
 11
-20.0
 21
15.0
 31
0.0
100
AcDbAttributeDefinition
  3
Substitui o desenho:
  2
SUBSTITUI
 70
     0
  0
ATTDEF
  5
BB7
330
B9E
100
AcDbEntity
  8
1
100
AcDbText
 10
-31.30691739422431
 20
6.0
 30
0.0
 40
2.0
  1
XXXXXXXXXXXXXXX
 41
0.8
  7
SANINDUSA
 72
     4
 11
-20.0
 21
7.0
 31
0.0
100
AcDbAttributeDefinition
  3
Substituido por:
  2
SUBSTITUIDO
 70
     0
  0
ATTDEF
  5
BB8
330
B9E
100
AcDbEntity
  8
1
100
AcDbText
 10
-110.0220608548302
 20
1.478208457928303
 30
0.0
 40
2.0
  1
XXXXXXXXXXXXXXXXXXXXXXXXXXXXXXXXXX
 41
0.8
  7
SANINDUSA
 11
-110.0220608548302
 21
2.478208457928303
 31
0.0
100
AcDbAttributeDefinition
  3
Localização do desenho:
  2
LOC-DWG
 70
     0
 74
     2
  0
LINE
  5
BB9
330
B9E
100
AcDbEntity
  8
3
100
AcDbLine
 10
-135.0
 20
4.0
 30
0.0
 11
0.0000000000004547
 21
4.0
 31
0.0
  0
LINE
  5
BBA
330
B9E
100
AcDbEntity
  8
3
100
AcDbLine
 10
-90.00000000000046
 20
12.0
 30
0.0
 11
-135.0
 21
12.0
 31
0.0
  0
LINE
  5
BBB
330
B9E
100
AcDbEntity
  8
3
100
AcDbLine
 10
-135.0
 20
32.5
 30
0.0
 11
-40.0
 21
32.5
 31
0.0
  0
TEXT
  5
BBC
330
B9E
100
AcDbEntity
  8
1
100
AcDbText
 10
-134.0
 20
1.25
 30
0.0
 40
2.0
  1
Localização do des.:
 41
0.8
  7
SANINDUSA
 11
-134.0
 21
2.25
 31
0.0
100
AcDbText
 73
     2
  0
LINE
  5
BBD
330
B9E
100
AcDbEntity
  8
3
100
AcDbLine
 10
-180.0
 20
65.0
 30
0.0
 11
0.0
 21
65.0
 31
0.0
  0
LINE
  5
BBE
330
B9E
100
AcDbEntity
  8
leg fin
100
AcDbLine
 10
-40.0
 20
25.05956924886846
 30
0.0
 11
-135.0
 21
25.05956924886846
 31
0.0
  0
LINE
  5
BBF
330
B9E
100
AcDbEntity
  8
leg fin
100
AcDbLine
 10
-40.0
 20
28.5
 30
0.0
 11
-135.0
 21
28.5
 31
0.0
  0
LINE
  5
BC0
330
B9E
100
AcDbEntity
  8
3
100
AcDbLine
 10
-135.0
 20
50.0
 30
0.0
 11
-40.0
 21
50.0
 31
0.0
  0
TEXT
  5
BC1
330
B9E
100
AcDbEntity
  8
1
100
AcDbText
 10
-134.0
 20
29.75
 30
0.0
 40
2.0
  1
Desenho nº:
 41
0.8
  7
SANINDUSA
 11
-134.0
 21
30.75
 31
0.0
100
AcDbText
 73
     2
  0
TEXT
  5
BC2
330
B9E
100
AcDbEntity
  8
1
100
AcDbText
 10
-134.0
 20
9.25
 30
0.0
 40
2.0
  1
Acabamento:
 41
0.8
  7
SANINDUSA
 11
-134.0
 21
10.25
 31
0.0
100
AcDbText
 73
     2
  0
LINE
  5
BC3
330
B9E
100
AcDbEntity
  8
3
100
AcDbLine
 10
-180.0
 20
20.0
 30
0.0
 11
0.0
 21
20.0
 31
0.0
  0
LINE
  5
BC4
330
B9E
100
AcDbEntity
  8
1
100
AcDbLine
 10
-174.5810776056337
 20
55.5
 30
0.0
 11
-174.5810776056337
 21
65.0
 31
0.0
  0
LINE
  5
BC5
330
B9E
100
AcDbEntity
  8
1
100
AcDbLine
 10
-168.9210461879161
 20
55.5
 30
0.0
 11
-168.9210461879161
 21
65.0
 31
0.0
  0
LINE
  5
BC6
330
B9E
100
AcDbEntity
  8
1
100
AcDbLine
 10
-154.0988595589306
 20
55.5
 30
0.0
 11
-154.0988595589306
 21
65.0
 31
0.0
  0
LINE
  5
BC7
330
B9E
100
AcDbEntity
  8
3
100
AcDbLine
 10
-180.0
 20
65.0
 30
0.0
 11
-180.0
 21
0.0
 31
0.0
  0
LINE
  5
BC8
330
B9E
100
AcDbEntity
  8
3
100
AcDbLine
 10
-135.0
 20
0.0
 30
0.0
 11
-135.0
 21
65.0
 31
0.0
  0
TEXT
  5
BC9
330
B9E
100
AcDbEntity
  8
1
100
AcDbText
 10
-179.0
 20
9.75
 30
0.0
 40
1.5
  1
Des.
 41
0.8
  7
SANINDUSA
 11
-179.0
 21
10.5
 31
0.0
100
AcDbText
 73
     2
  0
LINE
  5
BCA
330
B9E
100
AcDbEntity
  8
1
100
AcDbLine
 10
-168.9210461879161
 20
20.0
 30
0.0
 11
-168.9210461879161
 21
0.0
 31
0.0
  0
LINE
  5
BCB
330
B9E
100
AcDbEntity
  8
1
100
AcDbLine
 10
-154.0988595589306
 20
20.0
 30
0.0
 11
-154.0988595589306
 21
0.0
 31
0.0
  0
LINE
  5
BCC
330
B9E
100
AcDbEntity
  8
1
100
AcDbLine
 10
-180.0
 20
4.0
 30
0.0
 11
-135.0
 21
4.0
 31
0.0
  0
LINE
  5
BCD
330
B9E
100
AcDbEntity
  8
1
100
AcDbLine
 10
-180.0
 20
8.0
 30
0.0
 11
-135.0
 21
8.0
 31
0.0
  0
TEXT
  5
BCE
330
B9E
100
AcDbEntity
  8
1
100
AcDbText
 10
-179.0
 20
1.73257823687436
 30
0.0
 40
1.5
  1
Aprov.
 41
0.8
  7
SANINDUSA
 11
-179.0
 21
2.48257823687436
 31
0.0
100
AcDbText
 73
     2
  0
TEXT
  5
BCF
330
B9E
100
AcDbEntity
  8
1
100
AcDbText
 10
-179.0
 20
5.75
 30
0.0
 40
1.5
  1
Ver.
 41
0.8
  7
SANINDUSA
 11
-179.0
 21
6.5
 31
0.0
100
AcDbText
 73
     2
  0
LINE
  5
BD0
330
B9E
100
AcDbEntity
  8
1
100
AcDbLine
 10
-180.0
 20
16.0
 30
0.0
 11
-135.0
 21
16.0
 31
0.0
  0
LINE
  5
BD1
330
B9E
100
AcDbEntity
  8
1
100
AcDbLine
 10
-180.0
 20
12.0
 30
0.0
 11
-135.0
 21
12.0
 31
0.0
  0
TEXT
  5
BD2
330
B9E
100
AcDbEntity
  8
1
100
AcDbText
 10
-179.0
 20
13.75
 30
0.0
 40
1.5
  1
Proj.
 41
0.8
  7
SANINDUSA
 11
-179.0
 21
14.5
 31
0.0
100
AcDbText
 73
     2
  0
TEXT
  5
BD3
330
B9E
100
AcDbEntity
  8
1
100
AcDbText
 10
-167.9210461879161
 20
17.75
 30
0.0
 40
1.5
  1
Data
 41
0.8
  7
SANINDUSA
 11
-167.9210461879161
 21
18.5
 31
0.0
100
AcDbText
 73
     2
  0
TEXT
  5
BD4
330
B9E
100
AcDbEntity
  8
1
100
AcDbText
 10
-153.0988595589306
 20
17.75
 30
0.0
 40
1.5
  1
Nome
 41
0.8
  7
SANINDUSA
 11
-153.0988595589306
 21
18.5
 31
0.0
100
AcDbText
 73
     2
  0
LINE
  5
BD5
330
B9E
100
AcDbEntity
  8
leg fin
100
AcDbLine
 10
-130.0
 20
20.0
 30
0.0
 11
-130.0
 21
28.5
 31
0.0
  0
TEXT
  5
BD6
330
B9E
100
AcDbEntity
  8
1
100
AcDbText
 10
-134.0
 20
17.25
 30
0.0
 40
2.0
  1
Material:
 41
0.8
  7
SANINDUSA
 11
-134.0
 21
18.25
 31
0.0
100
AcDbText
 73
     2
  0
TEXT
  5
BD7
330
B9E
100
AcDbEntity
  8
1
100
AcDbText
 10
-129.0
 20
26.43288406845113
 30
0.0
 40
1.5
  1
Ano:
 41
0.8
  7
SANINDUSA
 11
-129.0
 21
27.18288406845113
 31
0.0
100
AcDbText
 73
     2
  0
LINE
  5
BD8
330
B9E
100
AcDbEntity
  8
1
100
AcDbLine
 10
-180.0
 20
55.5
 30
0.0
 11
-135.0
 21
55.5
 31
0.0
  0
TEXT
  5
BD9
330
B9E
100
AcDbEntity
  8
1
100
AcDbText
 10
-179.0
 20
52.67772246885193
 30
0.0
 40
1.5
  1
descrição
 41
0.8
  7
SANINDUSA
 11
-179.0
 21
53.42772246885193
 31
0.0
100
AcDbText
 73
     2
  0
TEXT
  5
BDA
330
B9E
100
AcDbEntity
  8
1
100
AcDbText
 10
-134.0
 20
47.25
 30
0.0
 40
2.0
  1
Peça:
 41
0.8
  7
SANINDUSA
 11
-134.0
 21
48.25
 31
0.0
100
AcDbText
 73
     2
  0
LINE
  5
BDB
330
B9E
100
AcDbEntity
  8
1
100
AcDbLine
 10
-180.0
 20
59.5
 30
0.0
 11
-135.0
 21
59.5
 31
0.0
  0
TEXT
  5
BDC
330
B9E
100
AcDbEntity
  8
1
100
AcDbText
 10
-173.5810776056337
 20
62.75
 30
0.0
 40
1.5
  1
Alt.
 41
0.8
  7
SANINDUSA
 11
-173.5810776056337
 21
63.5
 31
0.0
100
AcDbText
 73
     2
  0
TEXT
  5
BDD
330
B9E
100
AcDbEntity
  8
1
100
AcDbText
 10
-179.0
 20
62.75
 30
0.0
 40
1.5
  1
Rev.
 41
0.8
  7
SANINDUSA
 11
-179.0
 21
63.5
 31
0.0
100
AcDbText
 73
     2
  0
TEXT
  5
BDE
330
B9E
100
AcDbEntity
  8
1
100
AcDbText
 10
-167.9210461879161
 20
62.75
 30
0.0
 40
1.5
  1
Data
 41
0.8
  7
SANINDUSA
 11
-167.9210461879161
 21
63.5
 31
0.0
100
AcDbText
 73
     2
  0
TEXT
  5
BDF
330
B9E
100
AcDbEntity
  8
1
100
AcDbText
 10
-153.0988595589306
 20
62.75
 30
0.0
 40
1.5
  1
Nome
 41
0.8
  7
SANINDUSA
 11
-153.0988595589306
 21
63.5
 31
0.0
100
AcDbText
 73
     2
  0
TEXT
  5
BE0
330
B9E
100
AcDbEntity
  8
1
100
AcDbText
 10
-134.0
 20
62.25
 30
0.0
 40
2.0
  1
Produto:
 41
0.8
  7
SANINDUSA
 11
-134.0
 21
63.25
 31
0.0
100
AcDbText
 73
     2
  0
LINE
  5
BE1
330
B9E
100
AcDbEntity
  8
3
100
AcDbLine
 10
-40.0
 20
4.0
 30
0.0
 11
-40.0
 21
65.0
 31
0.0
  0
LWPOLYLINE
  5
BE2
102
{ACAD_REACTORS
330
BEC
102
}
330
B9E
100
AcDbEntity
  8
9
100
AcDbPolyline
 90
       12
 70
     1
 43
0.0
 10
-3.038714600644652
 20
58.90010174665076
 10
-5.726962862472191
 20
58.90010174665076
 10
-5.726962862472191
 20
58.5001017466509
 10
-3.038748516195028
 20
58.5001017466509
 42
-0.4142135623731731
 10
-2.638748516194482
 20
58.1001017466508
 10
-2.638748516194482
 20
57.42799728675596
 10
-5.21497371544865
 20
57.42799728675596
 42
0.4142135623731289
 10
-6.014973715448377
 20
56.627997286756
 10
-6.014973715448377
 20
55.92380871629643
 42
0.4142135623731132
 10
-5.21497371544865
 20
55.12380871629648
 10
-2.23871460064447
 20
55.12380871629648
 10
-2.23871460064447
 20
58.10010174665103
 42
0.4142135623730717
  0
LWPOLYLINE
  5
BE3
102
{ACAD_REACTORS
330
BEC
102
}
330
B9E
100
AcDbEntity
  8
9
100
AcDbPolyline
 90
       20
 70
     1
 43
0.0
 10
-10.01531287095122
 20
57.82799728675581
 10
-10.01531287095122
 20
58.10010174665103
 42
-0.4142135623730744
 10
-9.615312870951584
 20
58.5001017466509
 10
-6.92703069357276
 20
58.5001017466509
 10
-6.92703069357276
 20
58.90010174665076
 10
-9.615346786501959
 20
58.90010174665076
 42
0.4142135623730883
 10
-10.41534678650168
 20
58.1001017466508
 10
-10.41534678650168
 20
57.82796337120567
 42
0.4142135623730717
 10
-9.615346786501959
 20
57.02796337120571
 10
-7.423079531965413
 20
57.02796337120571
 42
-0.4142135623730847
 10
-7.023079531965322
 20
56.62796337120562
 10
-7.023079531965322
 20
55.90786840766487
 42
-0.4142135623730744
 10
-7.423079531965413
 20
55.507868407665
 10
-10.41534678650168
 20
55.507868407665
 10
-10.41534678650168
 20
55.12380871629648
 10
-7.445787917283723
 20
55.12380871629648
 42
0.4114777732064574
 10
-6.645822882998345
 20
55.9163291493976
 10
-6.639238813324936
 20
56.62051771985716
 42
0.4169546541682913
 10
-7.439203847610315
 20
57.42799728675596
 10
-9.615312870951584
 20
57.42799728675596
 42
-0.4142135623731576
  0
LWPOLYLINE
  5
BE4
102
{ACAD_REACTORS
330
BEC
102
}
330
B9E
100
AcDbEntity
  8
9
100
AcDbPolyline
 90
       12
 70
     1
 43
0.0
 10
-14.41561811090378
 20
58.90010174665076
 10
-14.79964388672215
 20
58.90010174665076
 10
-14.79964388672215
 20
55.92380871629643
 42
0.4142135623731133
 10
-13.99964388672242
 20
55.12380871629648
 10
-11.8233508563676
 20
55.12380871629648
 42
0.4142135623730872
 10
-11.02335085636741
 20
55.92380871629643
 10
-11.02335085636741
 20
58.90010174665076
 10
-11.42338477191788
 20
58.90010174665076
 10
-11.42338477191788
 20
55.91567577726095
 42
-0.4131711701795318
 10
-11.82196067063523
 20
55.51567831234956
 10
-14.0141940096214
 20
55.50787335710947
 42
-0.4152567234624407
 10
-14.41561811090378
 20
55.90787082202087
  0
LWPOLYLINE
  5
BE5
102
{ACAD_REACTORS
330
BEC
102
}
330
B9E
100
AcDbEntity
  8
9
100
AcDbPolyline
 90
        6
 70
     1
 43
0.0
 10
-15.80771578768872
 20
55.507868407665
 10
-18.39994912667453
 20
55.507868407665
 42
-0.4142135623731731
 10
-18.79994912667462
 20
55.90786840766487
 10
-18.79994912667462
 20
58.10010174665103
 42
-0.4142135623730744
 10
-18.39994912667453
 20
58.5001017466509
 10
-15.80771578768872
 20
58.5001017466509
  0
LWPOLYLINE
  5
BE6
102
{ACAD_REACTORS
330
BEC
102
}
330
B9E
100
AcDbEntity
  8
9
100
AcDbPolyline
 90
        8
 70
     1
 43
0.0
 10
-15.4236900118708
 20
59.87619128370352
 10
-15.80771578768872
 20
59.87619128370352
 10
-15.80771578768872
 20
58.90010174665076
 10
-18.39176256411201
 20
58.90010174665076
 42
0.4131164467977967
 10
-19.19175694739761
 20
58.1030995310698
 10
-19.1999120763262
 20
55.92680650071542
 42
0.4153115297271718
 10
-18.39991769304061
 20
55.12380871629648
 10
-15.4236900118708
 20
55.12380871629648
  0
LWPOLYLINE
  5
BE7
102
{ACAD_REACTORS
330
BEC
102
}
330
B9E
100
AcDbEntity
  8
9
100
AcDbPolyline
 90
       10
 70
     1
 43
0.0
 10
-20.59201288790928
 20
58.90010174665076
 10
-23.56830591826338
 20
58.90010174665076
 10
-23.56830591826338
 20
55.12380871629648
 10
-23.18424622689509
 20
55.12380871629648
 10
-23.18424622689509
 20
58.5001017466509
 10
-20.59204680345965
 20
58.5001017466509
 42
-0.4142135623730898
 10
-20.19204680345956
 20
58.1001017466508
 10
-20.19204680345956
 20
55.12380871629648
 10
-19.79201288790909
 20
55.12380871629648
 10
-19.79201288790909
 20
58.10010174665103
 42
0.4142135623731132
  0
LWPOLYLINE
  5
BE8
102
{ACAD_REACTORS
330
BEC
102
}
330
B9E
100
AcDbEntity
  8
9
100
AcDbPolyline
 90
        4
 70
     1
 43
0.0
 10
-24.19231812786165
 20
58.90010174665076
 10
-24.57637781922995
 20
58.90010174665076
 10
-24.57637781922995
 20
55.12380871629648
 10
-24.19231812786165
 20
55.12380871629648
  0
LWPOLYLINE
  5
BE9
102
{ACAD_REACTORS
330
BEC
102
}
330
B9E
100
AcDbEntity
  8
9
100
AcDbPolyline
 90
       10
 70
     1
 43
0.0
 10
-28.57661522808212
 20
58.5001017466509
 10
-25.98444972019706
 20
58.5001017466509
 42
-0.4142135623731731
 10
-25.58444972019652
 20
58.1001017466508
 10
-25.58444972019652
 20
55.12380871629648
 10
-25.2004239443786
 20
55.12380871629648
 10
-25.2004239443786
 20
58.10010174665103
 42
0.4142135623730717
 10
-26.00042394437833
 20
58.90010174665076
 10
-28.97664914363259
 20
58.90010174665076
 10
-28.97664914363259
 20
55.12380871629648
 10
-28.57661522808212
 20
55.12380871629648
  0
LWPOLYLINE
  5
BEA
102
{ACAD_REACTORS
330
BEC
102
}
330
B9E
100
AcDbEntity
  8
9
100
AcDbPolyline
 90
       12
 70
     1
 43
0.0
 10
-29.58465321349832
 20
58.10010174665103
 42
0.4142135623730716
 10
-30.3846532134985
 20
58.90010174665076
 10
-33.07296930642724
 20
58.90010174665076
 10
-33.07296930642724
 20
58.5001017466509
 10
-30.38468712904842
 20
58.5001017466509
 42
-0.4142135623730067
 10
-29.98468712904878
 20
58.1001017466508
 10
-29.98468712904878
 20
57.42799728675618
 10
-32.56098015940324
 20
57.42799728675596
 42
0.4142135623731289
 10
-33.36098015940343
 20
56.627997286756
 10
-33.36098015940343
 20
55.92380871629643
 42
0.4142135623731132
 10
-32.56098015940324
 20
55.12380871629648
 10
-29.58465321349832
 20
55.12380871629648
  0
LWPOLYLINE
  5
BEB
102
{ACAD_REACTORS
330
BEC
102
}
330
B9E
100
AcDbEntity
  8
9
100
AcDbPolyline
 90
       20
 70
     1
 43
0.0
 10
-34.7850262845518
 20
57.42799728675596
 10
-36.96125148380543
 20
57.42799728675596
 42
-0.4142135623730898
 10
-37.36125148380552
 20
57.82799728675604
 10
-37.36125148380552
 20
58.10010174665103
 42
-0.4142135623730744
 10
-36.96125148380543
 20
58.5001017466509
 10
-34.27303713752781
 20
58.50010174665067
 10
-34.27303713752781
 20
58.90010174665076
 10
-36.96128539935535
 20
58.90010174665076
 42
0.4142135623731289
 10
-37.76128539935553
 20
58.1001017466508
 10
-37.76128539935553
 20
57.82796337120567
 42
0.4142135623730716
 10
-36.9612853993558
 20
57.02796337120571
 10
-34.76901814481926
 20
57.02796337120571
 42
-0.414213562373168
 10
-34.36901814481962
 20
56.62796337120562
 10
-34.36901814481962
 20
55.90786840766487
 42
-0.4142135623730744
 10
-34.76901814481926
 20
55.507868407665
 10
-37.76128539935553
 20
55.507868407665
 10
-37.76128539935553
 20
55.12380871629648
 10
-34.7850262845518
 20
55.12380871629648
 42
0.4142135623731289
 10
-33.98502628455162
 20
55.92380871629643
 10
-33.98502628455162
 20
56.627997286756
 42
0.4142135623731132
  0
HATCH
  5
BEC
330
B9E
100
AcDbEntity
  8
9
100
AcDbHatch
 10
0.0
 20
0.0
 30
0.0
210
0.0
220
0.0
230
1.0
  2
SOLID
 70
     1
 71
     1
 91
       13
 92
        7
 72
     1
 73
     1
 93
       20
 10
-34.36901814481962
 20
55.90786840766487
 42
-0.414213562372991
 10
-34.76901814481926
 20
55.507868407665
 42
0.0
 10
-37.76128539935553
 20
55.507868407665
 42
0.0
 10
-37.76128539935553
 20
55.12380871629648
 42
0.0
 10
-34.7850262845518
 20
55.12380871629648
 42
0.4142135623731705
 10
-33.98502628455162
 20
55.92380871629666
 42
0.0
 10
-33.98502628455162
 20
56.627997286756
 42
0.4142135623731547
 10
-34.7850262845518
 20
57.42799728675596
 42
0.0
 10
-36.96125148380543
 20
57.42799728675596
 42
-0.4142135623730898
 10
-37.36125148380552
 20
57.82799728675604
 42
0.0
 10
-37.36125148380552
 20
58.1001017466508
 42
-0.4142135623731575
 10
-36.96125148380543
 20
58.5001017466509
 42
0.0
 10
-34.27303713752781
 20
58.50010174665067
 42
0.0
 10
-34.27303713752781
 20
58.90010174665076
 42
0.0
 10
-36.96128539935535
 20
58.90010174665076
 42
0.4142135623731705
 10
-37.76128539935553
 20
58.10010174665058
 42
0.0
 10
-37.76128539935553
 20
57.82796337120544
 42
0.4142135623730299
 10
-36.9612853993558
 20
57.02796337120571
 42
0.0
 10
-34.76901814481926
 20
57.02796337120571
 42
-0.4142135623730015
 10
-34.36901814481962
 20
56.62796337120608
 42
0.0
 97
        1
330
BEB
 92
        7
 72
     1
 73
     1
 93
       12
 10
-33.36098015940343
 20
55.92380871629666
 42
0.4142135623731547
 10
-32.56098015940324
 20
55.12380871629648
 42
0.0
 10
-29.58465321349877
 20
55.12380871629648
 42
0.0
 10
-29.58465321349832
 20
58.10010174665058
 42
0.4142135623731964
 10
-30.3846532134985
 20
58.90010174665076
 42
0.0
 10
-33.07296930642724
 20
58.90010174665076
 42
0.0
 10
-33.07296930642724
 20
58.50010174665067
 42
0.0
 10
-30.38468712904887
 20
58.5001017466509
 42
-0.4142135623732564
 10
-29.98468712904878
 20
58.10010174665103
 42
0.0
 10
-29.98468712904923
 20
57.42799728675596
 42
0.0
 10
-32.56098015940324
 20
57.42799728675596
 42
0.4142135623731705
 10
-33.36098015940343
 20
56.627997286756
 42
0.0
 97
        1
330
BEA
 92
       22
 72
     1
 73
     1
 93
        6
 10
-32.97692046803468
 20
56.62796337120562
 42
-0.4142135623731576
 10
-32.57692046803459
 20
57.02796337120571
 42
0.0
 10
-29.98468712904878
 20
57.02796337120571
 42
0.0
 10
-29.98468712904878
 20
55.507868407665
 42
0.0
 10
-32.57692046803459
 20
55.507868407665
 42
-0.4142135623731731
 10
-32.97692046803468
 20
55.90786840766487
 42
0.0
 97
        1
330
C11
 92
        7
 72
     1
 73
     1
 93
       10
 10
-28.57661522808212
 20
58.5001017466509
 42
0.0
 10
-25.98444972019661
 20
58.5001017466509
 42
-0.4142135623730067
 10
-25.58444972019652
 20
58.10010174665058
 42
0.0
 10
-25.58444972019606
 20
55.12380871629648
 42
0.0
 10
-25.20042394437906
 20
55.12380871629648
 42
0.0
 10
-25.2004239443786
 20
58.1001017466508
 42
0.4142135623731134
 10
-26.00042394437833
 20
58.90010174665076
 42
0.0
 10
-28.97664914363259
 20
58.90010174665076
 42
0.0
 10
-28.97664914363259
 20
55.12380871629648
 42
0.0
 10
-28.57661522808212
 20
55.12380871629648
 42
0.0
 97
        1
330
BE9
 92
        7
 72
     0
 73
     1
 93
        4
 10
-24.57637781922995
 20
55.12380871629648
 10
-24.19231812786165
 20
55.12380871629648
 10
-24.19231812786165
 20
58.90010174665076
 10
-24.57637781922995
 20
58.90010174665076
 97
        1
330
BE8
 92
        7
 72
     0
 73
     1
 93
        4
 10
-24.19231812786165
 20
59.87619128370352
 10
-24.5763778192304
 20
59.87619128370352
 10
-24.5763778192304
 20
59.28412752246913
 10
-24.1923181278612
 20
59.28412752246913
 97
        1
330
C12
 92
        7
 72
     1
 73
     1
 93
       10
 10
-23.18424622689509
 20
58.5001017466509
 42
0.0
 10
-20.59204680345965
 20
58.5001017466509
 42
-0.4142135623730898
 10
-20.19204680345956
 20
58.1001017466508
 42
0.0
 10
-20.19204680345956
 20
55.12380871629648
 42
0.0
 10
-19.79201288790909
 20
55.12380871629648
 42
0.0
 10
-19.79201288790909
 20
58.1001017466508
 42
0.4142135623731547
 10
-20.59201288790928
 20
58.90010174665076
 42
0.0
 10
-23.56830591826338
 20
58.90010174665076
 42
0.0
 10
-23.56830591826338
 20
55.12380871629648
 42
0.0
 10
-23.18424622689463
 20
55.12380871629648
 42
0.0
 97
        1
330
BE7
 92
        7
 72
     1
 73
     1
 93
        8
 10
-19.1999120763262
 20
55.92680650071542
 42
0.4153115297271299
 10
-18.39991769304061
 20
55.12380871629648
 42
0.0
 10
-15.4236900118708
 20
55.12380871629648
 42
0.0
 10
-15.4236900118708
 20
59.87619128370352
 42
0.0
 10
-15.80771578768872
 20
59.87619128370352
 42
0.0
 10
-15.80771578768872
 20
58.90010174665076
 42
0.0
 10
-18.39176256411201
 20
58.90010174665076
 42
0.4131164467977965
 10
-19.19175694739761
 20
58.1030995310698
 42
0.0
 97
        1
330
BE6
 92
       22
 72
     1
 73
     1
 93
        6
 10
-18.79994912667462
 20
58.1001017466508
 42
-0.4142135623731575
 10
-18.39994912667453
 20
58.5001017466509
 42
0.0
 10
-15.80771578768872
 20
58.50010174665067
 42
0.0
 10
-15.80771578768827
 20
55.507868407665
 42
0.0
 10
-18.39994912667453
 20
55.507868407665
 42
-0.4142135623731731
 10
-18.79994912667462
 20
55.90786840766487
 42
0.0
 97
        1
330
BE5
 92
        7
 72
     1
 73
     1
 93
       12
 10
-14.79964388672215
 20
55.92380871629621
 42
0.4142135623729885
 10
-13.99964388672242
 20
55.12380871629648
 42
0.0
 10
-11.8233508563676
 20
55.12380871629648
 42
0.4142135623731289
 10
-11.02335085636741
 20
55.92380871629666
 42
0.0
 10
-11.02335085636741
 20
58.90010174665076
 42
0.0
 10
-11.42338477191788
 20
58.90010174665076
 42
0.0
 10
-11.42338477191788
 20
55.91567577726095
 42
-0.4131711701795319
 10
-11.82196067063523
 20
55.51567831234956
 42
0.0
 10
-14.01419400962095
 20
55.50787335710947
 42
-0.4152567234626918
 10
-14.41561811090378
 20
55.90787082202087
 42
0.0
 10
-14.41561811090378
 20
58.90010174665076
 42
0.0
 10
-14.7996438867226
 20
58.90010174665076
 42
0.0
 97
        1
330
BE4
 92
        7
 72
     1
 73
     1
 93
       20
 10
-7.423079531965413
 20
57.02796337120571
 42
-0.414213562373168
 10
-7.023079531965322
 20
56.62796337120562
 42
0.0
 10
-7.023079531965322
 20
55.90786840766487
 42
-0.4142135623731575
 10
-7.423079531965413
 20
55.507868407665
 42
0.0
 10
-10.41534678650168
 20
55.507868407665
 42
0.0
 10
-10.41534678650168
 20
55.12380871629648
 42
0.0
 10
-7.445787917283723
 20
55.12380871629648
 42
0.4114777732065809
 10
-6.645822882998345
 20
55.91632914939783
 42
0.0
 10
-6.639238813324936
 20
56.62051771985716
 42
0.4169546541682913
 10
-7.439203847610315
 20
57.42799728675596
 42
0.0
 10
-9.615312870951584
 20
57.42799728675596
 42
-0.4142135623729911
 10
-10.01531287095122
 20
57.82799728675581
 42
0.0
 10
-10.01531287095122
 20
58.10010174665103
 42
-0.414213562372991
 10
-9.615312870951584
 20
58.5001017466509
 42
0.0
 10
-6.92703069357276
 20
58.50010174665067
 42
0.0
 10
-6.927030693572305
 20
58.90010174665076
 42
0.0
 10
-9.615346786501959
 20
58.90010174665076
 42
0.4142135623730467
 10
-10.41534678650168
 20
58.10010174665103
 42
0.0
 10
-10.41534678650168
 20
57.82796337120544
 42
0.4142135623730301
 10
-9.615346786501959
 20
57.02796337120571
 42
0.0
 97
        1
330
BE3
 92
        7
 72
     1
 73
     1
 93
       12
 10
-5.21497371544865
 20
57.42799728675596
 42
0.4142135623730871
 10
-6.014973715448377
 20
56.627997286756
 42
0.0
 10
-6.014973715448377
 20
55.92380871629621
 42
0.4142135623730715
 10
-5.21497371544865
 20
55.12380871629648
 42
0.0
 10
-2.23871460064447
 20
55.12380871629648
 42
0.0
 10
-2.23871460064447
 20
58.10010174665058
 42
0.414213562373155
 10
-3.038714600644652
 20
58.90010174665076
 42
0.0
 10
-5.726962862471737
 20
58.90010174665076
 42
0.0
 10
-5.726962862472191
 20
58.5001017466509
 42
0.0
 10
-3.038748516194573
 20
58.5001017466509
 42
-0.4142135623730067
 10
-2.638748516194482
 20
58.10010174665058
 42
0.0
 10
-2.638748516194482
 20
57.42799728675596
 42
0.0
 97
        1
330
BE2
 92
       22
 72
     1
 73
     1
 93
        6
 10
-2.638748516194937
 20
57.02796337120571
 42
0.0
 10
-2.638748516194482
 20
55.50786840766477
 42
0.0
 10
-5.21497371544865
 20
55.507868407665
 42
-0.4142135623731731
 10
-5.614973715448741
 20
55.90786840766509
 42
0.0
 10
-5.614973715448741
 20
56.62796337120562
 42
-0.4142135623731576
 10
-5.21497371544865
 20
57.02796337120571
 42
0.0
 97
        1
330
C0D
 75
     0
 76
     1
 47
0.0407044778999864
 98
       13
 10
-34.18710075113677
 20
56.16907953933765
 10
-33.12851374392494
 20
56.49471602641233
 10
-33.12851374392494
 20
56.49471602641233
 10
-28.77202873835904
 20
57.51232930166111
 10
-24.41554807250941
 20
57.91937341678636
 10
-24.41554807250941
 20
59.384734621186
 10
-23.31624584658039
 20
58.3264175319116
 10
-19.04119127844888
 20
57.75655517324913
 10
-19.04119127844888
 20
57.75655517324913
 10
-14.64399105416578
 20
57.43091868617466
 10
-8.048195057457178
 20
57.22739662861204
 10
-4.017427461911665
 20
57.18669281458665
 10
-4.017427461911665
 20
57.18669281458665
  0
TEXT
  5
BED
330
B9E
100
AcDbEntity
  8
leg fin
100
AcDbText
 10
3.391127401597259
 20
2.107634911895729
 30
0.0
 40
1.5
  1
Este desenho é propriedade da Sanindusa, S.A., e não pode ser copiado nem divulgado sem nossa autorização.
 50
90.0
 41
0.8
  7
SANINDUSA
100
AcDbText
  0
LINE
  5
BEE
330
B9E
100
AcDbEntity
  8
3
100
AcDbLine
 10
-90.0
 20
4.0
 30
0.0
 11
-90.0
 21
12.0
 31
0.0
  0
TEXT
  5
BEF
330
B9E
100
AcDbEntity
  8
1
100
AcDbText
 10
-39.0
 20
9.25
 30
0.0
 40
2.0
  1
Substituido por:
 41
0.8
  7
SANINDUSA
 11
-39.0
 21
10.25
 31
0.0
100
AcDbText
 73
     2
  0
POINT
  5
BF0
330
B9E
100
AcDbEntity
  8
SANINDUSA
100
AcDbPoint
 10
0.0
 20
0.0
 30
0.0
  0
TEXT
  5
BF1
330
B9E
100
AcDbEntity
  8
1
100
AcDbText
 10
-89.0
 20
16.74927010445663
 30
0.0
 40
2.0
  1
Normas:
 41
0.8
  7
SANINDUSA
 11
-89.0
 21
17.74927010445663
 31
0.0
100
AcDbText
 73
     2
  0
LINE
  5
BF2
330
B9E
100
AcDbEntity
  8
3
100
AcDbLine
 10
-90.0
 20
12.0
 30
0.0
 11
-90.0
 21
20.0
 31
0.0
  0
LINE
  5
BF3
330
B9E
100
AcDbEntity
  8
3
100
AcDbLine
 10
-110.546019464768
 20
12.0
 30
0.0
 11
-110.546019464768
 21
20.0
 31
0.0
  0
TEXT
  5
BF4
330
B9E
100
AcDbEntity
  8
1
100
AcDbText
 10
-109.6177520618648
 20
17.25
 30
0.0
 40
2.0
  1
Cor:
 41
0.8
  7
SANINDUSA
 11
-109.6177520618648
 21
18.25
 31
0.0
100
AcDbText
 73
     2
  0
LINE
  5
BF5
330
B9E
100
AcDbEntity
  8
leg fin
100
AcDbLine
 10
-91.42857142857156
 20
20.0
 30
0.0
 11
-91.42857142857156
 21
28.5
 31
0.0
  0
LINE
  5
BF6
330
B9E
100
AcDbEntity
  8
leg fin
100
AcDbLine
 10
-104.2857142857142
 20
20.0
 30
0.0
 11
-104.2857142857142
 21
28.5
 31
0.0
  0
LINE
  5
BF7
330
B9E
100
AcDbEntity
  8
leg fin
100
AcDbLine
 10
-117.1428571428573
 20
20.0
 30
0.0
 11
-117.1428571428573
 21
28.5
 31
0.0
  0
POINT
  5
BF8
330
B9E
100
AcDbEntity
  8
SANINDUSA
100
AcDbPoint
 10
-117.1428571428573
 20
28.5
 30
0.0
  0
POINT
  5
BF9
330
B9E
100
AcDbEntity
  8
SANINDUSA
100
AcDbPoint
 10
-104.2857142857142
 20
28.5
 30
0.0
  0
POINT
  5
BFA
330
B9E
100
AcDbEntity
  8
SANINDUSA
100
AcDbPoint
 10
-91.42857142857156
 20
28.5
 30
0.0
  0
TEXT
  5
BFB
330
B9E
100
AcDbEntity
  8
1
100
AcDbText
 10
-116.200160604496
 20
26.43288406845113
 30
0.0
 40
1.5
  1
Nº Seq.:
 41
0.8
  7
SANINDUSA
 11
-116.200160604496
 21
27.18288406845113
 31
0.0
100
AcDbText
 73
     2
  0
TEXT
  5
BFC
330
B9E
100
AcDbEntity
  8
1
100
AcDbText
 10
-103.2106584078738
 20
26.43288406845113
 30
0.0
 40
1.5
  1
Tipo:
 41
0.8
  7
SANINDUSA
 11
-103.2106584078738
 21
27.18288406845113
 31
0.0
100
AcDbText
 73
     2
  0
TEXT
  5
BFD
330
B9E
100
AcDbEntity
  8
1
100
AcDbText
 10
-90.22114672289353
 20
26.43288406845113
 30
0.0
 40
1.5
  1
Prod.:
 41
0.8
  7
SANINDUSA
 11
-90.22114672289353
 21
27.18288406845113
 31
0.0
100
AcDbText
 73
     2
  0
TEXT
  5
BFE
330
B9E
100
AcDbEntity
  8
1
100
AcDbText
 10
-64.77320576346574
 20
26.43288406845113
 30
0.0
 40
1.5
  1
Rev.:
 41
0.8
  7
SANINDUSA
 11
-64.77320576346574
 21
27.18288406845113
 31
0.0
100
AcDbText
 73
     2
  0
LINE
  5
BFF
330
B9E
100
AcDbEntity
  8
leg fin
100
AcDbLine
 10
-52.85714285714266
 20
20.0
 30
0.0
 11
-52.85714285714266
 21
28.5
 31
0.0
  0
LINE
  5
C00
330
B9E
100
AcDbEntity
  8
leg fin
100
AcDbLine
 10
-65.71428571428578
 20
20.0
 30
0.0
 11
-65.71428571428578
 21
28.5
 31
0.0
  0
LINE
  5
C01
330
B9E
100
AcDbEntity
  8
leg fin
100
AcDbLine
 10
-78.57142857142844
 20
20.0
 30
0.0
 11
-78.57142857142844
 21
28.5
 31
0.0
  0
POINT
  5
C02
330
B9E
100
AcDbEntity
  8
SANINDUSA
100
AcDbPoint
 10
-78.57142857142844
 20
28.5
 30
0.0
  0
POINT
  5
C03
330
B9E
100
AcDbEntity
  8
SANINDUSA
100
AcDbPoint
 10
-65.71428571428578
 20
28.5
 30
0.0
  0
POINT
  5
C04
330
B9E
100
AcDbEntity
  8
SANINDUSA
100
AcDbPoint
 10
-52.85714285714266
 20
28.5
 30
0.0
  0
TEXT
  5
C05
330
B9E
100
AcDbEntity
  8
1
100
AcDbText
 10
-77.61097961686573
 20
26.43288406845113
 30
0.0
 40
1.5
  1
Peça:
 41
0.8
  7
SANINDUSA
 11
-77.61097961686573
 21
27.18288406845113
 31
0.0
100
AcDbText
 73
     2
  0
TEXT
  5
C06
330
B9E
100
AcDbEntity
  8
1
100
AcDbText
 10
-52.06538060077036
 20
26.43288406845113
 30
0.0
 40
1.5
  1
Alt.:
 41
0.8
  7
SANINDUSA
 11
-52.06538060077036
 21
27.18288406845113
 31
0.0
100
AcDbText
 73
     2
  0
LINE
  5
C07
330
B9E
100
AcDbEntity
  8
3
100
AcDbLine
 10
0.0
 20
12.0
 30
0.0
 11
-40.0
 21
12.0
 31
0.0
  0
LINE
  5
C08
330
B9E
100
AcDbEntity
  8
3
100
AcDbLine
 10
-40.0
 20
32.5
 30
0.0
 11
0.0
 21
32.5
 31
0.0
  0
TEXT
  5
C09
330
B9E
100
AcDbEntity
  8
1
100
AcDbText
 10
-19.0
 20
29.75
 30
0.0
 40
2.0
  1
Folha:
 41
0.8
  7
SANINDUSA
 11
-19.0
 21
30.75
 31
0.0
100
AcDbText
 73
     2
  0
LINE
  5
C0A
330
B9E
100
AcDbEntity
  8
3
100
AcDbLine
 10
-20.0
 20
32.5
 30
0.0
 11
-20.0
 21
20.0
 31
0.0
  0
TEXT
  5
C0B
330
B9E
100
AcDbEntity
  8
1
100
AcDbText
 10
-39.0
 20
29.75
 30
0.0
 40
2.0
  1
Escala:
 41
0.8
  7
SANINDUSA
 11
-39.0
 21
30.75
 31
0.0
100
AcDbText
 73
     2
  0
TEXT
  5
C0C
330
B9E
100
AcDbEntity
  8
1
100
AcDbText
 10
-39.0
 20
17.25
 30
0.0
 40
2.0
  1
Substitui:
 41
0.8
  7
SANINDUSA
 11
-39.0
 21
18.25
 31
0.0
100
AcDbText
 73
     2
  0
LWPOLYLINE
  5
C0D
102
{ACAD_REACTORS
330
BEC
102
}
330
B9E
100
AcDbEntity
  8
9
100
AcDbPolyline
 90
        6
 70
     1
 43
0.0
 10
-2.638748516194482
 20
57.02796337120571
 10
-2.638748516194482
 20
55.50786840766477
 10
-5.21497371544865
 20
55.507868407665
 42
-0.4142135623730898
 10
-5.614973715448741
 20
55.90786840766487
 10
-5.614973715448741
 20
56.62796337120562
 42
-0.4142135623731576
 10
-5.21497371544865
 20
57.02796337120571
  0
LINE
  5
C0E
330
B9E
100
AcDbEntity
  8
3
100
AcDbLine
 10
-40.0
 20
50.0
 30
0.0
 11
0.0
 21
50.0
 31
0.0
  0
ATTDEF
  5
C0F
330
B9E
100
AcDbEntity
  8
1
100
AcDbText
 10
-31.30691739422431
 20
40.25
 30
0.0
 40
2.0
  1
XXXXXXXXXXXXXXX
 41
0.8
  7
SANINDUSA
 72
     4
 11
-20.0
 21
41.25
 31
0.0
100
AcDbAttributeDefinition
  3
Observações:
  2
OBS
 70
     0
  0
TEXT
  5
C10
330
B9E
100
AcDbEntity
  8
1
100
AcDbText
 10
-39.0
 20
47.25
 30
0.0
 40
2.0
  1
Observações:
 41
0.8
  7
SANINDUSA
 11
-39.0
 21
48.25
 31
0.0
100
AcDbText
 73
     2
  0
LWPOLYLINE
  5
C11
102
{ACAD_REACTORS
330
BEC
102
}
330
B9E
100
AcDbEntity
  8
9
100
AcDbPolyline
 90
        6
 70
     1
 43
0.0
 10
-29.98468712904878
 20
57.02796337120571
 10
-29.98468712904878
 20
55.507868407665
 10
-32.57692046803459
 20
55.507868407665
 42
-0.4142135623731731
 10
-32.97692046803468
 20
55.90786840766487
 10
-32.97692046803468
 20
56.62796337120562
 42
-0.4142135623731576
 10
-32.57692046803459
 20
57.02796337120571
  0
LWPOLYLINE
  5
C12
102
{ACAD_REACTORS
330
BEC
102
}
330
B9E
100
AcDbEntity
  8
9
100
AcDbPolyline
 90
        4
 70
     1
 43
0.0
 10
-24.19231812786165
 20
59.87619128370352
 10
-24.57637781922995
 20
59.87619128370352
 10
-24.57637781922995
 20
59.28412752246913
 10
-24.19231812786165
 20
59.28412752246913
  0
ENDBLK
  5
C14
330
B9E
100
AcDbEntity
  8
0
100
AcDbBlockEnd
  0
BLOCK
  5
1402
330
1401
100
AcDbEntity
  8
0
100
AcDbBlockBegin
  2
*D8
 70
     1
 10
0.0
 20
0.0
 30
0.0
  3
*D8
  1

  0
LINE
  5
140D
330
1401
100
AcDbEntity
  8
0
100
AcDbLine
 10
2925.038864473206
 20
2096.27908606571
 30
0.0
 11
2918.252750529401
 21
2099.652272327072
 31
0.0
  0
LINE
  5
140E
330
1401
100
AcDbEntity
  8
0
100
AcDbLine
 10
2914.629664501595
 20
2101.453206427786
 30
0.0
 11
2912.838717379595
 21
2102.343435839904
 31
0.0
  0
MTEXT
  5
140F
102
{ACAD_XDICTIONARY
360
145F
102
}
330
1401
100
AcDbEntity
  8
0
100
AcDbMText
 10
2923.511625142806
 20
2099.47268482546
 30
0.0
 40
2.0
 41
0.0
 71
     5
 72
     1
  1
\U+22050
  7
SANINDUSA
 11
0.8954735610000739
 21
-0.4451147060588393
 31
0.0
 73
     1
 44
1.0
1001
ACAD
1000
MTEXTBEGIN
1070
    73
1070
     1
1070
    44
1040
1.0
1070
    74
1070
     0
1000
MTEXTEND
  0
LINE
  5
1410
330
1401
100
AcDbEntity
  8
0
100
AcDbLine
 10
2916.420611623596
 20
2100.562977015668
 30
0.0
 11
2916.461803407401
 21
2100.54250173919
 31
0.0
  0
SOLID
  5
1411
330
1401
100
AcDbEntity
  8
0
100
AcDbTrace
 10
2914.778036070281
 20
2101.751697614785
 30
0.0
 11
2914.481292932909
 21
2101.154715240785
 31
0.0
 12
2916.420611623596
 22
2100.562977015668
 32
0.0
 13
2916.420611623596
 23
2100.562977015668
 33
0.0
  0
SOLID
  5
1412
330
1401
100
AcDbEntity
  8
0
100
AcDbTrace
 10
2918.401122098087
 20
2099.950763514072
 30
0.0
 11
2918.104378960715
 21
2099.353781140071
 31
0.0
 12
2916.461803407401
 22
2100.54250173919
 32
0.0
 13
2916.461803407401
 23
2100.54250173919
 33
0.0
  0
POINT
  5
1413
330
1401
100
AcDbEntity
  8
Defpoints
 62
     0
100
AcDbPoint
 10
2916.461803407401
 20
2100.54250173919
 30
0.0
  0
POINT
  5
1414
330
1401
100
AcDbEntity
  8
Defpoints
 62
     0
100
AcDbPoint
 10
2916.420611623596
 20
2100.562977015668
 30
0.0
  0
ENDBLK
  5
1403
330
1401
100
AcDbEntity
  8
0
100
AcDbBlockEnd
  0
ENDSEC
  0
SECTION
  2
ENTITIES
  0
LINE
  5
1233
330
1F
100
AcDbEntity
  8
SANINDUSA
100
AcDbLine
 10
2917.433785040214
 20
2100.836536853901
 30
0.0
 11
2917.137785036399
 21
2100.836536853901
 31
0.0
  0
LINE
  5
123C
330
1F
100
AcDbEntity
  8
SANINDUSA
100
AcDbLine
 10
2917.453785050943
 20
2100.818536853745
 30
0.0
 11
2917.453785050943
 21
2100.832536854177
 31
0.0
  0
LINE
  5
123F
330
1F
100
AcDbEntity
  8
SANINDUSA
100
AcDbLine
 10
2916.821785021856
 20
2100.818536853745
 30
0.0
 11
2916.821785021856
 21
2100.832536854177
 31
0.0
  0
LINE
  5
1242
330
1F
100
AcDbEntity
  8
SANINDUSA
100
AcDbLine
 10
2916.841785032584
 20
2100.836536853901
 30
0.0
 11
2917.137785036399
 21
2100.836536853901
 31
0.0
  0
SPLINE
  5
1243
330
1F
100
AcDbEntity
  8
SANINDUSA
100
AcDbSpline
210
0.0
220
0.0
230
1.0
 70
    24
 71
     3
 72
    15
 73
    11
 74
     0
 42
0.000000001
 43
0.0000000001
 40
0.0
 40
0.0
 40
0.0
 40
0.0
 40
0.1250049986507314
 40
0.2499994340434913
 40
0.375000133476024
 40
0.5
 40
0.624999866523976
 40
0.7500005659565088
 40
0.8749950013492686
 40
1.0
 40
1.0
 40
1.0
 40
1.0
 10
2917.449785042837
 20
2100.836536853901
 30
0.0
 10
2917.449724942147
 20
2100.836536853901
 30
0.0
 10
2917.449604745846
 20
2100.836536853901
 30
0.0
 10
2917.448655780877
 20
2100.836536853901
 30
0.0
 10
2917.447174686558
 20
2100.836536853901
 30
0.0
 10
2917.445171819499
 20
2100.836536853901
 30
0.0
 10
2917.442730515573
 20
2100.836536853901
 30
0.0
 10
2917.43994780009
 20
2100.836536853901
 30
0.0
 10
2917.436926275023
 20
2100.836536853901
 30
0.0
 10
2917.434832147978
 20
2100.836536853901
 30
0.0
 10
2917.433785040214
 20
2100.836536853901
 30
0.0
  0
SPLINE
  5
1244
330
1F
100
AcDbEntity
  8
SANINDUSA
100
AcDbSpline
210
0.0
220
0.0
230
1.0
 70
     8
 71
     3
 72
    11
 73
     7
 74
     0
 42
0.000000001
 43
0.0000000001
 40
0.0
 40
0.0
 40
0.0
 40
0.0
 40
0.2500001718640611
 40
0.5000009141006487
 40
0.7499995048146787
 40
1.0
 40
1.0
 40
1.0
 40
1.0
 10
2917.453785050943
 20
2100.832536854177
 30
0.0
 10
2917.453724921723
 20
2100.833061002446
 30
0.0
 10
2917.453604663145
 20
2100.83410930018
 30
0.0
 10
2917.452679659876
 20
2100.835431471834
 30
0.0
 10
2917.451357488121
 20
2100.836356478292
 30
0.0
 10
2917.450309192595
 20
2100.836476728546
 30
0.0
 10
2917.449785042837
 20
2100.836536853901
 30
0.0
  0
SPLINE
  5
1245
330
1F
100
AcDbEntity
  8
SANINDUSA
100
AcDbSpline
210
0.0
220
0.0
230
1.0
 70
     8
 71
     3
 72
    11
 73
     7
 74
     0
 42
0.000000001
 43
0.0000000001
 40
0.0
 40
0.0
 40
0.0
 40
0.0
 40
0.2500001718640611
 40
0.5000009141006487
 40
0.7499995048146787
 40
1.0
 40
1.0
 40
1.0
 40
1.0
 10
2916.821785021856
 20
2100.832536854177
 30
0.0
 10
2916.821845151076
 20
2100.833061002446
 30
0.0
 10
2916.821965409653
 20
2100.83410930018
 30
0.0
 10
2916.822890412922
 20
2100.835431471834
 30
0.0
 10
2916.824212584678
 20
2100.836356478292
 30
0.0
 10
2916.825260880203
 20
2100.836476728546
 30
0.0
 10
2916.825785029962
 20
2100.836536853901
 30
0.0
  0
SPLINE
  5
1246
330
1F
100
AcDbEntity
  8
SANINDUSA
100
AcDbSpline
210
0.0
220
0.0
230
1.0
 70
    24
 71
     3
 72
    15
 73
    11
 74
     0
 42
0.000000001
 43
0.0000000001
 40
0.0
 40
0.0
 40
0.0
 40
0.0
 40
0.1250049986507314
 40
0.2499994340434913
 40
0.375000133476024
 40
0.5
 40
0.624999866523976
 40
0.7500005659565088
 40
0.8749950013492686
 40
1.0
 40
1.0
 40
1.0
 40
1.0
 10
2916.825785029962
 20
2100.836536853901
 30
0.0
 10
2916.825845130651
 20
2100.836536853901
 30
0.0
 10
2916.825965326953
 20
2100.836536853901
 30
0.0
 10
2916.826914291921
 20
2100.836536853901
 30
0.0
 10
2916.82839538624
 20
2100.836536853901
 30
0.0
 10
2916.830398253299
 20
2100.836536853901
 30
0.0
 10
2916.832839557225
 20
2100.836536853901
 30
0.0
 10
2916.835622272709
 20
2100.836536853901
 30
0.0
 10
2916.838643797775
 20
2100.836536853901
 30
0.0
 10
2916.84073792482
 20
2100.836536853901
 30
0.0
 10
2916.841785032584
 20
2100.836536853901
 30
0.0
  0
LINE
  5
1249
330
1F
100
AcDbEntity
  8
SANINDUSA
100
AcDbLine
 10
2917.433785040214
 20
2100.816536853417
 30
0.0
 11
2916.841785032584
 21
2100.816536853417
 31
0.0
  0
LINE
  5
124A
330
1F
100
AcDbEntity
  8
SANINDUSA
100
AcDbLine
 10
2916.841785032584
 20
2100.816536853417
 30
0.0
 11
2916.823785025909
 21
2100.816536853417
 31
0.0
  0
ARC
  5
124B
330
1F
100
AcDbEntity
  8
SANINDUSA
100
AcDbCircle
 10
2916.823785036399
 20
2100.818536853797
 30
0.0
 40
0.002
100
AcDbArc
 50
180.0
 51
270.0
  0
LINE
  5
124C
330
1F
100
AcDbEntity
  8
SANINDUSA
100
AcDbLine
 10
2917.433785040214
 20
2100.816536853417
 30
0.0
 11
2917.451785046889
 21
2100.816536853417
 31
0.0
  0
ARC
  5
124D
330
1F
100
AcDbEntity
  8
SANINDUSA
100
AcDbCircle
 10
2917.451785036399
 20
2100.818536853797
 30
0.0
 40
0.0020000000000002
100
AcDbArc
 50
270.0
 51
0.0
  0
LINE
  5
1251
330
1F
100
AcDbEntity
  8
SANINDUSA
100
AcDbLine
 10
2916.837785024478
 20
2100.324536853797
 30
0.0
 11
2916.853785027101
 21
2100.324536853797
 31
0.0
  0
LINE
  5
1252
330
1F
100
AcDbEntity
  8
SANINDUSA
100
AcDbLine
 10
2916.837785024478
 20
2100.324536853797
 30
0.0
 11
2916.837785024478
 21
2100.32653685785
 31
0.0
  0
LINE
  5
1253
330
1F
100
AcDbEntity
  8
SANINDUSA
100
AcDbLine
 10
2916.837785024478
 20
2100.55153685189
 30
0.0
 11
2916.837785024478
 21
2100.578536847002
 31
0.0
  0
LINE
  5
1254
330
1F
100
AcDbEntity
  8
SANINDUSA
100
AcDbLine
 10
2916.837785024478
 20
2100.733536855645
 30
0.0
 11
2916.837785024478
 21
2100.739536852903
 31
0.0
  0
LINE
  5
1255
330
1F
100
AcDbEntity
  8
SANINDUSA
100
AcDbLine
 10
2917.43778504832
 20
2100.324536853797
 30
0.0
 11
2917.43778504832
 21
2100.32653685785
 31
0.0
  0
LINE
  5
1256
330
1F
100
AcDbEntity
  8
SANINDUSA
100
AcDbLine
 10
2917.43778504832
 20
2100.55153685189
 30
0.0
 11
2917.43778504832
 21
2100.578536847002
 31
0.0
  0
LINE
  5
1257
330
1F
100
AcDbEntity
  8
SANINDUSA
100
AcDbLine
 10
2917.43778504832
 20
2100.733536855645
 30
0.0
 11
2917.43778504832
 21
2100.739536852903
 31
0.0
  0
LINE
  5
125B
330
1F
100
AcDbEntity
  8
SANINDUSA
100
AcDbLine
 10
2917.421785045697
 20
2100.324536853797
 30
0.0
 11
2917.43778504832
 21
2100.324536853797
 31
0.0
  0
LINE
  5
125C
330
1F
100
AcDbEntity
  8
SANINDUSA
100
AcDbLine
 10
2917.421785045697
 20
2100.324536853797
 30
0.0
 11
2916.853785027101
 21
2100.324536853797
 31
0.0
  0
LINE
  5
125D
330
1F
100
AcDbEntity
  8
SANINDUSA
100
AcDbLine
 10
2917.43778504832
 20
2100.739536852903
 30
0.0
 11
2917.43778504832
 21
2100.816536853417
 31
0.0
  0
LINE
  5
125E
330
1F
100
AcDbEntity
  8
SANINDUSA
100
AcDbLine
 10
2917.43778504832
 20
2100.739536852903
 30
0.0
 11
2916.837785024478
 21
2100.739536852903
 31
0.0
  0
LINE
  5
125F
330
1F
100
AcDbEntity
  8
SANINDUSA
100
AcDbLine
 10
2916.837785024478
 20
2100.739536852903
 30
0.0
 11
2916.837785024478
 21
2100.816536853417
 31
0.0
  0
LINE
  5
1260
330
1F
100
AcDbEntity
  8
SANINDUSA
100
AcDbLine
 10
2916.837785024478
 20
2100.578536847002
 30
0.0
 11
2916.837785024478
 21
2100.733536855645
 31
0.0
  0
LINE
  5
1261
330
1F
100
AcDbEntity
  8
SANINDUSA
100
AcDbLine
 10
2917.43778504832
 20
2100.733536855645
 30
0.0
 11
2916.837785024478
 21
2100.733536855645
 31
0.0
  0
LINE
  5
1262
330
1F
100
AcDbEntity
  8
SANINDUSA
100
AcDbLine
 10
2917.43778504832
 20
2100.578536847002
 30
0.0
 11
2917.43778504832
 21
2100.733536855645
 31
0.0
  0
LINE
  5
1263
330
1F
100
AcDbEntity
  8
SANINDUSA
100
AcDbLine
 10
2917.43778504832
 20
2100.578536847002
 30
0.0
 11
2916.837785024478
 21
2100.578536847002
 31
0.0
  0
LINE
  5
1264
330
1F
100
AcDbEntity
  8
SANINDUSA
100
AcDbLine
 10
2917.43778504832
 20
2100.55153685189
 30
0.0
 11
2916.837785024478
 21
2100.55153685189
 31
0.0
  0
LINE
  5
1265
330
1F
100
AcDbEntity
  8
SANINDUSA
100
AcDbLine
 10
2917.43778504832
 20
2100.32653685785
 30
0.0
 11
2916.837785024478
 21
2100.32653685785
 31
0.0
  0
LINE
  5
1266
330
1F
100
AcDbEntity
  8
SANINDUSA
100
AcDbLine
 10
2917.43778504832
 20
2100.32653685785
 30
0.0
 11
2917.43778504832
 21
2100.55153685189
 31
0.0
  0
LINE
  5
1267
330
1F
100
AcDbEntity
  8
SANINDUSA
100
AcDbLine
 10
2916.837785024478
 20
2100.32653685785
 30
0.0
 11
2916.837785024478
 21
2100.55153685189
 31
0.0
  0
LINE
  5
1268
330
1F
100
AcDbEntity
  8
SANINDUSA
100
AcDbLine
 10
2917.437835026814
 20
2100.799536853424
 30
0.0
 11
2917.43778504832
 21
2100.799536853424
 31
0.0
  0
LINE
  5
1269
330
1F
100
AcDbEntity
  8
SANINDUSA
100
AcDbLine
 10
2917.437835026814
 20
2100.789536853648
 30
0.0
 11
2917.43778504832
 21
2100.789536853648
 31
0.0
  0
LINE
  5
126A
330
1F
100
AcDbEntity
  8
SANINDUSA
100
AcDbLine
 10
2917.437835026814
 20
2100.799536853424
 30
0.0
 11
2917.437835026814
 21
2100.789536853648
 31
0.0
  0
LINE
  5
126B
330
1F
100
AcDbEntity
  8
SANINDUSA
100
AcDbLine
 10
2917.437885035111
 20
2100.795266996465
 30
0.0
 11
2917.437835026814
 21
2100.795266996465
 31
0.0
  0
LINE
  5
126C
330
1F
100
AcDbEntity
  8
SANINDUSA
100
AcDbLine
 10
2917.437885035111
 20
2100.794536854468
 30
0.0
 11
2917.437835026814
 21
2100.794536854468
 31
0.0
  0
LINE
  5
126D
330
1F
100
AcDbEntity
  8
SANINDUSA
100
AcDbLine
 10
2917.437885035111
 20
2100.795266996465
 30
0.0
 11
2917.437885035111
 21
2100.794536854468
 31
0.0
  0
LINE
  5
126E
330
1F
100
AcDbEntity
  8
SANINDUSA
100
AcDbLine
 10
2917.437885035111
 20
2100.796245514742
 30
0.0
 11
2917.437835026814
 21
2100.796245514742
 31
0.0
  0
LINE
  5
126F
330
1F
100
AcDbEntity
  8
SANINDUSA
100
AcDbLine
 10
2917.437885035111
 20
2100.795515370882
 30
0.0
 11
2917.437835026814
 21
2100.795515370882
 31
0.0
  0
LINE
  5
1270
330
1F
100
AcDbEntity
  8
SANINDUSA
100
AcDbLine
 10
2917.437885035111
 20
2100.796245514742
 30
0.0
 11
2917.437885035111
 21
2100.795515370882
 31
0.0
  0
LINE
  5
1271
330
1F
100
AcDbEntity
  8
SANINDUSA
100
AcDbLine
 10
2917.437885035111
 20
2100.795515370882
 30
0.0
 11
2917.437885035111
 21
2100.795266996465
 31
0.0
  0
LINE
  5
1272
330
1F
100
AcDbEntity
  8
SANINDUSA
100
AcDbLine
 10
2917.437885035111
 20
2100.793149494893
 30
0.0
 11
2917.437835026814
 21
2100.793149494893
 31
0.0
  0
LINE
  5
1273
330
1F
100
AcDbEntity
  8
SANINDUSA
100
AcDbLine
 10
2917.437885035111
 20
2100.792835803098
 30
0.0
 11
2917.437835026814
 21
2100.792835803098
 31
0.0
  0
LINE
  5
1274
330
1F
100
AcDbEntity
  8
SANINDUSA
100
AcDbLine
 10
2917.437885035111
 20
2100.793149494893
 30
0.0
 11
2917.437885035111
 21
2100.792835803098
 31
0.0
  0
LINE
  5
1275
330
1F
100
AcDbEntity
  8
SANINDUSA
100
AcDbLine
 10
2917.437885035111
 20
2100.794171781606
 30
0.0
 11
2917.437835026814
 21
2100.794171781606
 31
0.0
  0
LINE
  5
1276
330
1F
100
AcDbEntity
  8
SANINDUSA
100
AcDbLine
 10
2917.437885035111
 20
2100.794536854468
 30
0.0
 11
2917.437885035111
 21
2100.794171781606
 31
0.0
  0
LINE
  5
1277
330
1F
100
AcDbEntity
  8
SANINDUSA
100
AcDbLine
 10
2917.437885035111
 20
2100.793514567754
 30
0.0
 11
2917.437835026814
 21
2100.793514567754
 31
0.0
  0
LINE
  5
1278
330
1F
100
AcDbEntity
  8
SANINDUSA
100
AcDbLine
 10
2917.437885035111
 20
2100.793514567754
 30
0.0
 11
2917.437885035111
 21
2100.793149494893
 31
0.0
  0
LINE
  5
1279
330
1F
100
AcDbEntity
  8
SANINDUSA
100
AcDbLine
 10
2917.437885035111
 20
2100.794171781606
 30
0.0
 11
2917.437885035111
 21
2100.793514567754
 31
0.0
  0
LINE
  5
127A
330
1F
100
AcDbEntity
  8
SANINDUSA
100
AcDbLine
 10
2917.437885035111
 20
2100.792798974878
 30
0.0
 11
2917.437835026814
 21
2100.792798974878
 31
0.0
  0
LINE
  5
127B
330
1F
100
AcDbEntity
  8
SANINDUSA
100
AcDbLine
 10
2917.437885035111
 20
2100.792835803098
 30
0.0
 11
2917.437885035111
 21
2100.792798974878
 31
0.0
  0
LINE
  5
127C
330
1F
100
AcDbEntity
  8
SANINDUSA
100
AcDbLine
 10
2917.437885035111
 20
2100.797136369488
 30
0.0
 11
2917.437835026814
 21
2100.797136369488
 31
0.0
  0
LINE
  5
127D
330
1F
100
AcDbEntity
  8
SANINDUSA
100
AcDbLine
 10
2917.437885035111
 20
2100.797136369488
 30
0.0
 11
2917.437885035111
 21
2100.796596006818
 31
0.0
  0
LINE
  5
127E
330
1F
100
AcDbEntity
  8
SANINDUSA
100
AcDbLine
 10
2917.437885035111
 20
2100.796596006818
 30
0.0
 11
2917.437835026814
 21
2100.796596006818
 31
0.0
  0
LINE
  5
127F
330
1F
100
AcDbEntity
  8
SANINDUSA
100
AcDbLine
 10
2917.437885035111
 20
2100.796596006818
 30
0.0
 11
2917.437885035111
 21
2100.796245514742
 31
0.0
  0
SPLINE
  5
1282
330
1F
100
AcDbEntity
  8
SANINDUSA
100
AcDbSpline
210
0.0
220
0.0
230
1.0
 70
     8
 71
     3
 72
    21
 73
    17
 74
     0
 42
0.000000001
 43
0.0000000001
 40
0.0
 40
0.0
 40
0.0
 40
0.0
 40
0.0693445563465493
 40
0.1378179148559231
 40
0.2051901457007985
 40
0.2714001452619892
 40
0.336373860242626
 40
0.3999026693968052
 40
0.4622260999462008
 40
0.5265076774581237
 40
0.5914918196033792
 40
0.6559618751000526
 40
0.7793997512076284
 40
0.8944648620775279
 40
0.9484427154046594
 40
1.0
 40
1.0
 40
1.0
 40
1.0
 10
2916.208539205095
 20
2100.654255453934
 30
0.0
 10
2916.20739697673
 20
2100.654240015425
 30
0.0
 10
2916.20512687018
 20
2100.654209332368
 30
0.0
 10
2916.201796441932
 20
2100.653797193229
 30
0.0
 10
2916.1986149055
 20
2100.653080510752
 30
0.0
 10
2916.195582216796
 20
2100.652077772593
 30
0.0
 10
2916.192741331316
 20
2100.650793959882
 30
0.0
 10
2916.189943918159
 20
2100.649374110504
 30
0.0
 10
2916.18775091958
 20
2100.647378147913
 30
0.0
 10
2916.186401386491
 20
2100.645074269207
 30
0.0
 10
2916.185618131951
 20
2100.642590769858
 30
0.0
 10
2916.185191410989
 20
2100.639241679789
 30
0.0
 10
2916.185343647261
 20
2100.63503875748
 30
0.0
 10
2916.185886781324
 20
2100.630699622487
 30
0.0
 10
2916.186437187675
 20
2100.62729161935
 30
0.0
 10
2916.186650146891
 20
2100.625588196467
 30
0.0
 10
2916.186754184267
 20
2100.624756019999
 30
0.0
  0
SPLINE
  5
1283
330
1F
100
AcDbEntity
  8
SANINDUSA
100
AcDbSpline
210
0.0
220
0.0
230
1.0
 70
     8
 71
     3
 72
    22
 73
    18
 74
     0
 42
0.000000001
 43
0.0000000001
 40
0.0
 40
0.0
 40
0.0
 40
0.0
 40
0.0295642261480412
 40
0.0928768236979225
 40
0.1564038609309107
 40
0.2200010137620405
 40
0.2835230279113368
 40
0.3468314028516266
 40
0.3946866824687435
 40
0.4425431292660884
 40
0.5138753751877908
 40
0.5852896473323013
 40
0.656645537560523
 40
0.7301418809560687
 40
0.803708629317923
 40
0.8772685446375488
 40
1.0
 40
1.0
 40
1.0
 40
1.0
 10
2916.208539205095
 20
2100.654255453934
 30
0.0
 10
2916.210321665106
 20
2100.654017010332
 30
0.0
 10
2916.215921311902
 20
2100.653267933246
 30
0.0
 10
2916.225862327287
 20
2100.652082407861
 30
0.0
 10
2916.238602267857
 20
2100.650750311898
 30
0.0
 10
2916.251970258363
 20
2100.649538335647
 30
0.0
 10
2916.265868255033
 20
2100.648453276054
 30
0.0
 10
2916.279074417435
 20
2100.64758054036
 30
0.0
 10
2916.291409125321
 20
2100.646887246789
 30
0.0
 10
2916.304599337049
 20
2100.646245384985
 30
0.0
 10
2916.319937599181
 20
2100.64563569045
 30
0.0
 10
2916.337446100933
 20
2100.645108076115
 30
0.0
 10
2916.355325379288
 20
2100.644719813953
 30
0.0
 10
2916.373523436434
 20
2100.644485982234
 30
0.0
 10
2916.391963601062
 20
2100.64438316014
 30
0.0
 10
2916.41453092532
 20
2100.644371532585
 30
0.0
 10
2916.430944749109
 20
2100.644382550711
 30
0.0
 10
2916.441207515499
 20
2100.644389439811
 30
0.0
  0
SPLINE
  5
1284
330
1F
100
AcDbEntity
  8
SANINDUSA
100
AcDbSpline
210
0.0
220
0.0
230
1.0
 70
     8
 71
     3
 72
    21
 73
    17
 74
     0
 42
0.000000001
 43
0.0000000001
 40
0.0
 40
0.0
 40
0.0
 40
0.0
 40
0.0693445563465493
 40
0.1378179148559231
 40
0.2051901457007985
 40
0.2714001452619892
 40
0.336373860242626
 40
0.3999026693968052
 40
0.4622260999462008
 40
0.5265076774581237
 40
0.5914918196033792
 40
0.6559618751000526
 40
0.7793997512076284
 40
0.8944648620775279
 40
0.9484427154046594
 40
1.0
 40
1.0
 40
1.0
 40
1.0
 10
2916.673875825903
 20
2100.654255453934
 30
0.0
 10
2916.675018054268
 20
2100.654240015425
 30
0.0
 10
2916.677288160818
 20
2100.654209332368
 30
0.0
 10
2916.680618589065
 20
2100.653797193229
 30
0.0
 10
2916.683800125499
 20
2100.653080510752
 30
0.0
 10
2916.686832814202
 20
2100.652077772593
 30
0.0
 10
2916.689673699682
 20
2100.650793959882
 30
0.0
 10
2916.692471112838
 20
2100.649374110504
 30
0.0
 10
2916.694664111417
 20
2100.647378147913
 30
0.0
 10
2916.696013644507
 20
2100.645074269207
 30
0.0
 10
2916.696796899047
 20
2100.642590769858
 30
0.0
 10
2916.697223620008
 20
2100.639241679789
 30
0.0
 10
2916.697071383737
 20
2100.63503875748
 30
0.0
 10
2916.696528249675
 20
2100.630699622487
 30
0.0
 10
2916.695977843323
 20
2100.62729161935
 30
0.0
 10
2916.695764884107
 20
2100.625588196467
 30
0.0
 10
2916.695660846731
 20
2100.624756019999
 30
0.0
  0
SPLINE
  5
1286
330
1F
100
AcDbEntity
  8
SANINDUSA
100
AcDbSpline
210
0.0
220
0.0
230
1.0
 70
     8
 71
     3
 72
    22
 73
    18
 74
     0
 42
0.000000001
 43
0.0000000001
 40
0.0
 40
0.0
 40
0.0
 40
0.0
 40
0.0295642261480412
 40
0.0928768236979225
 40
0.1564038609309107
 40
0.2200010137620405
 40
0.2835230279113368
 40
0.3468314028516266
 40
0.3946866824687435
 40
0.4425431292660884
 40
0.5138753751877908
 40
0.5852896473323013
 40
0.656645537560523
 40
0.7301418809560687
 40
0.803708629317923
 40
0.8772685446375488
 40
1.0
 40
1.0
 40
1.0
 40
1.0
 10
2916.673875825903
 20
2100.654255453934
 30
0.0
 10
2916.672093365891
 20
2100.654017010332
 30
0.0
 10
2916.666493719096
 20
2100.653267933246
 30
0.0
 10
2916.656552703711
 20
2100.652082407861
 30
0.0
 10
2916.643812763141
 20
2100.650750311898
 30
0.0
 10
2916.630444772635
 20
2100.649538335647
 30
0.0
 10
2916.616546775965
 20
2100.648453276054
 30
0.0
 10
2916.603340613564
 20
2100.64758054036
 30
0.0
 10
2916.591005905678
 20
2100.646887246789
 30
0.0
 10
2916.577815693949
 20
2100.646245384985
 30
0.0
 10
2916.562477431817
 20
2100.64563569045
 30
0.0
 10
2916.544968930065
 20
2100.645108076115
 30
0.0
 10
2916.52708965171
 20
2100.644719813953
 30
0.0
 10
2916.508891594564
 20
2100.644485982234
 30
0.0
 10
2916.490451429936
 20
2100.64438316014
 30
0.0
 10
2916.467884105678
 20
2100.644371532585
 30
0.0
 10
2916.451470281889
 20
2100.644382550711
 30
0.0
 10
2916.441207515499
 20
2100.644389439811
 30
0.0
  0
LINE
  5
1287
330
1F
100
AcDbEntity
  8
SANINDUSA
100
AcDbLine
 10
2916.441207515499
 20
2100.654255453934
 30
0.0
 11
2916.208539205095
 21
2100.654255453934
 31
0.0
  0
LINE
  5
1288
330
1F
100
AcDbEntity
  8
SANINDUSA
100
AcDbLine
 10
2916.441207515499
 20
2100.654255453934
 30
0.0
 11
2916.673875825903
 21
2100.654255453934
 31
0.0
  0
LWPOLYLINE
  5
1289
330
1F
100
AcDbEntity
  8
SANINDUSA
100
AcDbPolyline
 90
       36
 70
   128
 43
0.0
 10
2916.366566749713
 20
2100.649245221605
 10
2916.36853087922
 20
2100.649269823422
 10
2916.370431872508
 20
2100.649342839111
 10
2916.372208642265
 20
2100.649461921741
 10
2916.373804079792
 20
2100.649623241712
 10
2916.375166902742
 20
2100.649821620871
 10
2916.376253301701
 20
2100.650050674071
 10
2916.37702837815
 20
2100.650303047587
 10
2916.377467202446
 20
2100.650570627738
 10
2916.37755567809
 20
2100.650844809104
 10
2916.377290958962
 20
2100.651116785098
 10
2916.376681561074
 20
2100.651377808739
 10
2916.375747057101
 20
2100.651619498123
 10
2916.374517495236
 20
2100.651834074844
 10
2916.373032393357
 20
2100.652014654567
 10
2916.371339472434
 20
2100.652155418385
 10
2916.369493158957
 20
2100.652251858701
 10
2916.367552781901
 20
2100.65230086862
 10
2916.365580717524
 20
2100.65230086862
 10
2916.363640347919
 20
2100.652251858701
 10
2916.361794034442
 20
2100.652155418385
 10
2916.360101113519
 20
2100.652014654567
 10
2916.35861601164
 20
2100.651834074844
 10
2916.357386449775
 20
2100.651619498123
 10
2916.356451945802
 20
2100.651377808739
 10
2916.355842547914
 20
2100.651116785098
 10
2916.355577828785
 20
2100.650844809104
 10
2916.35566630443
 20
2100.650570627738
 10
2916.356105128726
 20
2100.650303047587
 10
2916.356880205175
 20
2100.650050674071
 10
2916.357966604135
 20
2100.649821620871
 10
2916.359329427084
 20
2100.649623241712
 10
2916.360924864611
 20
2100.649461921741
 10
2916.362701626918
 20
2100.649342839111
 10
2916.364602627656
 20
2100.649269823422
 10
2916.366566749713
 20
2100.649245221605
  0
SPLINE
  5
128A
330
1F
100
AcDbEntity
  8
SANINDUSA
100
AcDbSpline
210
0.0
220
0.0
230
1.0
 70
     8
 71
     3
 72
    28
 73
    24
 74
     0
 42
0.000000001
 43
0.0000000001
 40
0.0
 40
0.0
 40
0.0
 40
0.0
 40
0.0153589839240404
 40
0.0330668545044036
 40
0.0632684237655761
 40
0.0948336159754458
 40
0.1608643884506799
 40
0.2291382901750408
 40
0.2974209742617679
 40
0.3636060325866535
 40
0.3957231076122216
 40
0.4270634140166198
 40
0.4578309071934621
 40
0.4885594047590426
 40
0.5476600779695464
 40
0.6079933859997598
 40
0.649872485932042
 40
0.6932518512626654
 40
0.7371021736724119
 40
0.7994988861779689
 40
0.8642890177481103
 40
0.9317220816539739
 40
1.0
 40
1.0
 40
1.0
 40
1.0
 10
2916.695658998987
 20
2100.475644510676
 30
0.0
 10
2916.695727672561
 20
2100.475298005865
 30
0.0
 10
2916.695875522126
 20
2100.474552004423
 30
0.0
 10
2916.696462648948
 20
2100.473333792213
 30
0.0
 10
2916.696869519045
 20
2100.471600853998
 30
0.0
 10
2916.697698623758
 20
2100.468985982502
 30
0.0
 10
2916.69863737389
 20
2100.465609775937
 30
0.0
 10
2916.699526219418
 20
2100.461518338261
 30
0.0
 10
2916.699968599888
 20
2100.457387982763
 30
0.0
 10
2916.699804211891
 20
2100.453945026629
 30
0.0
 10
2916.699162104955
 20
2100.451269924938
 30
0.0
 10
2916.698401800142
 20
2100.449362994242
 30
0.0
 10
2916.697337786674
 20
2100.447560852241
 30
0.0
 10
2916.695447376254
 20
2100.445495005049
 30
0.0
 10
2916.692876223054
 20
2100.443161257153
 30
0.0
 10
2916.689869748194
 20
2100.440950487103
 30
0.0
 10
2916.686985861372
 20
2100.439217314463
 30
0.0
 10
2916.684321116632
 20
2100.43787070032
 30
0.0
 10
2916.681129759688
 20
2100.436532488306
 30
0.0
 10
2916.677388551026
 20
2100.435262725511
 30
0.0
 10
2916.67297922545
 20
2100.434278439134
 30
0.0
 10
2916.668340237234
 20
2100.433695146296
 30
0.0
 10
2916.665174360228
 20
2100.433656743133
 30
0.0
 10
2916.663581567308
 20
2100.433637422015
 30
0.0
  0
SPLINE
  5
128B
330
1F
100
AcDbEntity
  8
SANINDUSA
100
AcDbSpline
210
0.0
220
0.0
230
1.0
 70
     8
 71
     3
 72
    23
 73
    19
 74
     0
 42
0.000000001
 43
0.0000000001
 40
0.0
 40
0.0
 40
0.0
 40
0.0
 40
0.0794076514100782
 40
0.160263641784964
 40
0.231636974500266
 40
0.3060860316563723
 40
0.3799898133742059
 40
0.4524124123986193
 40
0.5236744951850748
 40
0.573908493370101
 40
0.6236949849601996
 40
0.6731689418390578
 40
0.722467854895514
 40
0.7717306324947725
 40
0.8276112536016611
 40
0.8841573287718615
 40
0.9415594616315484
 40
1.0
 40
1.0
 40
1.0
 40
1.0
 10
2916.441207515499
 20
2100.457190435816
 30
0.0
 10
2916.4476482993
 20
2100.457194680529
 30
0.0
 10
2916.460647342207
 20
2100.457203247375
 30
0.0
 10
2916.479434905613
 20
2100.457185049794
 30
0.0
 10
2916.49782010588
 20
2100.457018233047
 30
0.0
 10
2916.515574517053
 20
2100.45649404587
 30
0.0
 10
2916.533278876221
 20
2100.455641312866
 30
0.0
 10
2916.550512326197
 20
2100.454446463324
 30
0.0
 10
2916.565604709662
 20
2100.453063731776
 30
0.0
 10
2916.578667502978
 20
2100.451596977634
 30
0.0
 10
2916.589839334372
 20
2100.450135955831
 30
0.0
 10
2916.600679602579
 20
2100.448506164745
 30
0.0
 10
2916.611188188364
 20
2100.446707507661
 30
0.0
 10
2916.621812216178
 20
2100.444653202816
 30
0.0
 10
2916.63252623152
 20
2100.442311480937
 30
0.0
 10
2916.643280694016
 20
2100.439648604686
 30
0.0
 10
2916.653716521054
 20
2100.43676777119
 30
0.0
 10
2916.660273210092
 20
2100.434687049152
 30
0.0
 10
2916.66358094146
 20
2100.43363736241
 30
0.0
  0
SPLINE
  5
128E
330
1F
100
AcDbEntity
  8
SANINDUSA
100
AcDbSpline
210
0.0
220
0.0
230
1.0
 70
     8
 71
     3
 72
    23
 73
    19
 74
     0
 42
0.000000001
 43
0.0000000001
 40
0.0
 40
0.0
 40
0.0
 40
0.0
 40
0.0794076514100782
 40
0.160263641784964
 40
0.231636974500266
 40
0.3060860316563723
 40
0.3799898133742059
 40
0.4524124123986193
 40
0.5236744951850748
 40
0.573908493370101
 40
0.6236949849601996
 40
0.6731689418390578
 40
0.722467854895514
 40
0.7717306324947725
 40
0.8276112536016611
 40
0.8841573287718615
 40
0.9415594616315484
 40
1.0
 40
1.0
 40
1.0
 40
1.0
 10
2916.441207515499
 20
2100.457190435816
 30
0.0
 10
2916.434766731699
 20
2100.457194680529
 30
0.0
 10
2916.421767688792
 20
2100.457203247375
 30
0.0
 10
2916.402980125385
 20
2100.457185049794
 30
0.0
 10
2916.384594925118
 20
2100.457018233047
 30
0.0
 10
2916.366840513945
 20
2100.45649404587
 30
0.0
 10
2916.349136154778
 20
2100.455641312866
 30
0.0
 10
2916.331902704801
 20
2100.454446463324
 30
0.0
 10
2916.316810321336
 20
2100.453063731776
 30
0.0
 10
2916.303747528019
 20
2100.451596977634
 30
0.0
 10
2916.292575696626
 20
2100.450135955831
 30
0.0
 10
2916.28173542842
 20
2100.448506164745
 30
0.0
 10
2916.271226842633
 20
2100.446707507661
 30
0.0
 10
2916.260602814821
 20
2100.444653202816
 30
0.0
 10
2916.249888799478
 20
2100.442311480937
 30
0.0
 10
2916.239134336982
 20
2100.439648604686
 30
0.0
 10
2916.228698509945
 20
2100.43676777119
 30
0.0
 10
2916.222141820906
 20
2100.434687049152
 30
0.0
 10
2916.218834089539
 20
2100.43363736241
 30
0.0
  0
SPLINE
  5
128F
330
1F
100
AcDbEntity
  8
SANINDUSA
100
AcDbSpline
210
0.0
220
0.0
230
1.0
 70
     8
 71
     3
 72
    28
 73
    24
 74
     0
 42
0.000000001
 43
0.0000000001
 40
0.0
 40
0.0
 40
0.0
 40
0.0
 40
0.0153589839240404
 40
0.0330668545044036
 40
0.0632684237655761
 40
0.0948336159754458
 40
0.1608643884506799
 40
0.2291382901750408
 40
0.2974209742617679
 40
0.3636060325866535
 40
0.3957231076122216
 40
0.4270634140166198
 40
0.4578309071934621
 40
0.4885594047590426
 40
0.5476600779695464
 40
0.6079933859997598
 40
0.649872485932042
 40
0.6932518512626654
 40
0.7371021736724119
 40
0.7994988861779689
 40
0.8642890177481103
 40
0.9317220816539739
 40
1.0
 40
1.0
 40
1.0
 40
1.0
 10
2916.186756032011
 20
2100.475644510676
 30
0.0
 10
2916.186687358437
 20
2100.475298005865
 30
0.0
 10
2916.186539508872
 20
2100.474552004423
 30
0.0
 10
2916.185952382051
 20
2100.473333792213
 30
0.0
 10
2916.185545511952
 20
2100.471600853998
 30
0.0
 10
2916.18471640724
 20
2100.468985982502
 30
0.0
 10
2916.183777657109
 20
2100.465609775937
 30
0.0
 10
2916.18288881158
 20
2100.461518338261
 30
0.0
 10
2916.18244643111
 20
2100.457387982763
 30
0.0
 10
2916.182610819107
 20
2100.453945026629
 30
0.0
 10
2916.183252926043
 20
2100.451269924938
 30
0.0
 10
2916.184013230856
 20
2100.449362994242
 30
0.0
 10
2916.185077244325
 20
2100.447560852241
 30
0.0
 10
2916.186967654743
 20
2100.445495005049
 30
0.0
 10
2916.189538807944
 20
2100.443161257153
 30
0.0
 10
2916.192545282804
 20
2100.440950487103
 30
0.0
 10
2916.195429169626
 20
2100.439217314463
 30
0.0
 10
2916.198093914366
 20
2100.43787070032
 30
0.0
 10
2916.20128527131
 20
2100.436532488306
 30
0.0
 10
2916.205026479972
 20
2100.435262725511
 30
0.0
 10
2916.209435805548
 20
2100.434278439134
 30
0.0
 10
2916.214074793764
 20
2100.433695146296
 30
0.0
 10
2916.21724067077
 20
2100.433656743133
 30
0.0
 10
2916.21883346369
 20
2100.433637422015
 30
0.0
  0
SPLINE
  5
1291
330
1F
100
AcDbEntity
  8
SANINDUSA
100
AcDbSpline
210
0.0
220
0.0
230
1.0
 70
     8
 71
     3
 72
    41
 73
    37
 74
     0
 42
0.000000001
 43
0.0000000001
 40
0.0
 40
0.0
 40
0.0
 40
0.0
 40
0.0442022125901501
 40
0.0882551124871475
 40
0.1328340009300389
 40
0.1785907957636992
 40
0.2215878110931047
 40
0.2638923500701073
 40
0.2919732276233727
 40
0.3201313165344545
 40
0.3485209343932039
 40
0.3791171646546505
 40
0.4094549033844964
 40
0.4397208719504621
 40
0.4701035016991024
 40
0.5007887504067745
 40
0.5718015739101682
 40
0.5816208900976188
 40
0.5915697538713047
 40
0.601651314737035
 40
0.6118685994886372
 40
0.6222245176604848
 40
0.632721527117119
 40
0.6390422354186124
 40
0.6703369670575443
 40
0.708711748876795
 40
0.7344242240531762
 40
0.7582831844757321
 40
0.7817644997162223
 40
0.8066360850757481
 40
0.8312912112402973
 40
0.8587480589848926
 40
0.8955933314668364
 40
0.9383387288729771
 40
0.9734591061847551
 40
1.0
 40
1.0
 40
1.0
 40
1.0
 10
2916.137837993404
 20
2100.624980804016
 30
0.0
 10
2916.137890426989
 20
2100.626305546105
 30
0.0
 10
2916.13799511704
 20
2100.628950555377
 30
0.0
 10
2916.138775664807
 20
2100.632868087611
 30
0.0
 10
2916.140013982803
 20
2100.636706615871
 30
0.0
 10
2916.141694343432
 20
2100.640340445501
 30
0.0
 10
2916.143712672427
 20
2100.643715658717
 30
0.0
 10
2916.14576993124
 20
2100.646427621929
 30
0.0
 10
2916.147766957339
 20
2100.648604774228
 30
0.0
 10
2916.149616498464
 20
2100.650341988805
 30
0.0
 10
2916.151647656618
 20
2100.651985219137
 30
0.0
 10
2916.153848337494
 20
2100.653511859677
 30
0.0
 10
2916.156209942455
 20
2100.654890802993
 30
0.0
 10
2916.158667311934
 20
2100.656076148986
 30
0.0
 10
2916.161220349232
 20
2100.65706771408
 30
0.0
 10
2916.165011374135
 20
2100.658211019798
 30
0.0
 10
2916.168323014131
 20
2100.658768878453
 30
0.0
 10
2916.171031000649
 20
2100.65901394649
 30
0.0
 10
2916.171922903673
 20
2100.659078517407
 30
0.0
 10
2916.172827653455
 20
2100.659127982674
 30
0.0
 10
2916.173745318019
 20
2100.659162743914
 30
0.0
 10
2916.17467585184
 20
2100.659181314893
 30
0.0
 10
2916.17548990157
 20
2100.659188284147
 30
0.0
 10
2916.176930912495
 20
2100.659161831373
 30
0.0
 10
2916.179206525918
 20
2100.659100446624
 30
0.0
 10
2916.182061554449
 20
2100.659009518317
 30
0.0
 10
2916.184699472589
 20
2100.659037473196
 30
0.0
 10
2916.186873885723
 20
2100.659297278293
 30
0.0
 10
2916.189027442312
 20
2100.659507494089
 30
0.0
 10
2916.191215493071
 20
2100.659556853189
 30
0.0
 10
2916.19352179783
 20
2100.659514925069
 30
0.0
 10
2916.196180443698
 20
2100.659321753235
 30
0.0
 10
2916.199371110092
 20
2100.659000011441
 30
0.0
 10
2916.202782697949
 20
2100.658593211035
 30
0.0
 10
2916.205897581923
 20
2100.658291953
 30
0.0
 10
2916.207744314855
 20
2100.658239222236
 30
0.0
 10
2916.208539205095
 20
2100.658216525306
 30
0.0
  0
SPLINE
  5
1292
330
1F
100
AcDbEntity
  8
SANINDUSA
100
AcDbSpline
210
0.0
220
0.0
230
1.0
 70
     8
 71
     3
 72
    10
 73
     6
 74
     0
 42
0.000000001
 43
0.0000000001
 40
0.0
 40
0.0
 40
0.0
 40
0.0
 40
0.0609911465383703
 40
0.5000000482567119
 40
1.0
 40
1.0
 40
1.0
 40
1.0
 10
2916.137823300859
 20
2100.475496363332
 30
0.0
 10
2916.137817800279
 20
2100.478535434981
 30
0.0
 10
2916.137772707011
 20
2100.503449476734
 30
0.0
 10
2916.137781489127
 20
2100.553277679519
 30
0.0
 10
2916.137818360352
 20
2100.600066739099
 30
0.0
 10
2916.137837993404
 20
2100.624980804016
 30
0.0
  0
SPLINE
  5
1293
330
1F
100
AcDbEntity
  8
SANINDUSA
100
AcDbSpline
210
0.0
220
0.0
230
1.0
 70
     8
 71
     3
 72
    58
 73
    54
 74
     0
 42
0.000000001
 43
0.0000000001
 40
0.0
 40
0.0
 40
0.0
 40
0.0
 40
0.0376829940464369
 40
0.087402441410708
 40
0.1213184427090143
 40
0.1617275478429079
 40
0.1965579605080303
 40
0.2302167357402338
 40
0.2678892138131046
 40
0.3032762511418112
 40
0.3265571198233648
 40
0.3489930787724384
 40
0.3706260630879172
 40
0.3915035186399034
 40
0.4116779120890783
 40
0.4206381429150456
 40
0.429490814293706
 40
0.4382363266539516
 40
0.4468757717712213
 40
0.4554104105994559
 40
0.4638407443600865
 40
0.4721683782960924
 40
0.4998977463161844
 40
0.5201604650355813
 40
0.5329561569024852
 40
0.5365538483236582
 40
0.5376528678913085
 40
0.5380643602440322
 40
0.5381989658372204
 40
0.5382493496538099
 40
0.5382696775393427
 40
0.5382783377167775
 40
0.538282270100782
 40
0.538283848506579
 40
0.5382845039039132
 40
0.5382847970065114
 40
0.5382850901091097
 40
0.5382853832117079
 40
0.5761572033236954
 40
0.6108392323301634
 40
0.6506695987105776
 40
0.6901048991576512
 40
0.734368588714675
 40
0.7775192443920862
 40
0.819984684056029
 40
0.8622128435879579
 40
0.9117024213202533
 40
0.9214141924694516
 40
0.931136116121058
 40
0.940874318926672
 40
0.9506356998899509
 40
0.9757618246572034
 40
1.0
 40
1.0
 40
1.0
 40
1.0
 10
2916.21883346369
 20
2100.429833215167
 30
0.0
 10
2916.217556291617
 20
2100.429823480634
 30
0.0
 10
2916.214594001596
 20
2100.42980090223
 30
0.0
 10
2916.210483291828
 20
2100.429702557612
 30
0.0
 10
2916.206279140933
 20
2100.429647904936
 30
0.0
 10
2916.202579713988
 20
2100.429689142348
 30
0.0
 10
2916.198889371816
 20
2100.429816352677
 30
0.0
 10
2916.195308457217
 20
2100.430194160621
 30
0.0
 10
2916.191736492581
 20
2100.430773993156
 30
0.0
 10
2916.18854599259
 20
2100.431478066125
 30
0.0
 10
2916.18589501601
 20
2100.432207726063
 30
0.0
 10
2916.183720115087
 20
2100.432903305099
 30
0.0
 10
2916.181655622383
 20
2100.433669058764
 30
0.0
 10
2916.179699200232
 20
2100.434500215096
 30
0.0
 10
2916.178179749277
 20
2100.435253136101
 30
0.0
 10
2916.177039769737
 20
2100.43585150583
 30
0.0
 10
2916.176235910901
 20
2100.436256648262
 30
0.0
 10
2916.175438341083
 20
2100.436649961476
 30
0.0
 10
2916.174646203345
 20
2100.437029833147
 30
0.0
 10
2916.173859641726
 20
2100.437396487845
 30
0.0
 10
2916.173078896065
 20
2100.437750524871
 30
0.0
 10
2916.171697165893
 20
2100.438354152306
 30
0.0
 10
2916.169943465408
 20
2100.43910793828
 30
0.0
 10
2916.168052953743
 20
2100.439926919081
 30
0.0
 10
2916.166913063158
 20
2100.440421031094
 30
0.0
 10
2916.166369422062
 20
2100.440657583423
 30
0.0
 10
2916.166210931042
 20
2100.440727251848
 30
0.0
 10
2916.166159886405
 20
2100.440749698138
 30
0.0
 10
2916.166141507278
 20
2100.440758114667
 30
0.0
 10
2916.166135102529
 20
2100.440760844745
 30
0.0
 10
2916.166132694831
 20
2100.440762044205
 30
0.0
 10
2916.166131643974
 20
2100.440762433834
 30
0.0
 10
2916.166131240539
 20
2100.440762700676
 30
0.0
 10
2916.166131026462
 20
2100.440762740449
 30
0.0
 10
2916.16613096719
 20
2100.440762809911
 30
0.0
 10
2916.166130907032
 20
2100.440762788658
 30
0.0
 10
2916.166130927655
 20
2100.440762839675
 30
0.0
 10
2916.164412947783
 20
2100.44032336408
 30
0.0
 10
2916.162975425176
 20
2100.442766105524
 30
0.0
 10
2916.15932155422
 20
2100.444045650096
 30
0.0
 10
2916.156147568587
 20
2100.446277366821
 30
0.0
 10
2916.152787226941
 20
2100.448771461683
 30
0.0
 10
2916.149608338836
 20
2100.451680723161
 30
0.0
 10
2916.146646349032
 20
2100.454945243327
 30
0.0
 10
2916.144076779223
 20
2100.458444381937
 30
0.0
 10
2916.141771602563
 20
2100.462373315837
 30
0.0
 10
2916.140386114164
 20
2100.465532058864
 30
0.0
 10
2916.139621107213
 20
2100.467739422177
 30
0.0
 10
2916.139323263547
 20
2100.468682230886
 30
0.0
 10
2916.139042310844
 20
2100.469632380301
 30
0.0
 10
2916.138691555886
 20
2100.471103341549
 30
0.0
 10
2916.137953904536
 20
2100.472989144995
 30
0.0
 10
2916.13786643014
 20
2100.474670706351
 30
0.0
 10
2916.137823479673
 20
2100.475496363332
 30
0.0
  0
SPLINE
  5
1296
330
1F
100
AcDbEntity
  8
SANINDUSA
100
AcDbSpline
210
0.0
220
0.0
230
1.0
 70
     8
 71
     3
 72
    58
 73
    54
 74
     0
 42
0.000000001
 43
0.0000000001
 40
0.0
 40
0.0
 40
0.0
 40
0.0
 40
0.0376829940464369
 40
0.087402441410708
 40
0.1213184427090143
 40
0.1617275478429079
 40
0.1965579605080303
 40
0.2302167357402338
 40
0.2678892138131046
 40
0.3032762511418112
 40
0.3265571198233648
 40
0.3489930787724384
 40
0.3706260630879172
 40
0.3915035186399034
 40
0.4116779120890783
 40
0.4206381429150456
 40
0.429490814293706
 40
0.4382363266539516
 40
0.4468757717712213
 40
0.4554104105994559
 40
0.4638407443600865
 40
0.4721683782960924
 40
0.4998977463161844
 40
0.5201604650355813
 40
0.5329561569024852
 40
0.5365538483236582
 40
0.5376528678913085
 40
0.5380643602440322
 40
0.5381989658372204
 40
0.5382493496538099
 40
0.5382696775393427
 40
0.5382783377167775
 40
0.538282270100782
 40
0.538283848506579
 40
0.5382845039039132
 40
0.5382847970065114
 40
0.5382850901091097
 40
0.5382853832117079
 40
0.5761572033236954
 40
0.6108392323301634
 40
0.6506695987105776
 40
0.6901048991576512
 40
0.734368588714675
 40
0.7775192443920862
 40
0.819984684056029
 40
0.8622128435879579
 40
0.9117024213202533
 40
0.9214141924694516
 40
0.931136116121058
 40
0.940874318926672
 40
0.9506356998899509
 40
0.9757618246572034
 40
1.0
 40
1.0
 40
1.0
 40
1.0
 10
2916.663581567308
 20
2100.429833215167
 30
0.0
 10
2916.664858739381
 20
2100.429823480634
 30
0.0
 10
2916.667821029402
 20
2100.42980090223
 30
0.0
 10
2916.67193173917
 20
2100.429702557612
 30
0.0
 10
2916.676135890065
 20
2100.429647904936
 30
0.0
 10
2916.67983531701
 20
2100.429689142348
 30
0.0
 10
2916.683525659182
 20
2100.429816352677
 30
0.0
 10
2916.68710657378
 20
2100.430194160621
 30
0.0
 10
2916.690678538417
 20
2100.430773993156
 30
0.0
 10
2916.693869038408
 20
2100.431478066125
 30
0.0
 10
2916.696520014988
 20
2100.432207726063
 30
0.0
 10
2916.698694915911
 20
2100.432903305099
 30
0.0
 10
2916.700759408615
 20
2100.433669058764
 30
0.0
 10
2916.702715830766
 20
2100.434500215096
 30
0.0
 10
2916.704235281721
 20
2100.435253136101
 30
0.0
 10
2916.70537526126
 20
2100.43585150583
 30
0.0
 10
2916.706179120097
 20
2100.436256648262
 30
0.0
 10
2916.706976689916
 20
2100.436649961476
 30
0.0
 10
2916.707768827652
 20
2100.437029833147
 30
0.0
 10
2916.708555389272
 20
2100.437396487845
 30
0.0
 10
2916.709336134934
 20
2100.437750524871
 30
0.0
 10
2916.710717865106
 20
2100.438354152306
 30
0.0
 10
2916.71247156559
 20
2100.43910793828
 30
0.0
 10
2916.714362077255
 20
2100.439926919081
 30
0.0
 10
2916.715501967841
 20
2100.440421031094
 30
0.0
 10
2916.716045608936
 20
2100.440657583423
 30
0.0
 10
2916.716204099956
 20
2100.440727251848
 30
0.0
 10
2916.716255144593
 20
2100.440749698138
 30
0.0
 10
2916.71627352372
 20
2100.440758114667
 30
0.0
 10
2916.71627992847
 20
2100.440760844745
 30
0.0
 10
2916.716282336168
 20
2100.440762044205
 30
0.0
 10
2916.716283387025
 20
2100.440762433834
 30
0.0
 10
2916.716283790459
 20
2100.440762700676
 30
0.0
 10
2916.716284004536
 20
2100.440762740449
 30
0.0
 10
2916.716284063808
 20
2100.440762809911
 30
0.0
 10
2916.716284123966
 20
2100.440762788658
 30
0.0
 10
2916.716284103343
 20
2100.440762839675
 30
0.0
 10
2916.718002083215
 20
2100.44032336408
 30
0.0
 10
2916.719439605822
 20
2100.442766105524
 30
0.0
 10
2916.723093476779
 20
2100.444045650096
 30
0.0
 10
2916.726267462411
 20
2100.446277366821
 30
0.0
 10
2916.729627804057
 20
2100.448771461683
 30
0.0
 10
2916.732806692163
 20
2100.451680723161
 30
0.0
 10
2916.735768681967
 20
2100.454945243327
 30
0.0
 10
2916.738338251775
 20
2100.458444381937
 30
0.0
 10
2916.740643428435
 20
2100.462373315837
 30
0.0
 10
2916.742028916834
 20
2100.465532058864
 30
0.0
 10
2916.742793923785
 20
2100.467739422177
 30
0.0
 10
2916.743091767451
 20
2100.468682230886
 30
0.0
 10
2916.743372720154
 20
2100.469632380301
 30
0.0
 10
2916.743723475112
 20
2100.471103341549
 30
0.0
 10
2916.744461126461
 20
2100.472989144995
 30
0.0
 10
2916.744548600858
 20
2100.474670706351
 30
0.0
 10
2916.744591551325
 20
2100.475496363332
 30
0.0
  0
SPLINE
  5
1297
330
1F
100
AcDbEntity
  8
SANINDUSA
100
AcDbSpline
210
0.0
220
0.0
230
1.0
 70
     8
 71
     3
 72
    10
 73
     6
 74
     0
 42
0.000000001
 43
0.0000000001
 40
0.0
 40
0.0
 40
0.0
 40
0.0
 40
0.0609911465383703
 40
0.5000000482567119
 40
1.0
 40
1.0
 40
1.0
 40
1.0
 10
2916.744591730139
 20
2100.475496363332
 30
0.0
 10
2916.744597230718
 20
2100.478535434981
 30
0.0
 10
2916.744642323987
 20
2100.503449476734
 30
0.0
 10
2916.744633541871
 20
2100.553277679519
 30
0.0
 10
2916.744596670647
 20
2100.600066739099
 30
0.0
 10
2916.744577037594
 20
2100.624980804016
 30
0.0
  0
SPLINE
  5
1298
330
1F
100
AcDbEntity
  8
SANINDUSA
100
AcDbSpline
210
0.0
220
0.0
230
1.0
 70
     8
 71
     3
 72
    41
 73
    37
 74
     0
 42
0.000000001
 43
0.0000000001
 40
0.0
 40
0.0
 40
0.0
 40
0.0
 40
0.0442022125901501
 40
0.0882551124871475
 40
0.1328340009300389
 40
0.1785907957636992
 40
0.2215878110931047
 40
0.2638923500701073
 40
0.2919732276233727
 40
0.3201313165344545
 40
0.3485209343932039
 40
0.3791171646546505
 40
0.4094549033844964
 40
0.4397208719504621
 40
0.4701035016991024
 40
0.5007887504067745
 40
0.5718015739101682
 40
0.5816208900976188
 40
0.5915697538713047
 40
0.601651314737035
 40
0.6118685994886372
 40
0.6222245176604848
 40
0.632721527117119
 40
0.6390422354186124
 40
0.6703369670575443
 40
0.708711748876795
 40
0.7344242240531762
 40
0.7582831844757321
 40
0.7817644997162223
 40
0.8066360850757481
 40
0.8312912112402973
 40
0.8587480589848926
 40
0.8955933314668364
 40
0.9383387288729771
 40
0.9734591061847551
 40
1.0
 40
1.0
 40
1.0
 40
1.0
 10
2916.744577037594
 20
2100.624980804016
 30
0.0
 10
2916.744524604009
 20
2100.626305546105
 30
0.0
 10
2916.744419913957
 20
2100.628950555377
 30
0.0
 10
2916.743639366191
 20
2100.632868087611
 30
0.0
 10
2916.742401048195
 20
2100.636706615871
 30
0.0
 10
2916.740720687566
 20
2100.640340445501
 30
0.0
 10
2916.738702358571
 20
2100.643715658717
 30
0.0
 10
2916.736645099759
 20
2100.646427621929
 30
0.0
 10
2916.73464807366
 20
2100.648604774228
 30
0.0
 10
2916.732798532534
 20
2100.650341988805
 30
0.0
 10
2916.73076737438
 20
2100.651985219137
 30
0.0
 10
2916.728566693505
 20
2100.653511859677
 30
0.0
 10
2916.726205088543
 20
2100.654890802993
 30
0.0
 10
2916.723747719064
 20
2100.656076148986
 30
0.0
 10
2916.721194681766
 20
2100.65706771408
 30
0.0
 10
2916.717403656863
 20
2100.658211019798
 30
0.0
 10
2916.714092016868
 20
2100.658768878453
 30
0.0
 10
2916.711384030349
 20
2100.65901394649
 30
0.0
 10
2916.710492127326
 20
2100.659078517407
 30
0.0
 10
2916.709587377543
 20
2100.659127982674
 30
0.0
 10
2916.708669712979
 20
2100.659162743914
 30
0.0
 10
2916.707739179159
 20
2100.659181314893
 30
0.0
 10
2916.706925129428
 20
2100.659188284147
 30
0.0
 10
2916.705484118503
 20
2100.659161831373
 30
0.0
 10
2916.70320850508
 20
2100.659100446624
 30
0.0
 10
2916.700353476549
 20
2100.659009518317
 30
0.0
 10
2916.697715558409
 20
2100.659037473196
 30
0.0
 10
2916.695541145275
 20
2100.659297278293
 30
0.0
 10
2916.693387588686
 20
2100.659507494089
 30
0.0
 10
2916.691199537927
 20
2100.659556853189
 30
0.0
 10
2916.688893233168
 20
2100.659514925069
 30
0.0
 10
2916.6862345873
 20
2100.659321753235
 30
0.0
 10
2916.683043920905
 20
2100.659000011441
 30
0.0
 10
2916.679632333048
 20
2100.658593211035
 30
0.0
 10
2916.676517449075
 20
2100.658291953
 30
0.0
 10
2916.674670716144
 20
2100.658239222236
 30
0.0
 10
2916.673875825903
 20
2100.658216525306
 30
0.0
  0
CIRCLE
  5
12A7
330
1F
100
AcDbEntity
  8
SANINDUSA
100
AcDbCircle
 10
2916.441207515499
 20
2100.694439377428
 30
0.0
 40
0.0174999999999997
  0
LINE
  5
12A8
330
1F
100
AcDbEntity
  8
SANINDUSA
100
AcDbLine
 10
2916.172211425802
 20
2100.72761491171
 30
0.0
 11
2916.174680876038
 21
2100.727641474892
 31
0.0
  0
LINE
  5
12A9
330
1F
100
AcDbEntity
  8
SANINDUSA
100
AcDbLine
 10
2916.174680876038
 20
2100.727641474892
 30
0.0
 11
2916.174680876038
 21
2100.730084363808
 31
0.0
  0
ARC
  5
12AA
330
1F
100
AcDbEntity
  8
SANINDUSA
100
AcDbCircle
 10
2916.17401709643
 20
2100.730084364006
 30
0.0
 40
0.000663766081818
100
AcDbArc
 50
0.0
 51
90.0
  0
LINE
  5
12AB
330
1F
100
AcDbEntity
  8
SANINDUSA
100
AcDbLine
 10
2916.174017088911
 20
2100.730748130445
 30
0.0
 11
2916.171786623499
 21
2100.730748130445
 31
0.0
  0
LINE
  5
12AC
330
1F
100
AcDbEntity
  8
SANINDUSA
100
AcDbLine
 10
2916.171786623499
 20
2100.730748130445
 30
0.0
 11
2916.171786623499
 21
2100.730416246195
 31
0.0
  0
LINE
  5
12AD
330
1F
100
AcDbEntity
  8
SANINDUSA
100
AcDbLine
 10
2916.171786623499
 20
2100.730416246195
 30
0.0
 11
2916.174017059109
 21
2100.730416246195
 31
0.0
  0
ARC
  5
12AE
330
1F
100
AcDbEntity
  8
SANINDUSA
100
AcDbCircle
 10
2916.174017068293
 20
2100.730084364006
 30
0.0
 40
0.0003318830390677
100
AcDbArc
 50
0.0
 51
90.0
  0
LINE
  5
12AF
330
1F
100
AcDbEntity
  8
SANINDUSA
100
AcDbLine
 10
2916.174348937771
 20
2100.730084363808
 30
0.0
 11
2916.174348937771
 21
2100.729526713927
 31
0.0
  0
LINE
  5
12B0
330
1F
100
AcDbEntity
  8
SANINDUSA
100
AcDbLine
 10
2916.174348937771
 20
2100.729526713927
 30
0.0
 11
2916.172211425802
 21
2100.729526713927
 31
0.0
  0
ARC
  5
12B1
330
1F
100
AcDbEntity
  8
SANINDUSA
100
AcDbCircle
 10
2916.17221143771
 20
2100.728862947744
 30
0.0
 40
0.0006637660836586
100
AcDbArc
 50
90.0
 51
180.0
  0
LINE
  5
12B2
330
1F
100
AcDbEntity
  8
SANINDUSA
100
AcDbLine
 10
2916.171547668478
 20
2100.72886294729
 30
0.0
 11
2916.171547668478
 21
2100.728278676484
 31
0.0
  0
ARC
  5
12B3
330
1F
100
AcDbEntity
  8
SANINDUSA
100
AcDbCircle
 10
2916.172211437708
 20
2100.728278677132
 30
0.0
 40
0.0006637660818174
100
AcDbArc
 50
180.0
 51
270.0
  0
LINE
  5
12B4
330
1F
100
AcDbEntity
  8
SANINDUSA
100
AcDbLine
 10
2916.170711236498
 20
2100.72886291935
 30
0.0
 11
2916.170711236498
 21
2100.728265451704
 31
0.0
  0
ARC
  5
12B5
330
1F
100
AcDbEntity
  8
SANINDUSA
100
AcDbCircle
 10
2916.170379355516
 20
2100.728265451337
 30
0.0
 40
0.0003318830390675
100
AcDbArc
 50
270.0
 51
0.0
  0
LINE
  5
12B6
330
1F
100
AcDbEntity
  8
SANINDUSA
100
AcDbLine
 10
2916.170379357835
 20
2100.727933567454
 30
0.0
 11
2916.167896645567
 21
2100.727933567454
 31
0.0
  0
LINE
  5
12B7
330
1F
100
AcDbEntity
  8
SANINDUSA
100
AcDbLine
 10
2916.167896645567
 20
2100.727933567454
 30
0.0
 11
2916.167896645567
 21
2100.72761491171
 31
0.0
  0
LINE
  5
12B8
330
1F
100
AcDbEntity
  8
SANINDUSA
100
AcDbLine
 10
2916.167896645567
 20
2100.72761491171
 30
0.0
 11
2916.170360522768
 21
2100.72761491171
 31
0.0
  0
ARC
  5
12B9
330
1F
100
AcDbEntity
  8
SANINDUSA
100
AcDbCircle
 10
2916.170360514199
 20
2100.728278677131
 30
0.0
 40
0.0006637660804461
100
AcDbArc
 50
270.0
 51
359.4643073873035
  0
LINE
  5
12BA
330
1F
100
AcDbEntity
  8
SANINDUSA
100
AcDbLine
 10
2916.17102425029
 20
2100.728272472013
 30
0.0
 11
2916.171029704115
 21
2100.728856740956
 31
0.0
  0
ARC
  5
12BB
330
1F
100
AcDbEntity
  8
SANINDUSA
100
AcDbCircle
 10
2916.170365977052
 20
2100.728862947738
 30
0.0
 40
0.0006637660822873
100
AcDbArc
 50
359.4643076741407
 51
90.0
  0
LINE
  5
12BC
330
1F
100
AcDbEntity
  8
SANINDUSA
100
AcDbLine
 10
2916.170365976593
 20
2100.729526713927
 30
0.0
 11
2916.168560432693
 21
2100.729526713927
 31
0.0
  0
ARC
  5
12BD
330
1F
100
AcDbEntity
  8
SANINDUSA
100
AcDbCircle
 10
2916.168560442852
 20
2100.72985859686
 30
0.0
 40
0.0003318830390673
100
AcDbArc
 50
180.0
 51
270.0
  0
LINE
  5
12BE
330
1F
100
AcDbEntity
  8
SANINDUSA
100
AcDbLine
 10
2916.168228554031
 20
2100.729858596315
 30
0.0
 11
2916.168228554031
 21
2100.730084363808
 31
0.0
  0
ARC
  5
12BF
330
1F
100
AcDbEntity
  8
SANINDUSA
100
AcDbCircle
 10
2916.168560442852
 20
2100.730084364002
 30
0.0
 40
0.0003318830390674
100
AcDbArc
 50
90.0
 51
180.0
  0
LINE
  5
12C0
330
1F
100
AcDbEntity
  8
SANINDUSA
100
AcDbLine
 10
2916.168560432693
 20
2100.730416246195
 30
0.0
 11
2916.170790927908
 21
2100.730416246195
 31
0.0
  0
LINE
  5
12C1
330
1F
100
AcDbEntity
  8
SANINDUSA
100
AcDbLine
 10
2916.170790927908
 20
2100.730416246195
 30
0.0
 11
2916.170790927908
 21
2100.730748130445
 31
0.0
  0
LINE
  5
12C2
330
1F
100
AcDbEntity
  8
SANINDUSA
100
AcDbLine
 10
2916.170790927908
 20
2100.730748130445
 30
0.0
 11
2916.168560402891
 21
2100.730748130445
 31
0.0
  0
ARC
  5
12C3
330
1F
100
AcDbEntity
  8
SANINDUSA
100
AcDbCircle
 10
2916.168560414709
 20
2100.730084364008
 30
0.0
 40
0.0006637660799763
100
AcDbArc
 50
90.0
 51
180.0
  0
LINE
  5
12C4
330
1F
100
AcDbEntity
  8
SANINDUSA
100
AcDbLine
 10
2916.167896645567
 20
2100.730084363808
 30
0.0
 11
2916.167896645567
 21
2100.729858568375
 31
0.0
  0
ARC
  5
12C5
330
1F
100
AcDbEntity
  8
SANINDUSA
100
AcDbCircle
 10
2916.168560414709
 20
2100.729858568729
 30
0.0
 40
0.0006637660799765
100
AcDbArc
 50
180.0
 51
270.0
  0
LINE
  5
12C6
330
1F
100
AcDbEntity
  8
SANINDUSA
100
AcDbLine
 10
2916.168560402891
 20
2100.729194801738
 30
0.0
 11
2916.170379357835
 21
2100.729194801738
 31
0.0
  0
ARC
  5
12C7
330
1F
100
AcDbEntity
  8
SANINDUSA
100
AcDbCircle
 10
2916.170379355512
 20
2100.728862919606
 30
0.0
 40
0.0003318830427499
100
AcDbArc
 50
0.0
 51
90.0
  0
LINE
  5
12C8
330
1F
100
AcDbEntity
  8
SANINDUSA
100
AcDbLine
 10
2916.160614805719
 20
2100.730086850439
 30
0.0
 11
2916.160608040592
 21
2100.728281164979
 31
0.0
  0
ARC
  5
12C9
330
1F
100
AcDbEntity
  8
SANINDUSA
100
AcDbCircle
 10
2916.161271789459
 20
2100.728278677132
 30
0.0
 40
0.0006637660809324
100
AcDbArc
 50
179.7852992919329
 51
270.0
  0
LINE
  5
12CA
330
1F
100
AcDbEntity
  8
SANINDUSA
100
AcDbLine
 10
2916.161271797916
 20
2100.72761491171
 30
0.0
 11
2916.163741188547
 21
2100.72761491171
 31
0.0
  0
LINE
  5
12CB
330
1F
100
AcDbEntity
  8
SANINDUSA
100
AcDbLine
 10
2916.163741188547
 20
2100.72761491171
 30
0.0
 11
2916.163741188547
 21
2100.731557999243
 31
0.0
  0
LINE
  5
12CC
330
1F
100
AcDbEntity
  8
SANINDUSA
100
AcDbLine
 10
2916.163741188547
 20
2100.731557999243
 30
0.0
 11
2916.163422571918
 21
2100.731557999243
 31
0.0
  0
LINE
  5
12CD
330
1F
100
AcDbEntity
  8
SANINDUSA
100
AcDbLine
 10
2916.163422571918
 20
2100.731557999243
 30
0.0
 11
2916.163422571918
 21
2100.730748130445
 31
0.0
  0
LINE
  5
12CE
330
1F
100
AcDbEntity
  8
SANINDUSA
100
AcDbLine
 10
2916.163422571918
 20
2100.730748130445
 30
0.0
 11
2916.161278563043
 21
2100.730748130445
 31
0.0
  0
ARC
  5
12CF
330
1F
100
AcDbEntity
  8
SANINDUSA
100
AcDbCircle
 10
2916.161278555828
 20
2100.730084364003
 30
0.0
 40
0.0006637660790983
100
AcDbArc
 50
90.0
 51
179.7852990574387
  0
LINE
  5
12D0
330
1F
100
AcDbEntity
  8
SANINDUSA
100
AcDbLine
 10
2916.16672955682
 20
2100.727940047596
 30
0.0
 11
2916.16491066148
 21
2100.727933573042
 31
0.0
  0
ARC
  5
12D1
330
1F
100
AcDbEntity
  8
SANINDUSA
100
AcDbCircle
 10
2916.164909476149
 20
2100.728265453341
 30
0.0
 40
0.000331883043097
100
AcDbArc
 50
180.0
 51
270.2039875593849
  0
LINE
  5
12D2
330
1F
100
AcDbEntity
  8
SANINDUSA
100
AcDbLine
 10
2916.164577590725
 20
2100.728265453566
 30
0.0
 11
2916.164577590725
 21
2100.730748130445
 31
0.0
  0
LINE
  5
12D3
330
1F
100
AcDbEntity
  8
SANINDUSA
100
AcDbLine
 10
2916.164577590725
 20
2100.730748130445
 30
0.0
 11
2916.164258974096
 21
2100.730748130445
 31
0.0
  0
LINE
  5
12D4
330
1F
100
AcDbEntity
  8
SANINDUSA
100
AcDbLine
 10
2916.164258974096
 20
2100.730748130445
 30
0.0
 11
2916.164258974096
 21
2100.728278676484
 31
0.0
  0
ARC
  5
12D5
330
1F
100
AcDbEntity
  8
SANINDUSA
100
AcDbCircle
 10
2916.164922730083
 20
2100.728278677132
 30
0.0
 40
0.0006637660799765
100
AcDbArc
 50
180.0
 51
270.0
  0
LINE
  5
12D6
330
1F
100
AcDbEntity
  8
SANINDUSA
100
AcDbLine
 10
2916.16492273142
 20
2100.72761491171
 30
0.0
 11
2916.166728424331
 21
2100.72761491171
 31
0.0
  0
ARC
  5
12D7
330
1F
100
AcDbEntity
  8
SANINDUSA
100
AcDbCircle
 10
2916.166728416954
 20
2100.728278677134
 30
0.0
 40
0.0006637660818173
100
AcDbArc
 50
270.0
 51
0.0
  0
LINE
  5
12D8
330
1F
100
AcDbEntity
  8
SANINDUSA
100
AcDbLine
 10
2916.167392181656
 20
2100.728278676484
 30
0.0
 11
2916.167392181656
 21
2100.730748130445
 31
0.0
  0
LINE
  5
12D9
330
1F
100
AcDbEntity
  8
SANINDUSA
100
AcDbLine
 10
2916.167392181656
 20
2100.730748130445
 30
0.0
 11
2916.167060273191
 21
2100.730748130445
 31
0.0
  0
LINE
  5
12DA
330
1F
100
AcDbEntity
  8
SANINDUSA
100
AcDbLine
 10
2916.167060273191
 20
2100.730748130445
 30
0.0
 11
2916.167060273191
 21
2100.728271929984
 31
0.0
  0
ARC
  5
12DB
330
1F
100
AcDbEntity
  8
SANINDUSA
100
AcDbCircle
 10
2916.166728388814
 20
2100.72827192917
 30
0.0
 40
0.000331883039421
100
AcDbArc
 50
270.203987976264
 51
0.0
  0
LINE
  5
12DC
330
1F
100
AcDbEntity
  8
SANINDUSA
100
AcDbLine
 10
2916.159452991983
 20
2100.730748130445
 30
0.0
 11
2916.156983541748
 21
2100.730748130445
 31
0.0
  0
LINE
  5
12DD
330
1F
100
AcDbEntity
  8
SANINDUSA
100
AcDbLine
 10
2916.156983541748
 20
2100.730748130445
 30
0.0
 11
2916.156983541748
 21
2100.72761491171
 31
0.0
  0
LINE
  5
12DE
330
1F
100
AcDbEntity
  8
SANINDUSA
100
AcDbLine
 10
2916.156983541748
 20
2100.72761491171
 30
0.0
 11
2916.157302188178
 21
2100.72761491171
 31
0.0
  0
LINE
  5
12DF
330
1F
100
AcDbEntity
  8
SANINDUSA
100
AcDbLine
 10
2916.157302188178
 20
2100.72761491171
 30
0.0
 11
2916.157302188178
 21
2100.730416246195
 31
0.0
  0
LINE
  5
12E0
330
1F
100
AcDbEntity
  8
SANINDUSA
100
AcDbLine
 10
2916.157302188178
 20
2100.730416246195
 30
0.0
 11
2916.159452962181
 21
2100.730416246195
 31
0.0
  0
ARC
  5
12E1
330
1F
100
AcDbEntity
  8
SANINDUSA
100
AcDbCircle
 10
2916.159452963272
 20
2100.730084364001
 30
0.0
 40
0.0003318830372264
100
AcDbArc
 50
0.0
 51
90.0
  0
LINE
  5
12E2
330
1F
100
AcDbEntity
  8
SANINDUSA
100
AcDbLine
 10
2916.159784840843
 20
2100.730084363808
 30
0.0
 11
2916.159784840843
 21
2100.72761491171
 31
0.0
  0
LINE
  5
12E3
330
1F
100
AcDbEntity
  8
SANINDUSA
100
AcDbLine
 10
2916.159784840843
 20
2100.72761491171
 30
0.0
 11
2916.160116749308
 21
2100.72761491171
 31
0.0
  0
LINE
  5
12E4
330
1F
100
AcDbEntity
  8
SANINDUSA
100
AcDbLine
 10
2916.160116749308
 20
2100.72761491171
 30
0.0
 11
2916.160116749308
 21
2100.730084363808
 31
0.0
  0
ARC
  5
12E5
330
1F
100
AcDbEntity
  8
SANINDUSA
100
AcDbCircle
 10
2916.159452991413
 20
2100.730084364003
 30
0.0
 40
0.0006637660781354
100
AcDbArc
 50
0.0
 51
90.0
  0
LINE
  5
12E6
330
1F
100
AcDbEntity
  8
SANINDUSA
100
AcDbLine
 10
2916.155310737392
 20
2100.730084363808
 30
0.0
 11
2916.155310737392
 21
2100.72761491171
 31
0.0
  0
LINE
  5
12E7
330
1F
100
AcDbEntity
  8
SANINDUSA
100
AcDbLine
 10
2916.155310737392
 20
2100.72761491171
 30
0.0
 11
2916.155629354021
 21
2100.72761491171
 31
0.0
  0
LINE
  5
12E8
330
1F
100
AcDbEntity
  8
SANINDUSA
100
AcDbLine
 10
2916.155629354021
 20
2100.72761491171
 30
0.0
 11
2916.155629354021
 21
2100.730084363808
 31
0.0
  0
ARC
  5
12E9
330
1F
100
AcDbEntity
  8
SANINDUSA
100
AcDbCircle
 10
2916.154965591648
 20
2100.730084364001
 30
0.0
 40
0.0006637660799763
100
AcDbArc
 50
0.0
 51
90.0
  0
LINE
  5
12EA
330
1F
100
AcDbEntity
  8
SANINDUSA
100
AcDbLine
 10
2916.154965596696
 20
2100.730748130445
 30
0.0
 11
2916.152496206066
 21
2100.730748130445
 31
0.0
  0
LINE
  5
12EB
330
1F
100
AcDbEntity
  8
SANINDUSA
100
AcDbLine
 10
2916.152496206066
 20
2100.730748130445
 30
0.0
 11
2916.152496206066
 21
2100.72761491171
 31
0.0
  0
LINE
  5
12EC
330
1F
100
AcDbEntity
  8
SANINDUSA
100
AcDbLine
 10
2916.152496206066
 20
2100.72761491171
 30
0.0
 11
2916.15282811453
 21
2100.72761491171
 31
0.0
  0
LINE
  5
12ED
330
1F
100
AcDbEntity
  8
SANINDUSA
100
AcDbLine
 10
2916.15282811453
 20
2100.72761491171
 30
0.0
 11
2916.15282811453
 21
2100.730416246195
 31
0.0
  0
LINE
  5
12EE
330
1F
100
AcDbEntity
  8
SANINDUSA
100
AcDbLine
 10
2916.15282811453
 20
2100.730416246195
 30
0.0
 11
2916.15497885873
 21
2100.730416246195
 31
0.0
  0
ARC
  5
12EF
330
1F
100
AcDbEntity
  8
SANINDUSA
100
AcDbCircle
 10
2916.154978845583
 20
2100.730084364001
 30
0.0
 40
0.0003318830372261
100
AcDbArc
 50
0.0
 51
90.0
  0
LINE
  5
12F0
330
1F
100
AcDbEntity
  8
SANINDUSA
100
AcDbLine
 10
2916.151327955028
 20
2100.730748130445
 30
0.0
 11
2916.149097459814
 21
2100.730748130445
 31
0.0
  0
LINE
  5
12F1
330
1F
100
AcDbEntity
  8
SANINDUSA
100
AcDbLine
 10
2916.149097459814
 20
2100.730748130445
 30
0.0
 11
2916.149097459814
 21
2100.730416246195
 31
0.0
  0
LINE
  5
12F2
330
1F
100
AcDbEntity
  8
SANINDUSA
100
AcDbLine
 10
2916.149097459814
 20
2100.730416246195
 30
0.0
 11
2916.151327925226
 21
2100.730416246195
 31
0.0
  0
ARC
  5
12F3
330
1F
100
AcDbEntity
  8
SANINDUSA
100
AcDbCircle
 10
2916.151327935159
 20
2100.730084364001
 30
0.0
 40
0.0003318830390677
100
AcDbArc
 50
0.0
 51
90.0
  0
LINE
  5
12F4
330
1F
100
AcDbEntity
  8
SANINDUSA
100
AcDbLine
 10
2916.151659803888
 20
2100.730084363808
 30
0.0
 11
2916.151659803888
 21
2100.729526713927
 31
0.0
  0
LINE
  5
12F5
330
1F
100
AcDbEntity
  8
SANINDUSA
100
AcDbLine
 10
2916.151659803888
 20
2100.729526713927
 30
0.0
 11
2916.149522262117
 21
2100.729526713927
 31
0.0
  0
ARC
  5
12F6
330
1F
100
AcDbEntity
  8
SANINDUSA
100
AcDbCircle
 10
2916.149522248288
 20
2100.72886294774
 30
0.0
 40
0.0006637660836586
100
AcDbArc
 50
90.0
 51
180.0
  0
LINE
  5
12F7
330
1F
100
AcDbEntity
  8
SANINDUSA
100
AcDbLine
 10
2916.14885847499
 20
2100.72886294729
 30
0.0
 11
2916.14885847499
 21
2100.728278676484
 31
0.0
  0
ARC
  5
12F8
330
1F
100
AcDbEntity
  8
SANINDUSA
100
AcDbCircle
 10
2916.149522248286
 20
2100.728278677132
 30
0.0
 40
0.0006637660818174
100
AcDbArc
 50
180.0
 51
270.0
  0
LINE
  5
12F9
330
1F
100
AcDbEntity
  8
SANINDUSA
100
AcDbLine
 10
2916.149522262117
 20
2100.72761491171
 30
0.0
 11
2916.151991742155
 21
2100.72761491171
 31
0.0
  0
LINE
  5
12FA
330
1F
100
AcDbEntity
  8
SANINDUSA
100
AcDbLine
 10
2916.151991742155
 20
2100.72761491171
 30
0.0
 11
2916.151991742155
 21
2100.730084363808
 31
0.0
  0
ARC
  5
12FB
330
1F
100
AcDbEntity
  8
SANINDUSA
100
AcDbCircle
 10
2916.151327963304
 20
2100.730084364005
 30
0.0
 40
0.0006637660781351
100
AcDbArc
 50
0.0
 51
90.0
  0
LINE
  5
12FC
330
1F
100
AcDbEntity
  8
SANINDUSA
100
AcDbLine
 10
2916.145871298811
 20
2100.730449727242
 30
0.0
 11
2916.148101734421
 21
2100.730449727242
 31
0.0
  0
LINE
  5
12FD
330
1F
100
AcDbEntity
  8
SANINDUSA
100
AcDbLine
 10
2916.148101734421
 20
2100.730449727242
 30
0.0
 11
2916.148101734421
 21
2100.730748130445
 31
0.0
  0
LINE
  5
12FE
330
1F
100
AcDbEntity
  8
SANINDUSA
100
AcDbLine
 10
2916.148101734421
 20
2100.730748130445
 30
0.0
 11
2916.145871269009
 21
2100.730748130445
 31
0.0
  0
ARC
  5
12FF
330
1F
100
AcDbEntity
  8
SANINDUSA
100
AcDbCircle
 10
2916.145871281577
 20
2100.730084364006
 30
0.0
 40
0.0006637660781354
100
AcDbArc
 50
90.0
 51
180.0
  0
LINE
  5
1300
330
1F
100
AcDbEntity
  8
SANINDUSA
100
AcDbLine
 10
2916.145207511684
 20
2100.730084363808
 30
0.0
 11
2916.145207511684
 21
2100.729858568375
 31
0.0
  0
ARC
  5
1301
330
1F
100
AcDbEntity
  8
SANINDUSA
100
AcDbCircle
 10
2916.145871281577
 20
2100.729858568727
 30
0.0
 40
0.0006637660781354
100
AcDbArc
 50
180.0
 51
270.0
  0
LINE
  5
1302
330
1F
100
AcDbEntity
  8
SANINDUSA
100
AcDbLine
 10
2916.145871269009
 20
2100.729194801738
 30
0.0
 11
2916.147690223953
 21
2100.729194801738
 31
0.0
  0
ARC
  5
1303
330
1F
100
AcDbEntity
  8
SANINDUSA
100
AcDbCircle
 10
2916.147690222384
 20
2100.728862919606
 30
0.0
 40
0.00033188304275
100
AcDbArc
 50
0.0
 51
90.0
  0
LINE
  5
1304
330
1F
100
AcDbEntity
  8
SANINDUSA
100
AcDbLine
 10
2916.148022102615
 20
2100.72886291935
 30
0.0
 11
2916.148022102615
 21
2100.728265451704
 31
0.0
  0
ARC
  5
1305
330
1F
100
AcDbEntity
  8
SANINDUSA
100
AcDbCircle
 10
2916.147690222388
 20
2100.728265451337
 30
0.0
 40
0.0003318830390675
100
AcDbArc
 50
270.0
 51
0.0
  0
LINE
  5
1306
330
1F
100
AcDbEntity
  8
SANINDUSA
100
AcDbLine
 10
2916.147690223953
 20
2100.727933567454
 30
0.0
 11
2916.145207511684
 21
2100.727933567454
 31
0.0
  0
LINE
  5
1307
330
1F
100
AcDbEntity
  8
SANINDUSA
100
AcDbLine
 10
2916.145207511684
 20
2100.727933567454
 30
0.0
 11
2916.145207511684
 21
2100.727648392756
 31
0.0
  0
LINE
  5
1308
330
1F
100
AcDbEntity
  8
SANINDUSA
100
AcDbLine
 10
2916.145207511684
 20
2100.727648392756
 30
0.0
 11
2916.147676932117
 21
2100.727648392756
 31
0.0
  0
ARC
  5
1309
330
1F
100
AcDbEntity
  8
SANINDUSA
100
AcDbCircle
 10
2916.14767694031
 20
2100.728312157954
 30
0.0
 40
0.0006637660818177
100
AcDbArc
 50
270.0
 51
0.0
  0
LINE
  5
130A
330
1F
100
AcDbEntity
  8
SANINDUSA
100
AcDbLine
 10
2916.148340719244
 20
2100.728312157531
 30
0.0
 11
2916.148340719244
 21
2100.728896428336
 31
0.0
  0
ARC
  5
130B
330
1F
100
AcDbEntity
  8
SANINDUSA
100
AcDbCircle
 10
2916.147676940307
 20
2100.728896428565
 30
0.0
 40
0.0006637660855002
100
AcDbArc
 50
0.0
 51
90.0
  0
LINE
  5
130C
330
1F
100
AcDbEntity
  8
SANINDUSA
100
AcDbLine
 10
2916.147676932117
 20
2100.729560194974
 30
0.0
 11
2916.145871298811
 21
2100.729560194974
 31
0.0
  0
ARC
  5
130D
330
1F
100
AcDbEntity
  8
SANINDUSA
100
AcDbCircle
 10
2916.145871309715
 20
2100.729892077686
 30
0.0
 40
0.0003318830353848
100
AcDbArc
 50
180.0
 51
270.0
  0
LINE
  5
130E
330
1F
100
AcDbEntity
  8
SANINDUSA
100
AcDbLine
 10
2916.145539420149
 20
2100.729892077361
 30
0.0
 11
2916.145539420149
 21
2100.730117844854
 31
0.0
  0
ARC
  5
130F
330
1F
100
AcDbEntity
  8
SANINDUSA
100
AcDbCircle
 10
2916.145871309715
 20
2100.730117844828
 30
0.0
 40
0.0003318830353854
100
AcDbArc
 50
90.0
 51
180.0
  0
LINE
  5
1310
330
1F
100
AcDbEntity
  8
SANINDUSA
100
AcDbLine
 10
2916.15614713957
 20
2100.730748130445
 30
0.0
 11
2916.15614713957
 21
2100.72761491171
 31
0.0
  0
LINE
  5
1311
330
1F
100
AcDbEntity
  8
SANINDUSA
100
AcDbLine
 10
2916.15614713957
 20
2100.72761491171
 30
0.0
 11
2916.156465786001
 21
2100.72761491171
 31
0.0
  0
LINE
  5
1312
330
1F
100
AcDbEntity
  8
SANINDUSA
100
AcDbLine
 10
2916.156465786001
 20
2100.72761491171
 30
0.0
 11
2916.156465786001
 21
2100.730748130445
 31
0.0
  0
LINE
  5
1313
330
1F
100
AcDbEntity
  8
SANINDUSA
100
AcDbLine
 10
2916.156465786001
 20
2100.730748130445
 30
0.0
 11
2916.15614713957
 21
2100.730748130445
 31
0.0
  0
LINE
  5
1314
330
1F
100
AcDbEntity
  8
SANINDUSA
100
AcDbLine
 10
2916.156465786001
 20
2100.731557999243
 30
0.0
 11
2916.15614713957
 21
2100.731557999243
 31
0.0
  0
LINE
  5
1315
330
1F
100
AcDbEntity
  8
SANINDUSA
100
AcDbLine
 10
2916.15614713957
 20
2100.731557999243
 30
0.0
 11
2916.15614713957
 21
2100.731066760113
 31
0.0
  0
LINE
  5
1316
330
1F
100
AcDbEntity
  8
SANINDUSA
100
AcDbLine
 10
2916.15614713957
 20
2100.731066760113
 30
0.0
 11
2916.156465786001
 21
2100.731066760113
 31
0.0
  0
LINE
  5
1317
330
1F
100
AcDbEntity
  8
SANINDUSA
100
AcDbLine
 10
2916.156465786001
 20
2100.731066760113
 30
0.0
 11
2916.156465786001
 21
2100.731557999243
 31
0.0
  0
LINE
  5
1319
330
1F
100
AcDbEntity
  8
SANINDUSA
100
AcDbLine
 10
2916.218834313056
 20
2100.433637422015
 30
0.0
 11
2916.441207515499
 21
2100.433637422015
 31
0.0
  0
LINE
  5
131A
330
1F
100
AcDbEntity
  8
SANINDUSA
100
AcDbLine
 10
2916.663580717942
 20
2100.433637422015
 30
0.0
 11
2916.441207515499
 21
2100.433637422015
 31
0.0
  0
SPLINE
  5
1321
330
1F
100
AcDbEntity
  8
SANINDUSA
100
AcDbSpline
210
0.0
220
0.0
230
1.0
 70
     8
 71
     3
 72
    10
 73
     6
 74
     0
 42
0.000000001
 43
0.0000000001
 40
0.0
 40
0.0
 40
0.0
 40
0.0
 40
0.3325688367645347
 40
0.6668799459544914
 40
1.0
 40
1.0
 40
1.0
 40
1.0
 10
2916.186754184267
 20
2100.624756019999
 30
0.0
 10
2916.186762247996
 20
2100.608226104204
 30
0.0
 10
2916.186778417698
 20
2100.575079675155
 30
0.0
 10
2916.186775580669
 20
2100.525375808129
 30
0.0
 10
2916.186762779034
 20
2100.492201955985
 30
0.0
 10
2916.186756389639
 20
2100.475644629885
 30
0.0
  0
SPLINE
  5
1328
330
1F
100
AcDbEntity
  8
SANINDUSA
100
AcDbSpline
210
0.0
220
0.0
230
1.0
 70
     8
 71
     3
 72
    10
 73
     6
 74
     0
 42
0.000000001
 43
0.0000000001
 40
0.0
 40
0.0
 40
0.0
 40
0.0
 40
0.3325688367645347
 40
0.6668799459544914
 40
1.0
 40
1.0
 40
1.0
 40
1.0
 10
2916.695660846731
 20
2100.624756019999
 30
0.0
 10
2916.695652783002
 20
2100.608226104204
 30
0.0
 10
2916.695636613299
 20
2100.575079675155
 30
0.0
 10
2916.695639450328
 20
2100.525375808129
 30
0.0
 10
2916.695652251964
 20
2100.492201955985
 30
0.0
 10
2916.695658641359
 20
2100.475644629885
 30
0.0
  0
LINE
  5
132D
330
1F
100
AcDbEntity
  8
SANINDUSA
100
AcDbLine
 10
2916.145207511684
 20
2100.750739377429
 30
0.0
 11
2916.255428465506
 21
2100.750739377429
 31
0.0
  0
LINE
  5
132F
330
1F
100
AcDbEntity
  8
SANINDUSA
100
AcDbLine
 10
2916.737207519314
 20
2100.750739377429
 30
0.0
 11
2916.626986565491
 21
2100.750739377429
 31
0.0
  0
LINE
  5
1332
330
1F
100
AcDbEntity
  8
SANINDUSA
100
AcDbLine
 10
2916.125207500956
 20
2100.410739373852
 30
0.0
 11
2916.125207500956
 21
2100.730739377876
 31
0.0
  0
LINE
  5
1336
330
1F
100
AcDbEntity
  8
SANINDUSA
100
AcDbLine
 10
2916.757207530043
 20
2100.410739373852
 30
0.0
 11
2916.757207530043
 21
2100.730739377876
 31
0.0
  0
LINE
  5
1338
330
1F
100
AcDbEntity
  8
SANINDUSA
100
AcDbLine
 10
2916.441207515499
 20
2100.390739363124
 30
0.0
 11
2916.145207511684
 21
2100.390739363124
 31
0.0
  0
LINE
  5
133C
330
1F
100
AcDbEntity
  8
SANINDUSA
100
AcDbLine
 10
2916.441207515499
 20
2100.390739363124
 30
0.0
 11
2916.737207519314
 21
2100.390739363124
 31
0.0
  0
SPLINE
  5
133D
330
1F
100
AcDbEntity
  8
SANINDUSA
100
AcDbSpline
210
0.0
220
0.0
230
1.0
 70
     8
 71
     3
 72
    15
 73
    11
 74
     0
 42
0.000000001
 43
0.0000000001
 40
0.0
 40
0.0
 40
0.0
 40
0.0
 40
0.1250001121194081
 40
0.2499996126674111
 40
0.3750000274079653
 40
0.5
 40
0.6249999725920345
 40
0.7500003873325887
 40
0.8749998878805918
 40
1.0
 40
1.0
 40
1.0
 40
1.0
 10
2916.737207519314
 20
2100.390739363124
 30
0.0
 10
2916.738516511072
 20
2100.390813798131
 30
0.0
 10
2916.741134488185
 20
2100.390962667782
 30
0.0
 10
2916.744910465787
 20
2100.392151945007
 30
0.0
 10
2916.748390737931
 20
2100.39400028375
 30
0.0
 10
2916.751440130742
 20
2100.396506762425
 30
0.0
 10
2916.753946609416
 20
2100.399556155235
 30
0.0
 10
2916.755794948159
 20
2100.403036427379
 30
0.0
 10
2916.756984225383
 20
2100.406812404981
 30
0.0
 10
2916.757133095035
 20
2100.409430382093
 30
0.0
 10
2916.757207530043
 20
2100.410739373852
 30
0.0
  0
SPLINE
  5
133E
330
1F
100
AcDbEntity
  8
SANINDUSA
100
AcDbSpline
210
0.0
220
0.0
230
1.0
 70
     8
 71
     3
 72
    15
 73
    11
 74
     0
 42
0.000000001
 43
0.0000000001
 40
0.0
 40
0.0
 40
0.0
 40
0.0
 40
0.1250001121194081
 40
0.2499996126674111
 40
0.3750000274079653
 40
0.5
 40
0.6249999725920345
 40
0.7500003873325887
 40
0.8749998878805918
 40
1.0
 40
1.0
 40
1.0
 40
1.0
 10
2916.145207511684
 20
2100.390739363124
 30
0.0
 10
2916.143898519926
 20
2100.390813798131
 30
0.0
 10
2916.141280542812
 20
2100.390962667782
 30
0.0
 10
2916.137504565211
 20
2100.392151945007
 30
0.0
 10
2916.134024293067
 20
2100.39400028375
 30
0.0
 10
2916.130974900257
 20
2100.396506762425
 30
0.0
 10
2916.128468421583
 20
2100.399556155235
 30
0.0
 10
2916.126620082839
 20
2100.403036427379
 30
0.0
 10
2916.125430805614
 20
2100.406812404981
 30
0.0
 10
2916.125281935963
 20
2100.409430382093
 30
0.0
 10
2916.125207500956
 20
2100.410739373852
 30
0.0
  0
SPLINE
  5
133F
330
1F
100
AcDbEntity
  8
SANINDUSA
100
AcDbSpline
210
0.0
220
0.0
230
1.0
 70
     8
 71
     3
 72
    21
 73
    17
 74
     0
 42
0.000000001
 43
0.0000000001
 40
0.0
 40
0.0
 40
0.0
 40
0.0
 40
0.0571783160860201
 40
0.1178448876209076
 40
0.1820206738565577
 40
0.2497229885300106
 40
0.3087931113782496
 40
0.3748769631919293
 40
0.4270600946552115
 40
0.5001565543648843
 40
0.5732492946213699
 40
0.6254355061291013
 40
0.6915153845715763
 40
0.750590155890444
 40
0.8822859190752339
 40
1.0
 40
1.0
 40
1.0
 40
1.0
 10
2916.125207500956
 20
2100.730739377876
 30
0.0
 10
2916.125223177125
 20
2100.73133936477
 30
0.0
 10
2916.125255485813
 20
2100.732575941727
 30
0.0
 10
2916.125527902144
 20
2100.734469268407
 30
0.0
 10
2916.125997351566
 20
2100.736434095184
 30
0.0
 10
2916.12666526707
 20
2100.738322527453
 30
0.0
 10
2916.127523672661
 20
2100.740150613095
 30
0.0
 10
2916.128474072447
 20
2100.741745949662
 30
0.0
 10
2916.129652749732
 20
2100.743362680857
 30
0.0
 10
2916.131034375395
 20
2100.744912446765
 30
0.0
 10
2916.132584195207
 20
2100.74629418209
 30
0.0
 10
2916.134200845038
 20
2100.747472596037
 30
0.0
 10
2916.135796375949
 20
2100.748424006046
 30
0.0
 10
2916.138230238351
 20
2100.749562455328
 30
0.0
 10
2916.141351712789
 20
2100.750531690234
 30
0.0
 10
2916.143971193939
 20
2100.750672784909
 30
0.0
 10
2916.145207511684
 20
2100.750739377429
 30
0.0
  0
SPLINE
  5
1340
330
1F
100
AcDbEntity
  8
SANINDUSA
100
AcDbSpline
210
0.0
220
0.0
230
1.0
 70
     8
 71
     3
 72
    21
 73
    17
 74
     0
 42
0.000000001
 43
0.0000000001
 40
0.0
 40
0.0
 40
0.0
 40
0.0
 40
0.0571783160860201
 40
0.1178448876209076
 40
0.1820206738565577
 40
0.2497229885300106
 40
0.3087931113782496
 40
0.3748769631919293
 40
0.4270600946552115
 40
0.5001565543648843
 40
0.5732492946213699
 40
0.6254355061291013
 40
0.6915153845715763
 40
0.750590155890444
 40
0.8822859190752339
 40
1.0
 40
1.0
 40
1.0
 40
1.0
 10
2916.757207530043
 20
2100.730739377876
 30
0.0
 10
2916.757191853874
 20
2100.73133936477
 30
0.0
 10
2916.757159545185
 20
2100.732575941727
 30
0.0
 10
2916.756887128853
 20
2100.734469268407
 30
0.0
 10
2916.756417679432
 20
2100.736434095184
 30
0.0
 10
2916.755749763929
 20
2100.738322527453
 30
0.0
 10
2916.754891358337
 20
2100.740150613095
 30
0.0
 10
2916.753940958551
 20
2100.741745949662
 30
0.0
 10
2916.752762281266
 20
2100.743362680857
 30
0.0
 10
2916.751380655604
 20
2100.744912446765
 30
0.0
 10
2916.749830835792
 20
2100.74629418209
 30
0.0
 10
2916.74821418596
 20
2100.747472596037
 30
0.0
 10
2916.746618655049
 20
2100.748424006046
 30
0.0
 10
2916.744184792648
 20
2100.749562455328
 30
0.0
 10
2916.741063318209
 20
2100.750531690234
 30
0.0
 10
2916.738443837059
 20
2100.750672784909
 30
0.0
 10
2916.737207519314
 20
2100.750739377429
 30
0.0
  0
LINE
  5
1341
330
1F
100
AcDbEntity
  8
SANINDUSA
100
AcDbLine
 10
2916.626986565491
 20
2100.750739377429
 30
0.0
 11
2916.441207515499
 21
2100.750739377429
 31
0.0
  0
LINE
  5
1343
330
1F
100
AcDbEntity
  8
SANINDUSA
100
AcDbLine
 10
2916.255428465506
 20
2100.750739377429
 30
0.0
 11
2916.441207515499
 21
2100.750739377429
 31
0.0
  0
LINE
  5
1344
330
1F
100
AcDbEntity
  8
SANINDUSA
100
AcDbLine
 10
2916.163422571918
 20
2100.727933567454
 30
0.0
 11
2916.163422571918
 21
2100.730416246195
 31
0.0
  0
LINE
  5
1345
330
1F
100
AcDbEntity
  8
SANINDUSA
100
AcDbLine
 10
2916.161271768114
 20
2100.727933567454
 30
0.0
 11
2916.163422571918
 21
2100.727933567454
 31
0.0
  0
ARC
  5
1346
330
1F
100
AcDbEntity
  8
SANINDUSA
100
AcDbCircle
 10
2916.161271763373
 20
2100.728265451334
 30
0.0
 40
0.0003318830372262
100
AcDbArc
 50
180.0
 51
270.0
  0
LINE
  5
1347
330
1F
100
AcDbEntity
  8
SANINDUSA
100
AcDbLine
 10
2916.160939889452
 20
2100.730084363808
 30
0.0
 11
2916.160939889452
 21
2100.728265451704
 31
0.0
  0
ARC
  5
1348
330
1F
100
AcDbEntity
  8
SANINDUSA
100
AcDbCircle
 10
2916.161271763373
 20
2100.730084364003
 30
0.0
 40
0.0003318830372268
100
AcDbArc
 50
90.0
 51
180.0
  0
LINE
  5
1349
330
1F
100
AcDbEntity
  8
SANINDUSA
100
AcDbLine
 10
2916.163422571918
 20
2100.730416246195
 30
0.0
 11
2916.161271768114
 21
2100.730416246195
 31
0.0
  0
LINE
  5
134A
330
1F
100
AcDbEntity
  8
SANINDUSA
100
AcDbLine
 10
2916.172211425802
 20
2100.727933567454
 30
0.0
 11
2916.174348937771
 21
2100.727933567454
 31
0.0
  0
ARC
  5
134B
330
1F
100
AcDbEntity
  8
SANINDUSA
100
AcDbCircle
 10
2916.172211437697
 20
2100.728265451334
 30
0.0
 40
0.000331883039068
100
AcDbArc
 50
180.0
 51
270.0
  0
LINE
  5
134C
330
1F
100
AcDbEntity
  8
SANINDUSA
100
AcDbLine
 10
2916.17187954714
 20
2100.72886291935
 30
0.0
 11
2916.17187954714
 21
2100.728265451704
 31
0.0
  0
LINE
  5
134D
330
1F
100
AcDbEntity
  8
SANINDUSA
100
AcDbLine
 10
2916.174348937771
 20
2100.729194801738
 30
0.0
 11
2916.172211425802
 21
2100.729194801738
 31
0.0
  0
ARC
  5
134E
330
1F
100
AcDbEntity
  8
SANINDUSA
100
AcDbCircle
 10
2916.172211437701
 20
2100.728862919602
 30
0.0
 40
0.00033188304275
100
AcDbArc
 50
90.0
 51
180.0
  0
LINE
  5
134F
330
1F
100
AcDbEntity
  8
SANINDUSA
100
AcDbLine
 10
2916.174348937771
 20
2100.727933567454
 30
0.0
 11
2916.174348937771
 21
2100.729194801738
 31
0.0
  0
LINE
  5
1350
330
1F
100
AcDbEntity
  8
SANINDUSA
100
AcDbLine
 10
2916.149509029886
 20
2100.727933567454
 30
0.0
 11
2916.151659803888
 21
2100.727933567454
 31
0.0
  0
ARC
  5
1351
330
1F
100
AcDbEntity
  8
SANINDUSA
100
AcDbCircle
 10
2916.149509022488
 20
2100.728265451334
 30
0.0
 40
0.0003318830390674
100
AcDbArc
 50
180.0
 51
270.0
  0
LINE
  5
1352
330
1F
100
AcDbEntity
  8
SANINDUSA
100
AcDbLine
 10
2916.149177151224
 20
2100.72886291935
 30
0.0
 11
2916.149177151224
 21
2100.728265451704
 31
0.0
  0
LINE
  5
1353
330
1F
100
AcDbEntity
  8
SANINDUSA
100
AcDbLine
 10
2916.151659803888
 20
2100.729194801738
 30
0.0
 11
2916.149509029886
 21
2100.729194801738
 31
0.0
  0
ARC
  5
1354
330
1F
100
AcDbEntity
  8
SANINDUSA
100
AcDbCircle
 10
2916.149509022492
 20
2100.728862919602
 30
0.0
 40
0.0003318830427499
100
AcDbArc
 50
90.0
 51
180.0
  0
LINE
  5
1355
330
1F
100
AcDbEntity
  8
SANINDUSA
100
AcDbLine
 10
2916.151659803888
 20
2100.727933567454
 30
0.0
 11
2916.151659803888
 21
2100.729194801738
 31
0.0
  0
SPLINE
  5
1356
330
1F
100
AcDbEntity
  8
SANINDUSA
100
AcDbSpline
210
0.0
220
0.0
230
1.0
 70
     8
 71
     3
 72
    26
 73
    22
 74
     0
 42
0.000000001
 43
0.0000000001
 40
0.0
 40
0.0
 40
0.0
 40
0.0
 40
0.0459918385349071
 40
0.0919835368752222
 40
0.145720169715923
 40
0.1994565485688898
 40
0.2531327642433819
 40
0.3068091734208191
 40
0.3605100412210115
 40
0.4142106098165394
 40
0.4678845090460849
 40
0.5215585489255865
 40
0.575229525218981
 40
0.6289005646772994
 40
0.682569286829404
 40
0.7362378879325449
 40
0.78991216702461
 40
0.8435862911621898
 40
0.8972995153527893
 40
0.9510132209635376
 40
0.9999999999999998
 40
0.9999999999999998
 40
0.9999999999999998
 40
0.9999999999999998
 10
2916.441207515499
 20
2100.518582147052
 30
0.0
 10
2916.442852267822
 20
2100.518651869172
 30
0.0
 10
2916.446141767455
 20
2100.518791313202
 30
0.0
 10
2916.451246053272
 20
2100.519949493505
 30
0.0
 10
2916.456374194961
 20
2100.521952942564
 30
0.0
 10
2916.461336133545
 20
2100.524932256781
 30
0.0
 10
2916.465712872111
 20
2100.528712079827
 30
0.0
 10
2916.469407880667
 20
2100.533160029683
 30
0.0
 10
2916.472287059682
 20
2100.538175541128
 30
0.0
 10
2916.474301798418
 20
2100.54359645075
 30
0.0
 10
2916.47535709648
 20
2100.54928150856
 30
0.0
 10
2916.475463248106
 20
2100.555061637786
 30
0.0
 10
2916.47457749891
 20
2100.560774384457
 30
0.0
 10
2916.47276439924
 20
2100.566263519903
 30
0.0
 10
2916.470037936179
 20
2100.57136080702
 30
0.0
 10
2916.466510371146
 20
2100.575940855806
 30
0.0
 10
2916.462250355327
 20
2100.579847835579
 30
0.0
 10
2916.457404896414
 20
2100.583007470989
 30
0.0
 10
2916.452088887327
 20
2100.585273152492
 30
0.0
 10
2916.446633294603
 20
2100.586655642393
 30
0.0
 10
2916.442959748584
 20
2100.586818941801
 30
0.0
 10
2916.441207515499
 20
2100.586896833469
 30
0.0
  0
SPLINE
  5
1359
330
1F
100
AcDbEntity
  8
SANINDUSA
100
AcDbSpline
210
0.0
220
0.0
230
1.0
 70
     8
 71
     3
 72
    26
 73
    22
 74
     0
 42
0.000000001
 43
0.0000000001
 40
0.0
 40
0.0
 40
0.0
 40
0.0
 40
0.0459918385349071
 40
0.0919835368752222
 40
0.145720169715923
 40
0.1994565485688898
 40
0.2531327642433819
 40
0.3068091734208191
 40
0.3605100412210115
 40
0.4142106098165394
 40
0.4678845090460849
 40
0.5215585489255865
 40
0.575229525218981
 40
0.6289005646772994
 40
0.682569286829404
 40
0.7362378879325449
 40
0.78991216702461
 40
0.8435862911621898
 40
0.8972995153527893
 40
0.9510132209635376
 40
0.9999999999999998
 40
0.9999999999999998
 40
0.9999999999999998
 40
0.9999999999999998
 10
2916.441207515499
 20
2100.518582147052
 30
0.0
 10
2916.439562763176
 20
2100.518651869172
 30
0.0
 10
2916.436273263543
 20
2100.518791313202
 30
0.0
 10
2916.431168977726
 20
2100.519949493505
 30
0.0
 10
2916.426040836038
 20
2100.521952942564
 30
0.0
 10
2916.421078897453
 20
2100.524932256781
 30
0.0
 10
2916.416702158887
 20
2100.528712079827
 30
0.0
 10
2916.41300715033
 20
2100.533160029683
 30
0.0
 10
2916.410127971316
 20
2100.538175541128
 30
0.0
 10
2916.40811323258
 20
2100.54359645075
 30
0.0
 10
2916.407057934519
 20
2100.54928150856
 30
0.0
 10
2916.406951782892
 20
2100.555061637786
 30
0.0
 10
2916.407837532089
 20
2100.560774384457
 30
0.0
 10
2916.409650631758
 20
2100.566263519903
 30
0.0
 10
2916.412377094819
 20
2100.57136080702
 30
0.0
 10
2916.415904659853
 20
2100.575940855806
 30
0.0
 10
2916.420164675671
 20
2100.579847835579
 30
0.0
 10
2916.425010134584
 20
2100.583007470989
 30
0.0
 10
2916.430326143672
 20
2100.585273152492
 30
0.0
 10
2916.435781736395
 20
2100.586655642393
 30
0.0
 10
2916.439455282413
 20
2100.586818941801
 30
0.0
 10
2916.441207515499
 20
2100.586896833469
 30
0.0
  0
CIRCLE
  5
135B
330
1F
100
AcDbEntity
  8
SANINDUSA
100
AcDbCircle
 10
2916.441207515499
 20
2100.552739377429
 30
0.0
 40
0.0229999999999998
  0
LINE
  5
135C
330
1F
100
AcDbEntity
  8
SANINDUSA
100
AcDbLine
 10
2916.145207511684
 20
2100.750739377429
 30
0.0
 11
2916.141207503578
 21
2100.750739377429
 31
0.0
  0
LINE
  5
135D
330
1F
100
AcDbEntity
  8
SANINDUSA
100
AcDbLine
 10
2916.141207503578
 20
2100.750739377429
 30
0.0
 11
2916.141207503578
 21
2100.750303573528
 31
0.0
  0
LINE
  5
135E
330
1F
100
AcDbEntity
  8
SANINDUSA
100
AcDbLine
 10
2916.74120752742
 20
2100.750303573528
 30
0.0
 11
2916.74120752742
 21
2100.750739377429
 31
0.0
  0
LINE
  5
135F
330
1F
100
AcDbEntity
  8
SANINDUSA
100
AcDbLine
 10
2916.74120752742
 20
2100.750739377429
 30
0.0
 11
2916.737207519314
 21
2100.750739377429
 31
0.0
  0
ELLIPSE
  5
1364
330
1F
100
AcDbEntity
  8
SANINDUSA
100
AcDbEllipse
 10
2917.557357009707
 20
2100.881009669457
 30
0.0
 11
0.0
 21
0.0991889471690266
 31
0.0
210
0.0
220
0.0
230
1.0
 40
0.2016353693715315
 41
2.181743699073265
 42
2.252138974364912
  0
SPLINE
  5
1365
330
1F
100
AcDbEntity
  8
SANINDUSA
100
AcDbSpline
210
0.0
220
0.0
230
1.0
 70
     8
 71
     3
 72
    11
 73
     7
 74
     0
 42
0.000000001
 43
0.0000000001
 40
0.0
 40
0.0
 40
0.0
 40
0.0
 40
0.0027229412126842
 40
0.496320794457416
 40
0.8506710624487286
 40
1.0
 40
1.0
 40
1.0
 40
1.0
 10
2917.53975139674
 20
2100.826536853892
 30
0.0
 10
2917.539752454878
 20
2100.82653471788
 30
0.0
 10
2917.53994532584
 20
2100.826145378885
 30
0.0
 10
2917.540328737567
 20
2100.825574930359
 30
0.0
 10
2917.540817635006
 20
2100.824804983965
 30
0.0
 10
2917.540938945406
 20
2100.824269354713
 30
0.0
 10
2917.540974911062
 20
2100.824110553345
 30
0.0
  0
LINE
  5
1366
330
1F
100
AcDbEntity
  8
SANINDUSA
100
AcDbLine
 10
2917.537357009707
 20
2100.826536853892
 30
0.0
 11
2917.53975139674
 21
2100.826536853892
 31
0.0
  0
LINE
  5
1367
330
1F
100
AcDbEntity
  8
SANINDUSA
100
AcDbLine
 10
2917.537357009707
 20
2100.826536853892
 30
0.0
 11
2917.537357009707
 21
2100.834536853573
 31
0.0
  0
LINE
  5
136A
330
1F
100
AcDbEntity
  8
SANINDUSA
100
AcDbLine
 10
2917.55735700926
 20
2100.836536853901
 30
0.0
 11
2917.877357013283
 21
2100.836536853901
 31
0.0
  0
LINE
  5
1370
330
1F
100
AcDbEntity
  8
SANINDUSA
100
AcDbLine
 10
2917.897357024012
 20
2100.832536854177
 30
0.0
 11
2917.897357024012
 21
2100.818536853745
 31
0.0
  0
SPLINE
  5
1371
330
1F
100
AcDbEntity
  8
SANINDUSA
100
AcDbSpline
210
0.0
220
0.0
230
1.0
 70
     8
 71
     3
 72
    11
 73
     7
 74
     0
 42
0.000000001
 43
0.0000000001
 40
0.0
 40
0.0
 40
0.0
 40
0.0
 40
0.2500001619494311
 40
0.4999999422313787
 40
0.749999952532916
 40
1.0
 40
1.0
 40
1.0
 40
1.0
 10
2917.537357009707
 20
2100.834536853573
 30
0.0
 10
2917.537387072771
 20
2100.834798927881
 30
0.0
 10
2917.537447198855
 20
2100.835323076093
 30
0.0
 10
2917.537909697851
 20
2100.835984165584
 30
0.0
 10
2917.538570787485
 20
2100.836446663882
 30
0.0
 10
2917.539094935684
 20
2100.83650679056
 30
0.0
 10
2917.539357009802
 20
2100.836536853901
 30
0.0
  0
SPLINE
  5
1372
330
1F
100
AcDbEntity
  8
SANINDUSA
100
AcDbSpline
210
0.0
220
0.0
230
1.0
 70
    24
 71
     3
 72
    15
 73
    11
 74
     0
 42
0.000000001
 43
0.0000000001
 40
0.0
 40
0.0
 40
0.0
 40
0.0
 40
0.1316357497482054
 40
0.2623613417598697
 40
0.3912976339800285
 40
0.5180359208826996
 40
0.6419652177072898
 40
0.7633478053292209
 40
0.8797928443184034
 40
0.9999999999999998
 40
0.9999999999999998
 40
0.9999999999999998
 40
0.9999999999999998
 10
2917.539357009802
 20
2100.836536853901
 30
0.0
 10
2917.53944308007
 20
2100.836536853901
 30
0.0
 10
2917.539614625498
 20
2100.836536853901
 30
0.0
 10
2917.540901421788
 20
2100.836536853901
 30
0.0
 10
2917.54280962984
 20
2100.836536853901
 30
0.0
 10
2917.545247149262
 20
2100.836536853901
 30
0.0
 10
2917.548048442009
 20
2100.836536853901
 30
0.0
 10
2917.551046071484
 20
2100.836536853901
 30
0.0
 10
2917.55417179308
 20
2100.836536853901
 30
0.0
 10
2917.55628407737
 20
2100.836536853901
 30
0.0
 10
2917.55735700926
 20
2100.836536853901
 30
0.0
  0
SPLINE
  5
1373
330
1F
100
AcDbEntity
  8
SANINDUSA
100
AcDbSpline
210
0.0
220
0.0
230
1.0
 70
    24
 71
     3
 72
    15
 73
    11
 74
     0
 42
0.000000001
 43
0.0000000001
 40
0.0
 40
0.0
 40
0.0
 40
0.0
 40
0.1250049986507314
 40
0.2499994340434913
 40
0.375000133476024
 40
0.5
 40
0.624999866523976
 40
0.7500005659565088
 40
0.8749950013492686
 40
1.0
 40
1.0
 40
1.0
 40
1.0
 10
2917.877357013283
 20
2100.836536853901
 30
0.0
 10
2917.878404121048
 20
2100.836536853901
 30
0.0
 10
2917.880498248093
 20
2100.836536853901
 30
0.0
 10
2917.883519773159
 20
2100.836536853901
 30
0.0
 10
2917.886302488643
 20
2100.836536853901
 30
0.0
 10
2917.888743792569
 20
2100.836536853901
 30
0.0
 10
2917.890746659627
 20
2100.836536853901
 30
0.0
 10
2917.892227753947
 20
2100.836536853901
 30
0.0
 10
2917.893176718915
 20
2100.836536853901
 30
0.0
 10
2917.893296915216
 20
2100.836536853901
 30
0.0
 10
2917.893357015906
 20
2100.836536853901
 30
0.0
  0
SPLINE
  5
1374
330
1F
100
AcDbEntity
  8
SANINDUSA
100
AcDbSpline
210
0.0
220
0.0
230
1.0
 70
     8
 71
     3
 72
    11
 73
     7
 74
     0
 42
0.000000001
 43
0.0000000001
 40
0.0
 40
0.0
 40
0.0
 40
0.0
 40
0.2500001718640611
 40
0.5000009141006487
 40
0.7499995048146787
 40
1.0
 40
1.0
 40
1.0
 40
1.0
 10
2917.897357024012
 20
2100.832536854177
 30
0.0
 10
2917.897296894792
 20
2100.833061002446
 30
0.0
 10
2917.897176636215
 20
2100.83410930018
 30
0.0
 10
2917.896251632946
 20
2100.835431471834
 30
0.0
 10
2917.89492946119
 20
2100.836356478292
 30
0.0
 10
2917.893881165665
 20
2100.836476728546
 30
0.0
 10
2917.893357015906
 20
2100.836536853901
 30
0.0
  0
LINE
  5
1376
330
1F
100
AcDbEntity
  8
SANINDUSA
100
AcDbLine
 10
2917.55735700926
 20
2100.816536853417
 30
0.0
 11
2917.544907110037
 21
2100.816536853417
 31
0.0
  0
SPLINE
  5
1377
330
1F
100
AcDbEntity
  8
SANINDUSA
100
AcDbSpline
210
0.0
220
0.0
230
1.0
 70
     8
 71
     3
 72
    12
 73
     8
 74
     0
 42
0.000000001
 43
0.0000000001
 40
0.0
 40
0.0
 40
0.0
 40
0.0
 40
0.1320824233477264
 40
0.4704066940665214
 40
0.6981059819802315
 40
0.8765515209465709
 40
1.0
 40
1.0
 40
1.0
 40
1.0
 10
2917.544907110037
 20
2100.816536853417
 30
0.0
 10
2917.544731776872
 20
2100.816543602246
 30
0.0
 10
2917.544107334249
 20
2100.816567637953
 30
0.0
 10
2917.543194799381
 20
2100.816845699471
 30
0.0
 10
2917.54238982687
 20
2100.81742565161
 30
0.0
 10
2917.541961544199
 20
2100.817996651539
 30
0.0
 10
2917.541862822714
 20
2100.818380069175
 30
0.0
 10
2917.541822454186
 20
2100.818536853745
 30
0.0
  0
LINE
  5
1378
330
1F
100
AcDbEntity
  8
SANINDUSA
100
AcDbLine
 10
2917.877357013283
 20
2100.816536853417
 30
0.0
 11
2917.55735700926
 21
2100.816536853417
 31
0.0
  0
ARC
  5
137A
330
1F
100
AcDbEntity
  8
SANINDUSA
100
AcDbCircle
 10
2917.895357009707
 20
2100.818536853797
 30
0.0
 40
0.0020000000000002
100
AcDbArc
 50
270.0
 51
0.0
  0
LINE
  5
137B
330
1F
100
AcDbEntity
  8
SANINDUSA
100
AcDbLine
 10
2917.895357019959
 20
2100.816536853417
 30
0.0
 11
2917.877357013283
 21
2100.816536853417
 31
0.0
  0
ARC
  5
137C
330
1F
100
AcDbEntity
  8
SANINDUSA
100
AcDbCircle
 10
2917.539357009707
 20
2100.826536853797
 30
0.0
 40
0.0019999999999999
100
AcDbArc
 50
180.0
 51
270.0
  0
LINE
  5
137D
330
1F
100
AcDbEntity
  8
SANINDUSA
100
AcDbLine
 10
2917.540772122091
 20
2100.824536853797
 30
0.0
 11
2917.539807080982
 21
2100.824536853797
 31
0.0
  0
LINE
  5
137E
330
1F
100
AcDbEntity
  8
SANINDUSA
100
AcDbLine
 10
2917.537357009707
 20
2100.824536853797
 30
0.0
 11
2917.537357009707
 21
2100.826536853892
 31
0.0
  0
LINE
  5
137F
330
1F
100
AcDbEntity
  8
SANINDUSA
100
AcDbLine
 10
2917.86735702282
 20
2100.324536853797
 30
0.0
 11
2917.86735702282
 21
2100.816536853417
 31
0.0
  0
LINE
  5
1380
330
1F
100
AcDbEntity
  8
SANINDUSA
100
AcDbLine
 10
2917.537357009707
 20
2100.324536853797
 30
0.0
 11
2917.537357009707
 21
2100.824536853797
 31
0.0
  0
LINE
  5
1381
330
1F
100
AcDbEntity
  8
SANINDUSA
100
AcDbLine
 10
2917.537357009707
 20
2100.824536853797
 30
0.0
 11
2917.539807080982
 21
2100.824536853797
 31
0.0
  0
LINE
  5
1382
330
1F
100
AcDbEntity
  8
SANINDUSA
100
AcDbLine
 10
2917.537357009707
 20
2100.324536853797
 30
0.0
 11
2917.86735702282
 21
2100.324536853797
 31
0.0
  0
LINE
  5
1383
330
1F
100
AcDbEntity
  8
SANINDUSA
100
AcDbLine
 10
2917.88335699564
 20
2100.739536852903
 30
0.0
 11
2917.88335699564
 21
2100.816536853417
 31
0.0
  0
LINE
  5
1384
330
1F
100
AcDbEntity
  8
SANINDUSA
100
AcDbLine
 10
2917.86735702282
 20
2100.816536853417
 30
0.0
 11
2917.86735702282
 21
2100.739536852903
 31
0.0
  0
LINE
  5
1385
330
1F
100
AcDbEntity
  8
SANINDUSA
100
AcDbLine
 10
2917.86735702282
 20
2100.739536852903
 30
0.0
 11
2917.88335699564
 21
2100.739536852903
 31
0.0
  0
LINE
  5
1386
330
1F
100
AcDbEntity
  8
SANINDUSA
100
AcDbLine
 10
2917.879357017336
 20
2100.585536861188
 30
0.0
 11
2917.879357017336
 21
2100.578536847002
 31
0.0
  0
LINE
  5
1387
330
1F
100
AcDbEntity
  8
SANINDUSA
100
AcDbLine
 10
2917.88335699564
 20
2100.733536855645
 30
0.0
 11
2917.86735702282
 21
2100.733536855645
 31
0.0
  0
LINE
  5
1388
330
1F
100
AcDbEntity
  8
SANINDUSA
100
AcDbLine
 10
2917.88335699564
 20
2100.578536847002
 30
0.0
 11
2917.88335699564
 21
2100.733536855645
 31
0.0
  0
LINE
  5
1389
330
1F
100
AcDbEntity
  8
SANINDUSA
100
AcDbLine
 10
2917.879357017336
 20
2100.578536847002
 30
0.0
 11
2917.88335699564
 21
2100.578536847002
 31
0.0
  0
ARC
  5
138A
330
1F
100
AcDbEntity
  8
SANINDUSA
100
AcDbCircle
 10
2917.873357009707
 20
2100.585536853797
 30
0.0
 40
0.0059999999999999
100
AcDbArc
 50
0.0
 51
90.0
  0
LINE
  5
138B
330
1F
100
AcDbEntity
  8
SANINDUSA
100
AcDbLine
 10
2917.86735702282
 20
2100.591536858446
 30
0.0
 11
2917.873357005177
 21
2100.591536858446
 31
0.0
  0
LINE
  5
138C
330
1F
100
AcDbEntity
  8
SANINDUSA
100
AcDbLine
 10
2917.86735702282
 20
2100.733536855645
 30
0.0
 11
2917.86735702282
 21
2100.591536858446
 31
0.0
  0
ARC
  5
138D
330
1F
100
AcDbEntity
  8
SANINDUSA
100
AcDbCircle
 10
2917.873357009707
 20
2100.544536853798
 30
0.0
 40
0.0059999999999999
100
AcDbArc
 50
270.0
 51
0.0
  0
LINE
  5
138E
330
1F
100
AcDbEntity
  8
SANINDUSA
100
AcDbLine
 10
2917.879357017336
 20
2100.55153685189
 30
0.0
 11
2917.879357017336
 21
2100.544536852605
 31
0.0
  0
LINE
  5
138F
330
1F
100
AcDbEntity
  8
SANINDUSA
100
AcDbLine
 10
2917.88335699564
 20
2100.55153685189
 30
0.0
 11
2917.879357017336
 21
2100.55153685189
 31
0.0
  0
LINE
  5
1390
330
1F
100
AcDbEntity
  8
SANINDUSA
100
AcDbLine
 10
2917.88335699564
 20
2100.32653685785
 30
0.0
 11
2917.88335699564
 21
2100.55153685189
 31
0.0
  0
LINE
  5
1391
330
1F
100
AcDbEntity
  8
SANINDUSA
100
AcDbLine
 10
2917.873357005177
 20
2100.538536840446
 30
0.0
 11
2917.86735702282
 21
2100.538536840446
 31
0.0
  0
LINE
  5
1392
330
1F
100
AcDbEntity
  8
SANINDUSA
100
AcDbLine
 10
2917.86735702282
 20
2100.32653685785
 30
0.0
 11
2917.88335699564
 21
2100.32653685785
 31
0.0
  0
LINE
  5
1393
330
1F
100
AcDbEntity
  8
SANINDUSA
100
AcDbLine
 10
2917.86735702282
 20
2100.538536840446
 30
0.0
 11
2917.86735702282
 21
2100.32653685785
 31
0.0
  0
ENDSEC
  0
SECTION
  2
OBJECTS
  0
DICTIONARY
  5
C
330
0
100
AcDbDictionary
281
     1
  3
ACAD_2007HEADERVARS_RT
350
1420
  3
ACAD_BACKGROUND
350
1416
  3
ACAD_CIP_PREVIOUS_PRODUCT_INFO
350
10B9
  3
ACAD_COLOR
350
EE6
  3
ACAD_DETAILVIEWSTYLE
350
10B1
  3
ACAD_GROUP
350
D
  3
ACAD_LAYOUT
350
1A
  3
ACAD_MATERIAL
350
EE5
  3
ACAD_MLEADERSTYLE
350
10AD
  3
ACAD_MLINESTYLE
350
17
  3
ACAD_PLOTSETTINGS
350
19
  3
ACAD_PLOTSTYLENAME
350
E
  3
ACAD_SCALELIST
350
109B
  3
ACAD_SECTIONVIEWSTYLE
350
10AF
  3
ACAD_TABLESTYLE
350
EE7
  3
ACAD_VISUALSTYLE
350
1082
  3
ACDB_RECOMPOSE_DATA
350
141E
  3
AcDbVariableDictionary
350
3D
  3
ASE_INDEX_DICTIONARY
350
1066
  3
DWGPROPS
350
141F
  0
DICTIONARY
  5
1051
330
2
100
AcDbDictionary
280
     1
281
     1
  3
ACAD_LAYERFILTERS
360
1065
  3
ACLYDICTIONARY
360
1064
  0
DICTIONARY
  5
1395
330
10
100
AcDbDictionary
280
     1
281
     1
  3
ADSK_XREC_LAYER_RECONCILED
360
1396
  0
DICTIONARY
  5
1397
330
2F
100
AcDbDictionary
280
     1
281
     1
  3
ADSK_XREC_LAYER_RECONCILED
360
1398
  0
DICTIONARY
  5
1399
330
30
100
AcDbDictionary
280
     1
281
     1
  3
ADSK_XREC_LAYER_RECONCILED
360
139A
  0
DICTIONARY
  5
139B
330
31
100
AcDbDictionary
280
     1
281
     1
  3
ADSK_XREC_LAYER_RECONCILED
360
139C
  0
DICTIONARY
  5
139D
330
32
100
AcDbDictionary
280
     1
281
     1
  3
ADSK_XREC_LAYER_RECONCILED
360
139E
  0
DICTIONARY
  5
139F
330
33
100
AcDbDictionary
280
     1
281
     1
  3
ADSK_XREC_LAYER_RECONCILED
360
13A0
  0
DICTIONARY
  5
13A1
330
34
100
AcDbDictionary
280
     1
281
     1
  3
ADSK_XREC_LAYER_RECONCILED
360
13A2
  0
DICTIONARY
  5
13A3
330
35
100
AcDbDictionary
280
     1
281
     1
  3
ADSK_XREC_LAYER_RECONCILED
360
13A4
  0
DICTIONARY
  5
13A5
330
36
100
AcDbDictionary
280
     1
281
     1
  3
ADSK_XREC_LAYER_RECONCILED
360
13A6
  0
DICTIONARY
  5
13A7
330
37
100
AcDbDictionary
280
     1
281
     1
  3
ADSK_XREC_LAYER_RECONCILED
360
13A8
  0
DICTIONARY
  5
13A9
330
5D6
100
AcDbDictionary
280
     1
281
     1
  3
ADSK_XREC_LAYER_RECONCILED
360
13AA
  0
DICTIONARY
  5
13AB
330
8AF
100
AcDbDictionary
280
     1
281
     1
  3
ADSK_XREC_LAYER_RECONCILED
360
13AC
  0
DICTIONARY
  5
13AD
330
8F8
100
AcDbDictionary
280
     1
281
     1
  3
ADSK_XREC_LAYER_RECONCILED
360
13AE
  0
DICTIONARY
  5
13AF
330
91D
100
AcDbDictionary
280
     1
281
     1
  3
ADSK_XREC_LAYER_RECONCILED
360
13B0
  0
DICTIONARY
  5
13B1
330
C7B
100
AcDbDictionary
280
     1
281
     1
  3
ADSK_XREC_LAYER_RECONCILED
360
13B2
  0
DICTIONARY
  5
13B3
330
1060
100
AcDbDictionary
280
     1
281
     1
  3
ADSK_XREC_LAYER_RECONCILED
360
13B4
  0
DICTIONARY
  5
145F
330
140F
100
AcDbDictionary
280
     1
281
     1
  3
ACAD_MTEXT_RT
360
1460
  0
DICTIONARY
  5
1420
102
{ACAD_REACTORS
330
C
102
}
330
C
100
AcDbDictionary
281
     1
  3
DIMJOGANG
350
1421
  0
DICTIONARY
  5
1416
102
{ACAD_REACTORS
330
C
102
}
330
C
100
AcDbDictionary
281
     1
  0
XRECORD
  5
10B9
102
{ACAD_REACTORS
330
C
102
}
330
C
100
AcDbXrecord
280
     1
300
ACD
300
2013
300
ACD_F_S
  0
DICTIONARY
  5
EE6
102
{ACAD_REACTORS
330
C
102
}
330
C
100
AcDbDictionary
281
     1
  0
DICTIONARY
  5
10B1
102
{ACAD_REACTORS
330
C
102
}
330
C
100
AcDbDictionary
281
     1
  3
Metric50
350
10B2
  0
DICTIONARY
  5
D
102
{ACAD_REACTORS
330
C
102
}
330
C
100
AcDbDictionary
281
     1
  0
DICTIONARY
  5
1A
102
{ACAD_REACTORS
330
C
102
}
330
C
100
AcDbDictionary
281
     1
  3
Layout1
350
1E
  3
Layout2
350
26
  3
Model
350
22
  0
DICTIONARY
  5
EE5
102
{ACAD_REACTORS
330
C
102
}
330
C
100
AcDbDictionary
281
     1
  3
ByBlock
350
1072
  3
ByLayer
350
106A
  3
Global
350
107A
  0
DICTIONARY
  5
10AD
102
{ACAD_REACTORS
330
C
102
}
330
C
100
AcDbDictionary
281
     1
  3
Standard
350
10AE
  0
DICTIONARY
  5
17
102
{ACAD_REACTORS
330
C
102
}
330
C
100
AcDbDictionary
281
     1
  3
Standard
350
18
  0
DICTIONARY
  5
19
102
{ACAD_REACTORS
330
C
102
}
330
C
100
AcDbDictionary
281
     1
  0
ACDBDICTIONARYWDFLT
  5
E
102
{ACAD_REACTORS
330
C
102
}
330
C
100
AcDbDictionary
281
     1
  3
Normal
350
F
100
AcDbDictionaryWithDefault
340
F
  0
DICTIONARY
  5
109B
102
{ACAD_REACTORS
330
C
102
}
330
C
100
AcDbDictionary
281
     1
  3
A0
350
109C
  3
A1
350
109D
  3
A2
350
109E
  3
A3
350
109F
  3
A4
350
10A0
  3
A5
350
10A1
  3
A6
350
10A2
  3
A7
350
10A3
  3
A8
350
10A4
  3
A9
350
10A5
  3
B0
350
10A6
  3
B1
350
10A7
  3
B2
350
10A8
  3
B3
350
10A9
  3
B4
350
10AA
  3
B5
350
10AB
  3
B6
350
10AC
  0
DICTIONARY
  5
10AF
102
{ACAD_REACTORS
330
C
102
}
330
C
100
AcDbDictionary
281
     1
  3
Metric50
350
10B0
  0
DICTIONARY
  5
EE7
102
{ACAD_REACTORS
330
C
102
}
330
C
100
AcDbDictionary
281
     1
  3
Standard
350
EE8
  0
DICTIONARY
  5
1082
102
{ACAD_REACTORS
330
C
102
}
330
C
100
AcDbDictionary
281
     1
  3
2dWireframe
350
1088
  3
Basic
350
1087
  3
Brighten
350
108E
  3
ColorChange
350
1092
  3
Conceptual
350
108B
  3
Dim
350
108D
  3
EdgeColorOff
350
109A
  3
Facepattern
350
1091
  3
Flat
350
1083
  3
FlatWithEdges
350
1084
  3
Gouraud
350
1085
  3
GouraudWithEdges
350
1086
  3
Hidden
350
108A
  3
JitterOff
350
1098
  3
Linepattern
350
1090
  3
OverhangOff
350
1099
  3
Realistic
350
108C
  3
Shaded
350
1097
  3
Shaded with edges
350
1096
  3
Shades of Gray
350
1093
  3
Sketchy
350
1094
  3
Thicken
350
108F
  3
Wireframe
350
1089
  3
X-Ray
350
1095
  0
XRECORD
  5
141E
102
{ACAD_REACTORS
330
C
102
}
330
C
100
AcDbXrecord
280
     1
 90
        1
330
EE8
  0
DICTIONARY
  5
3D
102
{ACAD_REACTORS
330
C
102
}
330
C
100
AcDbDictionary
281
     1
  3
CANNOSCALE
350
10C1
  3
CMLEADERSTYLE
350
10BD
  3
CTABLESTYLE
350
1049
  3
CVIEWDETAILSTYLE
350
10BE
  3
CVIEWSECTIONSTYLE
350
10BF
  3
DIMASSOC
350
3F
  3
HIDETEXT
350
3E
  3
INDEXCTL
350
141A
  3
LAYEREVAL
350
10C3
  3
LAYERNOTIFY
350
10C4
  3
LIGHTINGUNITS
350
10C2
  3
MSLTSCALE
350
10C0
  3
SORTENTS
350
1419
  3
XCLIPFRAME
350
141B
  0
DICTIONARY
  5
1066
102
{ACAD_REACTORS
330
C
102
}
330
C
100
AcDbDictionary
281
     1
  3
ASEBlockHierarchyIndexRecord
350
1067
1001
DCO15
1040
1602247867.484
  0
XRECORD
  5
141F
102
{ACAD_REACTORS
330
C
102
}
330
C
100
AcDbXrecord
280
     1
  1
DWGPROPS COOKIE
  2

  3

  4

  6

  7

  8
Julio
  9

300
=
301
=
302
=
303
=
304
=
305
=
306
=
307
=
308
=
309
=
 40
0.0056388541666667
 41
2458249.408473947
 42
2458249.414112442
  1

 90
        0
  0
DICTIONARY
  5
1065
102
{ACAD_REACTORS
330
1051
102
}
330
1051
100
AcDbDictionary
281
     1
  0
DICTIONARY
  5
1064
102
{ACAD_REACTORS
330
1051
102
}
330
1051
100
AcDbDictionary
281
     1
1001
ACAD
1000
<All
  0
XRECORD
  5
1396
102
{ACAD_REACTORS
330
1395
102
}
330
1395
100
AcDbXrecord
280
     1
290
     1
  0
XRECORD
  5
1398
102
{ACAD_REACTORS
330
1397
102
}
330
1397
100
AcDbXrecord
280
     1
290
     1
  0
XRECORD
  5
139A
102
{ACAD_REACTORS
330
1399
102
}
330
1399
100
AcDbXrecord
280
     1
290
     1
  0
XRECORD
  5
139C
102
{ACAD_REACTORS
330
139B
102
}
330
139B
100
AcDbXrecord
280
     1
290
     1
  0
XRECORD
  5
139E
102
{ACAD_REACTORS
330
139D
102
}
330
139D
100
AcDbXrecord
280
     1
290
     1
  0
XRECORD
  5
13A0
102
{ACAD_REACTORS
330
139F
102
}
330
139F
100
AcDbXrecord
280
     1
290
     1
  0
XRECORD
  5
13A2
102
{ACAD_REACTORS
330
13A1
102
}
330
13A1
100
AcDbXrecord
280
     1
290
     1
  0
XRECORD
  5
13A4
102
{ACAD_REACTORS
330
13A3
102
}
330
13A3
100
AcDbXrecord
280
     1
290
     1
  0
XRECORD
  5
13A6
102
{ACAD_REACTORS
330
13A5
102
}
330
13A5
100
AcDbXrecord
280
     1
290
     1
  0
XRECORD
  5
13A8
102
{ACAD_REACTORS
330
13A7
102
}
330
13A7
100
AcDbXrecord
280
     1
290
     1
  0
XRECORD
  5
13AA
102
{ACAD_REACTORS
330
13A9
102
}
330
13A9
100
AcDbXrecord
280
     1
290
     1
  0
XRECORD
  5
13AC
102
{ACAD_REACTORS
330
13AB
102
}
330
13AB
100
AcDbXrecord
280
     1
290
     1
  0
XRECORD
  5
13AE
102
{ACAD_REACTORS
330
13AD
102
}
330
13AD
100
AcDbXrecord
280
     1
290
     1
  0
XRECORD
  5
13B0
102
{ACAD_REACTORS
330
13AF
102
}
330
13AF
100
AcDbXrecord
280
     1
290
     1
  0
XRECORD
  5
13B2
102
{ACAD_REACTORS
330
13B1
102
}
330
13B1
100
AcDbXrecord
280
     1
290
     1
  0
XRECORD
  5
13B4
102
{ACAD_REACTORS
330
13B3
102
}
330
13B3
100
AcDbXrecord
280
     1
290
     1
  0
XRECORD
  5
1460
102
{ACAD_REACTORS
330
145F
102
}
330
145F
100
AcDbXrecord
280
     1
 40
1884.0
  1
\U+22050
  0
XRECORD
  5
1421
102
{ACAD_REACTORS
330
1420
102
}
330
1420
100
AcDbXrecord
280
     1
 40
1.570796326794896
  0
ACDBDETAILVIEWSTYLE
  5
10B2
102
{ACAD_REACTORS
330
10B1
102
}
330
10B1
100
AcDbModelDocViewStyle
 70
     0
  3
Metric50
290
     0
100
AcDbDetailViewStyle
 70
     0
 71
     0
 90
        3
 71
     1
340
11
 40
5.0
340
0
 40
5.0
300

 40
0.0
280
     1
 71
     2
340
16
 90
       25
 71
     3
340
11
 40
5.0
 90
        0
 40
15.0
 90
        1
300
%<\AcVar ViewDetailId>% (%<\AcVar ViewScale \f "%sn">%)
 71
     4
340
16
 90
       25
340
16
 90
       25
280
     0
  0
LAYOUT
  5
1E
102
{ACAD_XDICTIONARY
360
1422
102
}
102
{ACAD_REACTORS
330
1A
102
}
330
1A
100
AcDbPlotSettings
  1

  2
Ploter HP500
  4

  6

 40
0.0
 41
0.0
 42
0.0
 43
0.0
 44
0.0
 45
0.0
 46
0.0
 47
0.0
 48
0.0
 49
0.0
140
0.0
141
0.0
142
1.0
143
1.0
 70
   688
 72
     0
 73
     0
 74
     5
  7
sanindusa.ctb
 75
    16
147
1.0
148
0.0
149
0.0
100
AcDbLayout
  1
Layout1
 70
     1
 71
     1
 10
0.0
 20
0.0
 11
420.0
 21
297.0
 12
0.0
 22
0.0
 32
0.0
 14
1.000000000000000E+20
 24
1.000000000000000E+20
 34
1.000000000000000E+20
 15
-1.000000000000000E+20
 25
-1.000000000000000E+20
 35
-1.000000000000000E+20
146
0.0
 13
0.0
 23
0.0
 33
0.0
 16
1.0
 26
0.0
 36
0.0
 17
0.0
 27
1.0
 37
0.0
 76
     0
330
1B
  0
LAYOUT
  5
26
102
{ACAD_XDICTIONARY
360
1426
102
}
102
{ACAD_REACTORS
330
1A
102
}
330
1A
100
AcDbPlotSettings
  1

  2
Ploter HP500
  4

  6

 40
0.0
 41
0.0
 42
0.0
 43
0.0
 44
0.0
 45
0.0
 46
0.0
 47
0.0
 48
0.0
 49
0.0
140
0.0
141
0.0
142
1.0
143
1.0
 70
   688
 72
     0
 73
     0
 74
     5
  7
sanindusa.ctb
 75
    16
147
1.0
148
0.0
149
0.0
100
AcDbLayout
  1
Layout2
 70
     1
 71
     2
 10
0.0
 20
0.0
 11
12.0
 21
9.0
 12
0.0
 22
0.0
 32
0.0
 14
0.0
 24
0.0
 34
0.0
 15
0.0
 25
0.0
 35
0.0
146
0.0
 13
0.0
 23
0.0
 33
0.0
 16
1.0
 26
0.0
 36
0.0
 17
0.0
 27
1.0
 37
0.0
 76
     0
330
23
  0
LAYOUT
  5
22
102
{ACAD_XDICTIONARY
360
1424
102
}
102
{ACAD_REACTORS
330
1A
102
}
330
1A
100
AcDbPlotSettings
  1

  2
Ploter HP500
  4
User268
  6

 40
4.995333194732666
 41
16.97565841674804
 42
4.995330810546875
 43
16.97567749023437
 44
209.9733276367187
 45
296.9259948730469
 46
0.0
 47
0.0
 48
0.0
 49
0.0
140
0.0
141
0.0
142
1.0
143
1.0
 70
 11952
 72
     1
 73
     1
 74
     0
  7
sanindusa.ctb
 75
     0
147
1.0
148
-427.5957866592534
149
7.362384574453926
100
AcDbLayout
  1
Model
 70
     1
 71
     0
 10
0.0
 20
0.0
 11
12.0
 21
9.0
 12
0.0
 22
0.0
 32
0.0
 14
0.0
 24
0.0
 34
0.0
 15
0.0
 25
0.0
 35
0.0
146
0.0
 13
0.0
 23
0.0
 33
0.0
 16
1.0
 26
0.0
 36
0.0
 17
0.0
 27
1.0
 37
0.0
 76
     0
330
1F
331
1068
  0
MATERIAL
  5
1072
102
{ACAD_XDICTIONARY
360
1073
102
}
102
{ACAD_REACTORS
330
EE5
102
}
330
EE5
100
AcDbMaterial
  1
ByBlock
 72
     0
 43
0.0008202099737533
 43
0.0
 43
0.0
 43
0.0
 43
0.0
 43
0.0008202099737533
 43
0.0
 43
0.0
 43
0.0
 43
0.0
 43
1.0
 43
0.0
 43
0.0
 43
0.0
 43
0.0
 43
1.0
 77
     0
 47
0.0008202099737533
 47
0.0
 47
0.0
 47
0.0
 47
0.0
 47
0.0008202099737533
 47
0.0
 47
0.0
 47
0.0
 47
0.0
 47
1.0
 47
0.0
 47
0.0
 47
0.0
 47
0.0
 47
1.0
171
     0
 49
0.0008202099737533
 49
0.0
 49
0.0
 49
0.0
 49
0.0
 49
0.0008202099737533
 49
0.0
 49
0.0
 49
0.0
 49
0.0
 49
1.0
 49
0.0
 49
0.0
 49
0.0
 49
0.0
 49
1.0
175
     0
142
0.0008202099737533
142
0.0
142
0.0
142
0.0
142
0.0
142
0.0008202099737533
142
0.0
142
0.0
142
0.0
142
0.0
142
1.0
142
0.0
142
0.0
142
0.0
142
0.0
142
1.0
179
     0
144
0.0008202099737533
144
0.0
144
0.0
144
0.0
144
0.0
144
0.0008202099737533
144
0.0
144
0.0
144
0.0
144
0.0
144
1.0
144
0.0
144
0.0
144
0.0
144
0.0
144
1.0
147
0.0008202099737533
147
0.0
147
0.0
147
0.0
147
0.0
147
0.0008202099737533
147
0.0
147
0.0
147
0.0
147
0.0
147
1.0
147
0.0
147
0.0
147
0.0
147
0.0
147
1.0
  0
MATERIAL
  5
106A
102
{ACAD_XDICTIONARY
360
106B
102
}
102
{ACAD_REACTORS
330
EE5
102
}
330
EE5
100
AcDbMaterial
  1
ByLayer
 72
     0
 43
0.0008202099737533
 43
0.0
 43
0.0
 43
0.0
 43
0.0
 43
0.0008202099737533
 43
0.0
 43
0.0
 43
0.0
 43
0.0
 43
1.0
 43
0.0
 43
0.0
 43
0.0
 43
0.0
 43
1.0
 77
     0
 47
0.0008202099737533
 47
0.0
 47
0.0
 47
0.0
 47
0.0
 47
0.0008202099737533
 47
0.0
 47
0.0
 47
0.0
 47
0.0
 47
1.0
 47
0.0
 47
0.0
 47
0.0
 47
0.0
 47
1.0
171
     0
 49
0.0008202099737533
 49
0.0
 49
0.0
 49
0.0
 49
0.0
 49
0.0008202099737533
 49
0.0
 49
0.0
 49
0.0
 49
0.0
 49
1.0
 49
0.0
 49
0.0
 49
0.0
 49
0.0
 49
1.0
175
     0
142
0.0008202099737533
142
0.0
142
0.0
142
0.0
142
0.0
142
0.0008202099737533
142
0.0
142
0.0
142
0.0
142
0.0
142
1.0
142
0.0
142
0.0
142
0.0
142
0.0
142
1.0
179
     0
144
0.0008202099737533
144
0.0
144
0.0
144
0.0
144
0.0
144
0.0008202099737533
144
0.0
144
0.0
144
0.0
144
0.0
144
1.0
144
0.0
144
0.0
144
0.0
144
0.0
144
1.0
147
0.0008202099737533
147
0.0
147
0.0
147
0.0
147
0.0
147
0.0008202099737533
147
0.0
147
0.0
147
0.0
147
0.0
147
1.0
147
0.0
147
0.0
147
0.0
147
0.0
147
1.0
  0
MATERIAL
  5
107A
102
{ACAD_XDICTIONARY
360
107B
102
}
102
{ACAD_REACTORS
330
EE5
102
}
330
EE5
100
AcDbMaterial
  1
Global
 72
     0
 43
0.0008202099737533
 43
0.0
 43
0.0
 43
0.0
 43
0.0
 43
0.0008202099737533
 43
0.0
 43
0.0
 43
0.0
 43
0.0
 43
1.0
 43
0.0
 43
0.0
 43
0.0
 43
0.0
 43
1.0
 77
     0
 47
0.0008202099737533
 47
0.0
 47
0.0
 47
0.0
 47
0.0
 47
0.0008202099737533
 47
0.0
 47
0.0
 47
0.0
 47
0.0
 47
1.0
 47
0.0
 47
0.0
 47
0.0
 47
0.0
 47
1.0
171
     0
 49
0.0008202099737533
 49
0.0
 49
0.0
 49
0.0
 49
0.0
 49
0.0008202099737533
 49
0.0
 49
0.0
 49
0.0
 49
0.0
 49
1.0
 49
0.0
 49
0.0
 49
0.0
 49
0.0
 49
1.0
175
     0
142
0.0008202099737533
142
0.0
142
0.0
142
0.0
142
0.0
142
0.0008202099737533
142
0.0
142
0.0
142
0.0
142
0.0
142
1.0
142
0.0
142
0.0
142
0.0
142
0.0
142
1.0
179
     0
144
0.0008202099737533
144
0.0
144
0.0
144
0.0
144
0.0
144
0.0008202099737533
144
0.0
144
0.0
144
0.0
144
0.0
144
1.0
144
0.0
144
0.0
144
0.0
144
0.0
144
1.0
147
0.0008202099737533
147
0.0
147
0.0
147
0.0
147
0.0
147
0.0008202099737533
147
0.0
147
0.0
147
0.0
147
0.0
147
1.0
147
0.0
147
0.0
147
0.0
147
0.0
147
1.0
  0
MLEADERSTYLE
  5
10AE
102
{ACAD_XDICTIONARY
360
145D
102
}
102
{ACAD_REACTORS
330
10AD
102
}
330
10AD
100
AcDbMLeaderStyle
170
     2
171
     1
172
     0
 90
        2
 40
0.0
 41
0.0
173
     1
 91
-1056964608
340
14
 92
       -2
290
     1
 42
2.0
291
     1
 43
0.36
  3
Standard
 44
4.0
300

342
11
174
     1
178
     6
175
     1
176
     0
 93
-1056964608
 45
4.0
292
     0
297
     0
 46
4.0
 94
-1056964608
 47
1.0
 49
1.0
140
1.0
293
     1
141
0.0
294
     1
177
     0
142
1.0
295
     0
296
     0
143
0.125
1001
ACAD_MLEADERVER
1070
     2
  0
MLINESTYLE
  5
18
102
{ACAD_REACTORS
330
17
102
}
330
17
100
AcDbMlineStyle
  2
STANDARD
 70
     0
  3

 62
   256
 51
90.0
 52
90.0
 71
     2
 49
0.5
 62
   256
  6
BYLAYER
 49
-0.5
 62
   256
  6
BYLAYER
  0
ACDBPLACEHOLDER
  5
F
102
{ACAD_REACTORS
330
E
102
}
330
E
  0
SCALE
  5
109C
102
{ACAD_REACTORS
330
109B
102
}
330
109B
100
AcDbScale
 70
     0
300
1:1
140
1.0
141
1.0
290
     1
  0
SCALE
  5
109D
102
{ACAD_REACTORS
330
109B
102
}
330
109B
100
AcDbScale
 70
     0
300
1:2
140
1.0
141
2.0
290
     0
  0
SCALE
  5
109E
102
{ACAD_REACTORS
330
109B
102
}
330
109B
100
AcDbScale
 70
     0
300
1:4
140
1.0
141
4.0
290
     0
  0
SCALE
  5
109F
102
{ACAD_REACTORS
330
109B
102
}
330
109B
100
AcDbScale
 70
     0
300
1:5
140
1.0
141
5.0
290
     0
  0
SCALE
  5
10A0
102
{ACAD_REACTORS
330
109B
102
}
330
109B
100
AcDbScale
 70
     0
300
1:8
140
1.0
141
8.0
290
     0
  0
SCALE
  5
10A1
102
{ACAD_REACTORS
330
109B
102
}
330
109B
100
AcDbScale
 70
     0
300
1:10
140
1.0
141
10.0
290
     0
  0
SCALE
  5
10A2
102
{ACAD_REACTORS
330
109B
102
}
330
109B
100
AcDbScale
 70
     0
300
1:16
140
1.0
141
16.0
290
     0
  0
SCALE
  5
10A3
102
{ACAD_REACTORS
330
109B
102
}
330
109B
100
AcDbScale
 70
     0
300
1:20
140
1.0
141
20.0
290
     0
  0
SCALE
  5
10A4
102
{ACAD_REACTORS
330
109B
102
}
330
109B
100
AcDbScale
 70
     0
300
1:30
140
1.0
141
30.0
290
     0
  0
SCALE
  5
10A5
102
{ACAD_REACTORS
330
109B
102
}
330
109B
100
AcDbScale
 70
     0
300
1:40
140
1.0
141
40.0
290
     0
  0
SCALE
  5
10A6
102
{ACAD_REACTORS
330
109B
102
}
330
109B
100
AcDbScale
 70
     0
300
1:50
140
1.0
141
50.0
290
     0
  0
SCALE
  5
10A7
102
{ACAD_REACTORS
330
109B
102
}
330
109B
100
AcDbScale
 70
     0
300
1:100
140
1.0
141
100.0
290
     0
  0
SCALE
  5
10A8
102
{ACAD_REACTORS
330
109B
102
}
330
109B
100
AcDbScale
 70
     0
300
2:1
140
2.0
141
1.0
290
     0
  0
SCALE
  5
10A9
102
{ACAD_REACTORS
330
109B
102
}
330
109B
100
AcDbScale
 70
     0
300
4:1
140
4.0
141
1.0
290
     0
  0
SCALE
  5
10AA
102
{ACAD_REACTORS
330
109B
102
}
330
109B
100
AcDbScale
 70
     0
300
8:1
140
8.0
141
1.0
290
     0
  0
SCALE
  5
10AB
102
{ACAD_REACTORS
330
109B
102
}
330
109B
100
AcDbScale
 70
     0
300
10:1
140
10.0
141
1.0
290
     0
  0
SCALE
  5
10AC
102
{ACAD_REACTORS
330
109B
102
}
330
109B
100
AcDbScale
 70
     0
300
100:1
140
100.0
141
1.0
290
     0
  0
ACDBSECTIONVIEWSTYLE
  5
10B0
102
{ACAD_REACTORS
330
10AF
102
}
330
10AF
100
AcDbModelDocViewStyle
 70
     0
  3
Metric50
290
     0
100
AcDbSectionViewStyle
 70
     0
 71
     0
 90
      102
 71
     1
340
11
 40
5.0
340
0
340
0
 40
5.0
300
I, O, Q, S, X, Z
 40
10.0
 90
        0
 40
2.5
 90
        0
 71
     2
340
16
 90
       25
340
16
 90
       50
 40
5.0
 40
2.5
 40
5.0
 71
     3
340
11
 40
5.0
 90
        0
 40
15.0
 90
        1
300
%<\AcVar ViewSectionStartId>%-%<\AcVar ViewSectionEndId>% (%<\AcVar ViewScale \f "%sn">%)
 71
     4
300
ANSI31
 40
1.0
 90
        0
290
     0
290
     0
 90
        6
 40
0.0
 40
1.570796326794896
 40
0.2617993877991494
 40
1.308996938995747
 40
-0.2617993877991494
 40
1.832595714594046
  0
TABLESTYLE
  5
EE8
102
{ACAD_XDICTIONARY
360
141C
102
}
102
{ACAD_REACTORS
330
EE7
102
}
330
EE7
100
AcDbTableStyle
  3
Standard
 70
     0
 71
     0
 40
1.5
 41
1.5
280
     0
281
     0
  7
Standard
140
4.5
170
     2
 62
     0
 63
     7
283
     0
274
    -2
284
     1
 64
     0
275
    -2
285
     1
 65
     0
276
    -2
286
     1
 66
     0
277
    -2
287
     1
 67
     0
278
    -2
288
     1
 68
     0
279
    -2
289
     1
 69
     0
  7
Standard
140
6.0
170
     5
 62
     0
 63
     7
283
     0
274
    -2
284
     1
 64
     0
275
    -2
285
     1
 65
     0
276
    -2
286
     1
 66
     0
277
    -2
287
     1
 67
     0
278
    -2
288
     1
 68
     0
279
    -2
289
     1
 69
     0
  7
Standard
140
4.5
170
     5
 62
     0
 63
     7
283
     0
274
    -2
284
     1
 64
     0
275
    -2
285
     1
 65
     0
276
    -2
286
     1
 66
     0
277
    -2
287
     1
 67
     0
278
    -2
288
     1
 68
     0
279
    -2
289
     1
 69
     0
  0
VISUALSTYLE
  5
1088
102
{ACAD_XDICTIONARY
360
1436
102
}
102
{ACAD_REACTORS
330
1082
102
}
330
1082
100
AcDbVisualStyle
  2
2dWireframe
 70
     4
 71
     0
 72
     2
 73
     0
 90
        0
 40
-0.6
 41
-30.0
 62
     5
 63
     7
 74
     1
 91
        4
 64
     7
 65
   257
 75
     1
175
     1
 42
1.0
 92
        0
 66
   257
 43
1.0
 76
     1
 77
     6
 78
     2
 67
     7
 79
     5
170
     0
171
     0
290
     0
174
     0
 93
        1
 44
0.0
173
     0
291
     0
 45
0.0
1001
ACAD
1000
AcDbSavedByObjectVersion
1070
     0
  0
VISUALSTYLE
  5
1087
102
{ACAD_XDICTIONARY
360
1434
102
}
102
{ACAD_REACTORS
330
1082
102
}
330
1082
100
AcDbVisualStyle
  2
Basic
 70
     7
 71
     1
 72
     0
 73
     1
 90
        0
 40
-0.6
 41
-30.0
 62
     5
 63
     7
 74
     0
 91
        4
 64
     7
 65
   257
 75
     1
175
     1
 42
1.0
 92
        8
 66
     7
 43
1.0
 76
     1
 77
     6
 78
     2
 67
     7
 79
     5
170
     0
171
     0
290
     0
174
     0
 93
        1
 44
0.0
173
     0
291
     1
 45
0.0
1001
ACAD
1000
AcDbSavedByObjectVersion
1070
     0
  0
VISUALSTYLE
  5
108E
102
{ACAD_XDICTIONARY
360
1442
102
}
102
{ACAD_REACTORS
330
1082
102
}
330
1082
100
AcDbVisualStyle
  2
Brighten
 70
    12
 71
     2
 72
     2
 73
     0
 90
        0
 40
-0.6
 41
-30.0
 62
     5
 63
     7
 74
     1
 91
        4
 64
     7
 65
   257
 75
     1
175
     1
 42
1.0
 92
        8
 66
     7
 43
1.0
 76
     1
 77
     6
 78
     2
 67
     7
 79
     5
170
     0
171
     0
290
     0
174
     0
 93
        1
 44
50.0
173
     0
291
     1
 45
0.0
1001
ACAD
1000
AcDbSavedByObjectVersion
1070
     0
  0
VISUALSTYLE
  5
1092
102
{ACAD_XDICTIONARY
360
144A
102
}
102
{ACAD_REACTORS
330
1082
102
}
330
1082
100
AcDbVisualStyle
  2
ColorChange
 70
    16
 71
     2
 72
     2
 73
     3
 90
        0
 40
-0.6
 41
-30.0
 62
     5
 63
     8
 74
     1
 91
        4
 64
     7
 65
   257
 75
     1
175
     1
 42
1.0
 92
        8
 66
     8
 43
1.0
 76
     1
 77
     6
 78
     2
 67
     7
 79
     5
170
     0
171
     0
290
     0
174
     0
 93
        1
 44
0.0
173
     0
291
     1
 45
0.0
1001
ACAD
1000
AcDbSavedByObjectVersion
1070
     0
  0
VISUALSTYLE
  5
108B
102
{ACAD_XDICTIONARY
360
143C
102
}
102
{ACAD_REACTORS
330
1082
102
}
330
1082
100
AcDbVisualStyle
  2
Conceptual
 70
     9
 71
     3
 72
     2
 73
     0
 90
        0
 40
-0.6
 41
-30.0
 62
     5
 63
     7
 74
     2
 91
        2
 64
     7
 65
   257
 75
     1
175
     1
 42
179.0
 92
        8
 66
     7
 43
1.0
 76
     1
 77
     6
 78
     2
 67
     7
 79
     3
170
     0
171
     0
290
     0
174
     0
 93
        1
 44
0.0
173
     0
291
     0
 45
0.0
1001
ACAD
1000
AcDbSavedByObjectVersion
1070
     0
  0
VISUALSTYLE
  5
108D
102
{ACAD_XDICTIONARY
360
1440
102
}
102
{ACAD_REACTORS
330
1082
102
}
330
1082
100
AcDbVisualStyle
  2
Dim
 70
    11
 71
     2
 72
     2
 73
     0
 90
        0
 40
-0.6
 41
-30.0
 62
     5
 63
     7
 74
     1
 91
        4
 64
     7
 65
   257
 75
     1
175
     1
 42
1.0
 92
        8
 66
     7
 43
1.0
 76
     1
 77
     6
 78
     2
 67
     7
 79
     5
170
     0
171
     0
290
     0
174
     0
 93
        1
 44
-50.0
173
     0
291
     1
 45
0.0
1001
ACAD
1000
AcDbSavedByObjectVersion
1070
     0
  0
VISUALSTYLE
  5
109A
102
{ACAD_XDICTIONARY
360
145A
102
}
102
{ACAD_REACTORS
330
1082
102
}
330
1082
100
AcDbVisualStyle
  2
EdgeColorOff
 70
    22
 71
     2
 72
     2
 73
     0
 90
        0
 40
-0.6
 41
-30.0
 62
     5
 63
     7
 74
     1
 91
        4
 64
     7
 65
   257
 75
     1
175
     1
 42
1.0
 92
        8
 66
     7
 43
1.0
 76
     1
 77
     6
 78
     2
 67
     7
 79
     5
170
     0
171
     0
290
     0
174
     0
 93
        1
 44
0.0
173
     0
291
     1
 45
0.0
1001
ACAD
1000
AcDbSavedByObjectVersion
1070
     0
  0
VISUALSTYLE
  5
1091
102
{ACAD_XDICTIONARY
360
1448
102
}
102
{ACAD_REACTORS
330
1082
102
}
330
1082
100
AcDbVisualStyle
  2
Facepattern
 70
    15
 71
     2
 72
     2
 73
     0
 90
        0
 40
-0.6
 41
-30.0
 62
     5
 63
     7
 74
     1
 91
        4
 64
     7
 65
   257
 75
     1
175
     1
 42
1.0
 92
        8
 66
     7
 43
1.0
 76
     1
 77
     6
 78
     2
 67
     7
 79
     5
170
     0
171
     0
290
     0
174
     0
 93
        1
 44
0.0
173
     0
291
     1
 45
0.0
1001
ACAD
1000
AcDbSavedByObjectVersion
1070
     0
  0
VISUALSTYLE
  5
1083
102
{ACAD_XDICTIONARY
360
142C
102
}
102
{ACAD_REACTORS
330
1082
102
}
330
1082
100
AcDbVisualStyle
  2
Flat
 70
     0
 71
     2
 72
     1
 73
     1
 90
        2
 40
-0.6
 41
30.0
 62
     5
 63
     7
 74
     0
 91
        0
 64
     7
 65
   257
 75
     1
175
     1
 42
1.0
 92
        8
 66
     7
 43
1.0
 76
     1
 77
     6
 78
     2
 67
     7
 79
     5
170
     0
171
     0
290
     0
174
     0
 93
       13
 44
0.0
173
     0
291
     1
 45
0.0
1001
ACAD
1000
AcDbSavedByObjectVersion
1070
     0
  0
VISUALSTYLE
  5
1084
102
{ACAD_XDICTIONARY
360
142E
102
}
102
{ACAD_REACTORS
330
1082
102
}
330
1082
100
AcDbVisualStyle
  2
FlatWithEdges
 70
     1
 71
     2
 72
     1
 73
     1
 90
        2
 40
-0.6
 41
30.0
 62
     5
 63
     7
 74
     1
 91
        0
 64
     7
 65
   257
 75
     1
175
     1
 42
1.0
 92
        0
 66
   257
 43
1.0
 76
     1
 77
     6
 78
     2
 67
     7
 79
     5
170
     0
171
     0
290
     0
174
     0
 93
       13
 44
0.0
173
     0
291
     1
 45
0.0
1001
ACAD
1000
AcDbSavedByObjectVersion
1070
     0
  0
VISUALSTYLE
  5
1085
102
{ACAD_XDICTIONARY
360
1430
102
}
102
{ACAD_REACTORS
330
1082
102
}
330
1082
100
AcDbVisualStyle
  2
Gouraud
 70
     2
 71
     2
 72
     2
 73
     1
 90
        2
 40
-0.6
 41
30.0
 62
     5
 63
     7
 74
     0
 91
        0
 64
     7
 65
   257
 75
     1
175
     1
 42
1.0
 92
        0
 66
     7
 43
1.0
 76
     1
 77
     6
 78
     2
 67
     7
 79
     5
170
     0
171
     0
290
     0
174
     0
 93
       13
 44
0.0
173
     0
291
     1
 45
0.0
1001
ACAD
1000
AcDbSavedByObjectVersion
1070
     0
  0
VISUALSTYLE
  5
1086
102
{ACAD_XDICTIONARY
360
1432
102
}
102
{ACAD_REACTORS
330
1082
102
}
330
1082
100
AcDbVisualStyle
  2
GouraudWithEdges
 70
     3
 71
     2
 72
     2
 73
     1
 90
        2
 40
-0.6
 41
30.0
 62
     5
 63
     7
 74
     1
 91
        0
 64
     7
 65
   257
 75
     1
175
     1
 42
1.0
 92
        0
 66
   257
 43
1.0
 76
     1
 77
     6
 78
     2
 67
     7
 79
     5
170
     0
171
     0
290
     0
174
     0
 93
       13
 44
0.0
173
     0
291
     1
 45
0.0
1001
ACAD
1000
AcDbSavedByObjectVersion
1070
     0
  0
VISUALSTYLE
  5
108A
102
{ACAD_XDICTIONARY
360
143A
102
}
102
{ACAD_REACTORS
330
1082
102
}
330
1082
100
AcDbVisualStyle
  2
Hidden
 70
     6
 71
     1
 72
     2
 73
     2
 90
        0
 40
-0.6
 41
-30.0
 62
     5
 63
     7
 74
     2
 91
        2
 64
     7
 65
   257
 75
     2
175
     1
 42
40.0
 92
        0
 66
   257
 43
1.0
 76
     1
 77
     6
 78
     2
 67
     7
 79
     3
170
     0
171
     0
290
     0
174
     0
 93
        1
 44
0.0
173
     0
291
     0
 45
0.0
1001
ACAD
1000
AcDbSavedByObjectVersion
1070
     0
  0
VISUALSTYLE
  5
1098
102
{ACAD_XDICTIONARY
360
1456
102
}
102
{ACAD_REACTORS
330
1082
102
}
330
1082
100
AcDbVisualStyle
  2
JitterOff
 70
    20
 71
     2
 72
     2
 73
     0
 90
        0
 40
-0.6
 41
-30.0
 62
     5
 63
     7
 74
     1
 91
        4
 64
     7
 65
   257
 75
     1
175
     1
 42
1.0
 92
       10
 66
     7
 43
1.0
 76
     1
 77
     6
 78
     2
 67
     7
 79
     5
170
     0
171
     0
290
     0
174
     0
 93
        1
 44
0.0
173
     0
291
     1
 45
0.0
1001
ACAD
1000
AcDbSavedByObjectVersion
1070
     0
  0
VISUALSTYLE
  5
1090
102
{ACAD_XDICTIONARY
360
1446
102
}
102
{ACAD_REACTORS
330
1082
102
}
330
1082
100
AcDbVisualStyle
  2
Linepattern
 70
    14
 71
     2
 72
     2
 73
     0
 90
        0
 40
-0.6
 41
-30.0
 62
     5
 63
     7
 74
     1
 91
        4
 64
     7
 65
   257
 75
     7
175
     7
 42
1.0
 92
        8
 66
     7
 43
1.0
 76
     1
 77
     6
 78
     2
 67
     7
 79
     5
170
     0
171
     0
290
     0
174
     0
 93
        1
 44
0.0
173
     0
291
     1
 45
0.0
1001
ACAD
1000
AcDbSavedByObjectVersion
1070
     0
  0
VISUALSTYLE
  5
1099
102
{ACAD_XDICTIONARY
360
1458
102
}
102
{ACAD_REACTORS
330
1082
102
}
330
1082
100
AcDbVisualStyle
  2
OverhangOff
 70
    21
 71
     2
 72
     2
 73
     0
 90
        0
 40
-0.6
 41
-30.0
 62
     5
 63
     7
 74
     1
 91
        4
 64
     7
 65
   257
 75
     1
175
     1
 42
1.0
 92
        9
 66
     7
 43
1.0
 76
     1
 77
     6
 78
     2
 67
     7
 79
     5
170
     0
171
     0
290
     0
174
     0
 93
        1
 44
0.0
173
     0
291
     1
 45
0.0
1001
ACAD
1000
AcDbSavedByObjectVersion
1070
     0
  0
VISUALSTYLE
  5
108C
102
{ACAD_XDICTIONARY
360
143E
102
}
102
{ACAD_REACTORS
330
1082
102
}
330
1082
100
AcDbVisualStyle
  2
Realistic
 70
     8
 71
     2
 72
     3
 73
     0
 90
        2
 40
-0.6
 41
30.0
 62
     5
 63
     7
 74
     0
 91
        0
 64
     7
 65
   257
 75
     1
175
     1
 42
1.0
 92
        8
 66
   257
 43
1.0
 76
     1
 77
     6
 78
     2
 67
     7
 79
     3
170
     0
171
     0
290
     0
174
     0
 93
       13
 44
0.0
173
     0
291
     0
 45
0.0
1001
ACAD
1000
AcDbSavedByObjectVersion
1070
     0
  0
VISUALSTYLE
  5
1097
102
{ACAD_XDICTIONARY
360
1454
102
}
102
{ACAD_REACTORS
330
1082
102
}
330
1082
100
AcDbVisualStyle
  2
Shaded
 70
    27
 71
     2
 72
     2
 73
     1
 90
        2
 40
-0.6
 41
30.0
 62
     5
 63
     7
 74
     0
 91
        4
 64
     7
 65
   257
 75
     1
175
     1
 42
1.0
 92
        8
 66
   257
 43
1.0
 76
     1
 77
     6
 78
     2
 67
     8
 79
     3
170
     0
171
     0
290
     0
174
     0
 93
        5
 44
0.0
173
     0
291
     0
 45
0.0
1001
ACAD
1000
AcDbSavedByObjectVersion
1070
     0
  0
VISUALSTYLE
  5
1096
102
{ACAD_XDICTIONARY
360
1452
102
}
102
{ACAD_REACTORS
330
1082
102
}
330
1082
100
AcDbVisualStyle
  2
Shaded with edges
 70
    26
 71
     2
 72
     2
 73
     1
 90
        2
 40
-0.6
 41
30.0
 62
     5
 63
     7
 74
     1
 91
       10
 64
     7
 65
   257
 75
     2
175
     1
 42
1.0
 92
        8
 66
   257
 43
1.0
 76
     1
 77
     6
 78
     2
 67
     7
 79
     3
170
     0
171
     0
290
     0
174
     0
 93
        5
 44
0.0
173
     0
291
     0
 45
0.0
1001
ACAD
1000
AcDbSavedByObjectVersion
1070
     0
  0
VISUALSTYLE
  5
1093
102
{ACAD_XDICTIONARY
360
144C
102
}
102
{ACAD_REACTORS
330
1082
102
}
330
1082
100
AcDbVisualStyle
  2
Shades of Gray
 70
    23
 71
     2
 72
     2
 73
     3
 90
        0
 40
-0.6
 41
-30.0
 62
     5
 63
     7
 74
     2
 91
        2
 64
     7
 65
     7
 75
     1
175
     1
 42
40.0
 92
        8
 66
     7
 43
1.0
 76
     1
 77
     6
 78
     2
 67
     7
 79
     3
170
     0
171
     0
290
     0
174
     0
 93
        1
 44
0.0
173
     0
291
     0
 45
0.0
1001
ACAD
1000
AcDbSavedByObjectVersion
1070
     0
  0
VISUALSTYLE
  5
1094
102
{ACAD_XDICTIONARY
360
144E
102
}
102
{ACAD_REACTORS
330
1082
102
}
330
1082
100
AcDbVisualStyle
  2
Sketchy
 70
    24
 71
     1
 72
     2
 73
     2
 90
        0
 40
-0.6
 41
-30.0
 62
     5
 63
     7
 74
     2
 91
        2
 64
     7
 65
     7
 75
     1
175
     1
 42
40.0
 92
       11
 66
     7
 43
1.0
 76
     1
 77
     6
 78
     2
 67
     7
 79
     6
170
     0
171
     0
290
     0
174
     0
 93
        1
 44
0.0
173
     0
291
     0
 45
0.0
1001
ACAD
1000
AcDbSavedByObjectVersion
1070
     0
  0
VISUALSTYLE
  5
108F
102
{ACAD_XDICTIONARY
360
1444
102
}
102
{ACAD_REACTORS
330
1082
102
}
330
1082
100
AcDbVisualStyle
  2
Thicken
 70
    13
 71
     2
 72
     2
 73
     0
 90
        0
 40
-0.6
 41
-30.0
 62
     5
 63
     7
 74
     1
 91
        4
 64
     7
 65
   257
 75
     1
175
     1
 42
1.0
 92
       12
 66
     7
 43
1.0
 76
     1
 77
     6
 78
     2
 67
     7
 79
     5
170
     0
171
     0
290
     0
174
     0
 93
        1
 44
0.0
173
     0
291
     1
 45
0.0
1001
ACAD
1000
AcDbSavedByObjectVersion
1070
     0
  0
VISUALSTYLE
  5
1089
102
{ACAD_XDICTIONARY
360
1438
102
}
102
{ACAD_REACTORS
330
1082
102
}
330
1082
100
AcDbVisualStyle
  2
Wireframe
 70
     5
 71
     0
 72
     2
 73
     0
 90
        0
 40
-0.6
 41
-30.0
 62
     5
 63
     7
 74
     1
 91
        4
 64
     7
 65
   257
 75
     1
175
     1
 42
1.0
 92
        0
 66
   257
 43
1.0
 76
     1
 77
     6
 78
     2
 67
     7
 79
     3
170
     0
171
     0
290
     0
174
     0
 93
        1
 44
0.0
173
     0
291
     0
 45
0.0
1001
ACAD
1000
AcDbSavedByObjectVersion
1070
     0
  0
VISUALSTYLE
  5
1095
102
{ACAD_XDICTIONARY
360
1450
102
}
102
{ACAD_REACTORS
330
1082
102
}
330
1082
100
AcDbVisualStyle
  2
X-Ray
 70
    25
 71
     2
 72
     2
 73
     1
 90
        1
 40
0.5
 41
-30.0
 62
     5
 63
     7
 74
     1
 91
        0
 64
     7
 65
   257
 75
     1
175
     1
 42
1.0
 92
        8
 66
     7
 43
1.0
 76
     1
 77
     6
 78
     2
 67
     7
 79
     3
170
     0
171
     0
290
     0
174
     0
 93
       13
 44
0.0
173
     0
291
     0
 45
0.0
1001
ACAD
1000
AcDbSavedByObjectVersion
1070
     0
  0
DICTIONARYVAR
  5
10C1
102
{ACAD_REACTORS
330
3D
102
}
330
3D
100
DictionaryVariables
280
     0
  1
1:1
  0
DICTIONARYVAR
  5
10BD
102
{ACAD_REACTORS
330
3D
102
}
330
3D
100
DictionaryVariables
280
     0
  1
STANDARD
  0
DICTIONARYVAR
  5
1049
102
{ACAD_REACTORS
330
3D
102
}
330
3D
100
DictionaryVariables
280
     0
  1
STANDARD
  0
DICTIONARYVAR
  5
10BE
102
{ACAD_REACTORS
330
3D
102
}
330
3D
100
DictionaryVariables
280
     0
  1
Metric50
  0
DICTIONARYVAR
  5
10BF
102
{ACAD_REACTORS
330
3D
102
}
330
3D
100
DictionaryVariables
280
     0
  1
Metric50
  0
DICTIONARYVAR
  5
3F
102
{ACAD_REACTORS
330
3D
102
}
330
3D
100
DictionaryVariables
280
     0
  1
2
  0
DICTIONARYVAR
  5
3E
102
{ACAD_REACTORS
330
3D
102
}
330
3D
100
DictionaryVariables
280
     0
  1
1
  0
DICTIONARYVAR
  5
141A
102
{ACAD_REACTORS
330
3D
102
}
330
3D
100
DictionaryVariables
280
     0
  1
0
  0
DICTIONARYVAR
  5
10C3
102
{ACAD_REACTORS
330
3D
102
}
330
3D
100
DictionaryVariables
280
     0
  1
1
  0
DICTIONARYVAR
  5
10C4
102
{ACAD_REACTORS
330
3D
102
}
330
3D
100
DictionaryVariables
280
     0
  1
15
  0
DICTIONARYVAR
  5
10C2
102
{ACAD_REACTORS
330
3D
102
}
330
3D
100
DictionaryVariables
280
     0
  1
0
  0
DICTIONARYVAR
  5
10C0
102
{ACAD_REACTORS
330
3D
102
}
330
3D
100
DictionaryVariables
280
     0
  1
0
  0
DICTIONARYVAR
  5
1419
102
{ACAD_REACTORS
330
3D
102
}
330
3D
100
DictionaryVariables
280
     0
  1
127
  0
DICTIONARYVAR
  5
141B
102
{ACAD_REACTORS
330
3D
102
}
330
3D
100
DictionaryVariables
280
     0
  1
0
  0
XRECORD
  5
1067
102
{ACAD_REACTORS
330
1066
102
}
330
1066
100
AcDbXrecord
280
     1
  0
DICTIONARY
  5
1422
330
1E
100
AcDbDictionary
280
     1
281
     1
  3
ACAD_XREC_ROUNDTRIP
360
1423
  0
DICTIONARY
  5
1426
330
26
100
AcDbDictionary
280
     1
281
     1
  3
ACAD_XREC_ROUNDTRIP
360
1427
  0
DICTIONARY
  5
1424
330
22
100
AcDbDictionary
280
     1
281
     1
  3
ACAD_XREC_ROUNDTRIP
360
1425
  0
DICTIONARY
  5
1073
330
1072
100
AcDbDictionary
280
     1
281
     1
  3
ACAD_XREC_ROUNDTRIP
360
142A
  3
BUMPTILE
360
1075
  3
DIFFUSETILE
360
1074
  3
OPACITYTILE
360
1078
  3
REFLECTIONTILE
360
1077
  3
REFRACTIONTILE
360
1079
  3
SPECULARTILE
360
1076
  0
DICTIONARY
  5
106B
330
106A
100
AcDbDictionary
280
     1
281
     1
  3
ACAD_XREC_ROUNDTRIP
360
1429
  3
BUMPTILE
360
106D
  3
DIFFUSETILE
360
106C
  3
OPACITYTILE
360
1070
  3
REFLECTIONTILE
360
106F
  3
REFRACTIONTILE
360
1071
  3
SPECULARTILE
360
106E
  0
DICTIONARY
  5
107B
330
107A
100
AcDbDictionary
280
     1
281
     1
  3
ACAD_XREC_ROUNDTRIP
360
142B
  3
BUMPTILE
360
107D
  3
DIFFUSETILE
360
107C
  3
OPACITYTILE
360
1080
  3
REFLECTIONTILE
360
107F
  3
REFRACTIONTILE
360
1081
  3
SPECULARTILE
360
107E
  0
DICTIONARY
  5
145D
330
10AE
100
AcDbDictionary
280
     1
281
     1
  3
ACAD_XREC_ROUNDTRIP
360
145E
  0
DICTIONARY
  5
141C
330
EE8
100
AcDbDictionary
280
     1
281
     1
  3
ACAD_ROUNDTRIP_2008_TABLESTYLE_CELLSTYLEMAP
360
141D
  3
ACAD_XREC_ROUNDTRIP
360
1428
  0
DICTIONARY
  5
1436
330
1088
100
AcDbDictionary
280
     1
281
     1
  3
ACAD_XREC_ROUNDTRIP
360
1437
  0
DICTIONARY
  5
1434
330
1087
100
AcDbDictionary
280
     1
281
     1
  3
ACAD_XREC_ROUNDTRIP
360
1435
  0
DICTIONARY
  5
1442
330
108E
100
AcDbDictionary
280
     1
281
     1
  3
ACAD_XREC_ROUNDTRIP
360
1443
  0
DICTIONARY
  5
144A
330
1092
100
AcDbDictionary
280
     1
281
     1
  3
ACAD_XREC_ROUNDTRIP
360
144B
  0
DICTIONARY
  5
143C
330
108B
100
AcDbDictionary
280
     1
281
     1
  3
ACAD_XREC_ROUNDTRIP
360
143D
  0
DICTIONARY
  5
1440
330
108D
100
AcDbDictionary
280
     1
281
     1
  3
ACAD_XREC_ROUNDTRIP
360
1441
  0
DICTIONARY
  5
145A
330
109A
100
AcDbDictionary
280
     1
281
     1
  3
ACAD_XREC_ROUNDTRIP
360
145B
  0
DICTIONARY
  5
1448
330
1091
100
AcDbDictionary
280
     1
281
     1
  3
ACAD_XREC_ROUNDTRIP
360
1449
  0
DICTIONARY
  5
142C
330
1083
100
AcDbDictionary
280
     1
281
     1
  3
ACAD_XREC_ROUNDTRIP
360
142D
  0
DICTIONARY
  5
142E
330
1084
100
AcDbDictionary
280
     1
281
     1
  3
ACAD_XREC_ROUNDTRIP
360
142F
  0
DICTIONARY
  5
1430
330
1085
100
AcDbDictionary
280
     1
281
     1
  3
ACAD_XREC_ROUNDTRIP
360
1431
  0
DICTIONARY
  5
1432
330
1086
100
AcDbDictionary
280
     1
281
     1
  3
ACAD_XREC_ROUNDTRIP
360
1433
  0
DICTIONARY
  5
143A
330
108A
100
AcDbDictionary
280
     1
281
     1
  3
ACAD_XREC_ROUNDTRIP
360
143B
  0
DICTIONARY
  5
1456
330
1098
100
AcDbDictionary
280
     1
281
     1
  3
ACAD_XREC_ROUNDTRIP
360
1457
  0
DICTIONARY
  5
1446
330
1090
100
AcDbDictionary
280
     1
281
     1
  3
ACAD_XREC_ROUNDTRIP
360
1447
  0
DICTIONARY
  5
1458
330
1099
100
AcDbDictionary
280
     1
281
     1
  3
ACAD_XREC_ROUNDTRIP
360
1459
  0
DICTIONARY
  5
143E
330
108C
100
AcDbDictionary
280
     1
281
     1
  3
ACAD_XREC_ROUNDTRIP
360
143F
  0
DICTIONARY
  5
1454
330
1097
100
AcDbDictionary
280
     1
281
     1
  3
ACAD_XREC_ROUNDTRIP
360
1455
  0
DICTIONARY
  5
1452
330
1096
100
AcDbDictionary
280
     1
281
     1
  3
ACAD_XREC_ROUNDTRIP
360
1453
  0
DICTIONARY
  5
144C
330
1093
100
AcDbDictionary
280
     1
281
     1
  3
ACAD_XREC_ROUNDTRIP
360
144D
  0
DICTIONARY
  5
144E
330
1094
100
AcDbDictionary
280
     1
281
     1
  3
ACAD_XREC_ROUNDTRIP
360
144F
  0
DICTIONARY
  5
1444
330
108F
100
AcDbDictionary
280
     1
281
     1
  3
ACAD_XREC_ROUNDTRIP
360
1445
  0
DICTIONARY
  5
1438
330
1089
100
AcDbDictionary
280
     1
281
     1
  3
ACAD_XREC_ROUNDTRIP
360
1439
  0
DICTIONARY
  5
1450
330
1095
100
AcDbDictionary
280
     1
281
     1
  3
ACAD_XREC_ROUNDTRIP
360
1451
  0
XRECORD
  5
1423
102
{ACAD_REACTORS
330
1422
102
}
330
1422
100
AcDbXrecord
280
     1
102
SHADEPLOT
 70
     0
102
SHADEPLOTRESLEVEL
 70
     2
102
SHADEPLOTCUSTOMDPI
 70
   300
  0
XRECORD
  5
1427
102
{ACAD_REACTORS
330
1426
102
}
330
1426
100
AcDbXrecord
280
     1
102
SHADEPLOT
 70
     0
102
SHADEPLOTRESLEVEL
 70
     2
102
SHADEPLOTCUSTOMDPI
 70
   300
  0
XRECORD
  5
1425
102
{ACAD_REACTORS
330
1424
102
}
330
1424
100
AcDbXrecord
280
     1
102
SHADEPLOT
 70
     0
102
SHADEPLOTRESLEVEL
 70
     2
102
SHADEPLOTCUSTOMDPI
 70
   300
  0
XRECORD
  5
142A
102
{ACAD_REACTORS
330
1073
102
}
330
1073
100
AcDbXrecord
280
     1
102
MATERIAL
148
0.0
149
0.0
149
0.0
 93
        0
 94
      127
282
     0
 72
     0
 77
     0
171
     0
175
     0
179
     0
273
     0
  0
XRECORD
  5
1075
102
{ACAD_REACTORS
330
1073
102
}
330
1073
100
AcDbXrecord
280
     1
270
     1
271
     1
  0
XRECORD
  5
1074
102
{ACAD_REACTORS
330
1073
102
}
330
1073
100
AcDbXrecord
280
     1
270
     1
271
     1
  0
XRECORD
  5
1078
102
{ACAD_REACTORS
330
1073
102
}
330
1073
100
AcDbXrecord
280
     1
270
     1
271
     1
  0
XRECORD
  5
1077
102
{ACAD_REACTORS
330
1073
102
}
330
1073
100
AcDbXrecord
280
     1
270
     1
271
     1
  0
XRECORD
  5
1079
102
{ACAD_REACTORS
330
1073
102
}
330
1073
100
AcDbXrecord
280
     1
270
     1
271
     1
  0
XRECORD
  5
1076
102
{ACAD_REACTORS
330
1073
102
}
330
1073
100
AcDbXrecord
280
     1
270
     1
271
     1
  0
XRECORD
  5
1429
102
{ACAD_REACTORS
330
106B
102
}
330
106B
100
AcDbXrecord
280
     1
102
MATERIAL
148
0.0
149
0.0
149
0.0
 93
        0
 94
      127
282
     0
 72
     0
 77
     0
171
     0
175
     0
179
     0
273
     0
  0
XRECORD
  5
106D
102
{ACAD_REACTORS
330
106B
102
}
330
106B
100
AcDbXrecord
280
     1
270
     1
271
     1
  0
XRECORD
  5
106C
102
{ACAD_REACTORS
330
106B
102
}
330
106B
100
AcDbXrecord
280
     1
270
     1
271
     1
  0
XRECORD
  5
1070
102
{ACAD_REACTORS
330
106B
102
}
330
106B
100
AcDbXrecord
280
     1
270
     1
271
     1
  0
XRECORD
  5
106F
102
{ACAD_REACTORS
330
106B
102
}
330
106B
100
AcDbXrecord
280
     1
270
     1
271
     1
  0
XRECORD
  5
1071
102
{ACAD_REACTORS
330
106B
102
}
330
106B
100
AcDbXrecord
280
     1
270
     1
271
     1
  0
XRECORD
  5
106E
102
{ACAD_REACTORS
330
106B
102
}
330
106B
100
AcDbXrecord
280
     1
270
     1
271
     1
  0
XRECORD
  5
142B
102
{ACAD_REACTORS
330
107B
102
}
330
107B
100
AcDbXrecord
280
     1
102
MATERIAL
148
0.0
149
0.0
149
0.0
 93
        0
 94
      127
282
     0
 72
     0
 77
     0
171
     0
175
     0
179
     0
273
     0
  0
XRECORD
  5
107D
102
{ACAD_REACTORS
330
107B
102
}
330
107B
100
AcDbXrecord
280
     1
270
     1
271
     1
  0
XRECORD
  5
107C
102
{ACAD_REACTORS
330
107B
102
}
330
107B
100
AcDbXrecord
280
     1
270
     1
271
     1
  0
XRECORD
  5
1080
102
{ACAD_REACTORS
330
107B
102
}
330
107B
100
AcDbXrecord
280
     1
270
     1
271
     1
  0
XRECORD
  5
107F
102
{ACAD_REACTORS
330
107B
102
}
330
107B
100
AcDbXrecord
280
     1
270
     1
271
     1
  0
XRECORD
  5
1081
102
{ACAD_REACTORS
330
107B
102
}
330
107B
100
AcDbXrecord
280
     1
270
     1
271
     1
  0
XRECORD
  5
107E
102
{ACAD_REACTORS
330
107B
102
}
330
107B
100
AcDbXrecord
280
     1
270
     1
271
     1
  0
XRECORD
  5
145E
102
{ACAD_REACTORS
330
145D
102
}
330
145D
100
AcDbXrecord
280
     1
102
ACAD_ROUNDTRIP_2012_MLEADER_STYLE
298
     1
  0
CELLSTYLEMAP
  5
141D
102
{ACAD_REACTORS
330
141C
102
}
330
141C
100
AcDbCellStyleMap
 90
        3
300
CELLSTYLE
  1
TABLEFORMAT_BEGIN
 90
        5
170
     1
 91
        0
 92
    32768
 62
   257
 93
        1
300
CONTENTFORMAT
  1
CONTENTFORMAT_BEGIN
 90
        0
 91
        0
 92
        4
 93
        0
300

 40
0.0
140
1.0
 94
        5
 62
     0
340
11
144
6.0
309
CONTENTFORMAT_END
171
     1
301
MARGIN
  1
CELLMARGIN_BEGIN
 40
1.5
 40
1.5
 40
1.5
 40
1.5
 40
0.18
 40
0.18
309
CELLMARGIN_END
 94
        6
 95
        1
302
GRIDFORMAT
  1
GRIDFORMAT_BEGIN
 90
        0
 91
        1
 62
     0
 92
       -2
340
0
 93
        0
 40
0.045
309
GRIDFORMAT_END
 95
        2
302
GRIDFORMAT
  1
GRIDFORMAT_BEGIN
 90
        0
 91
        1
 62
     0
 92
       -2
340
0
 93
        0
 40
0.045
309
GRIDFORMAT_END
 95
        4
302
GRIDFORMAT
  1
GRIDFORMAT_BEGIN
 90
        0
 91
        1
 62
     0
 92
       -2
340
0
 93
        0
 40
0.045
309
GRIDFORMAT_END
 95
        8
302
GRIDFORMAT
  1
GRIDFORMAT_BEGIN
 90
        0
 91
        1
 62
     0
 92
       -2
340
0
 93
        0
 40
0.045
309
GRIDFORMAT_END
 95
       16
302
GRIDFORMAT
  1
GRIDFORMAT_BEGIN
 90
        0
 91
        1
 62
     0
 92
       -2
340
0
 93
        0
 40
0.045
309
GRIDFORMAT_END
 95
       32
302
GRIDFORMAT
  1
GRIDFORMAT_BEGIN
 90
        0
 91
        1
 62
     0
 92
       -2
340
0
 93
        0
 40
0.045
309
GRIDFORMAT_END
309
TABLEFORMAT_END
  1
CELLSTYLE_BEGIN
 90
        1
 91
        1
300
_TITLE
309
CELLSTYLE_END
300
CELLSTYLE
  1
TABLEFORMAT_BEGIN
 90
        5
170
     1
 91
        0
 92
        0
 62
   257
 93
        1
300
CONTENTFORMAT
  1
CONTENTFORMAT_BEGIN
 90
        0
 91
        0
 92
        4
 93
        0
300

 40
0.0
140
1.0
 94
        5
 62
     0
340
11
144
4.5
309
CONTENTFORMAT_END
171
     1
301
MARGIN
  1
CELLMARGIN_BEGIN
 40
1.5
 40
1.5
 40
1.5
 40
1.5
 40
0.18
 40
0.18
309
CELLMARGIN_END
 94
        6
 95
        1
302
GRIDFORMAT
  1
GRIDFORMAT_BEGIN
 90
        0
 91
        1
 62
     0
 92
       -2
340
0
 93
        0
 40
0.045
309
GRIDFORMAT_END
 95
        2
302
GRIDFORMAT
  1
GRIDFORMAT_BEGIN
 90
        0
 91
        1
 62
     0
 92
       -2
340
0
 93
        0
 40
0.045
309
GRIDFORMAT_END
 95
        4
302
GRIDFORMAT
  1
GRIDFORMAT_BEGIN
 90
        0
 91
        1
 62
     0
 92
       -2
340
0
 93
        0
 40
0.045
309
GRIDFORMAT_END
 95
        8
302
GRIDFORMAT
  1
GRIDFORMAT_BEGIN
 90
        0
 91
        1
 62
     0
 92
       -2
340
0
 93
        0
 40
0.045
309
GRIDFORMAT_END
 95
       16
302
GRIDFORMAT
  1
GRIDFORMAT_BEGIN
 90
        0
 91
        1
 62
     0
 92
       -2
340
0
 93
        0
 40
0.045
309
GRIDFORMAT_END
 95
       32
302
GRIDFORMAT
  1
GRIDFORMAT_BEGIN
 90
        0
 91
        1
 62
     0
 92
       -2
340
0
 93
        0
 40
0.045
309
GRIDFORMAT_END
309
TABLEFORMAT_END
  1
CELLSTYLE_BEGIN
 90
        2
 91
        1
300
_HEADER
309
CELLSTYLE_END
300
CELLSTYLE
  1
TABLEFORMAT_BEGIN
 90
        5
170
     1
 91
        0
 92
        0
 62
   257
 93
        1
300
CONTENTFORMAT
  1
CONTENTFORMAT_BEGIN
 90
        0
 91
        0
 92
        4
 93
        0
300

 40
0.0
140
1.0
 94
        2
 62
     0
340
11
144
4.5
309
CONTENTFORMAT_END
171
     1
301
MARGIN
  1
CELLMARGIN_BEGIN
 40
1.5
 40
1.5
 40
1.5
 40
1.5
 40
0.18
 40
0.18
309
CELLMARGIN_END
 94
        6
 95
        1
302
GRIDFORMAT
  1
GRIDFORMAT_BEGIN
 90
        0
 91
        1
 62
     0
 92
       -2
340
0
 93
        0
 40
0.045
309
GRIDFORMAT_END
 95
        2
302
GRIDFORMAT
  1
GRIDFORMAT_BEGIN
 90
        0
 91
        1
 62
     0
 92
       -2
340
0
 93
        0
 40
0.045
309
GRIDFORMAT_END
 95
        4
302
GRIDFORMAT
  1
GRIDFORMAT_BEGIN
 90
        0
 91
        1
 62
     0
 92
       -2
340
0
 93
        0
 40
0.045
309
GRIDFORMAT_END
 95
        8
302
GRIDFORMAT
  1
GRIDFORMAT_BEGIN
 90
        0
 91
        1
 62
     0
 92
       -2
340
0
 93
        0
 40
0.045
309
GRIDFORMAT_END
 95
       16
302
GRIDFORMAT
  1
GRIDFORMAT_BEGIN
 90
        0
 91
        1
 62
     0
 92
       -2
340
0
 93
        0
 40
0.045
309
GRIDFORMAT_END
 95
       32
302
GRIDFORMAT
  1
GRIDFORMAT_BEGIN
 90
        0
 91
        1
 62
     0
 92
       -2
340
0
 93
        0
 40
0.045
309
GRIDFORMAT_END
309
TABLEFORMAT_END
  1
CELLSTYLE_BEGIN
 90
        3
 91
        2
300
_DATA
309
CELLSTYLE_END
  0
XRECORD
  5
1428
102
{ACAD_REACTORS
330
141C
102
}
330
141C
100
AcDbXrecord
280
     1
102
ACAD_ROUNDTRIP_PRE2007_TABLESTYLE
 90
        4
 91
        0
  1

 92
        4
 93
        0
  2

 94
        4
 95
        0
  3

  0
XRECORD
  5
1437
102
{ACAD_REACTORS
330
1436
102
}
330
1436
100
AcDbXrecord
280
     1
102
RTVSPost2010Prop28
280
     1
102
RTVSPost2010PropOp28
 70
     1
102
RTVSPost2010Prop29
280
     1
102
RTVSPost2010PropOp29
 70
     1
102
RTVSPost2010Prop30
280
     0
102
RTVSPost2010PropOp30
 70
     1
102
RTVSPost2010Prop31
280
     0
102
RTVSPost2010PropOp31
 70
     1
102
RTVSPost2010Prop32
280
     0
102
RTVSPost2010PropOp32
 70
     1
102
RTVSPost2010Prop33
280
     0
102
RTVSPost2010PropOp33
 70
     1
102
RTVSPost2010Prop34
280
     0
102
RTVSPost2010PropOp34
 70
     1
102
RTVSPost2010Prop35
280
     0
102
RTVSPost2010PropOp35
 70
     1
102
RTVSPost2010Prop36
280
     0
102
RTVSPost2010PropOp36
 70
     1
102
RTVSPost2010Prop37
 90
       50
102
RTVSPost2010PropOp37
 70
     1
102
RTVSPost2010Prop38
140
0.0
102
RTVSPost2010PropOp38
 70
     1
102
RTVSPost2010Prop39
140
1.0
102
RTVSPost2010PropOp39
 70
     1
102
RTVSPost2010Prop40
 90
        0
102
RTVSPost2010PropOp40
 70
     1
102
RTVSPost2010Prop41ColorIndex
 90
       18
102
RTVSPost2010Prop41ColorRGB
 90
        0
102
RTVSPost2010PropOp41
 70
     1
102
RTVSPost2010Prop42
 90
       50
102
RTVSPost2010PropOp42
 70
     1
102
RTVSPost2010Prop43
 90
        3
102
RTVSPost2010PropOp43
 70
     1
102
RTVSPost2010Prop44ColorIndex
 90
        5
102
RTVSPost2010Prop44ColorRGB
 90
      255
102
RTVSPost2010PropOp44
 70
     1
102
RTVSPost2010Prop45
280
     0
102
RTVSPost2010PropOp45
 70
     1
102
RTVSPost2010Prop46
 90
       50
102
RTVSPost2010PropOp46
 70
     1
102
RTVSPost2010Prop47
 90
       50
102
RTVSPost2010PropOp47
 70
     1
102
RTVSPost2010Prop48
 90
       50
102
RTVSPost2010PropOp48
 70
     1
102
RTVSPost2010Prop49
280
     0
102
RTVSPost2010PropOp49
 70
     1
102
RTVSPost2010Prop50
 90
       50
102
RTVSPost2010PropOp50
 70
     1
102
RTVSPost2010Prop51ColorIndex
 90
      256
102
RTVSPost2010Prop51ColorRGB
 90
-16777216
102
RTVSPost2010PropOp51
 70
     0
102
RTVSPost2010Prop52
140
1.0
102
RTVSPost2010PropOp52
 70
     0
102
RTVSPost2010Prop53
 90
        2
102
RTVSPost2010PropOp53
 70
     1
102
RTVSPost2010Prop54
  1
strokes_ogs.tif
102
RTVSPost2010PropOp54
 70
     1
102
RTVSPost2010Prop55
280
     0
102
RTVSPost2010PropOp55
 70
     1
102
RTVSPost2010Prop56
140
1.0
102
RTVSPost2010PropOp56
 70
     1
102
RTVSPost2010Prop57
140
1.0
102
RTVSPost2010PropOp57
 70
     1
102
RTVSPropertyOp0
 70
     1
102
RTVSPropertyOp1
 70
     1
102
RTVSPropertyOp2
 70
     1
102
RTVSPropertyOp3
 70
     1
102
RTVSPropertyOp4
 70
     1
102
RTVSPropertyOp5
 70
     1
102
RTVSPropertyOp6
 70
     1
102
RTVSPropertyOp7
 70
     1
102
RTVSPropertyOp8
 70
     1
102
RTVSPropertyOp9
 70
     1
102
RTVSPropertyOp10
 70
     1
102
RTVSPropertyOp11
 70
     1
102
RTVSPropertyOp12
 70
     1
102
RTVSPropertyOp13
 70
     1
102
RTVSPropertyOp14
 70
     1
102
RTVSPropertyOp15
 70
     1
102
RTVSPropertyOp16
 70
     1
102
RTVSPropertyOp17
 70
     1
102
RTVSPropertyOp18
 70
     1
102
RTVSPropertyOp19
 70
     1
102
RTVSPropertyOp20
 70
     1
102
RTVSPropertyOp21
 70
     1
102
RTVSPropertyOp22
 70
     1
102
RTVSPropertyOp23
 70
     1
102
RTVSPropertyOp24
 70
     1
102
RTVSPropertyOp25
 70
     1
102
RTVSPropertyOp26
 70
     1
102
RTVSPropertyOp27
 70
     1
102
RTVSPropertyOp28
 70
     1
102
RTVSPropertyOp29
 70
     1
102
RTVSPropertyOp30
 70
     1
102
RTVSPropertyOp31
 70
     1
102
RTVSPropertyOp32
 70
     1
102
RTVSPropertyOp33
 70
     1
102
RTVSPropertyOp34
 70
     1
102
RTVSPropertyOp35
 70
     1
102
RTVSPropertyOp36
 70
     1
102
RTVSPropertyOp37
 70
     1
102
RTVSPropertyOp38
 70
     1
102
RTVSPropertyOp39
 70
     1
102
RTVSPropertyOp40
 70
     1
102
RTVSPropertyOp41
 70
     1
102
RTVSPropertyOp42
 70
     1
102
RTVSPropertyOp43
 70
     1
102
RTVSPropertyOp44
 70
     1
102
RTVSPropertyOp45
 70
     1
102
RTVSPropertyOp46
 70
     1
102
RTVSPropertyOp47
 70
     1
102
RTVSPropertyOp48
 70
     1
102
RTVSPropertyOp49
 70
     1
102
RTVSPropertyOp50
 70
     1
102
RTVSPropertyOp51
 70
     0
102
RTVSPropertyOp52
 70
     0
102
RTVSPropertyOp53
 70
     1
102
RTVSPropertyOp54
 70
     1
102
RTVSPropertyOp55
 70
     1
102
RTVSPropertyOp56
 70
     1
102
RTVSPropertyOp57
 70
     1
102
RTVSPropertyOp58
 70
     1
102
RTVSPropertyOp59
 70
     1
102
RTVSPropertyOp60
 70
     1
102
RTVSPropertyOp61
 70
     1
102
RTVSPropertyOp62
 70
     1
  0
XRECORD
  5
1435
102
{ACAD_REACTORS
330
1434
102
}
330
1434
100
AcDbXrecord
280
     1
102
RTVSPost2010Prop28
280
     0
102
RTVSPost2010PropOp28
 70
     1
102
RTVSPost2010Prop29
280
     1
102
RTVSPost2010PropOp29
 70
     1
102
RTVSPost2010Prop30
280
     1
102
RTVSPost2010PropOp30
 70
     1
102
RTVSPost2010Prop31
280
     0
102
RTVSPost2010PropOp31
 70
     1
102
RTVSPost2010Prop32
280
     0
102
RTVSPost2010PropOp32
 70
     1
102
RTVSPost2010Prop33
280
     0
102
RTVSPost2010PropOp33
 70
     1
102
RTVSPost2010Prop34
280
     0
102
RTVSPost2010PropOp34
 70
     1
102
RTVSPost2010Prop35
280
     0
102
RTVSPost2010PropOp35
 70
     1
102
RTVSPost2010Prop36
280
     0
102
RTVSPost2010PropOp36
 70
     1
102
RTVSPost2010Prop37
 90
       50
102
RTVSPost2010PropOp37
 70
     1
102
RTVSPost2010Prop38
140
0.0
102
RTVSPost2010PropOp38
 70
     1
102
RTVSPost2010Prop39
140
1.0
102
RTVSPost2010PropOp39
 70
     1
102
RTVSPost2010Prop40
 90
        0
102
RTVSPost2010PropOp40
 70
     1
102
RTVSPost2010Prop41ColorIndex
 90
       18
102
RTVSPost2010Prop41ColorRGB
 90
        0
102
RTVSPost2010PropOp41
 70
     1
102
RTVSPost2010Prop42
 90
       50
102
RTVSPost2010PropOp42
 70
     1
102
RTVSPost2010Prop43
 90
        3
102
RTVSPost2010PropOp43
 70
     1
102
RTVSPost2010Prop44ColorIndex
 90
        5
102
RTVSPost2010Prop44ColorRGB
 90
      255
102
RTVSPost2010PropOp44
 70
     1
102
RTVSPost2010Prop45
280
     0
102
RTVSPost2010PropOp45
 70
     1
102
RTVSPost2010Prop46
 90
       50
102
RTVSPost2010PropOp46
 70
     1
102
RTVSPost2010Prop47
 90
       50
102
RTVSPost2010PropOp47
 70
     1
102
RTVSPost2010Prop48
 90
       50
102
RTVSPost2010PropOp48
 70
     1
102
RTVSPost2010Prop49
280
     0
102
RTVSPost2010PropOp49
 70
     1
102
RTVSPost2010Prop50
 90
       50
102
RTVSPost2010PropOp50
 70
     1
102
RTVSPost2010Prop51ColorIndex
 90
      256
102
RTVSPost2010Prop51ColorRGB
 90
-16777216
102
RTVSPost2010PropOp51
 70
     0
102
RTVSPost2010Prop52
140
1.0
102
RTVSPost2010PropOp52
 70
     0
102
RTVSPost2010Prop53
 90
        2
102
RTVSPost2010PropOp53
 70
     1
102
RTVSPost2010Prop54
  1
strokes_ogs.tif
102
RTVSPost2010PropOp54
 70
     1
102
RTVSPost2010Prop55
280
     0
102
RTVSPost2010PropOp55
 70
     1
102
RTVSPost2010Prop56
140
1.0
102
RTVSPost2010PropOp56
 70
     1
102
RTVSPost2010Prop57
140
1.0
102
RTVSPost2010PropOp57
 70
     1
102
RTVSPropertyOp0
 70
     1
102
RTVSPropertyOp1
 70
     1
102
RTVSPropertyOp2
 70
     1
102
RTVSPropertyOp3
 70
     1
102
RTVSPropertyOp4
 70
     1
102
RTVSPropertyOp5
 70
     1
102
RTVSPropertyOp6
 70
     1
102
RTVSPropertyOp7
 70
     1
102
RTVSPropertyOp8
 70
     1
102
RTVSPropertyOp9
 70
     1
102
RTVSPropertyOp10
 70
     1
102
RTVSPropertyOp11
 70
     1
102
RTVSPropertyOp12
 70
     1
102
RTVSPropertyOp13
 70
     1
102
RTVSPropertyOp14
 70
     1
102
RTVSPropertyOp15
 70
     1
102
RTVSPropertyOp16
 70
     1
102
RTVSPropertyOp17
 70
     1
102
RTVSPropertyOp18
 70
     1
102
RTVSPropertyOp19
 70
     1
102
RTVSPropertyOp20
 70
     1
102
RTVSPropertyOp21
 70
     1
102
RTVSPropertyOp22
 70
     1
102
RTVSPropertyOp23
 70
     1
102
RTVSPropertyOp24
 70
     1
102
RTVSPropertyOp25
 70
     1
102
RTVSPropertyOp26
 70
     1
102
RTVSPropertyOp27
 70
     1
102
RTVSPropertyOp28
 70
     1
102
RTVSPropertyOp29
 70
     1
102
RTVSPropertyOp30
 70
     1
102
RTVSPropertyOp31
 70
     1
102
RTVSPropertyOp32
 70
     1
102
RTVSPropertyOp33
 70
     1
102
RTVSPropertyOp34
 70
     1
102
RTVSPropertyOp35
 70
     1
102
RTVSPropertyOp36
 70
     1
102
RTVSPropertyOp37
 70
     1
102
RTVSPropertyOp38
 70
     1
102
RTVSPropertyOp39
 70
     1
102
RTVSPropertyOp40
 70
     1
102
RTVSPropertyOp41
 70
     1
102
RTVSPropertyOp42
 70
     1
102
RTVSPropertyOp43
 70
     1
102
RTVSPropertyOp44
 70
     1
102
RTVSPropertyOp45
 70
     1
102
RTVSPropertyOp46
 70
     1
102
RTVSPropertyOp47
 70
     1
102
RTVSPropertyOp48
 70
     1
102
RTVSPropertyOp49
 70
     1
102
RTVSPropertyOp50
 70
     1
102
RTVSPropertyOp51
 70
     0
102
RTVSPropertyOp52
 70
     0
102
RTVSPropertyOp53
 70
     1
102
RTVSPropertyOp54
 70
     1
102
RTVSPropertyOp55
 70
     1
102
RTVSPropertyOp56
 70
     1
102
RTVSPropertyOp57
 70
     1
102
RTVSPropertyOp58
 70
     1
102
RTVSPropertyOp59
 70
     1
102
RTVSPropertyOp60
 70
     1
102
RTVSPropertyOp61
 70
     1
102
RTVSPropertyOp62
 70
     1
  0
XRECORD
  5
1443
102
{ACAD_REACTORS
330
1442
102
}
330
1442
100
AcDbXrecord
280
     1
102
RTVSPost2010Prop28
280
     0
102
RTVSPost2010PropOp28
 70
     1
102
RTVSPost2010Prop29
280
     1
102
RTVSPost2010PropOp29
 70
     1
102
RTVSPost2010Prop30
280
     1
102
RTVSPost2010PropOp30
 70
     1
102
RTVSPost2010Prop31
280
     0
102
RTVSPost2010PropOp31
 70
     1
102
RTVSPost2010Prop32
280
     0
102
RTVSPost2010PropOp32
 70
     1
102
RTVSPost2010Prop33
280
     0
102
RTVSPost2010PropOp33
 70
     1
102
RTVSPost2010Prop34
280
     0
102
RTVSPost2010PropOp34
 70
     1
102
RTVSPost2010Prop35
280
     0
102
RTVSPost2010PropOp35
 70
     1
102
RTVSPost2010Prop36
280
     0
102
RTVSPost2010PropOp36
 70
     1
102
RTVSPost2010Prop37
 90
       50
102
RTVSPost2010PropOp37
 70
     1
102
RTVSPost2010Prop38
140
0.0
102
RTVSPost2010PropOp38
 70
     1
102
RTVSPost2010Prop39
140
1.0
102
RTVSPost2010PropOp39
 70
     1
102
RTVSPost2010Prop40
 90
        0
102
RTVSPost2010PropOp40
 70
     1
102
RTVSPost2010Prop41ColorIndex
 90
       18
102
RTVSPost2010Prop41ColorRGB
 90
        0
102
RTVSPost2010PropOp41
 70
     1
102
RTVSPost2010Prop42
 90
       50
102
RTVSPost2010PropOp42
 70
     1
102
RTVSPost2010Prop43
 90
        3
102
RTVSPost2010PropOp43
 70
     1
102
RTVSPost2010Prop44ColorIndex
 90
        5
102
RTVSPost2010Prop44ColorRGB
 90
      255
102
RTVSPost2010PropOp44
 70
     1
102
RTVSPost2010Prop45
280
     0
102
RTVSPost2010PropOp45
 70
     1
102
RTVSPost2010Prop46
 90
       50
102
RTVSPost2010PropOp46
 70
     1
102
RTVSPost2010Prop47
 90
       50
102
RTVSPost2010PropOp47
 70
     1
102
RTVSPost2010Prop48
 90
       50
102
RTVSPost2010PropOp48
 70
     1
102
RTVSPost2010Prop49
280
     0
102
RTVSPost2010PropOp49
 70
     1
102
RTVSPost2010Prop50
 90
       50
102
RTVSPost2010PropOp50
 70
     1
102
RTVSPost2010Prop51ColorIndex
 90
      256
102
RTVSPost2010Prop51ColorRGB
 90
-16777216
102
RTVSPost2010PropOp51
 70
     0
102
RTVSPost2010Prop52
140
1.0
102
RTVSPost2010PropOp52
 70
     0
102
RTVSPost2010Prop53
 90
        2
102
RTVSPost2010PropOp53
 70
     1
102
RTVSPost2010Prop54
  1
strokes_ogs.tif
102
RTVSPost2010PropOp54
 70
     1
102
RTVSPost2010Prop55
280
     0
102
RTVSPost2010PropOp55
 70
     1
102
RTVSPost2010Prop56
140
1.0
102
RTVSPost2010PropOp56
 70
     1
102
RTVSPost2010Prop57
140
1.0
102
RTVSPost2010PropOp57
 70
     1
102
RTVSPropertyOp0
 70
     1
102
RTVSPropertyOp1
 70
     1
102
RTVSPropertyOp2
 70
     1
102
RTVSPropertyOp3
 70
     1
102
RTVSPropertyOp4
 70
     1
102
RTVSPropertyOp5
 70
     1
102
RTVSPropertyOp6
 70
     1
102
RTVSPropertyOp7
 70
     1
102
RTVSPropertyOp8
 70
     1
102
RTVSPropertyOp9
 70
     1
102
RTVSPropertyOp10
 70
     1
102
RTVSPropertyOp11
 70
     1
102
RTVSPropertyOp12
 70
     1
102
RTVSPropertyOp13
 70
     1
102
RTVSPropertyOp14
 70
     1
102
RTVSPropertyOp15
 70
     1
102
RTVSPropertyOp16
 70
     1
102
RTVSPropertyOp17
 70
     1
102
RTVSPropertyOp18
 70
     1
102
RTVSPropertyOp19
 70
     1
102
RTVSPropertyOp20
 70
     1
102
RTVSPropertyOp21
 70
     1
102
RTVSPropertyOp22
 70
     1
102
RTVSPropertyOp23
 70
     1
102
RTVSPropertyOp24
 70
     1
102
RTVSPropertyOp25
 70
     1
102
RTVSPropertyOp26
 70
     1
102
RTVSPropertyOp27
 70
     1
102
RTVSPropertyOp28
 70
     1
102
RTVSPropertyOp29
 70
     1
102
RTVSPropertyOp30
 70
     1
102
RTVSPropertyOp31
 70
     1
102
RTVSPropertyOp32
 70
     1
102
RTVSPropertyOp33
 70
     1
102
RTVSPropertyOp34
 70
     1
102
RTVSPropertyOp35
 70
     1
102
RTVSPropertyOp36
 70
     1
102
RTVSPropertyOp37
 70
     1
102
RTVSPropertyOp38
 70
     1
102
RTVSPropertyOp39
 70
     1
102
RTVSPropertyOp40
 70
     1
102
RTVSPropertyOp41
 70
     1
102
RTVSPropertyOp42
 70
     1
102
RTVSPropertyOp43
 70
     1
102
RTVSPropertyOp44
 70
     1
102
RTVSPropertyOp45
 70
     1
102
RTVSPropertyOp46
 70
     1
102
RTVSPropertyOp47
 70
     1
102
RTVSPropertyOp48
 70
     1
102
RTVSPropertyOp49
 70
     1
102
RTVSPropertyOp50
 70
     1
102
RTVSPropertyOp51
 70
     0
102
RTVSPropertyOp52
 70
     0
102
RTVSPropertyOp53
 70
     1
102
RTVSPropertyOp54
 70
     1
102
RTVSPropertyOp55
 70
     1
102
RTVSPropertyOp56
 70
     1
102
RTVSPropertyOp57
 70
     1
102
RTVSPropertyOp58
 70
     1
102
RTVSPropertyOp59
 70
     1
102
RTVSPropertyOp60
 70
     1
102
RTVSPropertyOp61
 70
     1
102
RTVSPropertyOp62
 70
     1
  0
XRECORD
  5
144B
102
{ACAD_REACTORS
330
144A
102
}
330
144A
100
AcDbXrecord
280
     1
102
RTVSPost2010Prop28
280
     0
102
RTVSPost2010PropOp28
 70
     1
102
RTVSPost2010Prop29
280
     1
102
RTVSPost2010PropOp29
 70
     1
102
RTVSPost2010Prop30
280
     1
102
RTVSPost2010PropOp30
 70
     1
102
RTVSPost2010Prop31
280
     0
102
RTVSPost2010PropOp31
 70
     1
102
RTVSPost2010Prop32
280
     0
102
RTVSPost2010PropOp32
 70
     1
102
RTVSPost2010Prop33
280
     0
102
RTVSPost2010PropOp33
 70
     1
102
RTVSPost2010Prop34
280
     0
102
RTVSPost2010PropOp34
 70
     1
102
RTVSPost2010Prop35
280
     0
102
RTVSPost2010PropOp35
 70
     1
102
RTVSPost2010Prop36
280
     0
102
RTVSPost2010PropOp36
 70
     1
102
RTVSPost2010Prop37
 90
       50
102
RTVSPost2010PropOp37
 70
     1
102
RTVSPost2010Prop38
140
0.0
102
RTVSPost2010PropOp38
 70
     1
102
RTVSPost2010Prop39
140
1.0
102
RTVSPost2010PropOp39
 70
     1
102
RTVSPost2010Prop40
 90
        0
102
RTVSPost2010PropOp40
 70
     1
102
RTVSPost2010Prop41ColorIndex
 90
       18
102
RTVSPost2010Prop41ColorRGB
 90
        0
102
RTVSPost2010PropOp41
 70
     1
102
RTVSPost2010Prop42
 90
       50
102
RTVSPost2010PropOp42
 70
     1
102
RTVSPost2010Prop43
 90
        3
102
RTVSPost2010PropOp43
 70
     1
102
RTVSPost2010Prop44ColorIndex
 90
        5
102
RTVSPost2010Prop44ColorRGB
 90
      255
102
RTVSPost2010PropOp44
 70
     1
102
RTVSPost2010Prop45
280
     0
102
RTVSPost2010PropOp45
 70
     1
102
RTVSPost2010Prop46
 90
       50
102
RTVSPost2010PropOp46
 70
     1
102
RTVSPost2010Prop47
 90
       50
102
RTVSPost2010PropOp47
 70
     1
102
RTVSPost2010Prop48
 90
       50
102
RTVSPost2010PropOp48
 70
     1
102
RTVSPost2010Prop49
280
     0
102
RTVSPost2010PropOp49
 70
     1
102
RTVSPost2010Prop50
 90
       50
102
RTVSPost2010PropOp50
 70
     1
102
RTVSPost2010Prop51ColorIndex
 90
      256
102
RTVSPost2010Prop51ColorRGB
 90
-16777216
102
RTVSPost2010PropOp51
 70
     0
102
RTVSPost2010Prop52
140
1.0
102
RTVSPost2010PropOp52
 70
     0
102
RTVSPost2010Prop53
 90
        2
102
RTVSPost2010PropOp53
 70
     1
102
RTVSPost2010Prop54
  1
strokes_ogs.tif
102
RTVSPost2010PropOp54
 70
     1
102
RTVSPost2010Prop55
280
     0
102
RTVSPost2010PropOp55
 70
     1
102
RTVSPost2010Prop56
140
1.0
102
RTVSPost2010PropOp56
 70
     1
102
RTVSPost2010Prop57
140
1.0
102
RTVSPost2010PropOp57
 70
     1
102
RTVSPropertyOp0
 70
     1
102
RTVSPropertyOp1
 70
     1
102
RTVSPropertyOp2
 70
     1
102
RTVSPropertyOp3
 70
     1
102
RTVSPropertyOp4
 70
     1
102
RTVSPropertyOp5
 70
     1
102
RTVSPropertyOp6
 70
     1
102
RTVSPropertyOp7
 70
     1
102
RTVSPropertyOp8
 70
     1
102
RTVSPropertyOp9
 70
     1
102
RTVSPropertyOp10
 70
     1
102
RTVSPropertyOp11
 70
     1
102
RTVSPropertyOp12
 70
     1
102
RTVSPropertyOp13
 70
     1
102
RTVSPropertyOp14
 70
     1
102
RTVSPropertyOp15
 70
     1
102
RTVSPropertyOp16
 70
     1
102
RTVSPropertyOp17
 70
     1
102
RTVSPropertyOp18
 70
     1
102
RTVSPropertyOp19
 70
     1
102
RTVSPropertyOp20
 70
     1
102
RTVSPropertyOp21
 70
     1
102
RTVSPropertyOp22
 70
     1
102
RTVSPropertyOp23
 70
     1
102
RTVSPropertyOp24
 70
     1
102
RTVSPropertyOp25
 70
     1
102
RTVSPropertyOp26
 70
     1
102
RTVSPropertyOp27
 70
     1
102
RTVSPropertyOp28
 70
     1
102
RTVSPropertyOp29
 70
     1
102
RTVSPropertyOp30
 70
     1
102
RTVSPropertyOp31
 70
     1
102
RTVSPropertyOp32
 70
     1
102
RTVSPropertyOp33
 70
     1
102
RTVSPropertyOp34
 70
     1
102
RTVSPropertyOp35
 70
     1
102
RTVSPropertyOp36
 70
     1
102
RTVSPropertyOp37
 70
     1
102
RTVSPropertyOp38
 70
     1
102
RTVSPropertyOp39
 70
     1
102
RTVSPropertyOp40
 70
     1
102
RTVSPropertyOp41
 70
     1
102
RTVSPropertyOp42
 70
     1
102
RTVSPropertyOp43
 70
     1
102
RTVSPropertyOp44
 70
     1
102
RTVSPropertyOp45
 70
     1
102
RTVSPropertyOp46
 70
     1
102
RTVSPropertyOp47
 70
     1
102
RTVSPropertyOp48
 70
     1
102
RTVSPropertyOp49
 70
     1
102
RTVSPropertyOp50
 70
     1
102
RTVSPropertyOp51
 70
     0
102
RTVSPropertyOp52
 70
     0
102
RTVSPropertyOp53
 70
     1
102
RTVSPropertyOp54
 70
     1
102
RTVSPropertyOp55
 70
     1
102
RTVSPropertyOp56
 70
     1
102
RTVSPropertyOp57
 70
     1
102
RTVSPropertyOp58
 70
     1
102
RTVSPropertyOp59
 70
     1
102
RTVSPropertyOp60
 70
     1
102
RTVSPropertyOp61
 70
     1
102
RTVSPropertyOp62
 70
     1
  0
XRECORD
  5
143D
102
{ACAD_REACTORS
330
143C
102
}
330
143C
100
AcDbXrecord
280
     1
102
RTVSPost2010Prop28
280
     0
102
RTVSPost2010PropOp28
 70
     1
102
RTVSPost2010Prop29
280
     1
102
RTVSPost2010PropOp29
 70
     1
102
RTVSPost2010Prop30
280
     1
102
RTVSPost2010PropOp30
 70
     1
102
RTVSPost2010Prop31
280
     0
102
RTVSPost2010PropOp31
 70
     1
102
RTVSPost2010Prop32
280
     0
102
RTVSPost2010PropOp32
 70
     1
102
RTVSPost2010Prop33
280
     0
102
RTVSPost2010PropOp33
 70
     1
102
RTVSPost2010Prop34
280
     0
102
RTVSPost2010PropOp34
 70
     1
102
RTVSPost2010Prop35
280
     0
102
RTVSPost2010PropOp35
 70
     1
102
RTVSPost2010Prop36
280
     0
102
RTVSPost2010PropOp36
 70
     1
102
RTVSPost2010Prop37
 90
       50
102
RTVSPost2010PropOp37
 70
     1
102
RTVSPost2010Prop38
140
0.0
102
RTVSPost2010PropOp38
 70
     1
102
RTVSPost2010Prop39
140
1.0
102
RTVSPost2010PropOp39
 70
     1
102
RTVSPost2010Prop40
 90
        0
102
RTVSPost2010PropOp40
 70
     1
102
RTVSPost2010Prop41ColorIndex
 90
       18
102
RTVSPost2010Prop41ColorRGB
 90
        0
102
RTVSPost2010PropOp41
 70
     1
102
RTVSPost2010Prop42
 90
       50
102
RTVSPost2010PropOp42
 70
     1
102
RTVSPost2010Prop43
 90
        3
102
RTVSPost2010PropOp43
 70
     1
102
RTVSPost2010Prop44ColorIndex
 90
        5
102
RTVSPost2010Prop44ColorRGB
 90
      255
102
RTVSPost2010PropOp44
 70
     1
102
RTVSPost2010Prop45
280
     0
102
RTVSPost2010PropOp45
 70
     1
102
RTVSPost2010Prop46
 90
       50
102
RTVSPost2010PropOp46
 70
     1
102
RTVSPost2010Prop47
 90
       50
102
RTVSPost2010PropOp47
 70
     1
102
RTVSPost2010Prop48
 90
       50
102
RTVSPost2010PropOp48
 70
     1
102
RTVSPost2010Prop49
280
     0
102
RTVSPost2010PropOp49
 70
     1
102
RTVSPost2010Prop50
 90
       50
102
RTVSPost2010PropOp50
 70
     1
102
RTVSPost2010Prop51ColorIndex
 90
      256
102
RTVSPost2010Prop51ColorRGB
 90
-16777216
102
RTVSPost2010PropOp51
 70
     0
102
RTVSPost2010Prop52
140
1.0
102
RTVSPost2010PropOp52
 70
     0
102
RTVSPost2010Prop53
 90
        2
102
RTVSPost2010PropOp53
 70
     1
102
RTVSPost2010Prop54
  1
strokes_ogs.tif
102
RTVSPost2010PropOp54
 70
     1
102
RTVSPost2010Prop55
280
     0
102
RTVSPost2010PropOp55
 70
     1
102
RTVSPost2010Prop56
140
1.0
102
RTVSPost2010PropOp56
 70
     1
102
RTVSPost2010Prop57
140
1.0
102
RTVSPost2010PropOp57
 70
     1
102
RTVSPropertyOp0
 70
     1
102
RTVSPropertyOp1
 70
     1
102
RTVSPropertyOp2
 70
     1
102
RTVSPropertyOp3
 70
     1
102
RTVSPropertyOp4
 70
     1
102
RTVSPropertyOp5
 70
     1
102
RTVSPropertyOp6
 70
     1
102
RTVSPropertyOp7
 70
     1
102
RTVSPropertyOp8
 70
     1
102
RTVSPropertyOp9
 70
     1
102
RTVSPropertyOp10
 70
     1
102
RTVSPropertyOp11
 70
     1
102
RTVSPropertyOp12
 70
     1
102
RTVSPropertyOp13
 70
     1
102
RTVSPropertyOp14
 70
     1
102
RTVSPropertyOp15
 70
     1
102
RTVSPropertyOp16
 70
     1
102
RTVSPropertyOp17
 70
     1
102
RTVSPropertyOp18
 70
     1
102
RTVSPropertyOp19
 70
     1
102
RTVSPropertyOp20
 70
     1
102
RTVSPropertyOp21
 70
     1
102
RTVSPropertyOp22
 70
     1
102
RTVSPropertyOp23
 70
     1
102
RTVSPropertyOp24
 70
     1
102
RTVSPropertyOp25
 70
     1
102
RTVSPropertyOp26
 70
     1
102
RTVSPropertyOp27
 70
     1
102
RTVSPropertyOp28
 70
     1
102
RTVSPropertyOp29
 70
     1
102
RTVSPropertyOp30
 70
     1
102
RTVSPropertyOp31
 70
     1
102
RTVSPropertyOp32
 70
     1
102
RTVSPropertyOp33
 70
     1
102
RTVSPropertyOp34
 70
     1
102
RTVSPropertyOp35
 70
     1
102
RTVSPropertyOp36
 70
     1
102
RTVSPropertyOp37
 70
     1
102
RTVSPropertyOp38
 70
     1
102
RTVSPropertyOp39
 70
     1
102
RTVSPropertyOp40
 70
     1
102
RTVSPropertyOp41
 70
     1
102
RTVSPropertyOp42
 70
     1
102
RTVSPropertyOp43
 70
     1
102
RTVSPropertyOp44
 70
     1
102
RTVSPropertyOp45
 70
     1
102
RTVSPropertyOp46
 70
     1
102
RTVSPropertyOp47
 70
     1
102
RTVSPropertyOp48
 70
     1
102
RTVSPropertyOp49
 70
     1
102
RTVSPropertyOp50
 70
     1
102
RTVSPropertyOp51
 70
     0
102
RTVSPropertyOp52
 70
     0
102
RTVSPropertyOp53
 70
     1
102
RTVSPropertyOp54
 70
     1
102
RTVSPropertyOp55
 70
     1
102
RTVSPropertyOp56
 70
     1
102
RTVSPropertyOp57
 70
     1
102
RTVSPropertyOp58
 70
     1
102
RTVSPropertyOp59
 70
     1
102
RTVSPropertyOp60
 70
     1
102
RTVSPropertyOp61
 70
     1
102
RTVSPropertyOp62
 70
     1
  0
XRECORD
  5
1441
102
{ACAD_REACTORS
330
1440
102
}
330
1440
100
AcDbXrecord
280
     1
102
RTVSPost2010Prop28
280
     0
102
RTVSPost2010PropOp28
 70
     1
102
RTVSPost2010Prop29
280
     1
102
RTVSPost2010PropOp29
 70
     1
102
RTVSPost2010Prop30
280
     1
102
RTVSPost2010PropOp30
 70
     1
102
RTVSPost2010Prop31
280
     0
102
RTVSPost2010PropOp31
 70
     1
102
RTVSPost2010Prop32
280
     0
102
RTVSPost2010PropOp32
 70
     1
102
RTVSPost2010Prop33
280
     0
102
RTVSPost2010PropOp33
 70
     1
102
RTVSPost2010Prop34
280
     0
102
RTVSPost2010PropOp34
 70
     1
102
RTVSPost2010Prop35
280
     0
102
RTVSPost2010PropOp35
 70
     1
102
RTVSPost2010Prop36
280
     0
102
RTVSPost2010PropOp36
 70
     1
102
RTVSPost2010Prop37
 90
       50
102
RTVSPost2010PropOp37
 70
     1
102
RTVSPost2010Prop38
140
0.0
102
RTVSPost2010PropOp38
 70
     1
102
RTVSPost2010Prop39
140
1.0
102
RTVSPost2010PropOp39
 70
     1
102
RTVSPost2010Prop40
 90
        0
102
RTVSPost2010PropOp40
 70
     1
102
RTVSPost2010Prop41ColorIndex
 90
       18
102
RTVSPost2010Prop41ColorRGB
 90
        0
102
RTVSPost2010PropOp41
 70
     1
102
RTVSPost2010Prop42
 90
       50
102
RTVSPost2010PropOp42
 70
     1
102
RTVSPost2010Prop43
 90
        3
102
RTVSPost2010PropOp43
 70
     1
102
RTVSPost2010Prop44ColorIndex
 90
        5
102
RTVSPost2010Prop44ColorRGB
 90
      255
102
RTVSPost2010PropOp44
 70
     1
102
RTVSPost2010Prop45
280
     0
102
RTVSPost2010PropOp45
 70
     1
102
RTVSPost2010Prop46
 90
       50
102
RTVSPost2010PropOp46
 70
     1
102
RTVSPost2010Prop47
 90
       50
102
RTVSPost2010PropOp47
 70
     1
102
RTVSPost2010Prop48
 90
       50
102
RTVSPost2010PropOp48
 70
     1
102
RTVSPost2010Prop49
280
     0
102
RTVSPost2010PropOp49
 70
     1
102
RTVSPost2010Prop50
 90
       50
102
RTVSPost2010PropOp50
 70
     1
102
RTVSPost2010Prop51ColorIndex
 90
      256
102
RTVSPost2010Prop51ColorRGB
 90
-16777216
102
RTVSPost2010PropOp51
 70
     0
102
RTVSPost2010Prop52
140
1.0
102
RTVSPost2010PropOp52
 70
     0
102
RTVSPost2010Prop53
 90
        2
102
RTVSPost2010PropOp53
 70
     1
102
RTVSPost2010Prop54
  1
strokes_ogs.tif
102
RTVSPost2010PropOp54
 70
     1
102
RTVSPost2010Prop55
280
     0
102
RTVSPost2010PropOp55
 70
     1
102
RTVSPost2010Prop56
140
1.0
102
RTVSPost2010PropOp56
 70
     1
102
RTVSPost2010Prop57
140
1.0
102
RTVSPost2010PropOp57
 70
     1
102
RTVSPropertyOp0
 70
     1
102
RTVSPropertyOp1
 70
     1
102
RTVSPropertyOp2
 70
     1
102
RTVSPropertyOp3
 70
     1
102
RTVSPropertyOp4
 70
     1
102
RTVSPropertyOp5
 70
     1
102
RTVSPropertyOp6
 70
     1
102
RTVSPropertyOp7
 70
     1
102
RTVSPropertyOp8
 70
     1
102
RTVSPropertyOp9
 70
     1
102
RTVSPropertyOp10
 70
     1
102
RTVSPropertyOp11
 70
     1
102
RTVSPropertyOp12
 70
     1
102
RTVSPropertyOp13
 70
     1
102
RTVSPropertyOp14
 70
     1
102
RTVSPropertyOp15
 70
     1
102
RTVSPropertyOp16
 70
     1
102
RTVSPropertyOp17
 70
     1
102
RTVSPropertyOp18
 70
     1
102
RTVSPropertyOp19
 70
     1
102
RTVSPropertyOp20
 70
     1
102
RTVSPropertyOp21
 70
     1
102
RTVSPropertyOp22
 70
     1
102
RTVSPropertyOp23
 70
     1
102
RTVSPropertyOp24
 70
     1
102
RTVSPropertyOp25
 70
     1
102
RTVSPropertyOp26
 70
     1
102
RTVSPropertyOp27
 70
     1
102
RTVSPropertyOp28
 70
     1
102
RTVSPropertyOp29
 70
     1
102
RTVSPropertyOp30
 70
     1
102
RTVSPropertyOp31
 70
     1
102
RTVSPropertyOp32
 70
     1
102
RTVSPropertyOp33
 70
     1
102
RTVSPropertyOp34
 70
     1
102
RTVSPropertyOp35
 70
     1
102
RTVSPropertyOp36
 70
     1
102
RTVSPropertyOp37
 70
     1
102
RTVSPropertyOp38
 70
     1
102
RTVSPropertyOp39
 70
     1
102
RTVSPropertyOp40
 70
     1
102
RTVSPropertyOp41
 70
     1
102
RTVSPropertyOp42
 70
     1
102
RTVSPropertyOp43
 70
     1
102
RTVSPropertyOp44
 70
     1
102
RTVSPropertyOp45
 70
     1
102
RTVSPropertyOp46
 70
     1
102
RTVSPropertyOp47
 70
     1
102
RTVSPropertyOp48
 70
     1
102
RTVSPropertyOp49
 70
     1
102
RTVSPropertyOp50
 70
     1
102
RTVSPropertyOp51
 70
     0
102
RTVSPropertyOp52
 70
     0
102
RTVSPropertyOp53
 70
     1
102
RTVSPropertyOp54
 70
     1
102
RTVSPropertyOp55
 70
     1
102
RTVSPropertyOp56
 70
     1
102
RTVSPropertyOp57
 70
     1
102
RTVSPropertyOp58
 70
     1
102
RTVSPropertyOp59
 70
     1
102
RTVSPropertyOp60
 70
     1
102
RTVSPropertyOp61
 70
     1
102
RTVSPropertyOp62
 70
     1
  0
XRECORD
  5
145B
102
{ACAD_REACTORS
330
145A
102
}
330
145A
100
AcDbXrecord
280
     1
102
RTVSPost2010Prop28
280
     0
102
RTVSPost2010PropOp28
 70
     0
102
RTVSPost2010Prop29
280
     1
102
RTVSPost2010PropOp29
 70
     0
102
RTVSPost2010Prop30
280
     1
102
RTVSPost2010PropOp30
 70
     0
102
RTVSPost2010Prop31
280
     0
102
RTVSPost2010PropOp31
 70
     0
102
RTVSPost2010Prop32
280
     0
102
RTVSPost2010PropOp32
 70
     0
102
RTVSPost2010Prop33
280
     0
102
RTVSPost2010PropOp33
 70
     0
102
RTVSPost2010Prop34
280
     0
102
RTVSPost2010PropOp34
 70
     0
102
RTVSPost2010Prop35
280
     0
102
RTVSPost2010PropOp35
 70
     0
102
RTVSPost2010Prop36
280
     0
102
RTVSPost2010PropOp36
 70
     0
102
RTVSPost2010Prop37
 90
       50
102
RTVSPost2010PropOp37
 70
     0
102
RTVSPost2010Prop38
140
0.0
102
RTVSPost2010PropOp38
 70
     0
102
RTVSPost2010Prop39
140
1.0
102
RTVSPost2010PropOp39
 70
     0
102
RTVSPost2010Prop40
 90
        0
102
RTVSPost2010PropOp40
 70
     0
102
RTVSPost2010Prop41ColorIndex
 90
       18
102
RTVSPost2010Prop41ColorRGB
 90
        0
102
RTVSPost2010PropOp41
 70
     0
102
RTVSPost2010Prop42
 90
       50
102
RTVSPost2010PropOp42
 70
     0
102
RTVSPost2010Prop43
 90
        3
102
RTVSPost2010PropOp43
 70
     0
102
RTVSPost2010Prop44ColorIndex
 90
        5
102
RTVSPost2010Prop44ColorRGB
 90
      255
102
RTVSPost2010PropOp44
 70
     0
102
RTVSPost2010Prop45
280
     0
102
RTVSPost2010PropOp45
 70
     0
102
RTVSPost2010Prop46
 90
       50
102
RTVSPost2010PropOp46
 70
     0
102
RTVSPost2010Prop47
 90
       50
102
RTVSPost2010PropOp47
 70
     0
102
RTVSPost2010Prop48
 90
       50
102
RTVSPost2010PropOp48
 70
     0
102
RTVSPost2010Prop49
280
     0
102
RTVSPost2010PropOp49
 70
     0
102
RTVSPost2010Prop50
 90
       50
102
RTVSPost2010PropOp50
 70
     0
102
RTVSPost2010Prop51ColorIndex
 90
      256
102
RTVSPost2010Prop51ColorRGB
 90
-16777216
102
RTVSPost2010PropOp51
 70
     0
102
RTVSPost2010Prop52
140
1.0
102
RTVSPost2010PropOp52
 70
     0
102
RTVSPost2010Prop53
 90
        2
102
RTVSPost2010PropOp53
 70
     0
102
RTVSPost2010Prop54
  1
strokes_ogs.tif
102
RTVSPost2010PropOp54
 70
     0
102
RTVSPost2010Prop55
280
     0
102
RTVSPost2010PropOp55
 70
     0
102
RTVSPost2010Prop56
140
1.0
102
RTVSPost2010PropOp56
 70
     0
102
RTVSPost2010Prop57
140
1.0
102
RTVSPost2010PropOp57
 70
     0
102
RTVSPropertyOp0
 70
     0
102
RTVSPropertyOp1
 70
     0
102
RTVSPropertyOp2
 70
     0
102
RTVSPropertyOp3
 70
     0
102
RTVSPropertyOp4
 70
     0
102
RTVSPropertyOp5
 70
     0
102
RTVSPropertyOp6
 70
     0
102
RTVSPropertyOp7
 70
     0
102
RTVSPropertyOp8
 70
     0
102
RTVSPropertyOp9
 70
     0
102
RTVSPropertyOp10
 70
     0
102
RTVSPropertyOp11
 70
     0
102
RTVSPropertyOp12
 70
     0
102
RTVSPropertyOp13
 70
     0
102
RTVSPropertyOp14
 70
     2
102
RTVSPropertyOp15
 70
     0
102
RTVSPropertyOp16
 70
     0
102
RTVSPropertyOp17
 70
     0
102
RTVSPropertyOp18
 70
     0
102
RTVSPropertyOp19
 70
     0
102
RTVSPropertyOp20
 70
     0
102
RTVSPropertyOp21
 70
     0
102
RTVSPropertyOp22
 70
     0
102
RTVSPropertyOp23
 70
     0
102
RTVSPropertyOp24
 70
     0
102
RTVSPropertyOp25
 70
     0
102
RTVSPropertyOp26
 70
     0
102
RTVSPropertyOp27
 70
     0
102
RTVSPropertyOp28
 70
     0
102
RTVSPropertyOp29
 70
     0
102
RTVSPropertyOp30
 70
     0
102
RTVSPropertyOp31
 70
     0
102
RTVSPropertyOp32
 70
     0
102
RTVSPropertyOp33
 70
     0
102
RTVSPropertyOp34
 70
     0
102
RTVSPropertyOp35
 70
     0
102
RTVSPropertyOp36
 70
     0
102
RTVSPropertyOp37
 70
     0
102
RTVSPropertyOp38
 70
     0
102
RTVSPropertyOp39
 70
     0
102
RTVSPropertyOp40
 70
     0
102
RTVSPropertyOp41
 70
     0
102
RTVSPropertyOp42
 70
     0
102
RTVSPropertyOp43
 70
     0
102
RTVSPropertyOp44
 70
     0
102
RTVSPropertyOp45
 70
     0
102
RTVSPropertyOp46
 70
     0
102
RTVSPropertyOp47
 70
     0
102
RTVSPropertyOp48
 70
     0
102
RTVSPropertyOp49
 70
     0
102
RTVSPropertyOp50
 70
     0
102
RTVSPropertyOp51
 70
     0
102
RTVSPropertyOp52
 70
     0
102
RTVSPropertyOp53
 70
     0
102
RTVSPropertyOp54
 70
     0
102
RTVSPropertyOp55
 70
     0
102
RTVSPropertyOp56
 70
     0
102
RTVSPropertyOp57
 70
     0
102
RTVSPropertyOp58
 70
     1
102
RTVSPropertyOp59
 70
     1
102
RTVSPropertyOp60
 70
     1
102
RTVSPropertyOp61
 70
     1
102
RTVSPropertyOp62
 70
     1
  0
XRECORD
  5
1449
102
{ACAD_REACTORS
330
1448
102
}
330
1448
100
AcDbXrecord
280
     1
102
RTVSPost2010Prop28
280
     0
102
RTVSPost2010PropOp28
 70
     1
102
RTVSPost2010Prop29
280
     1
102
RTVSPost2010PropOp29
 70
     1
102
RTVSPost2010Prop30
280
     1
102
RTVSPost2010PropOp30
 70
     1
102
RTVSPost2010Prop31
280
     0
102
RTVSPost2010PropOp31
 70
     1
102
RTVSPost2010Prop32
280
     0
102
RTVSPost2010PropOp32
 70
     1
102
RTVSPost2010Prop33
280
     0
102
RTVSPost2010PropOp33
 70
     1
102
RTVSPost2010Prop34
280
     0
102
RTVSPost2010PropOp34
 70
     1
102
RTVSPost2010Prop35
280
     0
102
RTVSPost2010PropOp35
 70
     1
102
RTVSPost2010Prop36
280
     0
102
RTVSPost2010PropOp36
 70
     1
102
RTVSPost2010Prop37
 90
       50
102
RTVSPost2010PropOp37
 70
     1
102
RTVSPost2010Prop38
140
0.0
102
RTVSPost2010PropOp38
 70
     1
102
RTVSPost2010Prop39
140
1.0
102
RTVSPost2010PropOp39
 70
     1
102
RTVSPost2010Prop40
 90
        0
102
RTVSPost2010PropOp40
 70
     1
102
RTVSPost2010Prop41ColorIndex
 90
       18
102
RTVSPost2010Prop41ColorRGB
 90
        0
102
RTVSPost2010PropOp41
 70
     1
102
RTVSPost2010Prop42
 90
       50
102
RTVSPost2010PropOp42
 70
     1
102
RTVSPost2010Prop43
 90
        3
102
RTVSPost2010PropOp43
 70
     1
102
RTVSPost2010Prop44ColorIndex
 90
        5
102
RTVSPost2010Prop44ColorRGB
 90
      255
102
RTVSPost2010PropOp44
 70
     1
102
RTVSPost2010Prop45
280
     0
102
RTVSPost2010PropOp45
 70
     1
102
RTVSPost2010Prop46
 90
       50
102
RTVSPost2010PropOp46
 70
     1
102
RTVSPost2010Prop47
 90
       50
102
RTVSPost2010PropOp47
 70
     1
102
RTVSPost2010Prop48
 90
       50
102
RTVSPost2010PropOp48
 70
     1
102
RTVSPost2010Prop49
280
     0
102
RTVSPost2010PropOp49
 70
     1
102
RTVSPost2010Prop50
 90
       50
102
RTVSPost2010PropOp50
 70
     1
102
RTVSPost2010Prop51ColorIndex
 90
      256
102
RTVSPost2010Prop51ColorRGB
 90
-16777216
102
RTVSPost2010PropOp51
 70
     0
102
RTVSPost2010Prop52
140
1.0
102
RTVSPost2010PropOp52
 70
     0
102
RTVSPost2010Prop53
 90
        2
102
RTVSPost2010PropOp53
 70
     1
102
RTVSPost2010Prop54
  1
strokes_ogs.tif
102
RTVSPost2010PropOp54
 70
     1
102
RTVSPost2010Prop55
280
     0
102
RTVSPost2010PropOp55
 70
     1
102
RTVSPost2010Prop56
140
1.0
102
RTVSPost2010PropOp56
 70
     1
102
RTVSPost2010Prop57
140
1.0
102
RTVSPost2010PropOp57
 70
     1
102
RTVSPropertyOp0
 70
     1
102
RTVSPropertyOp1
 70
     1
102
RTVSPropertyOp2
 70
     1
102
RTVSPropertyOp3
 70
     1
102
RTVSPropertyOp4
 70
     1
102
RTVSPropertyOp5
 70
     1
102
RTVSPropertyOp6
 70
     1
102
RTVSPropertyOp7
 70
     1
102
RTVSPropertyOp8
 70
     1
102
RTVSPropertyOp9
 70
     1
102
RTVSPropertyOp10
 70
     1
102
RTVSPropertyOp11
 70
     1
102
RTVSPropertyOp12
 70
     1
102
RTVSPropertyOp13
 70
     1
102
RTVSPropertyOp14
 70
     1
102
RTVSPropertyOp15
 70
     1
102
RTVSPropertyOp16
 70
     1
102
RTVSPropertyOp17
 70
     1
102
RTVSPropertyOp18
 70
     1
102
RTVSPropertyOp19
 70
     1
102
RTVSPropertyOp20
 70
     1
102
RTVSPropertyOp21
 70
     1
102
RTVSPropertyOp22
 70
     1
102
RTVSPropertyOp23
 70
     1
102
RTVSPropertyOp24
 70
     1
102
RTVSPropertyOp25
 70
     1
102
RTVSPropertyOp26
 70
     1
102
RTVSPropertyOp27
 70
     1
102
RTVSPropertyOp28
 70
     1
102
RTVSPropertyOp29
 70
     1
102
RTVSPropertyOp30
 70
     1
102
RTVSPropertyOp31
 70
     1
102
RTVSPropertyOp32
 70
     1
102
RTVSPropertyOp33
 70
     1
102
RTVSPropertyOp34
 70
     1
102
RTVSPropertyOp35
 70
     1
102
RTVSPropertyOp36
 70
     1
102
RTVSPropertyOp37
 70
     1
102
RTVSPropertyOp38
 70
     1
102
RTVSPropertyOp39
 70
     1
102
RTVSPropertyOp40
 70
     1
102
RTVSPropertyOp41
 70
     1
102
RTVSPropertyOp42
 70
     1
102
RTVSPropertyOp43
 70
     1
102
RTVSPropertyOp44
 70
     1
102
RTVSPropertyOp45
 70
     1
102
RTVSPropertyOp46
 70
     1
102
RTVSPropertyOp47
 70
     1
102
RTVSPropertyOp48
 70
     1
102
RTVSPropertyOp49
 70
     1
102
RTVSPropertyOp50
 70
     1
102
RTVSPropertyOp51
 70
     0
102
RTVSPropertyOp52
 70
     0
102
RTVSPropertyOp53
 70
     1
102
RTVSPropertyOp54
 70
     1
102
RTVSPropertyOp55
 70
     1
102
RTVSPropertyOp56
 70
     1
102
RTVSPropertyOp57
 70
     1
102
RTVSPropertyOp58
 70
     1
102
RTVSPropertyOp59
 70
     1
102
RTVSPropertyOp60
 70
     1
102
RTVSPropertyOp61
 70
     1
102
RTVSPropertyOp62
 70
     1
  0
XRECORD
  5
142D
102
{ACAD_REACTORS
330
142C
102
}
330
142C
100
AcDbXrecord
280
     1
102
RTVSPost2010Prop28
280
     0
102
RTVSPost2010PropOp28
 70
     1
102
RTVSPost2010Prop29
280
     1
102
RTVSPost2010PropOp29
 70
     1
102
RTVSPost2010Prop30
280
     1
102
RTVSPost2010PropOp30
 70
     1
102
RTVSPost2010Prop31
280
     0
102
RTVSPost2010PropOp31
 70
     1
102
RTVSPost2010Prop32
280
     0
102
RTVSPost2010PropOp32
 70
     1
102
RTVSPost2010Prop33
280
     0
102
RTVSPost2010PropOp33
 70
     1
102
RTVSPost2010Prop34
280
     0
102
RTVSPost2010PropOp34
 70
     1
102
RTVSPost2010Prop35
280
     0
102
RTVSPost2010PropOp35
 70
     1
102
RTVSPost2010Prop36
280
     0
102
RTVSPost2010PropOp36
 70
     1
102
RTVSPost2010Prop37
 90
       50
102
RTVSPost2010PropOp37
 70
     1
102
RTVSPost2010Prop38
140
0.0
102
RTVSPost2010PropOp38
 70
     1
102
RTVSPost2010Prop39
140
1.0
102
RTVSPost2010PropOp39
 70
     1
102
RTVSPost2010Prop40
 90
        0
102
RTVSPost2010PropOp40
 70
     1
102
RTVSPost2010Prop41ColorIndex
 90
       18
102
RTVSPost2010Prop41ColorRGB
 90
        0
102
RTVSPost2010PropOp41
 70
     1
102
RTVSPost2010Prop42
 90
       50
102
RTVSPost2010PropOp42
 70
     1
102
RTVSPost2010Prop43
 90
        3
102
RTVSPost2010PropOp43
 70
     1
102
RTVSPost2010Prop44ColorIndex
 90
        5
102
RTVSPost2010Prop44ColorRGB
 90
      255
102
RTVSPost2010PropOp44
 70
     1
102
RTVSPost2010Prop45
280
     0
102
RTVSPost2010PropOp45
 70
     1
102
RTVSPost2010Prop46
 90
       50
102
RTVSPost2010PropOp46
 70
     1
102
RTVSPost2010Prop47
 90
       50
102
RTVSPost2010PropOp47
 70
     1
102
RTVSPost2010Prop48
 90
       50
102
RTVSPost2010PropOp48
 70
     1
102
RTVSPost2010Prop49
280
     0
102
RTVSPost2010PropOp49
 70
     1
102
RTVSPost2010Prop50
 90
       50
102
RTVSPost2010PropOp50
 70
     1
102
RTVSPost2010Prop51ColorIndex
 90
      256
102
RTVSPost2010Prop51ColorRGB
 90
-16777216
102
RTVSPost2010PropOp51
 70
     0
102
RTVSPost2010Prop52
140
1.0
102
RTVSPost2010PropOp52
 70
     0
102
RTVSPost2010Prop53
 90
        2
102
RTVSPost2010PropOp53
 70
     1
102
RTVSPost2010Prop54
  1
strokes_ogs.tif
102
RTVSPost2010PropOp54
 70
     1
102
RTVSPost2010Prop55
280
     0
102
RTVSPost2010PropOp55
 70
     1
102
RTVSPost2010Prop56
140
1.0
102
RTVSPost2010PropOp56
 70
     1
102
RTVSPost2010Prop57
140
1.0
102
RTVSPost2010PropOp57
 70
     1
102
RTVSPropertyOp0
 70
     1
102
RTVSPropertyOp1
 70
     1
102
RTVSPropertyOp2
 70
     1
102
RTVSPropertyOp3
 70
     1
102
RTVSPropertyOp4
 70
     1
102
RTVSPropertyOp5
 70
     1
102
RTVSPropertyOp6
 70
     1
102
RTVSPropertyOp7
 70
     1
102
RTVSPropertyOp8
 70
     1
102
RTVSPropertyOp9
 70
     1
102
RTVSPropertyOp10
 70
     1
102
RTVSPropertyOp11
 70
     1
102
RTVSPropertyOp12
 70
     1
102
RTVSPropertyOp13
 70
     1
102
RTVSPropertyOp14
 70
     1
102
RTVSPropertyOp15
 70
     1
102
RTVSPropertyOp16
 70
     1
102
RTVSPropertyOp17
 70
     1
102
RTVSPropertyOp18
 70
     1
102
RTVSPropertyOp19
 70
     1
102
RTVSPropertyOp20
 70
     1
102
RTVSPropertyOp21
 70
     1
102
RTVSPropertyOp22
 70
     1
102
RTVSPropertyOp23
 70
     1
102
RTVSPropertyOp24
 70
     1
102
RTVSPropertyOp25
 70
     1
102
RTVSPropertyOp26
 70
     1
102
RTVSPropertyOp27
 70
     1
102
RTVSPropertyOp28
 70
     1
102
RTVSPropertyOp29
 70
     1
102
RTVSPropertyOp30
 70
     1
102
RTVSPropertyOp31
 70
     1
102
RTVSPropertyOp32
 70
     1
102
RTVSPropertyOp33
 70
     1
102
RTVSPropertyOp34
 70
     1
102
RTVSPropertyOp35
 70
     1
102
RTVSPropertyOp36
 70
     1
102
RTVSPropertyOp37
 70
     1
102
RTVSPropertyOp38
 70
     1
102
RTVSPropertyOp39
 70
     1
102
RTVSPropertyOp40
 70
     1
102
RTVSPropertyOp41
 70
     1
102
RTVSPropertyOp42
 70
     1
102
RTVSPropertyOp43
 70
     1
102
RTVSPropertyOp44
 70
     1
102
RTVSPropertyOp45
 70
     1
102
RTVSPropertyOp46
 70
     1
102
RTVSPropertyOp47
 70
     1
102
RTVSPropertyOp48
 70
     1
102
RTVSPropertyOp49
 70
     1
102
RTVSPropertyOp50
 70
     1
102
RTVSPropertyOp51
 70
     0
102
RTVSPropertyOp52
 70
     0
102
RTVSPropertyOp53
 70
     1
102
RTVSPropertyOp54
 70
     1
102
RTVSPropertyOp55
 70
     1
102
RTVSPropertyOp56
 70
     1
102
RTVSPropertyOp57
 70
     1
102
RTVSPropertyOp58
 70
     1
102
RTVSPropertyOp59
 70
     1
102
RTVSPropertyOp60
 70
     1
102
RTVSPropertyOp61
 70
     1
102
RTVSPropertyOp62
 70
     1
  0
XRECORD
  5
142F
102
{ACAD_REACTORS
330
142E
102
}
330
142E
100
AcDbXrecord
280
     1
102
RTVSPost2010Prop28
280
     0
102
RTVSPost2010PropOp28
 70
     1
102
RTVSPost2010Prop29
280
     1
102
RTVSPost2010PropOp29
 70
     1
102
RTVSPost2010Prop30
280
     1
102
RTVSPost2010PropOp30
 70
     1
102
RTVSPost2010Prop31
280
     0
102
RTVSPost2010PropOp31
 70
     1
102
RTVSPost2010Prop32
280
     0
102
RTVSPost2010PropOp32
 70
     1
102
RTVSPost2010Prop33
280
     0
102
RTVSPost2010PropOp33
 70
     1
102
RTVSPost2010Prop34
280
     0
102
RTVSPost2010PropOp34
 70
     1
102
RTVSPost2010Prop35
280
     0
102
RTVSPost2010PropOp35
 70
     1
102
RTVSPost2010Prop36
280
     0
102
RTVSPost2010PropOp36
 70
     1
102
RTVSPost2010Prop37
 90
       50
102
RTVSPost2010PropOp37
 70
     1
102
RTVSPost2010Prop38
140
0.0
102
RTVSPost2010PropOp38
 70
     1
102
RTVSPost2010Prop39
140
1.0
102
RTVSPost2010PropOp39
 70
     1
102
RTVSPost2010Prop40
 90
        0
102
RTVSPost2010PropOp40
 70
     1
102
RTVSPost2010Prop41ColorIndex
 90
       18
102
RTVSPost2010Prop41ColorRGB
 90
        0
102
RTVSPost2010PropOp41
 70
     1
102
RTVSPost2010Prop42
 90
       50
102
RTVSPost2010PropOp42
 70
     1
102
RTVSPost2010Prop43
 90
        3
102
RTVSPost2010PropOp43
 70
     1
102
RTVSPost2010Prop44ColorIndex
 90
        5
102
RTVSPost2010Prop44ColorRGB
 90
      255
102
RTVSPost2010PropOp44
 70
     1
102
RTVSPost2010Prop45
280
     0
102
RTVSPost2010PropOp45
 70
     1
102
RTVSPost2010Prop46
 90
       50
102
RTVSPost2010PropOp46
 70
     1
102
RTVSPost2010Prop47
 90
       50
102
RTVSPost2010PropOp47
 70
     1
102
RTVSPost2010Prop48
 90
       50
102
RTVSPost2010PropOp48
 70
     1
102
RTVSPost2010Prop49
280
     0
102
RTVSPost2010PropOp49
 70
     1
102
RTVSPost2010Prop50
 90
       50
102
RTVSPost2010PropOp50
 70
     1
102
RTVSPost2010Prop51ColorIndex
 90
      256
102
RTVSPost2010Prop51ColorRGB
 90
-16777216
102
RTVSPost2010PropOp51
 70
     0
102
RTVSPost2010Prop52
140
1.0
102
RTVSPost2010PropOp52
 70
     0
102
RTVSPost2010Prop53
 90
        2
102
RTVSPost2010PropOp53
 70
     1
102
RTVSPost2010Prop54
  1
strokes_ogs.tif
102
RTVSPost2010PropOp54
 70
     1
102
RTVSPost2010Prop55
280
     0
102
RTVSPost2010PropOp55
 70
     1
102
RTVSPost2010Prop56
140
1.0
102
RTVSPost2010PropOp56
 70
     1
102
RTVSPost2010Prop57
140
1.0
102
RTVSPost2010PropOp57
 70
     1
102
RTVSPropertyOp0
 70
     1
102
RTVSPropertyOp1
 70
     1
102
RTVSPropertyOp2
 70
     1
102
RTVSPropertyOp3
 70
     1
102
RTVSPropertyOp4
 70
     1
102
RTVSPropertyOp5
 70
     1
102
RTVSPropertyOp6
 70
     1
102
RTVSPropertyOp7
 70
     1
102
RTVSPropertyOp8
 70
     1
102
RTVSPropertyOp9
 70
     1
102
RTVSPropertyOp10
 70
     1
102
RTVSPropertyOp11
 70
     1
102
RTVSPropertyOp12
 70
     1
102
RTVSPropertyOp13
 70
     1
102
RTVSPropertyOp14
 70
     1
102
RTVSPropertyOp15
 70
     1
102
RTVSPropertyOp16
 70
     1
102
RTVSPropertyOp17
 70
     1
102
RTVSPropertyOp18
 70
     1
102
RTVSPropertyOp19
 70
     1
102
RTVSPropertyOp20
 70
     1
102
RTVSPropertyOp21
 70
     1
102
RTVSPropertyOp22
 70
     1
102
RTVSPropertyOp23
 70
     1
102
RTVSPropertyOp24
 70
     1
102
RTVSPropertyOp25
 70
     1
102
RTVSPropertyOp26
 70
     1
102
RTVSPropertyOp27
 70
     1
102
RTVSPropertyOp28
 70
     1
102
RTVSPropertyOp29
 70
     1
102
RTVSPropertyOp30
 70
     1
102
RTVSPropertyOp31
 70
     1
102
RTVSPropertyOp32
 70
     1
102
RTVSPropertyOp33
 70
     1
102
RTVSPropertyOp34
 70
     1
102
RTVSPropertyOp35
 70
     1
102
RTVSPropertyOp36
 70
     1
102
RTVSPropertyOp37
 70
     1
102
RTVSPropertyOp38
 70
     1
102
RTVSPropertyOp39
 70
     1
102
RTVSPropertyOp40
 70
     1
102
RTVSPropertyOp41
 70
     1
102
RTVSPropertyOp42
 70
     1
102
RTVSPropertyOp43
 70
     1
102
RTVSPropertyOp44
 70
     1
102
RTVSPropertyOp45
 70
     1
102
RTVSPropertyOp46
 70
     1
102
RTVSPropertyOp47
 70
     1
102
RTVSPropertyOp48
 70
     1
102
RTVSPropertyOp49
 70
     1
102
RTVSPropertyOp50
 70
     1
102
RTVSPropertyOp51
 70
     0
102
RTVSPropertyOp52
 70
     0
102
RTVSPropertyOp53
 70
     1
102
RTVSPropertyOp54
 70
     1
102
RTVSPropertyOp55
 70
     1
102
RTVSPropertyOp56
 70
     1
102
RTVSPropertyOp57
 70
     1
102
RTVSPropertyOp58
 70
     1
102
RTVSPropertyOp59
 70
     1
102
RTVSPropertyOp60
 70
     1
102
RTVSPropertyOp61
 70
     1
102
RTVSPropertyOp62
 70
     1
  0
XRECORD
  5
1431
102
{ACAD_REACTORS
330
1430
102
}
330
1430
100
AcDbXrecord
280
     1
102
RTVSPost2010Prop28
280
     0
102
RTVSPost2010PropOp28
 70
     1
102
RTVSPost2010Prop29
280
     1
102
RTVSPost2010PropOp29
 70
     1
102
RTVSPost2010Prop30
280
     1
102
RTVSPost2010PropOp30
 70
     1
102
RTVSPost2010Prop31
280
     0
102
RTVSPost2010PropOp31
 70
     1
102
RTVSPost2010Prop32
280
     0
102
RTVSPost2010PropOp32
 70
     1
102
RTVSPost2010Prop33
280
     0
102
RTVSPost2010PropOp33
 70
     1
102
RTVSPost2010Prop34
280
     0
102
RTVSPost2010PropOp34
 70
     1
102
RTVSPost2010Prop35
280
     0
102
RTVSPost2010PropOp35
 70
     1
102
RTVSPost2010Prop36
280
     0
102
RTVSPost2010PropOp36
 70
     1
102
RTVSPost2010Prop37
 90
       50
102
RTVSPost2010PropOp37
 70
     1
102
RTVSPost2010Prop38
140
0.0
102
RTVSPost2010PropOp38
 70
     1
102
RTVSPost2010Prop39
140
1.0
102
RTVSPost2010PropOp39
 70
     1
102
RTVSPost2010Prop40
 90
        0
102
RTVSPost2010PropOp40
 70
     1
102
RTVSPost2010Prop41ColorIndex
 90
       18
102
RTVSPost2010Prop41ColorRGB
 90
        0
102
RTVSPost2010PropOp41
 70
     1
102
RTVSPost2010Prop42
 90
       50
102
RTVSPost2010PropOp42
 70
     1
102
RTVSPost2010Prop43
 90
        3
102
RTVSPost2010PropOp43
 70
     1
102
RTVSPost2010Prop44ColorIndex
 90
        5
102
RTVSPost2010Prop44ColorRGB
 90
      255
102
RTVSPost2010PropOp44
 70
     1
102
RTVSPost2010Prop45
280
     0
102
RTVSPost2010PropOp45
 70
     1
102
RTVSPost2010Prop46
 90
       50
102
RTVSPost2010PropOp46
 70
     1
102
RTVSPost2010Prop47
 90
       50
102
RTVSPost2010PropOp47
 70
     1
102
RTVSPost2010Prop48
 90
       50
102
RTVSPost2010PropOp48
 70
     1
102
RTVSPost2010Prop49
280
     0
102
RTVSPost2010PropOp49
 70
     1
102
RTVSPost2010Prop50
 90
       50
102
RTVSPost2010PropOp50
 70
     1
102
RTVSPost2010Prop51ColorIndex
 90
      256
102
RTVSPost2010Prop51ColorRGB
 90
-16777216
102
RTVSPost2010PropOp51
 70
     0
102
RTVSPost2010Prop52
140
1.0
102
RTVSPost2010PropOp52
 70
     0
102
RTVSPost2010Prop53
 90
        2
102
RTVSPost2010PropOp53
 70
     1
102
RTVSPost2010Prop54
  1
strokes_ogs.tif
102
RTVSPost2010PropOp54
 70
     1
102
RTVSPost2010Prop55
280
     0
102
RTVSPost2010PropOp55
 70
     1
102
RTVSPost2010Prop56
140
1.0
102
RTVSPost2010PropOp56
 70
     1
102
RTVSPost2010Prop57
140
1.0
102
RTVSPost2010PropOp57
 70
     1
102
RTVSPropertyOp0
 70
     1
102
RTVSPropertyOp1
 70
     1
102
RTVSPropertyOp2
 70
     1
102
RTVSPropertyOp3
 70
     1
102
RTVSPropertyOp4
 70
     1
102
RTVSPropertyOp5
 70
     1
102
RTVSPropertyOp6
 70
     1
102
RTVSPropertyOp7
 70
     1
102
RTVSPropertyOp8
 70
     1
102
RTVSPropertyOp9
 70
     1
102
RTVSPropertyOp10
 70
     1
102
RTVSPropertyOp11
 70
     1
102
RTVSPropertyOp12
 70
     1
102
RTVSPropertyOp13
 70
     1
102
RTVSPropertyOp14
 70
     1
102
RTVSPropertyOp15
 70
     1
102
RTVSPropertyOp16
 70
     1
102
RTVSPropertyOp17
 70
     1
102
RTVSPropertyOp18
 70
     1
102
RTVSPropertyOp19
 70
     1
102
RTVSPropertyOp20
 70
     1
102
RTVSPropertyOp21
 70
     1
102
RTVSPropertyOp22
 70
     1
102
RTVSPropertyOp23
 70
     1
102
RTVSPropertyOp24
 70
     1
102
RTVSPropertyOp25
 70
     1
102
RTVSPropertyOp26
 70
     1
102
RTVSPropertyOp27
 70
     1
102
RTVSPropertyOp28
 70
     1
102
RTVSPropertyOp29
 70
     1
102
RTVSPropertyOp30
 70
     1
102
RTVSPropertyOp31
 70
     1
102
RTVSPropertyOp32
 70
     1
102
RTVSPropertyOp33
 70
     1
102
RTVSPropertyOp34
 70
     1
102
RTVSPropertyOp35
 70
     1
102
RTVSPropertyOp36
 70
     1
102
RTVSPropertyOp37
 70
     1
102
RTVSPropertyOp38
 70
     1
102
RTVSPropertyOp39
 70
     1
102
RTVSPropertyOp40
 70
     1
102
RTVSPropertyOp41
 70
     1
102
RTVSPropertyOp42
 70
     1
102
RTVSPropertyOp43
 70
     1
102
RTVSPropertyOp44
 70
     1
102
RTVSPropertyOp45
 70
     1
102
RTVSPropertyOp46
 70
     1
102
RTVSPropertyOp47
 70
     1
102
RTVSPropertyOp48
 70
     1
102
RTVSPropertyOp49
 70
     1
102
RTVSPropertyOp50
 70
     1
102
RTVSPropertyOp51
 70
     0
102
RTVSPropertyOp52
 70
     0
102
RTVSPropertyOp53
 70
     1
102
RTVSPropertyOp54
 70
     1
102
RTVSPropertyOp55
 70
     1
102
RTVSPropertyOp56
 70
     1
102
RTVSPropertyOp57
 70
     1
102
RTVSPropertyOp58
 70
     1
102
RTVSPropertyOp59
 70
     1
102
RTVSPropertyOp60
 70
     1
102
RTVSPropertyOp61
 70
     1
102
RTVSPropertyOp62
 70
     1
  0
XRECORD
  5
1433
102
{ACAD_REACTORS
330
1432
102
}
330
1432
100
AcDbXrecord
280
     1
102
RTVSPost2010Prop28
280
     0
102
RTVSPost2010PropOp28
 70
     1
102
RTVSPost2010Prop29
280
     1
102
RTVSPost2010PropOp29
 70
     1
102
RTVSPost2010Prop30
280
     1
102
RTVSPost2010PropOp30
 70
     1
102
RTVSPost2010Prop31
280
     0
102
RTVSPost2010PropOp31
 70
     1
102
RTVSPost2010Prop32
280
     0
102
RTVSPost2010PropOp32
 70
     1
102
RTVSPost2010Prop33
280
     0
102
RTVSPost2010PropOp33
 70
     1
102
RTVSPost2010Prop34
280
     0
102
RTVSPost2010PropOp34
 70
     1
102
RTVSPost2010Prop35
280
     0
102
RTVSPost2010PropOp35
 70
     1
102
RTVSPost2010Prop36
280
     0
102
RTVSPost2010PropOp36
 70
     1
102
RTVSPost2010Prop37
 90
       50
102
RTVSPost2010PropOp37
 70
     1
102
RTVSPost2010Prop38
140
0.0
102
RTVSPost2010PropOp38
 70
     1
102
RTVSPost2010Prop39
140
1.0
102
RTVSPost2010PropOp39
 70
     1
102
RTVSPost2010Prop40
 90
        0
102
RTVSPost2010PropOp40
 70
     1
102
RTVSPost2010Prop41ColorIndex
 90
       18
102
RTVSPost2010Prop41ColorRGB
 90
        0
102
RTVSPost2010PropOp41
 70
     1
102
RTVSPost2010Prop42
 90
       50
102
RTVSPost2010PropOp42
 70
     1
102
RTVSPost2010Prop43
 90
        3
102
RTVSPost2010PropOp43
 70
     1
102
RTVSPost2010Prop44ColorIndex
 90
        5
102
RTVSPost2010Prop44ColorRGB
 90
      255
102
RTVSPost2010PropOp44
 70
     1
102
RTVSPost2010Prop45
280
     0
102
RTVSPost2010PropOp45
 70
     1
102
RTVSPost2010Prop46
 90
       50
102
RTVSPost2010PropOp46
 70
     1
102
RTVSPost2010Prop47
 90
       50
102
RTVSPost2010PropOp47
 70
     1
102
RTVSPost2010Prop48
 90
       50
102
RTVSPost2010PropOp48
 70
     1
102
RTVSPost2010Prop49
280
     0
102
RTVSPost2010PropOp49
 70
     1
102
RTVSPost2010Prop50
 90
       50
102
RTVSPost2010PropOp50
 70
     1
102
RTVSPost2010Prop51ColorIndex
 90
      256
102
RTVSPost2010Prop51ColorRGB
 90
-16777216
102
RTVSPost2010PropOp51
 70
     0
102
RTVSPost2010Prop52
140
1.0
102
RTVSPost2010PropOp52
 70
     0
102
RTVSPost2010Prop53
 90
        2
102
RTVSPost2010PropOp53
 70
     1
102
RTVSPost2010Prop54
  1
strokes_ogs.tif
102
RTVSPost2010PropOp54
 70
     1
102
RTVSPost2010Prop55
280
     0
102
RTVSPost2010PropOp55
 70
     1
102
RTVSPost2010Prop56
140
1.0
102
RTVSPost2010PropOp56
 70
     1
102
RTVSPost2010Prop57
140
1.0
102
RTVSPost2010PropOp57
 70
     1
102
RTVSPropertyOp0
 70
     1
102
RTVSPropertyOp1
 70
     1
102
RTVSPropertyOp2
 70
     1
102
RTVSPropertyOp3
 70
     1
102
RTVSPropertyOp4
 70
     1
102
RTVSPropertyOp5
 70
     1
102
RTVSPropertyOp6
 70
     1
102
RTVSPropertyOp7
 70
     1
102
RTVSPropertyOp8
 70
     1
102
RTVSPropertyOp9
 70
     1
102
RTVSPropertyOp10
 70
     1
102
RTVSPropertyOp11
 70
     1
102
RTVSPropertyOp12
 70
     1
102
RTVSPropertyOp13
 70
     1
102
RTVSPropertyOp14
 70
     1
102
RTVSPropertyOp15
 70
     1
102
RTVSPropertyOp16
 70
     1
102
RTVSPropertyOp17
 70
     1
102
RTVSPropertyOp18
 70
     1
102
RTVSPropertyOp19
 70
     1
102
RTVSPropertyOp20
 70
     1
102
RTVSPropertyOp21
 70
     1
102
RTVSPropertyOp22
 70
     1
102
RTVSPropertyOp23
 70
     1
102
RTVSPropertyOp24
 70
     1
102
RTVSPropertyOp25
 70
     1
102
RTVSPropertyOp26
 70
     1
102
RTVSPropertyOp27
 70
     1
102
RTVSPropertyOp28
 70
     1
102
RTVSPropertyOp29
 70
     1
102
RTVSPropertyOp30
 70
     1
102
RTVSPropertyOp31
 70
     1
102
RTVSPropertyOp32
 70
     1
102
RTVSPropertyOp33
 70
     1
102
RTVSPropertyOp34
 70
     1
102
RTVSPropertyOp35
 70
     1
102
RTVSPropertyOp36
 70
     1
102
RTVSPropertyOp37
 70
     1
102
RTVSPropertyOp38
 70
     1
102
RTVSPropertyOp39
 70
     1
102
RTVSPropertyOp40
 70
     1
102
RTVSPropertyOp41
 70
     1
102
RTVSPropertyOp42
 70
     1
102
RTVSPropertyOp43
 70
     1
102
RTVSPropertyOp44
 70
     1
102
RTVSPropertyOp45
 70
     1
102
RTVSPropertyOp46
 70
     1
102
RTVSPropertyOp47
 70
     1
102
RTVSPropertyOp48
 70
     1
102
RTVSPropertyOp49
 70
     1
102
RTVSPropertyOp50
 70
     1
102
RTVSPropertyOp51
 70
     0
102
RTVSPropertyOp52
 70
     0
102
RTVSPropertyOp53
 70
     1
102
RTVSPropertyOp54
 70
     1
102
RTVSPropertyOp55
 70
     1
102
RTVSPropertyOp56
 70
     1
102
RTVSPropertyOp57
 70
     1
102
RTVSPropertyOp58
 70
     1
102
RTVSPropertyOp59
 70
     1
102
RTVSPropertyOp60
 70
     1
102
RTVSPropertyOp61
 70
     1
102
RTVSPropertyOp62
 70
     1
  0
XRECORD
  5
143B
102
{ACAD_REACTORS
330
143A
102
}
330
143A
100
AcDbXrecord
280
     1
102
RTVSPost2010Prop28
280
     0
102
RTVSPost2010PropOp28
 70
     1
102
RTVSPost2010Prop29
280
     1
102
RTVSPost2010PropOp29
 70
     1
102
RTVSPost2010Prop30
280
     1
102
RTVSPost2010PropOp30
 70
     1
102
RTVSPost2010Prop31
280
     0
102
RTVSPost2010PropOp31
 70
     1
102
RTVSPost2010Prop32
280
     0
102
RTVSPost2010PropOp32
 70
     1
102
RTVSPost2010Prop33
280
     0
102
RTVSPost2010PropOp33
 70
     1
102
RTVSPost2010Prop34
280
     0
102
RTVSPost2010PropOp34
 70
     1
102
RTVSPost2010Prop35
280
     0
102
RTVSPost2010PropOp35
 70
     1
102
RTVSPost2010Prop36
280
     0
102
RTVSPost2010PropOp36
 70
     1
102
RTVSPost2010Prop37
 90
       50
102
RTVSPost2010PropOp37
 70
     1
102
RTVSPost2010Prop38
140
0.0
102
RTVSPost2010PropOp38
 70
     1
102
RTVSPost2010Prop39
140
1.0
102
RTVSPost2010PropOp39
 70
     1
102
RTVSPost2010Prop40
 90
        0
102
RTVSPost2010PropOp40
 70
     1
102
RTVSPost2010Prop41ColorIndex
 90
       18
102
RTVSPost2010Prop41ColorRGB
 90
        0
102
RTVSPost2010PropOp41
 70
     1
102
RTVSPost2010Prop42
 90
       50
102
RTVSPost2010PropOp42
 70
     1
102
RTVSPost2010Prop43
 90
        3
102
RTVSPost2010PropOp43
 70
     1
102
RTVSPost2010Prop44ColorIndex
 90
        5
102
RTVSPost2010Prop44ColorRGB
 90
      255
102
RTVSPost2010PropOp44
 70
     1
102
RTVSPost2010Prop45
280
     0
102
RTVSPost2010PropOp45
 70
     1
102
RTVSPost2010Prop46
 90
       50
102
RTVSPost2010PropOp46
 70
     1
102
RTVSPost2010Prop47
 90
       50
102
RTVSPost2010PropOp47
 70
     1
102
RTVSPost2010Prop48
 90
       50
102
RTVSPost2010PropOp48
 70
     1
102
RTVSPost2010Prop49
280
     0
102
RTVSPost2010PropOp49
 70
     1
102
RTVSPost2010Prop50
 90
       50
102
RTVSPost2010PropOp50
 70
     1
102
RTVSPost2010Prop51ColorIndex
 90
      256
102
RTVSPost2010Prop51ColorRGB
 90
-16777216
102
RTVSPost2010PropOp51
 70
     0
102
RTVSPost2010Prop52
140
1.0
102
RTVSPost2010PropOp52
 70
     0
102
RTVSPost2010Prop53
 90
        2
102
RTVSPost2010PropOp53
 70
     1
102
RTVSPost2010Prop54
  1
strokes_ogs.tif
102
RTVSPost2010PropOp54
 70
     1
102
RTVSPost2010Prop55
280
     0
102
RTVSPost2010PropOp55
 70
     1
102
RTVSPost2010Prop56
140
1.0
102
RTVSPost2010PropOp56
 70
     1
102
RTVSPost2010Prop57
140
1.0
102
RTVSPost2010PropOp57
 70
     1
102
RTVSPropertyOp0
 70
     1
102
RTVSPropertyOp1
 70
     1
102
RTVSPropertyOp2
 70
     1
102
RTVSPropertyOp3
 70
     1
102
RTVSPropertyOp4
 70
     1
102
RTVSPropertyOp5
 70
     1
102
RTVSPropertyOp6
 70
     1
102
RTVSPropertyOp7
 70
     1
102
RTVSPropertyOp8
 70
     1
102
RTVSPropertyOp9
 70
     1
102
RTVSPropertyOp10
 70
     1
102
RTVSPropertyOp11
 70
     1
102
RTVSPropertyOp12
 70
     1
102
RTVSPropertyOp13
 70
     1
102
RTVSPropertyOp14
 70
     1
102
RTVSPropertyOp15
 70
     1
102
RTVSPropertyOp16
 70
     1
102
RTVSPropertyOp17
 70
     1
102
RTVSPropertyOp18
 70
     1
102
RTVSPropertyOp19
 70
     1
102
RTVSPropertyOp20
 70
     1
102
RTVSPropertyOp21
 70
     1
102
RTVSPropertyOp22
 70
     1
102
RTVSPropertyOp23
 70
     1
102
RTVSPropertyOp24
 70
     1
102
RTVSPropertyOp25
 70
     1
102
RTVSPropertyOp26
 70
     1
102
RTVSPropertyOp27
 70
     1
102
RTVSPropertyOp28
 70
     1
102
RTVSPropertyOp29
 70
     1
102
RTVSPropertyOp30
 70
     1
102
RTVSPropertyOp31
 70
     1
102
RTVSPropertyOp32
 70
     1
102
RTVSPropertyOp33
 70
     1
102
RTVSPropertyOp34
 70
     1
102
RTVSPropertyOp35
 70
     1
102
RTVSPropertyOp36
 70
     1
102
RTVSPropertyOp37
 70
     1
102
RTVSPropertyOp38
 70
     1
102
RTVSPropertyOp39
 70
     1
102
RTVSPropertyOp40
 70
     1
102
RTVSPropertyOp41
 70
     1
102
RTVSPropertyOp42
 70
     1
102
RTVSPropertyOp43
 70
     1
102
RTVSPropertyOp44
 70
     1
102
RTVSPropertyOp45
 70
     1
102
RTVSPropertyOp46
 70
     1
102
RTVSPropertyOp47
 70
     1
102
RTVSPropertyOp48
 70
     1
102
RTVSPropertyOp49
 70
     1
102
RTVSPropertyOp50
 70
     1
102
RTVSPropertyOp51
 70
     0
102
RTVSPropertyOp52
 70
     0
102
RTVSPropertyOp53
 70
     1
102
RTVSPropertyOp54
 70
     1
102
RTVSPropertyOp55
 70
     1
102
RTVSPropertyOp56
 70
     1
102
RTVSPropertyOp57
 70
     1
102
RTVSPropertyOp58
 70
     1
102
RTVSPropertyOp59
 70
     1
102
RTVSPropertyOp60
 70
     1
102
RTVSPropertyOp61
 70
     1
102
RTVSPropertyOp62
 70
     1
  0
XRECORD
  5
1457
102
{ACAD_REACTORS
330
1456
102
}
330
1456
100
AcDbXrecord
280
     1
102
RTVSPost2010Prop28
280
     0
102
RTVSPost2010PropOp28
 70
     0
102
RTVSPost2010Prop29
280
     1
102
RTVSPost2010PropOp29
 70
     0
102
RTVSPost2010Prop30
280
     1
102
RTVSPost2010PropOp30
 70
     0
102
RTVSPost2010Prop31
280
     0
102
RTVSPost2010PropOp31
 70
     0
102
RTVSPost2010Prop32
280
     0
102
RTVSPost2010PropOp32
 70
     0
102
RTVSPost2010Prop33
280
     0
102
RTVSPost2010PropOp33
 70
     0
102
RTVSPost2010Prop34
280
     0
102
RTVSPost2010PropOp34
 70
     0
102
RTVSPost2010Prop35
280
     0
102
RTVSPost2010PropOp35
 70
     0
102
RTVSPost2010Prop36
280
     0
102
RTVSPost2010PropOp36
 70
     0
102
RTVSPost2010Prop37
 90
       50
102
RTVSPost2010PropOp37
 70
     0
102
RTVSPost2010Prop38
140
0.0
102
RTVSPost2010PropOp38
 70
     0
102
RTVSPost2010Prop39
140
1.0
102
RTVSPost2010PropOp39
 70
     0
102
RTVSPost2010Prop40
 90
        0
102
RTVSPost2010PropOp40
 70
     0
102
RTVSPost2010Prop41ColorIndex
 90
       18
102
RTVSPost2010Prop41ColorRGB
 90
        0
102
RTVSPost2010PropOp41
 70
     0
102
RTVSPost2010Prop42
 90
       50
102
RTVSPost2010PropOp42
 70
     0
102
RTVSPost2010Prop43
 90
        3
102
RTVSPost2010PropOp43
 70
     0
102
RTVSPost2010Prop44ColorIndex
 90
        5
102
RTVSPost2010Prop44ColorRGB
 90
      255
102
RTVSPost2010PropOp44
 70
     0
102
RTVSPost2010Prop45
280
     0
102
RTVSPost2010PropOp45
 70
     0
102
RTVSPost2010Prop46
 90
       50
102
RTVSPost2010PropOp46
 70
     0
102
RTVSPost2010Prop47
 90
       50
102
RTVSPost2010PropOp47
 70
     0
102
RTVSPost2010Prop48
 90
       50
102
RTVSPost2010PropOp48
 70
     0
102
RTVSPost2010Prop49
280
     0
102
RTVSPost2010PropOp49
 70
     0
102
RTVSPost2010Prop50
 90
       50
102
RTVSPost2010PropOp50
 70
     0
102
RTVSPost2010Prop51ColorIndex
 90
      256
102
RTVSPost2010Prop51ColorRGB
 90
-16777216
102
RTVSPost2010PropOp51
 70
     0
102
RTVSPost2010Prop52
140
1.0
102
RTVSPost2010PropOp52
 70
     0
102
RTVSPost2010Prop53
 90
        2
102
RTVSPost2010PropOp53
 70
     0
102
RTVSPost2010Prop54
  1
strokes_ogs.tif
102
RTVSPost2010PropOp54
 70
     0
102
RTVSPost2010Prop55
280
     0
102
RTVSPost2010PropOp55
 70
     0
102
RTVSPost2010Prop56
140
1.0
102
RTVSPost2010PropOp56
 70
     0
102
RTVSPost2010Prop57
140
1.0
102
RTVSPost2010PropOp57
 70
     0
102
RTVSPropertyOp0
 70
     0
102
RTVSPropertyOp1
 70
     0
102
RTVSPropertyOp2
 70
     0
102
RTVSPropertyOp3
 70
     0
102
RTVSPropertyOp4
 70
     0
102
RTVSPropertyOp5
 70
     0
102
RTVSPropertyOp6
 70
     0
102
RTVSPropertyOp7
 70
     0
102
RTVSPropertyOp8
 70
     0
102
RTVSPropertyOp9
 70
     0
102
RTVSPropertyOp10
 70
     0
102
RTVSPropertyOp11
 70
     0
102
RTVSPropertyOp12
 70
     0
102
RTVSPropertyOp13
 70
     0
102
RTVSPropertyOp14
 70
     2
102
RTVSPropertyOp15
 70
     0
102
RTVSPropertyOp16
 70
     0
102
RTVSPropertyOp17
 70
     0
102
RTVSPropertyOp18
 70
     0
102
RTVSPropertyOp19
 70
     0
102
RTVSPropertyOp20
 70
     0
102
RTVSPropertyOp21
 70
     0
102
RTVSPropertyOp22
 70
     0
102
RTVSPropertyOp23
 70
     0
102
RTVSPropertyOp24
 70
     0
102
RTVSPropertyOp25
 70
     0
102
RTVSPropertyOp26
 70
     0
102
RTVSPropertyOp27
 70
     0
102
RTVSPropertyOp28
 70
     0
102
RTVSPropertyOp29
 70
     0
102
RTVSPropertyOp30
 70
     0
102
RTVSPropertyOp31
 70
     0
102
RTVSPropertyOp32
 70
     0
102
RTVSPropertyOp33
 70
     0
102
RTVSPropertyOp34
 70
     0
102
RTVSPropertyOp35
 70
     0
102
RTVSPropertyOp36
 70
     0
102
RTVSPropertyOp37
 70
     0
102
RTVSPropertyOp38
 70
     0
102
RTVSPropertyOp39
 70
     0
102
RTVSPropertyOp40
 70
     0
102
RTVSPropertyOp41
 70
     0
102
RTVSPropertyOp42
 70
     0
102
RTVSPropertyOp43
 70
     0
102
RTVSPropertyOp44
 70
     0
102
RTVSPropertyOp45
 70
     0
102
RTVSPropertyOp46
 70
     0
102
RTVSPropertyOp47
 70
     0
102
RTVSPropertyOp48
 70
     0
102
RTVSPropertyOp49
 70
     0
102
RTVSPropertyOp50
 70
     0
102
RTVSPropertyOp51
 70
     0
102
RTVSPropertyOp52
 70
     0
102
RTVSPropertyOp53
 70
     0
102
RTVSPropertyOp54
 70
     0
102
RTVSPropertyOp55
 70
     0
102
RTVSPropertyOp56
 70
     0
102
RTVSPropertyOp57
 70
     0
102
RTVSPropertyOp58
 70
     1
102
RTVSPropertyOp59
 70
     1
102
RTVSPropertyOp60
 70
     1
102
RTVSPropertyOp61
 70
     1
102
RTVSPropertyOp62
 70
     1
  0
XRECORD
  5
1447
102
{ACAD_REACTORS
330
1446
102
}
330
1446
100
AcDbXrecord
280
     1
102
RTVSPost2010Prop28
280
     0
102
RTVSPost2010PropOp28
 70
     1
102
RTVSPost2010Prop29
280
     1
102
RTVSPost2010PropOp29
 70
     1
102
RTVSPost2010Prop30
280
     1
102
RTVSPost2010PropOp30
 70
     1
102
RTVSPost2010Prop31
280
     0
102
RTVSPost2010PropOp31
 70
     1
102
RTVSPost2010Prop32
280
     0
102
RTVSPost2010PropOp32
 70
     1
102
RTVSPost2010Prop33
280
     0
102
RTVSPost2010PropOp33
 70
     1
102
RTVSPost2010Prop34
280
     0
102
RTVSPost2010PropOp34
 70
     1
102
RTVSPost2010Prop35
280
     0
102
RTVSPost2010PropOp35
 70
     1
102
RTVSPost2010Prop36
280
     0
102
RTVSPost2010PropOp36
 70
     1
102
RTVSPost2010Prop37
 90
       50
102
RTVSPost2010PropOp37
 70
     1
102
RTVSPost2010Prop38
140
0.0
102
RTVSPost2010PropOp38
 70
     1
102
RTVSPost2010Prop39
140
1.0
102
RTVSPost2010PropOp39
 70
     1
102
RTVSPost2010Prop40
 90
        0
102
RTVSPost2010PropOp40
 70
     1
102
RTVSPost2010Prop41ColorIndex
 90
       18
102
RTVSPost2010Prop41ColorRGB
 90
        0
102
RTVSPost2010PropOp41
 70
     1
102
RTVSPost2010Prop42
 90
       50
102
RTVSPost2010PropOp42
 70
     1
102
RTVSPost2010Prop43
 90
        3
102
RTVSPost2010PropOp43
 70
     1
102
RTVSPost2010Prop44ColorIndex
 90
        5
102
RTVSPost2010Prop44ColorRGB
 90
      255
102
RTVSPost2010PropOp44
 70
     1
102
RTVSPost2010Prop45
280
     0
102
RTVSPost2010PropOp45
 70
     1
102
RTVSPost2010Prop46
 90
       50
102
RTVSPost2010PropOp46
 70
     1
102
RTVSPost2010Prop47
 90
       50
102
RTVSPost2010PropOp47
 70
     1
102
RTVSPost2010Prop48
 90
       50
102
RTVSPost2010PropOp48
 70
     1
102
RTVSPost2010Prop49
280
     0
102
RTVSPost2010PropOp49
 70
     1
102
RTVSPost2010Prop50
 90
       50
102
RTVSPost2010PropOp50
 70
     1
102
RTVSPost2010Prop51ColorIndex
 90
      256
102
RTVSPost2010Prop51ColorRGB
 90
-16777216
102
RTVSPost2010PropOp51
 70
     0
102
RTVSPost2010Prop52
140
1.0
102
RTVSPost2010PropOp52
 70
     0
102
RTVSPost2010Prop53
 90
        2
102
RTVSPost2010PropOp53
 70
     1
102
RTVSPost2010Prop54
  1
strokes_ogs.tif
102
RTVSPost2010PropOp54
 70
     1
102
RTVSPost2010Prop55
280
     0
102
RTVSPost2010PropOp55
 70
     1
102
RTVSPost2010Prop56
140
1.0
102
RTVSPost2010PropOp56
 70
     1
102
RTVSPost2010Prop57
140
1.0
102
RTVSPost2010PropOp57
 70
     1
102
RTVSPropertyOp0
 70
     1
102
RTVSPropertyOp1
 70
     1
102
RTVSPropertyOp2
 70
     1
102
RTVSPropertyOp3
 70
     1
102
RTVSPropertyOp4
 70
     1
102
RTVSPropertyOp5
 70
     1
102
RTVSPropertyOp6
 70
     1
102
RTVSPropertyOp7
 70
     1
102
RTVSPropertyOp8
 70
     1
102
RTVSPropertyOp9
 70
     1
102
RTVSPropertyOp10
 70
     1
102
RTVSPropertyOp11
 70
     1
102
RTVSPropertyOp12
 70
     1
102
RTVSPropertyOp13
 70
     1
102
RTVSPropertyOp14
 70
     1
102
RTVSPropertyOp15
 70
     1
102
RTVSPropertyOp16
 70
     1
102
RTVSPropertyOp17
 70
     1
102
RTVSPropertyOp18
 70
     1
102
RTVSPropertyOp19
 70
     1
102
RTVSPropertyOp20
 70
     1
102
RTVSPropertyOp21
 70
     1
102
RTVSPropertyOp22
 70
     1
102
RTVSPropertyOp23
 70
     1
102
RTVSPropertyOp24
 70
     1
102
RTVSPropertyOp25
 70
     1
102
RTVSPropertyOp26
 70
     1
102
RTVSPropertyOp27
 70
     1
102
RTVSPropertyOp28
 70
     1
102
RTVSPropertyOp29
 70
     1
102
RTVSPropertyOp30
 70
     1
102
RTVSPropertyOp31
 70
     1
102
RTVSPropertyOp32
 70
     1
102
RTVSPropertyOp33
 70
     1
102
RTVSPropertyOp34
 70
     1
102
RTVSPropertyOp35
 70
     1
102
RTVSPropertyOp36
 70
     1
102
RTVSPropertyOp37
 70
     1
102
RTVSPropertyOp38
 70
     1
102
RTVSPropertyOp39
 70
     1
102
RTVSPropertyOp40
 70
     1
102
RTVSPropertyOp41
 70
     1
102
RTVSPropertyOp42
 70
     1
102
RTVSPropertyOp43
 70
     1
102
RTVSPropertyOp44
 70
     1
102
RTVSPropertyOp45
 70
     1
102
RTVSPropertyOp46
 70
     1
102
RTVSPropertyOp47
 70
     1
102
RTVSPropertyOp48
 70
     1
102
RTVSPropertyOp49
 70
     1
102
RTVSPropertyOp50
 70
     1
102
RTVSPropertyOp51
 70
     0
102
RTVSPropertyOp52
 70
     0
102
RTVSPropertyOp53
 70
     1
102
RTVSPropertyOp54
 70
     1
102
RTVSPropertyOp55
 70
     1
102
RTVSPropertyOp56
 70
     1
102
RTVSPropertyOp57
 70
     1
102
RTVSPropertyOp58
 70
     1
102
RTVSPropertyOp59
 70
     1
102
RTVSPropertyOp60
 70
     1
102
RTVSPropertyOp61
 70
     1
102
RTVSPropertyOp62
 70
     1
  0
XRECORD
  5
1459
102
{ACAD_REACTORS
330
1458
102
}
330
1458
100
AcDbXrecord
280
     1
102
RTVSPost2010Prop28
280
     0
102
RTVSPost2010PropOp28
 70
     0
102
RTVSPost2010Prop29
280
     1
102
RTVSPost2010PropOp29
 70
     0
102
RTVSPost2010Prop30
280
     1
102
RTVSPost2010PropOp30
 70
     0
102
RTVSPost2010Prop31
280
     0
102
RTVSPost2010PropOp31
 70
     0
102
RTVSPost2010Prop32
280
     0
102
RTVSPost2010PropOp32
 70
     0
102
RTVSPost2010Prop33
280
     0
102
RTVSPost2010PropOp33
 70
     0
102
RTVSPost2010Prop34
280
     0
102
RTVSPost2010PropOp34
 70
     0
102
RTVSPost2010Prop35
280
     0
102
RTVSPost2010PropOp35
 70
     0
102
RTVSPost2010Prop36
280
     0
102
RTVSPost2010PropOp36
 70
     0
102
RTVSPost2010Prop37
 90
       50
102
RTVSPost2010PropOp37
 70
     0
102
RTVSPost2010Prop38
140
0.0
102
RTVSPost2010PropOp38
 70
     0
102
RTVSPost2010Prop39
140
1.0
102
RTVSPost2010PropOp39
 70
     0
102
RTVSPost2010Prop40
 90
        0
102
RTVSPost2010PropOp40
 70
     0
102
RTVSPost2010Prop41ColorIndex
 90
       18
102
RTVSPost2010Prop41ColorRGB
 90
        0
102
RTVSPost2010PropOp41
 70
     0
102
RTVSPost2010Prop42
 90
       50
102
RTVSPost2010PropOp42
 70
     0
102
RTVSPost2010Prop43
 90
        3
102
RTVSPost2010PropOp43
 70
     0
102
RTVSPost2010Prop44ColorIndex
 90
        5
102
RTVSPost2010Prop44ColorRGB
 90
      255
102
RTVSPost2010PropOp44
 70
     0
102
RTVSPost2010Prop45
280
     0
102
RTVSPost2010PropOp45
 70
     0
102
RTVSPost2010Prop46
 90
       50
102
RTVSPost2010PropOp46
 70
     0
102
RTVSPost2010Prop47
 90
       50
102
RTVSPost2010PropOp47
 70
     0
102
RTVSPost2010Prop48
 90
       50
102
RTVSPost2010PropOp48
 70
     0
102
RTVSPost2010Prop49
280
     0
102
RTVSPost2010PropOp49
 70
     0
102
RTVSPost2010Prop50
 90
       50
102
RTVSPost2010PropOp50
 70
     0
102
RTVSPost2010Prop51ColorIndex
 90
      256
102
RTVSPost2010Prop51ColorRGB
 90
-16777216
102
RTVSPost2010PropOp51
 70
     0
102
RTVSPost2010Prop52
140
1.0
102
RTVSPost2010PropOp52
 70
     0
102
RTVSPost2010Prop53
 90
        2
102
RTVSPost2010PropOp53
 70
     0
102
RTVSPost2010Prop54
  1
strokes_ogs.tif
102
RTVSPost2010PropOp54
 70
     0
102
RTVSPost2010Prop55
280
     0
102
RTVSPost2010PropOp55
 70
     0
102
RTVSPost2010Prop56
140
1.0
102
RTVSPost2010PropOp56
 70
     0
102
RTVSPost2010Prop57
140
1.0
102
RTVSPost2010PropOp57
 70
     0
102
RTVSPropertyOp0
 70
     0
102
RTVSPropertyOp1
 70
     0
102
RTVSPropertyOp2
 70
     0
102
RTVSPropertyOp3
 70
     0
102
RTVSPropertyOp4
 70
     0
102
RTVSPropertyOp5
 70
     0
102
RTVSPropertyOp6
 70
     0
102
RTVSPropertyOp7
 70
     0
102
RTVSPropertyOp8
 70
     0
102
RTVSPropertyOp9
 70
     0
102
RTVSPropertyOp10
 70
     0
102
RTVSPropertyOp11
 70
     0
102
RTVSPropertyOp12
 70
     0
102
RTVSPropertyOp13
 70
     0
102
RTVSPropertyOp14
 70
     2
102
RTVSPropertyOp15
 70
     0
102
RTVSPropertyOp16
 70
     0
102
RTVSPropertyOp17
 70
     0
102
RTVSPropertyOp18
 70
     0
102
RTVSPropertyOp19
 70
     0
102
RTVSPropertyOp20
 70
     0
102
RTVSPropertyOp21
 70
     0
102
RTVSPropertyOp22
 70
     0
102
RTVSPropertyOp23
 70
     0
102
RTVSPropertyOp24
 70
     0
102
RTVSPropertyOp25
 70
     0
102
RTVSPropertyOp26
 70
     0
102
RTVSPropertyOp27
 70
     0
102
RTVSPropertyOp28
 70
     0
102
RTVSPropertyOp29
 70
     0
102
RTVSPropertyOp30
 70
     0
102
RTVSPropertyOp31
 70
     0
102
RTVSPropertyOp32
 70
     0
102
RTVSPropertyOp33
 70
     0
102
RTVSPropertyOp34
 70
     0
102
RTVSPropertyOp35
 70
     0
102
RTVSPropertyOp36
 70
     0
102
RTVSPropertyOp37
 70
     0
102
RTVSPropertyOp38
 70
     0
102
RTVSPropertyOp39
 70
     0
102
RTVSPropertyOp40
 70
     0
102
RTVSPropertyOp41
 70
     0
102
RTVSPropertyOp42
 70
     0
102
RTVSPropertyOp43
 70
     0
102
RTVSPropertyOp44
 70
     0
102
RTVSPropertyOp45
 70
     0
102
RTVSPropertyOp46
 70
     0
102
RTVSPropertyOp47
 70
     0
102
RTVSPropertyOp48
 70
     0
102
RTVSPropertyOp49
 70
     0
102
RTVSPropertyOp50
 70
     0
102
RTVSPropertyOp51
 70
     0
102
RTVSPropertyOp52
 70
     0
102
RTVSPropertyOp53
 70
     0
102
RTVSPropertyOp54
 70
     0
102
RTVSPropertyOp55
 70
     0
102
RTVSPropertyOp56
 70
     0
102
RTVSPropertyOp57
 70
     0
102
RTVSPropertyOp58
 70
     1
102
RTVSPropertyOp59
 70
     1
102
RTVSPropertyOp60
 70
     1
102
RTVSPropertyOp61
 70
     1
102
RTVSPropertyOp62
 70
     1
  0
XRECORD
  5
143F
102
{ACAD_REACTORS
330
143E
102
}
330
143E
100
AcDbXrecord
280
     1
102
RTVSPost2010Prop28
280
     0
102
RTVSPost2010PropOp28
 70
     1
102
RTVSPost2010Prop29
280
     1
102
RTVSPost2010PropOp29
 70
     1
102
RTVSPost2010Prop30
280
     1
102
RTVSPost2010PropOp30
 70
     1
102
RTVSPost2010Prop31
280
     0
102
RTVSPost2010PropOp31
 70
     1
102
RTVSPost2010Prop32
280
     0
102
RTVSPost2010PropOp32
 70
     1
102
RTVSPost2010Prop33
280
     0
102
RTVSPost2010PropOp33
 70
     1
102
RTVSPost2010Prop34
280
     0
102
RTVSPost2010PropOp34
 70
     1
102
RTVSPost2010Prop35
280
     0
102
RTVSPost2010PropOp35
 70
     1
102
RTVSPost2010Prop36
280
     0
102
RTVSPost2010PropOp36
 70
     1
102
RTVSPost2010Prop37
 90
       50
102
RTVSPost2010PropOp37
 70
     1
102
RTVSPost2010Prop38
140
0.0
102
RTVSPost2010PropOp38
 70
     1
102
RTVSPost2010Prop39
140
1.0
102
RTVSPost2010PropOp39
 70
     1
102
RTVSPost2010Prop40
 90
        0
102
RTVSPost2010PropOp40
 70
     1
102
RTVSPost2010Prop41ColorIndex
 90
       18
102
RTVSPost2010Prop41ColorRGB
 90
        0
102
RTVSPost2010PropOp41
 70
     1
102
RTVSPost2010Prop42
 90
       50
102
RTVSPost2010PropOp42
 70
     1
102
RTVSPost2010Prop43
 90
        3
102
RTVSPost2010PropOp43
 70
     1
102
RTVSPost2010Prop44ColorIndex
 90
        5
102
RTVSPost2010Prop44ColorRGB
 90
      255
102
RTVSPost2010PropOp44
 70
     1
102
RTVSPost2010Prop45
280
     0
102
RTVSPost2010PropOp45
 70
     1
102
RTVSPost2010Prop46
 90
       50
102
RTVSPost2010PropOp46
 70
     1
102
RTVSPost2010Prop47
 90
       50
102
RTVSPost2010PropOp47
 70
     1
102
RTVSPost2010Prop48
 90
       50
102
RTVSPost2010PropOp48
 70
     1
102
RTVSPost2010Prop49
280
     0
102
RTVSPost2010PropOp49
 70
     1
102
RTVSPost2010Prop50
 90
       50
102
RTVSPost2010PropOp50
 70
     1
102
RTVSPost2010Prop51ColorIndex
 90
      256
102
RTVSPost2010Prop51ColorRGB
 90
-16777216
102
RTVSPost2010PropOp51
 70
     0
102
RTVSPost2010Prop52
140
1.0
102
RTVSPost2010PropOp52
 70
     0
102
RTVSPost2010Prop53
 90
        2
102
RTVSPost2010PropOp53
 70
     1
102
RTVSPost2010Prop54
  1
strokes_ogs.tif
102
RTVSPost2010PropOp54
 70
     1
102
RTVSPost2010Prop55
280
     0
102
RTVSPost2010PropOp55
 70
     1
102
RTVSPost2010Prop56
140
1.0
102
RTVSPost2010PropOp56
 70
     1
102
RTVSPost2010Prop57
140
1.0
102
RTVSPost2010PropOp57
 70
     1
102
RTVSPropertyOp0
 70
     1
102
RTVSPropertyOp1
 70
     1
102
RTVSPropertyOp2
 70
     1
102
RTVSPropertyOp3
 70
     1
102
RTVSPropertyOp4
 70
     1
102
RTVSPropertyOp5
 70
     1
102
RTVSPropertyOp6
 70
     1
102
RTVSPropertyOp7
 70
     1
102
RTVSPropertyOp8
 70
     1
102
RTVSPropertyOp9
 70
     1
102
RTVSPropertyOp10
 70
     1
102
RTVSPropertyOp11
 70
     1
102
RTVSPropertyOp12
 70
     1
102
RTVSPropertyOp13
 70
     1
102
RTVSPropertyOp14
 70
     1
102
RTVSPropertyOp15
 70
     1
102
RTVSPropertyOp16
 70
     1
102
RTVSPropertyOp17
 70
     1
102
RTVSPropertyOp18
 70
     1
102
RTVSPropertyOp19
 70
     1
102
RTVSPropertyOp20
 70
     1
102
RTVSPropertyOp21
 70
     1
102
RTVSPropertyOp22
 70
     1
102
RTVSPropertyOp23
 70
     1
102
RTVSPropertyOp24
 70
     1
102
RTVSPropertyOp25
 70
     1
102
RTVSPropertyOp26
 70
     1
102
RTVSPropertyOp27
 70
     1
102
RTVSPropertyOp28
 70
     1
102
RTVSPropertyOp29
 70
     1
102
RTVSPropertyOp30
 70
     1
102
RTVSPropertyOp31
 70
     1
102
RTVSPropertyOp32
 70
     1
102
RTVSPropertyOp33
 70
     1
102
RTVSPropertyOp34
 70
     1
102
RTVSPropertyOp35
 70
     1
102
RTVSPropertyOp36
 70
     1
102
RTVSPropertyOp37
 70
     1
102
RTVSPropertyOp38
 70
     1
102
RTVSPropertyOp39
 70
     1
102
RTVSPropertyOp40
 70
     1
102
RTVSPropertyOp41
 70
     1
102
RTVSPropertyOp42
 70
     1
102
RTVSPropertyOp43
 70
     1
102
RTVSPropertyOp44
 70
     1
102
RTVSPropertyOp45
 70
     1
102
RTVSPropertyOp46
 70
     1
102
RTVSPropertyOp47
 70
     1
102
RTVSPropertyOp48
 70
     1
102
RTVSPropertyOp49
 70
     1
102
RTVSPropertyOp50
 70
     1
102
RTVSPropertyOp51
 70
     0
102
RTVSPropertyOp52
 70
     0
102
RTVSPropertyOp53
 70
     1
102
RTVSPropertyOp54
 70
     1
102
RTVSPropertyOp55
 70
     1
102
RTVSPropertyOp56
 70
     1
102
RTVSPropertyOp57
 70
     1
102
RTVSPropertyOp58
 70
     1
102
RTVSPropertyOp59
 70
     1
102
RTVSPropertyOp60
 70
     1
102
RTVSPropertyOp61
 70
     1
102
RTVSPropertyOp62
 70
     1
  0
XRECORD
  5
1455
102
{ACAD_REACTORS
330
1454
102
}
330
1454
100
AcDbXrecord
280
     1
102
RTVSPost2010Prop28
280
     0
102
RTVSPost2010PropOp28
 70
     1
102
RTVSPost2010Prop29
280
     1
102
RTVSPost2010PropOp29
 70
     1
102
RTVSPost2010Prop30
280
     1
102
RTVSPost2010PropOp30
 70
     1
102
RTVSPost2010Prop31
280
     0
102
RTVSPost2010PropOp31
 70
     1
102
RTVSPost2010Prop32
280
     0
102
RTVSPost2010PropOp32
 70
     1
102
RTVSPost2010Prop33
280
     0
102
RTVSPost2010PropOp33
 70
     1
102
RTVSPost2010Prop34
280
     0
102
RTVSPost2010PropOp34
 70
     1
102
RTVSPost2010Prop35
280
     0
102
RTVSPost2010PropOp35
 70
     1
102
RTVSPost2010Prop36
280
     0
102
RTVSPost2010PropOp36
 70
     1
102
RTVSPost2010Prop37
 90
       50
102
RTVSPost2010PropOp37
 70
     1
102
RTVSPost2010Prop38
140
0.0
102
RTVSPost2010PropOp38
 70
     1
102
RTVSPost2010Prop39
140
1.0
102
RTVSPost2010PropOp39
 70
     1
102
RTVSPost2010Prop40
 90
        0
102
RTVSPost2010PropOp40
 70
     1
102
RTVSPost2010Prop41ColorIndex
 90
       18
102
RTVSPost2010Prop41ColorRGB
 90
        0
102
RTVSPost2010PropOp41
 70
     1
102
RTVSPost2010Prop42
 90
       50
102
RTVSPost2010PropOp42
 70
     1
102
RTVSPost2010Prop43
 90
        3
102
RTVSPost2010PropOp43
 70
     1
102
RTVSPost2010Prop44ColorIndex
 90
        5
102
RTVSPost2010Prop44ColorRGB
 90
      255
102
RTVSPost2010PropOp44
 70
     1
102
RTVSPost2010Prop45
280
     0
102
RTVSPost2010PropOp45
 70
     1
102
RTVSPost2010Prop46
 90
       50
102
RTVSPost2010PropOp46
 70
     1
102
RTVSPost2010Prop47
 90
       50
102
RTVSPost2010PropOp47
 70
     1
102
RTVSPost2010Prop48
 90
       50
102
RTVSPost2010PropOp48
 70
     1
102
RTVSPost2010Prop49
280
     0
102
RTVSPost2010PropOp49
 70
     1
102
RTVSPost2010Prop50
 90
       50
102
RTVSPost2010PropOp50
 70
     1
102
RTVSPost2010Prop51ColorIndex
 90
      256
102
RTVSPost2010Prop51ColorRGB
 90
-16777216
102
RTVSPost2010PropOp51
 70
     0
102
RTVSPost2010Prop52
140
1.0
102
RTVSPost2010PropOp52
 70
     0
102
RTVSPost2010Prop53
 90
        2
102
RTVSPost2010PropOp53
 70
     1
102
RTVSPost2010Prop54
  1
strokes_ogs.tif
102
RTVSPost2010PropOp54
 70
     1
102
RTVSPost2010Prop55
280
     0
102
RTVSPost2010PropOp55
 70
     1
102
RTVSPost2010Prop56
140
1.0
102
RTVSPost2010PropOp56
 70
     1
102
RTVSPost2010Prop57
140
1.0
102
RTVSPost2010PropOp57
 70
     1
102
RTVSPropertyOp0
 70
     1
102
RTVSPropertyOp1
 70
     1
102
RTVSPropertyOp2
 70
     1
102
RTVSPropertyOp3
 70
     1
102
RTVSPropertyOp4
 70
     1
102
RTVSPropertyOp5
 70
     1
102
RTVSPropertyOp6
 70
     1
102
RTVSPropertyOp7
 70
     1
102
RTVSPropertyOp8
 70
     1
102
RTVSPropertyOp9
 70
     1
102
RTVSPropertyOp10
 70
     1
102
RTVSPropertyOp11
 70
     1
102
RTVSPropertyOp12
 70
     1
102
RTVSPropertyOp13
 70
     1
102
RTVSPropertyOp14
 70
     1
102
RTVSPropertyOp15
 70
     1
102
RTVSPropertyOp16
 70
     1
102
RTVSPropertyOp17
 70
     1
102
RTVSPropertyOp18
 70
     1
102
RTVSPropertyOp19
 70
     1
102
RTVSPropertyOp20
 70
     1
102
RTVSPropertyOp21
 70
     1
102
RTVSPropertyOp22
 70
     1
102
RTVSPropertyOp23
 70
     1
102
RTVSPropertyOp24
 70
     1
102
RTVSPropertyOp25
 70
     1
102
RTVSPropertyOp26
 70
     1
102
RTVSPropertyOp27
 70
     1
102
RTVSPropertyOp28
 70
     1
102
RTVSPropertyOp29
 70
     1
102
RTVSPropertyOp30
 70
     1
102
RTVSPropertyOp31
 70
     1
102
RTVSPropertyOp32
 70
     1
102
RTVSPropertyOp33
 70
     1
102
RTVSPropertyOp34
 70
     1
102
RTVSPropertyOp35
 70
     1
102
RTVSPropertyOp36
 70
     1
102
RTVSPropertyOp37
 70
     1
102
RTVSPropertyOp38
 70
     1
102
RTVSPropertyOp39
 70
     1
102
RTVSPropertyOp40
 70
     1
102
RTVSPropertyOp41
 70
     1
102
RTVSPropertyOp42
 70
     1
102
RTVSPropertyOp43
 70
     1
102
RTVSPropertyOp44
 70
     1
102
RTVSPropertyOp45
 70
     1
102
RTVSPropertyOp46
 70
     1
102
RTVSPropertyOp47
 70
     1
102
RTVSPropertyOp48
 70
     1
102
RTVSPropertyOp49
 70
     1
102
RTVSPropertyOp50
 70
     1
102
RTVSPropertyOp51
 70
     0
102
RTVSPropertyOp52
 70
     0
102
RTVSPropertyOp53
 70
     1
102
RTVSPropertyOp54
 70
     1
102
RTVSPropertyOp55
 70
     1
102
RTVSPropertyOp56
 70
     1
102
RTVSPropertyOp57
 70
     1
102
RTVSPropertyOp58
 70
     1
102
RTVSPropertyOp59
 70
     1
102
RTVSPropertyOp60
 70
     1
102
RTVSPropertyOp61
 70
     1
102
RTVSPropertyOp62
 70
     1
  0
XRECORD
  5
1453
102
{ACAD_REACTORS
330
1452
102
}
330
1452
100
AcDbXrecord
280
     1
102
RTVSPost2010Prop28
280
     0
102
RTVSPost2010PropOp28
 70
     1
102
RTVSPost2010Prop29
280
     1
102
RTVSPost2010PropOp29
 70
     1
102
RTVSPost2010Prop30
280
     1
102
RTVSPost2010PropOp30
 70
     1
102
RTVSPost2010Prop31
280
     0
102
RTVSPost2010PropOp31
 70
     1
102
RTVSPost2010Prop32
280
     0
102
RTVSPost2010PropOp32
 70
     1
102
RTVSPost2010Prop33
280
     0
102
RTVSPost2010PropOp33
 70
     1
102
RTVSPost2010Prop34
280
     0
102
RTVSPost2010PropOp34
 70
     1
102
RTVSPost2010Prop35
280
     0
102
RTVSPost2010PropOp35
 70
     1
102
RTVSPost2010Prop36
280
     0
102
RTVSPost2010PropOp36
 70
     1
102
RTVSPost2010Prop37
 90
       50
102
RTVSPost2010PropOp37
 70
     1
102
RTVSPost2010Prop38
140
0.0
102
RTVSPost2010PropOp38
 70
     1
102
RTVSPost2010Prop39
140
1.0
102
RTVSPost2010PropOp39
 70
     1
102
RTVSPost2010Prop40
 90
        0
102
RTVSPost2010PropOp40
 70
     1
102
RTVSPost2010Prop41ColorIndex
 90
       18
102
RTVSPost2010Prop41ColorRGB
 90
        0
102
RTVSPost2010PropOp41
 70
     1
102
RTVSPost2010Prop42
 90
       50
102
RTVSPost2010PropOp42
 70
     1
102
RTVSPost2010Prop43
 90
        3
102
RTVSPost2010PropOp43
 70
     1
102
RTVSPost2010Prop44ColorIndex
 90
        5
102
RTVSPost2010Prop44ColorRGB
 90
      255
102
RTVSPost2010PropOp44
 70
     1
102
RTVSPost2010Prop45
280
     0
102
RTVSPost2010PropOp45
 70
     1
102
RTVSPost2010Prop46
 90
       50
102
RTVSPost2010PropOp46
 70
     1
102
RTVSPost2010Prop47
 90
       50
102
RTVSPost2010PropOp47
 70
     1
102
RTVSPost2010Prop48
 90
       50
102
RTVSPost2010PropOp48
 70
     1
102
RTVSPost2010Prop49
280
     0
102
RTVSPost2010PropOp49
 70
     1
102
RTVSPost2010Prop50
 90
       50
102
RTVSPost2010PropOp50
 70
     1
102
RTVSPost2010Prop51ColorIndex
 90
      256
102
RTVSPost2010Prop51ColorRGB
 90
-16777216
102
RTVSPost2010PropOp51
 70
     0
102
RTVSPost2010Prop52
140
1.0
102
RTVSPost2010PropOp52
 70
     0
102
RTVSPost2010Prop53
 90
        2
102
RTVSPost2010PropOp53
 70
     1
102
RTVSPost2010Prop54
  1
strokes_ogs.tif
102
RTVSPost2010PropOp54
 70
     1
102
RTVSPost2010Prop55
280
     0
102
RTVSPost2010PropOp55
 70
     1
102
RTVSPost2010Prop56
140
1.0
102
RTVSPost2010PropOp56
 70
     1
102
RTVSPost2010Prop57
140
1.0
102
RTVSPost2010PropOp57
 70
     1
102
RTVSPropertyOp0
 70
     1
102
RTVSPropertyOp1
 70
     1
102
RTVSPropertyOp2
 70
     1
102
RTVSPropertyOp3
 70
     1
102
RTVSPropertyOp4
 70
     1
102
RTVSPropertyOp5
 70
     1
102
RTVSPropertyOp6
 70
     1
102
RTVSPropertyOp7
 70
     1
102
RTVSPropertyOp8
 70
     1
102
RTVSPropertyOp9
 70
     1
102
RTVSPropertyOp10
 70
     1
102
RTVSPropertyOp11
 70
     1
102
RTVSPropertyOp12
 70
     1
102
RTVSPropertyOp13
 70
     1
102
RTVSPropertyOp14
 70
     1
102
RTVSPropertyOp15
 70
     1
102
RTVSPropertyOp16
 70
     1
102
RTVSPropertyOp17
 70
     1
102
RTVSPropertyOp18
 70
     1
102
RTVSPropertyOp19
 70
     1
102
RTVSPropertyOp20
 70
     1
102
RTVSPropertyOp21
 70
     1
102
RTVSPropertyOp22
 70
     1
102
RTVSPropertyOp23
 70
     1
102
RTVSPropertyOp24
 70
     1
102
RTVSPropertyOp25
 70
     1
102
RTVSPropertyOp26
 70
     1
102
RTVSPropertyOp27
 70
     1
102
RTVSPropertyOp28
 70
     1
102
RTVSPropertyOp29
 70
     1
102
RTVSPropertyOp30
 70
     1
102
RTVSPropertyOp31
 70
     1
102
RTVSPropertyOp32
 70
     1
102
RTVSPropertyOp33
 70
     1
102
RTVSPropertyOp34
 70
     1
102
RTVSPropertyOp35
 70
     1
102
RTVSPropertyOp36
 70
     1
102
RTVSPropertyOp37
 70
     1
102
RTVSPropertyOp38
 70
     1
102
RTVSPropertyOp39
 70
     1
102
RTVSPropertyOp40
 70
     1
102
RTVSPropertyOp41
 70
     1
102
RTVSPropertyOp42
 70
     1
102
RTVSPropertyOp43
 70
     1
102
RTVSPropertyOp44
 70
     1
102
RTVSPropertyOp45
 70
     1
102
RTVSPropertyOp46
 70
     1
102
RTVSPropertyOp47
 70
     1
102
RTVSPropertyOp48
 70
     1
102
RTVSPropertyOp49
 70
     1
102
RTVSPropertyOp50
 70
     1
102
RTVSPropertyOp51
 70
     0
102
RTVSPropertyOp52
 70
     0
102
RTVSPropertyOp53
 70
     1
102
RTVSPropertyOp54
 70
     1
102
RTVSPropertyOp55
 70
     1
102
RTVSPropertyOp56
 70
     1
102
RTVSPropertyOp57
 70
     1
102
RTVSPropertyOp58
 70
     1
102
RTVSPropertyOp59
 70
     1
102
RTVSPropertyOp60
 70
     1
102
RTVSPropertyOp61
 70
     1
102
RTVSPropertyOp62
 70
     1
  0
XRECORD
  5
144D
102
{ACAD_REACTORS
330
144C
102
}
330
144C
100
AcDbXrecord
280
     1
102
RTVSPost2010Prop28
280
     0
102
RTVSPost2010PropOp28
 70
     1
102
RTVSPost2010Prop29
280
     1
102
RTVSPost2010PropOp29
 70
     1
102
RTVSPost2010Prop30
280
     1
102
RTVSPost2010PropOp30
 70
     1
102
RTVSPost2010Prop31
280
     0
102
RTVSPost2010PropOp31
 70
     1
102
RTVSPost2010Prop32
280
     0
102
RTVSPost2010PropOp32
 70
     1
102
RTVSPost2010Prop33
280
     0
102
RTVSPost2010PropOp33
 70
     1
102
RTVSPost2010Prop34
280
     0
102
RTVSPost2010PropOp34
 70
     1
102
RTVSPost2010Prop35
280
     0
102
RTVSPost2010PropOp35
 70
     1
102
RTVSPost2010Prop36
280
     0
102
RTVSPost2010PropOp36
 70
     1
102
RTVSPost2010Prop37
 90
       50
102
RTVSPost2010PropOp37
 70
     1
102
RTVSPost2010Prop38
140
0.0
102
RTVSPost2010PropOp38
 70
     1
102
RTVSPost2010Prop39
140
1.0
102
RTVSPost2010PropOp39
 70
     1
102
RTVSPost2010Prop40
 90
        0
102
RTVSPost2010PropOp40
 70
     1
102
RTVSPost2010Prop41ColorIndex
 90
       18
102
RTVSPost2010Prop41ColorRGB
 90
        0
102
RTVSPost2010PropOp41
 70
     1
102
RTVSPost2010Prop42
 90
       50
102
RTVSPost2010PropOp42
 70
     1
102
RTVSPost2010Prop43
 90
        3
102
RTVSPost2010PropOp43
 70
     1
102
RTVSPost2010Prop44ColorIndex
 90
        5
102
RTVSPost2010Prop44ColorRGB
 90
      255
102
RTVSPost2010PropOp44
 70
     1
102
RTVSPost2010Prop45
280
     0
102
RTVSPost2010PropOp45
 70
     1
102
RTVSPost2010Prop46
 90
       50
102
RTVSPost2010PropOp46
 70
     1
102
RTVSPost2010Prop47
 90
       50
102
RTVSPost2010PropOp47
 70
     1
102
RTVSPost2010Prop48
 90
       50
102
RTVSPost2010PropOp48
 70
     1
102
RTVSPost2010Prop49
280
     0
102
RTVSPost2010PropOp49
 70
     1
102
RTVSPost2010Prop50
 90
       50
102
RTVSPost2010PropOp50
 70
     1
102
RTVSPost2010Prop51ColorIndex
 90
      256
102
RTVSPost2010Prop51ColorRGB
 90
-16777216
102
RTVSPost2010PropOp51
 70
     0
102
RTVSPost2010Prop52
140
1.0
102
RTVSPost2010PropOp52
 70
     0
102
RTVSPost2010Prop53
 90
        2
102
RTVSPost2010PropOp53
 70
     1
102
RTVSPost2010Prop54
  1
strokes_ogs.tif
102
RTVSPost2010PropOp54
 70
     1
102
RTVSPost2010Prop55
280
     0
102
RTVSPost2010PropOp55
 70
     1
102
RTVSPost2010Prop56
140
1.0
102
RTVSPost2010PropOp56
 70
     1
102
RTVSPost2010Prop57
140
1.0
102
RTVSPost2010PropOp57
 70
     1
102
RTVSPropertyOp0
 70
     1
102
RTVSPropertyOp1
 70
     1
102
RTVSPropertyOp2
 70
     1
102
RTVSPropertyOp3
 70
     1
102
RTVSPropertyOp4
 70
     1
102
RTVSPropertyOp5
 70
     1
102
RTVSPropertyOp6
 70
     1
102
RTVSPropertyOp7
 70
     1
102
RTVSPropertyOp8
 70
     1
102
RTVSPropertyOp9
 70
     1
102
RTVSPropertyOp10
 70
     1
102
RTVSPropertyOp11
 70
     1
102
RTVSPropertyOp12
 70
     1
102
RTVSPropertyOp13
 70
     1
102
RTVSPropertyOp14
 70
     1
102
RTVSPropertyOp15
 70
     1
102
RTVSPropertyOp16
 70
     1
102
RTVSPropertyOp17
 70
     1
102
RTVSPropertyOp18
 70
     1
102
RTVSPropertyOp19
 70
     1
102
RTVSPropertyOp20
 70
     1
102
RTVSPropertyOp21
 70
     1
102
RTVSPropertyOp22
 70
     1
102
RTVSPropertyOp23
 70
     1
102
RTVSPropertyOp24
 70
     1
102
RTVSPropertyOp25
 70
     1
102
RTVSPropertyOp26
 70
     1
102
RTVSPropertyOp27
 70
     1
102
RTVSPropertyOp28
 70
     1
102
RTVSPropertyOp29
 70
     1
102
RTVSPropertyOp30
 70
     1
102
RTVSPropertyOp31
 70
     1
102
RTVSPropertyOp32
 70
     1
102
RTVSPropertyOp33
 70
     1
102
RTVSPropertyOp34
 70
     1
102
RTVSPropertyOp35
 70
     1
102
RTVSPropertyOp36
 70
     1
102
RTVSPropertyOp37
 70
     1
102
RTVSPropertyOp38
 70
     1
102
RTVSPropertyOp39
 70
     1
102
RTVSPropertyOp40
 70
     1
102
RTVSPropertyOp41
 70
     1
102
RTVSPropertyOp42
 70
     1
102
RTVSPropertyOp43
 70
     1
102
RTVSPropertyOp44
 70
     1
102
RTVSPropertyOp45
 70
     1
102
RTVSPropertyOp46
 70
     1
102
RTVSPropertyOp47
 70
     1
102
RTVSPropertyOp48
 70
     1
102
RTVSPropertyOp49
 70
     1
102
RTVSPropertyOp50
 70
     1
102
RTVSPropertyOp51
 70
     0
102
RTVSPropertyOp52
 70
     0
102
RTVSPropertyOp53
 70
     1
102
RTVSPropertyOp54
 70
     1
102
RTVSPropertyOp55
 70
     1
102
RTVSPropertyOp56
 70
     1
102
RTVSPropertyOp57
 70
     1
102
RTVSPropertyOp58
 70
     1
102
RTVSPropertyOp59
 70
     1
102
RTVSPropertyOp60
 70
     1
102
RTVSPropertyOp61
 70
     1
102
RTVSPropertyOp62
 70
     1
  0
XRECORD
  5
144F
102
{ACAD_REACTORS
330
144E
102
}
330
144E
100
AcDbXrecord
280
     1
102
RTVSPost2010Prop28
280
     0
102
RTVSPost2010PropOp28
 70
     1
102
RTVSPost2010Prop29
280
     1
102
RTVSPost2010PropOp29
 70
     1
102
RTVSPost2010Prop30
280
     1
102
RTVSPost2010PropOp30
 70
     1
102
RTVSPost2010Prop31
280
     0
102
RTVSPost2010PropOp31
 70
     1
102
RTVSPost2010Prop32
280
     0
102
RTVSPost2010PropOp32
 70
     1
102
RTVSPost2010Prop33
280
     0
102
RTVSPost2010PropOp33
 70
     1
102
RTVSPost2010Prop34
280
     0
102
RTVSPost2010PropOp34
 70
     1
102
RTVSPost2010Prop35
280
     0
102
RTVSPost2010PropOp35
 70
     1
102
RTVSPost2010Prop36
280
     0
102
RTVSPost2010PropOp36
 70
     1
102
RTVSPost2010Prop37
 90
       50
102
RTVSPost2010PropOp37
 70
     1
102
RTVSPost2010Prop38
140
0.0
102
RTVSPost2010PropOp38
 70
     1
102
RTVSPost2010Prop39
140
1.0
102
RTVSPost2010PropOp39
 70
     1
102
RTVSPost2010Prop40
 90
        0
102
RTVSPost2010PropOp40
 70
     1
102
RTVSPost2010Prop41ColorIndex
 90
       18
102
RTVSPost2010Prop41ColorRGB
 90
        0
102
RTVSPost2010PropOp41
 70
     1
102
RTVSPost2010Prop42
 90
       50
102
RTVSPost2010PropOp42
 70
     1
102
RTVSPost2010Prop43
 90
        3
102
RTVSPost2010PropOp43
 70
     1
102
RTVSPost2010Prop44ColorIndex
 90
        5
102
RTVSPost2010Prop44ColorRGB
 90
      255
102
RTVSPost2010PropOp44
 70
     1
102
RTVSPost2010Prop45
280
     0
102
RTVSPost2010PropOp45
 70
     1
102
RTVSPost2010Prop46
 90
       50
102
RTVSPost2010PropOp46
 70
     1
102
RTVSPost2010Prop47
 90
       50
102
RTVSPost2010PropOp47
 70
     1
102
RTVSPost2010Prop48
 90
       50
102
RTVSPost2010PropOp48
 70
     1
102
RTVSPost2010Prop49
280
     0
102
RTVSPost2010PropOp49
 70
     1
102
RTVSPost2010Prop50
 90
       50
102
RTVSPost2010PropOp50
 70
     1
102
RTVSPost2010Prop51ColorIndex
 90
      256
102
RTVSPost2010Prop51ColorRGB
 90
-16777216
102
RTVSPost2010PropOp51
 70
     0
102
RTVSPost2010Prop52
140
1.0
102
RTVSPost2010PropOp52
 70
     0
102
RTVSPost2010Prop53
 90
        2
102
RTVSPost2010PropOp53
 70
     1
102
RTVSPost2010Prop54
  1
strokes_ogs.tif
102
RTVSPost2010PropOp54
 70
     1
102
RTVSPost2010Prop55
280
     0
102
RTVSPost2010PropOp55
 70
     1
102
RTVSPost2010Prop56
140
1.0
102
RTVSPost2010PropOp56
 70
     1
102
RTVSPost2010Prop57
140
1.0
102
RTVSPost2010PropOp57
 70
     1
102
RTVSPropertyOp0
 70
     1
102
RTVSPropertyOp1
 70
     1
102
RTVSPropertyOp2
 70
     1
102
RTVSPropertyOp3
 70
     1
102
RTVSPropertyOp4
 70
     1
102
RTVSPropertyOp5
 70
     1
102
RTVSPropertyOp6
 70
     1
102
RTVSPropertyOp7
 70
     1
102
RTVSPropertyOp8
 70
     1
102
RTVSPropertyOp9
 70
     1
102
RTVSPropertyOp10
 70
     1
102
RTVSPropertyOp11
 70
     1
102
RTVSPropertyOp12
 70
     1
102
RTVSPropertyOp13
 70
     1
102
RTVSPropertyOp14
 70
     1
102
RTVSPropertyOp15
 70
     1
102
RTVSPropertyOp16
 70
     1
102
RTVSPropertyOp17
 70
     1
102
RTVSPropertyOp18
 70
     1
102
RTVSPropertyOp19
 70
     1
102
RTVSPropertyOp20
 70
     1
102
RTVSPropertyOp21
 70
     1
102
RTVSPropertyOp22
 70
     1
102
RTVSPropertyOp23
 70
     1
102
RTVSPropertyOp24
 70
     1
102
RTVSPropertyOp25
 70
     1
102
RTVSPropertyOp26
 70
     1
102
RTVSPropertyOp27
 70
     1
102
RTVSPropertyOp28
 70
     1
102
RTVSPropertyOp29
 70
     1
102
RTVSPropertyOp30
 70
     1
102
RTVSPropertyOp31
 70
     1
102
RTVSPropertyOp32
 70
     1
102
RTVSPropertyOp33
 70
     1
102
RTVSPropertyOp34
 70
     1
102
RTVSPropertyOp35
 70
     1
102
RTVSPropertyOp36
 70
     1
102
RTVSPropertyOp37
 70
     1
102
RTVSPropertyOp38
 70
     1
102
RTVSPropertyOp39
 70
     1
102
RTVSPropertyOp40
 70
     1
102
RTVSPropertyOp41
 70
     1
102
RTVSPropertyOp42
 70
     1
102
RTVSPropertyOp43
 70
     1
102
RTVSPropertyOp44
 70
     1
102
RTVSPropertyOp45
 70
     1
102
RTVSPropertyOp46
 70
     1
102
RTVSPropertyOp47
 70
     1
102
RTVSPropertyOp48
 70
     1
102
RTVSPropertyOp49
 70
     1
102
RTVSPropertyOp50
 70
     1
102
RTVSPropertyOp51
 70
     0
102
RTVSPropertyOp52
 70
     0
102
RTVSPropertyOp53
 70
     1
102
RTVSPropertyOp54
 70
     1
102
RTVSPropertyOp55
 70
     1
102
RTVSPropertyOp56
 70
     1
102
RTVSPropertyOp57
 70
     1
102
RTVSPropertyOp58
 70
     1
102
RTVSPropertyOp59
 70
     1
102
RTVSPropertyOp60
 70
     1
102
RTVSPropertyOp61
 70
     1
102
RTVSPropertyOp62
 70
     1
  0
XRECORD
  5
1445
102
{ACAD_REACTORS
330
1444
102
}
330
1444
100
AcDbXrecord
280
     1
102
RTVSPost2010Prop28
280
     0
102
RTVSPost2010PropOp28
 70
     1
102
RTVSPost2010Prop29
280
     1
102
RTVSPost2010PropOp29
 70
     1
102
RTVSPost2010Prop30
280
     1
102
RTVSPost2010PropOp30
 70
     1
102
RTVSPost2010Prop31
280
     0
102
RTVSPost2010PropOp31
 70
     1
102
RTVSPost2010Prop32
280
     0
102
RTVSPost2010PropOp32
 70
     1
102
RTVSPost2010Prop33
280
     0
102
RTVSPost2010PropOp33
 70
     1
102
RTVSPost2010Prop34
280
     0
102
RTVSPost2010PropOp34
 70
     1
102
RTVSPost2010Prop35
280
     0
102
RTVSPost2010PropOp35
 70
     1
102
RTVSPost2010Prop36
280
     0
102
RTVSPost2010PropOp36
 70
     1
102
RTVSPost2010Prop37
 90
       50
102
RTVSPost2010PropOp37
 70
     1
102
RTVSPost2010Prop38
140
0.0
102
RTVSPost2010PropOp38
 70
     1
102
RTVSPost2010Prop39
140
1.0
102
RTVSPost2010PropOp39
 70
     1
102
RTVSPost2010Prop40
 90
        0
102
RTVSPost2010PropOp40
 70
     1
102
RTVSPost2010Prop41ColorIndex
 90
       18
102
RTVSPost2010Prop41ColorRGB
 90
        0
102
RTVSPost2010PropOp41
 70
     1
102
RTVSPost2010Prop42
 90
       50
102
RTVSPost2010PropOp42
 70
     1
102
RTVSPost2010Prop43
 90
        3
102
RTVSPost2010PropOp43
 70
     1
102
RTVSPost2010Prop44ColorIndex
 90
        5
102
RTVSPost2010Prop44ColorRGB
 90
      255
102
RTVSPost2010PropOp44
 70
     1
102
RTVSPost2010Prop45
280
     0
102
RTVSPost2010PropOp45
 70
     1
102
RTVSPost2010Prop46
 90
       50
102
RTVSPost2010PropOp46
 70
     1
102
RTVSPost2010Prop47
 90
       50
102
RTVSPost2010PropOp47
 70
     1
102
RTVSPost2010Prop48
 90
       50
102
RTVSPost2010PropOp48
 70
     1
102
RTVSPost2010Prop49
280
     0
102
RTVSPost2010PropOp49
 70
     1
102
RTVSPost2010Prop50
 90
       50
102
RTVSPost2010PropOp50
 70
     1
102
RTVSPost2010Prop51ColorIndex
 90
      256
102
RTVSPost2010Prop51ColorRGB
 90
-16777216
102
RTVSPost2010PropOp51
 70
     0
102
RTVSPost2010Prop52
140
1.0
102
RTVSPost2010PropOp52
 70
     0
102
RTVSPost2010Prop53
 90
        2
102
RTVSPost2010PropOp53
 70
     1
102
RTVSPost2010Prop54
  1
strokes_ogs.tif
102
RTVSPost2010PropOp54
 70
     1
102
RTVSPost2010Prop55
280
     0
102
RTVSPost2010PropOp55
 70
     1
102
RTVSPost2010Prop56
140
1.0
102
RTVSPost2010PropOp56
 70
     1
102
RTVSPost2010Prop57
140
1.0
102
RTVSPost2010PropOp57
 70
     1
102
RTVSPropertyOp0
 70
     1
102
RTVSPropertyOp1
 70
     1
102
RTVSPropertyOp2
 70
     1
102
RTVSPropertyOp3
 70
     1
102
RTVSPropertyOp4
 70
     1
102
RTVSPropertyOp5
 70
     1
102
RTVSPropertyOp6
 70
     1
102
RTVSPropertyOp7
 70
     1
102
RTVSPropertyOp8
 70
     1
102
RTVSPropertyOp9
 70
     1
102
RTVSPropertyOp10
 70
     1
102
RTVSPropertyOp11
 70
     1
102
RTVSPropertyOp12
 70
     1
102
RTVSPropertyOp13
 70
     1
102
RTVSPropertyOp14
 70
     1
102
RTVSPropertyOp15
 70
     1
102
RTVSPropertyOp16
 70
     1
102
RTVSPropertyOp17
 70
     1
102
RTVSPropertyOp18
 70
     1
102
RTVSPropertyOp19
 70
     1
102
RTVSPropertyOp20
 70
     1
102
RTVSPropertyOp21
 70
     1
102
RTVSPropertyOp22
 70
     1
102
RTVSPropertyOp23
 70
     1
102
RTVSPropertyOp24
 70
     1
102
RTVSPropertyOp25
 70
     1
102
RTVSPropertyOp26
 70
     1
102
RTVSPropertyOp27
 70
     1
102
RTVSPropertyOp28
 70
     1
102
RTVSPropertyOp29
 70
     1
102
RTVSPropertyOp30
 70
     1
102
RTVSPropertyOp31
 70
     1
102
RTVSPropertyOp32
 70
     1
102
RTVSPropertyOp33
 70
     1
102
RTVSPropertyOp34
 70
     1
102
RTVSPropertyOp35
 70
     1
102
RTVSPropertyOp36
 70
     1
102
RTVSPropertyOp37
 70
     1
102
RTVSPropertyOp38
 70
     1
102
RTVSPropertyOp39
 70
     1
102
RTVSPropertyOp40
 70
     1
102
RTVSPropertyOp41
 70
     1
102
RTVSPropertyOp42
 70
     1
102
RTVSPropertyOp43
 70
     1
102
RTVSPropertyOp44
 70
     1
102
RTVSPropertyOp45
 70
     1
102
RTVSPropertyOp46
 70
     1
102
RTVSPropertyOp47
 70
     1
102
RTVSPropertyOp48
 70
     1
102
RTVSPropertyOp49
 70
     1
102
RTVSPropertyOp50
 70
     1
102
RTVSPropertyOp51
 70
     0
102
RTVSPropertyOp52
 70
     0
102
RTVSPropertyOp53
 70
     1
102
RTVSPropertyOp54
 70
     1
102
RTVSPropertyOp55
 70
     1
102
RTVSPropertyOp56
 70
     1
102
RTVSPropertyOp57
 70
     1
102
RTVSPropertyOp58
 70
     1
102
RTVSPropertyOp59
 70
     1
102
RTVSPropertyOp60
 70
     1
102
RTVSPropertyOp61
 70
     1
102
RTVSPropertyOp62
 70
     1
  0
XRECORD
  5
1439
102
{ACAD_REACTORS
330
1438
102
}
330
1438
100
AcDbXrecord
280
     1
102
RTVSPost2010Prop28
280
     0
102
RTVSPost2010PropOp28
 70
     1
102
RTVSPost2010Prop29
280
     1
102
RTVSPost2010PropOp29
 70
     1
102
RTVSPost2010Prop30
280
     1
102
RTVSPost2010PropOp30
 70
     1
102
RTVSPost2010Prop31
280
     0
102
RTVSPost2010PropOp31
 70
     1
102
RTVSPost2010Prop32
280
     0
102
RTVSPost2010PropOp32
 70
     1
102
RTVSPost2010Prop33
280
     0
102
RTVSPost2010PropOp33
 70
     1
102
RTVSPost2010Prop34
280
     0
102
RTVSPost2010PropOp34
 70
     1
102
RTVSPost2010Prop35
280
     0
102
RTVSPost2010PropOp35
 70
     1
102
RTVSPost2010Prop36
280
     0
102
RTVSPost2010PropOp36
 70
     1
102
RTVSPost2010Prop37
 90
       50
102
RTVSPost2010PropOp37
 70
     1
102
RTVSPost2010Prop38
140
0.0
102
RTVSPost2010PropOp38
 70
     1
102
RTVSPost2010Prop39
140
1.0
102
RTVSPost2010PropOp39
 70
     1
102
RTVSPost2010Prop40
 90
        0
102
RTVSPost2010PropOp40
 70
     1
102
RTVSPost2010Prop41ColorIndex
 90
       18
102
RTVSPost2010Prop41ColorRGB
 90
        0
102
RTVSPost2010PropOp41
 70
     1
102
RTVSPost2010Prop42
 90
       50
102
RTVSPost2010PropOp42
 70
     1
102
RTVSPost2010Prop43
 90
        3
102
RTVSPost2010PropOp43
 70
     1
102
RTVSPost2010Prop44ColorIndex
 90
        5
102
RTVSPost2010Prop44ColorRGB
 90
      255
102
RTVSPost2010PropOp44
 70
     1
102
RTVSPost2010Prop45
280
     0
102
RTVSPost2010PropOp45
 70
     1
102
RTVSPost2010Prop46
 90
       50
102
RTVSPost2010PropOp46
 70
     1
102
RTVSPost2010Prop47
 90
       50
102
RTVSPost2010PropOp47
 70
     1
102
RTVSPost2010Prop48
 90
       50
102
RTVSPost2010PropOp48
 70
     1
102
RTVSPost2010Prop49
280
     0
102
RTVSPost2010PropOp49
 70
     1
102
RTVSPost2010Prop50
 90
       50
102
RTVSPost2010PropOp50
 70
     1
102
RTVSPost2010Prop51ColorIndex
 90
      256
102
RTVSPost2010Prop51ColorRGB
 90
-16777216
102
RTVSPost2010PropOp51
 70
     0
102
RTVSPost2010Prop52
140
1.0
102
RTVSPost2010PropOp52
 70
     0
102
RTVSPost2010Prop53
 90
        2
102
RTVSPost2010PropOp53
 70
     1
102
RTVSPost2010Prop54
  1
strokes_ogs.tif
102
RTVSPost2010PropOp54
 70
     1
102
RTVSPost2010Prop55
280
     0
102
RTVSPost2010PropOp55
 70
     1
102
RTVSPost2010Prop56
140
1.0
102
RTVSPost2010PropOp56
 70
     1
102
RTVSPost2010Prop57
140
1.0
102
RTVSPost2010PropOp57
 70
     1
102
RTVSPropertyOp0
 70
     1
102
RTVSPropertyOp1
 70
     1
102
RTVSPropertyOp2
 70
     1
102
RTVSPropertyOp3
 70
     1
102
RTVSPropertyOp4
 70
     1
102
RTVSPropertyOp5
 70
     1
102
RTVSPropertyOp6
 70
     1
102
RTVSPropertyOp7
 70
     1
102
RTVSPropertyOp8
 70
     1
102
RTVSPropertyOp9
 70
     1
102
RTVSPropertyOp10
 70
     1
102
RTVSPropertyOp11
 70
     1
102
RTVSPropertyOp12
 70
     1
102
RTVSPropertyOp13
 70
     1
102
RTVSPropertyOp14
 70
     1
102
RTVSPropertyOp15
 70
     1
102
RTVSPropertyOp16
 70
     1
102
RTVSPropertyOp17
 70
     1
102
RTVSPropertyOp18
 70
     1
102
RTVSPropertyOp19
 70
     1
102
RTVSPropertyOp20
 70
     1
102
RTVSPropertyOp21
 70
     1
102
RTVSPropertyOp22
 70
     1
102
RTVSPropertyOp23
 70
     1
102
RTVSPropertyOp24
 70
     1
102
RTVSPropertyOp25
 70
     1
102
RTVSPropertyOp26
 70
     1
102
RTVSPropertyOp27
 70
     1
102
RTVSPropertyOp28
 70
     1
102
RTVSPropertyOp29
 70
     1
102
RTVSPropertyOp30
 70
     1
102
RTVSPropertyOp31
 70
     1
102
RTVSPropertyOp32
 70
     1
102
RTVSPropertyOp33
 70
     1
102
RTVSPropertyOp34
 70
     1
102
RTVSPropertyOp35
 70
     1
102
RTVSPropertyOp36
 70
     1
102
RTVSPropertyOp37
 70
     1
102
RTVSPropertyOp38
 70
     1
102
RTVSPropertyOp39
 70
     1
102
RTVSPropertyOp40
 70
     1
102
RTVSPropertyOp41
 70
     1
102
RTVSPropertyOp42
 70
     1
102
RTVSPropertyOp43
 70
     1
102
RTVSPropertyOp44
 70
     1
102
RTVSPropertyOp45
 70
     1
102
RTVSPropertyOp46
 70
     1
102
RTVSPropertyOp47
 70
     1
102
RTVSPropertyOp48
 70
     1
102
RTVSPropertyOp49
 70
     1
102
RTVSPropertyOp50
 70
     1
102
RTVSPropertyOp51
 70
     0
102
RTVSPropertyOp52
 70
     0
102
RTVSPropertyOp53
 70
     1
102
RTVSPropertyOp54
 70
     1
102
RTVSPropertyOp55
 70
     1
102
RTVSPropertyOp56
 70
     1
102
RTVSPropertyOp57
 70
     1
102
RTVSPropertyOp58
 70
     1
102
RTVSPropertyOp59
 70
     1
102
RTVSPropertyOp60
 70
     1
102
RTVSPropertyOp61
 70
     1
102
RTVSPropertyOp62
 70
     1
  0
XRECORD
  5
1451
102
{ACAD_REACTORS
330
1450
102
}
330
1450
100
AcDbXrecord
280
     1
102
RTVSPost2010Prop28
280
     0
102
RTVSPost2010PropOp28
 70
     1
102
RTVSPost2010Prop29
280
     1
102
RTVSPost2010PropOp29
 70
     1
102
RTVSPost2010Prop30
280
     1
102
RTVSPost2010PropOp30
 70
     1
102
RTVSPost2010Prop31
280
     0
102
RTVSPost2010PropOp31
 70
     1
102
RTVSPost2010Prop32
280
     0
102
RTVSPost2010PropOp32
 70
     1
102
RTVSPost2010Prop33
280
     0
102
RTVSPost2010PropOp33
 70
     1
102
RTVSPost2010Prop34
280
     0
102
RTVSPost2010PropOp34
 70
     1
102
RTVSPost2010Prop35
280
     0
102
RTVSPost2010PropOp35
 70
     1
102
RTVSPost2010Prop36
280
     0
102
RTVSPost2010PropOp36
 70
     1
102
RTVSPost2010Prop37
 90
       50
102
RTVSPost2010PropOp37
 70
     1
102
RTVSPost2010Prop38
140
0.0
102
RTVSPost2010PropOp38
 70
     1
102
RTVSPost2010Prop39
140
1.0
102
RTVSPost2010PropOp39
 70
     1
102
RTVSPost2010Prop40
 90
        0
102
RTVSPost2010PropOp40
 70
     1
102
RTVSPost2010Prop41ColorIndex
 90
       18
102
RTVSPost2010Prop41ColorRGB
 90
        0
102
RTVSPost2010PropOp41
 70
     1
102
RTVSPost2010Prop42
 90
       50
102
RTVSPost2010PropOp42
 70
     1
102
RTVSPost2010Prop43
 90
        3
102
RTVSPost2010PropOp43
 70
     1
102
RTVSPost2010Prop44ColorIndex
 90
        5
102
RTVSPost2010Prop44ColorRGB
 90
      255
102
RTVSPost2010PropOp44
 70
     1
102
RTVSPost2010Prop45
280
     0
102
RTVSPost2010PropOp45
 70
     1
102
RTVSPost2010Prop46
 90
       50
102
RTVSPost2010PropOp46
 70
     1
102
RTVSPost2010Prop47
 90
       50
102
RTVSPost2010PropOp47
 70
     1
102
RTVSPost2010Prop48
 90
       50
102
RTVSPost2010PropOp48
 70
     1
102
RTVSPost2010Prop49
280
     0
102
RTVSPost2010PropOp49
 70
     1
102
RTVSPost2010Prop50
 90
       50
102
RTVSPost2010PropOp50
 70
     1
102
RTVSPost2010Prop51ColorIndex
 90
      256
102
RTVSPost2010Prop51ColorRGB
 90
-16777216
102
RTVSPost2010PropOp51
 70
     0
102
RTVSPost2010Prop52
140
1.0
102
RTVSPost2010PropOp52
 70
     0
102
RTVSPost2010Prop53
 90
        2
102
RTVSPost2010PropOp53
 70
     1
102
RTVSPost2010Prop54
  1
strokes_ogs.tif
102
RTVSPost2010PropOp54
 70
     1
102
RTVSPost2010Prop55
280
     0
102
RTVSPost2010PropOp55
 70
     1
102
RTVSPost2010Prop56
140
1.0
102
RTVSPost2010PropOp56
 70
     1
102
RTVSPost2010Prop57
140
1.0
102
RTVSPost2010PropOp57
 70
     1
102
RTVSPropertyOp0
 70
     1
102
RTVSPropertyOp1
 70
     1
102
RTVSPropertyOp2
 70
     1
102
RTVSPropertyOp3
 70
     1
102
RTVSPropertyOp4
 70
     1
102
RTVSPropertyOp5
 70
     1
102
RTVSPropertyOp6
 70
     1
102
RTVSPropertyOp7
 70
     1
102
RTVSPropertyOp8
 70
     1
102
RTVSPropertyOp9
 70
     1
102
RTVSPropertyOp10
 70
     1
102
RTVSPropertyOp11
 70
     1
102
RTVSPropertyOp12
 70
     1
102
RTVSPropertyOp13
 70
     1
102
RTVSPropertyOp14
 70
     1
102
RTVSPropertyOp15
 70
     1
102
RTVSPropertyOp16
 70
     1
102
RTVSPropertyOp17
 70
     1
102
RTVSPropertyOp18
 70
     1
102
RTVSPropertyOp19
 70
     1
102
RTVSPropertyOp20
 70
     1
102
RTVSPropertyOp21
 70
     1
102
RTVSPropertyOp22
 70
     1
102
RTVSPropertyOp23
 70
     1
102
RTVSPropertyOp24
 70
     1
102
RTVSPropertyOp25
 70
     1
102
RTVSPropertyOp26
 70
     1
102
RTVSPropertyOp27
 70
     1
102
RTVSPropertyOp28
 70
     1
102
RTVSPropertyOp29
 70
     1
102
RTVSPropertyOp30
 70
     1
102
RTVSPropertyOp31
 70
     1
102
RTVSPropertyOp32
 70
     1
102
RTVSPropertyOp33
 70
     1
102
RTVSPropertyOp34
 70
     1
102
RTVSPropertyOp35
 70
     1
102
RTVSPropertyOp36
 70
     1
102
RTVSPropertyOp37
 70
     1
102
RTVSPropertyOp38
 70
     1
102
RTVSPropertyOp39
 70
     1
102
RTVSPropertyOp40
 70
     1
102
RTVSPropertyOp41
 70
     1
102
RTVSPropertyOp42
 70
     1
102
RTVSPropertyOp43
 70
     1
102
RTVSPropertyOp44
 70
     1
102
RTVSPropertyOp45
 70
     1
102
RTVSPropertyOp46
 70
     1
102
RTVSPropertyOp47
 70
     1
102
RTVSPropertyOp48
 70
     1
102
RTVSPropertyOp49
 70
     1
102
RTVSPropertyOp50
 70
     1
102
RTVSPropertyOp51
 70
     0
102
RTVSPropertyOp52
 70
     0
102
RTVSPropertyOp53
 70
     1
102
RTVSPropertyOp54
 70
     1
102
RTVSPropertyOp55
 70
     1
102
RTVSPropertyOp56
 70
     1
102
RTVSPropertyOp57
 70
     1
102
RTVSPropertyOp58
 70
     1
102
RTVSPropertyOp59
 70
     1
102
RTVSPropertyOp60
 70
     1
102
RTVSPropertyOp61
 70
     1
102
RTVSPropertyOp62
 70
     1
  0
ENDSEC
  0
EOF
