  0
SECTION
  2
HEADER
  9
$ACADVER
  1
AC1015
  9
$ACADMAINTVER
 70
    20
  9
$DWGCODEPAGE
  3
ANSI_1252
  9
$INSBASE
 10
0.0
 20
0.0
 30
0.0
  9
$EXTMIN
 10
4098.62502653322
 20
1653.396757114016
 30
0.0
  9
$EXTMAX
 10
4098.915553090771
 20
1653.566757090776
 30
0.0
  9
$LIMMIN
 10
0.0
 20
0.0
  9
$LIMMAX
 10
420.0
 20
297.0
  9
$ORTHOMODE
 70
     1
  9
$REGENMODE
 70
     1
  9
$FILLMODE
 70
     1
  9
$QTEXTMODE
 70
     0
  9
$MIRRTEXT
 70
     1
  9
$LTSCALE
 40
1.0
  9
$ATTMODE
 70
     1
  9
$TEXTSIZE
 40
2.5
  9
$TRACEWID
 40
1.0
  9
$TEXTSTYLE
  7
SANINDUSA
  9
$CLAYER
  8
1
  9
$CELTYPE
  6
ByLayer
  9
$CECOLOR
 62
   256
  9
$CELTSCALE
 40
1.0
  9
$DISPSILH
 70
     0
  9
$DIMSCALE
 40
1.0
  9
$DIMASZ
 40
2.0
  9
$DIMEXO
 40
1.0
  9
$DIMDLI
 40
1.0
  9
$DIMRND
 40
0.0
  9
$DIMDLE
 40
0.0
  9
$DIMEXE
 40
1.0
  9
$DIMTP
 40
0.0
  9
$DIMTM
 40
0.0
  9
$DIMTXT
 40
2.0
  9
$DIMCEN
 40
0.0
  9
$DIMTSZ
 40
0.0
  9
$DIMTOL
 70
     0
  9
$DIMLIM
 70
     0
  9
$DIMTIH
 70
     0
  9
$DIMTOH
 70
     0
  9
$DIMSE1
 70
     0
  9
$DIMSE2
 70
     0
  9
$DIMTAD
 70
     1
  9
$DIMZIN
 70
     8
  9
$DIMBLK
  1

  9
$DIMASO
 70
     1
  9
$DIMSHO
 70
     1
  9
$DIMPOST
  1

  9
$DIMAPOST
  1

  9
$DIMALT
 70
     0
  9
$DIMALTD
 70
     3
  9
$DIMALTF
 40
0.03937007874016
  9
$DIMLFAC
 40
1.0
  9
$DIMTOFL
 70
     1
  9
$DIMTVP
 40
0.0
  9
$DIMTIX
 70
     0
  9
$DIMSOXD
 70
     0
  9
$DIMSAH
 70
     0
  9
$DIMBLK1
  1

  9
$DIMBLK2
  1

  9
$DIMSTYLE
  2
SANINDUSA
  9
$DIMCLRD
 70
   256
  9
$DIMCLRE
 70
   256
  9
$DIMCLRT
 70
   256
  9
$DIMTFAC
 40
1.0
  9
$DIMGAP
 40
1.0
  9
$DIMJUST
 70
     0
  9
$DIMSD1
 70
     0
  9
$DIMSD2
 70
     0
  9
$DIMTOLJ
 70
     0
  9
$DIMTZIN
 70
     8
  9
$DIMALTZ
 70
     0
  9
$DIMALTTZ
 70
     0
  9
$DIMUPT
 70
     0
  9
$DIMDEC
 70
     1
  9
$DIMTDEC
 70
     1
  9
$DIMALTU
 70
     2
  9
$DIMALTTD
 70
     3
  9
$DIMTXSTY
  7
SANINDUSA
  9
$DIMAUNIT
 70
     0
  9
$DIMADEC
 70
     1
  9
$DIMALTRND
 40
0.0
  9
$DIMAZIN
 70
     0
  9
$DIMDSEP
 70
    44
  9
$DIMATFIT
 70
     3
  9
$DIMFRAC
 70
     0
  9
$DIMLDRBLK
  1

  9
$DIMLUNIT
 70
     2
  9
$DIMLWD
 70
    -1
  9
$DIMLWE
 70
    -1
  9
$DIMTMOVE
 70
     0
  9
$LUNITS
 70
     2
  9
$LUPREC
 70
     4
  9
$SKETCHINC
 40
1.0
  9
$FILLETRAD
 40
0.2
  9
$AUNITS
 70
     0
  9
$AUPREC
 70
     0
  9
$MENU
  1
.
  9
$ELEVATION
 40
0.0
  9
$PELEVATION
 40
0.0
  9
$THICKNESS
 40
0.0
  9
$LIMCHECK
 70
     0
  9
$CHAMFERA
 40
10.0
  9
$CHAMFERB
 40
10.0
  9
$CHAMFERC
 40
20.0
  9
$CHAMFERD
 40
0.0
  9
$SKPOLY
 70
     0
  9
$TDCREATE
 40
2454520.620230753
  9
$TDUCREATE
 40
2454520.620230753
  9
$TDUPDATE
 40
2454520.648456481
  9
$TDUUPDATE
 40
2454520.648456481
  9
$TDINDWG
 40
0.0114114931
  9
$TDUSRTIMER
 40
0.0114114931
  9
$USRTIMER
 70
     1
  9
$ANGBASE
 50
0.0
  9
$ANGDIR
 70
     0
  9
$PDMODE
 70
     0
  9
$PDSIZE
 40
0.0
  9
$PLINEWID
 40
0.0
  9
$SPLFRAME
 70
     0
  9
$SPLINETYPE
 70
     6
  9
$SPLINESEGS
 70
     8
  9
$HANDSEED
  5
133C
  9
$SURFTAB1
 70
     6
  9
$SURFTAB2
 70
     6
  9
$SURFTYPE
 70
     6
  9
$SURFU
 70
     6
  9
$SURFV
 70
     6
  9
$UCSBASE
  2

  9
$UCSNAME
  2

  9
$UCSORG
 10
0.0
 20
0.0
 30
0.0
  9
$UCSXDIR
 10
1.0
 20
0.0
 30
0.0
  9
$UCSYDIR
 10
0.0
 20
1.0
 30
0.0
  9
$UCSORTHOREF
  2

  9
$UCSORTHOVIEW
 70
     0
  9
$UCSORGTOP
 10
0.0
 20
0.0
 30
0.0
  9
$UCSORGBOTTOM
 10
0.0
 20
0.0
 30
0.0
  9
$UCSORGLEFT
 10
0.0
 20
0.0
 30
0.0
  9
$UCSORGRIGHT
 10
0.0
 20
0.0
 30
0.0
  9
$UCSORGFRONT
 10
0.0
 20
0.0
 30
0.0
  9
$UCSORGBACK
 10
0.0
 20
0.0
 30
0.0
  9
$PUCSBASE
  2

  9
$PUCSNAME
  2

  9
$PUCSORG
 10
0.0
 20
0.0
 30
0.0
  9
$PUCSXDIR
 10
1.0
 20
0.0
 30
0.0
  9
$PUCSYDIR
 10
0.0
 20
1.0
 30
0.0
  9
$PUCSORTHOREF
  2

  9
$PUCSORTHOVIEW
 70
     0
  9
$PUCSORGTOP
 10
0.0
 20
0.0
 30
0.0
  9
$PUCSORGBOTTOM
 10
0.0
 20
0.0
 30
0.0
  9
$PUCSORGLEFT
 10
0.0
 20
0.0
 30
0.0
  9
$PUCSORGRIGHT
 10
0.0
 20
0.0
 30
0.0
  9
$PUCSORGFRONT
 10
0.0
 20
0.0
 30
0.0
  9
$PUCSORGBACK
 10
0.0
 20
0.0
 30
0.0
  9
$USERI1
 70
     0
  9
$USERI2
 70
     0
  9
$USERI3
 70
     0
  9
$USERI4
 70
     0
  9
$USERI5
 70
     0
  9
$USERR1
 40
0.0
  9
$USERR2
 40
0.0
  9
$USERR3
 40
0.0
  9
$USERR4
 40
0.0
  9
$USERR5
 40
0.0
  9
$WORLDVIEW
 70
     1
  9
$SHADEDGE
 70
     3
  9
$SHADEDIF
 70
    70
  9
$TILEMODE
 70
     1
  9
$MAXACTVP
 70
    64
  9
$PINSBASE
 10
0.0
 20
0.0
 30
0.0
  9
$PLIMCHECK
 70
     0
  9
$PEXTMIN
 10
1.000000000000000E+20
 20
1.000000000000000E+20
 30
1.000000000000000E+20
  9
$PEXTMAX
 10
-1.000000000000000E+20
 20
-1.000000000000000E+20
 30
-1.000000000000000E+20
  9
$PLIMMIN
 10
0.0
 20
0.0
  9
$PLIMMAX
 10
420.0
 20
297.0
  9
$UNITMODE
 70
     0
  9
$VISRETAIN
 70
     1
  9
$PLINEGEN
 70
     0
  9
$PSLTSCALE
 70
     1
  9
$TREEDEPTH
 70
  3020
  9
$CMLSTYLE
  2
Standard
  9
$CMLJUST
 70
     0
  9
$CMLSCALE
 40
20.0
  9
$PROXYGRAPHICS
 70
     1
  9
$MEASUREMENT
 70
     1
  9
$CELWEIGHT
370
    -1
  9
$ENDCAPS
280
     0
  9
$JOINSTYLE
280
     0
  9
$LWDISPLAY
290
     0
  9
$INSUNITS
 70
     4
  9
$HYPERLINKBASE
  1

  9
$STYLESHEET
  1
sanindusa.ctb
  9
$XEDIT
290
     1
  9
$CEPSNTYPE
380
     0
  9
$PSTYLEMODE
290
     1
  9
$FINGERPRINTGUID
  2
{0ED3C650-4E8C-4468-A23F-90FB61DFBE2B}
  9
$VERSIONGUID
  2
{1F126046-3442-40C0-9478-65C3D4BC9D66}
  9
$EXTNAMES
290
     1
  9
$PSVPSCALE
 40
0.0
  9
$OLESTARTUP
290
     0
  0
ENDSEC
  0
SECTION
  2
CLASSES
  0
CLASS
  1
ACDBDICTIONARYWDFLT
  2
AcDbDictionaryWithDefault
  3
ObjectDBX Classes
 90
        0
280
     0
281
     0
  0
CLASS
  1
ACDBPLACEHOLDER
  2
AcDbPlaceHolder
  3
ObjectDBX Classes
 90
        0
280
     0
281
     0
  0
CLASS
  1
LAYOUT
  2
AcDbLayout
  3
ObjectDBX Classes
 90
        0
280
     0
281
     0
  0
CLASS
  1
DICTIONARYVAR
  2
AcDbDictionaryVar
  3
ObjectDBX Classes
 90
        0
280
     0
281
     0
  0
CLASS
  1
DIMASSOC
  2
AcDbDimAssoc
  3
"AcDbDimAssoc|Product Desc:     AcDim ARX App For Dimension|Company:          Autodesk, Inc.|WEB Address:      www.autodesk.com"
 90
    32768
280
     0
281
     0
  0
CLASS
  1
TABLESTYLE
  2
AcDbTableStyle
  3
ObjectDBX Classes
 90
     2047
280
     0
281
     0
  0
CLASS
  1
SORTENTSTABLE
  2
AcDbSortentsTable
  3
ObjectDBX Classes
 90
        0
280
     0
281
     0
  0
ENDSEC
  0
SECTION
  2
TABLES
  0
TABLE
  2
VPORT
  5
8
330
0
100
AcDbSymbolTable
 70
     3
  0
VPORT
  5
1334
330
8
100
AcDbSymbolTableRecord
100
AcDbViewportTableRecord
  2
*Active
 70
     0
 10
0.0
 20
0.0
 11
1.0
 21
1.0
 12
4098.770289811994
 22
1653.481757102396
 13
0.0
 23
0.0
 14
10.0
 24
10.0
 15
10.0
 25
10.0
 16
0.0
 26
0.0
 36
1.0
 17
0.0
 27
0.0
 37
0.0
 40
0.185734013820955
 41
1.570149253731343
 42
50.0
 43
0.0
 44
0.0
 50
0.0
 51
0.0
 71
     0
 72
   100
 73
     1
 74
     2
 75
     0
 76
     0
 77
     0
 78
     0
281
     0
 65
     1
110
0.0
120
0.0
130
0.0
111
1.0
121
0.0
131
0.0
112
0.0
122
1.0
132
0.0
 79
     0
146
0.0
  0
ENDTAB
  0
TABLE
  2
LTYPE
  5
5
330
0
100
AcDbSymbolTable
 70
     5
  0
LTYPE
  5
14
330
5
100
AcDbSymbolTableRecord
100
AcDbLinetypeTableRecord
  2
ByBlock
 70
     0
  3

 72
    65
 73
     0
 40
0.0
  0
LTYPE
  5
15
330
5
100
AcDbSymbolTableRecord
100
AcDbLinetypeTableRecord
  2
ByLayer
 70
     0
  3

 72
    65
 73
     0
 40
0.0
  0
LTYPE
  5
16
330
5
100
AcDbSymbolTableRecord
100
AcDbLinetypeTableRecord
  2
Continuous
 70
     0
  3
Solid line
 72
    65
 73
     0
 40
0.0
  0
LTYPE
  5
2D
330
5
100
AcDbSymbolTableRecord
100
AcDbLinetypeTableRecord
  2
DASHDOT
 70
     0
  3
Dash dot __ . __ . __ . __ . __ . __ . __ . __
 72
    65
 73
     4
 40
25.4
 49
12.7
 74
     0
 49
-6.349999999999999
 74
     0
 49
0.0
 74
     0
 49
-6.349999999999999
 74
     0
  0
LTYPE
  5
2E
330
5
100
AcDbSymbolTableRecord
100
AcDbLinetypeTableRecord
  2
HIDDEN
 70
     0
  3
Hidden __ __ __ __ __ __ __ __ __ __ __ __ __ _
 72
    65
 73
     2
 40
9.524999999999998
 49
6.349999999999999
 74
     0
 49
-3.174999999999999
 74
     0
  0
LTYPE
  5
C75
330
5
100
AcDbSymbolTableRecord
100
AcDbLinetypeTableRecord
  2
AM_ISO02W050
 70
     0
  3
__ __ __ __ __ __ __ __ __ __ __ __ __ __ __
 72
    65
 73
     2
 40
7.5
 49
6.0
 74
     0
 49
-1.5
 74
     0
  0
LTYPE
  5
C76
330
5
100
AcDbSymbolTableRecord
100
AcDbLinetypeTableRecord
  2
AM_ISO08W050
 70
     0
  3
____ . ____ . ____ . ____ . ____ . ____ . ____
 72
    65
 73
     4
 40
18.0
 49
12.0
 74
     0
 49
-1.5
 74
     0
 49
3.0
 74
     0
 49
-1.5
 74
     0
  0
ENDTAB
  0
TABLE
  2
LAYER
  5
2
102
{ACAD_XDICTIONARY
360
1051
102
}
330
0
100
AcDbSymbolTable
 70
    18
  0
LAYER
  5
10
330
2
100
AcDbSymbolTableRecord
100
AcDbLayerTableRecord
  2
0
 70
     0
 62
     7
  6
Continuous
370
    -3
390
F
  0
LAYER
  5
2F
330
2
100
AcDbSymbolTableRecord
100
AcDbLayerTableRecord
  2
1
 70
     0
 62
     1
  6
Continuous
370
    -3
390
F
  0
LAYER
  5
30
330
2
100
AcDbSymbolTableRecord
100
AcDbLayerTableRecord
  2
2
 70
     0
 62
     2
  6
Continuous
370
    -3
390
F
  0
LAYER
  5
31
330
2
100
AcDbSymbolTableRecord
100
AcDbLayerTableRecord
  2
3
 70
     0
 62
     3
  6
Continuous
370
    -3
390
F
  0
LAYER
  5
32
330
2
100
AcDbSymbolTableRecord
100
AcDbLayerTableRecord
  2
4
 70
     0
 62
     4
  6
Continuous
370
    -3
390
F
  0
LAYER
  5
33
330
2
100
AcDbSymbolTableRecord
100
AcDbLayerTableRecord
  2
5
 70
     0
 62
     5
  6
Continuous
370
    -3
390
F
  0
LAYER
  5
34
330
2
100
AcDbSymbolTableRecord
100
AcDbLayerTableRecord
  2
6
 70
     0
 62
     6
  6
Continuous
370
    -3
390
F
  0
LAYER
  5
35
330
2
100
AcDbSymbolTableRecord
100
AcDbLayerTableRecord
  2
7
 70
     0
 62
     7
  6
Continuous
370
    -3
390
F
  0
LAYER
  5
36
330
2
100
AcDbSymbolTableRecord
100
AcDbLayerTableRecord
  2
cen
 70
     0
 62
     7
  6
DASHDOT
370
    -3
390
F
  0
LAYER
  5
37
330
2
100
AcDbSymbolTableRecord
100
AcDbLayerTableRecord
  2
hid
 70
     0
 62
     7
  6
HIDDEN
370
    -3
390
F
  0
LAYER
  5
5D6
330
2
100
AcDbSymbolTableRecord
100
AcDbLayerTableRecord
  2
hatch
 70
     0
 62
     9
  6
Continuous
370
    -3
390
F
  0
LAYER
  5
8AF
330
2
100
AcDbSymbolTableRecord
100
AcDbLayerTableRecord
  2
9
 70
     0
 62
     9
  6
Continuous
370
    -3
390
F
  0
LAYER
  5
8F8
330
2
100
AcDbSymbolTableRecord
100
AcDbLayerTableRecord
  2
leg fin
 70
     0
 62
     9
  6
Continuous
370
    -3
390
F
  0
LAYER
  5
91D
330
2
100
AcDbSymbolTableRecord
100
AcDbLayerTableRecord
  2
cotas
 70
     0
 62
     1
  6
Continuous
370
    -3
390
F
  0
LAYER
  5
92F
330
2
100
AcDbSymbolTableRecord
100
AcDbLayerTableRecord
  2
Defpoints
 70
     0
 62
     7
  6
Continuous
290
     0
370
    -3
390
F
  0
LAYER
  5
C7B
330
2
100
AcDbSymbolTableRecord
100
AcDbLayerTableRecord
  2
SANINDUSA
 70
     0
 62
     3
  6
Continuous
370
    -3
390
F
  0
LAYER
  5
1060
330
2
100
AcDbSymbolTableRecord
100
AcDbLayerTableRecord
  2
hid1
 70
     0
 62
     9
  6
HIDDEN
370
    -3
390
F
1001
AcAecLayerStandard
1000

1000

  0
LAYER
  5
1070
330
2
100
AcDbSymbolTableRecord
100
AcDbLayerTableRecord
  2
Layer 1
 70
     0
 62
     7
  6
Continuous
370
    -3
390
F
  0
ENDTAB
  0
TABLE
  2
STYLE
  5
3
330
0
100
AcDbSymbolTable
 70
     4
  0
STYLE
  5
11
330
3
100
AcDbSymbolTableRecord
100
AcDbTextStyleTableRecord
  2
Standard
 70
     0
 40
0.0
 41
1.0
 50
0.0
 71
     0
 42
2.5
  3
Avgardn.ttf
  4

1001
ACAD
1000
AvantGarde Bk BT
1071
       34
  0
STYLE
  5
2C
330
3
100
AcDbSymbolTableRecord
100
AcDbTextStyleTableRecord
  2

 70
     1
 40
0.0
 41
1.0
 50
0.0
 71
     0
 42
2.5
  3
ltypeshp.shx
  4

  0
STYLE
  5
91F
330
3
100
AcDbSymbolTableRecord
100
AcDbTextStyleTableRecord
  2
SANINDUSA
 70
     0
 40
0.0
 41
1.0
 50
0.0
 71
     0
 42
2.5
  3
verdana.TTF
  4

1001
ACAD
1000
Verdana
1071
       34
  0
STYLE
  5
C7C
330
3
100
AcDbSymbolTableRecord
100
AcDbTextStyleTableRecord
  2
futura
 70
     0
 40
0.0
 41
1.0
 50
0.0
 71
     0
 42
2.5
  3
ZURCHN.TTF
  4

1001
ACAD
1000
Zurich BT
1071
       34
  0
ENDTAB
  0
TABLE
  2
VIEW
  5
6
330
0
100
AcDbSymbolTable
 70
     0
  0
ENDTAB
  0
TABLE
  2
UCS
  5
7
330
0
100
AcDbSymbolTable
 70
     0
  0
ENDTAB
  0
TABLE
  2
APPID
  5
9
330
0
100
AcDbSymbolTable
 70
    12
  0
APPID
  5
12
330
9
100
AcDbSymbolTableRecord
100
AcDbRegAppTableRecord
  2
ACAD
 70
     0
  0
APPID
  5
3A
330
9
100
AcDbSymbolTableRecord
100
AcDbRegAppTableRecord
  2
DCO15
 70
     0
  0
APPID
  5
EEE
330
9
100
AcDbSymbolTableRecord
100
AcDbRegAppTableRecord
  2
ACAD_DSTYLE_DIMTEXT_FILL
 70
     0
  0
APPID
  5
EEF
330
9
100
AcDbSymbolTableRecord
100
AcDbRegAppTableRecord
  2
ACAD_DSTYLE_DIMEXT_LENGTH
 70
     0
  0
APPID
  5
EF0
330
9
100
AcDbSymbolTableRecord
100
AcDbRegAppTableRecord
  2
ACAD_DSTYLE_DIMEXT_ENABLED
 70
     0
  0
APPID
  5
EF1
330
9
100
AcDbSymbolTableRecord
100
AcDbRegAppTableRecord
  2
ACAD_DSTYLE_DIM_LINETYPE
 70
     0
  0
APPID
  5
EF2
330
9
100
AcDbSymbolTableRecord
100
AcDbRegAppTableRecord
  2
ACAD_DSTYLE_DIM_EXT1_LINETYPE
 70
     0
  0
APPID
  5
EF3
330
9
100
AcDbSymbolTableRecord
100
AcDbRegAppTableRecord
  2
ACAD_DSTYLE_DIM_EXT2_LINETYPE
 70
     0
  0
APPID
  5
FAF
330
9
100
AcDbSymbolTableRecord
100
AcDbRegAppTableRecord
  2
ACAD_DSTYLE_DIMJOGGED_JOGANGLE_SYMBOL
 70
     0
  0
APPID
  5
1013
330
9
100
AcDbSymbolTableRecord
100
AcDbRegAppTableRecord
  2
ACAD_DSTYLE_DIMARC_LENGTH_SYMBOL
 70
     0
  0
APPID
  5
1061
330
9
100
AcDbSymbolTableRecord
100
AcDbRegAppTableRecord
  2
AcAecLayerStandard
 70
     0
  0
APPID
  5
1226
330
9
100
AcDbSymbolTableRecord
100
AcDbRegAppTableRecord
  2
ACAD_EXEMPT_FROM_CAD_STANDARDS
 70
     0
  0
ENDTAB
  0
TABLE
  2
DIMSTYLE
  5
A
330
0
100
AcDbSymbolTable
 70
     3
100
AcDbDimStyleTable
 71
     1
340
921
  0
DIMSTYLE
105
45
330
A
100
AcDbSymbolTableRecord
100
AcDbDimStyleTableRecord
  2
STANDARD
 70
     0
289
     0
340
11
  0
DIMSTYLE
105
921
330
A
100
AcDbSymbolTableRecord
100
AcDbDimStyleTableRecord
  2
SANINDUSA
 70
     0
 41
2.0
 42
1.0
 43
1.0
 44
1.0
 73
     0
 74
     0
 77
     1
 78
     8
140
2.0
141
0.0
143
0.03937007874016
147
1.0
171
     3
172
     1
176
   256
177
   256
178
   256
179
     1
271
     1
272
     1
274
     3
278
    44
283
     0
284
     8
340
91F
371
    -1
372
    -1
1001
ACAD_DSTYLE_DIMEXT_LENGTH
1070
   378
1040
1.0
1001
ACAD_DSTYLE_DIMEXT_ENABLED
1070
   383
1070
     0
1001
ACAD_DSTYLE_DIMARC_LENGTH_SYMBOL
1070
   379
1070
     0
1001
ACAD_DSTYLE_DIMJOGGED_JOGANGLE_SYMBOL
1070
   384
1040
1.570796326794896
  0
DIMSTYLE
105
C7D
330
A
100
AcDbSymbolTableRecord
100
AcDbDimStyleTableRecord
  2
AM_ISO
 70
     0
  4
"
 41
2.5
 42
1.0
 43
10.0
 44
1.0
 47
0.1
 48
0.1
 73
     0
 74
     0
 77
     1
 78
     8
 79
     2
140
3.5
141
0.0
143
0.0393701
146
0.71
147
1.5
172
     1
176
   256
177
   256
178
     2
271
     2
272
     3
274
     4
283
     0
284
     8
340
11
371
    -1
372
    -1
  0
ENDTAB
  0
TABLE
  2
BLOCK_RECORD
  5
1
330
0
100
AcDbSymbolTable
 70
     7
  0
BLOCK_RECORD
  5
1F
102
{ACAD_XDICTIONARY
360
12C9
102
}
330
1
100
AcDbSymbolTableRecord
100
AcDbBlockTableRecord
  2
*Model_Space
340
22
  0
BLOCK_RECORD
  5
1B
330
1
100
AcDbSymbolTableRecord
100
AcDbBlockTableRecord
  2
*Paper_Space
340
1E
  0
BLOCK_RECORD
  5
23
330
1
100
AcDbSymbolTableRecord
100
AcDbBlockTableRecord
  2
*Paper_Space0
340
26
  0
BLOCK_RECORD
  5
919
330
1
100
AcDbSymbolTableRecord
100
AcDbBlockTableRecord
  2
_DotSmall
340
0
  0
BLOCK_RECORD
  5
922
330
1
100
AcDbSymbolTableRecord
100
AcDbBlockTableRecord
  2
base para cotas
340
0
310
2800000020000000200000000100080000000000000400000000000000000000000000000000000000000000000080000080000000808000800000008000800080800000C0C0C000C0DCC000F0CAA6000020400000206000002080000020A0000020C0000020E00000400000004020000040400000406000004080000040A0
310
000040C0000040E00000600000006020000060400000606000006080000060A0000060C0000060E00000800000008020000080400000806000008080000080A0000080C0000080E00000A0000000A0200000A0400000A0600000A0800000A0A00000A0C00000A0E00000C0000000C0200000C0400000C0600000C0800000C0
310
A00000C0C00000C0E00000E0000000E0200000E0400000E0600000E0800000E0A00000E0C00000E0E00040000000400020004000400040006000400080004000A0004000C0004000E00040200000402020004020400040206000402080004020A0004020C0004020E000404000004040200040404000404060004040800040
310
40A0004040C0004040E00040600000406020004060400040606000406080004060A0004060C0004060E00040800000408020004080400040806000408080004080A0004080C0004080E00040A0000040A0200040A0400040A0600040A0800040A0A00040A0C00040A0E00040C0000040C0200040C0400040C0600040C08000
310
40C0A00040C0C00040C0E00040E0000040E0200040E0400040E0600040E0800040E0A00040E0C00040E0E00080000000800020008000400080006000800080008000A0008000C0008000E00080200000802020008020400080206000802080008020A0008020C0008020E00080400000804020008040400080406000804080
310
008040A0008040C0008040E00080600000806020008060400080606000806080008060A0008060C0008060E00080800000808020008080400080806000808080008080A0008080C0008080E00080A0000080A0200080A0400080A0600080A0800080A0A00080A0C00080A0E00080C0000080C0200080C0400080C0600080C0
310
800080C0A00080C0C00080C0E00080E0000080E0200080E0400080E0600080E0800080E0A00080E0C00080E0E000C0000000C0002000C0004000C0006000C0008000C000A000C000C000C000E000C0200000C0202000C0204000C0206000C0208000C020A000C020C000C020E000C0400000C0402000C0404000C0406000C0
310
408000C040A000C040C000C040E000C0600000C0602000C0604000C0606000C0608000C060A000C060C000C060E000C0800000C0802000C0804000C0806000C0808000C080A000C080C000C080E000C0A00000C0A02000C0A04000C0A06000C0A08000C0A0A000C0A0C000C0A0E000C0C00000C0C02000C0C04000C0C06000
310
C0C08000C0C0A000F0FBFF00A4A0A000808080000000FF0000FF000000FFFF00FF000000FF00FF00FFFF0000FFFFFF00A4A4A4A4A4A4A4A4A4A4A4A4A4A4A4A4A4A4A4A4A4A4A4A4A4A4A4A4A4A4A4A4A4A4A4A4A4A4A4A4A4A4A4A4A4A4A4A4A4A4A4A4A4A4A4A4A4A4A4A4A4A4A4A4A4A4A4A4A4A4A4A4A4A4A4A4A4A4A4
310
A4A4A4A4A4A4A4A4A4A4A4A4A4A4A4A4A4A4A4A4A4A4A4A4A4A4A4A4A4A4A4A4A4A4A4A4A4A4A4A4A4A4A4A4A4A4A4A4A4A4A4A4A4A4A4A4A4A4A4A4A4A4A4A4A4A4A4A4A4A4A4A4A4A4A4A4A4A4A4A4A4A4A4A4A4A4A4A4A4A4A4A4A4A4A4A4A4A4A4A4A4A4A4A4A4A4A4A4A4A4A4A4A4A4A4A4A4A4A4A4A4A4A4A4A4A4A4
310
A4A4A4A4A4A4A4A4A4A4A4A4A4A4A4A4A4A4A4A4A4A4A4A4A4A4A4A4A4A4A4A4A4A4A4A4A4A4A4A4A4A4A4A4A4A4A4A4A4A4A4A4A4A4A4A4A4A4A4A4A4A4A4A4A4A4A4A4A4A4A4A4A4A4A4A4A4A4A4A4A4A4A4A4A4A4A4A4A4A4A4A4A4A4A4A4A4A4A4A4A4A4A4A4A4A4A4A4A4A4A4A4A4A4A4A4A4A4A4A4A4A4A4A4A4A4A4
310
A4A4A4A4A4A4A4A4A4A4A4A4A4A4A4A4A4A4A4A4A4A4A4A4A4A4A4A4A4A4A4A4A4A4A4A4A4A4A4A4A4A4A4A4A4A4A4A4A4A4A4A4A4A4A4A4A4A4A4A4A4A4A4A4A4A4A4A4A4A4A4A4A4A4A4A4A4A4A4A4A4A4A4A4A4A4A4A4A4A4A4A4A4A4A4A4A4A4A4A4A4A4A4A4A4A4A4A4A4A4A4A4A4A4A4A4F9F9F9F9F9F9F9F9F9F9F9
310
F9F9F9F9F9F9F9F9F9F9F9F9F9F9F9F9F9F9F9A4A4F9F9F9F9F9F9F9F9F9F9F9F9F9F9F9F9F9F9F9F9F9F9F9F9F9F9F9F9F9F9A4A4F9F9F9F9F9F9F9F9F9F9F9F9F9F9F9F9F9F9F9F9F9F9F9F9F9F9F9F9F9F9A4A4F9A4A4A4A4A4A4A4A4A4A4A4A4A4A4A4A4A4A4A4A4A4A4A4A4A4A4A4A4F9A4A4A4A4A4A4A4A4A4A4A4A4
310
A4A4A4A4A4A4A4A4A4A4A4A4A4A4A4A4A4A4A4A4A4A4A4A4A4A4A4A4A4A4A4A4A4A4A4A4A4A4A4A4A4A4A4A4A4A4A4A4A4A4A4A4A4A4A4A4A4A4A4A4A4A4A4A4A4A4A4A4A4A4A4A4A4A4A4A4A4A4A4A4A4A4A4A4A4A4A4A4A4A4A4A4A4A4A4A4A4A4A4A4A4A4A4A4A4A4A4A4A4A4A4A4A4A4A4A4A4A4A4A4A4A4A4A4A4A4A4
310
A4A4A4A4A4A4A4A4A4A4A4A4A4A4A4A4A4A4A4A4A4A4A4A4A4A4A4A4A4A4A4A4A4A4A4A4A4A4A4A4A4A4A4A4A4A4A4A4A4A4A4A4A4A4A4A4A4A4A4A4A4A4A4A4A4A4A4A4A4A4A4A4A4A4A4A4A4A4A4A4A4A4A4A4A4A4A4A4A4A4A4A4A4A4A4A4A4A4A4A4A4A4A4A4A4A4A4A4A4A4A4A4A4A4A4A4A4A4A4A4A4A4A4A4A4A4A4
310
A4A4A4A4A4A4A4A4A4A4A4A4A4A4A4A4A4A4A4A4A4A4A4A4A4A4A4A4A4A4A4A4A4A4A4A4A4A4A4A4A4A4A4A4A4A4A4A4A4A4A4A4A4A4A4A4A4A4A4A4A4A4A4A4A4A4A4A4A4A4A4A4A4A4A4A4A4A4A4A4A4A4A4A4A4A4A4A4A4A4A4A4A4A4A4A4A4A4A4A4A4A4A4A4A4A4A4A4A4A4A4A4A4A4A4A4A4A4A4A4A4A4A4A4A4A4A4
310
A4A4A4A4A4A4A4A4A4A4A4A4A4A4A4A4A4A4A4A4A4A4A4A4A4A4A4A4A4A4A4A4A4A4A4A4A4A4A4A4A4A4A4A4A4A4A4A4A4A4A4A4A4A4A4A4
1001
ACAD
1000
DesignCenter Data
1002
{
1070
     1
1070
     4
1002
}
  0
BLOCK_RECORD
  5
AA8
330
1
100
AcDbSymbolTableRecord
100
AcDbBlockTableRecord
  2
_CLOSED
340
0
  0
BLOCK_RECORD
  5
B79
330
1
100
AcDbSymbolTableRecord
100
AcDbBlockTableRecord
  2
nota revisoes
340
0
1001
ACAD
1000
DesignCenter Data
1002
{
1070
     1
1070
     4
1002
}
  0
BLOCK_RECORD
  5
B8E
330
1
100
AcDbSymbolTableRecord
100
AcDbBlockTableRecord
  2
a3l
340
0
1001
ACAD
1000
DesignCenter Data
1002
{
1070
     1
1070
     4
1002
}
  0
BLOCK_RECORD
  5
B9E
330
1
100
AcDbSymbolTableRecord
100
AcDbBlockTableRecord
  2
legenda desenvolvimento
340
0
1001
ACAD
1000
DesignCenter Data
1002
{
1070
     1
1070
     4
1002
}
  0
ENDTAB
  0
ENDSEC
  0
SECTION
  2
BLOCKS
  0
BLOCK
  5
20
330
1F
100
AcDbEntity
  8
0
100
AcDbBlockBegin
  2
*Model_Space
 70
     0
 10
0.0
 20
0.0
 30
0.0
  3
*Model_Space
  1

  0
ENDBLK
  5
21
330
1F
100
AcDbEntity
  8
0
100
AcDbBlockEnd
  0
BLOCK
  5
1C
330
1B
100
AcDbEntity
 67
     1
  8
0
100
AcDbBlockBegin
  2
*Paper_Space
 70
     0
 10
0.0
 20
0.0
 30
0.0
  3
*Paper_Space
  1

  0
ENDBLK
  5
1D
330
1B
100
AcDbEntity
 67
     1
  8
0
100
AcDbBlockEnd
  0
BLOCK
  5
24
330
23
100
AcDbEntity
 67
     1
  8
0
100
AcDbBlockBegin
  2
*Paper_Space0
 70
     0
 10
0.0
 20
0.0
 30
0.0
  3
*Paper_Space0
  1

  0
ENDBLK
  5
25
330
23
100
AcDbEntity
 67
     1
  8
0
100
AcDbBlockEnd
  0
BLOCK
  5
91B
330
919
100
AcDbEntity
  8
0
100
AcDbBlockBegin
  2
_DotSmall
 70
     0
 10
0.0
 20
0.0
 30
0.0
  3
_DotSmall
  1

  0
LWPOLYLINE
  5
91A
330
919
100
AcDbEntity
  8
0
  6
ByBlock
 62
     0
100
AcDbPolyline
 90
        2
 70
     1
 43
0.5
 10
-0.0625
 20
0.0
 42
1.0
 10
0.0625
 20
0.0
 42
1.0
  0
ENDBLK
  5
91C
330
919
100
AcDbEntity
  8
0
100
AcDbBlockEnd
  0
BLOCK
  5
92A
330
922
100
AcDbEntity
  8
0
100
AcDbBlockBegin
  2
base para cotas
 70
     0
 10
0.0
 20
0.0
 30
0.0
  3
base para cotas
  1

  0
LINE
  5
B36
330
922
100
AcDbEntity
  8
cotas
100
AcDbLine
 10
0.0
 20
-30.0
 30
0.0
 11
327.1260136525398
 21
-30.0
 31
0.0
  0
LINE
  5
B37
330
922
100
AcDbEntity
  8
cotas
100
AcDbLine
 10
0.0
 20
-25.0
 30
0.0
 11
327.1260136525398
 21
-25.0
 31
0.0
  0
LINE
  5
B38
330
922
100
AcDbEntity
  8
cotas
100
AcDbLine
 10
0.0
 20
-20.0
 30
0.0
 11
327.1260136525398
 21
-20.0
 31
0.0
  0
LINE
  5
B39
330
922
100
AcDbEntity
  8
cotas
100
AcDbLine
 10
0.0
 20
-15.0
 30
0.0
 11
327.1260136525398
 21
-15.0
 31
0.0
  0
LINE
  5
B3A
330
922
100
AcDbEntity
  8
cotas
100
AcDbLine
 10
0.0
 20
-10.0
 30
0.0
 11
327.1260136525398
 21
-10.0
 31
0.0
  0
LINE
  5
B3B
330
922
100
AcDbEntity
  8
cotas
100
AcDbLine
 10
0.0
 20
0.0
 30
0.0
 11
0.0
 21
-30.0
 31
0.0
  0
LINE
  5
B3C
330
922
100
AcDbEntity
  8
cotas
100
AcDbLine
 10
327.1260136525398
 20
-30.0
 30
0.0
 11
327.1260136525398
 21
0.0
 31
0.0
  0
ENDBLK
  5
92B
330
922
100
AcDbEntity
  8
0
100
AcDbBlockEnd
  0
BLOCK
  5
AAD
330
AA8
100
AcDbEntity
  8
0
100
AcDbBlockBegin
  2
_CLOSED
 70
     0
 10
0.0
 20
0.0
 30
0.0
  3
_CLOSED
  1

  0
LINE
  5
AA9
330
AA8
100
AcDbEntity
  8
0
100
AcDbLine
 10
-1.0
 20
0.166667
 30
0.0
 11
0.0
 21
0.0
 31
0.0
  0
LINE
  5
AAA
330
AA8
100
AcDbEntity
  8
0
100
AcDbLine
 10
0.0
 20
0.0
 30
0.0
 11
-1.0
 21
-0.166667
 31
0.0
  0
LINE
  5
AAB
330
AA8
100
AcDbEntity
  8
0
100
AcDbLine
 10
-1.0
 20
0.166667
 30
0.0
 11
-1.0
 21
-0.166667
 31
0.0
  0
LINE
  5
AAC
330
AA8
100
AcDbEntity
  8
0
100
AcDbLine
 10
0.0
 20
0.0
 30
0.0
 11
-1.0
 21
0.0
 31
0.0
  0
ENDBLK
  5
AAE
330
AA8
100
AcDbEntity
  8
0
100
AcDbBlockEnd
  0
BLOCK
  5
B7C
330
B79
100
AcDbEntity
  8
0
100
AcDbBlockBegin
  2
nota revisoes
 70
     0
 10
0.0
 20
0.0
 30
0.0
  3
nota revisoes
  1

  0
CIRCLE
  5
B7A
330
B79
100
AcDbEntity
  8
4
100
AcDbCircle
 10
0.0
 20
0.0
 30
0.0
 40
13.69426055101189
  0
TEXT
  5
B7B
330
B79
100
AcDbEntity
  8
4
100
AcDbText
 10
-5.496248358154345
 20
-5.354545554066362
 30
0.0
 40
12.0
  1
1
  7
SANINDUSA
 72
     1
 11
-0.249774214433728
 21
-5.354545554066362
 31
0.0
100
AcDbText
  0
ENDBLK
  5
B7D
330
B79
100
AcDbEntity
  8
0
100
AcDbBlockEnd
  0
BLOCK
  5
B9C
330
B8E
100
AcDbEntity
  8
0
100
AcDbBlockBegin
  2
a3l
 70
     0
 10
0.0
 20
0.0
 30
0.0
  3
a3l
  1

  0
LINE
  5
B8F
330
B8E
100
AcDbEntity
  8
1
100
AcDbLine
 10
-364.2925296599447
 20
-362.1188951399395
 30
0.0
 11
-364.2925296599447
 21
-65.11889513993946
 31
0.0
  0
LINE
  5
B90
330
B8E
100
AcDbEntity
  8
4
100
AcDbLine
 10
-369.2925296599447
 20
-357.1188951399395
 30
0.0
 11
-369.2925296599447
 21
-70.11889513993946
 31
0.0
  0
LINE
  5
B91
330
B8E
100
AcDbEntity
  8
1
100
AcDbLine
 10
-784.2925296599446
 20
-65.11889513993946
 30
0.0
 11
-784.2925296599446
 21
-362.1188951399395
 31
0.0
  0
LINE
  5
B92
330
B8E
100
AcDbEntity
  8
4
100
AcDbLine
 10
-759.2925296599446
 20
-357.1188951399395
 30
0.0
 11
-759.2925296599446
 21
-70.11889513993946
 31
0.0
  0
LINE
  5
B93
330
B8E
100
AcDbEntity
  8
1
100
AcDbLine
 10
-784.2925296599446
 20
-362.1188951399395
 30
0.0
 11
-364.2925296599447
 21
-362.1188951399395
 31
0.0
  0
LINE
  5
B94
330
B8E
100
AcDbEntity
  8
4
100
AcDbLine
 10
-759.2925296599446
 20
-357.1188951399395
 30
0.0
 11
-369.2925296599447
 21
-357.1188951399395
 31
0.0
  0
LINE
  5
B95
330
B8E
100
AcDbEntity
  8
1
100
AcDbLine
 10
-654.2925296599446
 20
-357.1188951399395
 30
0.0
 11
-654.2925296599446
 21
-362.1188951399395
 31
0.0
  0
LINE
  5
B96
330
B8E
100
AcDbEntity
  8
1
100
AcDbLine
 10
-364.2925296599447
 20
-65.11889513993946
 30
0.0
 11
-784.2925296599446
 21
-65.11889513993946
 31
0.0
  0
LINE
  5
B97
330
B8E
100
AcDbEntity
  8
4
100
AcDbLine
 10
-369.2925296599447
 20
-70.11889513993946
 30
0.0
 11
-759.2925296599446
 21
-70.11889513993946
 31
0.0
  0
LINE
  5
B98
330
B8E
100
AcDbEntity
  8
1
100
AcDbLine
 10
-654.2925296599446
 20
-65.11889513993946
 30
0.0
 11
-654.2925296599446
 21
-70.11889513993946
 31
0.0
  0
LINE
  5
B99
330
B8E
100
AcDbEntity
  8
1
100
AcDbLine
 10
-549.2925296599446
 20
-70.11889513993946
 30
0.0
 11
-549.2925296599446
 21
-65.11889513993946
 31
0.0
  0
LINE
  5
B9A
330
B8E
100
AcDbEntity
  8
1
100
AcDbLine
 10
-369.2925296599447
 20
-65.11889513993946
 30
0.0
 11
-364.2925296599447
 21
-65.11889513993946
 31
0.0
  0
LINE
  5
B9B
330
B8E
100
AcDbEntity
  8
1
100
AcDbLine
 10
-549.2925296599446
 20
-357.1188951399395
 30
0.0
 11
-549.2925296599446
 21
-362.1188951399395
 31
0.0
  0
ENDBLK
  5
B9D
330
B8E
100
AcDbEntity
  8
0
100
AcDbBlockEnd
  0
BLOCK
  5
C13
330
B9E
100
AcDbEntity
  8
0
100
AcDbBlockBegin
  2
legenda desenvolvimento
 70
     2
 10
0.0
 20
0.0
 30
0.0
  3
legenda desenvolvimento
  1

  0
ATTDEF
  5
B9F
330
B9E
100
AcDbEntity
  8
1
100
AcDbText
 10
-108.606245802552
 20
55.5
 30
0.0
 40
4.0
  1
XXXXXXXXXXXXXX
 41
0.8
  7
SANINDUSA
 72
     4
 11
-87.5
 21
57.5
 31
0.0
100
AcDbAttributeDefinition
  3
Nome do Produto:
  2
PRODUTO
 70
     0
  0
ATTDEF
  5
BA0
330
B9E
100
AcDbEntity
  8
1
100
AcDbText
 10
-97.9997966101695
 20
41.25
 30
0.0
 40
3.0
  1
XXXXXXXXX
 41
0.8
  7
futura
 72
     4
 11
-87.5
 21
42.75
 31
0.0
100
AcDbAttributeDefinition
  3
Nome da Peça:
  2
PECA
 70
     0
  0
ATTDEF
  5
BA1
330
B9E
100
AcDbEntity
  8
1
100
AcDbText
 10
-133.4422431161853
 20
21.11745296763252
 30
0.0
 40
2.5
  1
X
 41
0.8
  7
SANINDUSA
 72
     4
 11
-132.5
 21
22.36745296763252
 31
0.0
100
AcDbAttributeDefinition
  3
Cod. TESTE:
  2
TESTE
 70
     0
  0
ATTDEF
  5
BA2
330
B9E
100
AcDbEntity
  8
1
100
AcDbText
 10
-124.3844862323707
 20
21.11745296763252
 30
0.0
 40
2.5
  1
XX
 41
0.8
  7
SANINDUSA
 72
     4
 11
-122.5
 21
22.36745296763252
 31
0.0
100
AcDbAttributeDefinition
  3
Cod. Ano:
  2
ANO
 70
     0
  0
ATTDEF
  5
BA3
330
B9E
100
AcDbEntity
  8
1
100
AcDbText
 10
-112.526889953052
 20
21.11745296763252
 30
0.0
 40
2.5
  1
XXX
 41
0.8
  7
SANINDUSA
 72
     4
 11
-109.700160604496
 21
22.36745296763252
 31
0.0
100
AcDbAttributeDefinition
  3
Cod. Sequência:
  2
SEQUENCIA
 70
     0
  0
ATTDEF
  5
BA4
330
B9E
100
AcDbEntity
  8
1
100
AcDbText
 10
-99.35382430979316
 20
21.11745296763252
 30
0.0
 40
2.5
  1
XX
 41
0.8
  7
SANINDUSA
 72
     4
 11
-97.46933807742244
 21
22.36745296763252
 31
0.0
100
AcDbAttributeDefinition
  3
Cod. Tipo:
  2
TIPO
 70
     0
  0
ATTDEF
  5
BA5
330
B9E
100
AcDbEntity
  8
1
100
AcDbText
 10
-87.42035911468438
 20
21.11745296763252
 30
0.0
 40
2.5
  1
XXX
 41
0.8
  7
SANINDUSA
 72
     4
 11
-84.59362976612828
 21
22.36745296763252
 31
0.0
100
AcDbAttributeDefinition
  3
Cod. Produto:
  2
PRODUTO
 70
     0
  0
ATTDEF
  5
BA6
330
B9E
100
AcDbEntity
  8
1
100
AcDbText
 10
-74.62051971917853
 20
21.11745296763252
 30
0.0
 40
2.5
  1
XXX
 41
0.8
  7
SANINDUSA
 72
     4
 11
-71.79379037062244
 21
22.36745296763252
 31
0.0
100
AcDbAttributeDefinition
  3
Cod. Peça:
  2
PECA
 70
     0
  0
ATTDEF
  5
BA7
330
B9E
100
AcDbEntity
  8
1
100
AcDbText
 10
-61.10603446650329
 20
21.11745296763252
 30
0.0
 40
2.5
  1
XX
 41
0.8
  7
SANINDUSA
 72
     4
 11
-59.22154823413257
 21
22.36745296763252
 31
0.0
100
AcDbAttributeDefinition
  3
Cod. Revisão:
  2
REV
 70
     0
  0
ATTDEF
  5
BA8
330
B9E
100
AcDbEntity
  8
1
100
AcDbText
 10
-48.43615325006194
 20
21.11745296763252
 30
0.0
 40
2.5
  1
XX
 41
0.8
  7
SANINDUSA
 72
     4
 11
-46.55166701769121
 21
22.36745296763252
 31
0.0
100
AcDbAttributeDefinition
  3
Cod. Alteração:
  2
ALT
 70
     0
  0
ATTDEF
  5
BA9
330
B9E
100
AcDbEntity
  8
1
100
AcDbText
 10
-35.19086635325722
 20
23.98875083948959
 30
0.0
 40
3.0
  1
1/XXX
 41
0.8
  7
SANINDUSA
 72
     4
 11
-30.0
 21
25.25
 31
0.0
100
AcDbAttributeDefinition
  3
Escala geral:
  2
ESCALA
 70
     0
  0
ATTDEF
  5
BAA
330
B9E
100
AcDbEntity
  8
1
100
AcDbText
 10
-15.65345869711215
 20
23.75
 30
0.0
 40
3.0
  1
XXXXX
 41
0.8
  7
SANINDUSA
 72
     4
 11
-10.0
 21
25.25
 31
0.0
100
AcDbAttributeDefinition
  3
Folha:
  2
FOLHA
 70
     0
  0
ATTDEF
  5
BAB
330
B9E
100
AcDbEntity
  8
1
100
AcDbText
 10
-178.5146998822042
 20
56.9531347542807
 30
0.0
 40
2.0
  1
xx
 41
0.8
  7
SANINDUSA
 72
     4
 11
-177.2123493113513
 21
57.70330265219877
 31
0.0
100
AcDbAttributeDefinition
  3
revisão
  2
REV.
 70
     0
  0
ATTDEF
  5
BAC
330
B9E
100
AcDbEntity
  8
1
100
AcDbText
 10
-172.7849640077129
 20
56.9531347542807
 30
0.0
 40
2.0
  1
xx
 41
0.8
  7
SANINDUSA
 72
     4
 11
-171.48261343686
 21
57.70330265219877
 31
0.0
100
AcDbAttributeDefinition
  3
alteração
  2
ALT.
 70
     0
  0
ATTDEF
  5
BAD
330
B9E
100
AcDbEntity
  8
1
100
AcDbText
 10
-168.007199951307
 20
56.70330265219877
 30
0.0
 40
2.0
  1
xx/xx/xxxx
 41
0.8
  7
SANINDUSA
 11
-168.007199951307
 21
57.70330265219877
 31
0.0
100
AcDbAttributeDefinition
  3
data
  2
DATA
 70
     0
 74
     2
  0
ATTDEF
  5
BAE
330
B9E
100
AcDbEntity
  8
1
100
AcDbText
 10
-168.5396372253371
 20
13.15916722632639
 30
0.0
 40
2.0
  1
XX/XX/XXXX
 41
0.8
  7
SANINDUSA
 72
     4
 11
-161.5099528734231
 21
14.0
 31
0.0
100
AcDbAttributeDefinition
  3
Data projecto
  2
DATA_PROJ
 70
     0
  0
ATTDEF
  5
BAF
330
B9E
100
AcDbEntity
  8
1
100
AcDbText
 10
-150.8658110728766
 20
13.24983210208193
 30
0.0
 40
2.0
  1
xxxxxxxx
 41
0.8
  7
SANINDUSA
 72
     4
 11
-145.6564087894649
 21
14.0
 31
0.0
100
AcDbAttributeDefinition
  3
nome de quem projectou
  2
NOME
 70
     0
  0
ATTDEF
  5
BB0
330
B9E
100
AcDbEntity
  8
1
100
AcDbText
 10
-168.5396372253371
 20
9.159167226326394
 30
0.0
 40
2.0
  1
XX/XX/XXXX
 41
0.8
  7
SANINDUSA
 72
     4
 11
-161.5099528734231
 21
10.0
 31
0.0
100
AcDbAttributeDefinition
  3
Data desenhou
  2
DATA_DES
 70
     0
  0
ATTDEF
  5
BB1
330
B9E
100
AcDbEntity
  8
1
100
AcDbText
 10
-151.516986358303
 20
9.249832102081933
 30
0.0
 40
2.0
  1
xxxxxxxxx
 41
0.8
  7
SANINDUSA
 72
     4
 11
-145.6564087894649
 21
10.0
 31
0.0
100
AcDbAttributeDefinition
  3
nome
  2
NOME
 70
     0
  0
ATTDEF
  5
BB2
330
B9E
100
AcDbEntity
  8
1
100
AcDbText
 10
-127.2924214135946
 20
14.1979876583216
 30
0.0
 40
2.0
  1
Vitreous China
 41
0.8
  7
SANINDUSA
 72
     4
 11
-119.231709526422
 21
15.22216495852308
 31
0.0
100
AcDbAttributeDefinition
  3
Nome do Material:
  2
MATERIAL
 70
     0
  0
ATTDEF
  5
BB3
330
B9E
100
AcDbEntity
  8
1
100
AcDbText
 10
-103.1563452122093
 20
14.38019043949261
 30
0.0
 40
2.0
  1
Branco
 41
0.8
  7
SANINDUSA
 72
     4
 11
-99.33418268702462
 21
15.35937109765245
 31
0.0
100
AcDbAttributeDefinition
  3
cor da peça
  2
COR
 70
     0
  0
ATTDEF
  5
BB4
330
B9E
100
AcDbEntity
  8
1
100
AcDbText
 10
-116.7235057085292
 20
5.975822699798522
 30
0.0
 40
2.0
  1
Vidrado
 41
0.8
  7
SANINDUSA
 72
     4
 11
-112.5
 21
7.0
 31
0.0
100
AcDbAttributeDefinition
  3
Tipo de acabamento:
  2
ACABAMENTO
 70
     0
  0
ATTDEF
  5
BB5
330
B9E
100
AcDbEntity
  8
1
100
AcDbText
 10
-79.18527869967246
 20
16.65066409850533
 30
0.0
 40
2.0
  1
XXXXXXX
 41
0.8
  7
SANINDUSA
 72
     4
 11
-73.90871724903445
 21
17.65066409850533
 31
0.0
100
AcDbAttributeDefinition
  3
Normas
  2
NORMAS
 70
     0
  0
ATTDEF
  5
BB6
330
B9E
100
AcDbEntity
  8
1
100
AcDbText
 10
-30.55312290127603
 20
14.0
 30
0.0
 40
2.0
  1
XXXXXXXXXXXXXX
 41
0.8
  7
SANINDUSA
 72
     4
 11
-20.0
 21
15.0
 31
0.0
100
AcDbAttributeDefinition
  3
Substitui o desenho:
  2
SUBSTITUI
 70
     0
  0
ATTDEF
  5
BB7
330
B9E
100
AcDbEntity
  8
1
100
AcDbText
 10
-31.30691739422431
 20
6.0
 30
0.0
 40
2.0
  1
XXXXXXXXXXXXXXX
 41
0.8
  7
SANINDUSA
 72
     4
 11
-20.0
 21
7.0
 31
0.0
100
AcDbAttributeDefinition
  3
Substituido por:
  2
SUBSTITUIDO
 70
     0
  0
ATTDEF
  5
BB8
330
B9E
100
AcDbEntity
  8
1
100
AcDbText
 10
-110.0220608548302
 20
1.478208457928303
 30
0.0
 40
2.0
  1
XXXXXXXXXXXXXXXXXXXXXXXXXXXXXXXXXX
 41
0.8
  7
SANINDUSA
 11
-110.0220608548302
 21
2.478208457928303
 31
0.0
100
AcDbAttributeDefinition
  3
Localização do desenho:
  2
LOC-DWG
 70
     0
 74
     2
  0
LINE
  5
BB9
330
B9E
100
AcDbEntity
  8
3
100
AcDbLine
 10
-135.0
 20
4.0
 30
0.0
 11
0.0000000000004547
 21
4.0
 31
0.0
  0
LINE
  5
BBA
330
B9E
100
AcDbEntity
  8
3
100
AcDbLine
 10
-90.00000000000046
 20
12.0
 30
0.0
 11
-135.0
 21
12.0
 31
0.0
  0
LINE
  5
BBB
330
B9E
100
AcDbEntity
  8
3
100
AcDbLine
 10
-135.0
 20
32.5
 30
0.0
 11
-40.0
 21
32.5
 31
0.0
  0
TEXT
  5
BBC
330
B9E
100
AcDbEntity
  8
1
100
AcDbText
 10
-134.0
 20
1.25
 30
0.0
 40
2.0
  1
Localização do des.:
 41
0.8
  7
SANINDUSA
 11
-134.0
 21
2.25
 31
0.0
100
AcDbText
 73
     2
  0
LINE
  5
BBD
330
B9E
100
AcDbEntity
  8
3
100
AcDbLine
 10
-180.0
 20
65.0
 30
0.0
 11
0.0
 21
65.0
 31
0.0
  0
LINE
  5
BBE
330
B9E
100
AcDbEntity
  8
leg fin
100
AcDbLine
 10
-40.0
 20
25.05956924886846
 30
0.0
 11
-135.0
 21
25.05956924886846
 31
0.0
  0
LINE
  5
BBF
330
B9E
100
AcDbEntity
  8
leg fin
100
AcDbLine
 10
-40.0
 20
28.5
 30
0.0
 11
-135.0
 21
28.5
 31
0.0
  0
LINE
  5
BC0
330
B9E
100
AcDbEntity
  8
3
100
AcDbLine
 10
-135.0
 20
50.0
 30
0.0
 11
-40.0
 21
50.0
 31
0.0
  0
TEXT
  5
BC1
330
B9E
100
AcDbEntity
  8
1
100
AcDbText
 10
-134.0
 20
29.75
 30
0.0
 40
2.0
  1
Desenho nº:
 41
0.8
  7
SANINDUSA
 11
-134.0
 21
30.75
 31
0.0
100
AcDbText
 73
     2
  0
TEXT
  5
BC2
330
B9E
100
AcDbEntity
  8
1
100
AcDbText
 10
-134.0
 20
9.25
 30
0.0
 40
2.0
  1
Acabamento:
 41
0.8
  7
SANINDUSA
 11
-134.0
 21
10.25
 31
0.0
100
AcDbText
 73
     2
  0
LINE
  5
BC3
330
B9E
100
AcDbEntity
  8
3
100
AcDbLine
 10
-180.0
 20
20.0
 30
0.0
 11
0.0
 21
20.0
 31
0.0
  0
LINE
  5
BC4
330
B9E
100
AcDbEntity
  8
1
100
AcDbLine
 10
-174.5810776056337
 20
55.5
 30
0.0
 11
-174.5810776056337
 21
65.0
 31
0.0
  0
LINE
  5
BC5
330
B9E
100
AcDbEntity
  8
1
100
AcDbLine
 10
-168.9210461879161
 20
55.5
 30
0.0
 11
-168.9210461879161
 21
65.0
 31
0.0
  0
LINE
  5
BC6
330
B9E
100
AcDbEntity
  8
1
100
AcDbLine
 10
-154.0988595589306
 20
55.5
 30
0.0
 11
-154.0988595589306
 21
65.0
 31
0.0
  0
LINE
  5
BC7
330
B9E
100
AcDbEntity
  8
3
100
AcDbLine
 10
-180.0
 20
65.0
 30
0.0
 11
-180.0
 21
0.0
 31
0.0
  0
LINE
  5
BC8
330
B9E
100
AcDbEntity
  8
3
100
AcDbLine
 10
-135.0
 20
0.0
 30
0.0
 11
-135.0
 21
65.0
 31
0.0
  0
TEXT
  5
BC9
330
B9E
100
AcDbEntity
  8
1
100
AcDbText
 10
-179.0
 20
9.75
 30
0.0
 40
1.5
  1
Des.
 41
0.8
  7
SANINDUSA
 11
-179.0
 21
10.5
 31
0.0
100
AcDbText
 73
     2
  0
LINE
  5
BCA
330
B9E
100
AcDbEntity
  8
1
100
AcDbLine
 10
-168.9210461879161
 20
20.0
 30
0.0
 11
-168.9210461879161
 21
0.0
 31
0.0
  0
LINE
  5
BCB
330
B9E
100
AcDbEntity
  8
1
100
AcDbLine
 10
-154.0988595589306
 20
20.0
 30
0.0
 11
-154.0988595589306
 21
0.0
 31
0.0
  0
LINE
  5
BCC
330
B9E
100
AcDbEntity
  8
1
100
AcDbLine
 10
-180.0
 20
4.0
 30
0.0
 11
-135.0
 21
4.0
 31
0.0
  0
LINE
  5
BCD
330
B9E
100
AcDbEntity
  8
1
100
AcDbLine
 10
-180.0
 20
8.0
 30
0.0
 11
-135.0
 21
8.0
 31
0.0
  0
TEXT
  5
BCE
330
B9E
100
AcDbEntity
  8
1
100
AcDbText
 10
-179.0
 20
1.73257823687436
 30
0.0
 40
1.5
  1
Aprov.
 41
0.8
  7
SANINDUSA
 11
-179.0
 21
2.48257823687436
 31
0.0
100
AcDbText
 73
     2
  0
TEXT
  5
BCF
330
B9E
100
AcDbEntity
  8
1
100
AcDbText
 10
-179.0
 20
5.75
 30
0.0
 40
1.5
  1
Ver.
 41
0.8
  7
SANINDUSA
 11
-179.0
 21
6.5
 31
0.0
100
AcDbText
 73
     2
  0
LINE
  5
BD0
330
B9E
100
AcDbEntity
  8
1
100
AcDbLine
 10
-180.0
 20
16.0
 30
0.0
 11
-135.0
 21
16.0
 31
0.0
  0
LINE
  5
BD1
330
B9E
100
AcDbEntity
  8
1
100
AcDbLine
 10
-180.0
 20
12.0
 30
0.0
 11
-135.0
 21
12.0
 31
0.0
  0
TEXT
  5
BD2
330
B9E
100
AcDbEntity
  8
1
100
AcDbText
 10
-179.0
 20
13.75
 30
0.0
 40
1.5
  1
Proj.
 41
0.8
  7
SANINDUSA
 11
-179.0
 21
14.5
 31
0.0
100
AcDbText
 73
     2
  0
TEXT
  5
BD3
330
B9E
100
AcDbEntity
  8
1
100
AcDbText
 10
-167.9210461879161
 20
17.75
 30
0.0
 40
1.5
  1
Data
 41
0.8
  7
SANINDUSA
 11
-167.9210461879161
 21
18.5
 31
0.0
100
AcDbText
 73
     2
  0
TEXT
  5
BD4
330
B9E
100
AcDbEntity
  8
1
100
AcDbText
 10
-153.0988595589306
 20
17.75
 30
0.0
 40
1.5
  1
Nome
 41
0.8
  7
SANINDUSA
 11
-153.0988595589306
 21
18.5
 31
0.0
100
AcDbText
 73
     2
  0
LINE
  5
BD5
330
B9E
100
AcDbEntity
  8
leg fin
100
AcDbLine
 10
-130.0
 20
20.0
 30
0.0
 11
-130.0
 21
28.5
 31
0.0
  0
TEXT
  5
BD6
330
B9E
100
AcDbEntity
  8
1
100
AcDbText
 10
-134.0
 20
17.25
 30
0.0
 40
2.0
  1
Material:
 41
0.8
  7
SANINDUSA
 11
-134.0
 21
18.25
 31
0.0
100
AcDbText
 73
     2
  0
TEXT
  5
BD7
330
B9E
100
AcDbEntity
  8
1
100
AcDbText
 10
-129.0
 20
26.43288406845113
 30
0.0
 40
1.5
  1
Ano:
 41
0.8
  7
SANINDUSA
 11
-129.0
 21
27.18288406845113
 31
0.0
100
AcDbText
 73
     2
  0
LINE
  5
BD8
330
B9E
100
AcDbEntity
  8
1
100
AcDbLine
 10
-180.0
 20
55.5
 30
0.0
 11
-135.0
 21
55.5
 31
0.0
  0
TEXT
  5
BD9
330
B9E
100
AcDbEntity
  8
1
100
AcDbText
 10
-179.0
 20
52.67772246885193
 30
0.0
 40
1.5
  1
descrição
 41
0.8
  7
SANINDUSA
 11
-179.0
 21
53.42772246885193
 31
0.0
100
AcDbText
 73
     2
  0
TEXT
  5
BDA
330
B9E
100
AcDbEntity
  8
1
100
AcDbText
 10
-134.0
 20
47.25
 30
0.0
 40
2.0
  1
Peça:
 41
0.8
  7
SANINDUSA
 11
-134.0
 21
48.25
 31
0.0
100
AcDbText
 73
     2
  0
LINE
  5
BDB
330
B9E
100
AcDbEntity
  8
1
100
AcDbLine
 10
-180.0
 20
59.5
 30
0.0
 11
-135.0
 21
59.5
 31
0.0
  0
TEXT
  5
BDC
330
B9E
100
AcDbEntity
  8
1
100
AcDbText
 10
-173.5810776056337
 20
62.75
 30
0.0
 40
1.5
  1
Alt.
 41
0.8
  7
SANINDUSA
 11
-173.5810776056337
 21
63.5
 31
0.0
100
AcDbText
 73
     2
  0
TEXT
  5
BDD
330
B9E
100
AcDbEntity
  8
1
100
AcDbText
 10
-179.0
 20
62.75
 30
0.0
 40
1.5
  1
Rev.
 41
0.8
  7
SANINDUSA
 11
-179.0
 21
63.5
 31
0.0
100
AcDbText
 73
     2
  0
TEXT
  5
BDE
330
B9E
100
AcDbEntity
  8
1
100
AcDbText
 10
-167.9210461879161
 20
62.75
 30
0.0
 40
1.5
  1
Data
 41
0.8
  7
SANINDUSA
 11
-167.9210461879161
 21
63.5
 31
0.0
100
AcDbText
 73
     2
  0
TEXT
  5
BDF
330
B9E
100
AcDbEntity
  8
1
100
AcDbText
 10
-153.0988595589306
 20
62.75
 30
0.0
 40
1.5
  1
Nome
 41
0.8
  7
SANINDUSA
 11
-153.0988595589306
 21
63.5
 31
0.0
100
AcDbText
 73
     2
  0
TEXT
  5
BE0
330
B9E
100
AcDbEntity
  8
1
100
AcDbText
 10
-134.0
 20
62.25
 30
0.0
 40
2.0
  1
Produto:
 41
0.8
  7
SANINDUSA
 11
-134.0
 21
63.25
 31
0.0
100
AcDbText
 73
     2
  0
LINE
  5
BE1
330
B9E
100
AcDbEntity
  8
3
100
AcDbLine
 10
-40.0
 20
4.0
 30
0.0
 11
-40.0
 21
65.0
 31
0.0
  0
LWPOLYLINE
  5
BE2
102
{ACAD_REACTORS
330
BEC
102
}
330
B9E
100
AcDbEntity
  8
9
100
AcDbPolyline
 90
       12
 70
     1
 43
0.0
 10
-3.038714600644652
 20
58.90010174665076
 10
-5.726962862472191
 20
58.90010174665076
 10
-5.726962862472191
 20
58.5001017466509
 10
-3.038748516195028
 20
58.5001017466509
 42
-0.4142135623731731
 10
-2.638748516194482
 20
58.1001017466508
 10
-2.638748516194482
 20
57.42799728675596
 10
-5.21497371544865
 20
57.42799728675596
 42
0.4142135623731289
 10
-6.014973715448377
 20
56.627997286756
 10
-6.014973715448377
 20
55.92380871629643
 42
0.4142135623731132
 10
-5.21497371544865
 20
55.12380871629648
 10
-2.23871460064447
 20
55.12380871629648
 10
-2.23871460064447
 20
58.10010174665103
 42
0.4142135623730717
  0
LWPOLYLINE
  5
BE3
102
{ACAD_REACTORS
330
BEC
102
}
330
B9E
100
AcDbEntity
  8
9
100
AcDbPolyline
 90
       20
 70
     1
 43
0.0
 10
-10.01531287095122
 20
57.82799728675581
 10
-10.01531287095122
 20
58.10010174665103
 42
-0.4142135623730744
 10
-9.615312870951584
 20
58.5001017466509
 10
-6.92703069357276
 20
58.5001017466509
 10
-6.92703069357276
 20
58.90010174665076
 10
-9.615346786501959
 20
58.90010174665076
 42
0.4142135623730883
 10
-10.41534678650168
 20
58.1001017466508
 10
-10.41534678650168
 20
57.82796337120567
 42
0.4142135623730717
 10
-9.615346786501959
 20
57.02796337120571
 10
-7.423079531965413
 20
57.02796337120571
 42
-0.4142135623730847
 10
-7.023079531965322
 20
56.62796337120562
 10
-7.023079531965322
 20
55.90786840766487
 42
-0.4142135623730744
 10
-7.423079531965413
 20
55.507868407665
 10
-10.41534678650168
 20
55.507868407665
 10
-10.41534678650168
 20
55.12380871629648
 10
-7.445787917283723
 20
55.12380871629648
 42
0.4114777732064574
 10
-6.645822882998345
 20
55.9163291493976
 10
-6.639238813324936
 20
56.62051771985716
 42
0.4169546541682913
 10
-7.439203847610315
 20
57.42799728675596
 10
-9.615312870951584
 20
57.42799728675596
 42
-0.4142135623731576
  0
LWPOLYLINE
  5
BE4
102
{ACAD_REACTORS
330
BEC
102
}
330
B9E
100
AcDbEntity
  8
9
100
AcDbPolyline
 90
       12
 70
     1
 43
0.0
 10
-14.41561811090378
 20
58.90010174665076
 10
-14.79964388672215
 20
58.90010174665076
 10
-14.79964388672215
 20
55.92380871629643
 42
0.4142135623731133
 10
-13.99964388672242
 20
55.12380871629648
 10
-11.8233508563676
 20
55.12380871629648
 42
0.4142135623730872
 10
-11.02335085636741
 20
55.92380871629643
 10
-11.02335085636741
 20
58.90010174665076
 10
-11.42338477191788
 20
58.90010174665076
 10
-11.42338477191788
 20
55.91567577726095
 42
-0.4131711701795318
 10
-11.82196067063523
 20
55.51567831234956
 10
-14.0141940096214
 20
55.50787335710947
 42
-0.4152567234624407
 10
-14.41561811090378
 20
55.90787082202087
  0
LWPOLYLINE
  5
BE5
102
{ACAD_REACTORS
330
BEC
102
}
330
B9E
100
AcDbEntity
  8
9
100
AcDbPolyline
 90
        6
 70
     1
 43
0.0
 10
-15.80771578768872
 20
55.507868407665
 10
-18.39994912667453
 20
55.507868407665
 42
-0.4142135623731731
 10
-18.79994912667462
 20
55.90786840766487
 10
-18.79994912667462
 20
58.10010174665103
 42
-0.4142135623730744
 10
-18.39994912667453
 20
58.5001017466509
 10
-15.80771578768872
 20
58.5001017466509
  0
LWPOLYLINE
  5
BE6
102
{ACAD_REACTORS
330
BEC
102
}
330
B9E
100
AcDbEntity
  8
9
100
AcDbPolyline
 90
        8
 70
     1
 43
0.0
 10
-15.4236900118708
 20
59.87619128370352
 10
-15.80771578768872
 20
59.87619128370352
 10
-15.80771578768872
 20
58.90010174665076
 10
-18.39176256411201
 20
58.90010174665076
 42
0.4131164467977967
 10
-19.19175694739761
 20
58.1030995310698
 10
-19.1999120763262
 20
55.92680650071542
 42
0.4153115297271718
 10
-18.39991769304061
 20
55.12380871629648
 10
-15.4236900118708
 20
55.12380871629648
  0
LWPOLYLINE
  5
BE7
102
{ACAD_REACTORS
330
BEC
102
}
330
B9E
100
AcDbEntity
  8
9
100
AcDbPolyline
 90
       10
 70
     1
 43
0.0
 10
-20.59201288790928
 20
58.90010174665076
 10
-23.56830591826338
 20
58.90010174665076
 10
-23.56830591826338
 20
55.12380871629648
 10
-23.18424622689509
 20
55.12380871629648
 10
-23.18424622689509
 20
58.5001017466509
 10
-20.59204680345965
 20
58.5001017466509
 42
-0.4142135623730898
 10
-20.19204680345956
 20
58.1001017466508
 10
-20.19204680345956
 20
55.12380871629648
 10
-19.79201288790909
 20
55.12380871629648
 10
-19.79201288790909
 20
58.10010174665103
 42
0.4142135623731132
  0
LWPOLYLINE
  5
BE8
102
{ACAD_REACTORS
330
BEC
102
}
330
B9E
100
AcDbEntity
  8
9
100
AcDbPolyline
 90
        4
 70
     1
 43
0.0
 10
-24.19231812786165
 20
58.90010174665076
 10
-24.57637781922995
 20
58.90010174665076
 10
-24.57637781922995
 20
55.12380871629648
 10
-24.19231812786165
 20
55.12380871629648
  0
LWPOLYLINE
  5
BE9
102
{ACAD_REACTORS
330
BEC
102
}
330
B9E
100
AcDbEntity
  8
9
100
AcDbPolyline
 90
       10
 70
     1
 43
0.0
 10
-28.57661522808212
 20
58.5001017466509
 10
-25.98444972019706
 20
58.5001017466509
 42
-0.4142135623731731
 10
-25.58444972019652
 20
58.1001017466508
 10
-25.58444972019652
 20
55.12380871629648
 10
-25.2004239443786
 20
55.12380871629648
 10
-25.2004239443786
 20
58.10010174665103
 42
0.4142135623730717
 10
-26.00042394437833
 20
58.90010174665076
 10
-28.97664914363259
 20
58.90010174665076
 10
-28.97664914363259
 20
55.12380871629648
 10
-28.57661522808212
 20
55.12380871629648
  0
LWPOLYLINE
  5
BEA
102
{ACAD_REACTORS
330
BEC
102
}
330
B9E
100
AcDbEntity
  8
9
100
AcDbPolyline
 90
       12
 70
     1
 43
0.0
 10
-29.58465321349832
 20
58.10010174665103
 42
0.4142135623730716
 10
-30.3846532134985
 20
58.90010174665076
 10
-33.07296930642724
 20
58.90010174665076
 10
-33.07296930642724
 20
58.5001017466509
 10
-30.38468712904842
 20
58.5001017466509
 42
-0.4142135623730067
 10
-29.98468712904878
 20
58.1001017466508
 10
-29.98468712904878
 20
57.42799728675618
 10
-32.56098015940324
 20
57.42799728675596
 42
0.4142135623731289
 10
-33.36098015940343
 20
56.627997286756
 10
-33.36098015940343
 20
55.92380871629643
 42
0.4142135623731132
 10
-32.56098015940324
 20
55.12380871629648
 10
-29.58465321349832
 20
55.12380871629648
  0
LWPOLYLINE
  5
BEB
102
{ACAD_REACTORS
330
BEC
102
}
330
B9E
100
AcDbEntity
  8
9
100
AcDbPolyline
 90
       20
 70
     1
 43
0.0
 10
-34.7850262845518
 20
57.42799728675596
 10
-36.96125148380543
 20
57.42799728675596
 42
-0.4142135623730898
 10
-37.36125148380552
 20
57.82799728675604
 10
-37.36125148380552
 20
58.10010174665103
 42
-0.4142135623730744
 10
-36.96125148380543
 20
58.5001017466509
 10
-34.27303713752781
 20
58.50010174665067
 10
-34.27303713752781
 20
58.90010174665076
 10
-36.96128539935535
 20
58.90010174665076
 42
0.4142135623731289
 10
-37.76128539935553
 20
58.1001017466508
 10
-37.76128539935553
 20
57.82796337120567
 42
0.4142135623730716
 10
-36.9612853993558
 20
57.02796337120571
 10
-34.76901814481926
 20
57.02796337120571
 42
-0.414213562373168
 10
-34.36901814481962
 20
56.62796337120562
 10
-34.36901814481962
 20
55.90786840766487
 42
-0.4142135623730744
 10
-34.76901814481926
 20
55.507868407665
 10
-37.76128539935553
 20
55.507868407665
 10
-37.76128539935553
 20
55.12380871629648
 10
-34.7850262845518
 20
55.12380871629648
 42
0.4142135623731289
 10
-33.98502628455162
 20
55.92380871629643
 10
-33.98502628455162
 20
56.627997286756
 42
0.4142135623731132
  0
HATCH
  5
BEC
330
B9E
100
AcDbEntity
  8
9
100
AcDbHatch
 10
0.0
 20
0.0
 30
0.0
210
0.0
220
0.0
230
1.0
  2
SOLID
 70
     1
 71
     1
 91
       13
 92
        7
 72
     1
 73
     1
 93
       20
 10
-34.36901814481962
 20
55.90786840766487
 42
-0.414213562372991
 10
-34.76901814481926
 20
55.507868407665
 42
0.0
 10
-37.76128539935553
 20
55.507868407665
 42
0.0
 10
-37.76128539935553
 20
55.12380871629648
 42
0.0
 10
-34.7850262845518
 20
55.12380871629648
 42
0.4142135623731705
 10
-33.98502628455162
 20
55.92380871629666
 42
0.0
 10
-33.98502628455162
 20
56.627997286756
 42
0.4142135623731547
 10
-34.7850262845518
 20
57.42799728675596
 42
0.0
 10
-36.96125148380543
 20
57.42799728675596
 42
-0.4142135623730898
 10
-37.36125148380552
 20
57.82799728675604
 42
0.0
 10
-37.36125148380552
 20
58.1001017466508
 42
-0.4142135623731575
 10
-36.96125148380543
 20
58.5001017466509
 42
0.0
 10
-34.27303713752781
 20
58.50010174665067
 42
0.0
 10
-34.27303713752781
 20
58.90010174665076
 42
0.0
 10
-36.96128539935535
 20
58.90010174665076
 42
0.4142135623731705
 10
-37.76128539935553
 20
58.10010174665058
 42
0.0
 10
-37.76128539935553
 20
57.82796337120544
 42
0.4142135623730299
 10
-36.9612853993558
 20
57.02796337120571
 42
0.0
 10
-34.76901814481926
 20
57.02796337120571
 42
-0.4142135623730015
 10
-34.36901814481962
 20
56.62796337120608
 42
0.0
 97
        1
330
BEB
 92
        7
 72
     1
 73
     1
 93
       12
 10
-33.36098015940343
 20
55.92380871629666
 42
0.4142135623731547
 10
-32.56098015940324
 20
55.12380871629648
 42
0.0
 10
-29.58465321349877
 20
55.12380871629648
 42
0.0
 10
-29.58465321349832
 20
58.10010174665058
 42
0.4142135623731964
 10
-30.3846532134985
 20
58.90010174665076
 42
0.0
 10
-33.07296930642724
 20
58.90010174665076
 42
0.0
 10
-33.07296930642724
 20
58.50010174665067
 42
0.0
 10
-30.38468712904887
 20
58.5001017466509
 42
-0.4142135623732564
 10
-29.98468712904878
 20
58.10010174665103
 42
0.0
 10
-29.98468712904923
 20
57.42799728675596
 42
0.0
 10
-32.56098015940324
 20
57.42799728675596
 42
0.4142135623731705
 10
-33.36098015940343
 20
56.627997286756
 42
0.0
 97
        1
330
BEA
 92
       22
 72
     1
 73
     1
 93
        6
 10
-32.97692046803468
 20
56.62796337120562
 42
-0.4142135623731576
 10
-32.57692046803459
 20
57.02796337120571
 42
0.0
 10
-29.98468712904878
 20
57.02796337120571
 42
0.0
 10
-29.98468712904878
 20
55.507868407665
 42
0.0
 10
-32.57692046803459
 20
55.507868407665
 42
-0.4142135623731731
 10
-32.97692046803468
 20
55.90786840766487
 42
0.0
 97
        1
330
C11
 92
        7
 72
     1
 73
     1
 93
       10
 10
-28.57661522808212
 20
58.5001017466509
 42
0.0
 10
-25.98444972019661
 20
58.5001017466509
 42
-0.4142135623730067
 10
-25.58444972019652
 20
58.10010174665058
 42
0.0
 10
-25.58444972019606
 20
55.12380871629648
 42
0.0
 10
-25.20042394437906
 20
55.12380871629648
 42
0.0
 10
-25.2004239443786
 20
58.1001017466508
 42
0.4142135623731134
 10
-26.00042394437833
 20
58.90010174665076
 42
0.0
 10
-28.97664914363259
 20
58.90010174665076
 42
0.0
 10
-28.97664914363259
 20
55.12380871629648
 42
0.0
 10
-28.57661522808212
 20
55.12380871629648
 42
0.0
 97
        1
330
BE9
 92
        7
 72
     0
 73
     1
 93
        4
 10
-24.57637781922995
 20
55.12380871629648
 10
-24.19231812786165
 20
55.12380871629648
 10
-24.19231812786165
 20
58.90010174665076
 10
-24.57637781922995
 20
58.90010174665076
 97
        1
330
BE8
 92
        7
 72
     0
 73
     1
 93
        4
 10
-24.19231812786165
 20
59.87619128370352
 10
-24.5763778192304
 20
59.87619128370352
 10
-24.5763778192304
 20
59.28412752246913
 10
-24.1923181278612
 20
59.28412752246913
 97
        1
330
C12
 92
        7
 72
     1
 73
     1
 93
       10
 10
-23.18424622689509
 20
58.5001017466509
 42
0.0
 10
-20.59204680345965
 20
58.5001017466509
 42
-0.4142135623730898
 10
-20.19204680345956
 20
58.1001017466508
 42
0.0
 10
-20.19204680345956
 20
55.12380871629648
 42
0.0
 10
-19.79201288790909
 20
55.12380871629648
 42
0.0
 10
-19.79201288790909
 20
58.1001017466508
 42
0.4142135623731547
 10
-20.59201288790928
 20
58.90010174665076
 42
0.0
 10
-23.56830591826338
 20
58.90010174665076
 42
0.0
 10
-23.56830591826338
 20
55.12380871629648
 42
0.0
 10
-23.18424622689463
 20
55.12380871629648
 42
0.0
 97
        1
330
BE7
 92
        7
 72
     1
 73
     1
 93
        8
 10
-19.1999120763262
 20
55.92680650071542
 42
0.4153115297271299
 10
-18.39991769304061
 20
55.12380871629648
 42
0.0
 10
-15.4236900118708
 20
55.12380871629648
 42
0.0
 10
-15.4236900118708
 20
59.87619128370352
 42
0.0
 10
-15.80771578768872
 20
59.87619128370352
 42
0.0
 10
-15.80771578768872
 20
58.90010174665076
 42
0.0
 10
-18.39176256411201
 20
58.90010174665076
 42
0.4131164467977965
 10
-19.19175694739761
 20
58.1030995310698
 42
0.0
 97
        1
330
BE6
 92
       22
 72
     1
 73
     1
 93
        6
 10
-18.79994912667462
 20
58.1001017466508
 42
-0.4142135623731575
 10
-18.39994912667453
 20
58.5001017466509
 42
0.0
 10
-15.80771578768872
 20
58.50010174665067
 42
0.0
 10
-15.80771578768827
 20
55.507868407665
 42
0.0
 10
-18.39994912667453
 20
55.507868407665
 42
-0.4142135623731731
 10
-18.79994912667462
 20
55.90786840766487
 42
0.0
 97
        1
330
BE5
 92
        7
 72
     1
 73
     1
 93
       12
 10
-14.79964388672215
 20
55.92380871629621
 42
0.4142135623729885
 10
-13.99964388672242
 20
55.12380871629648
 42
0.0
 10
-11.8233508563676
 20
55.12380871629648
 42
0.4142135623731289
 10
-11.02335085636741
 20
55.92380871629666
 42
0.0
 10
-11.02335085636741
 20
58.90010174665076
 42
0.0
 10
-11.42338477191788
 20
58.90010174665076
 42
0.0
 10
-11.42338477191788
 20
55.91567577726095
 42
-0.4131711701795319
 10
-11.82196067063523
 20
55.51567831234956
 42
0.0
 10
-14.01419400962095
 20
55.50787335710947
 42
-0.4152567234626918
 10
-14.41561811090378
 20
55.90787082202087
 42
0.0
 10
-14.41561811090378
 20
58.90010174665076
 42
0.0
 10
-14.7996438867226
 20
58.90010174665076
 42
0.0
 97
        1
330
BE4
 92
        7
 72
     1
 73
     1
 93
       20
 10
-7.423079531965413
 20
57.02796337120571
 42
-0.414213562373168
 10
-7.023079531965322
 20
56.62796337120562
 42
0.0
 10
-7.023079531965322
 20
55.90786840766487
 42
-0.4142135623731575
 10
-7.423079531965413
 20
55.507868407665
 42
0.0
 10
-10.41534678650168
 20
55.507868407665
 42
0.0
 10
-10.41534678650168
 20
55.12380871629648
 42
0.0
 10
-7.445787917283723
 20
55.12380871629648
 42
0.4114777732065809
 10
-6.645822882998345
 20
55.91632914939783
 42
0.0
 10
-6.639238813324936
 20
56.62051771985716
 42
0.4169546541682913
 10
-7.439203847610315
 20
57.42799728675596
 42
0.0
 10
-9.615312870951584
 20
57.42799728675596
 42
-0.4142135623729911
 10
-10.01531287095122
 20
57.82799728675581
 42
0.0
 10
-10.01531287095122
 20
58.10010174665103
 42
-0.414213562372991
 10
-9.615312870951584
 20
58.5001017466509
 42
0.0
 10
-6.92703069357276
 20
58.50010174665067
 42
0.0
 10
-6.927030693572305
 20
58.90010174665076
 42
0.0
 10
-9.615346786501959
 20
58.90010174665076
 42
0.4142135623730467
 10
-10.41534678650168
 20
58.10010174665103
 42
0.0
 10
-10.41534678650168
 20
57.82796337120544
 42
0.4142135623730301
 10
-9.615346786501959
 20
57.02796337120571
 42
0.0
 97
        1
330
BE3
 92
        7
 72
     1
 73
     1
 93
       12
 10
-5.21497371544865
 20
57.42799728675596
 42
0.4142135623730871
 10
-6.014973715448377
 20
56.627997286756
 42
0.0
 10
-6.014973715448377
 20
55.92380871629621
 42
0.4142135623730715
 10
-5.21497371544865
 20
55.12380871629648
 42
0.0
 10
-2.23871460064447
 20
55.12380871629648
 42
0.0
 10
-2.23871460064447
 20
58.10010174665058
 42
0.414213562373155
 10
-3.038714600644652
 20
58.90010174665076
 42
0.0
 10
-5.726962862471737
 20
58.90010174665076
 42
0.0
 10
-5.726962862472191
 20
58.5001017466509
 42
0.0
 10
-3.038748516194573
 20
58.5001017466509
 42
-0.4142135623730067
 10
-2.638748516194482
 20
58.10010174665058
 42
0.0
 10
-2.638748516194482
 20
57.42799728675596
 42
0.0
 97
        1
330
BE2
 92
       22
 72
     1
 73
     1
 93
        6
 10
-2.638748516194937
 20
57.02796337120571
 42
0.0
 10
-2.638748516194482
 20
55.50786840766477
 42
0.0
 10
-5.21497371544865
 20
55.507868407665
 42
-0.4142135623731731
 10
-5.614973715448741
 20
55.90786840766509
 42
0.0
 10
-5.614973715448741
 20
56.62796337120562
 42
-0.4142135623731576
 10
-5.21497371544865
 20
57.02796337120571
 42
0.0
 97
        1
330
C0D
 75
     0
 76
     1
 47
0.0407044778999864
 98
       13
 10
-34.18710075113677
 20
56.16907953933765
 10
-33.12851374392494
 20
56.49471602641233
 10
-33.12851374392494
 20
56.49471602641233
 10
-28.77202873835904
 20
57.51232930166111
 10
-24.41554807250941
 20
57.91937341678636
 10
-24.41554807250941
 20
59.384734621186
 10
-23.31624584658039
 20
58.3264175319116
 10
-19.04119127844888
 20
57.75655517324913
 10
-19.04119127844888
 20
57.75655517324913
 10
-14.64399105416578
 20
57.43091868617466
 10
-8.048195057457178
 20
57.22739662861204
 10
-4.017427461911665
 20
57.18669281458665
 10
-4.017427461911665
 20
57.18669281458665
  0
TEXT
  5
BED
330
B9E
100
AcDbEntity
  8
leg fin
100
AcDbText
 10
3.391127401597259
 20
2.107634911895729
 30
0.0
 40
1.5
  1
Este desenho é propriedade da Sanindusa, S.A., e não pode ser copiado nem divulgado sem nossa autorização.
 50
90.0
 41
0.8
  7
SANINDUSA
100
AcDbText
  0
LINE
  5
BEE
330
B9E
100
AcDbEntity
  8
3
100
AcDbLine
 10
-90.0
 20
4.0
 30
0.0
 11
-90.0
 21
12.0
 31
0.0
  0
TEXT
  5
BEF
330
B9E
100
AcDbEntity
  8
1
100
AcDbText
 10
-39.0
 20
9.25
 30
0.0
 40
2.0
  1
Substituido por:
 41
0.8
  7
SANINDUSA
 11
-39.0
 21
10.25
 31
0.0
100
AcDbText
 73
     2
  0
POINT
  5
BF0
330
B9E
100
AcDbEntity
  8
SANINDUSA
100
AcDbPoint
 10
0.0
 20
0.0
 30
0.0
  0
TEXT
  5
BF1
330
B9E
100
AcDbEntity
  8
1
100
AcDbText
 10
-89.0
 20
16.74927010445663
 30
0.0
 40
2.0
  1
Normas:
 41
0.8
  7
SANINDUSA
 11
-89.0
 21
17.74927010445663
 31
0.0
100
AcDbText
 73
     2
  0
LINE
  5
BF2
330
B9E
100
AcDbEntity
  8
3
100
AcDbLine
 10
-90.0
 20
12.0
 30
0.0
 11
-90.0
 21
20.0
 31
0.0
  0
LINE
  5
BF3
330
B9E
100
AcDbEntity
  8
3
100
AcDbLine
 10
-110.546019464768
 20
12.0
 30
0.0
 11
-110.546019464768
 21
20.0
 31
0.0
  0
TEXT
  5
BF4
330
B9E
100
AcDbEntity
  8
1
100
AcDbText
 10
-109.6177520618648
 20
17.25
 30
0.0
 40
2.0
  1
Cor:
 41
0.8
  7
SANINDUSA
 11
-109.6177520618648
 21
18.25
 31
0.0
100
AcDbText
 73
     2
  0
LINE
  5
BF5
330
B9E
100
AcDbEntity
  8
leg fin
100
AcDbLine
 10
-91.42857142857156
 20
20.0
 30
0.0
 11
-91.42857142857156
 21
28.5
 31
0.0
  0
LINE
  5
BF6
330
B9E
100
AcDbEntity
  8
leg fin
100
AcDbLine
 10
-104.2857142857142
 20
20.0
 30
0.0
 11
-104.2857142857142
 21
28.5
 31
0.0
  0
LINE
  5
BF7
330
B9E
100
AcDbEntity
  8
leg fin
100
AcDbLine
 10
-117.1428571428573
 20
20.0
 30
0.0
 11
-117.1428571428573
 21
28.5
 31
0.0
  0
POINT
  5
BF8
330
B9E
100
AcDbEntity
  8
SANINDUSA
100
AcDbPoint
 10
-117.1428571428573
 20
28.5
 30
0.0
  0
POINT
  5
BF9
330
B9E
100
AcDbEntity
  8
SANINDUSA
100
AcDbPoint
 10
-104.2857142857142
 20
28.5
 30
0.0
  0
POINT
  5
BFA
330
B9E
100
AcDbEntity
  8
SANINDUSA
100
AcDbPoint
 10
-91.42857142857156
 20
28.5
 30
0.0
  0
TEXT
  5
BFB
330
B9E
100
AcDbEntity
  8
1
100
AcDbText
 10
-116.200160604496
 20
26.43288406845113
 30
0.0
 40
1.5
  1
Nº Seq.:
 41
0.8
  7
SANINDUSA
 11
-116.200160604496
 21
27.18288406845113
 31
0.0
100
AcDbText
 73
     2
  0
TEXT
  5
BFC
330
B9E
100
AcDbEntity
  8
1
100
AcDbText
 10
-103.2106584078738
 20
26.43288406845113
 30
0.0
 40
1.5
  1
Tipo:
 41
0.8
  7
SANINDUSA
 11
-103.2106584078738
 21
27.18288406845113
 31
0.0
100
AcDbText
 73
     2
  0
TEXT
  5
BFD
330
B9E
100
AcDbEntity
  8
1
100
AcDbText
 10
-90.22114672289353
 20
26.43288406845113
 30
0.0
 40
1.5
  1
Prod.:
 41
0.8
  7
SANINDUSA
 11
-90.22114672289353
 21
27.18288406845113
 31
0.0
100
AcDbText
 73
     2
  0
TEXT
  5
BFE
330
B9E
100
AcDbEntity
  8
1
100
AcDbText
 10
-64.77320576346574
 20
26.43288406845113
 30
0.0
 40
1.5
  1
Rev.:
 41
0.8
  7
SANINDUSA
 11
-64.77320576346574
 21
27.18288406845113
 31
0.0
100
AcDbText
 73
     2
  0
LINE
  5
BFF
330
B9E
100
AcDbEntity
  8
leg fin
100
AcDbLine
 10
-52.85714285714266
 20
20.0
 30
0.0
 11
-52.85714285714266
 21
28.5
 31
0.0
  0
LINE
  5
C00
330
B9E
100
AcDbEntity
  8
leg fin
100
AcDbLine
 10
-65.71428571428578
 20
20.0
 30
0.0
 11
-65.71428571428578
 21
28.5
 31
0.0
  0
LINE
  5
C01
330
B9E
100
AcDbEntity
  8
leg fin
100
AcDbLine
 10
-78.57142857142844
 20
20.0
 30
0.0
 11
-78.57142857142844
 21
28.5
 31
0.0
  0
POINT
  5
C02
330
B9E
100
AcDbEntity
  8
SANINDUSA
100
AcDbPoint
 10
-78.57142857142844
 20
28.5
 30
0.0
  0
POINT
  5
C03
330
B9E
100
AcDbEntity
  8
SANINDUSA
100
AcDbPoint
 10
-65.71428571428578
 20
28.5
 30
0.0
  0
POINT
  5
C04
330
B9E
100
AcDbEntity
  8
SANINDUSA
100
AcDbPoint
 10
-52.85714285714266
 20
28.5
 30
0.0
  0
TEXT
  5
C05
330
B9E
100
AcDbEntity
  8
1
100
AcDbText
 10
-77.61097961686573
 20
26.43288406845113
 30
0.0
 40
1.5
  1
Peça:
 41
0.8
  7
SANINDUSA
 11
-77.61097961686573
 21
27.18288406845113
 31
0.0
100
AcDbText
 73
     2
  0
TEXT
  5
C06
330
B9E
100
AcDbEntity
  8
1
100
AcDbText
 10
-52.06538060077036
 20
26.43288406845113
 30
0.0
 40
1.5
  1
Alt.:
 41
0.8
  7
SANINDUSA
 11
-52.06538060077036
 21
27.18288406845113
 31
0.0
100
AcDbText
 73
     2
  0
LINE
  5
C07
330
B9E
100
AcDbEntity
  8
3
100
AcDbLine
 10
0.0
 20
12.0
 30
0.0
 11
-40.0
 21
12.0
 31
0.0
  0
LINE
  5
C08
330
B9E
100
AcDbEntity
  8
3
100
AcDbLine
 10
-40.0
 20
32.5
 30
0.0
 11
0.0
 21
32.5
 31
0.0
  0
TEXT
  5
C09
330
B9E
100
AcDbEntity
  8
1
100
AcDbText
 10
-19.0
 20
29.75
 30
0.0
 40
2.0
  1
Folha:
 41
0.8
  7
SANINDUSA
 11
-19.0
 21
30.75
 31
0.0
100
AcDbText
 73
     2
  0
LINE
  5
C0A
330
B9E
100
AcDbEntity
  8
3
100
AcDbLine
 10
-20.0
 20
32.5
 30
0.0
 11
-20.0
 21
20.0
 31
0.0
  0
TEXT
  5
C0B
330
B9E
100
AcDbEntity
  8
1
100
AcDbText
 10
-39.0
 20
29.75
 30
0.0
 40
2.0
  1
Escala:
 41
0.8
  7
SANINDUSA
 11
-39.0
 21
30.75
 31
0.0
100
AcDbText
 73
     2
  0
TEXT
  5
C0C
330
B9E
100
AcDbEntity
  8
1
100
AcDbText
 10
-39.0
 20
17.25
 30
0.0
 40
2.0
  1
Substitui:
 41
0.8
  7
SANINDUSA
 11
-39.0
 21
18.25
 31
0.0
100
AcDbText
 73
     2
  0
LWPOLYLINE
  5
C0D
102
{ACAD_REACTORS
330
BEC
102
}
330
B9E
100
AcDbEntity
  8
9
100
AcDbPolyline
 90
        6
 70
     1
 43
0.0
 10
-2.638748516194482
 20
57.02796337120571
 10
-2.638748516194482
 20
55.50786840766477
 10
-5.21497371544865
 20
55.507868407665
 42
-0.4142135623730898
 10
-5.614973715448741
 20
55.90786840766487
 10
-5.614973715448741
 20
56.62796337120562
 42
-0.4142135623731576
 10
-5.21497371544865
 20
57.02796337120571
  0
LINE
  5
C0E
330
B9E
100
AcDbEntity
  8
3
100
AcDbLine
 10
-40.0
 20
50.0
 30
0.0
 11
0.0
 21
50.0
 31
0.0
  0
ATTDEF
  5
C0F
330
B9E
100
AcDbEntity
  8
1
100
AcDbText
 10
-31.30691739422431
 20
40.25
 30
0.0
 40
2.0
  1
XXXXXXXXXXXXXXX
 41
0.8
  7
SANINDUSA
 72
     4
 11
-20.0
 21
41.25
 31
0.0
100
AcDbAttributeDefinition
  3
Observações:
  2
OBS
 70
     0
  0
TEXT
  5
C10
330
B9E
100
AcDbEntity
  8
1
100
AcDbText
 10
-39.0
 20
47.25
 30
0.0
 40
2.0
  1
Observações:
 41
0.8
  7
SANINDUSA
 11
-39.0
 21
48.25
 31
0.0
100
AcDbText
 73
     2
  0
LWPOLYLINE
  5
C11
102
{ACAD_REACTORS
330
BEC
102
}
330
B9E
100
AcDbEntity
  8
9
100
AcDbPolyline
 90
        6
 70
     1
 43
0.0
 10
-29.98468712904878
 20
57.02796337120571
 10
-29.98468712904878
 20
55.507868407665
 10
-32.57692046803459
 20
55.507868407665
 42
-0.4142135623731731
 10
-32.97692046803468
 20
55.90786840766487
 10
-32.97692046803468
 20
56.62796337120562
 42
-0.4142135623731576
 10
-32.57692046803459
 20
57.02796337120571
  0
LWPOLYLINE
  5
C12
102
{ACAD_REACTORS
330
BEC
102
}
330
B9E
100
AcDbEntity
  8
9
100
AcDbPolyline
 90
        4
 70
     1
 43
0.0
 10
-24.19231812786165
 20
59.87619128370352
 10
-24.57637781922995
 20
59.87619128370352
 10
-24.57637781922995
 20
59.28412752246913
 10
-24.19231812786165
 20
59.28412752246913
  0
ENDBLK
  5
C14
330
B9E
100
AcDbEntity
  8
0
100
AcDbBlockEnd
  0
ENDSEC
  0
SECTION
  2
ENTITIES
  0
SPLINE
  5
1103
330
1F
100
AcDbEntity
  8
SANINDUSA
100
AcDbSpline
210
0.0
220
0.0
230
1.0
 70
     8
 71
     3
 72
    68
 73
    64
 74
     0
 42
0.0000000001
 43
0.0000000001
 40
0.0
 40
0.0
 40
0.0
 40
0.0
 40
0.0625
 40
0.0625
 40
0.0625
 40
0.0625
 40
0.125
 40
0.125
 40
0.125
 40
0.125
 40
0.1875
 40
0.1875
 40
0.1875
 40
0.1875
 40
0.25
 40
0.25
 40
0.25
 40
0.25
 40
0.3125
 40
0.3125
 40
0.3125
 40
0.3125
 40
0.375
 40
0.375
 40
0.375
 40
0.375
 40
0.4375
 40
0.4375
 40
0.4375
 40
0.4375
 40
0.5
 40
0.5
 40
0.5
 40
0.5
 40
0.5625
 40
0.5625
 40
0.5625
 40
0.5625
 40
0.625
 40
0.625
 40
0.625
 40
0.625
 40
0.6875
 40
0.6875
 40
0.6875
 40
0.6875
 40
0.75
 40
0.75
 40
0.75
 40
0.75
 40
0.8125
 40
0.8125
 40
0.8125
 40
0.8125
 40
0.875
 40
0.875
 40
0.875
 40
0.875
 40
0.9375
 40
0.9375
 40
0.9375
 40
0.9375
 40
1.0
 40
1.0
 40
1.0
 40
1.0
 10
4098.88598089477
 20
1653.427847877026
 30
0.0
 10
4098.88598089477
 20
1653.427847877026
 30
0.0
 10
4098.886060809191
 20
1653.428807043096
 30
0.0
 10
4098.886060809191
 20
1653.428807043096
 30
0.0
 10
4098.886060809191
 20
1653.428807043096
 30
0.0
 10
4098.886060809191
 20
1653.428807043096
 30
0.0
 10
4098.886380466871
 20
1653.429766209165
 30
0.0
 10
4098.886380466871
 20
1653.429766209165
 30
0.0
 10
4098.886380466871
 20
1653.429766209165
 30
0.0
 10
4098.886380466871
 20
1653.429766209165
 30
0.0
 10
4098.886780232
 20
1653.430645267786
 30
0.0
 10
4098.886780232
 20
1653.430645267786
 30
0.0
 10
4098.886780232
 20
1653.430645267786
 30
0.0
 10
4098.886780232
 20
1653.430645267786
 30
0.0
 10
4098.88741954736
 20
1653.431364497565
 30
0.0
 10
4098.88741954736
 20
1653.431364497565
 30
0.0
 10
4098.88741954736
 20
1653.431364497565
 30
0.0
 10
4098.88741954736
 20
1653.431364497565
 30
0.0
 10
4098.88813897017
 20
1653.432004005956
 30
0.0
 10
4098.88813897017
 20
1653.432004005956
 30
0.0
 10
4098.88813897017
 20
1653.432004005956
 30
0.0
 10
4098.88813897017
 20
1653.432004005956
 30
0.0
 10
4098.889018028791
 20
1653.432483492476
 30
0.0
 10
4098.889018028791
 20
1653.432483492476
 30
0.0
 10
4098.889018028791
 20
1653.432483492476
 30
0.0
 10
4098.889018028791
 20
1653.432483492476
 30
0.0
 10
4098.889977001831
 20
1653.432723235736
 30
0.0
 10
4098.889977001831
 20
1653.432723235736
 30
0.0
 10
4098.889977001831
 20
1653.432723235736
 30
0.0
 10
4098.889977001831
 20
1653.432723235736
 30
0.0
 10
4098.8909361679
 20
1653.432883257606
 30
0.0
 10
4098.8909361679
 20
1653.432883257606
 30
0.0
 10
4098.8909361679
 20
1653.432883257606
 30
0.0
 10
4098.8909361679
 20
1653.432883257606
 30
0.0
 10
4098.891975248391
 20
1653.432723235736
 30
0.0
 10
4098.891975248391
 20
1653.432723235736
 30
0.0
 10
4098.891975248391
 20
1653.432723235736
 30
0.0
 10
4098.891975248391
 20
1653.432723235736
 30
0.0
 10
4098.89293441446
 20
1653.432483492476
 30
0.0
 10
4098.89293441446
 20
1653.432483492476
 30
0.0
 10
4098.89293441446
 20
1653.432483492476
 30
0.0
 10
4098.89293441446
 20
1653.432483492476
 30
0.0
 10
4098.893813473081
 20
1653.432004005956
 30
0.0
 10
4098.893813473081
 20
1653.432004005956
 30
0.0
 10
4098.893813473081
 20
1653.432004005956
 30
0.0
 10
4098.893813473081
 20
1653.432004005956
 30
0.0
 10
4098.89453270286
 20
1653.431364497565
 30
0.0
 10
4098.89453270286
 20
1653.431364497565
 30
0.0
 10
4098.89453270286
 20
1653.431364497565
 30
0.0
 10
4098.89453270286
 20
1653.431364497565
 30
0.0
 10
4098.895172211251
 20
1653.430645267786
 30
0.0
 10
4098.895172211251
 20
1653.430645267786
 30
0.0
 10
4098.895172211251
 20
1653.430645267786
 30
0.0
 10
4098.895172211251
 20
1653.430645267786
 30
0.0
 10
4098.89557197638
 20
1653.429766209165
 30
0.0
 10
4098.89557197638
 20
1653.429766209165
 30
0.0
 10
4098.89557197638
 20
1653.429766209165
 30
0.0
 10
4098.89557197638
 20
1653.429766209165
 30
0.0
 10
4098.89589163406
 20
1653.428807043096
 30
0.0
 10
4098.89589163406
 20
1653.428807043096
 30
0.0
 10
4098.89589163406
 20
1653.428807043096
 30
0.0
 10
4098.89589163406
 20
1653.428807043096
 30
0.0
 10
4098.89597135545
 20
1653.427847877026
 30
0.0
 10
4098.89597135545
 20
1653.427847877026
 30
0.0
  0
SPLINE
  5
1104
330
1F
100
AcDbEntity
  8
SANINDUSA
100
AcDbSpline
210
0.0
220
0.0
230
1.0
 70
    24
 71
     3
 72
     8
 73
     4
 74
     0
 42
0.0000000001
 43
0.0000000001
 40
0.0
 40
0.0
 40
0.0
 40
0.0
 40
1.0
 40
1.0
 40
1.0
 40
1.0
 10
4098.89597135545
 20
1653.427847877026
 30
0.0
 10
4098.89597135545
 20
1653.427847877026
 30
0.0
 10
4098.89597135545
 20
1653.413781201836
 30
0.0
 10
4098.89597135545
 20
1653.413781201836
 30
0.0
  0
SPLINE
  5
1107
330
1F
100
AcDbEntity
  8
SANINDUSA
100
AcDbSpline
210
0.0
220
0.0
230
1.0
 70
     8
 71
     3
 72
    68
 73
    64
 74
     0
 42
0.0000000001
 43
0.0000000001
 40
0.0
 40
0.0
 40
0.0
 40
0.0
 40
0.0625
 40
0.0625
 40
0.0625
 40
0.0625
 40
0.125
 40
0.125
 40
0.125
 40
0.125
 40
0.1875
 40
0.1875
 40
0.1875
 40
0.1875
 40
0.25
 40
0.25
 40
0.25
 40
0.25
 40
0.3125
 40
0.3125
 40
0.3125
 40
0.3125
 40
0.375
 40
0.375
 40
0.375
 40
0.375
 40
0.4375
 40
0.4375
 40
0.4375
 40
0.4375
 40
0.5
 40
0.5
 40
0.5
 40
0.5
 40
0.5625
 40
0.5625
 40
0.5625
 40
0.5625
 40
0.625
 40
0.625
 40
0.625
 40
0.625
 40
0.6875
 40
0.6875
 40
0.6875
 40
0.6875
 40
0.75
 40
0.75
 40
0.75
 40
0.75
 40
0.8125
 40
0.8125
 40
0.8125
 40
0.8125
 40
0.875
 40
0.875
 40
0.875
 40
0.875
 40
0.9375
 40
0.9375
 40
0.9375
 40
0.9375
 40
1.0
 40
1.0
 40
1.0
 40
1.0
 10
4098.89597135545
 20
1653.413781201836
 30
0.0
 10
4098.89597135545
 20
1653.413781201836
 30
0.0
 10
4098.89589163406
 20
1653.412822035766
 30
0.0
 10
4098.89589163406
 20
1653.412822035766
 30
0.0
 10
4098.89589163406
 20
1653.412822035766
 30
0.0
 10
4098.89589163406
 20
1653.412822035766
 30
0.0
 10
4098.89557197638
 20
1653.411862869696
 30
0.0
 10
4098.89557197638
 20
1653.411862869696
 30
0.0
 10
4098.89557197638
 20
1653.411862869696
 30
0.0
 10
4098.89557197638
 20
1653.411862869696
 30
0.0
 10
4098.895172211251
 20
1653.410983618046
 30
0.0
 10
4098.895172211251
 20
1653.410983618046
 30
0.0
 10
4098.895172211251
 20
1653.410983618046
 30
0.0
 10
4098.895172211251
 20
1653.410983618046
 30
0.0
 10
4098.89453270286
 20
1653.410264388266
 30
0.0
 10
4098.89453270286
 20
1653.410264388266
 30
0.0
 10
4098.89453270286
 20
1653.410264388266
 30
0.0
 10
4098.89453270286
 20
1653.410264388266
 30
0.0
 10
4098.893813473081
 20
1653.409625072906
 30
0.0
 10
4098.893813473081
 20
1653.409625072906
 30
0.0
 10
4098.893813473081
 20
1653.409625072906
 30
0.0
 10
4098.893813473081
 20
1653.409625072906
 30
0.0
 10
4098.89293441446
 20
1653.409145586386
 30
0.0
 10
4098.89293441446
 20
1653.409145586386
 30
0.0
 10
4098.89293441446
 20
1653.409145586386
 30
0.0
 10
4098.89293441446
 20
1653.409145586386
 30
0.0
 10
4098.891975248391
 20
1653.408825735676
 30
0.0
 10
4098.891975248391
 20
1653.408825735676
 30
0.0
 10
4098.891975248391
 20
1653.408825735676
 30
0.0
 10
4098.891975248391
 20
1653.408825735676
 30
0.0
 10
4098.8909361679
 20
1653.408745821256
 30
0.0
 10
4098.8909361679
 20
1653.408745821256
 30
0.0
 10
4098.8909361679
 20
1653.408745821256
 30
0.0
 10
4098.8909361679
 20
1653.408745821256
 30
0.0
 10
4098.889977001831
 20
1653.408825735676
 30
0.0
 10
4098.889977001831
 20
1653.408825735676
 30
0.0
 10
4098.889977001831
 20
1653.408825735676
 30
0.0
 10
4098.889977001831
 20
1653.408825735676
 30
0.0
 10
4098.889018028791
 20
1653.409145586386
 30
0.0
 10
4098.889018028791
 20
1653.409145586386
 30
0.0
 10
4098.889018028791
 20
1653.409145586386
 30
0.0
 10
4098.889018028791
 20
1653.409145586386
 30
0.0
 10
4098.88813897017
 20
1653.409625072906
 30
0.0
 10
4098.88813897017
 20
1653.409625072906
 30
0.0
 10
4098.88813897017
 20
1653.409625072906
 30
0.0
 10
4098.88813897017
 20
1653.409625072906
 30
0.0
 10
4098.88741954736
 20
1653.410264388266
 30
0.0
 10
4098.88741954736
 20
1653.410264388266
 30
0.0
 10
4098.88741954736
 20
1653.410264388266
 30
0.0
 10
4098.88741954736
 20
1653.410264388266
 30
0.0
 10
4098.886780232
 20
1653.410983618046
 30
0.0
 10
4098.886780232
 20
1653.410983618046
 30
0.0
 10
4098.886780232
 20
1653.410983618046
 30
0.0
 10
4098.886780232
 20
1653.410983618046
 30
0.0
 10
4098.886380466871
 20
1653.411862869696
 30
0.0
 10
4098.886380466871
 20
1653.411862869696
 30
0.0
 10
4098.886380466871
 20
1653.411862869696
 30
0.0
 10
4098.886380466871
 20
1653.411862869696
 30
0.0
 10
4098.886060809191
 20
1653.412822035766
 30
0.0
 10
4098.886060809191
 20
1653.412822035766
 30
0.0
 10
4098.886060809191
 20
1653.412822035766
 30
0.0
 10
4098.886060809191
 20
1653.412822035766
 30
0.0
 10
4098.88598089477
 20
1653.413781201836
 30
0.0
 10
4098.88598089477
 20
1653.413781201836
 30
0.0
  0
SPLINE
  5
1108
330
1F
100
AcDbEntity
  8
SANINDUSA
100
AcDbSpline
210
0.0
220
0.0
230
1.0
 70
    24
 71
     3
 72
     8
 73
     4
 74
     0
 42
0.0000000001
 43
0.0000000001
 40
0.0
 40
0.0
 40
0.0
 40
0.0
 40
1.0
 40
1.0
 40
1.0
 40
1.0
 10
4098.88598089477
 20
1653.413781201836
 30
0.0
 10
4098.88598089477
 20
1653.413781201836
 30
0.0
 10
4098.88598089477
 20
1653.427847877026
 30
0.0
 10
4098.88598089477
 20
1653.427847877026
 30
0.0
  0
SPLINE
  5
1134
330
1F
100
AcDbEntity
  8
SANINDUSA
100
AcDbSpline
210
0.0
220
0.0
230
1.0
 70
    11
 71
     3
 72
   304
 73
   300
 74
     0
 42
0.0000000001
 43
0.0000000001
 40
0.0
 40
0.0
 40
0.0
 40
0.0
 40
0.0133333333333333
 40
0.0133333333333333
 40
0.0133333333333333
 40
0.0133333333333333
 40
0.0266666666666667
 40
0.0266666666666667
 40
0.0266666666666667
 40
0.0266666666666667
 40
0.04
 40
0.04
 40
0.04
 40
0.04
 40
0.0533333333333333
 40
0.0533333333333333
 40
0.0533333333333333
 40
0.0533333333333333
 40
0.0666666666666667
 40
0.0666666666666667
 40
0.0666666666666667
 40
0.0666666666666667
 40
0.08
 40
0.08
 40
0.08
 40
0.08
 40
0.0933333333333333
 40
0.0933333333333333
 40
0.0933333333333333
 40
0.0933333333333333
 40
0.1066666666666667
 40
0.1066666666666667
 40
0.1066666666666667
 40
0.1066666666666667
 40
0.12
 40
0.12
 40
0.12
 40
0.12
 40
0.1333333333333333
 40
0.1333333333333333
 40
0.1333333333333333
 40
0.1333333333333333
 40
0.1466666666666667
 40
0.1466666666666667
 40
0.1466666666666667
 40
0.1466666666666667
 40
0.16
 40
0.16
 40
0.16
 40
0.16
 40
0.1733333333333333
 40
0.1733333333333333
 40
0.1733333333333333
 40
0.1733333333333333
 40
0.1866666666666667
 40
0.1866666666666667
 40
0.1866666666666667
 40
0.1866666666666667
 40
0.2
 40
0.2
 40
0.2
 40
0.2
 40
0.2133333333333334
 40
0.2133333333333334
 40
0.2133333333333334
 40
0.2133333333333334
 40
0.2266666666666667
 40
0.2266666666666667
 40
0.2266666666666667
 40
0.2266666666666667
 40
0.24
 40
0.24
 40
0.24
 40
0.24
 40
0.2533333333333334
 40
0.2533333333333334
 40
0.2533333333333334
 40
0.2533333333333334
 40
0.2666666666666667
 40
0.2666666666666667
 40
0.2666666666666667
 40
0.2666666666666667
 40
0.28
 40
0.28
 40
0.28
 40
0.28
 40
0.2933333333333333
 40
0.2933333333333333
 40
0.2933333333333333
 40
0.2933333333333333
 40
0.3066666666666666
 40
0.3066666666666666
 40
0.3066666666666666
 40
0.3066666666666666
 40
0.3199999999999999
 40
0.3199999999999999
 40
0.3199999999999999
 40
0.3199999999999999
 40
0.3333333333333332
 40
0.3333333333333332
 40
0.3333333333333332
 40
0.3333333333333332
 40
0.3466666666666665
 40
0.3466666666666665
 40
0.3466666666666665
 40
0.3466666666666665
 40
0.3599999999999998
 40
0.3599999999999998
 40
0.3599999999999998
 40
0.3599999999999998
 40
0.3733333333333331
 40
0.3733333333333331
 40
0.3733333333333331
 40
0.3733333333333331
 40
0.3866666666666663
 40
0.3866666666666663
 40
0.3866666666666663
 40
0.3866666666666663
 40
0.3999999999999997
 40
0.3999999999999997
 40
0.3999999999999997
 40
0.3999999999999997
 40
0.4133333333333331
 40
0.4133333333333331
 40
0.4133333333333331
 40
0.4133333333333331
 40
0.4266666666666664
 40
0.4266666666666664
 40
0.4266666666666664
 40
0.4266666666666664
 40
0.4399999999999997
 40
0.4399999999999997
 40
0.4399999999999997
 40
0.4399999999999997
 40
0.453333333333333
 40
0.453333333333333
 40
0.453333333333333
 40
0.453333333333333
 40
0.4666666666666663
 40
0.4666666666666663
 40
0.4666666666666663
 40
0.4666666666666663
 40
0.4799999999999997
 40
0.4799999999999997
 40
0.4799999999999997
 40
0.4799999999999997
 40
0.493333333333333
 40
0.493333333333333
 40
0.493333333333333
 40
0.493333333333333
 40
0.5066666666666663
 40
0.5066666666666663
 40
0.5066666666666663
 40
0.5066666666666663
 40
0.5199999999999996
 40
0.5199999999999996
 40
0.5199999999999996
 40
0.5199999999999996
 40
0.5333333333333329
 40
0.5333333333333329
 40
0.5333333333333329
 40
0.5333333333333329
 40
0.5466666666666662
 40
0.5466666666666662
 40
0.5466666666666662
 40
0.5466666666666662
 40
0.5599999999999996
 40
0.5599999999999996
 40
0.5599999999999996
 40
0.5599999999999996
 40
0.5733333333333328
 40
0.5733333333333328
 40
0.5733333333333328
 40
0.5733333333333328
 40
0.5866666666666661
 40
0.5866666666666661
 40
0.5866666666666661
 40
0.5866666666666661
 40
0.5999999999999995
 40
0.5999999999999995
 40
0.5999999999999995
 40
0.5999999999999995
 40
0.6133333333333328
 40
0.6133333333333328
 40
0.6133333333333328
 40
0.6133333333333328
 40
0.6266666666666661
 40
0.6266666666666661
 40
0.6266666666666661
 40
0.6266666666666661
 40
0.6399999999999994
 40
0.6399999999999994
 40
0.6399999999999994
 40
0.6399999999999994
 40
0.6533333333333326
 40
0.6533333333333326
 40
0.6533333333333326
 40
0.6533333333333326
 40
0.6666666666666661
 40
0.6666666666666661
 40
0.6666666666666661
 40
0.6666666666666661
 40
0.6799999999999993
 40
0.6799999999999993
 40
0.6799999999999993
 40
0.6799999999999993
 40
0.6933333333333326
 40
0.6933333333333326
 40
0.6933333333333326
 40
0.6933333333333326
 40
0.706666666666666
 40
0.706666666666666
 40
0.706666666666666
 40
0.706666666666666
 40
0.7199999999999993
 40
0.7199999999999993
 40
0.7199999999999993
 40
0.7199999999999993
 40
0.7333333333333325
 40
0.7333333333333325
 40
0.7333333333333325
 40
0.7333333333333325
 40
0.7466666666666658
 40
0.7466666666666658
 40
0.7466666666666658
 40
0.7466666666666658
 40
0.7599999999999991
 40
0.7599999999999991
 40
0.7599999999999991
 40
0.7599999999999991
 40
0.7733333333333325
 40
0.7733333333333325
 40
0.7733333333333325
 40
0.7733333333333325
 40
0.7866666666666658
 40
0.7866666666666658
 40
0.7866666666666658
 40
0.7866666666666658
 40
0.7999999999999991
 40
0.7999999999999991
 40
0.7999999999999991
 40
0.7999999999999991
 40
0.8133333333333323
 40
0.8133333333333323
 40
0.8133333333333323
 40
0.8133333333333323
 40
0.8266666666666656
 40
0.8266666666666656
 40
0.8266666666666656
 40
0.8266666666666656
 40
0.8399999999999989
 40
0.8399999999999989
 40
0.8399999999999989
 40
0.8399999999999989
 40
0.8533333333333322
 40
0.8533333333333322
 40
0.8533333333333322
 40
0.8533333333333322
 40
0.8666666666666655
 40
0.8666666666666655
 40
0.8666666666666655
 40
0.8666666666666655
 40
0.8799999999999988
 40
0.8799999999999988
 40
0.8799999999999988
 40
0.8799999999999988
 40
0.8933333333333322
 40
0.8933333333333322
 40
0.8933333333333322
 40
0.8933333333333322
 40
0.9066666666666655
 40
0.9066666666666655
 40
0.9066666666666655
 40
0.9066666666666655
 40
0.9199999999999988
 40
0.9199999999999988
 40
0.9199999999999988
 40
0.9199999999999988
 40
0.9333333333333319
 40
0.9333333333333319
 40
0.9333333333333319
 40
0.9333333333333319
 40
0.9466666666666654
 40
0.9466666666666654
 40
0.9466666666666654
 40
0.9466666666666654
 40
0.9599999999999988
 40
0.9599999999999988
 40
0.9599999999999988
 40
0.9599999999999988
 40
0.973333333333332
 40
0.973333333333332
 40
0.973333333333332
 40
0.973333333333332
 40
0.9866666666666652
 40
0.9866666666666652
 40
0.9866666666666652
 40
0.9866666666666652
 40
1.0
 40
1.0
 40
1.0
 40
1.0
 10
4098.90100673603
 20
1653.491228312376
 30
0.0
 10
4098.90100673603
 20
1653.491228312376
 30
0.0
 10
4098.90100673603
 20
1653.490988376085
 30
0.0
 10
4098.90100673603
 20
1653.490988376085
 30
0.0
 10
4098.90100673603
 20
1653.490988376085
 30
0.0
 10
4098.90100673603
 20
1653.490988376085
 30
0.0
 10
4098.900846907191
 20
1653.490748632826
 30
0.0
 10
4098.900846907191
 20
1653.490748632826
 30
0.0
 10
4098.900846907191
 20
1653.490748632826
 30
0.0
 10
4098.900846907191
 20
1653.490748632826
 30
0.0
 10
4098.900687078351
 20
1653.490508889566
 30
0.0
 10
4098.900687078351
 20
1653.490508889566
 30
0.0
 10
4098.900687078351
 20
1653.490508889566
 30
0.0
 10
4098.900687078351
 20
1653.490508889566
 30
0.0
 10
4098.90052705648
 20
1653.490269146305
 30
0.0
 10
4098.90052705648
 20
1653.490269146305
 30
0.0
 10
4098.90052705648
 20
1653.490269146305
 30
0.0
 10
4098.90052705648
 20
1653.490269146305
 30
0.0
 10
4098.900207591831
 20
1653.490029403046
 30
0.0
 10
4098.900207591831
 20
1653.490029403046
 30
0.0
 10
4098.900207591831
 20
1653.490029403046
 30
0.0
 10
4098.900207591831
 20
1653.490029403046
 30
0.0
 10
4098.899887934151
 20
1653.489789659786
 30
0.0
 10
4098.899887934151
 20
1653.489789659786
 30
0.0
 10
4098.899887934151
 20
1653.489789659786
 30
0.0
 10
4098.899887934151
 20
1653.489789659786
 30
0.0
 10
4098.89948816902
 20
1653.489549723496
 30
0.0
 10
4098.89948816902
 20
1653.489549723496
 30
0.0
 10
4098.89948816902
 20
1653.489549723496
 30
0.0
 10
4098.89948816902
 20
1653.489549723496
 30
0.0
 10
4098.8990086825
 20
1653.489389894656
 30
0.0
 10
4098.8990086825
 20
1653.489389894656
 30
0.0
 10
4098.8990086825
 20
1653.489389894656
 30
0.0
 10
4098.8990086825
 20
1653.489389894656
 30
0.0
 10
4098.89852900295
 20
1653.489150151395
 30
0.0
 10
4098.89852900295
 20
1653.489150151395
 30
0.0
 10
4098.89852900295
 20
1653.489150151395
 30
0.0
 10
4098.89852900295
 20
1653.489150151395
 30
0.0
 10
4098.897889687591
 20
1653.488990322555
 30
0.0
 10
4098.897889687591
 20
1653.488990322555
 30
0.0
 10
4098.897889687591
 20
1653.488990322555
 30
0.0
 10
4098.897889687591
 20
1653.488990322555
 30
0.0
 10
4098.89733028665
 20
1653.488830493716
 30
0.0
 10
4098.89733028665
 20
1653.488830493716
 30
0.0
 10
4098.89733028665
 20
1653.488830493716
 30
0.0
 10
4098.89733028665
 20
1653.488830493716
 30
0.0
 10
4098.89669077826
 20
1653.488670664876
 30
0.0
 10
4098.89669077826
 20
1653.488670664876
 30
0.0
 10
4098.89669077826
 20
1653.488670664876
 30
0.0
 10
4098.89669077826
 20
1653.488670664876
 30
0.0
 10
4098.89597135545
 20
1653.488590750456
 30
0.0
 10
4098.89597135545
 20
1653.488590750456
 30
0.0
 10
4098.89597135545
 20
1653.488590750456
 30
0.0
 10
4098.89597135545
 20
1653.488590750456
 30
0.0
 10
4098.895252125671
 20
1653.488430728585
 30
0.0
 10
4098.895252125671
 20
1653.488430728585
 30
0.0
 10
4098.895252125671
 20
1653.488430728585
 30
0.0
 10
4098.895252125671
 20
1653.488430728585
 30
0.0
 10
4098.89453270286
 20
1653.488351007196
 30
0.0
 10
4098.89453270286
 20
1653.488351007196
 30
0.0
 10
4098.89453270286
 20
1653.488351007196
 30
0.0
 10
4098.89453270286
 20
1653.488351007196
 30
0.0
 10
4098.89373355866
 20
1653.488271092776
 30
0.0
 10
4098.89373355866
 20
1653.488271092776
 30
0.0
 10
4098.89373355866
 20
1653.488271092776
 30
0.0
 10
4098.89373355866
 20
1653.488271092776
 30
0.0
 10
4098.893014328881
 20
1653.488190985326
 30
0.0
 10
4098.893014328881
 20
1653.488190985326
 30
0.0
 10
4098.893014328881
 20
1653.488190985326
 30
0.0
 10
4098.893014328881
 20
1653.488190985326
 30
0.0
 10
4098.89221518468
 20
1653.488190985326
 30
0.0
 10
4098.89221518468
 20
1653.488190985326
 30
0.0
 10
4098.89221518468
 20
1653.488190985326
 30
0.0
 10
4098.89221518468
 20
1653.488190985326
 30
0.0
 10
4098.89141565442
 20
1653.488111263936
 30
0.0
 10
4098.89141565442
 20
1653.488111263936
 30
0.0
 10
4098.89141565442
 20
1653.488111263936
 30
0.0
 10
4098.89141565442
 20
1653.488111263936
 30
0.0
 10
4098.890536595801
 20
1653.488111263936
 30
0.0
 10
4098.890536595801
 20
1653.488111263936
 30
0.0
 10
4098.890536595801
 20
1653.488111263936
 30
0.0
 10
4098.890536595801
 20
1653.488111263936
 30
0.0
 10
4098.88973725857
 20
1653.488190985326
 30
0.0
 10
4098.88973725857
 20
1653.488190985326
 30
0.0
 10
4098.88973725857
 20
1653.488190985326
 30
0.0
 10
4098.88973725857
 20
1653.488190985326
 30
0.0
 10
4098.88893811437
 20
1653.488190985326
 30
0.0
 10
4098.88893811437
 20
1653.488190985326
 30
0.0
 10
4098.88893811437
 20
1653.488190985326
 30
0.0
 10
4098.88893811437
 20
1653.488190985326
 30
0.0
 10
4098.888218884591
 20
1653.488271092776
 30
0.0
 10
4098.888218884591
 20
1653.488271092776
 30
0.0
 10
4098.888218884591
 20
1653.488271092776
 30
0.0
 10
4098.888218884591
 20
1653.488271092776
 30
0.0
 10
4098.88741954736
 20
1653.488351007196
 30
0.0
 10
4098.88741954736
 20
1653.488351007196
 30
0.0
 10
4098.88741954736
 20
1653.488351007196
 30
0.0
 10
4098.88741954736
 20
1653.488351007196
 30
0.0
 10
4098.886700317581
 20
1653.488430728585
 30
0.0
 10
4098.886700317581
 20
1653.488430728585
 30
0.0
 10
4098.886700317581
 20
1653.488430728585
 30
0.0
 10
4098.886700317581
 20
1653.488430728585
 30
0.0
 10
4098.88598089477
 20
1653.488590750456
 30
0.0
 10
4098.88598089477
 20
1653.488590750456
 30
0.0
 10
4098.88598089477
 20
1653.488590750456
 30
0.0
 10
4098.88598089477
 20
1653.488590750456
 30
0.0
 10
4098.88526166499
 20
1653.488670664876
 30
0.0
 10
4098.88526166499
 20
1653.488670664876
 30
0.0
 10
4098.88526166499
 20
1653.488670664876
 30
0.0
 10
4098.88526166499
 20
1653.488670664876
 30
0.0
 10
4098.8846221566
 20
1653.488830493716
 30
0.0
 10
4098.8846221566
 20
1653.488830493716
 30
0.0
 10
4098.8846221566
 20
1653.488830493716
 30
0.0
 10
4098.8846221566
 20
1653.488830493716
 30
0.0
 10
4098.884062755661
 20
1653.488990322555
 30
0.0
 10
4098.884062755661
 20
1653.488990322555
 30
0.0
 10
4098.884062755661
 20
1653.488990322555
 30
0.0
 10
4098.884062755661
 20
1653.488990322555
 30
0.0
 10
4098.883423247271
 20
1653.489150151395
 30
0.0
 10
4098.883423247271
 20
1653.489150151395
 30
0.0
 10
4098.883423247271
 20
1653.489150151395
 30
0.0
 10
4098.883423247271
 20
1653.489150151395
 30
0.0
 10
4098.88294376075
 20
1653.489389894656
 30
0.0
 10
4098.88294376075
 20
1653.489389894656
 30
0.0
 10
4098.88294376075
 20
1653.489389894656
 30
0.0
 10
4098.88294376075
 20
1653.489389894656
 30
0.0
 10
4098.88246427423
 20
1653.489549723496
 30
0.0
 10
4098.88246427423
 20
1653.489549723496
 30
0.0
 10
4098.88246427423
 20
1653.489549723496
 30
0.0
 10
4098.88246427423
 20
1653.489549723496
 30
0.0
 10
4098.8820645091
 20
1653.489789659786
 30
0.0
 10
4098.8820645091
 20
1653.489789659786
 30
0.0
 10
4098.8820645091
 20
1653.489789659786
 30
0.0
 10
4098.8820645091
 20
1653.489789659786
 30
0.0
 10
4098.88174485142
 20
1653.490029403046
 30
0.0
 10
4098.88174485142
 20
1653.490029403046
 30
0.0
 10
4098.88174485142
 20
1653.490029403046
 30
0.0
 10
4098.88174485142
 20
1653.490029403046
 30
0.0
 10
4098.881425193741
 20
1653.490269146305
 30
0.0
 10
4098.881425193741
 20
1653.490269146305
 30
0.0
 10
4098.881425193741
 20
1653.490269146305
 30
0.0
 10
4098.881425193741
 20
1653.490269146305
 30
0.0
 10
4098.8812653649
 20
1653.490508889566
 30
0.0
 10
4098.8812653649
 20
1653.490508889566
 30
0.0
 10
4098.8812653649
 20
1653.490508889566
 30
0.0
 10
4098.8812653649
 20
1653.490508889566
 30
0.0
 10
4098.881105343031
 20
1653.490748632826
 30
0.0
 10
4098.881105343031
 20
1653.490748632826
 30
0.0
 10
4098.881105343031
 20
1653.490748632826
 30
0.0
 10
4098.881105343031
 20
1653.490748632826
 30
0.0
 10
4098.88094570722
 20
1653.490988376085
 30
0.0
 10
4098.88094570722
 20
1653.490988376085
 30
0.0
 10
4098.88094570722
 20
1653.490988376085
 30
0.0
 10
4098.88094570722
 20
1653.490988376085
 30
0.0
 10
4098.88094570722
 20
1653.491468055636
 30
0.0
 10
4098.88094570722
 20
1653.491468055636
 30
0.0
 10
4098.88094570722
 20
1653.491468055636
 30
0.0
 10
4098.88094570722
 20
1653.491468055636
 30
0.0
 10
4098.881105343031
 20
1653.491707798895
 30
0.0
 10
4098.881105343031
 20
1653.491707798895
 30
0.0
 10
4098.881105343031
 20
1653.491707798895
 30
0.0
 10
4098.881105343031
 20
1653.491707798895
 30
0.0
 10
4098.8812653649
 20
1653.491947542156
 30
0.0
 10
4098.8812653649
 20
1653.491947542156
 30
0.0
 10
4098.8812653649
 20
1653.491947542156
 30
0.0
 10
4098.8812653649
 20
1653.491947542156
 30
0.0
 10
4098.881425193741
 20
1653.492187285416
 30
0.0
 10
4098.881425193741
 20
1653.492187285416
 30
0.0
 10
4098.881425193741
 20
1653.492187285416
 30
0.0
 10
4098.881425193741
 20
1653.492187285416
 30
0.0
 10
4098.88174485142
 20
1653.492427028676
 30
0.0
 10
4098.88174485142
 20
1653.492427028676
 30
0.0
 10
4098.88174485142
 20
1653.492427028676
 30
0.0
 10
4098.88174485142
 20
1653.492427028676
 30
0.0
 10
4098.8820645091
 20
1653.492666964966
 30
0.0
 10
4098.8820645091
 20
1653.492666964966
 30
0.0
 10
4098.8820645091
 20
1653.492666964966
 30
0.0
 10
4098.8820645091
 20
1653.492666964966
 30
0.0
 10
4098.88246427423
 20
1653.492906708225
 30
0.0
 10
4098.88246427423
 20
1653.492906708225
 30
0.0
 10
4098.88246427423
 20
1653.492906708225
 30
0.0
 10
4098.88246427423
 20
1653.492906708225
 30
0.0
 10
4098.88294376075
 20
1653.493066537066
 30
0.0
 10
4098.88294376075
 20
1653.493066537066
 30
0.0
 10
4098.88294376075
 20
1653.493066537066
 30
0.0
 10
4098.88294376075
 20
1653.493066537066
 30
0.0
 10
4098.883423247271
 20
1653.493306280326
 30
0.0
 10
4098.883423247271
 20
1653.493306280326
 30
0.0
 10
4098.883423247271
 20
1653.493306280326
 30
0.0
 10
4098.883423247271
 20
1653.493306280326
 30
0.0
 10
4098.884062755661
 20
1653.493466109166
 30
0.0
 10
4098.884062755661
 20
1653.493466109166
 30
0.0
 10
4098.884062755661
 20
1653.493466109166
 30
0.0
 10
4098.884062755661
 20
1653.493466109166
 30
0.0
 10
4098.8846221566
 20
1653.493625938005
 30
0.0
 10
4098.8846221566
 20
1653.493625938005
 30
0.0
 10
4098.8846221566
 20
1653.493625938005
 30
0.0
 10
4098.8846221566
 20
1653.493625938005
 30
0.0
 10
4098.88526166499
 20
1653.493785959876
 30
0.0
 10
4098.88526166499
 20
1653.493785959876
 30
0.0
 10
4098.88526166499
 20
1653.493785959876
 30
0.0
 10
4098.88526166499
 20
1653.493785959876
 30
0.0
 10
4098.88598089477
 20
1653.493945595686
 30
0.0
 10
4098.88598089477
 20
1653.493945595686
 30
0.0
 10
4098.88598089477
 20
1653.493945595686
 30
0.0
 10
4098.88598089477
 20
1653.493945595686
 30
0.0
 10
4098.886700317581
 20
1653.494025703136
 30
0.0
 10
4098.886700317581
 20
1653.494025703136
 30
0.0
 10
4098.886700317581
 20
1653.494025703136
 30
0.0
 10
4098.886700317581
 20
1653.494025703136
 30
0.0
 10
4098.88741954736
 20
1653.494105617556
 30
0.0
 10
4098.88741954736
 20
1653.494105617556
 30
0.0
 10
4098.88741954736
 20
1653.494105617556
 30
0.0
 10
4098.88741954736
 20
1653.494105617556
 30
0.0
 10
4098.888218884591
 20
1653.494185338946
 30
0.0
 10
4098.888218884591
 20
1653.494185338946
 30
0.0
 10
4098.888218884591
 20
1653.494185338946
 30
0.0
 10
4098.888218884591
 20
1653.494185338946
 30
0.0
 10
4098.88893811437
 20
1653.494265446395
 30
0.0
 10
4098.88893811437
 20
1653.494265446395
 30
0.0
 10
4098.88893811437
 20
1653.494265446395
 30
0.0
 10
4098.88893811437
 20
1653.494265446395
 30
0.0
 10
4098.88973725857
 20
1653.494345360815
 30
0.0
 10
4098.88973725857
 20
1653.494345360815
 30
0.0
 10
4098.88973725857
 20
1653.494345360815
 30
0.0
 10
4098.88973725857
 20
1653.494345360815
 30
0.0
 10
4098.89221518468
 20
1653.494345360815
 30
0.0
 10
4098.89221518468
 20
1653.494345360815
 30
0.0
 10
4098.89221518468
 20
1653.494345360815
 30
0.0
 10
4098.89221518468
 20
1653.494345360815
 30
0.0
 10
4098.893014328881
 20
1653.494265446395
 30
0.0
 10
4098.893014328881
 20
1653.494265446395
 30
0.0
 10
4098.893014328881
 20
1653.494265446395
 30
0.0
 10
4098.893014328881
 20
1653.494265446395
 30
0.0
 10
4098.89373355866
 20
1653.494185338946
 30
0.0
 10
4098.89373355866
 20
1653.494185338946
 30
0.0
 10
4098.89373355866
 20
1653.494185338946
 30
0.0
 10
4098.89373355866
 20
1653.494185338946
 30
0.0
 10
4098.89453270286
 20
1653.494105617556
 30
0.0
 10
4098.89453270286
 20
1653.494105617556
 30
0.0
 10
4098.89453270286
 20
1653.494105617556
 30
0.0
 10
4098.89453270286
 20
1653.494105617556
 30
0.0
 10
4098.895252125671
 20
1653.494025703136
 30
0.0
 10
4098.895252125671
 20
1653.494025703136
 30
0.0
 10
4098.895252125671
 20
1653.494025703136
 30
0.0
 10
4098.895252125671
 20
1653.494025703136
 30
0.0
 10
4098.89597135545
 20
1653.493945595686
 30
0.0
 10
4098.89597135545
 20
1653.493945595686
 30
0.0
 10
4098.89597135545
 20
1653.493945595686
 30
0.0
 10
4098.89597135545
 20
1653.493945595686
 30
0.0
 10
4098.89669077826
 20
1653.493785959876
 30
0.0
 10
4098.89669077826
 20
1653.493785959876
 30
0.0
 10
4098.89669077826
 20
1653.493785959876
 30
0.0
 10
4098.89669077826
 20
1653.493785959876
 30
0.0
 10
4098.89733028665
 20
1653.493625938005
 30
0.0
 10
4098.89733028665
 20
1653.493625938005
 30
0.0
 10
4098.89733028665
 20
1653.493625938005
 30
0.0
 10
4098.89733028665
 20
1653.493625938005
 30
0.0
 10
4098.897889687591
 20
1653.493466109166
 30
0.0
 10
4098.897889687591
 20
1653.493466109166
 30
0.0
 10
4098.897889687591
 20
1653.493466109166
 30
0.0
 10
4098.897889687591
 20
1653.493466109166
 30
0.0
 10
4098.89852900295
 20
1653.493306280326
 30
0.0
 10
4098.89852900295
 20
1653.493306280326
 30
0.0
 10
4098.89852900295
 20
1653.493306280326
 30
0.0
 10
4098.89852900295
 20
1653.493306280326
 30
0.0
 10
4098.8990086825
 20
1653.493066537066
 30
0.0
 10
4098.8990086825
 20
1653.493066537066
 30
0.0
 10
4098.8990086825
 20
1653.493066537066
 30
0.0
 10
4098.8990086825
 20
1653.493066537066
 30
0.0
 10
4098.89948816902
 20
1653.492906708225
 30
0.0
 10
4098.89948816902
 20
1653.492906708225
 30
0.0
 10
4098.89948816902
 20
1653.492906708225
 30
0.0
 10
4098.89948816902
 20
1653.492906708225
 30
0.0
 10
4098.899887934151
 20
1653.492666964966
 30
0.0
 10
4098.899887934151
 20
1653.492666964966
 30
0.0
 10
4098.899887934151
 20
1653.492666964966
 30
0.0
 10
4098.899887934151
 20
1653.492666964966
 30
0.0
 10
4098.900207591831
 20
1653.492427028676
 30
0.0
 10
4098.900207591831
 20
1653.492427028676
 30
0.0
 10
4098.900207591831
 20
1653.492427028676
 30
0.0
 10
4098.900207591831
 20
1653.492427028676
 30
0.0
 10
4098.90052705648
 20
1653.492187285416
 30
0.0
 10
4098.90052705648
 20
1653.492187285416
 30
0.0
 10
4098.90052705648
 20
1653.492187285416
 30
0.0
 10
4098.90052705648
 20
1653.492187285416
 30
0.0
 10
4098.900687078351
 20
1653.491947542156
 30
0.0
 10
4098.900687078351
 20
1653.491947542156
 30
0.0
 10
4098.900687078351
 20
1653.491947542156
 30
0.0
 10
4098.900687078351
 20
1653.491947542156
 30
0.0
 10
4098.900846907191
 20
1653.491707798895
 30
0.0
 10
4098.900846907191
 20
1653.491707798895
 30
0.0
 10
4098.900846907191
 20
1653.491707798895
 30
0.0
 10
4098.900846907191
 20
1653.491707798895
 30
0.0
 10
4098.90100673603
 20
1653.491468055636
 30
0.0
 10
4098.90100673603
 20
1653.491468055636
 30
0.0
 10
4098.90100673603
 20
1653.491468055636
 30
0.0
 10
4098.90100673603
 20
1653.491468055636
 30
0.0
 10
4098.90100673603
 20
1653.491228312376
 30
0.0
 10
4098.90100673603
 20
1653.491228312376
 30
0.0
  0
SPLINE
  5
1135
330
1F
100
AcDbEntity
  8
SANINDUSA
100
AcDbSpline
210
0.0
220
0.0
230
1.0
 70
    11
 71
     3
 72
   352
 73
   348
 74
     0
 42
0.0000000001
 43
0.0000000001
 40
0.0
 40
0.0
 40
0.0
 40
0.0
 40
0.0114942528735632
 40
0.0114942528735632
 40
0.0114942528735632
 40
0.0114942528735632
 40
0.0229885057471264
 40
0.0229885057471264
 40
0.0229885057471264
 40
0.0229885057471264
 40
0.0344827586206897
 40
0.0344827586206897
 40
0.0344827586206897
 40
0.0344827586206897
 40
0.0459770114942529
 40
0.0459770114942529
 40
0.0459770114942529
 40
0.0459770114942529
 40
0.0574712643678161
 40
0.0574712643678161
 40
0.0574712643678161
 40
0.0574712643678161
 40
0.0689655172413793
 40
0.0689655172413793
 40
0.0689655172413793
 40
0.0689655172413793
 40
0.0804597701149425
 40
0.0804597701149425
 40
0.0804597701149425
 40
0.0804597701149425
 40
0.0919540229885057
 40
0.0919540229885057
 40
0.0919540229885057
 40
0.0919540229885057
 40
0.103448275862069
 40
0.103448275862069
 40
0.103448275862069
 40
0.103448275862069
 40
0.1149425287356322
 40
0.1149425287356322
 40
0.1149425287356322
 40
0.1149425287356322
 40
0.1264367816091954
 40
0.1264367816091954
 40
0.1264367816091954
 40
0.1264367816091954
 40
0.1379310344827586
 40
0.1379310344827586
 40
0.1379310344827586
 40
0.1379310344827586
 40
0.1494252873563218
 40
0.1494252873563218
 40
0.1494252873563218
 40
0.1494252873563218
 40
0.160919540229885
 40
0.160919540229885
 40
0.160919540229885
 40
0.160919540229885
 40
0.1724137931034482
 40
0.1724137931034482
 40
0.1724137931034482
 40
0.1724137931034482
 40
0.1839080459770114
 40
0.1839080459770114
 40
0.1839080459770114
 40
0.1839080459770114
 40
0.1954022988505746
 40
0.1954022988505746
 40
0.1954022988505746
 40
0.1954022988505746
 40
0.2068965517241378
 40
0.2068965517241378
 40
0.2068965517241378
 40
0.2068965517241378
 40
0.2183908045977011
 40
0.2183908045977011
 40
0.2183908045977011
 40
0.2183908045977011
 40
0.2298850574712643
 40
0.2298850574712643
 40
0.2298850574712643
 40
0.2298850574712643
 40
0.2413793103448275
 40
0.2413793103448275
 40
0.2413793103448275
 40
0.2413793103448275
 40
0.2528735632183907
 40
0.2528735632183907
 40
0.2528735632183907
 40
0.2528735632183907
 40
0.2643678160919539
 40
0.2643678160919539
 40
0.2643678160919539
 40
0.2643678160919539
 40
0.2758620689655171
 40
0.2758620689655171
 40
0.2758620689655171
 40
0.2758620689655171
 40
0.2873563218390803
 40
0.2873563218390803
 40
0.2873563218390803
 40
0.2873563218390803
 40
0.2988505747126435
 40
0.2988505747126435
 40
0.2988505747126435
 40
0.2988505747126435
 40
0.3103448275862067
 40
0.3103448275862067
 40
0.3103448275862067
 40
0.3103448275862067
 40
0.3218390804597699
 40
0.3218390804597699
 40
0.3218390804597699
 40
0.3218390804597699
 40
0.3333333333333331
 40
0.3333333333333331
 40
0.3333333333333331
 40
0.3333333333333331
 40
0.3448275862068963
 40
0.3448275862068963
 40
0.3448275862068963
 40
0.3448275862068963
 40
0.3563218390804595
 40
0.3563218390804595
 40
0.3563218390804595
 40
0.3563218390804595
 40
0.3678160919540227
 40
0.3678160919540227
 40
0.3678160919540227
 40
0.3678160919540227
 40
0.3793103448275859
 40
0.3793103448275859
 40
0.3793103448275859
 40
0.3793103448275859
 40
0.3908045977011491
 40
0.3908045977011491
 40
0.3908045977011491
 40
0.3908045977011491
 40
0.4022988505747123
 40
0.4022988505747123
 40
0.4022988505747123
 40
0.4022988505747123
 40
0.4137931034482756
 40
0.4137931034482756
 40
0.4137931034482756
 40
0.4137931034482756
 40
0.4252873563218388
 40
0.4252873563218388
 40
0.4252873563218388
 40
0.4252873563218388
 40
0.4367816091954019
 40
0.4367816091954019
 40
0.4367816091954019
 40
0.4367816091954019
 40
0.4482758620689652
 40
0.4482758620689652
 40
0.4482758620689652
 40
0.4482758620689652
 40
0.4597701149425283
 40
0.4597701149425283
 40
0.4597701149425283
 40
0.4597701149425283
 40
0.4712643678160916
 40
0.4712643678160916
 40
0.4712643678160916
 40
0.4712643678160916
 40
0.4827586206896548
 40
0.4827586206896548
 40
0.4827586206896548
 40
0.4827586206896548
 40
0.494252873563218
 40
0.494252873563218
 40
0.494252873563218
 40
0.494252873563218
 40
0.5057471264367813
 40
0.5057471264367813
 40
0.5057471264367813
 40
0.5057471264367813
 40
0.5172413793103444
 40
0.5172413793103444
 40
0.5172413793103444
 40
0.5172413793103444
 40
0.5287356321839077
 40
0.5287356321839077
 40
0.5287356321839077
 40
0.5287356321839077
 40
0.5402298850574709
 40
0.5402298850574709
 40
0.5402298850574709
 40
0.5402298850574709
 40
0.5517241379310339
 40
0.5517241379310339
 40
0.5517241379310339
 40
0.5517241379310339
 40
0.5632183908045973
 40
0.5632183908045973
 40
0.5632183908045973
 40
0.5632183908045973
 40
0.5747126436781605
 40
0.5747126436781605
 40
0.5747126436781605
 40
0.5747126436781605
 40
0.5862068965517237
 40
0.5862068965517237
 40
0.5862068965517237
 40
0.5862068965517237
 40
0.5977011494252869
 40
0.5977011494252869
 40
0.5977011494252869
 40
0.5977011494252869
 40
0.6091954022988501
 40
0.6091954022988501
 40
0.6091954022988501
 40
0.6091954022988501
 40
0.6206896551724133
 40
0.6206896551724133
 40
0.6206896551724133
 40
0.6206896551724133
 40
0.6321839080459765
 40
0.6321839080459765
 40
0.6321839080459765
 40
0.6321839080459765
 40
0.6436781609195397
 40
0.6436781609195397
 40
0.6436781609195397
 40
0.6436781609195397
 40
0.6551724137931029
 40
0.6551724137931029
 40
0.6551724137931029
 40
0.6551724137931029
 40
0.6666666666666661
 40
0.6666666666666661
 40
0.6666666666666661
 40
0.6666666666666661
 40
0.6781609195402293
 40
0.6781609195402293
 40
0.6781609195402293
 40
0.6781609195402293
 40
0.6896551724137926
 40
0.6896551724137926
 40
0.6896551724137926
 40
0.6896551724137926
 40
0.7011494252873557
 40
0.7011494252873557
 40
0.7011494252873557
 40
0.7011494252873557
 40
0.7126436781609189
 40
0.7126436781609189
 40
0.7126436781609189
 40
0.7126436781609189
 40
0.7241379310344822
 40
0.7241379310344822
 40
0.7241379310344822
 40
0.7241379310344822
 40
0.7356321839080453
 40
0.7356321839080453
 40
0.7356321839080453
 40
0.7356321839080453
 40
0.7471264367816085
 40
0.7471264367816085
 40
0.7471264367816085
 40
0.7471264367816085
 40
0.7586206896551717
 40
0.7586206896551717
 40
0.7586206896551717
 40
0.7586206896551717
 40
0.770114942528735
 40
0.770114942528735
 40
0.770114942528735
 40
0.770114942528735
 40
0.7816091954022982
 40
0.7816091954022982
 40
0.7816091954022982
 40
0.7816091954022982
 40
0.7931034482758613
 40
0.7931034482758613
 40
0.7931034482758613
 40
0.7931034482758613
 40
0.8045977011494244
 40
0.8045977011494244
 40
0.8045977011494244
 40
0.8045977011494244
 40
0.8160919540229876
 40
0.8160919540229876
 40
0.8160919540229876
 40
0.8160919540229876
 40
0.8275862068965508
 40
0.8275862068965508
 40
0.8275862068965508
 40
0.8275862068965508
 40
0.8390804597701141
 40
0.8390804597701141
 40
0.8390804597701141
 40
0.8390804597701141
 40
0.8505747126436773
 40
0.8505747126436773
 40
0.8505747126436773
 40
0.8505747126436773
 40
0.8620689655172405
 40
0.8620689655172405
 40
0.8620689655172405
 40
0.8620689655172405
 40
0.8735632183908037
 40
0.8735632183908037
 40
0.8735632183908037
 40
0.8735632183908037
 40
0.885057471264367
 40
0.885057471264367
 40
0.885057471264367
 40
0.885057471264367
 40
0.8965517241379302
 40
0.8965517241379302
 40
0.8965517241379302
 40
0.8965517241379302
 40
0.9080459770114932
 40
0.9080459770114932
 40
0.9080459770114932
 40
0.9080459770114932
 40
0.9195402298850565
 40
0.9195402298850565
 40
0.9195402298850565
 40
0.9195402298850565
 40
0.9310344827586197
 40
0.9310344827586197
 40
0.9310344827586197
 40
0.9310344827586197
 40
0.9425287356321829
 40
0.9425287356321829
 40
0.9425287356321829
 40
0.9425287356321829
 40
0.9540229885057462
 40
0.9540229885057462
 40
0.9540229885057462
 40
0.9540229885057462
 40
0.9655172413793094
 40
0.9655172413793094
 40
0.9655172413793094
 40
0.9655172413793094
 40
0.9770114942528726
 40
0.9770114942528726
 40
0.9770114942528726
 40
0.9770114942528726
 40
0.9885057471264357
 40
0.9885057471264357
 40
0.9885057471264357
 40
0.9885057471264357
 40
1.0
 40
1.0
 40
1.0
 40
1.0
 10
4098.903004982591
 20
1653.491228312376
 30
0.0
 10
4098.903004982591
 20
1653.491228312376
 30
0.0
 10
4098.903004982591
 20
1653.490988376085
 30
0.0
 10
4098.903004982591
 20
1653.490988376085
 30
0.0
 10
4098.903004982591
 20
1653.490988376085
 30
0.0
 10
4098.903004982591
 20
1653.490988376085
 30
0.0
 10
4098.90292487514
 20
1653.490748632826
 30
0.0
 10
4098.90292487514
 20
1653.490748632826
 30
0.0
 10
4098.90292487514
 20
1653.490748632826
 30
0.0
 10
4098.90292487514
 20
1653.490748632826
 30
0.0
 10
4098.90276523933
 20
1653.490508889566
 30
0.0
 10
4098.90276523933
 20
1653.490508889566
 30
0.0
 10
4098.90276523933
 20
1653.490508889566
 30
0.0
 10
4098.90276523933
 20
1653.490508889566
 30
0.0
 10
4098.902605217459
 20
1653.490269146305
 30
0.0
 10
4098.902605217459
 20
1653.490269146305
 30
0.0
 10
4098.902605217459
 20
1653.490269146305
 30
0.0
 10
4098.902605217459
 20
1653.490269146305
 30
0.0
 10
4098.9023654742
 20
1653.490029403046
 30
0.0
 10
4098.9023654742
 20
1653.490029403046
 30
0.0
 10
4098.9023654742
 20
1653.490029403046
 30
0.0
 10
4098.9023654742
 20
1653.490029403046
 30
0.0
 10
4098.902045816521
 20
1653.489789659786
 30
0.0
 10
4098.902045816521
 20
1653.489789659786
 30
0.0
 10
4098.902045816521
 20
1653.489789659786
 30
0.0
 10
4098.902045816521
 20
1653.489789659786
 30
0.0
 10
4098.90172596581
 20
1653.489549723496
 30
0.0
 10
4098.90172596581
 20
1653.489549723496
 30
0.0
 10
4098.90172596581
 20
1653.489549723496
 30
0.0
 10
4098.90172596581
 20
1653.489549723496
 30
0.0
 10
4098.90132658674
 20
1653.489309980236
 30
0.0
 10
4098.90132658674
 20
1653.489309980236
 30
0.0
 10
4098.90132658674
 20
1653.489309980236
 30
0.0
 10
4098.90132658674
 20
1653.489309980236
 30
0.0
 10
4098.900926821611
 20
1653.489150151395
 30
0.0
 10
4098.900926821611
 20
1653.489150151395
 30
0.0
 10
4098.900926821611
 20
1653.489150151395
 30
0.0
 10
4098.900926821611
 20
1653.489150151395
 30
0.0
 10
4098.900447335091
 20
1653.488910408136
 30
0.0
 10
4098.900447335091
 20
1653.488910408136
 30
0.0
 10
4098.900447335091
 20
1653.488910408136
 30
0.0
 10
4098.900447335091
 20
1653.488910408136
 30
0.0
 10
4098.899887934151
 20
1653.488750579296
 30
0.0
 10
4098.899887934151
 20
1653.488750579296
 30
0.0
 10
4098.899887934151
 20
1653.488750579296
 30
0.0
 10
4098.899887934151
 20
1653.488750579296
 30
0.0
 10
4098.89932834018
 20
1653.488590750456
 30
0.0
 10
4098.89932834018
 20
1653.488590750456
 30
0.0
 10
4098.89932834018
 20
1653.488590750456
 30
0.0
 10
4098.89932834018
 20
1653.488590750456
 30
0.0
 10
4098.898768939241
 20
1653.488430728585
 30
0.0
 10
4098.898768939241
 20
1653.488430728585
 30
0.0
 10
4098.898768939241
 20
1653.488430728585
 30
0.0
 10
4098.898768939241
 20
1653.488430728585
 30
0.0
 10
4098.898129430851
 20
1653.488271092776
 30
0.0
 10
4098.898129430851
 20
1653.488271092776
 30
0.0
 10
4098.898129430851
 20
1653.488271092776
 30
0.0
 10
4098.898129430851
 20
1653.488271092776
 30
0.0
 10
4098.89749011549
 20
1653.488111263936
 30
0.0
 10
4098.89749011549
 20
1653.488111263936
 30
0.0
 10
4098.89749011549
 20
1653.488111263936
 30
0.0
 10
4098.89749011549
 20
1653.488111263936
 30
0.0
 10
4098.896770885711
 20
1653.487951242066
 30
0.0
 10
4098.896770885711
 20
1653.487951242066
 30
0.0
 10
4098.896770885711
 20
1653.487951242066
 30
0.0
 10
4098.896770885711
 20
1653.487951242066
 30
0.0
 10
4098.8960514629
 20
1653.487871327646
 30
0.0
 10
4098.8960514629
 20
1653.487871327646
 30
0.0
 10
4098.8960514629
 20
1653.487871327646
 30
0.0
 10
4098.8960514629
 20
1653.487871327646
 30
0.0
 10
4098.89533223312
 20
1653.487791606256
 30
0.0
 10
4098.89533223312
 20
1653.487791606256
 30
0.0
 10
4098.89533223312
 20
1653.487791606256
 30
0.0
 10
4098.89533223312
 20
1653.487791606256
 30
0.0
 10
4098.89453270286
 20
1653.487711498805
 30
0.0
 10
4098.89453270286
 20
1653.487711498805
 30
0.0
 10
4098.89453270286
 20
1653.487711498805
 30
0.0
 10
4098.89453270286
 20
1653.487711498805
 30
0.0
 10
4098.89373355866
 20
1653.487631584386
 30
0.0
 10
4098.89373355866
 20
1653.487631584386
 30
0.0
 10
4098.89373355866
 20
1653.487631584386
 30
0.0
 10
4098.89373355866
 20
1653.487631584386
 30
0.0
 10
4098.893014328881
 20
1653.487551669966
 30
0.0
 10
4098.893014328881
 20
1653.487551669966
 30
0.0
 10
4098.893014328881
 20
1653.487551669966
 30
0.0
 10
4098.893014328881
 20
1653.487551669966
 30
0.0
 10
4098.88893811437
 20
1653.487551669966
 30
0.0
 10
4098.88893811437
 20
1653.487551669966
 30
0.0
 10
4098.88893811437
 20
1653.487551669966
 30
0.0
 10
4098.88893811437
 20
1653.487551669966
 30
0.0
 10
4098.888218884591
 20
1653.487631584386
 30
0.0
 10
4098.888218884591
 20
1653.487631584386
 30
0.0
 10
4098.888218884591
 20
1653.487631584386
 30
0.0
 10
4098.888218884591
 20
1653.487631584386
 30
0.0
 10
4098.88741954736
 20
1653.487711498805
 30
0.0
 10
4098.88741954736
 20
1653.487711498805
 30
0.0
 10
4098.88741954736
 20
1653.487711498805
 30
0.0
 10
4098.88741954736
 20
1653.487711498805
 30
0.0
 10
4098.88662021013
 20
1653.487791606256
 30
0.0
 10
4098.88662021013
 20
1653.487791606256
 30
0.0
 10
4098.88662021013
 20
1653.487791606256
 30
0.0
 10
4098.88662021013
 20
1653.487791606256
 30
0.0
 10
4098.885900980351
 20
1653.487871327646
 30
0.0
 10
4098.885900980351
 20
1653.487871327646
 30
0.0
 10
4098.885900980351
 20
1653.487871327646
 30
0.0
 10
4098.885900980351
 20
1653.487871327646
 30
0.0
 10
4098.88518155754
 20
1653.487951242066
 30
0.0
 10
4098.88518155754
 20
1653.487951242066
 30
0.0
 10
4098.88518155754
 20
1653.487951242066
 30
0.0
 10
4098.88518155754
 20
1653.487951242066
 30
0.0
 10
4098.88446232776
 20
1653.488111263936
 30
0.0
 10
4098.88446232776
 20
1653.488111263936
 30
0.0
 10
4098.88446232776
 20
1653.488111263936
 30
0.0
 10
4098.88446232776
 20
1653.488111263936
 30
0.0
 10
4098.8838230124
 20
1653.488271092776
 30
0.0
 10
4098.8838230124
 20
1653.488271092776
 30
0.0
 10
4098.8838230124
 20
1653.488271092776
 30
0.0
 10
4098.8838230124
 20
1653.488271092776
 30
0.0
 10
4098.88318350401
 20
1653.488430728585
 30
0.0
 10
4098.88318350401
 20
1653.488430728585
 30
0.0
 10
4098.88318350401
 20
1653.488430728585
 30
0.0
 10
4098.88318350401
 20
1653.488430728585
 30
0.0
 10
4098.88262410307
 20
1653.488590750456
 30
0.0
 10
4098.88262410307
 20
1653.488590750456
 30
0.0
 10
4098.88262410307
 20
1653.488590750456
 30
0.0
 10
4098.88262410307
 20
1653.488590750456
 30
0.0
 10
4098.8820645091
 20
1653.488750579296
 30
0.0
 10
4098.8820645091
 20
1653.488750579296
 30
0.0
 10
4098.8820645091
 20
1653.488750579296
 30
0.0
 10
4098.8820645091
 20
1653.488750579296
 30
0.0
 10
4098.88150510816
 20
1653.488910408136
 30
0.0
 10
4098.88150510816
 20
1653.488910408136
 30
0.0
 10
4098.88150510816
 20
1653.488910408136
 30
0.0
 10
4098.88150510816
 20
1653.488910408136
 30
0.0
 10
4098.88102562164
 20
1653.489150151395
 30
0.0
 10
4098.88102562164
 20
1653.489150151395
 30
0.0
 10
4098.88102562164
 20
1653.489150151395
 30
0.0
 10
4098.88102562164
 20
1653.489150151395
 30
0.0
 10
4098.880625856511
 20
1653.489309980236
 30
0.0
 10
4098.880625856511
 20
1653.489309980236
 30
0.0
 10
4098.880625856511
 20
1653.489309980236
 30
0.0
 10
4098.880625856511
 20
1653.489309980236
 30
0.0
 10
4098.88022628441
 20
1653.489549723496
 30
0.0
 10
4098.88022628441
 20
1653.489549723496
 30
0.0
 10
4098.88022628441
 20
1653.489549723496
 30
0.0
 10
4098.88022628441
 20
1653.489549723496
 30
0.0
 10
4098.87990662673
 20
1653.489789659786
 30
0.0
 10
4098.87990662673
 20
1653.489789659786
 30
0.0
 10
4098.87990662673
 20
1653.489789659786
 30
0.0
 10
4098.87990662673
 20
1653.489789659786
 30
0.0
 10
4098.87958696905
 20
1653.490029403046
 30
0.0
 10
4098.87958696905
 20
1653.490029403046
 30
0.0
 10
4098.87958696905
 20
1653.490029403046
 30
0.0
 10
4098.87958696905
 20
1653.490029403046
 30
0.0
 10
4098.87934722579
 20
1653.490269146305
 30
0.0
 10
4098.87934722579
 20
1653.490269146305
 30
0.0
 10
4098.87934722579
 20
1653.490269146305
 30
0.0
 10
4098.87934722579
 20
1653.490269146305
 30
0.0
 10
4098.87918720392
 20
1653.490508889566
 30
0.0
 10
4098.87918720392
 20
1653.490508889566
 30
0.0
 10
4098.87918720392
 20
1653.490508889566
 30
0.0
 10
4098.87918720392
 20
1653.490508889566
 30
0.0
 10
4098.87902756811
 20
1653.490748632826
 30
0.0
 10
4098.87902756811
 20
1653.490748632826
 30
0.0
 10
4098.87902756811
 20
1653.490748632826
 30
0.0
 10
4098.87902756811
 20
1653.490748632826
 30
0.0
 10
4098.878947460661
 20
1653.490988376085
 30
0.0
 10
4098.878947460661
 20
1653.490988376085
 30
0.0
 10
4098.878947460661
 20
1653.490988376085
 30
0.0
 10
4098.878947460661
 20
1653.490988376085
 30
0.0
 10
4098.878947460661
 20
1653.491468055636
 30
0.0
 10
4098.878947460661
 20
1653.491468055636
 30
0.0
 10
4098.878947460661
 20
1653.491468055636
 30
0.0
 10
4098.878947460661
 20
1653.491468055636
 30
0.0
 10
4098.87902756811
 20
1653.491707798895
 30
0.0
 10
4098.87902756811
 20
1653.491707798895
 30
0.0
 10
4098.87902756811
 20
1653.491707798895
 30
0.0
 10
4098.87902756811
 20
1653.491707798895
 30
0.0
 10
4098.87918720392
 20
1653.491947542156
 30
0.0
 10
4098.87918720392
 20
1653.491947542156
 30
0.0
 10
4098.87918720392
 20
1653.491947542156
 30
0.0
 10
4098.87918720392
 20
1653.491947542156
 30
0.0
 10
4098.87934722579
 20
1653.492187285416
 30
0.0
 10
4098.87934722579
 20
1653.492187285416
 30
0.0
 10
4098.87934722579
 20
1653.492187285416
 30
0.0
 10
4098.87934722579
 20
1653.492187285416
 30
0.0
 10
4098.87958696905
 20
1653.492427028676
 30
0.0
 10
4098.87958696905
 20
1653.492427028676
 30
0.0
 10
4098.87958696905
 20
1653.492427028676
 30
0.0
 10
4098.87958696905
 20
1653.492427028676
 30
0.0
 10
4098.87990662673
 20
1653.492666964966
 30
0.0
 10
4098.87990662673
 20
1653.492666964966
 30
0.0
 10
4098.87990662673
 20
1653.492666964966
 30
0.0
 10
4098.87990662673
 20
1653.492666964966
 30
0.0
 10
4098.88022628441
 20
1653.492906708225
 30
0.0
 10
4098.88022628441
 20
1653.492906708225
 30
0.0
 10
4098.88022628441
 20
1653.492906708225
 30
0.0
 10
4098.88022628441
 20
1653.492906708225
 30
0.0
 10
4098.880625856511
 20
1653.493146451486
 30
0.0
 10
4098.880625856511
 20
1653.493146451486
 30
0.0
 10
4098.880625856511
 20
1653.493146451486
 30
0.0
 10
4098.880625856511
 20
1653.493146451486
 30
0.0
 10
4098.88102562164
 20
1653.493386194746
 30
0.0
 10
4098.88102562164
 20
1653.493386194746
 30
0.0
 10
4098.88102562164
 20
1653.493386194746
 30
0.0
 10
4098.88102562164
 20
1653.493386194746
 30
0.0
 10
4098.88150510816
 20
1653.493546023586
 30
0.0
 10
4098.88150510816
 20
1653.493546023586
 30
0.0
 10
4098.88150510816
 20
1653.493546023586
 30
0.0
 10
4098.88150510816
 20
1653.493546023586
 30
0.0
 10
4098.8820645091
 20
1653.493705852425
 30
0.0
 10
4098.8820645091
 20
1653.493705852425
 30
0.0
 10
4098.8820645091
 20
1653.493705852425
 30
0.0
 10
4098.8820645091
 20
1653.493705852425
 30
0.0
 10
4098.88262410307
 20
1653.493945595686
 30
0.0
 10
4098.88262410307
 20
1653.493945595686
 30
0.0
 10
4098.88262410307
 20
1653.493945595686
 30
0.0
 10
4098.88262410307
 20
1653.493945595686
 30
0.0
 10
4098.88318350401
 20
1653.494105617556
 30
0.0
 10
4098.88318350401
 20
1653.494105617556
 30
0.0
 10
4098.88318350401
 20
1653.494105617556
 30
0.0
 10
4098.88318350401
 20
1653.494105617556
 30
0.0
 10
4098.8838230124
 20
1653.494265446395
 30
0.0
 10
4098.8838230124
 20
1653.494265446395
 30
0.0
 10
4098.8838230124
 20
1653.494265446395
 30
0.0
 10
4098.8838230124
 20
1653.494265446395
 30
0.0
 10
4098.88446232776
 20
1653.494345360815
 30
0.0
 10
4098.88446232776
 20
1653.494345360815
 30
0.0
 10
4098.88446232776
 20
1653.494345360815
 30
0.0
 10
4098.88446232776
 20
1653.494345360815
 30
0.0
 10
4098.88518155754
 20
1653.494505189656
 30
0.0
 10
4098.88518155754
 20
1653.494505189656
 30
0.0
 10
4098.88518155754
 20
1653.494505189656
 30
0.0
 10
4098.88518155754
 20
1653.494505189656
 30
0.0
 10
4098.885900980351
 20
1653.494585104076
 30
0.0
 10
4098.885900980351
 20
1653.494585104076
 30
0.0
 10
4098.885900980351
 20
1653.494585104076
 30
0.0
 10
4098.885900980351
 20
1653.494585104076
 30
0.0
 10
4098.88662021013
 20
1653.494744932916
 30
0.0
 10
4098.88662021013
 20
1653.494744932916
 30
0.0
 10
4098.88662021013
 20
1653.494744932916
 30
0.0
 10
4098.88662021013
 20
1653.494744932916
 30
0.0
 10
4098.88741954736
 20
1653.494824847336
 30
0.0
 10
4098.88741954736
 20
1653.494824847336
 30
0.0
 10
4098.88741954736
 20
1653.494824847336
 30
0.0
 10
4098.88741954736
 20
1653.494824847336
 30
0.0
 10
4098.888218884591
 20
1653.494824847336
 30
0.0
 10
4098.888218884591
 20
1653.494824847336
 30
0.0
 10
4098.888218884591
 20
1653.494824847336
 30
0.0
 10
4098.888218884591
 20
1653.494824847336
 30
0.0
 10
4098.88893811437
 20
1653.494904761756
 30
0.0
 10
4098.88893811437
 20
1653.494904761756
 30
0.0
 10
4098.88893811437
 20
1653.494904761756
 30
0.0
 10
4098.88893811437
 20
1653.494904761756
 30
0.0
 10
4098.88973725857
 20
1653.494984676176
 30
0.0
 10
4098.88973725857
 20
1653.494984676176
 30
0.0
 10
4098.88973725857
 20
1653.494984676176
 30
0.0
 10
4098.88973725857
 20
1653.494984676176
 30
0.0
 10
4098.89221518468
 20
1653.494984676176
 30
0.0
 10
4098.89221518468
 20
1653.494984676176
 30
0.0
 10
4098.89221518468
 20
1653.494984676176
 30
0.0
 10
4098.89221518468
 20
1653.494984676176
 30
0.0
 10
4098.893014328881
 20
1653.494904761756
 30
0.0
 10
4098.893014328881
 20
1653.494904761756
 30
0.0
 10
4098.893014328881
 20
1653.494904761756
 30
0.0
 10
4098.893014328881
 20
1653.494904761756
 30
0.0
 10
4098.89373355866
 20
1653.494824847336
 30
0.0
 10
4098.89373355866
 20
1653.494824847336
 30
0.0
 10
4098.89373355866
 20
1653.494824847336
 30
0.0
 10
4098.89373355866
 20
1653.494824847336
 30
0.0
 10
4098.89453270286
 20
1653.494824847336
 30
0.0
 10
4098.89453270286
 20
1653.494824847336
 30
0.0
 10
4098.89453270286
 20
1653.494824847336
 30
0.0
 10
4098.89453270286
 20
1653.494824847336
 30
0.0
 10
4098.89533223312
 20
1653.494744932916
 30
0.0
 10
4098.89533223312
 20
1653.494744932916
 30
0.0
 10
4098.89533223312
 20
1653.494744932916
 30
0.0
 10
4098.89533223312
 20
1653.494744932916
 30
0.0
 10
4098.8960514629
 20
1653.494585104076
 30
0.0
 10
4098.8960514629
 20
1653.494585104076
 30
0.0
 10
4098.8960514629
 20
1653.494585104076
 30
0.0
 10
4098.8960514629
 20
1653.494585104076
 30
0.0
 10
4098.896770885711
 20
1653.494505189656
 30
0.0
 10
4098.896770885711
 20
1653.494505189656
 30
0.0
 10
4098.896770885711
 20
1653.494505189656
 30
0.0
 10
4098.896770885711
 20
1653.494505189656
 30
0.0
 10
4098.89749011549
 20
1653.494345360815
 30
0.0
 10
4098.89749011549
 20
1653.494345360815
 30
0.0
 10
4098.89749011549
 20
1653.494345360815
 30
0.0
 10
4098.89749011549
 20
1653.494345360815
 30
0.0
 10
4098.898129430851
 20
1653.494265446395
 30
0.0
 10
4098.898129430851
 20
1653.494265446395
 30
0.0
 10
4098.898129430851
 20
1653.494265446395
 30
0.0
 10
4098.898129430851
 20
1653.494265446395
 30
0.0
 10
4098.898768939241
 20
1653.494105617556
 30
0.0
 10
4098.898768939241
 20
1653.494105617556
 30
0.0
 10
4098.898768939241
 20
1653.494105617556
 30
0.0
 10
4098.898768939241
 20
1653.494105617556
 30
0.0
 10
4098.89932834018
 20
1653.493945595686
 30
0.0
 10
4098.89932834018
 20
1653.493945595686
 30
0.0
 10
4098.89932834018
 20
1653.493945595686
 30
0.0
 10
4098.89932834018
 20
1653.493945595686
 30
0.0
 10
4098.899887934151
 20
1653.493705852425
 30
0.0
 10
4098.899887934151
 20
1653.493705852425
 30
0.0
 10
4098.899887934151
 20
1653.493705852425
 30
0.0
 10
4098.899887934151
 20
1653.493705852425
 30
0.0
 10
4098.900447335091
 20
1653.493546023586
 30
0.0
 10
4098.900447335091
 20
1653.493546023586
 30
0.0
 10
4098.900447335091
 20
1653.493546023586
 30
0.0
 10
4098.900447335091
 20
1653.493546023586
 30
0.0
 10
4098.900926821611
 20
1653.493386194746
 30
0.0
 10
4098.900926821611
 20
1653.493386194746
 30
0.0
 10
4098.900926821611
 20
1653.493386194746
 30
0.0
 10
4098.900926821611
 20
1653.493386194746
 30
0.0
 10
4098.90132658674
 20
1653.493146451486
 30
0.0
 10
4098.90132658674
 20
1653.493146451486
 30
0.0
 10
4098.90132658674
 20
1653.493146451486
 30
0.0
 10
4098.90132658674
 20
1653.493146451486
 30
0.0
 10
4098.90172596581
 20
1653.492906708225
 30
0.0
 10
4098.90172596581
 20
1653.492906708225
 30
0.0
 10
4098.90172596581
 20
1653.492906708225
 30
0.0
 10
4098.90172596581
 20
1653.492906708225
 30
0.0
 10
4098.902045816521
 20
1653.492666964966
 30
0.0
 10
4098.902045816521
 20
1653.492666964966
 30
0.0
 10
4098.902045816521
 20
1653.492666964966
 30
0.0
 10
4098.902045816521
 20
1653.492666964966
 30
0.0
 10
4098.9023654742
 20
1653.492427028676
 30
0.0
 10
4098.9023654742
 20
1653.492427028676
 30
0.0
 10
4098.9023654742
 20
1653.492427028676
 30
0.0
 10
4098.9023654742
 20
1653.492427028676
 30
0.0
 10
4098.902605217459
 20
1653.492187285416
 30
0.0
 10
4098.902605217459
 20
1653.492187285416
 30
0.0
 10
4098.902605217459
 20
1653.492187285416
 30
0.0
 10
4098.902605217459
 20
1653.492187285416
 30
0.0
 10
4098.90276523933
 20
1653.491947542156
 30
0.0
 10
4098.90276523933
 20
1653.491947542156
 30
0.0
 10
4098.90276523933
 20
1653.491947542156
 30
0.0
 10
4098.90276523933
 20
1653.491947542156
 30
0.0
 10
4098.90292487514
 20
1653.491707798895
 30
0.0
 10
4098.90292487514
 20
1653.491707798895
 30
0.0
 10
4098.90292487514
 20
1653.491707798895
 30
0.0
 10
4098.90292487514
 20
1653.491707798895
 30
0.0
 10
4098.903004982591
 20
1653.491468055636
 30
0.0
 10
4098.903004982591
 20
1653.491468055636
 30
0.0
 10
4098.903004982591
 20
1653.491468055636
 30
0.0
 10
4098.903004982591
 20
1653.491468055636
 30
0.0
 10
4098.903004982591
 20
1653.491228312376
 30
0.0
 10
4098.903004982591
 20
1653.491228312376
 30
0.0
  0
SPLINE
  5
1136
330
1F
100
AcDbEntity
  8
SANINDUSA
100
AcDbSpline
210
0.0
220
0.0
230
1.0
 70
    11
 71
     3
 72
   276
 73
   272
 74
     0
 42
0.0000000001
 43
0.0000000001
 40
0.0
 40
0.0
 40
0.0
 40
0.0
 40
0.0147058823529412
 40
0.0147058823529412
 40
0.0147058823529412
 40
0.0147058823529412
 40
0.0294117647058824
 40
0.0294117647058824
 40
0.0294117647058824
 40
0.0294117647058824
 40
0.0441176470588235
 40
0.0441176470588235
 40
0.0441176470588235
 40
0.0441176470588235
 40
0.0588235294117647
 40
0.0588235294117647
 40
0.0588235294117647
 40
0.0588235294117647
 40
0.0735294117647059
 40
0.0735294117647059
 40
0.0735294117647059
 40
0.0735294117647059
 40
0.0882352941176471
 40
0.0882352941176471
 40
0.0882352941176471
 40
0.0882352941176471
 40
0.1029411764705882
 40
0.1029411764705882
 40
0.1029411764705882
 40
0.1029411764705882
 40
0.1176470588235294
 40
0.1176470588235294
 40
0.1176470588235294
 40
0.1176470588235294
 40
0.1323529411764706
 40
0.1323529411764706
 40
0.1323529411764706
 40
0.1323529411764706
 40
0.1470588235294118
 40
0.1470588235294118
 40
0.1470588235294118
 40
0.1470588235294118
 40
0.161764705882353
 40
0.161764705882353
 40
0.161764705882353
 40
0.161764705882353
 40
0.1764705882352941
 40
0.1764705882352941
 40
0.1764705882352941
 40
0.1764705882352941
 40
0.1911764705882353
 40
0.1911764705882353
 40
0.1911764705882353
 40
0.1911764705882353
 40
0.2058823529411765
 40
0.2058823529411765
 40
0.2058823529411765
 40
0.2058823529411765
 40
0.2205882352941177
 40
0.2205882352941177
 40
0.2205882352941177
 40
0.2205882352941177
 40
0.2352941176470589
 40
0.2352941176470589
 40
0.2352941176470589
 40
0.2352941176470589
 40
0.25
 40
0.25
 40
0.25
 40
0.25
 40
0.2647058823529412
 40
0.2647058823529412
 40
0.2647058823529412
 40
0.2647058823529412
 40
0.2794117647058824
 40
0.2794117647058824
 40
0.2794117647058824
 40
0.2794117647058824
 40
0.2941176470588235
 40
0.2941176470588235
 40
0.2941176470588235
 40
0.2941176470588235
 40
0.3088235294117647
 40
0.3088235294117647
 40
0.3088235294117647
 40
0.3088235294117647
 40
0.3235294117647059
 40
0.3235294117647059
 40
0.3235294117647059
 40
0.3235294117647059
 40
0.3382352941176471
 40
0.3382352941176471
 40
0.3382352941176471
 40
0.3382352941176471
 40
0.3529411764705883
 40
0.3529411764705883
 40
0.3529411764705883
 40
0.3529411764705883
 40
0.3676470588235294
 40
0.3676470588235294
 40
0.3676470588235294
 40
0.3676470588235294
 40
0.3823529411764706
 40
0.3823529411764706
 40
0.3823529411764706
 40
0.3823529411764706
 40
0.3970588235294118
 40
0.3970588235294118
 40
0.3970588235294118
 40
0.3970588235294118
 40
0.411764705882353
 40
0.411764705882353
 40
0.411764705882353
 40
0.411764705882353
 40
0.4264705882352942
 40
0.4264705882352942
 40
0.4264705882352942
 40
0.4264705882352942
 40
0.4411764705882354
 40
0.4411764705882354
 40
0.4411764705882354
 40
0.4411764705882354
 40
0.4558823529411766
 40
0.4558823529411766
 40
0.4558823529411766
 40
0.4558823529411766
 40
0.4705882352941177
 40
0.4705882352941177
 40
0.4705882352941177
 40
0.4705882352941177
 40
0.4852941176470589
 40
0.4852941176470589
 40
0.4852941176470589
 40
0.4852941176470589
 40
0.5
 40
0.5
 40
0.5
 40
0.5
 40
0.5147058823529412
 40
0.5147058823529412
 40
0.5147058823529412
 40
0.5147058823529412
 40
0.5294117647058823
 40
0.5294117647058823
 40
0.5294117647058823
 40
0.5294117647058823
 40
0.5441176470588234
 40
0.5441176470588234
 40
0.5441176470588234
 40
0.5441176470588234
 40
0.5588235294117645
 40
0.5588235294117645
 40
0.5588235294117645
 40
0.5588235294117645
 40
0.5735294117647057
 40
0.5735294117647057
 40
0.5735294117647057
 40
0.5735294117647057
 40
0.5882352941176468
 40
0.5882352941176468
 40
0.5882352941176468
 40
0.5882352941176468
 40
0.6029411764705879
 40
0.6029411764705879
 40
0.6029411764705879
 40
0.6029411764705879
 40
0.617647058823529
 40
0.617647058823529
 40
0.617647058823529
 40
0.617647058823529
 40
0.6323529411764702
 40
0.6323529411764702
 40
0.6323529411764702
 40
0.6323529411764702
 40
0.6470588235294113
 40
0.6470588235294113
 40
0.6470588235294113
 40
0.6470588235294113
 40
0.6617647058823524
 40
0.6617647058823524
 40
0.6617647058823524
 40
0.6617647058823524
 40
0.6764705882352935
 40
0.6764705882352935
 40
0.6764705882352935
 40
0.6764705882352935
 40
0.6911764705882347
 40
0.6911764705882347
 40
0.6911764705882347
 40
0.6911764705882347
 40
0.7058823529411758
 40
0.7058823529411758
 40
0.7058823529411758
 40
0.7058823529411758
 40
0.7205882352941169
 40
0.7205882352941169
 40
0.7205882352941169
 40
0.7205882352941169
 40
0.7352941176470579
 40
0.7352941176470579
 40
0.7352941176470579
 40
0.7352941176470579
 40
0.7499999999999992
 40
0.7499999999999992
 40
0.7499999999999992
 40
0.7499999999999992
 40
0.7647058823529403
 40
0.7647058823529403
 40
0.7647058823529403
 40
0.7647058823529403
 40
0.7794117647058814
 40
0.7794117647058814
 40
0.7794117647058814
 40
0.7794117647058814
 40
0.7941176470588225
 40
0.7941176470588225
 40
0.7941176470588225
 40
0.7941176470588225
 40
0.8088235294117636
 40
0.8088235294117636
 40
0.8088235294117636
 40
0.8088235294117636
 40
0.8235294117647047
 40
0.8235294117647047
 40
0.8235294117647047
 40
0.8235294117647047
 40
0.8382352941176458
 40
0.8382352941176458
 40
0.8382352941176458
 40
0.8382352941176458
 40
0.8529411764705871
 40
0.8529411764705871
 40
0.8529411764705871
 40
0.8529411764705871
 40
0.8676470588235281
 40
0.8676470588235281
 40
0.8676470588235281
 40
0.8676470588235281
 40
0.8823529411764692
 40
0.8823529411764692
 40
0.8823529411764692
 40
0.8823529411764692
 40
0.8970588235294103
 40
0.8970588235294103
 40
0.8970588235294103
 40
0.8970588235294103
 40
0.9117647058823516
 40
0.9117647058823516
 40
0.9117647058823516
 40
0.9117647058823516
 40
0.9264705882352926
 40
0.9264705882352926
 40
0.9264705882352926
 40
0.9264705882352926
 40
0.9411764705882335
 40
0.9411764705882335
 40
0.9411764705882335
 40
0.9411764705882335
 40
0.9558823529411748
 40
0.9558823529411748
 40
0.9558823529411748
 40
0.9558823529411748
 40
0.9705882352941159
 40
0.9705882352941159
 40
0.9705882352941159
 40
0.9705882352941159
 40
0.9852941176470572
 40
0.9852941176470572
 40
0.9852941176470572
 40
0.9852941176470572
 40
1.0
 40
1.0
 40
1.0
 40
1.0
 10
4098.90028731322
 20
1653.491228312376
 30
0.0
 10
4098.90028731322
 20
1653.491228312376
 30
0.0
 10
4098.900207591831
 20
1653.491468055636
 30
0.0
 10
4098.900207591831
 20
1653.491468055636
 30
0.0
 10
4098.900207591831
 20
1653.491468055636
 30
0.0
 10
4098.900207591831
 20
1653.491468055636
 30
0.0
 10
4098.90012767741
 20
1653.491707798895
 30
0.0
 10
4098.90012767741
 20
1653.491707798895
 30
0.0
 10
4098.90012767741
 20
1653.491707798895
 30
0.0
 10
4098.90012767741
 20
1653.491707798895
 30
0.0
 10
4098.899967655539
 20
1653.491947542156
 30
0.0
 10
4098.899967655539
 20
1653.491947542156
 30
0.0
 10
4098.899967655539
 20
1653.491947542156
 30
0.0
 10
4098.899967655539
 20
1653.491947542156
 30
0.0
 10
4098.89972791228
 20
1653.492187285416
 30
0.0
 10
4098.89972791228
 20
1653.492187285416
 30
0.0
 10
4098.89972791228
 20
1653.492187285416
 30
0.0
 10
4098.89972791228
 20
1653.492187285416
 30
0.0
 10
4098.899408254601
 20
1653.492427028676
 30
0.0
 10
4098.899408254601
 20
1653.492427028676
 30
0.0
 10
4098.899408254601
 20
1653.492427028676
 30
0.0
 10
4098.899408254601
 20
1653.492427028676
 30
0.0
 10
4098.8990086825
 20
1653.492666964966
 30
0.0
 10
4098.8990086825
 20
1653.492666964966
 30
0.0
 10
4098.8990086825
 20
1653.492666964966
 30
0.0
 10
4098.8990086825
 20
1653.492666964966
 30
0.0
 10
4098.89860891737
 20
1653.492906708225
 30
0.0
 10
4098.89860891737
 20
1653.492906708225
 30
0.0
 10
4098.89860891737
 20
1653.492906708225
 30
0.0
 10
4098.89860891737
 20
1653.492906708225
 30
0.0
 10
4098.898049516431
 20
1653.493066537066
 30
0.0
 10
4098.898049516431
 20
1653.493066537066
 30
0.0
 10
4098.898049516431
 20
1653.493066537066
 30
0.0
 10
4098.898049516431
 20
1653.493066537066
 30
0.0
 10
4098.897570029911
 20
1653.493306280326
 30
0.0
 10
4098.897570029911
 20
1653.493306280326
 30
0.0
 10
4098.897570029911
 20
1653.493306280326
 30
0.0
 10
4098.897570029911
 20
1653.493306280326
 30
0.0
 10
4098.896930521521
 20
1653.493466109166
 30
0.0
 10
4098.896930521521
 20
1653.493466109166
 30
0.0
 10
4098.896930521521
 20
1653.493466109166
 30
0.0
 10
4098.896930521521
 20
1653.493466109166
 30
0.0
 10
4098.896291206161
 20
1653.493625938005
 30
0.0
 10
4098.896291206161
 20
1653.493625938005
 30
0.0
 10
4098.896291206161
 20
1653.493625938005
 30
0.0
 10
4098.896291206161
 20
1653.493625938005
 30
0.0
 10
4098.895651890801
 20
1653.493705852425
 30
0.0
 10
4098.895651890801
 20
1653.493705852425
 30
0.0
 10
4098.895651890801
 20
1653.493705852425
 30
0.0
 10
4098.895651890801
 20
1653.493705852425
 30
0.0
 10
4098.894932467991
 20
1653.493865681266
 30
0.0
 10
4098.894932467991
 20
1653.493865681266
 30
0.0
 10
4098.894932467991
 20
1653.493865681266
 30
0.0
 10
4098.894932467991
 20
1653.493865681266
 30
0.0
 10
4098.894133323791
 20
1653.493945595686
 30
0.0
 10
4098.894133323791
 20
1653.493945595686
 30
0.0
 10
4098.894133323791
 20
1653.493945595686
 30
0.0
 10
4098.894133323791
 20
1653.493945595686
 30
0.0
 10
4098.89341390098
 20
1653.494025703136
 30
0.0
 10
4098.89341390098
 20
1653.494025703136
 30
0.0
 10
4098.89341390098
 20
1653.494025703136
 30
0.0
 10
4098.89341390098
 20
1653.494025703136
 30
0.0
 10
4098.892614563751
 20
1653.494105617556
 30
0.0
 10
4098.892614563751
 20
1653.494105617556
 30
0.0
 10
4098.892614563751
 20
1653.494105617556
 30
0.0
 10
4098.892614563751
 20
1653.494105617556
 30
0.0
 10
4098.889337879501
 20
1653.494105617556
 30
0.0
 10
4098.889337879501
 20
1653.494105617556
 30
0.0
 10
4098.889337879501
 20
1653.494105617556
 30
0.0
 10
4098.889337879501
 20
1653.494105617556
 30
0.0
 10
4098.888538349241
 20
1653.494025703136
 30
0.0
 10
4098.888538349241
 20
1653.494025703136
 30
0.0
 10
4098.888538349241
 20
1653.494025703136
 30
0.0
 10
4098.888538349241
 20
1653.494025703136
 30
0.0
 10
4098.88781911946
 20
1653.493945595686
 30
0.0
 10
4098.88781911946
 20
1653.493945595686
 30
0.0
 10
4098.88781911946
 20
1653.493945595686
 30
0.0
 10
4098.88781911946
 20
1653.493945595686
 30
0.0
 10
4098.88701997526
 20
1653.493865681266
 30
0.0
 10
4098.88701997526
 20
1653.493865681266
 30
0.0
 10
4098.88701997526
 20
1653.493865681266
 30
0.0
 10
4098.88701997526
 20
1653.493865681266
 30
0.0
 10
4098.88630055245
 20
1653.493705852425
 30
0.0
 10
4098.88630055245
 20
1653.493705852425
 30
0.0
 10
4098.88630055245
 20
1653.493705852425
 30
0.0
 10
4098.88630055245
 20
1653.493705852425
 30
0.0
 10
4098.88566104406
 20
1653.493625938005
 30
0.0
 10
4098.88566104406
 20
1653.493625938005
 30
0.0
 10
4098.88566104406
 20
1653.493625938005
 30
0.0
 10
4098.88566104406
 20
1653.493625938005
 30
0.0
 10
4098.88502192173
 20
1653.493466109166
 30
0.0
 10
4098.88502192173
 20
1653.493466109166
 30
0.0
 10
4098.88502192173
 20
1653.493466109166
 30
0.0
 10
4098.88502192173
 20
1653.493466109166
 30
0.0
 10
4098.88438241334
 20
1653.493306280326
 30
0.0
 10
4098.88438241334
 20
1653.493306280326
 30
0.0
 10
4098.88438241334
 20
1653.493306280326
 30
0.0
 10
4098.88438241334
 20
1653.493306280326
 30
0.0
 10
4098.88390292682
 20
1653.493066537066
 30
0.0
 10
4098.88390292682
 20
1653.493066537066
 30
0.0
 10
4098.88390292682
 20
1653.493066537066
 30
0.0
 10
4098.88390292682
 20
1653.493066537066
 30
0.0
 10
4098.88334352588
 20
1653.492906708225
 30
0.0
 10
4098.88334352588
 20
1653.492906708225
 30
0.0
 10
4098.88334352588
 20
1653.492906708225
 30
0.0
 10
4098.88334352588
 20
1653.492906708225
 30
0.0
 10
4098.88294376075
 20
1653.492666964966
 30
0.0
 10
4098.88294376075
 20
1653.492666964966
 30
0.0
 10
4098.88294376075
 20
1653.492666964966
 30
0.0
 10
4098.88294376075
 20
1653.492666964966
 30
0.0
 10
4098.88254399562
 20
1653.492427028676
 30
0.0
 10
4098.88254399562
 20
1653.492427028676
 30
0.0
 10
4098.88254399562
 20
1653.492427028676
 30
0.0
 10
4098.88254399562
 20
1653.492427028676
 30
0.0
 10
4098.88222433794
 20
1653.492187285416
 30
0.0
 10
4098.88222433794
 20
1653.492187285416
 30
0.0
 10
4098.88222433794
 20
1653.492187285416
 30
0.0
 10
4098.88222433794
 20
1653.492187285416
 30
0.0
 10
4098.88198459468
 20
1653.491947542156
 30
0.0
 10
4098.88198459468
 20
1653.491947542156
 30
0.0
 10
4098.88198459468
 20
1653.491947542156
 30
0.0
 10
4098.88198459468
 20
1653.491947542156
 30
0.0
 10
4098.88182476584
 20
1653.491707798895
 30
0.0
 10
4098.88182476584
 20
1653.491707798895
 30
0.0
 10
4098.88182476584
 20
1653.491707798895
 30
0.0
 10
4098.88182476584
 20
1653.491707798895
 30
0.0
 10
4098.88174485142
 20
1653.491468055636
 30
0.0
 10
4098.88174485142
 20
1653.491468055636
 30
0.0
 10
4098.88174485142
 20
1653.491468055636
 30
0.0
 10
4098.88174485142
 20
1653.491468055636
 30
0.0
 10
4098.881664937
 20
1653.491228312376
 30
0.0
 10
4098.881664937
 20
1653.491228312376
 30
0.0
 10
4098.881664937
 20
1653.491228312376
 30
0.0
 10
4098.881664937
 20
1653.491228312376
 30
0.0
 10
4098.88174485142
 20
1653.490988376085
 30
0.0
 10
4098.88174485142
 20
1653.490988376085
 30
0.0
 10
4098.88174485142
 20
1653.490988376085
 30
0.0
 10
4098.88174485142
 20
1653.490988376085
 30
0.0
 10
4098.88182476584
 20
1653.490748632826
 30
0.0
 10
4098.88182476584
 20
1653.490748632826
 30
0.0
 10
4098.88182476584
 20
1653.490748632826
 30
0.0
 10
4098.88182476584
 20
1653.490748632826
 30
0.0
 10
4098.88198459468
 20
1653.490508889566
 30
0.0
 10
4098.88198459468
 20
1653.490508889566
 30
0.0
 10
4098.88198459468
 20
1653.490508889566
 30
0.0
 10
4098.88198459468
 20
1653.490508889566
 30
0.0
 10
4098.88222433794
 20
1653.490269146305
 30
0.0
 10
4098.88222433794
 20
1653.490269146305
 30
0.0
 10
4098.88222433794
 20
1653.490269146305
 30
0.0
 10
4098.88222433794
 20
1653.490269146305
 30
0.0
 10
4098.88254399562
 20
1653.490029403046
 30
0.0
 10
4098.88254399562
 20
1653.490029403046
 30
0.0
 10
4098.88254399562
 20
1653.490029403046
 30
0.0
 10
4098.88254399562
 20
1653.490029403046
 30
0.0
 10
4098.88294376075
 20
1653.489789659786
 30
0.0
 10
4098.88294376075
 20
1653.489789659786
 30
0.0
 10
4098.88294376075
 20
1653.489789659786
 30
0.0
 10
4098.88294376075
 20
1653.489789659786
 30
0.0
 10
4098.88334352588
 20
1653.489629637916
 30
0.0
 10
4098.88334352588
 20
1653.489629637916
 30
0.0
 10
4098.88334352588
 20
1653.489629637916
 30
0.0
 10
4098.88334352588
 20
1653.489629637916
 30
0.0
 10
4098.88390292682
 20
1653.489389894656
 30
0.0
 10
4098.88390292682
 20
1653.489389894656
 30
0.0
 10
4098.88390292682
 20
1653.489389894656
 30
0.0
 10
4098.88390292682
 20
1653.489389894656
 30
0.0
 10
4098.88438241334
 20
1653.489230258846
 30
0.0
 10
4098.88438241334
 20
1653.489230258846
 30
0.0
 10
4098.88438241334
 20
1653.489230258846
 30
0.0
 10
4098.88438241334
 20
1653.489230258846
 30
0.0
 10
4098.88502192173
 20
1653.489070236975
 30
0.0
 10
4098.88502192173
 20
1653.489070236975
 30
0.0
 10
4098.88502192173
 20
1653.489070236975
 30
0.0
 10
4098.88502192173
 20
1653.489070236975
 30
0.0
 10
4098.88566104406
 20
1653.488910408136
 30
0.0
 10
4098.88566104406
 20
1653.488910408136
 30
0.0
 10
4098.88566104406
 20
1653.488910408136
 30
0.0
 10
4098.88566104406
 20
1653.488910408136
 30
0.0
 10
4098.88630055245
 20
1653.488750579296
 30
0.0
 10
4098.88630055245
 20
1653.488750579296
 30
0.0
 10
4098.88630055245
 20
1653.488750579296
 30
0.0
 10
4098.88630055245
 20
1653.488750579296
 30
0.0
 10
4098.88701997526
 20
1653.488670664876
 30
0.0
 10
4098.88701997526
 20
1653.488670664876
 30
0.0
 10
4098.88701997526
 20
1653.488670664876
 30
0.0
 10
4098.88701997526
 20
1653.488670664876
 30
0.0
 10
4098.88781911946
 20
1653.488510836036
 30
0.0
 10
4098.88781911946
 20
1653.488510836036
 30
0.0
 10
4098.88781911946
 20
1653.488510836036
 30
0.0
 10
4098.88781911946
 20
1653.488510836036
 30
0.0
 10
4098.888538349241
 20
1653.488510836036
 30
0.0
 10
4098.888538349241
 20
1653.488510836036
 30
0.0
 10
4098.888538349241
 20
1653.488510836036
 30
0.0
 10
4098.888538349241
 20
1653.488510836036
 30
0.0
 10
4098.889337879501
 20
1653.488430728585
 30
0.0
 10
4098.889337879501
 20
1653.488430728585
 30
0.0
 10
4098.889337879501
 20
1653.488430728585
 30
0.0
 10
4098.889337879501
 20
1653.488430728585
 30
0.0
 10
4098.8901370237
 20
1653.488351007196
 30
0.0
 10
4098.8901370237
 20
1653.488351007196
 30
0.0
 10
4098.8901370237
 20
1653.488351007196
 30
0.0
 10
4098.8901370237
 20
1653.488351007196
 30
0.0
 10
4098.891815419551
 20
1653.488351007196
 30
0.0
 10
4098.891815419551
 20
1653.488351007196
 30
0.0
 10
4098.891815419551
 20
1653.488351007196
 30
0.0
 10
4098.891815419551
 20
1653.488351007196
 30
0.0
 10
4098.892614563751
 20
1653.488430728585
 30
0.0
 10
4098.892614563751
 20
1653.488430728585
 30
0.0
 10
4098.892614563751
 20
1653.488430728585
 30
0.0
 10
4098.892614563751
 20
1653.488430728585
 30
0.0
 10
4098.89341390098
 20
1653.488510836036
 30
0.0
 10
4098.89341390098
 20
1653.488510836036
 30
0.0
 10
4098.89341390098
 20
1653.488510836036
 30
0.0
 10
4098.89341390098
 20
1653.488510836036
 30
0.0
 10
4098.894133323791
 20
1653.488510836036
 30
0.0
 10
4098.894133323791
 20
1653.488510836036
 30
0.0
 10
4098.894133323791
 20
1653.488510836036
 30
0.0
 10
4098.894133323791
 20
1653.488510836036
 30
0.0
 10
4098.894932467991
 20
1653.488670664876
 30
0.0
 10
4098.894932467991
 20
1653.488670664876
 30
0.0
 10
4098.894932467991
 20
1653.488670664876
 30
0.0
 10
4098.894932467991
 20
1653.488670664876
 30
0.0
 10
4098.895651890801
 20
1653.488750579296
 30
0.0
 10
4098.895651890801
 20
1653.488750579296
 30
0.0
 10
4098.895651890801
 20
1653.488750579296
 30
0.0
 10
4098.895651890801
 20
1653.488750579296
 30
0.0
 10
4098.896291206161
 20
1653.488910408136
 30
0.0
 10
4098.896291206161
 20
1653.488910408136
 30
0.0
 10
4098.896291206161
 20
1653.488910408136
 30
0.0
 10
4098.896291206161
 20
1653.488910408136
 30
0.0
 10
4098.896930521521
 20
1653.489070236975
 30
0.0
 10
4098.896930521521
 20
1653.489070236975
 30
0.0
 10
4098.896930521521
 20
1653.489070236975
 30
0.0
 10
4098.896930521521
 20
1653.489070236975
 30
0.0
 10
4098.897570029911
 20
1653.489230258846
 30
0.0
 10
4098.897570029911
 20
1653.489230258846
 30
0.0
 10
4098.897570029911
 20
1653.489230258846
 30
0.0
 10
4098.897570029911
 20
1653.489230258846
 30
0.0
 10
4098.898049516431
 20
1653.489389894656
 30
0.0
 10
4098.898049516431
 20
1653.489389894656
 30
0.0
 10
4098.898049516431
 20
1653.489389894656
 30
0.0
 10
4098.898049516431
 20
1653.489389894656
 30
0.0
 10
4098.89860891737
 20
1653.489629637916
 30
0.0
 10
4098.89860891737
 20
1653.489629637916
 30
0.0
 10
4098.89860891737
 20
1653.489629637916
 30
0.0
 10
4098.89860891737
 20
1653.489629637916
 30
0.0
 10
4098.8990086825
 20
1653.489789659786
 30
0.0
 10
4098.8990086825
 20
1653.489789659786
 30
0.0
 10
4098.8990086825
 20
1653.489789659786
 30
0.0
 10
4098.8990086825
 20
1653.489789659786
 30
0.0
 10
4098.899408254601
 20
1653.490029403046
 30
0.0
 10
4098.899408254601
 20
1653.490029403046
 30
0.0
 10
4098.899408254601
 20
1653.490029403046
 30
0.0
 10
4098.899408254601
 20
1653.490029403046
 30
0.0
 10
4098.89972791228
 20
1653.490269146305
 30
0.0
 10
4098.89972791228
 20
1653.490269146305
 30
0.0
 10
4098.89972791228
 20
1653.490269146305
 30
0.0
 10
4098.89972791228
 20
1653.490269146305
 30
0.0
 10
4098.899967655539
 20
1653.490508889566
 30
0.0
 10
4098.899967655539
 20
1653.490508889566
 30
0.0
 10
4098.899967655539
 20
1653.490508889566
 30
0.0
 10
4098.899967655539
 20
1653.490508889566
 30
0.0
 10
4098.90012767741
 20
1653.490748632826
 30
0.0
 10
4098.90012767741
 20
1653.490748632826
 30
0.0
 10
4098.90012767741
 20
1653.490748632826
 30
0.0
 10
4098.90012767741
 20
1653.490748632826
 30
0.0
 10
4098.900207591831
 20
1653.490988376085
 30
0.0
 10
4098.900207591831
 20
1653.490988376085
 30
0.0
 10
4098.900207591831
 20
1653.490988376085
 30
0.0
 10
4098.900207591831
 20
1653.490988376085
 30
0.0
 10
4098.90028731322
 20
1653.491228312376
 30
0.0
 10
4098.90028731322
 20
1653.491228312376
 30
0.0
  0
SPLINE
  5
1137
330
1F
100
AcDbEntity
  8
SANINDUSA
100
AcDbSpline
210
0.0
220
0.0
230
1.0
 70
    24
 71
     3
 72
     8
 73
     4
 74
     0
 42
0.0000000001
 43
0.0000000001
 40
0.0
 40
0.0
 40
0.0
 40
0.0
 40
1.0
 40
1.0
 40
1.0
 40
1.0
 10
4098.881664937
 20
1653.491228312376
 30
0.0
 10
4098.881664937
 20
1653.491228312376
 30
0.0
 10
4098.881664937
 20
1653.492427028676
 30
0.0
 10
4098.881664937
 20
1653.492427028676
 30
0.0
  0
SPLINE
  5
1138
330
1F
100
AcDbEntity
  8
SANINDUSA
100
AcDbSpline
210
0.0
220
0.0
230
1.0
 70
    24
 71
     3
 72
     8
 73
     4
 74
     0
 42
0.0000000001
 43
0.0000000001
 40
0.0
 40
0.0
 40
0.0
 40
0.0
 40
1.0
 40
1.0
 40
1.0
 40
1.0
 10
4098.878947460661
 20
1653.499060890686
 30
0.0
 10
4098.878947460661
 20
1653.499060890686
 30
0.0
 10
4098.878947460661
 20
1653.491228312376
 30
0.0
 10
4098.878947460661
 20
1653.491228312376
 30
0.0
  0
SPLINE
  5
1139
330
1F
100
AcDbEntity
  8
SANINDUSA
100
AcDbSpline
210
0.0
220
0.0
230
1.0
 70
    24
 71
     3
 72
     8
 73
     4
 74
     0
 42
0.0000000001
 43
0.0000000001
 40
0.0
 40
0.0
 40
0.0
 40
0.0
 40
1.0
 40
1.0
 40
1.0
 40
1.0
 10
4098.90028731322
 20
1653.491228312376
 30
0.0
 10
4098.90028731322
 20
1653.491228312376
 30
0.0
 10
4098.90028731322
 20
1653.492427028676
 30
0.0
 10
4098.90028731322
 20
1653.492427028676
 30
0.0
  0
SPLINE
  5
113A
330
1F
100
AcDbEntity
  8
SANINDUSA
100
AcDbSpline
210
0.0
220
0.0
230
1.0
 70
    24
 71
     3
 72
     8
 73
     4
 74
     0
 42
0.0000000001
 43
0.0000000001
 40
0.0
 40
0.0
 40
0.0
 40
0.0
 40
1.0
 40
1.0
 40
1.0
 40
1.0
 10
4098.903004982591
 20
1653.499060890686
 30
0.0
 10
4098.903004982591
 20
1653.499060890686
 30
0.0
 10
4098.903004982591
 20
1653.491228312376
 30
0.0
 10
4098.903004982591
 20
1653.491228312376
 30
0.0
  0
SPLINE
  5
113B
330
1F
100
AcDbEntity
  8
SANINDUSA
100
AcDbSpline
210
0.0
220
0.0
230
1.0
 70
     8
 71
     3
 72
    28
 73
    24
 74
     0
 42
0.0000000001
 43
0.0000000001
 40
0.0
 40
0.0
 40
0.0
 40
0.0
 40
0.1666666666666667
 40
0.1666666666666667
 40
0.1666666666666667
 40
0.1666666666666667
 40
0.3333333333333333
 40
0.3333333333333333
 40
0.3333333333333333
 40
0.3333333333333333
 40
0.5
 40
0.5
 40
0.5
 40
0.5
 40
0.6666666666666666
 40
0.6666666666666666
 40
0.6666666666666666
 40
0.6666666666666666
 40
0.8333333333333332
 40
0.8333333333333332
 40
0.8333333333333332
 40
0.8333333333333332
 40
1.0
 40
1.0
 40
1.0
 40
1.0
 10
4098.87694940713
 20
1653.502257853546
 30
0.0
 10
4098.87694940713
 20
1653.502257853546
 30
0.0
 10
4098.87702932155
 20
1653.502337767966
 30
0.0
 10
4098.87702932155
 20
1653.502337767966
 30
0.0
 10
4098.87702932155
 20
1653.502337767966
 30
0.0
 10
4098.87702932155
 20
1653.502337767966
 30
0.0
 10
4098.87702932155
 20
1653.502417682386
 30
0.0
 10
4098.87702932155
 20
1653.502417682386
 30
0.0
 10
4098.87702932155
 20
1653.502417682386
 30
0.0
 10
4098.87702932155
 20
1653.502417682386
 30
0.0
 10
4098.87710923597
 20
1653.502497596806
 30
0.0
 10
4098.87710923597
 20
1653.502497596806
 30
0.0
 10
4098.87710923597
 20
1653.502497596806
 30
0.0
 10
4098.87710923597
 20
1653.502497596806
 30
0.0
 10
4098.87726906481
 20
1653.502497596806
 30
0.0
 10
4098.87726906481
 20
1653.502497596806
 30
0.0
 10
4098.87726906481
 20
1653.502497596806
 30
0.0
 10
4098.87726906481
 20
1653.502497596806
 30
0.0
 10
4098.87742889365
 20
1653.502577511226
 30
0.0
 10
4098.87742889365
 20
1653.502577511226
 30
0.0
 10
4098.87742889365
 20
1653.502577511226
 30
0.0
 10
4098.87742889365
 20
1653.502577511226
 30
0.0
 10
4098.87798829459
 20
1653.502577511226
 30
0.0
 10
4098.87798829459
 20
1653.502577511226
 30
0.0
  0
SPLINE
  5
113C
330
1F
100
AcDbEntity
  8
SANINDUSA
100
AcDbSpline
210
0.0
220
0.0
230
1.0
 70
    24
 71
     3
 72
     8
 73
     4
 74
     0
 42
0.0000000001
 43
0.0000000001
 40
0.0
 40
0.0
 40
0.0
 40
0.0
 40
1.0
 40
1.0
 40
1.0
 40
1.0
 10
4098.87798829459
 20
1653.502577511226
 30
0.0
 10
4098.87798829459
 20
1653.502577511226
 30
0.0
 10
4098.90396395563
 20
1653.502577511226
 30
0.0
 10
4098.90396395563
 20
1653.502577511226
 30
0.0
  0
SPLINE
  5
113D
330
1F
100
AcDbEntity
  8
SANINDUSA
100
AcDbSpline
210
0.0
220
0.0
230
1.0
 70
     8
 71
     3
 72
    28
 73
    24
 74
     0
 42
0.0000000001
 43
0.0000000001
 40
0.0
 40
0.0
 40
0.0
 40
0.0
 40
0.1666666666666667
 40
0.1666666666666667
 40
0.1666666666666667
 40
0.1666666666666667
 40
0.3333333333333333
 40
0.3333333333333333
 40
0.3333333333333333
 40
0.3333333333333333
 40
0.5
 40
0.5
 40
0.5
 40
0.5
 40
0.6666666666666666
 40
0.6666666666666666
 40
0.6666666666666666
 40
0.6666666666666666
 40
0.8333333333333332
 40
0.8333333333333332
 40
0.8333333333333332
 40
0.8333333333333332
 40
1.0
 40
1.0
 40
1.0
 40
1.0
 10
4098.90396395563
 20
1653.502577511226
 30
0.0
 10
4098.90396395563
 20
1653.502577511226
 30
0.0
 10
4098.90452335657
 20
1653.502577511226
 30
0.0
 10
4098.90452335657
 20
1653.502577511226
 30
0.0
 10
4098.90452335657
 20
1653.502577511226
 30
0.0
 10
4098.90452335657
 20
1653.502577511226
 30
0.0
 10
4098.904683378441
 20
1653.502497596806
 30
0.0
 10
4098.904683378441
 20
1653.502497596806
 30
0.0
 10
4098.904683378441
 20
1653.502497596806
 30
0.0
 10
4098.904683378441
 20
1653.502497596806
 30
0.0
 10
4098.90484301425
 20
1653.502497596806
 30
0.0
 10
4098.90484301425
 20
1653.502497596806
 30
0.0
 10
4098.90484301425
 20
1653.502497596806
 30
0.0
 10
4098.90484301425
 20
1653.502497596806
 30
0.0
 10
4098.9049231217
 20
1653.502417682386
 30
0.0
 10
4098.9049231217
 20
1653.502417682386
 30
0.0
 10
4098.9049231217
 20
1653.502417682386
 30
0.0
 10
4098.9049231217
 20
1653.502417682386
 30
0.0
 10
4098.9049231217
 20
1653.502337767966
 30
0.0
 10
4098.9049231217
 20
1653.502337767966
 30
0.0
 10
4098.9049231217
 20
1653.502337767966
 30
0.0
 10
4098.9049231217
 20
1653.502337767966
 30
0.0
 10
4098.90500303612
 20
1653.502257853546
 30
0.0
 10
4098.90500303612
 20
1653.502257853546
 30
0.0
  0
SPLINE
  5
113E
330
1F
100
AcDbEntity
  8
SANINDUSA
100
AcDbSpline
210
0.0
220
0.0
230
1.0
 70
     8
 71
     3
 72
    56
 73
    52
 74
     0
 42
0.0000000001
 43
0.0000000001
 40
0.0
 40
0.0
 40
0.0
 40
0.0
 40
0.0769230769230769
 40
0.0769230769230769
 40
0.0769230769230769
 40
0.0769230769230769
 40
0.1538461538461539
 40
0.1538461538461539
 40
0.1538461538461539
 40
0.1538461538461539
 40
0.2307692307692308
 40
0.2307692307692308
 40
0.2307692307692308
 40
0.2307692307692308
 40
0.3076923076923077
 40
0.3076923076923077
 40
0.3076923076923077
 40
0.3076923076923077
 40
0.3846153846153846
 40
0.3846153846153846
 40
0.3846153846153846
 40
0.3846153846153846
 40
0.4615384615384616
 40
0.4615384615384616
 40
0.4615384615384616
 40
0.4615384615384616
 40
0.5384615384615385
 40
0.5384615384615385
 40
0.5384615384615385
 40
0.5384615384615385
 40
0.6153846153846155
 40
0.6153846153846155
 40
0.6153846153846155
 40
0.6153846153846155
 40
0.6923076923076924
 40
0.6923076923076924
 40
0.6923076923076924
 40
0.6923076923076924
 40
0.7692307692307692
 40
0.7692307692307692
 40
0.7692307692307692
 40
0.7692307692307692
 40
0.8461538461538459
 40
0.8461538461538459
 40
0.8461538461538459
 40
0.8461538461538459
 40
0.9230769230769228
 40
0.9230769230769228
 40
0.9230769230769228
 40
0.9230769230769228
 40
1.0
 40
1.0
 40
1.0
 40
1.0
 10
4098.878947460661
 20
1653.498101917645
 30
0.0
 10
4098.878947460661
 20
1653.498101917645
 30
0.0
 10
4098.878947460661
 20
1653.498101917645
 30
0.0
 10
4098.878947460661
 20
1653.498101917645
 30
0.0
 10
4098.878947460661
 20
1653.498101917645
 30
0.0
 10
4098.878947460661
 20
1653.498101917645
 30
0.0
 10
4098.87886754624
 20
1653.498341660906
 30
0.0
 10
4098.87886754624
 20
1653.498341660906
 30
0.0
 10
4098.87886754624
 20
1653.498341660906
 30
0.0
 10
4098.87886754624
 20
1653.498341660906
 30
0.0
 10
4098.87886754624
 20
1653.498821147425
 30
0.0
 10
4098.87886754624
 20
1653.498821147425
 30
0.0
 10
4098.87886754624
 20
1653.498821147425
 30
0.0
 10
4098.87886754624
 20
1653.498821147425
 30
0.0
 10
4098.878947460661
 20
1653.499140805106
 30
0.0
 10
4098.878947460661
 20
1653.499140805106
 30
0.0
 10
4098.878947460661
 20
1653.499140805106
 30
0.0
 10
4098.878947460661
 20
1653.499140805106
 30
0.0
 10
4098.879107289501
 20
1653.499380548366
 30
0.0
 10
4098.879107289501
 20
1653.499380548366
 30
0.0
 10
4098.879107289501
 20
1653.499380548366
 30
0.0
 10
4098.879107289501
 20
1653.499380548366
 30
0.0
 10
4098.87934722579
 20
1653.499620291626
 30
0.0
 10
4098.87934722579
 20
1653.499620291626
 30
0.0
 10
4098.87934722579
 20
1653.499620291626
 30
0.0
 10
4098.87934722579
 20
1653.499620291626
 30
0.0
 10
4098.87958696905
 20
1653.499860034886
 30
0.0
 10
4098.87958696905
 20
1653.499860034886
 30
0.0
 10
4098.87958696905
 20
1653.499860034886
 30
0.0
 10
4098.87958696905
 20
1653.499860034886
 30
0.0
 10
4098.87982671231
 20
1653.500020056756
 30
0.0
 10
4098.87982671231
 20
1653.500020056756
 30
0.0
 10
4098.87982671231
 20
1653.500020056756
 30
0.0
 10
4098.87982671231
 20
1653.500020056756
 30
0.0
 10
4098.88022628441
 20
1653.500259800016
 30
0.0
 10
4098.88022628441
 20
1653.500259800016
 30
0.0
 10
4098.88022628441
 20
1653.500259800016
 30
0.0
 10
4098.88022628441
 20
1653.500259800016
 30
0.0
 10
4098.880625856511
 20
1653.500499543276
 30
0.0
 10
4098.880625856511
 20
1653.500499543276
 30
0.0
 10
4098.880625856511
 20
1653.500499543276
 30
0.0
 10
4098.880625856511
 20
1653.500499543276
 30
0.0
 10
4098.88102562164
 20
1653.500739286536
 30
0.0
 10
4098.88102562164
 20
1653.500739286536
 30
0.0
 10
4098.88102562164
 20
1653.500739286536
 30
0.0
 10
4098.88102562164
 20
1653.500739286536
 30
0.0
 10
4098.88150510816
 20
1653.500899115376
 30
0.0
 10
4098.88150510816
 20
1653.500899115376
 30
0.0
 10
4098.88150510816
 20
1653.500899115376
 30
0.0
 10
4098.88150510816
 20
1653.500899115376
 30
0.0
 10
4098.88198459468
 20
1653.501058944216
 30
0.0
 10
4098.88198459468
 20
1653.501058944216
 30
0.0
  0
SPLINE
  5
113F
330
1F
100
AcDbEntity
  8
SANINDUSA
100
AcDbSpline
210
0.0
220
0.0
230
1.0
 70
     8
 71
     3
 72
    56
 73
    52
 74
     0
 42
0.0000000001
 43
0.0000000001
 40
0.0
 40
0.0
 40
0.0
 40
0.0
 40
0.0769230769230769
 40
0.0769230769230769
 40
0.0769230769230769
 40
0.0769230769230769
 40
0.1538461538461539
 40
0.1538461538461539
 40
0.1538461538461539
 40
0.1538461538461539
 40
0.2307692307692308
 40
0.2307692307692308
 40
0.2307692307692308
 40
0.2307692307692308
 40
0.3076923076923077
 40
0.3076923076923077
 40
0.3076923076923077
 40
0.3076923076923077
 40
0.3846153846153846
 40
0.3846153846153846
 40
0.3846153846153846
 40
0.3846153846153846
 40
0.4615384615384616
 40
0.4615384615384616
 40
0.4615384615384616
 40
0.4615384615384616
 40
0.5384615384615385
 40
0.5384615384615385
 40
0.5384615384615385
 40
0.5384615384615385
 40
0.6153846153846155
 40
0.6153846153846155
 40
0.6153846153846155
 40
0.6153846153846155
 40
0.6923076923076924
 40
0.6923076923076924
 40
0.6923076923076924
 40
0.6923076923076924
 40
0.7692307692307692
 40
0.7692307692307692
 40
0.7692307692307692
 40
0.7692307692307692
 40
0.8461538461538459
 40
0.8461538461538459
 40
0.8461538461538459
 40
0.8461538461538459
 40
0.9230769230769228
 40
0.9230769230769228
 40
0.9230769230769228
 40
0.9230769230769228
 40
1.0
 40
1.0
 40
1.0
 40
1.0
 10
4098.899967655539
 20
1653.501058944216
 30
0.0
 10
4098.899967655539
 20
1653.501058944216
 30
0.0
 10
4098.900447335091
 20
1653.500899115376
 30
0.0
 10
4098.900447335091
 20
1653.500899115376
 30
0.0
 10
4098.900447335091
 20
1653.500899115376
 30
0.0
 10
4098.900447335091
 20
1653.500899115376
 30
0.0
 10
4098.900926821611
 20
1653.500739286536
 30
0.0
 10
4098.900926821611
 20
1653.500739286536
 30
0.0
 10
4098.900926821611
 20
1653.500739286536
 30
0.0
 10
4098.900926821611
 20
1653.500739286536
 30
0.0
 10
4098.90132658674
 20
1653.500499543276
 30
0.0
 10
4098.90132658674
 20
1653.500499543276
 30
0.0
 10
4098.90132658674
 20
1653.500499543276
 30
0.0
 10
4098.90132658674
 20
1653.500499543276
 30
0.0
 10
4098.90172596581
 20
1653.500259800016
 30
0.0
 10
4098.90172596581
 20
1653.500259800016
 30
0.0
 10
4098.90172596581
 20
1653.500259800016
 30
0.0
 10
4098.90172596581
 20
1653.500259800016
 30
0.0
 10
4098.90212573094
 20
1653.500020056756
 30
0.0
 10
4098.90212573094
 20
1653.500020056756
 30
0.0
 10
4098.90212573094
 20
1653.500020056756
 30
0.0
 10
4098.90212573094
 20
1653.500020056756
 30
0.0
 10
4098.9023654742
 20
1653.499860034886
 30
0.0
 10
4098.9023654742
 20
1653.499860034886
 30
0.0
 10
4098.9023654742
 20
1653.499860034886
 30
0.0
 10
4098.9023654742
 20
1653.499860034886
 30
0.0
 10
4098.902605217459
 20
1653.499620291626
 30
0.0
 10
4098.902605217459
 20
1653.499620291626
 30
0.0
 10
4098.902605217459
 20
1653.499620291626
 30
0.0
 10
4098.902605217459
 20
1653.499620291626
 30
0.0
 10
4098.90284496072
 20
1653.499380548366
 30
0.0
 10
4098.90284496072
 20
1653.499380548366
 30
0.0
 10
4098.90284496072
 20
1653.499380548366
 30
0.0
 10
4098.90284496072
 20
1653.499380548366
 30
0.0
 10
4098.903004982591
 20
1653.499140805106
 30
0.0
 10
4098.903004982591
 20
1653.499140805106
 30
0.0
 10
4098.903004982591
 20
1653.499140805106
 30
0.0
 10
4098.903004982591
 20
1653.499140805106
 30
0.0
 10
4098.90308470398
 20
1653.498821147425
 30
0.0
 10
4098.90308470398
 20
1653.498821147425
 30
0.0
 10
4098.90308470398
 20
1653.498821147425
 30
0.0
 10
4098.90308470398
 20
1653.498821147425
 30
0.0
 10
4098.90308470398
 20
1653.498341660906
 30
0.0
 10
4098.90308470398
 20
1653.498341660906
 30
0.0
 10
4098.90308470398
 20
1653.498341660906
 30
0.0
 10
4098.90308470398
 20
1653.498341660906
 30
0.0
 10
4098.903004982591
 20
1653.498101917645
 30
0.0
 10
4098.903004982591
 20
1653.498101917645
 30
0.0
 10
4098.903004982591
 20
1653.498101917645
 30
0.0
 10
4098.903004982591
 20
1653.498101917645
 30
0.0
 10
4098.903004982591
 20
1653.498101917645
 30
0.0
 10
4098.903004982591
 20
1653.498101917645
 30
0.0
  0
SPLINE
  5
1140
330
1F
100
AcDbEntity
  8
SANINDUSA
100
AcDbSpline
210
0.0
220
0.0
230
1.0
 70
     8
 71
     3
 72
    72
 73
    68
 74
     0
 42
0.0000000001
 43
0.0000000001
 40
0.0
 40
0.0
 40
0.0
 40
0.0
 40
0.0588235294117647
 40
0.0588235294117647
 40
0.0588235294117647
 40
0.0588235294117647
 40
0.1176470588235294
 40
0.1176470588235294
 40
0.1176470588235294
 40
0.1176470588235294
 40
0.1764705882352941
 40
0.1764705882352941
 40
0.1764705882352941
 40
0.1764705882352941
 40
0.2352941176470588
 40
0.2352941176470588
 40
0.2352941176470588
 40
0.2352941176470588
 40
0.2941176470588235
 40
0.2941176470588235
 40
0.2941176470588235
 40
0.2941176470588235
 40
0.3529411764705883
 40
0.3529411764705883
 40
0.3529411764705883
 40
0.3529411764705883
 40
0.411764705882353
 40
0.411764705882353
 40
0.411764705882353
 40
0.411764705882353
 40
0.4705882352941177
 40
0.4705882352941177
 40
0.4705882352941177
 40
0.4705882352941177
 40
0.5294117647058824
 40
0.5294117647058824
 40
0.5294117647058824
 40
0.5294117647058824
 40
0.5882352941176471
 40
0.5882352941176471
 40
0.5882352941176471
 40
0.5882352941176471
 40
0.6470588235294118
 40
0.6470588235294118
 40
0.6470588235294118
 40
0.6470588235294118
 40
0.7058823529411766
 40
0.7058823529411766
 40
0.7058823529411766
 40
0.7058823529411766
 40
0.7647058823529413
 40
0.7647058823529413
 40
0.7647058823529413
 40
0.7647058823529413
 40
0.8235294117647059
 40
0.8235294117647059
 40
0.8235294117647059
 40
0.8235294117647059
 40
0.8823529411764706
 40
0.8823529411764706
 40
0.8823529411764706
 40
0.8823529411764706
 40
0.9411764705882353
 40
0.9411764705882353
 40
0.9411764705882353
 40
0.9411764705882353
 40
1.0
 40
1.0
 40
1.0
 40
1.0
 10
4098.90500303612
 20
1653.502257853546
 30
0.0
 10
4098.90500303612
 20
1653.502257853546
 30
0.0
 10
4098.90500303612
 20
1653.502177939126
 30
0.0
 10
4098.90500303612
 20
1653.502177939126
 30
0.0
 10
4098.90500303612
 20
1653.502177939126
 30
0.0
 10
4098.90500303612
 20
1653.502177939126
 30
0.0
 10
4098.9049231217
 20
1653.501698452606
 30
0.0
 10
4098.9049231217
 20
1653.501698452606
 30
0.0
 10
4098.9049231217
 20
1653.501698452606
 30
0.0
 10
4098.9049231217
 20
1653.501698452606
 30
0.0
 10
4098.9049231217
 20
1653.501298687476
 30
0.0
 10
4098.9049231217
 20
1653.501298687476
 30
0.0
 10
4098.9049231217
 20
1653.501298687476
 30
0.0
 10
4098.9049231217
 20
1653.501298687476
 30
0.0
 10
4098.90484301425
 20
1653.500819200956
 30
0.0
 10
4098.90484301425
 20
1653.500819200956
 30
0.0
 10
4098.90484301425
 20
1653.500819200956
 30
0.0
 10
4098.90484301425
 20
1653.500819200956
 30
0.0
 10
4098.90484301425
 20
1653.500419435825
 30
0.0
 10
4098.90484301425
 20
1653.500419435825
 30
0.0
 10
4098.90484301425
 20
1653.500419435825
 30
0.0
 10
4098.90484301425
 20
1653.500419435825
 30
0.0
 10
4098.90476329286
 20
1653.500020056756
 30
0.0
 10
4098.90476329286
 20
1653.500020056756
 30
0.0
 10
4098.90476329286
 20
1653.500020056756
 30
0.0
 10
4098.90476329286
 20
1653.500020056756
 30
0.0
 10
4098.90460327099
 20
1653.499540570236
 30
0.0
 10
4098.90460327099
 20
1653.499540570236
 30
0.0
 10
4098.90460327099
 20
1653.499540570236
 30
0.0
 10
4098.90460327099
 20
1653.499540570236
 30
0.0
 10
4098.90452335657
 20
1653.499140805106
 30
0.0
 10
4098.90452335657
 20
1653.499140805106
 30
0.0
 10
4098.90452335657
 20
1653.499140805106
 30
0.0
 10
4098.90452335657
 20
1653.499140805106
 30
0.0
 10
4098.90444363518
 20
1653.498741039976
 30
0.0
 10
4098.90444363518
 20
1653.498741039976
 30
0.0
 10
4098.90444363518
 20
1653.498741039976
 30
0.0
 10
4098.90444363518
 20
1653.498741039976
 30
0.0
 10
4098.90428361331
 20
1653.498261553456
 30
0.0
 10
4098.90428361331
 20
1653.498261553456
 30
0.0
 10
4098.90428361331
 20
1653.498261553456
 30
0.0
 10
4098.90428361331
 20
1653.498261553456
 30
0.0
 10
4098.90412378447
 20
1653.497861981356
 30
0.0
 10
4098.90412378447
 20
1653.497861981356
 30
0.0
 10
4098.90412378447
 20
1653.497861981356
 30
0.0
 10
4098.90412378447
 20
1653.497861981356
 30
0.0
 10
4098.90396395563
 20
1653.497462409256
 30
0.0
 10
4098.90396395563
 20
1653.497462409256
 30
0.0
 10
4098.90396395563
 20
1653.497462409256
 30
0.0
 10
4098.90396395563
 20
1653.497462409256
 30
0.0
 10
4098.90380412679
 20
1653.497062644126
 30
0.0
 10
4098.90380412679
 20
1653.497062644126
 30
0.0
 10
4098.90380412679
 20
1653.497062644126
 30
0.0
 10
4098.90380412679
 20
1653.497062644126
 30
0.0
 10
4098.90364429795
 20
1653.496663265056
 30
0.0
 10
4098.90364429795
 20
1653.496663265056
 30
0.0
 10
4098.90364429795
 20
1653.496663265056
 30
0.0
 10
4098.90364429795
 20
1653.496663265056
 30
0.0
 10
4098.903484469111
 20
1653.496263499925
 30
0.0
 10
4098.903484469111
 20
1653.496263499925
 30
0.0
 10
4098.903484469111
 20
1653.496263499925
 30
0.0
 10
4098.903484469111
 20
1653.496263499925
 30
0.0
 10
4098.903244725851
 20
1653.495863734796
 30
0.0
 10
4098.903244725851
 20
1653.495863734796
 30
0.0
 10
4098.903244725851
 20
1653.495863734796
 30
0.0
 10
4098.903244725851
 20
1653.495863734796
 30
0.0
 10
4098.903004982591
 20
1653.495464355725
 30
0.0
 10
4098.903004982591
 20
1653.495464355725
 30
0.0
  0
SPLINE
  5
1141
330
1F
100
AcDbEntity
  8
SANINDUSA
100
AcDbSpline
210
0.0
220
0.0
230
1.0
 70
     8
 71
     3
 72
    72
 73
    68
 74
     0
 42
0.0000000001
 43
0.0000000001
 40
0.0
 40
0.0
 40
0.0
 40
0.0
 40
0.0588235294117647
 40
0.0588235294117647
 40
0.0588235294117647
 40
0.0588235294117647
 40
0.1176470588235294
 40
0.1176470588235294
 40
0.1176470588235294
 40
0.1176470588235294
 40
0.1764705882352941
 40
0.1764705882352941
 40
0.1764705882352941
 40
0.1764705882352941
 40
0.2352941176470588
 40
0.2352941176470588
 40
0.2352941176470588
 40
0.2352941176470588
 40
0.2941176470588235
 40
0.2941176470588235
 40
0.2941176470588235
 40
0.2941176470588235
 40
0.3529411764705883
 40
0.3529411764705883
 40
0.3529411764705883
 40
0.3529411764705883
 40
0.411764705882353
 40
0.411764705882353
 40
0.411764705882353
 40
0.411764705882353
 40
0.4705882352941177
 40
0.4705882352941177
 40
0.4705882352941177
 40
0.4705882352941177
 40
0.5294117647058824
 40
0.5294117647058824
 40
0.5294117647058824
 40
0.5294117647058824
 40
0.5882352941176471
 40
0.5882352941176471
 40
0.5882352941176471
 40
0.5882352941176471
 40
0.6470588235294118
 40
0.6470588235294118
 40
0.6470588235294118
 40
0.6470588235294118
 40
0.7058823529411766
 40
0.7058823529411766
 40
0.7058823529411766
 40
0.7058823529411766
 40
0.7647058823529413
 40
0.7647058823529413
 40
0.7647058823529413
 40
0.7647058823529413
 40
0.8235294117647059
 40
0.8235294117647059
 40
0.8235294117647059
 40
0.8235294117647059
 40
0.8823529411764706
 40
0.8823529411764706
 40
0.8823529411764706
 40
0.8823529411764706
 40
0.9411764705882353
 40
0.9411764705882353
 40
0.9411764705882353
 40
0.9411764705882353
 40
1.0
 40
1.0
 40
1.0
 40
1.0
 10
4098.878947460661
 20
1653.495464355725
 30
0.0
 10
4098.878947460661
 20
1653.495464355725
 30
0.0
 10
4098.878947460661
 20
1653.495464355725
 30
0.0
 10
4098.878947460661
 20
1653.495464355725
 30
0.0
 10
4098.878947460661
 20
1653.495464355725
 30
0.0
 10
4098.878947460661
 20
1653.495464355725
 30
0.0
 10
4098.8787077174
 20
1653.495863734796
 30
0.0
 10
4098.8787077174
 20
1653.495863734796
 30
0.0
 10
4098.8787077174
 20
1653.495863734796
 30
0.0
 10
4098.8787077174
 20
1653.495863734796
 30
0.0
 10
4098.87846797414
 20
1653.496263499925
 30
0.0
 10
4098.87846797414
 20
1653.496263499925
 30
0.0
 10
4098.87846797414
 20
1653.496263499925
 30
0.0
 10
4098.87846797414
 20
1653.496263499925
 30
0.0
 10
4098.8783081453
 20
1653.496663265056
 30
0.0
 10
4098.8783081453
 20
1653.496663265056
 30
0.0
 10
4098.8783081453
 20
1653.496663265056
 30
0.0
 10
4098.8783081453
 20
1653.496663265056
 30
0.0
 10
4098.87814831646
 20
1653.497062644126
 30
0.0
 10
4098.87814831646
 20
1653.497062644126
 30
0.0
 10
4098.87814831646
 20
1653.497062644126
 30
0.0
 10
4098.87814831646
 20
1653.497062644126
 30
0.0
 10
4098.87798829459
 20
1653.497462409256
 30
0.0
 10
4098.87798829459
 20
1653.497462409256
 30
0.0
 10
4098.87798829459
 20
1653.497462409256
 30
0.0
 10
4098.87798829459
 20
1653.497462409256
 30
0.0
 10
4098.87782865878
 20
1653.497861981356
 30
0.0
 10
4098.87782865878
 20
1653.497861981356
 30
0.0
 10
4098.87782865878
 20
1653.497861981356
 30
0.0
 10
4098.87782865878
 20
1653.497861981356
 30
0.0
 10
4098.87766863691
 20
1653.498261553456
 30
0.0
 10
4098.87766863691
 20
1653.498261553456
 30
0.0
 10
4098.87766863691
 20
1653.498261553456
 30
0.0
 10
4098.87766863691
 20
1653.498261553456
 30
0.0
 10
4098.87750880807
 20
1653.498741039976
 30
0.0
 10
4098.87750880807
 20
1653.498741039976
 30
0.0
 10
4098.87750880807
 20
1653.498741039976
 30
0.0
 10
4098.87750880807
 20
1653.498741039976
 30
0.0
 10
4098.87742889365
 20
1653.499140805106
 30
0.0
 10
4098.87742889365
 20
1653.499140805106
 30
0.0
 10
4098.87742889365
 20
1653.499140805106
 30
0.0
 10
4098.87742889365
 20
1653.499140805106
 30
0.0
 10
4098.87734917226
 20
1653.499540570236
 30
0.0
 10
4098.87734917226
 20
1653.499540570236
 30
0.0
 10
4098.87734917226
 20
1653.499540570236
 30
0.0
 10
4098.87734917226
 20
1653.499540570236
 30
0.0
 10
4098.87718915039
 20
1653.500020056756
 30
0.0
 10
4098.87718915039
 20
1653.500020056756
 30
0.0
 10
4098.87718915039
 20
1653.500020056756
 30
0.0
 10
4098.87718915039
 20
1653.500020056756
 30
0.0
 10
4098.87710923597
 20
1653.500419435825
 30
0.0
 10
4098.87710923597
 20
1653.500419435825
 30
0.0
 10
4098.87710923597
 20
1653.500419435825
 30
0.0
 10
4098.87710923597
 20
1653.500419435825
 30
0.0
 10
4098.87710923597
 20
1653.500819200956
 30
0.0
 10
4098.87710923597
 20
1653.500819200956
 30
0.0
 10
4098.87710923597
 20
1653.500819200956
 30
0.0
 10
4098.87710923597
 20
1653.500819200956
 30
0.0
 10
4098.87702932155
 20
1653.501298687476
 30
0.0
 10
4098.87702932155
 20
1653.501298687476
 30
0.0
 10
4098.87702932155
 20
1653.501298687476
 30
0.0
 10
4098.87702932155
 20
1653.501298687476
 30
0.0
 10
4098.87702932155
 20
1653.501698452606
 30
0.0
 10
4098.87702932155
 20
1653.501698452606
 30
0.0
 10
4098.87702932155
 20
1653.501698452606
 30
0.0
 10
4098.87702932155
 20
1653.501698452606
 30
0.0
 10
4098.87694940713
 20
1653.502257853546
 30
0.0
 10
4098.87694940713
 20
1653.502257853546
 30
0.0
  0
SPLINE
  5
1142
330
1F
100
AcDbEntity
  8
SANINDUSA
100
AcDbSpline
210
0.0
220
0.0
230
1.0
 70
     8
 71
     3
 72
   228
 73
   224
 74
     0
 42
0.0000000001
 43
0.0000000001
 40
0.0
 40
0.0
 40
0.0
 40
0.0
 40
0.0178571428571429
 40
0.0178571428571429
 40
0.0178571428571429
 40
0.0178571428571429
 40
0.0357142857142857
 40
0.0357142857142857
 40
0.0357142857142857
 40
0.0357142857142857
 40
0.0535714285714286
 40
0.0535714285714286
 40
0.0535714285714286
 40
0.0535714285714286
 40
0.0714285714285714
 40
0.0714285714285714
 40
0.0714285714285714
 40
0.0714285714285714
 40
0.0892857142857143
 40
0.0892857142857143
 40
0.0892857142857143
 40
0.0892857142857143
 40
0.1071428571428571
 40
0.1071428571428571
 40
0.1071428571428571
 40
0.1071428571428571
 40
0.125
 40
0.125
 40
0.125
 40
0.125
 40
0.1428571428571428
 40
0.1428571428571428
 40
0.1428571428571428
 40
0.1428571428571428
 40
0.1607142857142857
 40
0.1607142857142857
 40
0.1607142857142857
 40
0.1607142857142857
 40
0.1785714285714285
 40
0.1785714285714285
 40
0.1785714285714285
 40
0.1785714285714285
 40
0.1964285714285714
 40
0.1964285714285714
 40
0.1964285714285714
 40
0.1964285714285714
 40
0.2142857142857142
 40
0.2142857142857142
 40
0.2142857142857142
 40
0.2142857142857142
 40
0.2321428571428571
 40
0.2321428571428571
 40
0.2321428571428571
 40
0.2321428571428571
 40
0.2499999999999999
 40
0.2499999999999999
 40
0.2499999999999999
 40
0.2499999999999999
 40
0.2678571428571428
 40
0.2678571428571428
 40
0.2678571428571428
 40
0.2678571428571428
 40
0.2857142857142856
 40
0.2857142857142856
 40
0.2857142857142856
 40
0.2857142857142856
 40
0.3035714285714285
 40
0.3035714285714285
 40
0.3035714285714285
 40
0.3035714285714285
 40
0.3214285714285713
 40
0.3214285714285713
 40
0.3214285714285713
 40
0.3214285714285713
 40
0.3392857142857142
 40
0.3392857142857142
 40
0.3392857142857142
 40
0.3392857142857142
 40
0.3571428571428571
 40
0.3571428571428571
 40
0.3571428571428571
 40
0.3571428571428571
 40
0.3749999999999999
 40
0.3749999999999999
 40
0.3749999999999999
 40
0.3749999999999999
 40
0.3928571428571427
 40
0.3928571428571427
 40
0.3928571428571427
 40
0.3928571428571427
 40
0.4107142857142856
 40
0.4107142857142856
 40
0.4107142857142856
 40
0.4107142857142856
 40
0.4285714285714284
 40
0.4285714285714284
 40
0.4285714285714284
 40
0.4285714285714284
 40
0.4464285714285713
 40
0.4464285714285713
 40
0.4464285714285713
 40
0.4464285714285713
 40
0.4642857142857141
 40
0.4642857142857141
 40
0.4642857142857141
 40
0.4642857142857141
 40
0.4821428571428572
 40
0.4821428571428572
 40
0.4821428571428572
 40
0.4821428571428572
 40
0.4999999999999999
 40
0.4999999999999999
 40
0.4999999999999999
 40
0.4999999999999999
 40
0.5178571428571427
 40
0.5178571428571427
 40
0.5178571428571427
 40
0.5178571428571427
 40
0.5357142857142856
 40
0.5357142857142856
 40
0.5357142857142856
 40
0.5357142857142856
 40
0.5535714285714285
 40
0.5535714285714285
 40
0.5535714285714285
 40
0.5535714285714285
 40
0.5714285714285714
 40
0.5714285714285714
 40
0.5714285714285714
 40
0.5714285714285714
 40
0.5892857142857144
 40
0.5892857142857144
 40
0.5892857142857144
 40
0.5892857142857144
 40
0.6071428571428572
 40
0.6071428571428572
 40
0.6071428571428572
 40
0.6071428571428572
 40
0.6250000000000001
 40
0.6250000000000001
 40
0.6250000000000001
 40
0.6250000000000001
 40
0.6428571428571429
 40
0.6428571428571429
 40
0.6428571428571429
 40
0.6428571428571429
 40
0.660714285714286
 40
0.660714285714286
 40
0.660714285714286
 40
0.660714285714286
 40
0.6785714285714289
 40
0.6785714285714289
 40
0.6785714285714289
 40
0.6785714285714289
 40
0.6964285714285717
 40
0.6964285714285717
 40
0.6964285714285717
 40
0.6964285714285717
 40
0.7142857142857146
 40
0.7142857142857146
 40
0.7142857142857146
 40
0.7142857142857146
 40
0.7321428571428576
 40
0.7321428571428576
 40
0.7321428571428576
 40
0.7321428571428576
 40
0.7500000000000005
 40
0.7500000000000005
 40
0.7500000000000005
 40
0.7500000000000005
 40
0.7678571428571434
 40
0.7678571428571434
 40
0.7678571428571434
 40
0.7678571428571434
 40
0.7857142857142863
 40
0.7857142857142863
 40
0.7857142857142863
 40
0.7857142857142863
 40
0.8035714285714291
 40
0.8035714285714291
 40
0.8035714285714291
 40
0.8035714285714291
 40
0.821428571428572
 40
0.821428571428572
 40
0.821428571428572
 40
0.821428571428572
 40
0.8392857142857149
 40
0.8392857142857149
 40
0.8392857142857149
 40
0.8392857142857149
 40
0.8571428571428578
 40
0.8571428571428578
 40
0.8571428571428578
 40
0.8571428571428578
 40
0.8750000000000007
 40
0.8750000000000007
 40
0.8750000000000007
 40
0.8750000000000007
 40
0.8928571428571437
 40
0.8928571428571437
 40
0.8928571428571437
 40
0.8928571428571437
 40
0.9107142857142866
 40
0.9107142857142866
 40
0.9107142857142866
 40
0.9107142857142866
 40
0.9285714285714295
 40
0.9285714285714295
 40
0.9285714285714295
 40
0.9285714285714295
 40
0.9464285714285724
 40
0.9464285714285724
 40
0.9464285714285724
 40
0.9464285714285724
 40
0.9642857142857151
 40
0.9642857142857151
 40
0.9642857142857151
 40
0.9642857142857151
 40
0.9821428571428581
 40
0.9821428571428581
 40
0.9821428571428581
 40
0.9821428571428581
 40
1.0
 40
1.0
 40
1.0
 40
1.0
 10
4098.90500303612
 20
1653.502257853546
 30
0.0
 10
4098.90500303612
 20
1653.502257853546
 30
0.0
 10
4098.90500303612
 20
1653.502977083326
 30
0.0
 10
4098.90500303612
 20
1653.502977083326
 30
0.0
 10
4098.90500303612
 20
1653.502977083326
 30
0.0
 10
4098.90500303612
 20
1653.502977083326
 30
0.0
 10
4098.9049231217
 20
1653.503776420556
 30
0.0
 10
4098.9049231217
 20
1653.503776420556
 30
0.0
 10
4098.9049231217
 20
1653.503776420556
 30
0.0
 10
4098.9049231217
 20
1653.503776420556
 30
0.0
 10
4098.90484301425
 20
1653.504575757786
 30
0.0
 10
4098.90484301425
 20
1653.504575757786
 30
0.0
 10
4098.90484301425
 20
1653.504575757786
 30
0.0
 10
4098.90484301425
 20
1653.504575757786
 30
0.0
 10
4098.904683378441
 20
1653.505374901986
 30
0.0
 10
4098.904683378441
 20
1653.505374901986
 30
0.0
 10
4098.904683378441
 20
1653.505374901986
 30
0.0
 10
4098.904683378441
 20
1653.505374901986
 30
0.0
 10
4098.90452335657
 20
1653.506174046186
 30
0.0
 10
4098.90452335657
 20
1653.506174046186
 30
0.0
 10
4098.90452335657
 20
1653.506174046186
 30
0.0
 10
4098.90452335657
 20
1653.506174046186
 30
0.0
 10
4098.90428361331
 20
1653.506973576446
 30
0.0
 10
4098.90428361331
 20
1653.506973576446
 30
0.0
 10
4098.90428361331
 20
1653.506973576446
 30
0.0
 10
4098.90428361331
 20
1653.506973576446
 30
0.0
 10
4098.90404387005
 20
1653.507692806226
 30
0.0
 10
4098.90404387005
 20
1653.507692806226
 30
0.0
 10
4098.90404387005
 20
1653.507692806226
 30
0.0
 10
4098.90404387005
 20
1653.507692806226
 30
0.0
 10
4098.90372421237
 20
1653.508412036006
 30
0.0
 10
4098.90372421237
 20
1653.508412036006
 30
0.0
 10
4098.90372421237
 20
1653.508412036006
 30
0.0
 10
4098.90372421237
 20
1653.508412036006
 30
0.0
 10
4098.903324640271
 20
1653.509131458816
 30
0.0
 10
4098.903324640271
 20
1653.509131458816
 30
0.0
 10
4098.903324640271
 20
1653.509131458816
 30
0.0
 10
4098.903324640271
 20
1653.509131458816
 30
0.0
 10
4098.903004982591
 20
1653.509850688596
 30
0.0
 10
4098.903004982591
 20
1653.509850688596
 30
0.0
 10
4098.903004982591
 20
1653.509850688596
 30
0.0
 10
4098.903004982591
 20
1653.509850688596
 30
0.0
 10
4098.90252530304
 20
1653.510490003955
 30
0.0
 10
4098.90252530304
 20
1653.510490003955
 30
0.0
 10
4098.90252530304
 20
1653.510490003955
 30
0.0
 10
4098.90252530304
 20
1653.510490003955
 30
0.0
 10
4098.902045816521
 20
1653.511129512346
 30
0.0
 10
4098.902045816521
 20
1653.511129512346
 30
0.0
 10
4098.902045816521
 20
1653.511129512346
 30
0.0
 10
4098.902045816521
 20
1653.511129512346
 30
0.0
 10
4098.901566330001
 20
1653.511769020736
 30
0.0
 10
4098.901566330001
 20
1653.511769020736
 30
0.0
 10
4098.901566330001
 20
1653.511769020736
 30
0.0
 10
4098.901566330001
 20
1653.511769020736
 30
0.0
 10
4098.90100673603
 20
1653.512328421676
 30
0.0
 10
4098.90100673603
 20
1653.512328421676
 30
0.0
 10
4098.90100673603
 20
1653.512328421676
 30
0.0
 10
4098.90100673603
 20
1653.512328421676
 30
0.0
 10
4098.900447335091
 20
1653.512887822615
 30
0.0
 10
4098.900447335091
 20
1653.512887822615
 30
0.0
 10
4098.900447335091
 20
1653.512887822615
 30
0.0
 10
4098.900447335091
 20
1653.512887822615
 30
0.0
 10
4098.8998078267
 20
1653.513447416585
 30
0.0
 10
4098.8998078267
 20
1653.513447416585
 30
0.0
 10
4098.8998078267
 20
1653.513447416585
 30
0.0
 10
4098.8998078267
 20
1653.513447416585
 30
0.0
 10
4098.89916851134
 20
1653.513926903106
 30
0.0
 10
4098.89916851134
 20
1653.513926903106
 30
0.0
 10
4098.89916851134
 20
1653.513926903106
 30
0.0
 10
4098.89916851134
 20
1653.513926903106
 30
0.0
 10
4098.89852900295
 20
1653.514406389626
 30
0.0
 10
4098.89852900295
 20
1653.514406389626
 30
0.0
 10
4098.89852900295
 20
1653.514406389626
 30
0.0
 10
4098.89852900295
 20
1653.514406389626
 30
0.0
 10
4098.897889687591
 20
1653.514805961726
 30
0.0
 10
4098.897889687591
 20
1653.514805961726
 30
0.0
 10
4098.897889687591
 20
1653.514805961726
 30
0.0
 10
4098.897889687591
 20
1653.514805961726
 30
0.0
 10
4098.89717026478
 20
1653.515205726856
 30
0.0
 10
4098.89717026478
 20
1653.515205726856
 30
0.0
 10
4098.89717026478
 20
1653.515205726856
 30
0.0
 10
4098.89717026478
 20
1653.515205726856
 30
0.0
 10
4098.896451035001
 20
1653.515525384535
 30
0.0
 10
4098.896451035001
 20
1653.515525384535
 30
0.0
 10
4098.896451035001
 20
1653.515525384535
 30
0.0
 10
4098.896451035001
 20
1653.515525384535
 30
0.0
 10
4098.895651890801
 20
1653.515765127796
 30
0.0
 10
4098.895651890801
 20
1653.515765127796
 30
0.0
 10
4098.895651890801
 20
1653.515765127796
 30
0.0
 10
4098.895651890801
 20
1653.515765127796
 30
0.0
 10
4098.894932467991
 20
1653.516004871056
 30
0.0
 10
4098.894932467991
 20
1653.516004871056
 30
0.0
 10
4098.894932467991
 20
1653.516004871056
 30
0.0
 10
4098.894932467991
 20
1653.516004871056
 30
0.0
 10
4098.894133323791
 20
1653.516244614316
 30
0.0
 10
4098.894133323791
 20
1653.516244614316
 30
0.0
 10
4098.894133323791
 20
1653.516244614316
 30
0.0
 10
4098.894133323791
 20
1653.516244614316
 30
0.0
 10
4098.893333986561
 20
1653.516404636186
 30
0.0
 10
4098.893333986561
 20
1653.516404636186
 30
0.0
 10
4098.893333986561
 20
1653.516404636186
 30
0.0
 10
4098.893333986561
 20
1653.516404636186
 30
0.0
 10
4098.892534649331
 20
1653.516484357576
 30
0.0
 10
4098.892534649331
 20
1653.516484357576
 30
0.0
 10
4098.892534649331
 20
1653.516484357576
 30
0.0
 10
4098.892534649331
 20
1653.516484357576
 30
0.0
 10
4098.891815419551
 20
1653.516564465026
 30
0.0
 10
4098.891815419551
 20
1653.516564465026
 30
0.0
 10
4098.891815419551
 20
1653.516564465026
 30
0.0
 10
4098.891815419551
 20
1653.516564465026
 30
0.0
 10
4098.8909361679
 20
1653.516644379446
 30
0.0
 10
4098.8909361679
 20
1653.516644379446
 30
0.0
 10
4098.8909361679
 20
1653.516644379446
 30
0.0
 10
4098.8909361679
 20
1653.516644379446
 30
0.0
 10
4098.8901370237
 20
1653.516564465026
 30
0.0
 10
4098.8901370237
 20
1653.516564465026
 30
0.0
 10
4098.8901370237
 20
1653.516564465026
 30
0.0
 10
4098.8901370237
 20
1653.516564465026
 30
0.0
 10
4098.88941760089
 20
1653.516484357576
 30
0.0
 10
4098.88941760089
 20
1653.516484357576
 30
0.0
 10
4098.88941760089
 20
1653.516484357576
 30
0.0
 10
4098.88941760089
 20
1653.516484357576
 30
0.0
 10
4098.88861845669
 20
1653.516404636186
 30
0.0
 10
4098.88861845669
 20
1653.516404636186
 30
0.0
 10
4098.88861845669
 20
1653.516404636186
 30
0.0
 10
4098.88861845669
 20
1653.516404636186
 30
0.0
 10
4098.88781911946
 20
1653.516244614316
 30
0.0
 10
4098.88781911946
 20
1653.516244614316
 30
0.0
 10
4098.88781911946
 20
1653.516244614316
 30
0.0
 10
4098.88781911946
 20
1653.516244614316
 30
0.0
 10
4098.88701997526
 20
1653.516004871056
 30
0.0
 10
4098.88701997526
 20
1653.516004871056
 30
0.0
 10
4098.88701997526
 20
1653.516004871056
 30
0.0
 10
4098.88701997526
 20
1653.516004871056
 30
0.0
 10
4098.88630055245
 20
1653.515765127796
 30
0.0
 10
4098.88630055245
 20
1653.515765127796
 30
0.0
 10
4098.88630055245
 20
1653.515765127796
 30
0.0
 10
4098.88630055245
 20
1653.515765127796
 30
0.0
 10
4098.88550140825
 20
1653.515525384535
 30
0.0
 10
4098.88550140825
 20
1653.515525384535
 30
0.0
 10
4098.88550140825
 20
1653.515525384535
 30
0.0
 10
4098.88550140825
 20
1653.515525384535
 30
0.0
 10
4098.88478217847
 20
1653.515205726856
 30
0.0
 10
4098.88478217847
 20
1653.515205726856
 30
0.0
 10
4098.88478217847
 20
1653.515205726856
 30
0.0
 10
4098.88478217847
 20
1653.515205726856
 30
0.0
 10
4098.884062755661
 20
1653.514805961726
 30
0.0
 10
4098.884062755661
 20
1653.514805961726
 30
0.0
 10
4098.884062755661
 20
1653.514805961726
 30
0.0
 10
4098.884062755661
 20
1653.514805961726
 30
0.0
 10
4098.883423247271
 20
1653.514406389626
 30
0.0
 10
4098.883423247271
 20
1653.514406389626
 30
0.0
 10
4098.883423247271
 20
1653.514406389626
 30
0.0
 10
4098.883423247271
 20
1653.514406389626
 30
0.0
 10
4098.88278393191
 20
1653.513926903106
 30
0.0
 10
4098.88278393191
 20
1653.513926903106
 30
0.0
 10
4098.88278393191
 20
1653.513926903106
 30
0.0
 10
4098.88278393191
 20
1653.513926903106
 30
0.0
 10
4098.88214461655
 20
1653.513447416585
 30
0.0
 10
4098.88214461655
 20
1653.513447416585
 30
0.0
 10
4098.88214461655
 20
1653.513447416585
 30
0.0
 10
4098.88214461655
 20
1653.513447416585
 30
0.0
 10
4098.88150510816
 20
1653.512887822615
 30
0.0
 10
4098.88150510816
 20
1653.512887822615
 30
0.0
 10
4098.88150510816
 20
1653.512887822615
 30
0.0
 10
4098.88150510816
 20
1653.512887822615
 30
0.0
 10
4098.88094570722
 20
1653.512328421676
 30
0.0
 10
4098.88094570722
 20
1653.512328421676
 30
0.0
 10
4098.88094570722
 20
1653.512328421676
 30
0.0
 10
4098.88094570722
 20
1653.512328421676
 30
0.0
 10
4098.88038611325
 20
1653.511769020736
 30
0.0
 10
4098.88038611325
 20
1653.511769020736
 30
0.0
 10
4098.88038611325
 20
1653.511769020736
 30
0.0
 10
4098.88038611325
 20
1653.511769020736
 30
0.0
 10
4098.87990662673
 20
1653.511129512346
 30
0.0
 10
4098.87990662673
 20
1653.511129512346
 30
0.0
 10
4098.87990662673
 20
1653.511129512346
 30
0.0
 10
4098.87990662673
 20
1653.511129512346
 30
0.0
 10
4098.87942694718
 20
1653.510490003955
 30
0.0
 10
4098.87942694718
 20
1653.510490003955
 30
0.0
 10
4098.87942694718
 20
1653.510490003955
 30
0.0
 10
4098.87942694718
 20
1653.510490003955
 30
0.0
 10
4098.878947460661
 20
1653.509850688596
 30
0.0
 10
4098.878947460661
 20
1653.509850688596
 30
0.0
 10
4098.878947460661
 20
1653.509850688596
 30
0.0
 10
4098.878947460661
 20
1653.509850688596
 30
0.0
 10
4098.87862780298
 20
1653.509131458816
 30
0.0
 10
4098.87862780298
 20
1653.509131458816
 30
0.0
 10
4098.87862780298
 20
1653.509131458816
 30
0.0
 10
4098.87862780298
 20
1653.509131458816
 30
0.0
 10
4098.87822803785
 20
1653.508412036006
 30
0.0
 10
4098.87822803785
 20
1653.508412036006
 30
0.0
 10
4098.87822803785
 20
1653.508412036006
 30
0.0
 10
4098.87822803785
 20
1653.508412036006
 30
0.0
 10
4098.8779085732
 20
1653.507692806226
 30
0.0
 10
4098.8779085732
 20
1653.507692806226
 30
0.0
 10
4098.8779085732
 20
1653.507692806226
 30
0.0
 10
4098.8779085732
 20
1653.507692806226
 30
0.0
 10
4098.87766863691
 20
1653.506973576446
 30
0.0
 10
4098.87766863691
 20
1653.506973576446
 30
0.0
 10
4098.87766863691
 20
1653.506973576446
 30
0.0
 10
4098.87766863691
 20
1653.506973576446
 30
0.0
 10
4098.87742889365
 20
1653.506174046186
 30
0.0
 10
4098.87742889365
 20
1653.506174046186
 30
0.0
 10
4098.87742889365
 20
1653.506174046186
 30
0.0
 10
4098.87742889365
 20
1653.506174046186
 30
0.0
 10
4098.87726906481
 20
1653.505374901986
 30
0.0
 10
4098.87726906481
 20
1653.505374901986
 30
0.0
 10
4098.87726906481
 20
1653.505374901986
 30
0.0
 10
4098.87726906481
 20
1653.505374901986
 30
0.0
 10
4098.87710923597
 20
1653.504575757786
 30
0.0
 10
4098.87710923597
 20
1653.504575757786
 30
0.0
 10
4098.87710923597
 20
1653.504575757786
 30
0.0
 10
4098.87710923597
 20
1653.504575757786
 30
0.0
 10
4098.87702932155
 20
1653.503776420556
 30
0.0
 10
4098.87702932155
 20
1653.503776420556
 30
0.0
 10
4098.87702932155
 20
1653.503776420556
 30
0.0
 10
4098.87702932155
 20
1653.503776420556
 30
0.0
 10
4098.87694940713
 20
1653.502977083326
 30
0.0
 10
4098.87694940713
 20
1653.502977083326
 30
0.0
 10
4098.87694940713
 20
1653.502977083326
 30
0.0
 10
4098.87694940713
 20
1653.502977083326
 30
0.0
 10
4098.87694940713
 20
1653.502257853546
 30
0.0
 10
4098.87694940713
 20
1653.502257853546
 30
0.0
  0
SPLINE
  5
114D
330
1F
100
AcDbEntity
  8
SANINDUSA
100
AcDbSpline
210
0.0
220
0.0
230
1.0
 70
     8
 71
     3
 72
    36
 73
    32
 74
     0
 42
0.0000000001
 43
0.0000000001
 40
0.0
 40
0.0
 40
0.0
 40
0.0
 40
0.125
 40
0.125
 40
0.125
 40
0.125
 40
0.25
 40
0.25
 40
0.25
 40
0.25
 40
0.375
 40
0.375
 40
0.375
 40
0.375
 40
0.5
 40
0.5
 40
0.5
 40
0.5
 40
0.625
 40
0.625
 40
0.625
 40
0.625
 40
0.75
 40
0.75
 40
0.75
 40
0.75
 40
0.875
 40
0.875
 40
0.875
 40
0.875
 40
1.0
 40
1.0
 40
1.0
 40
1.0
 10
4098.7085479118
 20
1653.432883257606
 30
0.0
 10
4098.7085479118
 20
1653.432883257606
 30
0.0
 10
4098.7085479118
 20
1653.432723235736
 30
0.0
 10
4098.7085479118
 20
1653.432723235736
 30
0.0
 10
4098.7085479118
 20
1653.432723235736
 30
0.0
 10
4098.7085479118
 20
1653.432723235736
 30
0.0
 10
4098.70862782622
 20
1653.432483492476
 30
0.0
 10
4098.70862782622
 20
1653.432483492476
 30
0.0
 10
4098.70862782622
 20
1653.432483492476
 30
0.0
 10
4098.70862782622
 20
1653.432483492476
 30
0.0
 10
4098.70870774064
 20
1653.432004005956
 30
0.0
 10
4098.70870774064
 20
1653.432004005956
 30
0.0
 10
4098.70870774064
 20
1653.432004005956
 30
0.0
 10
4098.70870774064
 20
1653.432004005956
 30
0.0
 10
4098.708787848091
 20
1653.431364497565
 30
0.0
 10
4098.708787848091
 20
1653.431364497565
 30
0.0
 10
4098.708787848091
 20
1653.431364497565
 30
0.0
 10
4098.708787848091
 20
1653.431364497565
 30
0.0
 10
4098.7089474839
 20
1653.430645267786
 30
0.0
 10
4098.7089474839
 20
1653.430645267786
 30
0.0
 10
4098.7089474839
 20
1653.430645267786
 30
0.0
 10
4098.7089474839
 20
1653.430645267786
 30
0.0
 10
4098.70902759135
 20
1653.429766209165
 30
0.0
 10
4098.70902759135
 20
1653.429766209165
 30
0.0
 10
4098.70902759135
 20
1653.429766209165
 30
0.0
 10
4098.70902759135
 20
1653.429766209165
 30
0.0
 10
4098.70910731274
 20
1653.428807043096
 30
0.0
 10
4098.70910731274
 20
1653.428807043096
 30
0.0
 10
4098.70910731274
 20
1653.428807043096
 30
0.0
 10
4098.70910731274
 20
1653.428807043096
 30
0.0
 10
4098.70910731274
 20
1653.427847877026
 30
0.0
 10
4098.70910731274
 20
1653.427847877026
 30
0.0
  0
SPLINE
  5
114E
330
1F
100
AcDbEntity
  8
SANINDUSA
100
AcDbSpline
210
0.0
220
0.0
230
1.0
 70
    24
 71
     3
 72
     8
 73
     4
 74
     0
 42
0.0000000001
 43
0.0000000001
 40
0.0
 40
0.0
 40
0.0
 40
0.0
 40
1.0
 40
1.0
 40
1.0
 40
1.0
 10
4098.70910731274
 20
1653.427847877026
 30
0.0
 10
4098.70910731274
 20
1653.427847877026
 30
0.0
 10
4098.70910731274
 20
1653.413781201836
 30
0.0
 10
4098.70910731274
 20
1653.413781201836
 30
0.0
  0
SPLINE
  5
1151
330
1F
100
AcDbEntity
  8
SANINDUSA
100
AcDbSpline
210
0.0
220
0.0
230
1.0
 70
     8
 71
     3
 72
    36
 73
    32
 74
     0
 42
0.0000000001
 43
0.0000000001
 40
0.0
 40
0.0
 40
0.0
 40
0.0
 40
0.125
 40
0.125
 40
0.125
 40
0.125
 40
0.25
 40
0.25
 40
0.25
 40
0.25
 40
0.375
 40
0.375
 40
0.375
 40
0.375
 40
0.5
 40
0.5
 40
0.5
 40
0.5
 40
0.625
 40
0.625
 40
0.625
 40
0.625
 40
0.75
 40
0.75
 40
0.75
 40
0.75
 40
0.875
 40
0.875
 40
0.875
 40
0.875
 40
1.0
 40
1.0
 40
1.0
 40
1.0
 10
4098.70910731274
 20
1653.413781201836
 30
0.0
 10
4098.70910731274
 20
1653.413781201836
 30
0.0
 10
4098.70910731274
 20
1653.412822035766
 30
0.0
 10
4098.70910731274
 20
1653.412822035766
 30
0.0
 10
4098.70910731274
 20
1653.412822035766
 30
0.0
 10
4098.70910731274
 20
1653.412822035766
 30
0.0
 10
4098.70902759135
 20
1653.411862869696
 30
0.0
 10
4098.70902759135
 20
1653.411862869696
 30
0.0
 10
4098.70902759135
 20
1653.411862869696
 30
0.0
 10
4098.70902759135
 20
1653.411862869696
 30
0.0
 10
4098.7089474839
 20
1653.410983618046
 30
0.0
 10
4098.7089474839
 20
1653.410983618046
 30
0.0
 10
4098.7089474839
 20
1653.410983618046
 30
0.0
 10
4098.7089474839
 20
1653.410983618046
 30
0.0
 10
4098.708787848091
 20
1653.410264388266
 30
0.0
 10
4098.708787848091
 20
1653.410264388266
 30
0.0
 10
4098.708787848091
 20
1653.410264388266
 30
0.0
 10
4098.708787848091
 20
1653.410264388266
 30
0.0
 10
4098.70870774064
 20
1653.409625072906
 30
0.0
 10
4098.70870774064
 20
1653.409625072906
 30
0.0
 10
4098.70870774064
 20
1653.409625072906
 30
0.0
 10
4098.70870774064
 20
1653.409625072906
 30
0.0
 10
4098.70862782622
 20
1653.409145586386
 30
0.0
 10
4098.70862782622
 20
1653.409145586386
 30
0.0
 10
4098.70862782622
 20
1653.409145586386
 30
0.0
 10
4098.70862782622
 20
1653.409145586386
 30
0.0
 10
4098.7085479118
 20
1653.408825735676
 30
0.0
 10
4098.7085479118
 20
1653.408825735676
 30
0.0
 10
4098.7085479118
 20
1653.408825735676
 30
0.0
 10
4098.7085479118
 20
1653.408825735676
 30
0.0
 10
4098.7085479118
 20
1653.408745821256
 30
0.0
 10
4098.7085479118
 20
1653.408745821256
 30
0.0
  0
SPLINE
  5
1176
330
1F
100
AcDbEntity
  8
SANINDUSA
100
AcDbSpline
210
0.0
220
0.0
230
1.0
 70
     8
 71
     3
 72
    28
 73
    24
 74
     0
 42
0.0000000001
 43
0.0000000001
 40
0.0
 40
0.0
 40
0.0
 40
0.0
 40
0.1666666666666667
 40
0.1666666666666667
 40
0.1666666666666667
 40
0.1666666666666667
 40
0.3333333333333333
 40
0.3333333333333333
 40
0.3333333333333333
 40
0.3333333333333333
 40
0.5
 40
0.5
 40
0.5
 40
0.5
 40
0.6666666666666666
 40
0.6666666666666666
 40
0.6666666666666666
 40
0.6666666666666666
 40
0.8333333333333332
 40
0.8333333333333332
 40
0.8333333333333332
 40
0.8333333333333332
 40
1.0
 40
1.0
 40
1.0
 40
1.0
 10
4098.7085479118
 20
1653.408825735676
 30
0.0
 10
4098.7085479118
 20
1653.408825735676
 30
0.0
 10
4098.70846799738
 20
1653.408905843126
 30
0.0
 10
4098.70846799738
 20
1653.408905843126
 30
0.0
 10
4098.70846799738
 20
1653.408905843126
 30
0.0
 10
4098.70846799738
 20
1653.408905843126
 30
0.0
 10
4098.70846799738
 20
1653.408905843126
 30
0.0
 10
4098.70846799738
 20
1653.408905843126
 30
0.0
 10
4098.70846799738
 20
1653.408905843126
 30
0.0
 10
4098.70846799738
 20
1653.408905843126
 30
0.0
 10
4098.70838808296
 20
1653.408985564516
 30
0.0
 10
4098.70838808296
 20
1653.408985564516
 30
0.0
 10
4098.70838808296
 20
1653.408985564516
 30
0.0
 10
4098.70838808296
 20
1653.408985564516
 30
0.0
 10
4098.70838808296
 20
1653.409065478936
 30
0.0
 10
4098.70838808296
 20
1653.409065478936
 30
0.0
 10
4098.70838808296
 20
1653.409065478936
 30
0.0
 10
4098.70838808296
 20
1653.409065478936
 30
0.0
 10
4098.70830816854
 20
1653.409145586386
 30
0.0
 10
4098.70830816854
 20
1653.409145586386
 30
0.0
 10
4098.70830816854
 20
1653.409145586386
 30
0.0
 10
4098.70830816854
 20
1653.409145586386
 30
0.0
 10
4098.70830816854
 20
1653.409225500806
 30
0.0
 10
4098.70830816854
 20
1653.409225500806
 30
0.0
  0
SPLINE
  5
1177
330
1F
100
AcDbEntity
  8
SANINDUSA
100
AcDbSpline
210
0.0
220
0.0
230
1.0
 70
     8
 71
     3
 72
    28
 73
    24
 74
     0
 42
0.0000000001
 43
0.0000000001
 40
0.0
 40
0.0
 40
0.0
 40
0.0
 40
0.1666666666666667
 40
0.1666666666666667
 40
0.1666666666666667
 40
0.1666666666666667
 40
0.3333333333333333
 40
0.3333333333333333
 40
0.3333333333333333
 40
0.3333333333333333
 40
0.5
 40
0.5
 40
0.5
 40
0.5
 40
0.6666666666666666
 40
0.6666666666666666
 40
0.6666666666666666
 40
0.6666666666666666
 40
0.8333333333333332
 40
0.8333333333333332
 40
0.8333333333333332
 40
0.8333333333333332
 40
1.0
 40
1.0
 40
1.0
 40
1.0
 10
4098.70830816854
 20
1653.432323663636
 30
0.0
 10
4098.70830816854
 20
1653.432323663636
 30
0.0
 10
4098.70830816854
 20
1653.432483492476
 30
0.0
 10
4098.70830816854
 20
1653.432483492476
 30
0.0
 10
4098.70830816854
 20
1653.432483492476
 30
0.0
 10
4098.70830816854
 20
1653.432483492476
 30
0.0
 10
4098.70838808296
 20
1653.432563406895
 30
0.0
 10
4098.70838808296
 20
1653.432563406895
 30
0.0
 10
4098.70838808296
 20
1653.432563406895
 30
0.0
 10
4098.70838808296
 20
1653.432563406895
 30
0.0
 10
4098.70838808296
 20
1653.432643514346
 30
0.0
 10
4098.70838808296
 20
1653.432643514346
 30
0.0
 10
4098.70838808296
 20
1653.432643514346
 30
0.0
 10
4098.70838808296
 20
1653.432643514346
 30
0.0
 10
4098.70846799738
 20
1653.432723235736
 30
0.0
 10
4098.70846799738
 20
1653.432723235736
 30
0.0
 10
4098.70846799738
 20
1653.432723235736
 30
0.0
 10
4098.70846799738
 20
1653.432723235736
 30
0.0
 10
4098.70846799738
 20
1653.432723235736
 30
0.0
 10
4098.70846799738
 20
1653.432723235736
 30
0.0
 10
4098.70846799738
 20
1653.432723235736
 30
0.0
 10
4098.70846799738
 20
1653.432723235736
 30
0.0
 10
4098.7085479118
 20
1653.432803150156
 30
0.0
 10
4098.7085479118
 20
1653.432803150156
 30
0.0
  0
SPLINE
  5
1178
330
1F
100
AcDbEntity
  8
SANINDUSA
100
AcDbSpline
210
0.0
220
0.0
230
1.0
 70
    24
 71
     3
 72
     8
 73
     4
 74
     0
 42
0.0000000001
 43
0.0000000001
 40
0.0
 40
0.0
 40
0.0
 40
0.0
 40
1.0
 40
1.0
 40
1.0
 40
1.0
 10
4098.70830816854
 20
1653.409225500806
 30
0.0
 10
4098.70830816854
 20
1653.409225500806
 30
0.0
 10
4098.70830816854
 20
1653.432323663636
 30
0.0
 10
4098.70830816854
 20
1653.432323663636
 30
0.0
  0
SPLINE
  5
117E
330
1F
100
AcDbEntity
  8
SANINDUSA
100
AcDbSpline
210
0.0
220
0.0
230
1.0
 70
     8
 71
     3
 72
    40
 73
    36
 74
     0
 42
0.0000000001
 43
0.0000000001
 40
0.0
 40
0.0
 40
0.0
 40
0.0
 40
0.1111111111111111
 40
0.1111111111111111
 40
0.1111111111111111
 40
0.1111111111111111
 40
0.2222222222222222
 40
0.2222222222222222
 40
0.2222222222222222
 40
0.2222222222222222
 40
0.3333333333333333
 40
0.3333333333333333
 40
0.3333333333333333
 40
0.3333333333333333
 40
0.4444444444444445
 40
0.4444444444444445
 40
0.4444444444444445
 40
0.4444444444444445
 40
0.5555555555555556
 40
0.5555555555555556
 40
0.5555555555555556
 40
0.5555555555555556
 40
0.6666666666666668
 40
0.6666666666666668
 40
0.6666666666666668
 40
0.6666666666666668
 40
0.7777777777777779
 40
0.7777777777777779
 40
0.7777777777777779
 40
0.7777777777777779
 40
0.8888888888888891
 40
0.8888888888888891
 40
0.8888888888888891
 40
0.8888888888888891
 40
1.0
 40
1.0
 40
1.0
 40
1.0
 10
4098.70790859644
 20
1653.488590750456
 30
0.0
 10
4098.70790859644
 20
1653.488590750456
 30
0.0
 10
4098.70806842528
 20
1653.488910408136
 30
0.0
 10
4098.70806842528
 20
1653.488910408136
 30
0.0
 10
4098.70806842528
 20
1653.488910408136
 30
0.0
 10
4098.70806842528
 20
1653.488910408136
 30
0.0
 10
4098.7085479118
 20
1653.489709745366
 30
0.0
 10
4098.7085479118
 20
1653.489709745366
 30
0.0
 10
4098.7085479118
 20
1653.489709745366
 30
0.0
 10
4098.7085479118
 20
1653.489709745366
 30
0.0
 10
4098.70934724903
 20
1653.490988376085
 30
0.0
 10
4098.70934724903
 20
1653.490988376085
 30
0.0
 10
4098.70934724903
 20
1653.490988376085
 30
0.0
 10
4098.70934724903
 20
1653.490988376085
 30
0.0
 10
4098.71022630765
 20
1653.492746686356
 30
0.0
 10
4098.71022630765
 20
1653.492746686356
 30
0.0
 10
4098.71022630765
 20
1653.492746686356
 30
0.0
 10
4098.71022630765
 20
1653.492746686356
 30
0.0
 10
4098.71110536627
 20
1653.494744932916
 30
0.0
 10
4098.71110536627
 20
1653.494744932916
 30
0.0
 10
4098.71110536627
 20
1653.494744932916
 30
0.0
 10
4098.71110536627
 20
1653.494744932916
 30
0.0
 10
4098.71198461792
 20
1653.497142751576
 30
0.0
 10
4098.71198461792
 20
1653.497142751576
 30
0.0
 10
4098.71198461792
 20
1653.497142751576
 30
0.0
 10
4098.71198461792
 20
1653.497142751576
 30
0.0
 10
4098.71262412631
 20
1653.499860034886
 30
0.0
 10
4098.71262412631
 20
1653.499860034886
 30
0.0
 10
4098.71262412631
 20
1653.499860034886
 30
0.0
 10
4098.71262412631
 20
1653.499860034886
 30
0.0
 10
4098.71278395515
 20
1653.501218966086
 30
0.0
 10
4098.71278395515
 20
1653.501218966086
 30
0.0
 10
4098.71278395515
 20
1653.501218966086
 30
0.0
 10
4098.71278395515
 20
1653.501218966086
 30
0.0
 10
4098.71286386957
 20
1653.502577511226
 30
0.0
 10
4098.71286386957
 20
1653.502577511226
 30
0.0
  0
SPLINE
  5
1180
330
1F
100
AcDbEntity
  8
SANINDUSA
100
AcDbSpline
210
0.0
220
0.0
230
1.0
 70
     8
 71
     3
 72
    40
 73
    36
 74
     0
 42
0.0000000001
 43
0.0000000001
 40
0.0
 40
0.0
 40
0.0
 40
0.0
 40
0.1111111111111111
 40
0.1111111111111111
 40
0.1111111111111111
 40
0.1111111111111111
 40
0.2222222222222222
 40
0.2222222222222222
 40
0.2222222222222222
 40
0.2222222222222222
 40
0.3333333333333333
 40
0.3333333333333333
 40
0.3333333333333333
 40
0.3333333333333333
 40
0.4444444444444445
 40
0.4444444444444445
 40
0.4444444444444445
 40
0.4444444444444445
 40
0.5555555555555556
 40
0.5555555555555556
 40
0.5555555555555556
 40
0.5555555555555556
 40
0.6666666666666668
 40
0.6666666666666668
 40
0.6666666666666668
 40
0.6666666666666668
 40
0.7777777777777779
 40
0.7777777777777779
 40
0.7777777777777779
 40
0.7777777777777779
 40
0.8888888888888891
 40
0.8888888888888891
 40
0.8888888888888891
 40
0.8888888888888891
 40
1.0
 40
1.0
 40
1.0
 40
1.0
 10
4098.71286386957
 20
1653.502577511226
 30
0.0
 10
4098.71286386957
 20
1653.502577511226
 30
0.0
 10
4098.71278395515
 20
1653.504016163816
 30
0.0
 10
4098.71278395515
 20
1653.504016163816
 30
0.0
 10
4098.71278395515
 20
1653.504016163816
 30
0.0
 10
4098.71278395515
 20
1653.504016163816
 30
0.0
 10
4098.71262412631
 20
1653.505374901986
 30
0.0
 10
4098.71262412631
 20
1653.505374901986
 30
0.0
 10
4098.71262412631
 20
1653.505374901986
 30
0.0
 10
4098.71262412631
 20
1653.505374901986
 30
0.0
 10
4098.71198461792
 20
1653.508012463906
 30
0.0
 10
4098.71198461792
 20
1653.508012463906
 30
0.0
 10
4098.71198461792
 20
1653.508012463906
 30
0.0
 10
4098.71198461792
 20
1653.508012463906
 30
0.0
 10
4098.71110536627
 20
1653.510490003955
 30
0.0
 10
4098.71110536627
 20
1653.510490003955
 30
0.0
 10
4098.71110536627
 20
1653.510490003955
 30
0.0
 10
4098.71110536627
 20
1653.510490003955
 30
0.0
 10
4098.71022630765
 20
1653.512488250516
 30
0.0
 10
4098.71022630765
 20
1653.512488250516
 30
0.0
 10
4098.71022630765
 20
1653.512488250516
 30
0.0
 10
4098.71022630765
 20
1653.512488250516
 30
0.0
 10
4098.70934724903
 20
1653.514166646366
 30
0.0
 10
4098.70934724903
 20
1653.514166646366
 30
0.0
 10
4098.70934724903
 20
1653.514166646366
 30
0.0
 10
4098.70934724903
 20
1653.514166646366
 30
0.0
 10
4098.7085479118
 20
1653.515525384535
 30
0.0
 10
4098.7085479118
 20
1653.515525384535
 30
0.0
 10
4098.7085479118
 20
1653.515525384535
 30
0.0
 10
4098.7085479118
 20
1653.515525384535
 30
0.0
 10
4098.70806842528
 20
1653.516324721766
 30
0.0
 10
4098.70806842528
 20
1653.516324721766
 30
0.0
 10
4098.70806842528
 20
1653.516324721766
 30
0.0
 10
4098.70806842528
 20
1653.516324721766
 30
0.0
 10
4098.70790859644
 20
1653.516644379446
 30
0.0
 10
4098.70790859644
 20
1653.516644379446
 30
0.0
  0
LINE
  5
122C
330
1F
100
AcDbEntity
  8
SANINDUSA
100
AcDbLine
 10
4098.7093479118
 20
1653.566757090776
 30
0.0
 11
4098.75186646254
 21
1653.566757090776
 31
0.0
  0
LINE
  5
122E
330
1F
100
AcDbEntity
  8
SANINDUSA
100
AcDbLine
 10
4098.75266646254
 20
1653.565957090776
 30
0.0
 11
4098.75266646254
 21
1653.534627440305
 31
0.0
  0
LINE
  5
122F
330
1F
100
AcDbEntity
  8
SANINDUSA
100
AcDbLine
 10
4098.75266646254
 20
1653.534627440305
 30
0.0
 11
4098.7085479118
 21
1653.534627440305
 31
0.0
  0
LINE
  5
1230
330
1F
100
AcDbEntity
  8
SANINDUSA
100
AcDbLine
 10
4098.7085479118
 20
1653.534627440305
 30
0.0
 11
4098.7085479118
 21
1653.565957090776
 31
0.0
  0
LINE
  5
1231
330
1F
100
AcDbEntity
  8
SANINDUSA
100
AcDbLine
 10
4098.70902759135
 20
1653.534627440305
 30
0.0
 11
4098.70902759135
 21
1653.533188787715
 31
0.0
  0
LINE
  5
1232
330
1F
100
AcDbEntity
  8
SANINDUSA
100
AcDbLine
 10
4098.75218697602
 20
1653.534627440305
 30
0.0
 11
4098.75218697602
 21
1653.533188787715
 31
0.0
  0
LINE
  5
124E
330
1F
100
AcDbEntity
  8
SANINDUSA
100
AcDbLine
 10
4098.7085479118
 20
1653.515605298955
 30
0.0
 11
4098.7085479118
 21
1653.533188787715
 31
0.0
  0
LINE
  5
124F
330
1F
100
AcDbEntity
  8
SANINDUSA
100
AcDbLine
 10
4098.7085479118
 20
1653.533188787715
 30
0.0
 11
4098.75266646254
 21
1653.533188787715
 31
0.0
  0
LINE
  5
1250
330
1F
100
AcDbEntity
  8
SANINDUSA
100
AcDbLine
 10
4098.75266646254
 20
1653.533188787715
 30
0.0
 11
4098.75266646254
 21
1653.400753414105
 31
0.0
  0
LINE
  5
1251
330
1F
100
AcDbEntity
  8
SANINDUSA
100
AcDbLine
 10
4098.754224344911
 20
1653.400753414105
 30
0.0
 11
4098.706270606621
 21
1653.400753414105
 31
0.0
  0
LINE
  5
1252
330
1F
100
AcDbEntity
  8
SANINDUSA
100
AcDbLine
 10
4098.7085479118
 20
1653.400753414105
 30
0.0
 11
4098.7085479118
 21
1653.408825735676
 31
0.0
  0
LINE
  5
1253
330
1F
100
AcDbEntity
  8
SANINDUSA
100
AcDbLine
 10
4098.70567060662
 20
1653.396757114016
 30
0.0
 11
4098.70567060662
 21
1653.400153414106
 31
0.0
  0
LINE
  5
1255
330
1F
100
AcDbEntity
  8
SANINDUSA
100
AcDbLine
 10
4098.754824344911
 20
1653.400153414106
 30
0.0
 11
4098.754824344911
 21
1653.396757114016
 31
0.0
  0
LINE
  5
1256
330
1F
100
AcDbEntity
  8
SANINDUSA
100
AcDbLine
 10
4098.754824344911
 20
1653.396757114016
 30
0.0
 11
4098.70567060662
 21
1653.396757114016
 31
0.0
  0
LINE
  5
1257
330
1F
100
AcDbEntity
  8
SANINDUSA
100
AcDbLine
 10
4098.7085479118
 20
1653.432883257606
 30
0.0
 11
4098.7085479118
 21
1653.489629637916
 31
0.0
  0
LINE
  5
1258
330
1F
100
AcDbEntity
  8
SANINDUSA
100
AcDbLine
 10
4098.70790859644
 20
1653.488590750456
 30
0.0
 11
4098.70391229635
 21
1653.488590750456
 31
0.0
  0
LINE
  5
1259
330
1F
100
AcDbEntity
  8
SANINDUSA
100
AcDbLine
 10
4098.70119482001
 20
1653.488590750456
 30
0.0
 11
4098.66954465606
 21
1653.488590750456
 31
0.0
  0
LINE
  5
125A
330
1F
100
AcDbEntity
  8
SANINDUSA
100
AcDbLine
 10
4098.66954465606
 20
1653.488590750456
 30
0.0
 11
4098.626545100231
 21
1653.502577511226
 31
0.0
  0
LINE
  5
125B
330
1F
100
AcDbEntity
  8
SANINDUSA
100
AcDbLine
 10
4098.626545100231
 20
1653.502577511226
 30
0.0
 11
4098.626545100231
 21
1653.515644379446
 31
0.0
  0
LINE
  5
125C
330
1F
100
AcDbEntity
  8
SANINDUSA
100
AcDbLine
 10
4098.650340703737
 20
1653.494837351887
 30
0.0
 11
4098.64796486721
 21
1653.487551669966
 31
0.0
  0
LINE
  5
125D
330
1F
100
AcDbEntity
  8
SANINDUSA
100
AcDbLine
 10
4098.64796486721
 20
1653.487551669966
 30
0.0
 11
4098.62502653322
 21
1653.494984676176
 31
0.0
  0
LINE
  5
125E
330
1F
100
AcDbEntity
  8
SANINDUSA
100
AcDbLine
 10
4098.62502653322
 20
1653.494984676176
 30
0.0
 11
4098.627410540683
 21
1653.502296003467
 31
0.0
  0
LINE
  5
1260
330
1F
100
AcDbEntity
  8
SANINDUSA
100
AcDbLine
 10
4098.627545100231
 20
1653.516644379446
 30
0.0
 11
4098.70790859644
 21
1653.516644379446
 31
0.0
  0
LINE
  5
1261
330
1F
100
AcDbEntity
  8
SANINDUSA
100
AcDbLine
 10
4098.703592425471
 20
1653.488670664876
 30
0.0
 11
4098.701512271514
 21
1653.488670664876
 31
0.0
  0
ARC
  5
1262
330
1F
100
AcDbEntity
  8
SANINDUSA
100
AcDbCircle
 10
4098.701545374686
 20
1653.487867234776
 30
0.0
 40
0.0008039673621061
100
AcDbArc
 50
92.09476818383819
 51
115.8509148595247
  0
ARC
  5
1263
330
1F
100
AcDbEntity
  8
SANINDUSA
100
AcDbCircle
 10
4098.703585603656
 20
1653.487961379047
 30
0.0
 40
0.0007093207154264
100
AcDbArc
 50
62.53435046726998
 51
89.43173342590137
  0
LINE
  5
1288
330
1F
100
AcDbEntity
  8
SANINDUSA
100
AcDbLine
 10
4098.91307555072
 20
1653.565957090776
 30
0.0
 11
4098.91307555072
 21
1653.534627440305
 31
0.0
  0
LINE
  5
1289
330
1F
100
AcDbEntity
  8
SANINDUSA
100
AcDbLine
 10
4098.91307555072
 20
1653.534627440305
 30
0.0
 11
4098.86887689253
 21
1653.534627440305
 31
0.0
  0
LINE
  5
128A
330
1F
100
AcDbEntity
  8
SANINDUSA
100
AcDbLine
 10
4098.86887689253
 20
1653.534627440305
 30
0.0
 11
4098.86887689253
 21
1653.565957090776
 31
0.0
  0
LINE
  5
128C
330
1F
100
AcDbEntity
  8
SANINDUSA
100
AcDbLine
 10
4098.86935657208
 20
1653.534627440305
 30
0.0
 11
4098.86935657208
 21
1653.533188787715
 31
0.0
  0
LINE
  5
128D
330
1F
100
AcDbEntity
  8
SANINDUSA
100
AcDbLine
 10
4098.91259587117
 20
1653.534627440305
 30
0.0
 11
4098.91259587117
 21
1653.533188787715
 31
0.0
  0
LINE
  5
128E
330
1F
100
AcDbEntity
  8
SANINDUSA
100
AcDbLine
 10
4098.86887689253
 20
1653.400753414105
 30
0.0
 11
4098.86887689253
 21
1653.533188787715
 31
0.0
  0
LINE
  5
128F
330
1F
100
AcDbEntity
  8
SANINDUSA
100
AcDbLine
 10
4098.86887689253
 20
1653.533188787715
 30
0.0
 11
4098.91307555072
 21
1653.533188787715
 31
0.0
  0
LINE
  5
129A
330
1F
100
AcDbEntity
  8
SANINDUSA
100
AcDbLine
 10
4098.91307555072
 20
1653.533188787716
 30
0.0
 11
4098.91307555072
 21
1653.400753414105
 31
0.0
  0
LINE
  5
129B
330
1F
100
AcDbEntity
  8
SANINDUSA
100
AcDbLine
 10
4098.914953090771
 20
1653.400753414105
 30
0.0
 11
4098.86699935248
 21
1653.400753414105
 31
0.0
  0
LINE
  5
129C
330
1F
100
AcDbEntity
  8
SANINDUSA
100
AcDbLine
 10
4098.86639935248
 20
1653.396757114016
 30
0.0
 11
4098.86639935248
 21
1653.400153414106
 31
0.0
  0
LINE
  5
129E
330
1F
100
AcDbEntity
  8
SANINDUSA
100
AcDbLine
 10
4098.91555309077
 20
1653.400153414106
 30
0.0
 11
4098.91555309077
 21
1653.396757114016
 31
0.0
  0
LINE
  5
129F
330
1F
100
AcDbEntity
  8
SANINDUSA
100
AcDbLine
 10
4098.91555309077
 20
1653.396757114016
 30
0.0
 11
4098.86639935248
 21
1653.396757114016
 31
0.0
  0
LINE
  5
12C8
330
1F
100
AcDbEntity
  8
SANINDUSA
100
AcDbLine
 10
4098.86967689253
 20
1653.566757090776
 30
0.0
 11
4098.91227555072
 21
1653.566757090776
 31
0.0
  0
ARC
  5
12E7
330
1F
100
AcDbEntity
  8
SANINDUSA
100
AcDbCircle
 10
4098.7093479118
 20
1653.565957090776
 30
0.0
 40
0.0008
100
AcDbArc
 50
90.0
 51
180.0
  0
ARC
  5
12F3
330
1F
100
AcDbEntity
  8
SANINDUSA
100
AcDbCircle
 10
4098.75186646254
 20
1653.565957090776
 30
0.0
 40
0.0008
100
AcDbArc
 50
0.0
 51
90.0
  0
ARC
  5
12F4
330
1F
100
AcDbEntity
  8
SANINDUSA
100
AcDbCircle
 10
4098.86967689253
 20
1653.565957090776
 30
0.0
 40
0.0008
100
AcDbArc
 50
90.0
 51
180.0
  0
ARC
  5
12F5
330
1F
100
AcDbEntity
  8
SANINDUSA
100
AcDbCircle
 10
4098.91227555072
 20
1653.565957090776
 30
0.0
 40
0.0008
100
AcDbArc
 50
0.0
 51
90.0
  0
ARC
  5
12FC
330
1F
100
AcDbEntity
  8
SANINDUSA
100
AcDbCircle
 10
4098.627545100231
 20
1653.515644379446
 30
0.0
 40
0.001
100
AcDbArc
 50
90.0
 51
180.0
  0
ARC
  5
12FE
330
1F
100
AcDbEntity
  8
SANINDUSA
100
AcDbCircle
 10
4098.706270606621
 20
1653.400153414106
 30
0.0
 40
0.0006
100
AcDbArc
 50
90.0
 51
180.0
  0
ARC
  5
12FF
330
1F
100
AcDbEntity
  8
SANINDUSA
100
AcDbCircle
 10
4098.754224344911
 20
1653.400153414106
 30
0.0
 40
0.0006
100
AcDbArc
 50
0.0
 51
90.0
  0
ARC
  5
1300
330
1F
100
AcDbEntity
  8
SANINDUSA
100
AcDbCircle
 10
4098.86699935248
 20
1653.400153414106
 30
0.0
 40
0.0006
100
AcDbArc
 50
90.0
 51
180.0
  0
ARC
  5
1301
330
1F
100
AcDbEntity
  8
SANINDUSA
100
AcDbCircle
 10
4098.914953090771
 20
1653.400153414106
 30
0.0
 40
0.0006
100
AcDbArc
 50
0.0
 51
90.0
  0
ENDSEC
  0
SECTION
  2
OBJECTS
  0
DICTIONARY
  5
C
330
0
100
AcDbDictionary
281
     1
  3
ACAD_COLOR
350
EE6
  3
ACAD_GROUP
350
D
  3
ACAD_LAYOUT
350
1A
  3
ACAD_MATERIAL
350
EE5
  3
ACAD_MLINESTYLE
350
17
  3
ACAD_PLOTSETTINGS
350
19
  3
ACAD_PLOTSTYLENAME
350
E
  3
ACAD_TABLESTYLE
350
EE7
  3
ACDBHEADERROUNDTRIPXREC
350
1335
  3
AcDbVariableDictionary
350
3D
  3
ASE_INDEX_DICTIONARY
350
1066
  0
DICTIONARY
  5
1051
330
2
100
AcDbDictionary
280
     1
281
     1
  3
ACAD_LAYERFILTERS
360
1065
  3
ACLYDICTIONARY
360
1064
  0
DICTIONARY
  5
12C9
330
1F
100
AcDbDictionary
280
     1
281
     1
  3
ACAD_SORTENTS
360
12CA
  0
DICTIONARY
  5
EE6
102
{ACAD_REACTORS
330
C
102
}
330
C
100
AcDbDictionary
281
     1
  0
DICTIONARY
  5
D
102
{ACAD_REACTORS
330
C
102
}
330
C
100
AcDbDictionary
281
     1
  0
DICTIONARY
  5
1A
102
{ACAD_REACTORS
330
C
102
}
330
C
100
AcDbDictionary
281
     1
  3
Layout1
350
1E
  3
Layout2
350
26
  3
Model
350
22
  0
DICTIONARY
  5
EE5
102
{ACAD_REACTORS
330
C
102
}
330
C
100
AcDbDictionary
281
     1
  0
DICTIONARY
  5
17
102
{ACAD_REACTORS
330
C
102
}
330
C
100
AcDbDictionary
281
     1
  3
Standard
350
18
  0
DICTIONARY
  5
19
102
{ACAD_REACTORS
330
C
102
}
330
C
100
AcDbDictionary
281
     1
  0
ACDBDICTIONARYWDFLT
  5
E
102
{ACAD_REACTORS
330
C
102
}
330
C
100
AcDbDictionary
281
     1
  3
Normal
350
F
100
AcDbDictionaryWithDefault
340
F
  0
DICTIONARY
  5
EE7
102
{ACAD_REACTORS
330
C
102
}
330
C
100
AcDbDictionary
281
     1
  3
Standard
350
EE8
  0
DICTIONARY
  5
1335
102
{ACAD_REACTORS
330
C
102
}
330
C
100
AcDbDictionary
281
     1
  0
DICTIONARY
  5
3D
102
{ACAD_REACTORS
330
C
102
}
330
C
100
AcDbDictionary
281
     1
  3
CTABLESTYLE
350
1049
  3
DIMASSOC
350
3F
  3
HIDETEXT
350
3E
  3
PROJECTNAME
350
12A8
  0
DICTIONARY
  5
1066
102
{ACAD_REACTORS
330
C
102
}
330
C
100
AcDbDictionary
281
     1
  3
ASEBlockHierarchyIndexRecord
350
1067
1001
DCO15
1040
1602247867.484
  0
DICTIONARY
  5
1065
102
{ACAD_REACTORS
330
1051
102
}
330
1051
100
AcDbDictionary
281
     1
  0
DICTIONARY
  5
1064
102
{ACAD_REACTORS
330
1051
102
}
330
1051
100
AcDbDictionary
281
     1
1001
ACAD
1000
<All
  0
SORTENTSTABLE
  5
12CA
102
{ACAD_REACTORS
330
12C9
102
}
330
12C9
100
AcDbSortentsTable
330
1F
331
113E
  5
113E
331
1250
  5
1255
331
129C
  5
12FA
331
1261
  5
1282
331
128F
  5
129D
331
1142
  5
1142
331
1178
  5
1178
331
1251
  5
1256
331
113F
  5
113F
331
1262
  5
1283
331
1176
  5
1176
331
1252
  5
1258
331
129E
  5
12FB
331
1151
  5
1151
331
1263
  5
1284
331
1177
  5
1177
331
1253
  5
1259
331
129F
  5
12FF
331
12C8
  5
122E
331
1134
  5
1134
331
1135
  5
1135
331
1258
  5
125F
331
12FC
  5
1281
331
1255
  5
125B
331
12E7
  5
122D
331
1136
  5
1136
331
1259
  5
1260
331
1256
  5
125D
331
1137
  5
1137
331
117E
  5
117E
331
122C
  5
122C
331
125A
  5
1261
331
1288
  5
1297
331
12FE
  5
1257
331
1257
  5
125E
331
1138
  5
1138
331
125B
  5
1262
331
1289
  5
1298
331
12FF
  5
125C
331
1103
  5
1103
331
1139
  5
1139
331
1300
  5
12F9
331
1180
  5
1180
331
122E
  5
1232
331
125C
  5
1263
331
128A
  5
1299
331
12F3
  5
124E
331
1104
  5
1104
331
113A
  5
113A
331
122F
  5
124F
331
125D
  5
127C
331
1301
  5
12FE
331
1108
  5
1108
331
12F4
  5
1230
331
113B
  5
113B
331
1230
  5
1250
331
125E
  5
127E
331
128C
  5
129A
331
12F5
  5
122F
331
113C
  5
113C
331
124E
  5
1253
331
129A
  5
12F6
331
114D
  5
114D
331
1231
  5
1251
331
128D
  5
129B
331
1140
  5
1140
331
1107
  5
1107
331
113D
  5
113D
331
124F
  5
1254
331
129B
  5
12F7
331
114E
  5
114E
331
1232
  5
1252
331
1260
  5
1280
331
128E
  5
129C
331
1141
  5
1141
  0
LAYOUT
  5
1E
102
{ACAD_XDICTIONARY
360
1336
102
}
102
{ACAD_REACTORS
330
1A
102
}
330
1A
100
AcDbPlotSettings
  1

  2
Ploter HP500
  4

  6

 40
0.0
 41
0.0
 42
0.0
 43
0.0
 44
0.0
 45
0.0
 46
0.0
 47
0.0
 48
0.0
 49
0.0
140
0.0
141
0.0
142
1.0
143
1.0
 70
   688
 72
     0
 73
     0
 74
     5
  7
sanindusa.ctb
 75
    16
147
1.0
148
0.0
149
0.0
100
AcDbLayout
  1
Layout1
 70
     1
 71
     1
 10
0.0
 20
0.0
 11
420.0
 21
297.0
 12
0.0
 22
0.0
 32
0.0
 14
1.000000000000000E+20
 24
1.000000000000000E+20
 34
1.000000000000000E+20
 15
-1.000000000000000E+20
 25
-1.000000000000000E+20
 35
-1.000000000000000E+20
146
0.0
 13
0.0
 23
0.0
 33
0.0
 16
1.0
 26
0.0
 36
0.0
 17
0.0
 27
1.0
 37
0.0
 76
     0
330
1B
  0
LAYOUT
  5
26
102
{ACAD_XDICTIONARY
360
133A
102
}
102
{ACAD_REACTORS
330
1A
102
}
330
1A
100
AcDbPlotSettings
  1

  2
Ploter HP500
  4

  6

 40
0.0
 41
0.0
 42
0.0
 43
0.0
 44
0.0
 45
0.0
 46
0.0
 47
0.0
 48
0.0
 49
0.0
140
0.0
141
0.0
142
1.0
143
1.0
 70
   688
 72
     0
 73
     0
 74
     5
  7
sanindusa.ctb
 75
    16
147
1.0
148
0.0
149
0.0
100
AcDbLayout
  1
Layout2
 70
     1
 71
     2
 10
0.0
 20
0.0
 11
12.0
 21
9.0
 12
0.0
 22
0.0
 32
0.0
 14
0.0
 24
0.0
 34
0.0
 15
0.0
 25
0.0
 35
0.0
146
0.0
 13
0.0
 23
0.0
 33
0.0
 16
1.0
 26
0.0
 36
0.0
 17
0.0
 27
1.0
 37
0.0
 76
     0
330
23
  0
LAYOUT
  5
22
102
{ACAD_XDICTIONARY
360
1338
102
}
102
{ACAD_REACTORS
330
1A
102
}
330
1A
100
AcDbPlotSettings
  1

  2
Ploter HP500
  4
User268
  6

 40
4.995333194732666
 41
16.97565841674804
 42
4.995330810546875
 43
16.97567749023437
 44
209.9733276367187
 45
296.9259948730469
 46
0.0
 47
0.0
 48
0.0
 49
0.0
140
0.0
141
0.0
142
1.0
143
1.0
 70
 11952
 72
     1
 73
     1
 74
     0
  7
sanindusa.ctb
 75
     0
147
1.0
148
-427.5957866592534
149
7.362384574453926
100
AcDbLayout
  1
Model
 70
     1
 71
     0
 10
0.0
 20
0.0
 11
12.0
 21
9.0
 12
0.0
 22
0.0
 32
0.0
 14
0.0
 24
0.0
 34
0.0
 15
0.0
 25
0.0
 35
0.0
146
0.0
 13
0.0
 23
0.0
 33
0.0
 16
1.0
 26
0.0
 36
0.0
 17
0.0
 27
1.0
 37
0.0
 76
     0
330
1F
  0
MLINESTYLE
  5
18
102
{ACAD_REACTORS
330
17
102
}
330
17
100
AcDbMlineStyle
  2
STANDARD
 70
     0
  3

 62
   256
 51
90.0
 52
90.0
 71
     2
 49
0.5
 62
   256
  6
BYLAYER
 49
-0.5
 62
   256
  6
BYLAYER
  0
ACDBPLACEHOLDER
  5
F
102
{ACAD_REACTORS
330
E
102
}
330
E
  0
TABLESTYLE
  5
EE8
102
{ACAD_REACTORS
330
EE7
102
}
330
EE7
100
AcDbTableStyle
  3
Standard
 70
     0
 71
     0
 40
1.5
 41
1.5
280
     0
281
     0
  7
Standard
140
4.5
170
     2
 62
     0
 63
     7
283
     0
274
    -2
284
     1
 64
     0
275
    -2
285
     1
 65
     0
276
    -2
286
     1
 66
     0
277
    -2
287
     1
 67
     0
278
    -2
288
     1
 68
     0
279
    -2
289
     1
 69
     0
  7
Standard
140
6.0
170
     5
 62
     0
 63
     7
283
     0
274
    -2
284
     1
 64
     0
275
    -2
285
     1
 65
     0
276
    -2
286
     1
 66
     0
277
    -2
287
     1
 67
     0
278
    -2
288
     1
 68
     0
279
    -2
289
     1
 69
     0
  7
Standard
140
4.5
170
     5
 62
     0
 63
     7
283
     0
274
    -2
284
     1
 64
     0
275
    -2
285
     1
 65
     0
276
    -2
286
     1
 66
     0
277
    -2
287
     1
 67
     0
278
    -2
288
     1
 68
     0
279
    -2
289
     1
 69
     0
  0
DICTIONARYVAR
  5
1049
102
{ACAD_REACTORS
330
3D
102
}
330
3D
100
DictionaryVariables
280
     0
  1
STANDARD
  0
DICTIONARYVAR
  5
3F
102
{ACAD_REACTORS
330
3D
102
}
330
3D
100
DictionaryVariables
280
     0
  1
2
  0
DICTIONARYVAR
  5
3E
102
{ACAD_REACTORS
330
3D
102
}
330
3D
100
DictionaryVariables
280
     0
  1
1
  0
DICTIONARYVAR
  5
12A8
102
{ACAD_REACTORS
330
3D
102
}
330
3D
100
DictionaryVariables
280
     0
  1

  0
XRECORD
  5
1067
102
{ACAD_REACTORS
330
1066
102
}
330
1066
100
AcDbXrecord
280
     1
  0
DICTIONARY
  5
1336
330
1E
100
AcDbDictionary
280
     1
281
     1
  3
ACAD_XREC_ROUNDTRIP
360
1337
  0
DICTIONARY
  5
133A
330
26
100
AcDbDictionary
280
     1
281
     1
  3
ACAD_XREC_ROUNDTRIP
360
133B
  0
DICTIONARY
  5
1338
330
22
100
AcDbDictionary
280
     1
281
     1
  3
ACAD_XREC_ROUNDTRIP
360
1339
  0
XRECORD
  5
1337
102
{ACAD_REACTORS
330
1336
102
}
330
1336
100
AcDbXrecord
280
     1
102
SHADEPLOT
 70
     0
102
SHADEPLOTRESLEVEL
 70
     2
102
SHADEPLOTCUSTOMDPI
 70
   300
  0
XRECORD
  5
133B
102
{ACAD_REACTORS
330
133A
102
}
330
133A
100
AcDbXrecord
280
     1
102
SHADEPLOT
 70
     0
102
SHADEPLOTRESLEVEL
 70
     2
102
SHADEPLOTCUSTOMDPI
 70
   300
  0
XRECORD
  5
1339
102
{ACAD_REACTORS
330
1338
102
}
330
1338
100
AcDbXrecord
280
     1
102
SHADEPLOT
 70
     0
102
SHADEPLOTRESLEVEL
 70
     2
102
SHADEPLOTCUSTOMDPI
 70
   300
  0
ENDSEC
  0
EOF
