  0
SECTION
  2
HEADER
  9
$ACADVER
  1
AC1015
  9
$ACADMAINTVER
 70
    20
  9
$DWGCODEPAGE
  3
ANSI_1252
  9
$INSBASE
 10
0.0
 20
0.0
 30
0.0
  9
$EXTMIN
 10
3992.30001663197
 20
1718.002271755665
 30
0.0
  9
$EXTMAX
 10
3992.61458804024
 20
1718.18617690529
 30
0.0
  9
$LIMMIN
 10
0.0
 20
0.0
  9
$LIMMAX
 10
420.0
 20
297.0
  9
$ORTHOMODE
 70
     0
  9
$REGENMODE
 70
     1
  9
$FILLMODE
 70
     1
  9
$QTEXTMODE
 70
     0
  9
$MIRRTEXT
 70
     1
  9
$LTSCALE
 40
1.0
  9
$ATTMODE
 70
     1
  9
$TEXTSIZE
 40
2.5
  9
$TRACEWID
 40
1.0
  9
$TEXTSTYLE
  7
SANINDUSA
  9
$CLAYER
  8
cotas
  9
$CELTYPE
  6
ByLayer
  9
$CECOLOR
 62
   256
  9
$CELTSCALE
 40
1.0
  9
$DISPSILH
 70
     0
  9
$DIMSCALE
 40
1.0
  9
$DIMASZ
 40
2.0
  9
$DIMEXO
 40
1.0
  9
$DIMDLI
 40
1.0
  9
$DIMRND
 40
0.0
  9
$DIMDLE
 40
0.0
  9
$DIMEXE
 40
1.0
  9
$DIMTP
 40
0.0
  9
$DIMTM
 40
0.0
  9
$DIMTXT
 40
2.0
  9
$DIMCEN
 40
0.0
  9
$DIMTSZ
 40
0.0
  9
$DIMTOL
 70
     0
  9
$DIMLIM
 70
     0
  9
$DIMTIH
 70
     0
  9
$DIMTOH
 70
     0
  9
$DIMSE1
 70
     0
  9
$DIMSE2
 70
     0
  9
$DIMTAD
 70
     1
  9
$DIMZIN
 70
     8
  9
$DIMBLK
  1

  9
$DIMASO
 70
     1
  9
$DIMSHO
 70
     1
  9
$DIMPOST
  1

  9
$DIMAPOST
  1

  9
$DIMALT
 70
     0
  9
$DIMALTD
 70
     3
  9
$DIMALTF
 40
0.03937007874016
  9
$DIMLFAC
 40
1.0
  9
$DIMTOFL
 70
     1
  9
$DIMTVP
 40
0.0
  9
$DIMTIX
 70
     0
  9
$DIMSOXD
 70
     0
  9
$DIMSAH
 70
     0
  9
$DIMBLK1
  1

  9
$DIMBLK2
  1

  9
$DIMSTYLE
  2
SANINDUSA
  9
$DIMCLRD
 70
   256
  9
$DIMCLRE
 70
   256
  9
$DIMCLRT
 70
   256
  9
$DIMTFAC
 40
1.0
  9
$DIMGAP
 40
1.0
  9
$DIMJUST
 70
     0
  9
$DIMSD1
 70
     0
  9
$DIMSD2
 70
     0
  9
$DIMTOLJ
 70
     0
  9
$DIMTZIN
 70
     8
  9
$DIMALTZ
 70
     0
  9
$DIMALTTZ
 70
     0
  9
$DIMUPT
 70
     0
  9
$DIMDEC
 70
     1
  9
$DIMTDEC
 70
     1
  9
$DIMALTU
 70
     2
  9
$DIMALTTD
 70
     3
  9
$DIMTXSTY
  7
SANINDUSA
  9
$DIMAUNIT
 70
     0
  9
$DIMADEC
 70
     1
  9
$DIMALTRND
 40
0.0
  9
$DIMAZIN
 70
     0
  9
$DIMDSEP
 70
    44
  9
$DIMATFIT
 70
     3
  9
$DIMFRAC
 70
     0
  9
$DIMLDRBLK
  1

  9
$DIMLUNIT
 70
     2
  9
$DIMLWD
 70
    -1
  9
$DIMLWE
 70
    -1
  9
$DIMTMOVE
 70
     0
  9
$LUNITS
 70
     2
  9
$LUPREC
 70
     4
  9
$SKETCHINC
 40
1.0
  9
$FILLETRAD
 40
3.0
  9
$AUNITS
 70
     0
  9
$AUPREC
 70
     0
  9
$MENU
  1
.
  9
$ELEVATION
 40
0.0
  9
$PELEVATION
 40
0.0
  9
$THICKNESS
 40
0.0
  9
$LIMCHECK
 70
     0
  9
$CHAMFERA
 40
10.0
  9
$CHAMFERB
 40
10.0
  9
$CHAMFERC
 40
20.0
  9
$CHAMFERD
 40
0.0
  9
$SKPOLY
 70
     0
  9
$TDCREATE
 40
2454520.655429687
  9
$TDUCREATE
 40
2454520.655429687
  9
$TDUPDATE
 40
2454520.659527269
  9
$TDUUPDATE
 40
2454520.659527269
  9
$TDINDWG
 40
0.0040977546
  9
$TDUSRTIMER
 40
0.0040977546
  9
$USRTIMER
 70
     1
  9
$ANGBASE
 50
0.0
  9
$ANGDIR
 70
     0
  9
$PDMODE
 70
     0
  9
$PDSIZE
 40
0.0
  9
$PLINEWID
 40
0.0
  9
$SPLFRAME
 70
     0
  9
$SPLINETYPE
 70
     6
  9
$SPLINESEGS
 70
     8
  9
$HANDSEED
  5
11EA
  9
$SURFTAB1
 70
     6
  9
$SURFTAB2
 70
     6
  9
$SURFTYPE
 70
     6
  9
$SURFU
 70
     6
  9
$SURFV
 70
     6
  9
$UCSBASE
  2

  9
$UCSNAME
  2

  9
$UCSORG
 10
0.0
 20
0.0
 30
0.0
  9
$UCSXDIR
 10
1.0
 20
0.0
 30
0.0
  9
$UCSYDIR
 10
0.0
 20
1.0
 30
0.0
  9
$UCSORTHOREF
  2

  9
$UCSORTHOVIEW
 70
     0
  9
$UCSORGTOP
 10
0.0
 20
0.0
 30
0.0
  9
$UCSORGBOTTOM
 10
0.0
 20
0.0
 30
0.0
  9
$UCSORGLEFT
 10
0.0
 20
0.0
 30
0.0
  9
$UCSORGRIGHT
 10
0.0
 20
0.0
 30
0.0
  9
$UCSORGFRONT
 10
0.0
 20
0.0
 30
0.0
  9
$UCSORGBACK
 10
0.0
 20
0.0
 30
0.0
  9
$PUCSBASE
  2

  9
$PUCSNAME
  2

  9
$PUCSORG
 10
0.0
 20
0.0
 30
0.0
  9
$PUCSXDIR
 10
1.0
 20
0.0
 30
0.0
  9
$PUCSYDIR
 10
0.0
 20
1.0
 30
0.0
  9
$PUCSORTHOREF
  2

  9
$PUCSORTHOVIEW
 70
     0
  9
$PUCSORGTOP
 10
0.0
 20
0.0
 30
0.0
  9
$PUCSORGBOTTOM
 10
0.0
 20
0.0
 30
0.0
  9
$PUCSORGLEFT
 10
0.0
 20
0.0
 30
0.0
  9
$PUCSORGRIGHT
 10
0.0
 20
0.0
 30
0.0
  9
$PUCSORGFRONT
 10
0.0
 20
0.0
 30
0.0
  9
$PUCSORGBACK
 10
0.0
 20
0.0
 30
0.0
  9
$USERI1
 70
     0
  9
$USERI2
 70
     0
  9
$USERI3
 70
     0
  9
$USERI4
 70
     0
  9
$USERI5
 70
     0
  9
$USERR1
 40
0.0
  9
$USERR2
 40
0.0
  9
$USERR3
 40
0.0
  9
$USERR4
 40
0.0
  9
$USERR5
 40
0.0
  9
$WORLDVIEW
 70
     1
  9
$SHADEDGE
 70
     3
  9
$SHADEDIF
 70
    70
  9
$TILEMODE
 70
     1
  9
$MAXACTVP
 70
    64
  9
$PINSBASE
 10
0.0
 20
0.0
 30
0.0
  9
$PLIMCHECK
 70
     0
  9
$PEXTMIN
 10
1.000000000000000E+20
 20
1.000000000000000E+20
 30
1.000000000000000E+20
  9
$PEXTMAX
 10
-1.000000000000000E+20
 20
-1.000000000000000E+20
 30
-1.000000000000000E+20
  9
$PLIMMIN
 10
0.0
 20
0.0
  9
$PLIMMAX
 10
420.0
 20
297.0
  9
$UNITMODE
 70
     0
  9
$VISRETAIN
 70
     1
  9
$PLINEGEN
 70
     0
  9
$PSLTSCALE
 70
     1
  9
$TREEDEPTH
 70
  3020
  9
$CMLSTYLE
  2
Standard
  9
$CMLJUST
 70
     0
  9
$CMLSCALE
 40
20.0
  9
$PROXYGRAPHICS
 70
     1
  9
$MEASUREMENT
 70
     1
  9
$CELWEIGHT
370
    -1
  9
$ENDCAPS
280
     0
  9
$JOINSTYLE
280
     0
  9
$LWDISPLAY
290
     0
  9
$INSUNITS
 70
     4
  9
$HYPERLINKBASE
  1

  9
$STYLESHEET
  1
sanindusa.ctb
  9
$XEDIT
290
     1
  9
$CEPSNTYPE
380
     0
  9
$PSTYLEMODE
290
     1
  9
$FINGERPRINTGUID
  2
{36D8CF7C-29FF-4DD8-9AD0-A9772585BEC0}
  9
$VERSIONGUID
  2
{4B90194E-98E1-4103-AD05-D1338676A970}
  9
$EXTNAMES
290
     1
  9
$PSVPSCALE
 40
0.0
  9
$OLESTARTUP
290
     0
  0
ENDSEC
  0
SECTION
  2
CLASSES
  0
CLASS
  1
ACDBDICTIONARYWDFLT
  2
AcDbDictionaryWithDefault
  3
ObjectDBX Classes
 90
        0
280
     0
281
     0
  0
CLASS
  1
ACDBPLACEHOLDER
  2
AcDbPlaceHolder
  3
ObjectDBX Classes
 90
        0
280
     0
281
     0
  0
CLASS
  1
LAYOUT
  2
AcDbLayout
  3
ObjectDBX Classes
 90
        0
280
     0
281
     0
  0
CLASS
  1
DICTIONARYVAR
  2
AcDbDictionaryVar
  3
ObjectDBX Classes
 90
        0
280
     0
281
     0
  0
CLASS
  1
DIMASSOC
  2
AcDbDimAssoc
  3
"AcDbDimAssoc|Product Desc:     AcDim ARX App For Dimension|Company:          Autodesk, Inc.|WEB Address:      www.autodesk.com"
 90
        0
280
     0
281
     0
  0
CLASS
  1
TABLESTYLE
  2
AcDbTableStyle
  3
ObjectDBX Classes
 90
     2047
280
     0
281
     0
  0
ENDSEC
  0
SECTION
  2
TABLES
  0
TABLE
  2
VPORT
  5
8
330
0
100
AcDbSymbolTable
 70
     7
  0
VPORT
  5
11E2
330
8
100
AcDbSymbolTableRecord
100
AcDbViewportTableRecord
  2
*Active
 70
     0
 10
0.0
 20
0.0
 11
1.0
 21
1.0
 12
3992.457302336105
 22
1718.094224330477
 13
0.0
 23
0.0
 14
10.0
 24
10.0
 15
10.0
 25
10.0
 16
0.0
 26
0.0
 36
1.0
 17
0.0
 27
0.0
 37
0.0
 40
0.2011059187968183
 41
1.570149253731343
 42
50.0
 43
0.0
 44
0.0
 50
0.0
 51
0.0
 71
     0
 72
   100
 73
     1
 74
     2
 75
     0
 76
     0
 77
     0
 78
     0
281
     0
 65
     1
110
0.0
120
0.0
130
0.0
111
1.0
121
0.0
131
0.0
112
0.0
122
1.0
132
0.0
 79
     0
146
0.0
  0
ENDTAB
  0
TABLE
  2
LTYPE
  5
5
330
0
100
AcDbSymbolTable
 70
     6
  0
LTYPE
  5
14
330
5
100
AcDbSymbolTableRecord
100
AcDbLinetypeTableRecord
  2
ByBlock
 70
     0
  3

 72
    65
 73
     0
 40
0.0
  0
LTYPE
  5
15
330
5
100
AcDbSymbolTableRecord
100
AcDbLinetypeTableRecord
  2
ByLayer
 70
     0
  3

 72
    65
 73
     0
 40
0.0
  0
LTYPE
  5
16
330
5
100
AcDbSymbolTableRecord
100
AcDbLinetypeTableRecord
  2
Continuous
 70
     0
  3
Solid line
 72
    65
 73
     0
 40
0.0
  0
LTYPE
  5
2D
330
5
100
AcDbSymbolTableRecord
100
AcDbLinetypeTableRecord
  2
DASHDOT
 70
     0
  3
Dash dot __ . __ . __ . __ . __ . __ . __ . __
 72
    65
 73
     4
 40
25.4
 49
12.7
 74
     0
 49
-6.349999999999999
 74
     0
 49
0.0
 74
     0
 49
-6.349999999999999
 74
     0
  0
LTYPE
  5
2E
330
5
100
AcDbSymbolTableRecord
100
AcDbLinetypeTableRecord
  2
HIDDEN
 70
     0
  3
Hidden __ __ __ __ __ __ __ __ __ __ __ __ __ _
 72
    65
 73
     2
 40
9.524999999999998
 49
6.349999999999999
 74
     0
 49
-3.174999999999999
 74
     0
  0
LTYPE
  5
C75
330
5
100
AcDbSymbolTableRecord
100
AcDbLinetypeTableRecord
  2
AM_ISO02W050
 70
     0
  3
__ __ __ __ __ __ __ __ __ __ __ __ __ __ __
 72
    65
 73
     2
 40
7.5
 49
6.0
 74
     0
 49
-1.5
 74
     0
  0
LTYPE
  5
C76
330
5
100
AcDbSymbolTableRecord
100
AcDbLinetypeTableRecord
  2
AM_ISO08W050
 70
     0
  3
____ . ____ . ____ . ____ . ____ . ____ . ____
 72
    65
 73
     4
 40
18.0
 49
12.0
 74
     0
 49
-1.5
 74
     0
 49
3.0
 74
     0
 49
-1.5
 74
     0
  0
ENDTAB
  0
TABLE
  2
LAYER
  5
2
102
{ACAD_XDICTIONARY
360
1051
102
}
330
0
100
AcDbSymbolTable
 70
    18
  0
LAYER
  5
10
330
2
100
AcDbSymbolTableRecord
100
AcDbLayerTableRecord
  2
0
 70
     0
 62
     7
  6
Continuous
370
    -3
390
F
  0
LAYER
  5
2F
330
2
100
AcDbSymbolTableRecord
100
AcDbLayerTableRecord
  2
1
 70
     0
 62
     1
  6
Continuous
370
    -3
390
F
  0
LAYER
  5
30
330
2
100
AcDbSymbolTableRecord
100
AcDbLayerTableRecord
  2
2
 70
     0
 62
     2
  6
Continuous
370
    -3
390
F
  0
LAYER
  5
31
330
2
100
AcDbSymbolTableRecord
100
AcDbLayerTableRecord
  2
3
 70
     0
 62
     3
  6
Continuous
370
    -3
390
F
  0
LAYER
  5
32
330
2
100
AcDbSymbolTableRecord
100
AcDbLayerTableRecord
  2
4
 70
     0
 62
     4
  6
Continuous
370
    -3
390
F
  0
LAYER
  5
33
330
2
100
AcDbSymbolTableRecord
100
AcDbLayerTableRecord
  2
5
 70
     0
 62
     5
  6
Continuous
370
    -3
390
F
  0
LAYER
  5
34
330
2
100
AcDbSymbolTableRecord
100
AcDbLayerTableRecord
  2
6
 70
     0
 62
     6
  6
Continuous
370
    -3
390
F
  0
LAYER
  5
35
330
2
100
AcDbSymbolTableRecord
100
AcDbLayerTableRecord
  2
7
 70
     0
 62
     7
  6
Continuous
370
    -3
390
F
  0
LAYER
  5
36
330
2
100
AcDbSymbolTableRecord
100
AcDbLayerTableRecord
  2
cen
 70
     0
 62
     7
  6
DASHDOT
370
    -3
390
F
  0
LAYER
  5
37
330
2
100
AcDbSymbolTableRecord
100
AcDbLayerTableRecord
  2
hid
 70
     0
 62
     7
  6
HIDDEN
370
    -3
390
F
  0
LAYER
  5
5D6
330
2
100
AcDbSymbolTableRecord
100
AcDbLayerTableRecord
  2
hatch
 70
     0
 62
     9
  6
Continuous
370
    -3
390
F
  0
LAYER
  5
8AF
330
2
100
AcDbSymbolTableRecord
100
AcDbLayerTableRecord
  2
9
 70
     0
 62
     9
  6
Continuous
370
    -3
390
F
  0
LAYER
  5
8F8
330
2
100
AcDbSymbolTableRecord
100
AcDbLayerTableRecord
  2
leg fin
 70
     0
 62
     9
  6
Continuous
370
    -3
390
F
  0
LAYER
  5
91D
330
2
100
AcDbSymbolTableRecord
100
AcDbLayerTableRecord
  2
cotas
 70
     0
 62
     1
  6
Continuous
370
    -3
390
F
  0
LAYER
  5
92F
330
2
100
AcDbSymbolTableRecord
100
AcDbLayerTableRecord
  2
Defpoints
 70
     0
 62
     7
  6
Continuous
290
     0
370
    -3
390
F
  0
LAYER
  5
C7B
330
2
100
AcDbSymbolTableRecord
100
AcDbLayerTableRecord
  2
SANINDUSA
 70
     0
 62
     3
  6
Continuous
370
    -3
390
F
  0
LAYER
  5
1060
330
2
100
AcDbSymbolTableRecord
100
AcDbLayerTableRecord
  2
hid1
 70
     0
 62
     9
  6
HIDDEN
370
    -3
390
F
1001
AcAecLayerStandard
1000

1000

  0
LAYER
  5
1070
330
2
100
AcDbSymbolTableRecord
100
AcDbLayerTableRecord
  2
Foreground
 70
     0
 62
     7
  6
Continuous
370
    -3
390
F
  0
ENDTAB
  0
TABLE
  2
STYLE
  5
3
330
0
100
AcDbSymbolTable
 70
     4
  0
STYLE
  5
11
330
3
100
AcDbSymbolTableRecord
100
AcDbTextStyleTableRecord
  2
Standard
 70
     0
 40
0.0
 41
1.0
 50
0.0
 71
     0
 42
2.5
  3
Avgardn.ttf
  4

1001
ACAD
1000
AvantGarde Bk BT
1071
       34
  0
STYLE
  5
2C
330
3
100
AcDbSymbolTableRecord
100
AcDbTextStyleTableRecord
  2

 70
     1
 40
0.0
 41
1.0
 50
0.0
 71
     0
 42
2.5
  3
ltypeshp.shx
  4

  0
STYLE
  5
91F
330
3
100
AcDbSymbolTableRecord
100
AcDbTextStyleTableRecord
  2
SANINDUSA
 70
     0
 40
0.0
 41
1.0
 50
0.0
 71
     0
 42
2.5
  3
verdana.TTF
  4

1001
ACAD
1000
Verdana
1071
       34
  0
STYLE
  5
C7C
330
3
100
AcDbSymbolTableRecord
100
AcDbTextStyleTableRecord
  2
futura
 70
     0
 40
0.0
 41
1.0
 50
0.0
 71
     0
 42
2.5
  3
ZURCHN.TTF
  4

1001
ACAD
1000
Zurich BT
1071
       34
  0
ENDTAB
  0
TABLE
  2
VIEW
  5
6
330
0
100
AcDbSymbolTable
 70
     0
  0
ENDTAB
  0
TABLE
  2
UCS
  5
7
330
0
100
AcDbSymbolTable
 70
     0
  0
ENDTAB
  0
TABLE
  2
APPID
  5
9
330
0
100
AcDbSymbolTable
 70
    12
  0
APPID
  5
12
330
9
100
AcDbSymbolTableRecord
100
AcDbRegAppTableRecord
  2
ACAD
 70
     0
  0
APPID
  5
3A
330
9
100
AcDbSymbolTableRecord
100
AcDbRegAppTableRecord
  2
DCO15
 70
     0
  0
APPID
  5
EEE
330
9
100
AcDbSymbolTableRecord
100
AcDbRegAppTableRecord
  2
ACAD_DSTYLE_DIMTEXT_FILL
 70
     0
  0
APPID
  5
EEF
330
9
100
AcDbSymbolTableRecord
100
AcDbRegAppTableRecord
  2
ACAD_DSTYLE_DIMEXT_LENGTH
 70
     0
  0
APPID
  5
EF0
330
9
100
AcDbSymbolTableRecord
100
AcDbRegAppTableRecord
  2
ACAD_DSTYLE_DIMEXT_ENABLED
 70
     0
  0
APPID
  5
EF1
330
9
100
AcDbSymbolTableRecord
100
AcDbRegAppTableRecord
  2
ACAD_DSTYLE_DIM_LINETYPE
 70
     0
  0
APPID
  5
EF2
330
9
100
AcDbSymbolTableRecord
100
AcDbRegAppTableRecord
  2
ACAD_DSTYLE_DIM_EXT1_LINETYPE
 70
     0
  0
APPID
  5
EF3
330
9
100
AcDbSymbolTableRecord
100
AcDbRegAppTableRecord
  2
ACAD_DSTYLE_DIM_EXT2_LINETYPE
 70
     0
  0
APPID
  5
FAF
330
9
100
AcDbSymbolTableRecord
100
AcDbRegAppTableRecord
  2
ACAD_DSTYLE_DIMJOGGED_JOGANGLE_SYMBOL
 70
     0
  0
APPID
  5
1013
330
9
100
AcDbSymbolTableRecord
100
AcDbRegAppTableRecord
  2
ACAD_DSTYLE_DIMARC_LENGTH_SYMBOL
 70
     0
  0
APPID
  5
1061
330
9
100
AcDbSymbolTableRecord
100
AcDbRegAppTableRecord
  2
AcAecLayerStandard
 70
     0
  0
APPID
  5
1195
330
9
100
AcDbSymbolTableRecord
100
AcDbRegAppTableRecord
  2
ACAD_EXEMPT_FROM_CAD_STANDARDS
 70
     0
  0
ENDTAB
  0
TABLE
  2
DIMSTYLE
  5
A
330
0
100
AcDbSymbolTable
 70
     4
100
AcDbDimStyleTable
 71
     1
340
921
  0
DIMSTYLE
105
45
330
A
100
AcDbSymbolTableRecord
100
AcDbDimStyleTableRecord
  2
STANDARD
 70
     0
289
     0
340
11
  0
DIMSTYLE
105
921
330
A
100
AcDbSymbolTableRecord
100
AcDbDimStyleTableRecord
  2
SANINDUSA
 70
     0
 41
2.0
 42
1.0
 43
1.0
 44
1.0
 73
     0
 74
     0
 77
     1
 78
     8
140
2.0
141
0.0
143
0.03937007874016
147
1.0
171
     3
172
     1
176
   256
177
   256
178
   256
179
     1
271
     1
272
     1
274
     3
278
    44
283
     0
284
     8
340
91F
371
    -1
372
    -1
1001
ACAD_DSTYLE_DIMEXT_LENGTH
1070
   378
1040
1.0
1001
ACAD_DSTYLE_DIMEXT_ENABLED
1070
   383
1070
     0
1001
ACAD_DSTYLE_DIMARC_LENGTH_SYMBOL
1070
   379
1070
     0
1001
ACAD_DSTYLE_DIMJOGGED_JOGANGLE_SYMBOL
1070
   384
1040
1.570796326794896
  0
DIMSTYLE
105
C7D
330
A
100
AcDbSymbolTableRecord
100
AcDbDimStyleTableRecord
  2
AM_ISO
 70
     0
  4
"
 41
2.5
 42
1.0
 43
10.0
 44
1.0
 47
0.1
 48
0.1
 73
     0
 74
     0
 77
     1
 78
     8
 79
     2
140
3.5
141
0.0
143
0.0393701
146
0.71
147
1.5
172
     1
176
   256
177
   256
178
     2
271
     2
272
     3
274
     4
283
     0
284
     8
340
11
371
    -1
372
    -1
  0
ENDTAB
  0
TABLE
  2
BLOCK_RECORD
  5
1
330
0
100
AcDbSymbolTable
 70
    11
  0
BLOCK_RECORD
  5
1F
330
1
100
AcDbSymbolTableRecord
100
AcDbBlockTableRecord
  2
*Model_Space
340
22
  0
BLOCK_RECORD
  5
1B
330
1
100
AcDbSymbolTableRecord
100
AcDbBlockTableRecord
  2
*Paper_Space
340
1E
  0
BLOCK_RECORD
  5
23
330
1
100
AcDbSymbolTableRecord
100
AcDbBlockTableRecord
  2
*Paper_Space0
340
26
  0
BLOCK_RECORD
  5
919
330
1
100
AcDbSymbolTableRecord
100
AcDbBlockTableRecord
  2
_DotSmall
340
0
  0
BLOCK_RECORD
  5
922
330
1
100
AcDbSymbolTableRecord
100
AcDbBlockTableRecord
  2
base para cotas
340
0
310
2800000020000000200000000100080000000000000400000000000000000000000000000000000000000000000080000080000000808000800000008000800080800000C0C0C000C0DCC000F0CAA6000020400000206000002080000020A0000020C0000020E00000400000004020000040400000406000004080000040A0
310
000040C0000040E00000600000006020000060400000606000006080000060A0000060C0000060E00000800000008020000080400000806000008080000080A0000080C0000080E00000A0000000A0200000A0400000A0600000A0800000A0A00000A0C00000A0E00000C0000000C0200000C0400000C0600000C0800000C0
310
A00000C0C00000C0E00000E0000000E0200000E0400000E0600000E0800000E0A00000E0C00000E0E00040000000400020004000400040006000400080004000A0004000C0004000E00040200000402020004020400040206000402080004020A0004020C0004020E000404000004040200040404000404060004040800040
310
40A0004040C0004040E00040600000406020004060400040606000406080004060A0004060C0004060E00040800000408020004080400040806000408080004080A0004080C0004080E00040A0000040A0200040A0400040A0600040A0800040A0A00040A0C00040A0E00040C0000040C0200040C0400040C0600040C08000
310
40C0A00040C0C00040C0E00040E0000040E0200040E0400040E0600040E0800040E0A00040E0C00040E0E00080000000800020008000400080006000800080008000A0008000C0008000E00080200000802020008020400080206000802080008020A0008020C0008020E00080400000804020008040400080406000804080
310
008040A0008040C0008040E00080600000806020008060400080606000806080008060A0008060C0008060E00080800000808020008080400080806000808080008080A0008080C0008080E00080A0000080A0200080A0400080A0600080A0800080A0A00080A0C00080A0E00080C0000080C0200080C0400080C0600080C0
310
800080C0A00080C0C00080C0E00080E0000080E0200080E0400080E0600080E0800080E0A00080E0C00080E0E000C0000000C0002000C0004000C0006000C0008000C000A000C000C000C000E000C0200000C0202000C0204000C0206000C0208000C020A000C020C000C020E000C0400000C0402000C0404000C0406000C0
310
408000C040A000C040C000C040E000C0600000C0602000C0604000C0606000C0608000C060A000C060C000C060E000C0800000C0802000C0804000C0806000C0808000C080A000C080C000C080E000C0A00000C0A02000C0A04000C0A06000C0A08000C0A0A000C0A0C000C0A0E000C0C00000C0C02000C0C04000C0C06000
310
C0C08000C0C0A000F0FBFF00A4A0A000808080000000FF0000FF000000FFFF00FF000000FF00FF00FFFF0000FFFFFF00A4A4A4A4A4A4A4A4A4A4A4A4A4A4A4A4A4A4A4A4A4A4A4A4A4A4A4A4A4A4A4A4A4A4A4A4A4A4A4A4A4A4A4A4A4A4A4A4A4A4A4A4A4A4A4A4A4A4A4A4A4A4A4A4A4A4A4A4A4A4A4A4A4A4A4A4A4A4A4
310
A4A4A4A4A4A4A4A4A4A4A4A4A4A4A4A4A4A4A4A4A4A4A4A4A4A4A4A4A4A4A4A4A4A4A4A4A4A4A4A4A4A4A4A4A4A4A4A4A4A4A4A4A4A4A4A4A4A4A4A4A4A4A4A4A4A4A4A4A4A4A4A4A4A4A4A4A4A4A4A4A4A4A4A4A4A4A4A4A4A4A4A4A4A4A4A4A4A4A4A4A4A4A4A4A4A4A4A4A4A4A4A4A4A4A4A4A4A4A4A4A4A4A4A4A4A4A4
310
A4A4A4A4A4A4A4A4A4A4A4A4A4A4A4A4A4A4A4A4A4A4A4A4A4A4A4A4A4A4A4A4A4A4A4A4A4A4A4A4A4A4A4A4A4A4A4A4A4A4A4A4A4A4A4A4A4A4A4A4A4A4A4A4A4A4A4A4A4A4A4A4A4A4A4A4A4A4A4A4A4A4A4A4A4A4A4A4A4A4A4A4A4A4A4A4A4A4A4A4A4A4A4A4A4A4A4A4A4A4A4A4A4A4A4A4A4A4A4A4A4A4A4A4A4A4A4
310
A4A4A4A4A4A4A4A4A4A4A4A4A4A4A4A4A4A4A4A4A4A4A4A4A4A4A4A4A4A4A4A4A4A4A4A4A4A4A4A4A4A4A4A4A4A4A4A4A4A4A4A4A4A4A4A4A4A4A4A4A4A4A4A4A4A4A4A4A4A4A4A4A4A4A4A4A4A4A4A4A4A4A4A4A4A4A4A4A4A4A4A4A4A4A4A4A4A4A4A4A4A4A4A4A4A4A4A4A4A4A4A4A4A4A4A4F9F9F9F9F9F9F9F9F9F9F9
310
F9F9F9F9F9F9F9F9F9F9F9F9F9F9F9F9F9F9F9A4A4F9F9F9F9F9F9F9F9F9F9F9F9F9F9F9F9F9F9F9F9F9F9F9F9F9F9F9F9F9F9A4A4F9F9F9F9F9F9F9F9F9F9F9F9F9F9F9F9F9F9F9F9F9F9F9F9F9F9F9F9F9F9A4A4F9A4A4A4A4A4A4A4A4A4A4A4A4A4A4A4A4A4A4A4A4A4A4A4A4A4A4A4A4F9A4A4A4A4A4A4A4A4A4A4A4A4
310
A4A4A4A4A4A4A4A4A4A4A4A4A4A4A4A4A4A4A4A4A4A4A4A4A4A4A4A4A4A4A4A4A4A4A4A4A4A4A4A4A4A4A4A4A4A4A4A4A4A4A4A4A4A4A4A4A4A4A4A4A4A4A4A4A4A4A4A4A4A4A4A4A4A4A4A4A4A4A4A4A4A4A4A4A4A4A4A4A4A4A4A4A4A4A4A4A4A4A4A4A4A4A4A4A4A4A4A4A4A4A4A4A4A4A4A4A4A4A4A4A4A4A4A4A4A4A4
310
A4A4A4A4A4A4A4A4A4A4A4A4A4A4A4A4A4A4A4A4A4A4A4A4A4A4A4A4A4A4A4A4A4A4A4A4A4A4A4A4A4A4A4A4A4A4A4A4A4A4A4A4A4A4A4A4A4A4A4A4A4A4A4A4A4A4A4A4A4A4A4A4A4A4A4A4A4A4A4A4A4A4A4A4A4A4A4A4A4A4A4A4A4A4A4A4A4A4A4A4A4A4A4A4A4A4A4A4A4A4A4A4A4A4A4A4A4A4A4A4A4A4A4A4A4A4A4
310
A4A4A4A4A4A4A4A4A4A4A4A4A4A4A4A4A4A4A4A4A4A4A4A4A4A4A4A4A4A4A4A4A4A4A4A4A4A4A4A4A4A4A4A4A4A4A4A4A4A4A4A4A4A4A4A4A4A4A4A4A4A4A4A4A4A4A4A4A4A4A4A4A4A4A4A4A4A4A4A4A4A4A4A4A4A4A4A4A4A4A4A4A4A4A4A4A4A4A4A4A4A4A4A4A4A4A4A4A4A4A4A4A4A4A4A4A4A4A4A4A4A4A4A4A4A4A4
310
A4A4A4A4A4A4A4A4A4A4A4A4A4A4A4A4A4A4A4A4A4A4A4A4A4A4A4A4A4A4A4A4A4A4A4A4A4A4A4A4A4A4A4A4A4A4A4A4A4A4A4A4A4A4A4A4
1001
ACAD
1000
DesignCenter Data
1002
{
1070
     1
1070
     4
1002
}
  0
BLOCK_RECORD
  5
AA8
330
1
100
AcDbSymbolTableRecord
100
AcDbBlockTableRecord
  2
_CLOSED
340
0
  0
BLOCK_RECORD
  5
B79
330
1
100
AcDbSymbolTableRecord
100
AcDbBlockTableRecord
  2
nota revisoes
340
0
1001
ACAD
1000
DesignCenter Data
1002
{
1070
     1
1070
     4
1002
}
  0
BLOCK_RECORD
  5
B8E
330
1
100
AcDbSymbolTableRecord
100
AcDbBlockTableRecord
  2
a3l
340
0
1001
ACAD
1000
DesignCenter Data
1002
{
1070
     1
1070
     4
1002
}
  0
BLOCK_RECORD
  5
B9E
330
1
100
AcDbSymbolTableRecord
100
AcDbBlockTableRecord
  2
legenda desenvolvimento
340
0
1001
ACAD
1000
DesignCenter Data
1002
{
1070
     1
1070
     4
1002
}
  0
BLOCK_RECORD
  5
117D
330
1
100
AcDbSymbolTableRecord
100
AcDbBlockTableRecord
  2
*D8
340
0
  0
BLOCK_RECORD
  5
119D
330
1
100
AcDbSymbolTableRecord
100
AcDbBlockTableRecord
  2
*D10
340
0
  0
ENDTAB
  0
ENDSEC
  0
SECTION
  2
BLOCKS
  0
BLOCK
  5
20
330
1F
100
AcDbEntity
  8
0
100
AcDbBlockBegin
  2
*Model_Space
 70
     0
 10
0.0
 20
0.0
 30
0.0
  3
*Model_Space
  1

  0
ENDBLK
  5
21
330
1F
100
AcDbEntity
  8
0
100
AcDbBlockEnd
  0
BLOCK
  5
1C
330
1B
100
AcDbEntity
 67
     1
  8
0
100
AcDbBlockBegin
  2
*Paper_Space
 70
     0
 10
0.0
 20
0.0
 30
0.0
  3
*Paper_Space
  1

  0
ENDBLK
  5
1D
330
1B
100
AcDbEntity
 67
     1
  8
0
100
AcDbBlockEnd
  0
BLOCK
  5
24
330
23
100
AcDbEntity
 67
     1
  8
0
100
AcDbBlockBegin
  2
*Paper_Space0
 70
     0
 10
0.0
 20
0.0
 30
0.0
  3
*Paper_Space0
  1

  0
ENDBLK
  5
25
330
23
100
AcDbEntity
 67
     1
  8
0
100
AcDbBlockEnd
  0
BLOCK
  5
91B
330
919
100
AcDbEntity
  8
0
100
AcDbBlockBegin
  2
_DotSmall
 70
     0
 10
0.0
 20
0.0
 30
0.0
  3
_DotSmall
  1

  0
LWPOLYLINE
  5
91A
330
919
100
AcDbEntity
  8
0
  6
ByBlock
 62
     0
100
AcDbPolyline
 90
        2
 70
     1
 43
0.5
 10
-0.0625
 20
0.0
 42
1.0
 10
0.0625
 20
0.0
 42
1.0
  0
ENDBLK
  5
91C
330
919
100
AcDbEntity
  8
0
100
AcDbBlockEnd
  0
BLOCK
  5
92A
330
922
100
AcDbEntity
  8
0
100
AcDbBlockBegin
  2
base para cotas
 70
     0
 10
0.0
 20
0.0
 30
0.0
  3
base para cotas
  1

  0
LINE
  5
B36
330
922
100
AcDbEntity
  8
cotas
100
AcDbLine
 10
0.0
 20
-30.0
 30
0.0
 11
327.1260136525398
 21
-30.0
 31
0.0
  0
LINE
  5
B37
330
922
100
AcDbEntity
  8
cotas
100
AcDbLine
 10
0.0
 20
-25.0
 30
0.0
 11
327.1260136525398
 21
-25.0
 31
0.0
  0
LINE
  5
B38
330
922
100
AcDbEntity
  8
cotas
100
AcDbLine
 10
0.0
 20
-20.0
 30
0.0
 11
327.1260136525398
 21
-20.0
 31
0.0
  0
LINE
  5
B39
330
922
100
AcDbEntity
  8
cotas
100
AcDbLine
 10
0.0
 20
-15.0
 30
0.0
 11
327.1260136525398
 21
-15.0
 31
0.0
  0
LINE
  5
B3A
330
922
100
AcDbEntity
  8
cotas
100
AcDbLine
 10
0.0
 20
-10.0
 30
0.0
 11
327.1260136525398
 21
-10.0
 31
0.0
  0
LINE
  5
B3B
330
922
100
AcDbEntity
  8
cotas
100
AcDbLine
 10
0.0
 20
0.0
 30
0.0
 11
0.0
 21
-30.0
 31
0.0
  0
LINE
  5
B3C
330
922
100
AcDbEntity
  8
cotas
100
AcDbLine
 10
327.1260136525398
 20
-30.0
 30
0.0
 11
327.1260136525398
 21
0.0
 31
0.0
  0
ENDBLK
  5
92B
330
922
100
AcDbEntity
  8
0
100
AcDbBlockEnd
  0
BLOCK
  5
AAD
330
AA8
100
AcDbEntity
  8
0
100
AcDbBlockBegin
  2
_CLOSED
 70
     0
 10
0.0
 20
0.0
 30
0.0
  3
_CLOSED
  1

  0
LINE
  5
AA9
330
AA8
100
AcDbEntity
  8
0
100
AcDbLine
 10
-1.0
 20
0.166667
 30
0.0
 11
0.0
 21
0.0
 31
0.0
  0
LINE
  5
AAA
330
AA8
100
AcDbEntity
  8
0
100
AcDbLine
 10
0.0
 20
0.0
 30
0.0
 11
-1.0
 21
-0.166667
 31
0.0
  0
LINE
  5
AAB
330
AA8
100
AcDbEntity
  8
0
100
AcDbLine
 10
-1.0
 20
0.166667
 30
0.0
 11
-1.0
 21
-0.166667
 31
0.0
  0
LINE
  5
AAC
330
AA8
100
AcDbEntity
  8
0
100
AcDbLine
 10
0.0
 20
0.0
 30
0.0
 11
-1.0
 21
0.0
 31
0.0
  0
ENDBLK
  5
AAE
330
AA8
100
AcDbEntity
  8
0
100
AcDbBlockEnd
  0
BLOCK
  5
B7C
330
B79
100
AcDbEntity
  8
0
100
AcDbBlockBegin
  2
nota revisoes
 70
     0
 10
0.0
 20
0.0
 30
0.0
  3
nota revisoes
  1

  0
CIRCLE
  5
B7A
330
B79
100
AcDbEntity
  8
4
100
AcDbCircle
 10
0.0
 20
0.0
 30
0.0
 40
13.69426055101189
  0
TEXT
  5
B7B
330
B79
100
AcDbEntity
  8
4
100
AcDbText
 10
-5.496248358154345
 20
-5.354545554066362
 30
0.0
 40
12.0
  1
1
  7
SANINDUSA
 72
     1
 11
-0.249774214433728
 21
-5.354545554066362
 31
0.0
100
AcDbText
  0
ENDBLK
  5
B7D
330
B79
100
AcDbEntity
  8
0
100
AcDbBlockEnd
  0
BLOCK
  5
B9C
330
B8E
100
AcDbEntity
  8
0
100
AcDbBlockBegin
  2
a3l
 70
     0
 10
0.0
 20
0.0
 30
0.0
  3
a3l
  1

  0
LINE
  5
B8F
330
B8E
100
AcDbEntity
  8
1
100
AcDbLine
 10
-364.2925296599447
 20
-362.1188951399395
 30
0.0
 11
-364.2925296599447
 21
-65.11889513993946
 31
0.0
  0
LINE
  5
B90
330
B8E
100
AcDbEntity
  8
4
100
AcDbLine
 10
-369.2925296599447
 20
-357.1188951399395
 30
0.0
 11
-369.2925296599447
 21
-70.11889513993946
 31
0.0
  0
LINE
  5
B91
330
B8E
100
AcDbEntity
  8
1
100
AcDbLine
 10
-784.2925296599446
 20
-65.11889513993946
 30
0.0
 11
-784.2925296599446
 21
-362.1188951399395
 31
0.0
  0
LINE
  5
B92
330
B8E
100
AcDbEntity
  8
4
100
AcDbLine
 10
-759.2925296599446
 20
-357.1188951399395
 30
0.0
 11
-759.2925296599446
 21
-70.11889513993946
 31
0.0
  0
LINE
  5
B93
330
B8E
100
AcDbEntity
  8
1
100
AcDbLine
 10
-784.2925296599446
 20
-362.1188951399395
 30
0.0
 11
-364.2925296599447
 21
-362.1188951399395
 31
0.0
  0
LINE
  5
B94
330
B8E
100
AcDbEntity
  8
4
100
AcDbLine
 10
-759.2925296599446
 20
-357.1188951399395
 30
0.0
 11
-369.2925296599447
 21
-357.1188951399395
 31
0.0
  0
LINE
  5
B95
330
B8E
100
AcDbEntity
  8
1
100
AcDbLine
 10
-654.2925296599446
 20
-357.1188951399395
 30
0.0
 11
-654.2925296599446
 21
-362.1188951399395
 31
0.0
  0
LINE
  5
B96
330
B8E
100
AcDbEntity
  8
1
100
AcDbLine
 10
-364.2925296599447
 20
-65.11889513993946
 30
0.0
 11
-784.2925296599446
 21
-65.11889513993946
 31
0.0
  0
LINE
  5
B97
330
B8E
100
AcDbEntity
  8
4
100
AcDbLine
 10
-369.2925296599447
 20
-70.11889513993946
 30
0.0
 11
-759.2925296599446
 21
-70.11889513993946
 31
0.0
  0
LINE
  5
B98
330
B8E
100
AcDbEntity
  8
1
100
AcDbLine
 10
-654.2925296599446
 20
-65.11889513993946
 30
0.0
 11
-654.2925296599446
 21
-70.11889513993946
 31
0.0
  0
LINE
  5
B99
330
B8E
100
AcDbEntity
  8
1
100
AcDbLine
 10
-549.2925296599446
 20
-70.11889513993946
 30
0.0
 11
-549.2925296599446
 21
-65.11889513993946
 31
0.0
  0
LINE
  5
B9A
330
B8E
100
AcDbEntity
  8
1
100
AcDbLine
 10
-369.2925296599447
 20
-65.11889513993946
 30
0.0
 11
-364.2925296599447
 21
-65.11889513993946
 31
0.0
  0
LINE
  5
B9B
330
B8E
100
AcDbEntity
  8
1
100
AcDbLine
 10
-549.2925296599446
 20
-357.1188951399395
 30
0.0
 11
-549.2925296599446
 21
-362.1188951399395
 31
0.0
  0
ENDBLK
  5
B9D
330
B8E
100
AcDbEntity
  8
0
100
AcDbBlockEnd
  0
BLOCK
  5
C13
330
B9E
100
AcDbEntity
  8
0
100
AcDbBlockBegin
  2
legenda desenvolvimento
 70
     2
 10
0.0
 20
0.0
 30
0.0
  3
legenda desenvolvimento
  1

  0
ATTDEF
  5
B9F
330
B9E
100
AcDbEntity
  8
1
100
AcDbText
 10
-108.606245802552
 20
55.5
 30
0.0
 40
4.0
  1
XXXXXXXXXXXXXX
 41
0.8
  7
SANINDUSA
 72
     4
 11
-87.5
 21
57.5
 31
0.0
100
AcDbAttributeDefinition
  3
Nome do Produto:
  2
PRODUTO
 70
     0
  0
ATTDEF
  5
BA0
330
B9E
100
AcDbEntity
  8
1
100
AcDbText
 10
-97.9997966101695
 20
41.25
 30
0.0
 40
3.0
  1
XXXXXXXXX
 41
0.8
  7
futura
 72
     4
 11
-87.5
 21
42.75
 31
0.0
100
AcDbAttributeDefinition
  3
Nome da Peça:
  2
PECA
 70
     0
  0
ATTDEF
  5
BA1
330
B9E
100
AcDbEntity
  8
1
100
AcDbText
 10
-133.4422431161853
 20
21.11745296763252
 30
0.0
 40
2.5
  1
X
 41
0.8
  7
SANINDUSA
 72
     4
 11
-132.5
 21
22.36745296763252
 31
0.0
100
AcDbAttributeDefinition
  3
Cod. TESTE:
  2
TESTE
 70
     0
  0
ATTDEF
  5
BA2
330
B9E
100
AcDbEntity
  8
1
100
AcDbText
 10
-124.3844862323707
 20
21.11745296763252
 30
0.0
 40
2.5
  1
XX
 41
0.8
  7
SANINDUSA
 72
     4
 11
-122.5
 21
22.36745296763252
 31
0.0
100
AcDbAttributeDefinition
  3
Cod. Ano:
  2
ANO
 70
     0
  0
ATTDEF
  5
BA3
330
B9E
100
AcDbEntity
  8
1
100
AcDbText
 10
-112.526889953052
 20
21.11745296763252
 30
0.0
 40
2.5
  1
XXX
 41
0.8
  7
SANINDUSA
 72
     4
 11
-109.700160604496
 21
22.36745296763252
 31
0.0
100
AcDbAttributeDefinition
  3
Cod. Sequência:
  2
SEQUENCIA
 70
     0
  0
ATTDEF
  5
BA4
330
B9E
100
AcDbEntity
  8
1
100
AcDbText
 10
-99.35382430979316
 20
21.11745296763252
 30
0.0
 40
2.5
  1
XX
 41
0.8
  7
SANINDUSA
 72
     4
 11
-97.46933807742244
 21
22.36745296763252
 31
0.0
100
AcDbAttributeDefinition
  3
Cod. Tipo:
  2
TIPO
 70
     0
  0
ATTDEF
  5
BA5
330
B9E
100
AcDbEntity
  8
1
100
AcDbText
 10
-87.42035911468438
 20
21.11745296763252
 30
0.0
 40
2.5
  1
XXX
 41
0.8
  7
SANINDUSA
 72
     4
 11
-84.59362976612828
 21
22.36745296763252
 31
0.0
100
AcDbAttributeDefinition
  3
Cod. Produto:
  2
PRODUTO
 70
     0
  0
ATTDEF
  5
BA6
330
B9E
100
AcDbEntity
  8
1
100
AcDbText
 10
-74.62051971917853
 20
21.11745296763252
 30
0.0
 40
2.5
  1
XXX
 41
0.8
  7
SANINDUSA
 72
     4
 11
-71.79379037062244
 21
22.36745296763252
 31
0.0
100
AcDbAttributeDefinition
  3
Cod. Peça:
  2
PECA
 70
     0
  0
ATTDEF
  5
BA7
330
B9E
100
AcDbEntity
  8
1
100
AcDbText
 10
-61.10603446650329
 20
21.11745296763252
 30
0.0
 40
2.5
  1
XX
 41
0.8
  7
SANINDUSA
 72
     4
 11
-59.22154823413257
 21
22.36745296763252
 31
0.0
100
AcDbAttributeDefinition
  3
Cod. Revisão:
  2
REV
 70
     0
  0
ATTDEF
  5
BA8
330
B9E
100
AcDbEntity
  8
1
100
AcDbText
 10
-48.43615325006194
 20
21.11745296763252
 30
0.0
 40
2.5
  1
XX
 41
0.8
  7
SANINDUSA
 72
     4
 11
-46.55166701769121
 21
22.36745296763252
 31
0.0
100
AcDbAttributeDefinition
  3
Cod. Alteração:
  2
ALT
 70
     0
  0
ATTDEF
  5
BA9
330
B9E
100
AcDbEntity
  8
1
100
AcDbText
 10
-35.19086635325722
 20
23.98875083948959
 30
0.0
 40
3.0
  1
1/XXX
 41
0.8
  7
SANINDUSA
 72
     4
 11
-30.0
 21
25.25
 31
0.0
100
AcDbAttributeDefinition
  3
Escala geral:
  2
ESCALA
 70
     0
  0
ATTDEF
  5
BAA
330
B9E
100
AcDbEntity
  8
1
100
AcDbText
 10
-15.65345869711215
 20
23.75
 30
0.0
 40
3.0
  1
XXXXX
 41
0.8
  7
SANINDUSA
 72
     4
 11
-10.0
 21
25.25
 31
0.0
100
AcDbAttributeDefinition
  3
Folha:
  2
FOLHA
 70
     0
  0
ATTDEF
  5
BAB
330
B9E
100
AcDbEntity
  8
1
100
AcDbText
 10
-178.5146998822042
 20
56.9531347542807
 30
0.0
 40
2.0
  1
xx
 41
0.8
  7
SANINDUSA
 72
     4
 11
-177.2123493113513
 21
57.70330265219877
 31
0.0
100
AcDbAttributeDefinition
  3
revisão
  2
REV.
 70
     0
  0
ATTDEF
  5
BAC
330
B9E
100
AcDbEntity
  8
1
100
AcDbText
 10
-172.7849640077129
 20
56.9531347542807
 30
0.0
 40
2.0
  1
xx
 41
0.8
  7
SANINDUSA
 72
     4
 11
-171.48261343686
 21
57.70330265219877
 31
0.0
100
AcDbAttributeDefinition
  3
alteração
  2
ALT.
 70
     0
  0
ATTDEF
  5
BAD
330
B9E
100
AcDbEntity
  8
1
100
AcDbText
 10
-168.007199951307
 20
56.70330265219877
 30
0.0
 40
2.0
  1
xx/xx/xxxx
 41
0.8
  7
SANINDUSA
 11
-168.007199951307
 21
57.70330265219877
 31
0.0
100
AcDbAttributeDefinition
  3
data
  2
DATA
 70
     0
 74
     2
  0
ATTDEF
  5
BAE
330
B9E
100
AcDbEntity
  8
1
100
AcDbText
 10
-168.5396372253371
 20
13.15916722632639
 30
0.0
 40
2.0
  1
XX/XX/XXXX
 41
0.8
  7
SANINDUSA
 72
     4
 11
-161.5099528734231
 21
14.0
 31
0.0
100
AcDbAttributeDefinition
  3
Data projecto
  2
DATA_PROJ
 70
     0
  0
ATTDEF
  5
BAF
330
B9E
100
AcDbEntity
  8
1
100
AcDbText
 10
-150.8658110728766
 20
13.24983210208193
 30
0.0
 40
2.0
  1
xxxxxxxx
 41
0.8
  7
SANINDUSA
 72
     4
 11
-145.6564087894649
 21
14.0
 31
0.0
100
AcDbAttributeDefinition
  3
nome de quem projectou
  2
NOME
 70
     0
  0
ATTDEF
  5
BB0
330
B9E
100
AcDbEntity
  8
1
100
AcDbText
 10
-168.5396372253371
 20
9.159167226326394
 30
0.0
 40
2.0
  1
XX/XX/XXXX
 41
0.8
  7
SANINDUSA
 72
     4
 11
-161.5099528734231
 21
10.0
 31
0.0
100
AcDbAttributeDefinition
  3
Data desenhou
  2
DATA_DES
 70
     0
  0
ATTDEF
  5
BB1
330
B9E
100
AcDbEntity
  8
1
100
AcDbText
 10
-151.516986358303
 20
9.249832102081933
 30
0.0
 40
2.0
  1
xxxxxxxxx
 41
0.8
  7
SANINDUSA
 72
     4
 11
-145.6564087894649
 21
10.0
 31
0.0
100
AcDbAttributeDefinition
  3
nome
  2
NOME
 70
     0
  0
ATTDEF
  5
BB2
330
B9E
100
AcDbEntity
  8
1
100
AcDbText
 10
-127.2924214135946
 20
14.1979876583216
 30
0.0
 40
2.0
  1
Vitreous China
 41
0.8
  7
SANINDUSA
 72
     4
 11
-119.231709526422
 21
15.22216495852308
 31
0.0
100
AcDbAttributeDefinition
  3
Nome do Material:
  2
MATERIAL
 70
     0
  0
ATTDEF
  5
BB3
330
B9E
100
AcDbEntity
  8
1
100
AcDbText
 10
-103.1563452122093
 20
14.38019043949261
 30
0.0
 40
2.0
  1
Branco
 41
0.8
  7
SANINDUSA
 72
     4
 11
-99.33418268702462
 21
15.35937109765245
 31
0.0
100
AcDbAttributeDefinition
  3
cor da peça
  2
COR
 70
     0
  0
ATTDEF
  5
BB4
330
B9E
100
AcDbEntity
  8
1
100
AcDbText
 10
-116.7235057085292
 20
5.975822699798522
 30
0.0
 40
2.0
  1
Vidrado
 41
0.8
  7
SANINDUSA
 72
     4
 11
-112.5
 21
7.0
 31
0.0
100
AcDbAttributeDefinition
  3
Tipo de acabamento:
  2
ACABAMENTO
 70
     0
  0
ATTDEF
  5
BB5
330
B9E
100
AcDbEntity
  8
1
100
AcDbText
 10
-79.18527869967246
 20
16.65066409850533
 30
0.0
 40
2.0
  1
XXXXXXX
 41
0.8
  7
SANINDUSA
 72
     4
 11
-73.90871724903445
 21
17.65066409850533
 31
0.0
100
AcDbAttributeDefinition
  3
Normas
  2
NORMAS
 70
     0
  0
ATTDEF
  5
BB6
330
B9E
100
AcDbEntity
  8
1
100
AcDbText
 10
-30.55312290127603
 20
14.0
 30
0.0
 40
2.0
  1
XXXXXXXXXXXXXX
 41
0.8
  7
SANINDUSA
 72
     4
 11
-20.0
 21
15.0
 31
0.0
100
AcDbAttributeDefinition
  3
Substitui o desenho:
  2
SUBSTITUI
 70
     0
  0
ATTDEF
  5
BB7
330
B9E
100
AcDbEntity
  8
1
100
AcDbText
 10
-31.30691739422431
 20
6.0
 30
0.0
 40
2.0
  1
XXXXXXXXXXXXXXX
 41
0.8
  7
SANINDUSA
 72
     4
 11
-20.0
 21
7.0
 31
0.0
100
AcDbAttributeDefinition
  3
Substituido por:
  2
SUBSTITUIDO
 70
     0
  0
ATTDEF
  5
BB8
330
B9E
100
AcDbEntity
  8
1
100
AcDbText
 10
-110.0220608548302
 20
1.478208457928303
 30
0.0
 40
2.0
  1
XXXXXXXXXXXXXXXXXXXXXXXXXXXXXXXXXX
 41
0.8
  7
SANINDUSA
 11
-110.0220608548302
 21
2.478208457928303
 31
0.0
100
AcDbAttributeDefinition
  3
Localização do desenho:
  2
LOC-DWG
 70
     0
 74
     2
  0
LINE
  5
BB9
330
B9E
100
AcDbEntity
  8
3
100
AcDbLine
 10
-135.0
 20
4.0
 30
0.0
 11
0.0000000000004547
 21
4.0
 31
0.0
  0
LINE
  5
BBA
330
B9E
100
AcDbEntity
  8
3
100
AcDbLine
 10
-90.00000000000046
 20
12.0
 30
0.0
 11
-135.0
 21
12.0
 31
0.0
  0
LINE
  5
BBB
330
B9E
100
AcDbEntity
  8
3
100
AcDbLine
 10
-135.0
 20
32.5
 30
0.0
 11
-40.0
 21
32.5
 31
0.0
  0
TEXT
  5
BBC
330
B9E
100
AcDbEntity
  8
1
100
AcDbText
 10
-134.0
 20
1.25
 30
0.0
 40
2.0
  1
Localização do des.:
 41
0.8
  7
SANINDUSA
 11
-134.0
 21
2.25
 31
0.0
100
AcDbText
 73
     2
  0
LINE
  5
BBD
330
B9E
100
AcDbEntity
  8
3
100
AcDbLine
 10
-180.0
 20
65.0
 30
0.0
 11
0.0
 21
65.0
 31
0.0
  0
LINE
  5
BBE
330
B9E
100
AcDbEntity
  8
leg fin
100
AcDbLine
 10
-40.0
 20
25.05956924886846
 30
0.0
 11
-135.0
 21
25.05956924886846
 31
0.0
  0
LINE
  5
BBF
330
B9E
100
AcDbEntity
  8
leg fin
100
AcDbLine
 10
-40.0
 20
28.5
 30
0.0
 11
-135.0
 21
28.5
 31
0.0
  0
LINE
  5
BC0
330
B9E
100
AcDbEntity
  8
3
100
AcDbLine
 10
-135.0
 20
50.0
 30
0.0
 11
-40.0
 21
50.0
 31
0.0
  0
TEXT
  5
BC1
330
B9E
100
AcDbEntity
  8
1
100
AcDbText
 10
-134.0
 20
29.75
 30
0.0
 40
2.0
  1
Desenho nº:
 41
0.8
  7
SANINDUSA
 11
-134.0
 21
30.75
 31
0.0
100
AcDbText
 73
     2
  0
TEXT
  5
BC2
330
B9E
100
AcDbEntity
  8
1
100
AcDbText
 10
-134.0
 20
9.25
 30
0.0
 40
2.0
  1
Acabamento:
 41
0.8
  7
SANINDUSA
 11
-134.0
 21
10.25
 31
0.0
100
AcDbText
 73
     2
  0
LINE
  5
BC3
330
B9E
100
AcDbEntity
  8
3
100
AcDbLine
 10
-180.0
 20
20.0
 30
0.0
 11
0.0
 21
20.0
 31
0.0
  0
LINE
  5
BC4
330
B9E
100
AcDbEntity
  8
1
100
AcDbLine
 10
-174.5810776056337
 20
55.5
 30
0.0
 11
-174.5810776056337
 21
65.0
 31
0.0
  0
LINE
  5
BC5
330
B9E
100
AcDbEntity
  8
1
100
AcDbLine
 10
-168.9210461879161
 20
55.5
 30
0.0
 11
-168.9210461879161
 21
65.0
 31
0.0
  0
LINE
  5
BC6
330
B9E
100
AcDbEntity
  8
1
100
AcDbLine
 10
-154.0988595589306
 20
55.5
 30
0.0
 11
-154.0988595589306
 21
65.0
 31
0.0
  0
LINE
  5
BC7
330
B9E
100
AcDbEntity
  8
3
100
AcDbLine
 10
-180.0
 20
65.0
 30
0.0
 11
-180.0
 21
0.0
 31
0.0
  0
LINE
  5
BC8
330
B9E
100
AcDbEntity
  8
3
100
AcDbLine
 10
-135.0
 20
0.0
 30
0.0
 11
-135.0
 21
65.0
 31
0.0
  0
TEXT
  5
BC9
330
B9E
100
AcDbEntity
  8
1
100
AcDbText
 10
-179.0
 20
9.75
 30
0.0
 40
1.5
  1
Des.
 41
0.8
  7
SANINDUSA
 11
-179.0
 21
10.5
 31
0.0
100
AcDbText
 73
     2
  0
LINE
  5
BCA
330
B9E
100
AcDbEntity
  8
1
100
AcDbLine
 10
-168.9210461879161
 20
20.0
 30
0.0
 11
-168.9210461879161
 21
0.0
 31
0.0
  0
LINE
  5
BCB
330
B9E
100
AcDbEntity
  8
1
100
AcDbLine
 10
-154.0988595589306
 20
20.0
 30
0.0
 11
-154.0988595589306
 21
0.0
 31
0.0
  0
LINE
  5
BCC
330
B9E
100
AcDbEntity
  8
1
100
AcDbLine
 10
-180.0
 20
4.0
 30
0.0
 11
-135.0
 21
4.0
 31
0.0
  0
LINE
  5
BCD
330
B9E
100
AcDbEntity
  8
1
100
AcDbLine
 10
-180.0
 20
8.0
 30
0.0
 11
-135.0
 21
8.0
 31
0.0
  0
TEXT
  5
BCE
330
B9E
100
AcDbEntity
  8
1
100
AcDbText
 10
-179.0
 20
1.73257823687436
 30
0.0
 40
1.5
  1
Aprov.
 41
0.8
  7
SANINDUSA
 11
-179.0
 21
2.48257823687436
 31
0.0
100
AcDbText
 73
     2
  0
TEXT
  5
BCF
330
B9E
100
AcDbEntity
  8
1
100
AcDbText
 10
-179.0
 20
5.75
 30
0.0
 40
1.5
  1
Ver.
 41
0.8
  7
SANINDUSA
 11
-179.0
 21
6.5
 31
0.0
100
AcDbText
 73
     2
  0
LINE
  5
BD0
330
B9E
100
AcDbEntity
  8
1
100
AcDbLine
 10
-180.0
 20
16.0
 30
0.0
 11
-135.0
 21
16.0
 31
0.0
  0
LINE
  5
BD1
330
B9E
100
AcDbEntity
  8
1
100
AcDbLine
 10
-180.0
 20
12.0
 30
0.0
 11
-135.0
 21
12.0
 31
0.0
  0
TEXT
  5
BD2
330
B9E
100
AcDbEntity
  8
1
100
AcDbText
 10
-179.0
 20
13.75
 30
0.0
 40
1.5
  1
Proj.
 41
0.8
  7
SANINDUSA
 11
-179.0
 21
14.5
 31
0.0
100
AcDbText
 73
     2
  0
TEXT
  5
BD3
330
B9E
100
AcDbEntity
  8
1
100
AcDbText
 10
-167.9210461879161
 20
17.75
 30
0.0
 40
1.5
  1
Data
 41
0.8
  7
SANINDUSA
 11
-167.9210461879161
 21
18.5
 31
0.0
100
AcDbText
 73
     2
  0
TEXT
  5
BD4
330
B9E
100
AcDbEntity
  8
1
100
AcDbText
 10
-153.0988595589306
 20
17.75
 30
0.0
 40
1.5
  1
Nome
 41
0.8
  7
SANINDUSA
 11
-153.0988595589306
 21
18.5
 31
0.0
100
AcDbText
 73
     2
  0
LINE
  5
BD5
330
B9E
100
AcDbEntity
  8
leg fin
100
AcDbLine
 10
-130.0
 20
20.0
 30
0.0
 11
-130.0
 21
28.5
 31
0.0
  0
TEXT
  5
BD6
330
B9E
100
AcDbEntity
  8
1
100
AcDbText
 10
-134.0
 20
17.25
 30
0.0
 40
2.0
  1
Material:
 41
0.8
  7
SANINDUSA
 11
-134.0
 21
18.25
 31
0.0
100
AcDbText
 73
     2
  0
TEXT
  5
BD7
330
B9E
100
AcDbEntity
  8
1
100
AcDbText
 10
-129.0
 20
26.43288406845113
 30
0.0
 40
1.5
  1
Ano:
 41
0.8
  7
SANINDUSA
 11
-129.0
 21
27.18288406845113
 31
0.0
100
AcDbText
 73
     2
  0
LINE
  5
BD8
330
B9E
100
AcDbEntity
  8
1
100
AcDbLine
 10
-180.0
 20
55.5
 30
0.0
 11
-135.0
 21
55.5
 31
0.0
  0
TEXT
  5
BD9
330
B9E
100
AcDbEntity
  8
1
100
AcDbText
 10
-179.0
 20
52.67772246885193
 30
0.0
 40
1.5
  1
descrição
 41
0.8
  7
SANINDUSA
 11
-179.0
 21
53.42772246885193
 31
0.0
100
AcDbText
 73
     2
  0
TEXT
  5
BDA
330
B9E
100
AcDbEntity
  8
1
100
AcDbText
 10
-134.0
 20
47.25
 30
0.0
 40
2.0
  1
Peça:
 41
0.8
  7
SANINDUSA
 11
-134.0
 21
48.25
 31
0.0
100
AcDbText
 73
     2
  0
LINE
  5
BDB
330
B9E
100
AcDbEntity
  8
1
100
AcDbLine
 10
-180.0
 20
59.5
 30
0.0
 11
-135.0
 21
59.5
 31
0.0
  0
TEXT
  5
BDC
330
B9E
100
AcDbEntity
  8
1
100
AcDbText
 10
-173.5810776056337
 20
62.75
 30
0.0
 40
1.5
  1
Alt.
 41
0.8
  7
SANINDUSA
 11
-173.5810776056337
 21
63.5
 31
0.0
100
AcDbText
 73
     2
  0
TEXT
  5
BDD
330
B9E
100
AcDbEntity
  8
1
100
AcDbText
 10
-179.0
 20
62.75
 30
0.0
 40
1.5
  1
Rev.
 41
0.8
  7
SANINDUSA
 11
-179.0
 21
63.5
 31
0.0
100
AcDbText
 73
     2
  0
TEXT
  5
BDE
330
B9E
100
AcDbEntity
  8
1
100
AcDbText
 10
-167.9210461879161
 20
62.75
 30
0.0
 40
1.5
  1
Data
 41
0.8
  7
SANINDUSA
 11
-167.9210461879161
 21
63.5
 31
0.0
100
AcDbText
 73
     2
  0
TEXT
  5
BDF
330
B9E
100
AcDbEntity
  8
1
100
AcDbText
 10
-153.0988595589306
 20
62.75
 30
0.0
 40
1.5
  1
Nome
 41
0.8
  7
SANINDUSA
 11
-153.0988595589306
 21
63.5
 31
0.0
100
AcDbText
 73
     2
  0
TEXT
  5
BE0
330
B9E
100
AcDbEntity
  8
1
100
AcDbText
 10
-134.0
 20
62.25
 30
0.0
 40
2.0
  1
Produto:
 41
0.8
  7
SANINDUSA
 11
-134.0
 21
63.25
 31
0.0
100
AcDbText
 73
     2
  0
LINE
  5
BE1
330
B9E
100
AcDbEntity
  8
3
100
AcDbLine
 10
-40.0
 20
4.0
 30
0.0
 11
-40.0
 21
65.0
 31
0.0
  0
LWPOLYLINE
  5
BE2
102
{ACAD_REACTORS
330
BEC
102
}
330
B9E
100
AcDbEntity
  8
9
100
AcDbPolyline
 90
       12
 70
     1
 43
0.0
 10
-3.038714600644652
 20
58.90010174665076
 10
-5.726962862472191
 20
58.90010174665076
 10
-5.726962862472191
 20
58.5001017466509
 10
-3.038748516195028
 20
58.5001017466509
 42
-0.4142135623731731
 10
-2.638748516194482
 20
58.1001017466508
 10
-2.638748516194482
 20
57.42799728675596
 10
-5.21497371544865
 20
57.42799728675596
 42
0.4142135623731289
 10
-6.014973715448377
 20
56.627997286756
 10
-6.014973715448377
 20
55.92380871629643
 42
0.4142135623731132
 10
-5.21497371544865
 20
55.12380871629648
 10
-2.23871460064447
 20
55.12380871629648
 10
-2.23871460064447
 20
58.10010174665103
 42
0.4142135623730717
  0
LWPOLYLINE
  5
BE3
102
{ACAD_REACTORS
330
BEC
102
}
330
B9E
100
AcDbEntity
  8
9
100
AcDbPolyline
 90
       20
 70
     1
 43
0.0
 10
-10.01531287095122
 20
57.82799728675581
 10
-10.01531287095122
 20
58.10010174665103
 42
-0.4142135623730744
 10
-9.615312870951584
 20
58.5001017466509
 10
-6.92703069357276
 20
58.5001017466509
 10
-6.92703069357276
 20
58.90010174665076
 10
-9.615346786501959
 20
58.90010174665076
 42
0.4142135623730883
 10
-10.41534678650168
 20
58.1001017466508
 10
-10.41534678650168
 20
57.82796337120567
 42
0.4142135623730717
 10
-9.615346786501959
 20
57.02796337120571
 10
-7.423079531965413
 20
57.02796337120571
 42
-0.4142135623730847
 10
-7.023079531965322
 20
56.62796337120562
 10
-7.023079531965322
 20
55.90786840766487
 42
-0.4142135623730744
 10
-7.423079531965413
 20
55.507868407665
 10
-10.41534678650168
 20
55.507868407665
 10
-10.41534678650168
 20
55.12380871629648
 10
-7.445787917283723
 20
55.12380871629648
 42
0.4114777732064574
 10
-6.645822882998345
 20
55.9163291493976
 10
-6.639238813324936
 20
56.62051771985716
 42
0.4169546541682913
 10
-7.439203847610315
 20
57.42799728675596
 10
-9.615312870951584
 20
57.42799728675596
 42
-0.4142135623731576
  0
LWPOLYLINE
  5
BE4
102
{ACAD_REACTORS
330
BEC
102
}
330
B9E
100
AcDbEntity
  8
9
100
AcDbPolyline
 90
       12
 70
     1
 43
0.0
 10
-14.41561811090378
 20
58.90010174665076
 10
-14.79964388672215
 20
58.90010174665076
 10
-14.79964388672215
 20
55.92380871629643
 42
0.4142135623731133
 10
-13.99964388672242
 20
55.12380871629648
 10
-11.8233508563676
 20
55.12380871629648
 42
0.4142135623730872
 10
-11.02335085636741
 20
55.92380871629643
 10
-11.02335085636741
 20
58.90010174665076
 10
-11.42338477191788
 20
58.90010174665076
 10
-11.42338477191788
 20
55.91567577726095
 42
-0.4131711701795318
 10
-11.82196067063523
 20
55.51567831234956
 10
-14.0141940096214
 20
55.50787335710947
 42
-0.4152567234624407
 10
-14.41561811090378
 20
55.90787082202087
  0
LWPOLYLINE
  5
BE5
102
{ACAD_REACTORS
330
BEC
102
}
330
B9E
100
AcDbEntity
  8
9
100
AcDbPolyline
 90
        6
 70
     1
 43
0.0
 10
-15.80771578768872
 20
55.507868407665
 10
-18.39994912667453
 20
55.507868407665
 42
-0.4142135623731731
 10
-18.79994912667462
 20
55.90786840766487
 10
-18.79994912667462
 20
58.10010174665103
 42
-0.4142135623730744
 10
-18.39994912667453
 20
58.5001017466509
 10
-15.80771578768872
 20
58.5001017466509
  0
LWPOLYLINE
  5
BE6
102
{ACAD_REACTORS
330
BEC
102
}
330
B9E
100
AcDbEntity
  8
9
100
AcDbPolyline
 90
        8
 70
     1
 43
0.0
 10
-15.4236900118708
 20
59.87619128370352
 10
-15.80771578768872
 20
59.87619128370352
 10
-15.80771578768872
 20
58.90010174665076
 10
-18.39176256411201
 20
58.90010174665076
 42
0.4131164467977967
 10
-19.19175694739761
 20
58.1030995310698
 10
-19.1999120763262
 20
55.92680650071542
 42
0.4153115297271718
 10
-18.39991769304061
 20
55.12380871629648
 10
-15.4236900118708
 20
55.12380871629648
  0
LWPOLYLINE
  5
BE7
102
{ACAD_REACTORS
330
BEC
102
}
330
B9E
100
AcDbEntity
  8
9
100
AcDbPolyline
 90
       10
 70
     1
 43
0.0
 10
-20.59201288790928
 20
58.90010174665076
 10
-23.56830591826338
 20
58.90010174665076
 10
-23.56830591826338
 20
55.12380871629648
 10
-23.18424622689509
 20
55.12380871629648
 10
-23.18424622689509
 20
58.5001017466509
 10
-20.59204680345965
 20
58.5001017466509
 42
-0.4142135623730898
 10
-20.19204680345956
 20
58.1001017466508
 10
-20.19204680345956
 20
55.12380871629648
 10
-19.79201288790909
 20
55.12380871629648
 10
-19.79201288790909
 20
58.10010174665103
 42
0.4142135623731132
  0
LWPOLYLINE
  5
BE8
102
{ACAD_REACTORS
330
BEC
102
}
330
B9E
100
AcDbEntity
  8
9
100
AcDbPolyline
 90
        4
 70
     1
 43
0.0
 10
-24.19231812786165
 20
58.90010174665076
 10
-24.57637781922995
 20
58.90010174665076
 10
-24.57637781922995
 20
55.12380871629648
 10
-24.19231812786165
 20
55.12380871629648
  0
LWPOLYLINE
  5
BE9
102
{ACAD_REACTORS
330
BEC
102
}
330
B9E
100
AcDbEntity
  8
9
100
AcDbPolyline
 90
       10
 70
     1
 43
0.0
 10
-28.57661522808212
 20
58.5001017466509
 10
-25.98444972019706
 20
58.5001017466509
 42
-0.4142135623731731
 10
-25.58444972019652
 20
58.1001017466508
 10
-25.58444972019652
 20
55.12380871629648
 10
-25.2004239443786
 20
55.12380871629648
 10
-25.2004239443786
 20
58.10010174665103
 42
0.4142135623730717
 10
-26.00042394437833
 20
58.90010174665076
 10
-28.97664914363259
 20
58.90010174665076
 10
-28.97664914363259
 20
55.12380871629648
 10
-28.57661522808212
 20
55.12380871629648
  0
LWPOLYLINE
  5
BEA
102
{ACAD_REACTORS
330
BEC
102
}
330
B9E
100
AcDbEntity
  8
9
100
AcDbPolyline
 90
       12
 70
     1
 43
0.0
 10
-29.58465321349832
 20
58.10010174665103
 42
0.4142135623730716
 10
-30.3846532134985
 20
58.90010174665076
 10
-33.07296930642724
 20
58.90010174665076
 10
-33.07296930642724
 20
58.5001017466509
 10
-30.38468712904842
 20
58.5001017466509
 42
-0.4142135623730067
 10
-29.98468712904878
 20
58.1001017466508
 10
-29.98468712904878
 20
57.42799728675618
 10
-32.56098015940324
 20
57.42799728675596
 42
0.4142135623731289
 10
-33.36098015940343
 20
56.627997286756
 10
-33.36098015940343
 20
55.92380871629643
 42
0.4142135623731132
 10
-32.56098015940324
 20
55.12380871629648
 10
-29.58465321349832
 20
55.12380871629648
  0
LWPOLYLINE
  5
BEB
102
{ACAD_REACTORS
330
BEC
102
}
330
B9E
100
AcDbEntity
  8
9
100
AcDbPolyline
 90
       20
 70
     1
 43
0.0
 10
-34.7850262845518
 20
57.42799728675596
 10
-36.96125148380543
 20
57.42799728675596
 42
-0.4142135623730898
 10
-37.36125148380552
 20
57.82799728675604
 10
-37.36125148380552
 20
58.10010174665103
 42
-0.4142135623730744
 10
-36.96125148380543
 20
58.5001017466509
 10
-34.27303713752781
 20
58.50010174665067
 10
-34.27303713752781
 20
58.90010174665076
 10
-36.96128539935535
 20
58.90010174665076
 42
0.4142135623731289
 10
-37.76128539935553
 20
58.1001017466508
 10
-37.76128539935553
 20
57.82796337120567
 42
0.4142135623730716
 10
-36.9612853993558
 20
57.02796337120571
 10
-34.76901814481926
 20
57.02796337120571
 42
-0.414213562373168
 10
-34.36901814481962
 20
56.62796337120562
 10
-34.36901814481962
 20
55.90786840766487
 42
-0.4142135623730744
 10
-34.76901814481926
 20
55.507868407665
 10
-37.76128539935553
 20
55.507868407665
 10
-37.76128539935553
 20
55.12380871629648
 10
-34.7850262845518
 20
55.12380871629648
 42
0.4142135623731289
 10
-33.98502628455162
 20
55.92380871629643
 10
-33.98502628455162
 20
56.627997286756
 42
0.4142135623731132
  0
HATCH
  5
BEC
330
B9E
100
AcDbEntity
  8
9
100
AcDbHatch
 10
0.0
 20
0.0
 30
0.0
210
0.0
220
0.0
230
1.0
  2
SOLID
 70
     1
 71
     1
 91
       13
 92
        7
 72
     1
 73
     1
 93
       20
 10
-34.36901814481962
 20
55.90786840766487
 42
-0.414213562372991
 10
-34.76901814481926
 20
55.507868407665
 42
0.0
 10
-37.76128539935553
 20
55.507868407665
 42
0.0
 10
-37.76128539935553
 20
55.12380871629648
 42
0.0
 10
-34.7850262845518
 20
55.12380871629648
 42
0.4142135623731705
 10
-33.98502628455162
 20
55.92380871629666
 42
0.0
 10
-33.98502628455162
 20
56.627997286756
 42
0.4142135623731547
 10
-34.7850262845518
 20
57.42799728675596
 42
0.0
 10
-36.96125148380543
 20
57.42799728675596
 42
-0.4142135623730898
 10
-37.36125148380552
 20
57.82799728675604
 42
0.0
 10
-37.36125148380552
 20
58.1001017466508
 42
-0.4142135623731575
 10
-36.96125148380543
 20
58.5001017466509
 42
0.0
 10
-34.27303713752781
 20
58.50010174665067
 42
0.0
 10
-34.27303713752781
 20
58.90010174665076
 42
0.0
 10
-36.96128539935535
 20
58.90010174665076
 42
0.4142135623731705
 10
-37.76128539935553
 20
58.10010174665058
 42
0.0
 10
-37.76128539935553
 20
57.82796337120544
 42
0.4142135623730299
 10
-36.9612853993558
 20
57.02796337120571
 42
0.0
 10
-34.76901814481926
 20
57.02796337120571
 42
-0.4142135623730015
 10
-34.36901814481962
 20
56.62796337120608
 42
0.0
 97
        1
330
BEB
 92
        7
 72
     1
 73
     1
 93
       12
 10
-33.36098015940343
 20
55.92380871629666
 42
0.4142135623731547
 10
-32.56098015940324
 20
55.12380871629648
 42
0.0
 10
-29.58465321349877
 20
55.12380871629648
 42
0.0
 10
-29.58465321349832
 20
58.10010174665058
 42
0.4142135623731964
 10
-30.3846532134985
 20
58.90010174665076
 42
0.0
 10
-33.07296930642724
 20
58.90010174665076
 42
0.0
 10
-33.07296930642724
 20
58.50010174665067
 42
0.0
 10
-30.38468712904887
 20
58.5001017466509
 42
-0.4142135623732564
 10
-29.98468712904878
 20
58.10010174665103
 42
0.0
 10
-29.98468712904923
 20
57.42799728675596
 42
0.0
 10
-32.56098015940324
 20
57.42799728675596
 42
0.4142135623731705
 10
-33.36098015940343
 20
56.627997286756
 42
0.0
 97
        1
330
BEA
 92
       22
 72
     1
 73
     1
 93
        6
 10
-32.97692046803468
 20
56.62796337120562
 42
-0.4142135623731576
 10
-32.57692046803459
 20
57.02796337120571
 42
0.0
 10
-29.98468712904878
 20
57.02796337120571
 42
0.0
 10
-29.98468712904878
 20
55.507868407665
 42
0.0
 10
-32.57692046803459
 20
55.507868407665
 42
-0.4142135623731731
 10
-32.97692046803468
 20
55.90786840766487
 42
0.0
 97
        1
330
C11
 92
        7
 72
     1
 73
     1
 93
       10
 10
-28.57661522808212
 20
58.5001017466509
 42
0.0
 10
-25.98444972019661
 20
58.5001017466509
 42
-0.4142135623730067
 10
-25.58444972019652
 20
58.10010174665058
 42
0.0
 10
-25.58444972019606
 20
55.12380871629648
 42
0.0
 10
-25.20042394437906
 20
55.12380871629648
 42
0.0
 10
-25.2004239443786
 20
58.1001017466508
 42
0.4142135623731134
 10
-26.00042394437833
 20
58.90010174665076
 42
0.0
 10
-28.97664914363259
 20
58.90010174665076
 42
0.0
 10
-28.97664914363259
 20
55.12380871629648
 42
0.0
 10
-28.57661522808212
 20
55.12380871629648
 42
0.0
 97
        1
330
BE9
 92
        7
 72
     0
 73
     1
 93
        4
 10
-24.57637781922995
 20
55.12380871629648
 10
-24.19231812786165
 20
55.12380871629648
 10
-24.19231812786165
 20
58.90010174665076
 10
-24.57637781922995
 20
58.90010174665076
 97
        1
330
BE8
 92
        7
 72
     0
 73
     1
 93
        4
 10
-24.19231812786165
 20
59.87619128370352
 10
-24.5763778192304
 20
59.87619128370352
 10
-24.5763778192304
 20
59.28412752246913
 10
-24.1923181278612
 20
59.28412752246913
 97
        1
330
C12
 92
        7
 72
     1
 73
     1
 93
       10
 10
-23.18424622689509
 20
58.5001017466509
 42
0.0
 10
-20.59204680345965
 20
58.5001017466509
 42
-0.4142135623730898
 10
-20.19204680345956
 20
58.1001017466508
 42
0.0
 10
-20.19204680345956
 20
55.12380871629648
 42
0.0
 10
-19.79201288790909
 20
55.12380871629648
 42
0.0
 10
-19.79201288790909
 20
58.1001017466508
 42
0.4142135623731547
 10
-20.59201288790928
 20
58.90010174665076
 42
0.0
 10
-23.56830591826338
 20
58.90010174665076
 42
0.0
 10
-23.56830591826338
 20
55.12380871629648
 42
0.0
 10
-23.18424622689463
 20
55.12380871629648
 42
0.0
 97
        1
330
BE7
 92
        7
 72
     1
 73
     1
 93
        8
 10
-19.1999120763262
 20
55.92680650071542
 42
0.4153115297271299
 10
-18.39991769304061
 20
55.12380871629648
 42
0.0
 10
-15.4236900118708
 20
55.12380871629648
 42
0.0
 10
-15.4236900118708
 20
59.87619128370352
 42
0.0
 10
-15.80771578768872
 20
59.87619128370352
 42
0.0
 10
-15.80771578768872
 20
58.90010174665076
 42
0.0
 10
-18.39176256411201
 20
58.90010174665076
 42
0.4131164467977965
 10
-19.19175694739761
 20
58.1030995310698
 42
0.0
 97
        1
330
BE6
 92
       22
 72
     1
 73
     1
 93
        6
 10
-18.79994912667462
 20
58.1001017466508
 42
-0.4142135623731575
 10
-18.39994912667453
 20
58.5001017466509
 42
0.0
 10
-15.80771578768872
 20
58.50010174665067
 42
0.0
 10
-15.80771578768827
 20
55.507868407665
 42
0.0
 10
-18.39994912667453
 20
55.507868407665
 42
-0.4142135623731731
 10
-18.79994912667462
 20
55.90786840766487
 42
0.0
 97
        1
330
BE5
 92
        7
 72
     1
 73
     1
 93
       12
 10
-14.79964388672215
 20
55.92380871629621
 42
0.4142135623729885
 10
-13.99964388672242
 20
55.12380871629648
 42
0.0
 10
-11.8233508563676
 20
55.12380871629648
 42
0.4142135623731289
 10
-11.02335085636741
 20
55.92380871629666
 42
0.0
 10
-11.02335085636741
 20
58.90010174665076
 42
0.0
 10
-11.42338477191788
 20
58.90010174665076
 42
0.0
 10
-11.42338477191788
 20
55.91567577726095
 42
-0.4131711701795319
 10
-11.82196067063523
 20
55.51567831234956
 42
0.0
 10
-14.01419400962095
 20
55.50787335710947
 42
-0.4152567234626918
 10
-14.41561811090378
 20
55.90787082202087
 42
0.0
 10
-14.41561811090378
 20
58.90010174665076
 42
0.0
 10
-14.7996438867226
 20
58.90010174665076
 42
0.0
 97
        1
330
BE4
 92
        7
 72
     1
 73
     1
 93
       20
 10
-7.423079531965413
 20
57.02796337120571
 42
-0.414213562373168
 10
-7.023079531965322
 20
56.62796337120562
 42
0.0
 10
-7.023079531965322
 20
55.90786840766487
 42
-0.4142135623731575
 10
-7.423079531965413
 20
55.507868407665
 42
0.0
 10
-10.41534678650168
 20
55.507868407665
 42
0.0
 10
-10.41534678650168
 20
55.12380871629648
 42
0.0
 10
-7.445787917283723
 20
55.12380871629648
 42
0.4114777732065809
 10
-6.645822882998345
 20
55.91632914939783
 42
0.0
 10
-6.639238813324936
 20
56.62051771985716
 42
0.4169546541682913
 10
-7.439203847610315
 20
57.42799728675596
 42
0.0
 10
-9.615312870951584
 20
57.42799728675596
 42
-0.4142135623729911
 10
-10.01531287095122
 20
57.82799728675581
 42
0.0
 10
-10.01531287095122
 20
58.10010174665103
 42
-0.414213562372991
 10
-9.615312870951584
 20
58.5001017466509
 42
0.0
 10
-6.92703069357276
 20
58.50010174665067
 42
0.0
 10
-6.927030693572305
 20
58.90010174665076
 42
0.0
 10
-9.615346786501959
 20
58.90010174665076
 42
0.4142135623730467
 10
-10.41534678650168
 20
58.10010174665103
 42
0.0
 10
-10.41534678650168
 20
57.82796337120544
 42
0.4142135623730301
 10
-9.615346786501959
 20
57.02796337120571
 42
0.0
 97
        1
330
BE3
 92
        7
 72
     1
 73
     1
 93
       12
 10
-5.21497371544865
 20
57.42799728675596
 42
0.4142135623730871
 10
-6.014973715448377
 20
56.627997286756
 42
0.0
 10
-6.014973715448377
 20
55.92380871629621
 42
0.4142135623730715
 10
-5.21497371544865
 20
55.12380871629648
 42
0.0
 10
-2.23871460064447
 20
55.12380871629648
 42
0.0
 10
-2.23871460064447
 20
58.10010174665058
 42
0.414213562373155
 10
-3.038714600644652
 20
58.90010174665076
 42
0.0
 10
-5.726962862471737
 20
58.90010174665076
 42
0.0
 10
-5.726962862472191
 20
58.5001017466509
 42
0.0
 10
-3.038748516194573
 20
58.5001017466509
 42
-0.4142135623730067
 10
-2.638748516194482
 20
58.10010174665058
 42
0.0
 10
-2.638748516194482
 20
57.42799728675596
 42
0.0
 97
        1
330
BE2
 92
       22
 72
     1
 73
     1
 93
        6
 10
-2.638748516194937
 20
57.02796337120571
 42
0.0
 10
-2.638748516194482
 20
55.50786840766477
 42
0.0
 10
-5.21497371544865
 20
55.507868407665
 42
-0.4142135623731731
 10
-5.614973715448741
 20
55.90786840766509
 42
0.0
 10
-5.614973715448741
 20
56.62796337120562
 42
-0.4142135623731576
 10
-5.21497371544865
 20
57.02796337120571
 42
0.0
 97
        1
330
C0D
 75
     0
 76
     1
 47
0.0407044778999864
 98
       13
 10
-34.18710075113677
 20
56.16907953933765
 10
-33.12851374392494
 20
56.49471602641233
 10
-33.12851374392494
 20
56.49471602641233
 10
-28.77202873835904
 20
57.51232930166111
 10
-24.41554807250941
 20
57.91937341678636
 10
-24.41554807250941
 20
59.384734621186
 10
-23.31624584658039
 20
58.3264175319116
 10
-19.04119127844888
 20
57.75655517324913
 10
-19.04119127844888
 20
57.75655517324913
 10
-14.64399105416578
 20
57.43091868617466
 10
-8.048195057457178
 20
57.22739662861204
 10
-4.017427461911665
 20
57.18669281458665
 10
-4.017427461911665
 20
57.18669281458665
  0
TEXT
  5
BED
330
B9E
100
AcDbEntity
  8
leg fin
100
AcDbText
 10
3.391127401597259
 20
2.107634911895729
 30
0.0
 40
1.5
  1
Este desenho é propriedade da Sanindusa, S.A., e não pode ser copiado nem divulgado sem nossa autorização.
 50
90.0
 41
0.8
  7
SANINDUSA
100
AcDbText
  0
LINE
  5
BEE
330
B9E
100
AcDbEntity
  8
3
100
AcDbLine
 10
-90.0
 20
4.0
 30
0.0
 11
-90.0
 21
12.0
 31
0.0
  0
TEXT
  5
BEF
330
B9E
100
AcDbEntity
  8
1
100
AcDbText
 10
-39.0
 20
9.25
 30
0.0
 40
2.0
  1
Substituido por:
 41
0.8
  7
SANINDUSA
 11
-39.0
 21
10.25
 31
0.0
100
AcDbText
 73
     2
  0
POINT
  5
BF0
330
B9E
100
AcDbEntity
  8
SANINDUSA
100
AcDbPoint
 10
0.0
 20
0.0
 30
0.0
  0
TEXT
  5
BF1
330
B9E
100
AcDbEntity
  8
1
100
AcDbText
 10
-89.0
 20
16.74927010445663
 30
0.0
 40
2.0
  1
Normas:
 41
0.8
  7
SANINDUSA
 11
-89.0
 21
17.74927010445663
 31
0.0
100
AcDbText
 73
     2
  0
LINE
  5
BF2
330
B9E
100
AcDbEntity
  8
3
100
AcDbLine
 10
-90.0
 20
12.0
 30
0.0
 11
-90.0
 21
20.0
 31
0.0
  0
LINE
  5
BF3
330
B9E
100
AcDbEntity
  8
3
100
AcDbLine
 10
-110.546019464768
 20
12.0
 30
0.0
 11
-110.546019464768
 21
20.0
 31
0.0
  0
TEXT
  5
BF4
330
B9E
100
AcDbEntity
  8
1
100
AcDbText
 10
-109.6177520618648
 20
17.25
 30
0.0
 40
2.0
  1
Cor:
 41
0.8
  7
SANINDUSA
 11
-109.6177520618648
 21
18.25
 31
0.0
100
AcDbText
 73
     2
  0
LINE
  5
BF5
330
B9E
100
AcDbEntity
  8
leg fin
100
AcDbLine
 10
-91.42857142857156
 20
20.0
 30
0.0
 11
-91.42857142857156
 21
28.5
 31
0.0
  0
LINE
  5
BF6
330
B9E
100
AcDbEntity
  8
leg fin
100
AcDbLine
 10
-104.2857142857142
 20
20.0
 30
0.0
 11
-104.2857142857142
 21
28.5
 31
0.0
  0
LINE
  5
BF7
330
B9E
100
AcDbEntity
  8
leg fin
100
AcDbLine
 10
-117.1428571428573
 20
20.0
 30
0.0
 11
-117.1428571428573
 21
28.5
 31
0.0
  0
POINT
  5
BF8
330
B9E
100
AcDbEntity
  8
SANINDUSA
100
AcDbPoint
 10
-117.1428571428573
 20
28.5
 30
0.0
  0
POINT
  5
BF9
330
B9E
100
AcDbEntity
  8
SANINDUSA
100
AcDbPoint
 10
-104.2857142857142
 20
28.5
 30
0.0
  0
POINT
  5
BFA
330
B9E
100
AcDbEntity
  8
SANINDUSA
100
AcDbPoint
 10
-91.42857142857156
 20
28.5
 30
0.0
  0
TEXT
  5
BFB
330
B9E
100
AcDbEntity
  8
1
100
AcDbText
 10
-116.200160604496
 20
26.43288406845113
 30
0.0
 40
1.5
  1
Nº Seq.:
 41
0.8
  7
SANINDUSA
 11
-116.200160604496
 21
27.18288406845113
 31
0.0
100
AcDbText
 73
     2
  0
TEXT
  5
BFC
330
B9E
100
AcDbEntity
  8
1
100
AcDbText
 10
-103.2106584078738
 20
26.43288406845113
 30
0.0
 40
1.5
  1
Tipo:
 41
0.8
  7
SANINDUSA
 11
-103.2106584078738
 21
27.18288406845113
 31
0.0
100
AcDbText
 73
     2
  0
TEXT
  5
BFD
330
B9E
100
AcDbEntity
  8
1
100
AcDbText
 10
-90.22114672289353
 20
26.43288406845113
 30
0.0
 40
1.5
  1
Prod.:
 41
0.8
  7
SANINDUSA
 11
-90.22114672289353
 21
27.18288406845113
 31
0.0
100
AcDbText
 73
     2
  0
TEXT
  5
BFE
330
B9E
100
AcDbEntity
  8
1
100
AcDbText
 10
-64.77320576346574
 20
26.43288406845113
 30
0.0
 40
1.5
  1
Rev.:
 41
0.8
  7
SANINDUSA
 11
-64.77320576346574
 21
27.18288406845113
 31
0.0
100
AcDbText
 73
     2
  0
LINE
  5
BFF
330
B9E
100
AcDbEntity
  8
leg fin
100
AcDbLine
 10
-52.85714285714266
 20
20.0
 30
0.0
 11
-52.85714285714266
 21
28.5
 31
0.0
  0
LINE
  5
C00
330
B9E
100
AcDbEntity
  8
leg fin
100
AcDbLine
 10
-65.71428571428578
 20
20.0
 30
0.0
 11
-65.71428571428578
 21
28.5
 31
0.0
  0
LINE
  5
C01
330
B9E
100
AcDbEntity
  8
leg fin
100
AcDbLine
 10
-78.57142857142844
 20
20.0
 30
0.0
 11
-78.57142857142844
 21
28.5
 31
0.0
  0
POINT
  5
C02
330
B9E
100
AcDbEntity
  8
SANINDUSA
100
AcDbPoint
 10
-78.57142857142844
 20
28.5
 30
0.0
  0
POINT
  5
C03
330
B9E
100
AcDbEntity
  8
SANINDUSA
100
AcDbPoint
 10
-65.71428571428578
 20
28.5
 30
0.0
  0
POINT
  5
C04
330
B9E
100
AcDbEntity
  8
SANINDUSA
100
AcDbPoint
 10
-52.85714285714266
 20
28.5
 30
0.0
  0
TEXT
  5
C05
330
B9E
100
AcDbEntity
  8
1
100
AcDbText
 10
-77.61097961686573
 20
26.43288406845113
 30
0.0
 40
1.5
  1
Peça:
 41
0.8
  7
SANINDUSA
 11
-77.61097961686573
 21
27.18288406845113
 31
0.0
100
AcDbText
 73
     2
  0
TEXT
  5
C06
330
B9E
100
AcDbEntity
  8
1
100
AcDbText
 10
-52.06538060077036
 20
26.43288406845113
 30
0.0
 40
1.5
  1
Alt.:
 41
0.8
  7
SANINDUSA
 11
-52.06538060077036
 21
27.18288406845113
 31
0.0
100
AcDbText
 73
     2
  0
LINE
  5
C07
330
B9E
100
AcDbEntity
  8
3
100
AcDbLine
 10
0.0
 20
12.0
 30
0.0
 11
-40.0
 21
12.0
 31
0.0
  0
LINE
  5
C08
330
B9E
100
AcDbEntity
  8
3
100
AcDbLine
 10
-40.0
 20
32.5
 30
0.0
 11
0.0
 21
32.5
 31
0.0
  0
TEXT
  5
C09
330
B9E
100
AcDbEntity
  8
1
100
AcDbText
 10
-19.0
 20
29.75
 30
0.0
 40
2.0
  1
Folha:
 41
0.8
  7
SANINDUSA
 11
-19.0
 21
30.75
 31
0.0
100
AcDbText
 73
     2
  0
LINE
  5
C0A
330
B9E
100
AcDbEntity
  8
3
100
AcDbLine
 10
-20.0
 20
32.5
 30
0.0
 11
-20.0
 21
20.0
 31
0.0
  0
TEXT
  5
C0B
330
B9E
100
AcDbEntity
  8
1
100
AcDbText
 10
-39.0
 20
29.75
 30
0.0
 40
2.0
  1
Escala:
 41
0.8
  7
SANINDUSA
 11
-39.0
 21
30.75
 31
0.0
100
AcDbText
 73
     2
  0
TEXT
  5
C0C
330
B9E
100
AcDbEntity
  8
1
100
AcDbText
 10
-39.0
 20
17.25
 30
0.0
 40
2.0
  1
Substitui:
 41
0.8
  7
SANINDUSA
 11
-39.0
 21
18.25
 31
0.0
100
AcDbText
 73
     2
  0
LWPOLYLINE
  5
C0D
102
{ACAD_REACTORS
330
BEC
102
}
330
B9E
100
AcDbEntity
  8
9
100
AcDbPolyline
 90
        6
 70
     1
 43
0.0
 10
-2.638748516194482
 20
57.02796337120571
 10
-2.638748516194482
 20
55.50786840766477
 10
-5.21497371544865
 20
55.507868407665
 42
-0.4142135623730898
 10
-5.614973715448741
 20
55.90786840766487
 10
-5.614973715448741
 20
56.62796337120562
 42
-0.4142135623731576
 10
-5.21497371544865
 20
57.02796337120571
  0
LINE
  5
C0E
330
B9E
100
AcDbEntity
  8
3
100
AcDbLine
 10
-40.0
 20
50.0
 30
0.0
 11
0.0
 21
50.0
 31
0.0
  0
ATTDEF
  5
C0F
330
B9E
100
AcDbEntity
  8
1
100
AcDbText
 10
-31.30691739422431
 20
40.25
 30
0.0
 40
2.0
  1
XXXXXXXXXXXXXXX
 41
0.8
  7
SANINDUSA
 72
     4
 11
-20.0
 21
41.25
 31
0.0
100
AcDbAttributeDefinition
  3
Observações:
  2
OBS
 70
     0
  0
TEXT
  5
C10
330
B9E
100
AcDbEntity
  8
1
100
AcDbText
 10
-39.0
 20
47.25
 30
0.0
 40
2.0
  1
Observações:
 41
0.8
  7
SANINDUSA
 11
-39.0
 21
48.25
 31
0.0
100
AcDbText
 73
     2
  0
LWPOLYLINE
  5
C11
102
{ACAD_REACTORS
330
BEC
102
}
330
B9E
100
AcDbEntity
  8
9
100
AcDbPolyline
 90
        6
 70
     1
 43
0.0
 10
-29.98468712904878
 20
57.02796337120571
 10
-29.98468712904878
 20
55.507868407665
 10
-32.57692046803459
 20
55.507868407665
 42
-0.4142135623731731
 10
-32.97692046803468
 20
55.90786840766487
 10
-32.97692046803468
 20
56.62796337120562
 42
-0.4142135623731576
 10
-32.57692046803459
 20
57.02796337120571
  0
LWPOLYLINE
  5
C12
102
{ACAD_REACTORS
330
BEC
102
}
330
B9E
100
AcDbEntity
  8
9
100
AcDbPolyline
 90
        4
 70
     1
 43
0.0
 10
-24.19231812786165
 20
59.87619128370352
 10
-24.57637781922995
 20
59.87619128370352
 10
-24.57637781922995
 20
59.28412752246913
 10
-24.19231812786165
 20
59.28412752246913
  0
ENDBLK
  5
C14
330
B9E
100
AcDbEntity
  8
0
100
AcDbBlockEnd
  0
BLOCK
  5
1187
330
117D
100
AcDbEntity
  8
0
100
AcDbBlockBegin
  2
*D8
 70
     1
 10
0.0
 20
0.0
 30
0.0
  3
*D8
  1

  0
LINE
  5
11B5
330
117D
100
AcDbEntity
  8
cotas
100
AcDbLine
 10
4117.268630796212
 20
1640.065544502311
 30
0.0
 11
4117.268630796212
 21
1611.357551188361
 31
0.0
  0
LINE
  5
11B6
330
117D
100
AcDbEntity
  8
cotas
100
AcDbLine
 10
4172.27886279621
 20
1640.065544502311
 30
0.0
 11
4172.27886279621
 21
1611.357551188361
 31
0.0
  0
LINE
  5
11B7
330
117D
100
AcDbEntity
  8
cotas
100
AcDbLine
 10
4119.268630796212
 20
1612.357551188361
 30
0.0
 11
4170.278862796211
 21
1612.357551188361
 31
0.0
  0
SOLID
  5
11B8
330
117D
100
AcDbEntity
  8
cotas
100
AcDbTrace
 10
4119.268630796212
 20
1612.690884521695
 30
0.0
 11
4119.268630796212
 21
1612.024217855028
 31
0.0
 12
4117.268630796212
 22
1612.357551188361
 32
0.0
 13
4117.268630796212
 23
1612.357551188361
 33
0.0
  0
SOLID
  5
11B9
330
117D
100
AcDbEntity
  8
cotas
100
AcDbTrace
 10
4170.278862796211
 20
1612.690884521695
 30
0.0
 11
4170.278862796211
 21
1612.024217855028
 31
0.0
 12
4172.27886279621
 22
1612.357551188361
 32
0.0
 13
4172.27886279621
 23
1612.357551188361
 33
0.0
  0
MTEXT
  5
11BA
330
117D
100
AcDbEntity
  8
cotas
100
AcDbMText
 10
4144.773746796211
 20
1614.378370530202
 30
0.0
 40
2.0
 41
0.0
 71
     5
 72
     1
  1
55
  7
SANINDUSA
 73
     1
 44
1.0
1001
ACAD
1000
MTEXTBEGIN
1070
    73
1070
     1
1070
    44
1040
1.0
1070
    74
1070
     0
1000
MTEXTEND
  0
POINT
  5
11BB
330
117D
100
AcDbEntity
  8
Defpoints
 62
     0
100
AcDbPoint
 10
4117.268630796212
 20
1641.065544502311
 30
0.0
  0
POINT
  5
11BC
330
117D
100
AcDbEntity
  8
Defpoints
 62
     0
100
AcDbPoint
 10
4172.27886279621
 20
1641.065544502311
 30
0.0
  0
POINT
  5
11BD
330
117D
100
AcDbEntity
  8
Defpoints
 62
     0
100
AcDbPoint
 10
4172.27886279621
 20
1612.357551188361
 30
0.0
  0
ENDBLK
  5
1188
330
117D
100
AcDbEntity
  8
0
100
AcDbBlockEnd
  0
BLOCK
  5
11A7
330
119D
100
AcDbEntity
  8
0
100
AcDbBlockBegin
  2
*D10
 70
     1
 10
0.0
 20
0.0
 30
0.0
  3
*D10
  1

  0
LINE
  5
11BE
330
119D
100
AcDbEntity
  8
cotas
100
AcDbLine
 10
4173.278862796211
 20
1641.065544502311
 30
0.0
 11
4215.268119489411
 21
1641.065544502311
 31
0.0
  0
LINE
  5
11BF
330
119D
100
AcDbEntity
  8
cotas
100
AcDbLine
 10
4098.371916030468
 20
1816.037626978805
 30
0.0
 11
4215.268119489411
 21
1816.037626978805
 31
0.0
  0
LINE
  5
11C0
330
119D
100
AcDbEntity
  8
cotas
100
AcDbLine
 10
4214.26811948941
 20
1643.065544502311
 30
0.0
 11
4214.26811948941
 21
1814.037626978805
 31
0.0
  0
SOLID
  5
11C1
330
119D
100
AcDbEntity
  8
cotas
100
AcDbTrace
 10
4213.934786156077
 20
1643.065544502311
 30
0.0
 11
4214.601452822743
 21
1643.065544502311
 31
0.0
 12
4214.26811948941
 22
1641.065544502311
 32
0.0
 13
4214.26811948941
 23
1641.065544502311
 33
0.0
  0
SOLID
  5
11C2
330
119D
100
AcDbEntity
  8
cotas
100
AcDbTrace
 10
4213.934786156077
 20
1814.037626978805
 30
0.0
 11
4214.601452822743
 21
1814.037626978805
 31
0.0
 12
4214.26811948941
 22
1816.037626978805
 32
0.0
 13
4214.26811948941
 23
1816.037626978805
 33
0.0
  0
MTEXT
  5
11C3
330
119D
100
AcDbEntity
  8
cotas
100
AcDbMText
 10
4212.243942189209
 20
1728.551585740559
 30
0.0
 40
2.0
 41
0.0
 71
     5
 72
     1
  1
175
  7
SANINDUSA
 11
0.0000000000000001
 21
1.0
 31
0.0
 73
     1
 44
1.0
1001
ACAD
1000
MTEXTBEGIN
1070
    73
1070
     1
1070
    44
1040
1.0
1070
    74
1070
     0
1000
MTEXTEND
  0
POINT
  5
11C4
330
119D
100
AcDbEntity
  8
Defpoints
 62
     0
100
AcDbPoint
 10
4172.27886279621
 20
1641.065544502311
 30
0.0
  0
POINT
  5
11C5
330
119D
100
AcDbEntity
  8
Defpoints
 62
     0
100
AcDbPoint
 10
4097.371916030468
 20
1816.037626978805
 30
0.0
  0
POINT
  5
11C6
330
119D
100
AcDbEntity
  8
Defpoints
 62
     0
100
AcDbPoint
 10
4214.26811948941
 20
1816.037626978805
 30
0.0
  0
ENDBLK
  5
11A8
330
119D
100
AcDbEntity
  8
0
100
AcDbBlockEnd
  0
ENDSEC
  0
SECTION
  2
ENTITIES
  0
SPLINE
  5
10F4
330
1F
100
AcDbEntity
  8
SANINDUSA
100
AcDbSpline
210
0.0
220
0.0
230
1.0
 70
    24
 71
     3
 72
     8
 73
     4
 74
     0
 42
0.0000000001
 43
0.0000000001
 40
0.0
 40
0.0
 40
0.0
 40
0.0
 40
1.0
 40
1.0
 40
1.0
 40
1.0
 10
3992.59824745664
 20
1718.020540873665
 30
0.0
 10
3992.59824745664
 20
1718.020540873665
 30
0.0
 10
3992.59682639264
 20
1718.020540873665
 30
0.0
 10
3992.59682639264
 20
1718.020540873665
 30
0.0
  0
SPLINE
  5
10F5
330
1F
100
AcDbEntity
  8
SANINDUSA
100
AcDbSpline
210
0.0
220
0.0
230
1.0
 70
     8
 71
     3
 72
    12
 73
     8
 74
     0
 42
0.0000000001
 43
0.0000000001
 40
0.0
 40
0.0
 40
0.0
 40
0.0
 40
0.5
 40
0.5
 40
0.5
 40
0.5
 40
1.0
 40
1.0
 40
1.0
 40
1.0
 10
3992.59682639264
 20
1718.018104868865
 30
0.0
 10
3992.59682639264
 20
1718.018104868865
 30
0.0
 10
3992.59713098504
 20
1718.018713870065
 30
0.0
 10
3992.59713098504
 20
1718.018713870065
 30
0.0
 10
3992.59713098504
 20
1718.018713870065
 30
0.0
 10
3992.59713098504
 20
1718.018713870065
 30
0.0
 10
3992.59743539384
 20
1718.019322871265
 30
0.0
 10
3992.59743539384
 20
1718.019322871265
 30
0.0
  0
SPLINE
  5
10F6
330
1F
100
AcDbEntity
  8
SANINDUSA
100
AcDbSpline
210
0.0
220
0.0
230
1.0
 70
     8
 71
     3
 72
    12
 73
     8
 74
     0
 42
0.0000000001
 43
0.0000000001
 40
0.0
 40
0.0
 40
0.0
 40
0.0
 40
0.5
 40
0.5
 40
0.5
 40
0.5
 40
1.0
 40
1.0
 40
1.0
 40
1.0
 10
3992.59743539384
 20
1718.019322871265
 30
0.0
 10
3992.59743539384
 20
1718.019322871265
 30
0.0
 10
3992.59713098504
 20
1718.019931872465
 30
0.0
 10
3992.59713098504
 20
1718.019931872465
 30
0.0
 10
3992.59713098504
 20
1718.019931872465
 30
0.0
 10
3992.59713098504
 20
1718.019931872465
 30
0.0
 10
3992.59682639264
 20
1718.020540873665
 30
0.0
 10
3992.59682639264
 20
1718.020540873665
 30
0.0
  0
SPLINE
  5
10F7
330
1F
100
AcDbEntity
  8
SANINDUSA
100
AcDbSpline
210
0.0
220
0.0
230
1.0
 70
    11
 71
     3
 72
   228
 73
   224
 74
     0
 42
0.0000000001
 43
0.0000000001
 40
0.0
 40
0.0
 40
0.0
 40
0.0
 40
0.0178571428571429
 40
0.0178571428571429
 40
0.0178571428571429
 40
0.0178571428571429
 40
0.0357142857142857
 40
0.0357142857142857
 40
0.0357142857142857
 40
0.0357142857142857
 40
0.0535714285714286
 40
0.0535714285714286
 40
0.0535714285714286
 40
0.0535714285714286
 40
0.0714285714285714
 40
0.0714285714285714
 40
0.0714285714285714
 40
0.0714285714285714
 40
0.0892857142857143
 40
0.0892857142857143
 40
0.0892857142857143
 40
0.0892857142857143
 40
0.1071428571428571
 40
0.1071428571428571
 40
0.1071428571428571
 40
0.1071428571428571
 40
0.125
 40
0.125
 40
0.125
 40
0.125
 40
0.1428571428571428
 40
0.1428571428571428
 40
0.1428571428571428
 40
0.1428571428571428
 40
0.1607142857142857
 40
0.1607142857142857
 40
0.1607142857142857
 40
0.1607142857142857
 40
0.1785714285714285
 40
0.1785714285714285
 40
0.1785714285714285
 40
0.1785714285714285
 40
0.1964285714285714
 40
0.1964285714285714
 40
0.1964285714285714
 40
0.1964285714285714
 40
0.2142857142857142
 40
0.2142857142857142
 40
0.2142857142857142
 40
0.2142857142857142
 40
0.2321428571428571
 40
0.2321428571428571
 40
0.2321428571428571
 40
0.2321428571428571
 40
0.2499999999999999
 40
0.2499999999999999
 40
0.2499999999999999
 40
0.2499999999999999
 40
0.2678571428571428
 40
0.2678571428571428
 40
0.2678571428571428
 40
0.2678571428571428
 40
0.2857142857142856
 40
0.2857142857142856
 40
0.2857142857142856
 40
0.2857142857142856
 40
0.3035714285714285
 40
0.3035714285714285
 40
0.3035714285714285
 40
0.3035714285714285
 40
0.3214285714285713
 40
0.3214285714285713
 40
0.3214285714285713
 40
0.3214285714285713
 40
0.3392857142857142
 40
0.3392857142857142
 40
0.3392857142857142
 40
0.3392857142857142
 40
0.357142857142857
 40
0.357142857142857
 40
0.357142857142857
 40
0.357142857142857
 40
0.3749999999999999
 40
0.3749999999999999
 40
0.3749999999999999
 40
0.3749999999999999
 40
0.3928571428571427
 40
0.3928571428571427
 40
0.3928571428571427
 40
0.3928571428571427
 40
0.4107142857142856
 40
0.4107142857142856
 40
0.4107142857142856
 40
0.4107142857142856
 40
0.4285714285714285
 40
0.4285714285714285
 40
0.4285714285714285
 40
0.4285714285714285
 40
0.4464285714285713
 40
0.4464285714285713
 40
0.4464285714285713
 40
0.4464285714285713
 40
0.4642857142857142
 40
0.4642857142857142
 40
0.4642857142857142
 40
0.4642857142857142
 40
0.482142857142857
 40
0.482142857142857
 40
0.482142857142857
 40
0.482142857142857
 40
0.4999999999999999
 40
0.4999999999999999
 40
0.4999999999999999
 40
0.4999999999999999
 40
0.5178571428571427
 40
0.5178571428571427
 40
0.5178571428571427
 40
0.5178571428571427
 40
0.5357142857142856
 40
0.5357142857142856
 40
0.5357142857142856
 40
0.5357142857142856
 40
0.5535714285714285
 40
0.5535714285714285
 40
0.5535714285714285
 40
0.5535714285714285
 40
0.5714285714285714
 40
0.5714285714285714
 40
0.5714285714285714
 40
0.5714285714285714
 40
0.5892857142857144
 40
0.5892857142857144
 40
0.5892857142857144
 40
0.5892857142857144
 40
0.6071428571428572
 40
0.6071428571428572
 40
0.6071428571428572
 40
0.6071428571428572
 40
0.6250000000000001
 40
0.6250000000000001
 40
0.6250000000000001
 40
0.6250000000000001
 40
0.6428571428571431
 40
0.6428571428571431
 40
0.6428571428571431
 40
0.6428571428571431
 40
0.660714285714286
 40
0.660714285714286
 40
0.660714285714286
 40
0.660714285714286
 40
0.6785714285714289
 40
0.6785714285714289
 40
0.6785714285714289
 40
0.6785714285714289
 40
0.6964285714285717
 40
0.6964285714285717
 40
0.6964285714285717
 40
0.6964285714285717
 40
0.7142857142857146
 40
0.7142857142857146
 40
0.7142857142857146
 40
0.7142857142857146
 40
0.7321428571428576
 40
0.7321428571428576
 40
0.7321428571428576
 40
0.7321428571428576
 40
0.7500000000000005
 40
0.7500000000000005
 40
0.7500000000000005
 40
0.7500000000000005
 40
0.7678571428571434
 40
0.7678571428571434
 40
0.7678571428571434
 40
0.7678571428571434
 40
0.7857142857142863
 40
0.7857142857142863
 40
0.7857142857142863
 40
0.7857142857142863
 40
0.8035714285714291
 40
0.8035714285714291
 40
0.8035714285714291
 40
0.8035714285714291
 40
0.821428571428572
 40
0.821428571428572
 40
0.821428571428572
 40
0.821428571428572
 40
0.8392857142857149
 40
0.8392857142857149
 40
0.8392857142857149
 40
0.8392857142857149
 40
0.8571428571428578
 40
0.8571428571428578
 40
0.8571428571428578
 40
0.8571428571428578
 40
0.8750000000000007
 40
0.8750000000000007
 40
0.8750000000000007
 40
0.8750000000000007
 40
0.8928571428571437
 40
0.8928571428571437
 40
0.8928571428571437
 40
0.8928571428571437
 40
0.9107142857142866
 40
0.9107142857142866
 40
0.9107142857142866
 40
0.9107142857142866
 40
0.9285714285714295
 40
0.9285714285714295
 40
0.9285714285714295
 40
0.9285714285714295
 40
0.9464285714285724
 40
0.9464285714285724
 40
0.9464285714285724
 40
0.9464285714285724
 40
0.9642857142857153
 40
0.9642857142857153
 40
0.9642857142857153
 40
0.9642857142857153
 40
0.9821428571428581
 40
0.9821428571428581
 40
0.9821428571428581
 40
0.9821428571428581
 40
1.0
 40
1.0
 40
1.0
 40
1.0
 10
3992.59936392824
 20
1718.019322871265
 30
0.0
 10
3992.59936392824
 20
1718.019322871265
 30
0.0
 10
3992.59936392824
 20
1718.019931872465
 30
0.0
 10
3992.59936392824
 20
1718.019931872465
 30
0.0
 10
3992.59936392824
 20
1718.019931872465
 30
0.0
 10
3992.59936392824
 20
1718.019931872465
 30
0.0
 10
3992.59926221384
 20
1718.020134934065
 30
0.0
 10
3992.59926221384
 20
1718.020134934065
 30
0.0
 10
3992.59926221384
 20
1718.020134934065
 30
0.0
 10
3992.59926221384
 20
1718.020134934065
 30
0.0
 10
3992.599160866639
 20
1718.020236281265
 30
0.0
 10
3992.599160866639
 20
1718.020236281265
 30
0.0
 10
3992.599160866639
 20
1718.020236281265
 30
0.0
 10
3992.599160866639
 20
1718.020236281265
 30
0.0
 10
3992.599059519439
 20
1718.020439342865
 30
0.0
 10
3992.599059519439
 20
1718.020439342865
 30
0.0
 10
3992.599059519439
 20
1718.020439342865
 30
0.0
 10
3992.599059519439
 20
1718.020439342865
 30
0.0
 10
3992.59895780504
 20
1718.020540873665
 30
0.0
 10
3992.59895780504
 20
1718.020540873665
 30
0.0
 10
3992.59895780504
 20
1718.020540873665
 30
0.0
 10
3992.59895780504
 20
1718.020540873665
 30
0.0
 10
3992.59885645784
 20
1718.020743935265
 30
0.0
 10
3992.59885645784
 20
1718.020743935265
 30
0.0
 10
3992.59885645784
 20
1718.020743935265
 30
0.0
 10
3992.59885645784
 20
1718.020743935265
 30
0.0
 10
3992.59875492704
 20
1718.020845282465
 30
0.0
 10
3992.59875492704
 20
1718.020845282465
 30
0.0
 10
3992.59875492704
 20
1718.020845282465
 30
0.0
 10
3992.59875492704
 20
1718.020845282465
 30
0.0
 10
3992.59855186544
 20
1718.020946996865
 30
0.0
 10
3992.59855186544
 20
1718.020946996865
 30
0.0
 10
3992.59855186544
 20
1718.020946996865
 30
0.0
 10
3992.59855186544
 20
1718.020946996865
 30
0.0
 10
3992.59845051824
 20
1718.021048344065
 30
0.0
 10
3992.59845051824
 20
1718.021048344065
 30
0.0
 10
3992.59845051824
 20
1718.021048344065
 30
0.0
 10
3992.59845051824
 20
1718.021048344065
 30
0.0
 10
3992.59824745664
 20
1718.021149874865
 30
0.0
 10
3992.59824745664
 20
1718.021149874865
 30
0.0
 10
3992.59824745664
 20
1718.021149874865
 30
0.0
 10
3992.59824745664
 20
1718.021149874865
 30
0.0
 10
3992.59804439504
 20
1718.021251405665
 30
0.0
 10
3992.59804439504
 20
1718.021251405665
 30
0.0
 10
3992.59804439504
 20
1718.021251405665
 30
0.0
 10
3992.59804439504
 20
1718.021251405665
 30
0.0
 10
3992.597942864239
 20
1718.021251405665
 30
0.0
 10
3992.597942864239
 20
1718.021251405665
 30
0.0
 10
3992.597942864239
 20
1718.021251405665
 30
0.0
 10
3992.597942864239
 20
1718.021251405665
 30
0.0
 10
3992.59773980264
 20
1718.021352936465
 30
0.0
 10
3992.59773980264
 20
1718.021352936465
 30
0.0
 10
3992.59773980264
 20
1718.021352936465
 30
0.0
 10
3992.59773980264
 20
1718.021352936465
 30
0.0
 10
3992.597334046639
 20
1718.021352936465
 30
0.0
 10
3992.597334046639
 20
1718.021352936465
 30
0.0
 10
3992.597334046639
 20
1718.021352936465
 30
0.0
 10
3992.597334046639
 20
1718.021352936465
 30
0.0
 10
3992.59713098504
 20
1718.021251405665
 30
0.0
 10
3992.59713098504
 20
1718.021251405665
 30
0.0
 10
3992.59713098504
 20
1718.021251405665
 30
0.0
 10
3992.59713098504
 20
1718.021251405665
 30
0.0
 10
3992.59702945424
 20
1718.021251405665
 30
0.0
 10
3992.59702945424
 20
1718.021251405665
 30
0.0
 10
3992.59702945424
 20
1718.021251405665
 30
0.0
 10
3992.59702945424
 20
1718.021251405665
 30
0.0
 10
3992.59682639264
 20
1718.021149874865
 30
0.0
 10
3992.59682639264
 20
1718.021149874865
 30
0.0
 10
3992.59682639264
 20
1718.021149874865
 30
0.0
 10
3992.59682639264
 20
1718.021149874865
 30
0.0
 10
3992.59662351464
 20
1718.021048344065
 30
0.0
 10
3992.59662351464
 20
1718.021048344065
 30
0.0
 10
3992.59662351464
 20
1718.021048344065
 30
0.0
 10
3992.59662351464
 20
1718.021048344065
 30
0.0
 10
3992.59652198384
 20
1718.020946996865
 30
0.0
 10
3992.59652198384
 20
1718.020946996865
 30
0.0
 10
3992.59652198384
 20
1718.020946996865
 30
0.0
 10
3992.59652198384
 20
1718.020946996865
 30
0.0
 10
3992.596319105839
 20
1718.020845282465
 30
0.0
 10
3992.596319105839
 20
1718.020845282465
 30
0.0
 10
3992.596319105839
 20
1718.020845282465
 30
0.0
 10
3992.596319105839
 20
1718.020845282465
 30
0.0
 10
3992.596217391439
 20
1718.020743935265
 30
0.0
 10
3992.596217391439
 20
1718.020743935265
 30
0.0
 10
3992.596217391439
 20
1718.020743935265
 30
0.0
 10
3992.596217391439
 20
1718.020743935265
 30
0.0
 10
3992.596116044239
 20
1718.020540873665
 30
0.0
 10
3992.596116044239
 20
1718.020540873665
 30
0.0
 10
3992.596116044239
 20
1718.020540873665
 30
0.0
 10
3992.596116044239
 20
1718.020540873665
 30
0.0
 10
3992.59601469704
 20
1718.020439342865
 30
0.0
 10
3992.59601469704
 20
1718.020439342865
 30
0.0
 10
3992.59601469704
 20
1718.020439342865
 30
0.0
 10
3992.59601469704
 20
1718.020439342865
 30
0.0
 10
3992.59591298264
 20
1718.020236281265
 30
0.0
 10
3992.59591298264
 20
1718.020236281265
 30
0.0
 10
3992.59591298264
 20
1718.020236281265
 30
0.0
 10
3992.59591298264
 20
1718.020236281265
 30
0.0
 10
3992.595811635439
 20
1718.020134934065
 30
0.0
 10
3992.595811635439
 20
1718.020134934065
 30
0.0
 10
3992.595811635439
 20
1718.020134934065
 30
0.0
 10
3992.595811635439
 20
1718.020134934065
 30
0.0
 10
3992.59571010464
 20
1718.019931872465
 30
0.0
 10
3992.59571010464
 20
1718.019931872465
 30
0.0
 10
3992.59571010464
 20
1718.019931872465
 30
0.0
 10
3992.59571010464
 20
1718.019931872465
 30
0.0
 10
3992.59571010464
 20
1718.019525932865
 30
0.0
 10
3992.59571010464
 20
1718.019525932865
 30
0.0
 10
3992.59571010464
 20
1718.019525932865
 30
0.0
 10
3992.59571010464
 20
1718.019525932865
 30
0.0
 10
3992.59560839024
 20
1718.019322871265
 30
0.0
 10
3992.59560839024
 20
1718.019322871265
 30
0.0
 10
3992.59560839024
 20
1718.019322871265
 30
0.0
 10
3992.59560839024
 20
1718.019322871265
 30
0.0
 10
3992.59571010464
 20
1718.019119993265
 30
0.0
 10
3992.59571010464
 20
1718.019119993265
 30
0.0
 10
3992.59571010464
 20
1718.019119993265
 30
0.0
 10
3992.59571010464
 20
1718.019119993265
 30
0.0
 10
3992.59571010464
 20
1718.018713870065
 30
0.0
 10
3992.59571010464
 20
1718.018713870065
 30
0.0
 10
3992.59571010464
 20
1718.018713870065
 30
0.0
 10
3992.59571010464
 20
1718.018713870065
 30
0.0
 10
3992.595811635439
 20
1718.018511175665
 30
0.0
 10
3992.595811635439
 20
1718.018511175665
 30
0.0
 10
3992.595811635439
 20
1718.018511175665
 30
0.0
 10
3992.595811635439
 20
1718.018511175665
 30
0.0
 10
3992.59591298264
 20
1718.018409461265
 30
0.0
 10
3992.59591298264
 20
1718.018409461265
 30
0.0
 10
3992.59591298264
 20
1718.018409461265
 30
0.0
 10
3992.59591298264
 20
1718.018409461265
 30
0.0
 10
3992.59601469704
 20
1718.018206583265
 30
0.0
 10
3992.59601469704
 20
1718.018206583265
 30
0.0
 10
3992.59601469704
 20
1718.018206583265
 30
0.0
 10
3992.59601469704
 20
1718.018206583265
 30
0.0
 10
3992.596116044239
 20
1718.018003521665
 30
0.0
 10
3992.596116044239
 20
1718.018003521665
 30
0.0
 10
3992.596116044239
 20
1718.018003521665
 30
0.0
 10
3992.596116044239
 20
1718.018003521665
 30
0.0
 10
3992.596217391439
 20
1718.017902174465
 30
0.0
 10
3992.596217391439
 20
1718.017902174465
 30
0.0
 10
3992.596217391439
 20
1718.017902174465
 30
0.0
 10
3992.596217391439
 20
1718.017902174465
 30
0.0
 10
3992.596319105839
 20
1718.017800460065
 30
0.0
 10
3992.596319105839
 20
1718.017800460065
 30
0.0
 10
3992.596319105839
 20
1718.017800460065
 30
0.0
 10
3992.596319105839
 20
1718.017800460065
 30
0.0
 10
3992.59652198384
 20
1718.017699112865
 30
0.0
 10
3992.59652198384
 20
1718.017699112865
 30
0.0
 10
3992.59652198384
 20
1718.017699112865
 30
0.0
 10
3992.59652198384
 20
1718.017699112865
 30
0.0
 10
3992.59662351464
 20
1718.017597582065
 30
0.0
 10
3992.59662351464
 20
1718.017597582065
 30
0.0
 10
3992.59662351464
 20
1718.017597582065
 30
0.0
 10
3992.59662351464
 20
1718.017597582065
 30
0.0
 10
3992.59682639264
 20
1718.017496051265
 30
0.0
 10
3992.59682639264
 20
1718.017496051265
 30
0.0
 10
3992.59682639264
 20
1718.017496051265
 30
0.0
 10
3992.59682639264
 20
1718.017496051265
 30
0.0
 10
3992.59702945424
 20
1718.017394520465
 30
0.0
 10
3992.59702945424
 20
1718.017394520465
 30
0.0
 10
3992.59702945424
 20
1718.017394520465
 30
0.0
 10
3992.59702945424
 20
1718.017394520465
 30
0.0
 10
3992.59713098504
 20
1718.017394520465
 30
0.0
 10
3992.59713098504
 20
1718.017394520465
 30
0.0
 10
3992.59713098504
 20
1718.017394520465
 30
0.0
 10
3992.59713098504
 20
1718.017394520465
 30
0.0
 10
3992.597334046639
 20
1718.017293173265
 30
0.0
 10
3992.597334046639
 20
1718.017293173265
 30
0.0
 10
3992.597334046639
 20
1718.017293173265
 30
0.0
 10
3992.597334046639
 20
1718.017293173265
 30
0.0
 10
3992.59773980264
 20
1718.017293173265
 30
0.0
 10
3992.59773980264
 20
1718.017293173265
 30
0.0
 10
3992.59773980264
 20
1718.017293173265
 30
0.0
 10
3992.59773980264
 20
1718.017293173265
 30
0.0
 10
3992.597942864239
 20
1718.017394520465
 30
0.0
 10
3992.597942864239
 20
1718.017394520465
 30
0.0
 10
3992.597942864239
 20
1718.017394520465
 30
0.0
 10
3992.597942864239
 20
1718.017394520465
 30
0.0
 10
3992.59804439504
 20
1718.017394520465
 30
0.0
 10
3992.59804439504
 20
1718.017394520465
 30
0.0
 10
3992.59804439504
 20
1718.017394520465
 30
0.0
 10
3992.59804439504
 20
1718.017394520465
 30
0.0
 10
3992.59824745664
 20
1718.017496051265
 30
0.0
 10
3992.59824745664
 20
1718.017496051265
 30
0.0
 10
3992.59824745664
 20
1718.017496051265
 30
0.0
 10
3992.59824745664
 20
1718.017496051265
 30
0.0
 10
3992.59845051824
 20
1718.017597582065
 30
0.0
 10
3992.59845051824
 20
1718.017597582065
 30
0.0
 10
3992.59845051824
 20
1718.017597582065
 30
0.0
 10
3992.59845051824
 20
1718.017597582065
 30
0.0
 10
3992.59855186544
 20
1718.017699112865
 30
0.0
 10
3992.59855186544
 20
1718.017699112865
 30
0.0
 10
3992.59855186544
 20
1718.017699112865
 30
0.0
 10
3992.59855186544
 20
1718.017699112865
 30
0.0
 10
3992.59875492704
 20
1718.017800460065
 30
0.0
 10
3992.59875492704
 20
1718.017800460065
 30
0.0
 10
3992.59875492704
 20
1718.017800460065
 30
0.0
 10
3992.59875492704
 20
1718.017800460065
 30
0.0
 10
3992.59885645784
 20
1718.017902174465
 30
0.0
 10
3992.59885645784
 20
1718.017902174465
 30
0.0
 10
3992.59885645784
 20
1718.017902174465
 30
0.0
 10
3992.59885645784
 20
1718.017902174465
 30
0.0
 10
3992.59895780504
 20
1718.018003521665
 30
0.0
 10
3992.59895780504
 20
1718.018003521665
 30
0.0
 10
3992.59895780504
 20
1718.018003521665
 30
0.0
 10
3992.59895780504
 20
1718.018003521665
 30
0.0
 10
3992.599059519439
 20
1718.018206583265
 30
0.0
 10
3992.599059519439
 20
1718.018206583265
 30
0.0
 10
3992.599059519439
 20
1718.018206583265
 30
0.0
 10
3992.599059519439
 20
1718.018206583265
 30
0.0
 10
3992.599160866639
 20
1718.018409461265
 30
0.0
 10
3992.599160866639
 20
1718.018409461265
 30
0.0
 10
3992.599160866639
 20
1718.018409461265
 30
0.0
 10
3992.599160866639
 20
1718.018409461265
 30
0.0
 10
3992.59926221384
 20
1718.018511175665
 30
0.0
 10
3992.59926221384
 20
1718.018511175665
 30
0.0
 10
3992.59926221384
 20
1718.018511175665
 30
0.0
 10
3992.59926221384
 20
1718.018511175665
 30
0.0
 10
3992.59936392824
 20
1718.018713870065
 30
0.0
 10
3992.59936392824
 20
1718.018713870065
 30
0.0
 10
3992.59936392824
 20
1718.018713870065
 30
0.0
 10
3992.59936392824
 20
1718.018713870065
 30
0.0
 10
3992.59936392824
 20
1718.019322871265
 30
0.0
 10
3992.59936392824
 20
1718.019322871265
 30
0.0
  0
SPLINE
  5
10F8
330
1F
100
AcDbEntity
  8
SANINDUSA
100
AcDbSpline
210
0.0
220
0.0
230
1.0
 70
    24
 71
     3
 72
     8
 73
     4
 74
     0
 42
0.0000000001
 43
0.0000000001
 40
0.0
 40
0.0
 40
0.0
 40
0.0
 40
1.0
 40
1.0
 40
1.0
 40
1.0
 10
3992.59824745664
 20
1718.018104868865
 30
0.0
 10
3992.59824745664
 20
1718.018104868865
 30
0.0
 10
3992.59682639264
 20
1718.018104868865
 30
0.0
 10
3992.59682639264
 20
1718.018104868865
 30
0.0
  0
SPLINE
  5
10F9
330
1F
100
AcDbEntity
  8
SANINDUSA
100
AcDbSpline
210
0.0
220
0.0
230
1.0
 70
    24
 71
     3
 72
     8
 73
     4
 74
     0
 42
0.0000000001
 43
0.0000000001
 40
0.0
 40
0.0
 40
0.0
 40
0.0
 40
1.0
 40
1.0
 40
1.0
 40
1.0
 10
3992.59885645784
 20
1718.019322871265
 30
0.0
 10
3992.59885645784
 20
1718.019322871265
 30
0.0
 10
3992.59824745664
 20
1718.018104868865
 30
0.0
 10
3992.59824745664
 20
1718.018104868865
 30
0.0
  0
SPLINE
  5
10FC
330
1F
100
AcDbEntity
  8
SANINDUSA
100
AcDbSpline
210
0.0
220
0.0
230
1.0
 70
    24
 71
     3
 72
     8
 73
     4
 74
     0
 42
0.0000000001
 43
0.0000000001
 40
0.0
 40
0.0
 40
0.0
 40
0.0
 40
1.0
 40
1.0
 40
1.0
 40
1.0
 10
3992.59885645784
 20
1718.019322871265
 30
0.0
 10
3992.59885645784
 20
1718.019322871265
 30
0.0
 10
3992.59743539384
 20
1718.019322871265
 30
0.0
 10
3992.59743539384
 20
1718.019322871265
 30
0.0
  0
SPLINE
  5
10FD
330
1F
100
AcDbEntity
  8
SANINDUSA
100
AcDbSpline
210
0.0
220
0.0
230
1.0
 70
    24
 71
     3
 72
     8
 73
     4
 74
     0
 42
0.0000000001
 43
0.0000000001
 40
0.0
 40
0.0
 40
0.0
 40
0.0
 40
1.0
 40
1.0
 40
1.0
 40
1.0
 10
3992.59885645784
 20
1718.019322871265
 30
0.0
 10
3992.59885645784
 20
1718.019322871265
 30
0.0
 10
3992.59824745664
 20
1718.020540873665
 30
0.0
 10
3992.59824745664
 20
1718.020540873665
 30
0.0
  0
SPLINE
  5
10FE
330
1F
100
AcDbEntity
  8
SANINDUSA
100
AcDbSpline
210
0.0
220
0.0
230
1.0
 70
    24
 71
     3
 72
     8
 73
     4
 74
     0
 42
0.0000000001
 43
0.0000000001
 40
0.0
 40
0.0
 40
0.0
 40
0.0
 40
1.0
 40
1.0
 40
1.0
 40
1.0
 10
3992.596217391439
 20
1718.019322871265
 30
0.0
 10
3992.596217391439
 20
1718.019322871265
 30
0.0
 10
3992.59682639264
 20
1718.020540873665
 30
0.0
 10
3992.59682639264
 20
1718.020540873665
 30
0.0
  0
SPLINE
  5
10FF
330
1F
100
AcDbEntity
  8
SANINDUSA
100
AcDbSpline
210
0.0
220
0.0
230
1.0
 70
    24
 71
     3
 72
     8
 73
     4
 74
     0
 42
0.0000000001
 43
0.0000000001
 40
0.0
 40
0.0
 40
0.0
 40
0.0
 40
1.0
 40
1.0
 40
1.0
 40
1.0
 10
3992.596217391439
 20
1718.019322871265
 30
0.0
 10
3992.596217391439
 20
1718.019322871265
 30
0.0
 10
3992.59682639264
 20
1718.018104868865
 30
0.0
 10
3992.59682639264
 20
1718.018104868865
 30
0.0
  0
SPLINE
  5
1102
330
1F
100
AcDbEntity
  8
SANINDUSA
100
AcDbSpline
210
0.0
220
0.0
230
1.0
 70
     8
 71
     3
 72
    48
 73
    44
 74
     0
 42
0.0000000001
 43
0.0000000001
 40
0.0
 40
0.0
 40
0.0
 40
0.0
 40
0.0909090909090909
 40
0.0909090909090909
 40
0.0909090909090909
 40
0.0909090909090909
 40
0.1818181818181818
 40
0.1818181818181818
 40
0.1818181818181818
 40
0.1818181818181818
 40
0.2727272727272727
 40
0.2727272727272727
 40
0.2727272727272727
 40
0.2727272727272727
 40
0.3636363636363637
 40
0.3636363636363637
 40
0.3636363636363637
 40
0.3636363636363637
 40
0.4545454545454546
 40
0.4545454545454546
 40
0.4545454545454546
 40
0.4545454545454546
 40
0.5454545454545455
 40
0.5454545454545455
 40
0.5454545454545455
 40
0.5454545454545455
 40
0.6363636363636365
 40
0.6363636363636365
 40
0.6363636363636365
 40
0.6363636363636365
 40
0.7272727272727275
 40
0.7272727272727275
 40
0.7272727272727275
 40
0.7272727272727275
 40
0.8181818181818183
 40
0.8181818181818183
 40
0.8181818181818183
 40
0.8181818181818183
 40
0.9090909090909093
 40
0.9090909090909093
 40
0.9090909090909093
 40
0.9090909090909093
 40
1.0
 40
1.0
 40
1.0
 40
1.0
 10
3992.568509213839
 20
1718.010391465665
 30
0.0
 10
3992.568509213839
 20
1718.010391465665
 30
0.0
 10
3992.56820480504
 20
1718.010391465665
 30
0.0
 10
3992.56820480504
 20
1718.010391465665
 30
0.0
 10
3992.56820480504
 20
1718.010391465665
 30
0.0
 10
3992.56820480504
 20
1718.010391465665
 30
0.0
 10
3992.56810345784
 20
1718.010492812865
 30
0.0
 10
3992.56810345784
 20
1718.010492812865
 30
0.0
 10
3992.56810345784
 20
1718.010492812865
 30
0.0
 10
3992.56810345784
 20
1718.010492812865
 30
0.0
 10
3992.56800192704
 20
1718.010492812865
 30
0.0
 10
3992.56800192704
 20
1718.010492812865
 30
0.0
 10
3992.56800192704
 20
1718.010492812865
 30
0.0
 10
3992.56800192704
 20
1718.010492812865
 30
0.0
 10
3992.56790039624
 20
1718.010594527265
 30
0.0
 10
3992.56790039624
 20
1718.010594527265
 30
0.0
 10
3992.56790039624
 20
1718.010594527265
 30
0.0
 10
3992.56790039624
 20
1718.010594527265
 30
0.0
 10
3992.56779886544
 20
1718.010594527265
 30
0.0
 10
3992.56779886544
 20
1718.010594527265
 30
0.0
 10
3992.56779886544
 20
1718.010594527265
 30
0.0
 10
3992.56779886544
 20
1718.010594527265
 30
0.0
 10
3992.56769751824
 20
1718.010695874465
 30
0.0
 10
3992.56769751824
 20
1718.010695874465
 30
0.0
 10
3992.56769751824
 20
1718.010695874465
 30
0.0
 10
3992.56769751824
 20
1718.010695874465
 30
0.0
 10
3992.56759580384
 20
1718.010797221665
 30
0.0
 10
3992.56759580384
 20
1718.010797221665
 30
0.0
 10
3992.56759580384
 20
1718.010797221665
 30
0.0
 10
3992.56759580384
 20
1718.010797221665
 30
0.0
 10
3992.56749445664
 20
1718.010898936065
 30
0.0
 10
3992.56749445664
 20
1718.010898936065
 30
0.0
 10
3992.56749445664
 20
1718.010898936065
 30
0.0
 10
3992.56749445664
 20
1718.010898936065
 30
0.0
 10
3992.56739292584
 20
1718.011000283265
 30
0.0
 10
3992.56739292584
 20
1718.011000283265
 30
0.0
 10
3992.56739292584
 20
1718.011000283265
 30
0.0
 10
3992.56739292584
 20
1718.011000283265
 30
0.0
 10
3992.56739292584
 20
1718.011101814065
 30
0.0
 10
3992.56739292584
 20
1718.011101814065
 30
0.0
 10
3992.56739292584
 20
1718.011101814065
 30
0.0
 10
3992.56739292584
 20
1718.011101814065
 30
0.0
 10
3992.56729139504
 20
1718.011203528465
 30
0.0
 10
3992.56729139504
 20
1718.011203528465
 30
0.0
  0
SPLINE
  5
1103
330
1F
100
AcDbEntity
  8
SANINDUSA
100
AcDbSpline
210
0.0
220
0.0
230
1.0
 70
    24
 71
     3
 72
     8
 73
     4
 74
     0
 42
0.0000000001
 43
0.0000000001
 40
0.0
 40
0.0
 40
0.0
 40
0.0
 40
1.0
 40
1.0
 40
1.0
 40
1.0
 10
3992.60565645104
 20
1718.010391465665
 30
0.0
 10
3992.60565645104
 20
1718.010391465665
 30
0.0
 10
3992.568509213839
 20
1718.010391465665
 30
0.0
 10
3992.568509213839
 20
1718.010391465665
 30
0.0
  0
SPLINE
  5
1104
330
1F
100
AcDbEntity
  8
SANINDUSA
100
AcDbSpline
210
0.0
220
0.0
230
1.0
 70
     8
 71
     3
 72
    48
 73
    44
 74
     0
 42
0.0000000001
 43
0.0000000001
 40
0.0
 40
0.0
 40
0.0
 40
0.0
 40
0.0909090909090909
 40
0.0909090909090909
 40
0.0909090909090909
 40
0.0909090909090909
 40
0.1818181818181818
 40
0.1818181818181818
 40
0.1818181818181818
 40
0.1818181818181818
 40
0.2727272727272727
 40
0.2727272727272727
 40
0.2727272727272727
 40
0.2727272727272727
 40
0.3636363636363637
 40
0.3636363636363637
 40
0.3636363636363637
 40
0.3636363636363637
 40
0.4545454545454546
 40
0.4545454545454546
 40
0.4545454545454546
 40
0.4545454545454546
 40
0.5454545454545455
 40
0.5454545454545455
 40
0.5454545454545455
 40
0.5454545454545455
 40
0.6363636363636365
 40
0.6363636363636365
 40
0.6363636363636365
 40
0.6363636363636365
 40
0.7272727272727275
 40
0.7272727272727275
 40
0.7272727272727275
 40
0.7272727272727275
 40
0.8181818181818183
 40
0.8181818181818183
 40
0.8181818181818183
 40
0.8181818181818183
 40
0.9090909090909093
 40
0.9090909090909093
 40
0.9090909090909093
 40
0.9090909090909093
 40
1.0
 40
1.0
 40
1.0
 40
1.0
 10
3992.60687445344
 20
1718.011203528465
 30
0.0
 10
3992.60687445344
 20
1718.011203528465
 30
0.0
 10
3992.60687445344
 20
1718.011101814065
 30
0.0
 10
3992.60687445344
 20
1718.011101814065
 30
0.0
 10
3992.60687445344
 20
1718.011101814065
 30
0.0
 10
3992.60687445344
 20
1718.011101814065
 30
0.0
 10
3992.60677310624
 20
1718.011000283265
 30
0.0
 10
3992.60677310624
 20
1718.011000283265
 30
0.0
 10
3992.60677310624
 20
1718.011000283265
 30
0.0
 10
3992.60677310624
 20
1718.011000283265
 30
0.0
 10
3992.60667157544
 20
1718.010898936065
 30
0.0
 10
3992.60667157544
 20
1718.010898936065
 30
0.0
 10
3992.60667157544
 20
1718.010898936065
 30
0.0
 10
3992.60667157544
 20
1718.010898936065
 30
0.0
 10
3992.60667157544
 20
1718.010797221665
 30
0.0
 10
3992.60667157544
 20
1718.010797221665
 30
0.0
 10
3992.60667157544
 20
1718.010797221665
 30
0.0
 10
3992.60667157544
 20
1718.010797221665
 30
0.0
 10
3992.60656986104
 20
1718.010695874465
 30
0.0
 10
3992.60656986104
 20
1718.010695874465
 30
0.0
 10
3992.60656986104
 20
1718.010695874465
 30
0.0
 10
3992.60656986104
 20
1718.010695874465
 30
0.0
 10
3992.606468513839
 20
1718.010594527265
 30
0.0
 10
3992.606468513839
 20
1718.010594527265
 30
0.0
 10
3992.606468513839
 20
1718.010594527265
 30
0.0
 10
3992.606468513839
 20
1718.010594527265
 30
0.0
 10
3992.60636716664
 20
1718.010594527265
 30
0.0
 10
3992.60636716664
 20
1718.010594527265
 30
0.0
 10
3992.60636716664
 20
1718.010594527265
 30
0.0
 10
3992.60636716664
 20
1718.010594527265
 30
0.0
 10
3992.60616410504
 20
1718.010492812865
 30
0.0
 10
3992.60616410504
 20
1718.010492812865
 30
0.0
 10
3992.60616410504
 20
1718.010492812865
 30
0.0
 10
3992.60616410504
 20
1718.010492812865
 30
0.0
 10
3992.60606257424
 20
1718.010492812865
 30
0.0
 10
3992.60606257424
 20
1718.010492812865
 30
0.0
 10
3992.60606257424
 20
1718.010492812865
 30
0.0
 10
3992.60606257424
 20
1718.010492812865
 30
0.0
 10
3992.60596104344
 20
1718.010391465665
 30
0.0
 10
3992.60596104344
 20
1718.010391465665
 30
0.0
 10
3992.60596104344
 20
1718.010391465665
 30
0.0
 10
3992.60596104344
 20
1718.010391465665
 30
0.0
 10
3992.60565645104
 20
1718.010391465665
 30
0.0
 10
3992.60565645104
 20
1718.010391465665
 30
0.0
  0
SPLINE
  5
1105
330
1F
100
AcDbEntity
  8
SANINDUSA
100
AcDbSpline
210
0.0
220
0.0
230
1.0
 70
    24
 71
     3
 72
     8
 73
     4
 74
     0
 42
0.0000000001
 43
0.0000000001
 40
0.0
 40
0.0
 40
0.0
 40
0.0
 40
1.0
 40
1.0
 40
1.0
 40
1.0
 10
3992.57429444984
 20
1718.002271755665
 30
0.0
 10
3992.57429444984
 20
1718.002271755665
 30
0.0
 10
3992.57439616424
 20
1718.002271755665
 30
0.0
 10
3992.57439616424
 20
1718.002271755665
 30
0.0
  0
SPLINE
  5
1106
330
1F
100
AcDbEntity
  8
SANINDUSA
100
AcDbSpline
210
0.0
220
0.0
230
1.0
 70
    24
 71
     3
 72
     8
 73
     4
 74
     0
 42
0.0000000001
 43
0.0000000001
 40
0.0
 40
0.0
 40
0.0
 40
0.0
 40
1.0
 40
1.0
 40
1.0
 40
1.0
 10
3992.57439616424
 20
1718.002271755665
 30
0.0
 10
3992.57439616424
 20
1718.002271755665
 30
0.0
 10
3992.60108921744
 20
1718.002271755665
 30
0.0
 10
3992.60108921744
 20
1718.002271755665
 30
0.0
  0
SPLINE
  5
1107
330
1F
100
AcDbEntity
  8
SANINDUSA
100
AcDbSpline
210
0.0
220
0.0
230
1.0
 70
    24
 71
     3
 72
     8
 73
     4
 74
     0
 42
0.0000000001
 43
0.0000000001
 40
0.0
 40
0.0
 40
0.0
 40
0.0
 40
1.0
 40
1.0
 40
1.0
 40
1.0
 10
3992.58210975104
 20
1718.011203528465
 30
0.0
 10
3992.58210975104
 20
1718.011203528465
 30
0.0
 10
3992.59205628104
 20
1718.011203528465
 30
0.0
 10
3992.59205628104
 20
1718.011203528465
 30
0.0
  0
SPLINE
  5
1108
330
1F
100
AcDbEntity
  8
SANINDUSA
100
AcDbSpline
210
0.0
220
0.0
230
1.0
 70
    24
 71
     3
 72
     8
 73
     4
 74
     0
 42
0.0000000001
 43
0.0000000001
 40
0.0
 40
0.0
 40
0.0
 40
0.0
 40
1.0
 40
1.0
 40
1.0
 40
1.0
 10
3992.57439616424
 20
1718.002271755665
 30
0.0
 10
3992.57439616424
 20
1718.002271755665
 30
0.0
 10
3992.57439616424
 20
1718.010391465665
 30
0.0
 10
3992.57439616424
 20
1718.010391465665
 30
0.0
  0
SPLINE
  5
1109
330
1F
100
AcDbEntity
  8
SANINDUSA
100
AcDbSpline
210
0.0
220
0.0
230
1.0
 70
    24
 71
     3
 72
     8
 73
     4
 74
     0
 42
0.0000000001
 43
0.0000000001
 40
0.0
 40
0.0
 40
0.0
 40
0.0
 40
1.0
 40
1.0
 40
1.0
 40
1.0
 10
3992.57429444984
 20
1718.010391465665
 30
0.0
 10
3992.57429444984
 20
1718.010391465665
 30
0.0
 10
3992.57429444984
 20
1718.002271755665
 30
0.0
 10
3992.57429444984
 20
1718.002271755665
 30
0.0
  0
SPLINE
  5
110A
330
1F
100
AcDbEntity
  8
SANINDUSA
100
AcDbSpline
210
0.0
220
0.0
230
1.0
 70
    24
 71
     3
 72
     8
 73
     4
 74
     0
 42
0.0000000001
 43
0.0000000001
 40
0.0
 40
0.0
 40
0.0
 40
0.0
 40
1.0
 40
1.0
 40
1.0
 40
1.0
 10
3992.60108921744
 20
1718.010391465665
 30
0.0
 10
3992.60108921744
 20
1718.010391465665
 30
0.0
 10
3992.60108921744
 20
1718.002271755665
 30
0.0
 10
3992.60108921744
 20
1718.002271755665
 30
0.0
  0
SPLINE
  5
110B
330
1F
100
AcDbEntity
  8
SANINDUSA
100
AcDbSpline
210
0.0
220
0.0
230
1.0
 70
    24
 71
     3
 72
     8
 73
     4
 74
     0
 42
0.0000000001
 43
0.0000000001
 40
0.0
 40
0.0
 40
0.0
 40
0.0
 40
1.0
 40
1.0
 40
1.0
 40
1.0
 10
3992.56008527864
 20
1718.063168754465
 30
0.0
 10
3992.56008527864
 20
1718.063168754465
 30
0.0
 10
3992.56008527864
 20
1718.049162461265
 30
0.0
 10
3992.56008527864
 20
1718.049162461265
 30
0.0
  0
SPLINE
  5
110E
330
1F
100
AcDbEntity
  8
SANINDUSA
100
AcDbSpline
210
0.0
220
0.0
230
1.0
 70
    24
 71
     3
 72
     8
 73
     4
 74
     0
 42
0.0000000001
 43
0.0000000001
 40
0.0
 40
0.0
 40
0.0
 40
0.0
 40
1.0
 40
1.0
 40
1.0
 40
1.0
 10
3992.55967915544
 20
1718.044392349665
 30
0.0
 10
3992.55967915544
 20
1718.044392349665
 30
0.0
 10
3992.55967915544
 20
1718.068040580465
 30
0.0
 10
3992.55967915544
 20
1718.068040580465
 30
0.0
  0
SPLINE
  5
110F
330
1F
100
AcDbEntity
  8
SANINDUSA
100
AcDbSpline
210
0.0
220
0.0
230
1.0
 70
    24
 71
     3
 72
    24
 73
    20
 74
     0
 42
0.0000000001
 43
0.0000000001
 40
0.0
 40
0.0
 40
0.0
 40
0.0
 40
0.2
 40
0.2
 40
0.2
 40
0.2
 40
0.4
 40
0.4
 40
0.4
 40
0.4
 40
0.6000000000000001
 40
0.6000000000000001
 40
0.6000000000000001
 40
0.6000000000000001
 40
0.8
 40
0.8
 40
0.8
 40
0.8
 40
1.0
 40
1.0
 40
1.0
 40
1.0
 10
3992.58860533544
 20
1718.011304875665
 30
0.0
 10
3992.58860533544
 20
1718.011304875665
 30
0.0
 10
3992.58850398824
 20
1718.011304875665
 30
0.0
 10
3992.58850398824
 20
1718.011304875665
 30
0.0
 10
3992.58850398824
 20
1718.011304875665
 30
0.0
 10
3992.58850398824
 20
1718.011304875665
 30
0.0
 10
3992.588300926639
 20
1718.011304875665
 30
0.0
 10
3992.588300926639
 20
1718.011304875665
 30
0.0
 10
3992.588300926639
 20
1718.011304875665
 30
0.0
 10
3992.588300926639
 20
1718.011304875665
 30
0.0
 10
3992.58576357464
 20
1718.011304875665
 30
0.0
 10
3992.58576357464
 20
1718.011304875665
 30
0.0
 10
3992.58576357464
 20
1718.011304875665
 30
0.0
 10
3992.58576357464
 20
1718.011304875665
 30
0.0
 10
3992.58566204384
 20
1718.011304875665
 30
0.0
 10
3992.58566204384
 20
1718.011304875665
 30
0.0
 10
3992.58566204384
 20
1718.011304875665
 30
0.0
 10
3992.58566204384
 20
1718.011304875665
 30
0.0
 10
3992.58556051304
 20
1718.011304875665
 30
0.0
 10
3992.58556051304
 20
1718.011304875665
 30
0.0
  0
SPLINE
  5
1110
330
1F
100
AcDbEntity
  8
SANINDUSA
100
AcDbSpline
210
0.0
220
0.0
230
1.0
 70
    24
 71
     3
 72
     8
 73
     4
 74
     0
 42
0.0000000001
 43
0.0000000001
 40
0.0
 40
0.0
 40
0.0
 40
0.0
 40
1.0
 40
1.0
 40
1.0
 40
1.0
 10
3992.58860533544
 20
1718.011304875665
 30
0.0
 10
3992.58860533544
 20
1718.011304875665
 30
0.0
 10
3992.588808397039
 20
1718.011507937265
 30
0.0
 10
3992.588808397039
 20
1718.011507937265
 30
0.0
  0
SPLINE
  5
1111
330
1F
100
AcDbEntity
  8
SANINDUSA
100
AcDbSpline
210
0.0
220
0.0
230
1.0
 70
    24
 71
     3
 72
     8
 73
     4
 74
     0
 42
0.0000000001
 43
0.0000000001
 40
0.0
 40
0.0
 40
0.0
 40
0.0
 40
1.0
 40
1.0
 40
1.0
 40
1.0
 10
3992.58556051304
 20
1718.011304875665
 30
0.0
 10
3992.58556051304
 20
1718.011304875665
 30
0.0
 10
3992.58545898224
 20
1718.011507937265
 30
0.0
 10
3992.58545898224
 20
1718.011507937265
 30
0.0
  0
SPLINE
  5
1112
330
1F
100
AcDbEntity
  8
SANINDUSA
100
AcDbSpline
210
0.0
220
0.0
230
1.0
 70
    24
 71
     3
 72
     8
 73
     4
 74
     0
 42
0.0000000001
 43
0.0000000001
 40
0.0
 40
0.0
 40
0.0
 40
0.0
 40
1.0
 40
1.0
 40
1.0
 40
1.0
 10
3992.595101103439
 20
1718.019322871265
 30
0.0
 10
3992.595101103439
 20
1718.019322871265
 30
0.0
 10
3992.595101103439
 20
1718.019525932865
 30
0.0
 10
3992.595101103439
 20
1718.019525932865
 30
0.0
  0
SPLINE
  5
1113
330
1F
100
AcDbEntity
  8
SANINDUSA
100
AcDbSpline
210
0.0
220
0.0
230
1.0
 70
    24
 71
     3
 72
     8
 73
     4
 74
     0
 42
0.0000000001
 43
0.0000000001
 40
0.0
 40
0.0
 40
0.0
 40
0.0
 40
1.0
 40
1.0
 40
1.0
 40
1.0
 10
3992.57906492864
 20
1718.019525932865
 30
0.0
 10
3992.57906492864
 20
1718.019525932865
 30
0.0
 10
3992.57906492864
 20
1718.019322871265
 30
0.0
 10
3992.57906492864
 20
1718.019322871265
 30
0.0
  0
SPLINE
  5
1114
330
1F
100
AcDbEntity
  8
SANINDUSA
100
AcDbSpline
210
0.0
220
0.0
230
1.0
 70
     8
 71
     3
 72
    28
 73
    24
 74
     0
 42
0.0000000001
 43
0.0000000001
 40
0.0
 40
0.0
 40
0.0
 40
0.0
 40
0.1666666666666666
 40
0.1666666666666666
 40
0.1666666666666666
 40
0.1666666666666666
 40
0.3333333333333333
 40
0.3333333333333333
 40
0.3333333333333333
 40
0.3333333333333333
 40
0.5
 40
0.5
 40
0.5
 40
0.5
 40
0.6666666666666666
 40
0.6666666666666666
 40
0.6666666666666666
 40
0.6666666666666666
 40
0.8333333333333332
 40
0.8333333333333332
 40
0.8333333333333332
 40
0.8333333333333332
 40
1.0
 40
1.0
 40
1.0
 40
1.0
 10
3992.595101103439
 20
1718.019525932865
 30
0.0
 10
3992.595101103439
 20
1718.019525932865
 30
0.0
 10
3992.594694980239
 20
1718.025412516065
 30
0.0
 10
3992.594694980239
 20
1718.025412516065
 30
0.0
 10
3992.594694980239
 20
1718.025412516065
 30
0.0
 10
3992.594694980239
 20
1718.025412516065
 30
0.0
 10
3992.594085979039
 20
1718.031197752065
 30
0.0
 10
3992.594085979039
 20
1718.031197752065
 30
0.0
 10
3992.594085979039
 20
1718.031197752065
 30
0.0
 10
3992.594085979039
 20
1718.031197752065
 30
0.0
 10
3992.59317256904
 20
1718.036272639665
 30
0.0
 10
3992.59317256904
 20
1718.036272639665
 30
0.0
 10
3992.59317256904
 20
1718.036272639665
 30
0.0
 10
3992.59317256904
 20
1718.036272639665
 30
0.0
 10
3992.59195456664
 20
1718.041347527265
 30
0.0
 10
3992.59195456664
 20
1718.041347527265
 30
0.0
 10
3992.59195456664
 20
1718.041347527265
 30
0.0
 10
3992.59195456664
 20
1718.041347527265
 30
0.0
 10
3992.59022946104
 20
1718.047335457665
 30
0.0
 10
3992.59022946104
 20
1718.047335457665
 30
0.0
 10
3992.59022946104
 20
1718.047335457665
 30
0.0
 10
3992.59022946104
 20
1718.047335457665
 30
0.0
 10
3992.589011458639
 20
1718.050989281265
 30
0.0
 10
3992.589011458639
 20
1718.050989281265
 30
0.0
  0
SPLINE
  5
1115
330
1F
100
AcDbEntity
  8
SANINDUSA
100
AcDbSpline
210
0.0
220
0.0
230
1.0
 70
     8
 71
     3
 72
    64
 73
    60
 74
     0
 42
0.0000000001
 43
0.0000000001
 40
0.0
 40
0.0
 40
0.0
 40
0.0
 40
0.0666666666666667
 40
0.0666666666666667
 40
0.0666666666666667
 40
0.0666666666666667
 40
0.1333333333333333
 40
0.1333333333333333
 40
0.1333333333333333
 40
0.1333333333333333
 40
0.2
 40
0.2
 40
0.2
 40
0.2
 40
0.2666666666666666
 40
0.2666666666666666
 40
0.2666666666666666
 40
0.2666666666666666
 40
0.3333333333333333
 40
0.3333333333333333
 40
0.3333333333333333
 40
0.3333333333333333
 40
0.4
 40
0.4
 40
0.4
 40
0.4
 40
0.4666666666666666
 40
0.4666666666666666
 40
0.4666666666666666
 40
0.4666666666666666
 40
0.5333333333333333
 40
0.5333333333333333
 40
0.5333333333333333
 40
0.5333333333333333
 40
0.6
 40
0.6
 40
0.6
 40
0.6
 40
0.6666666666666666
 40
0.6666666666666666
 40
0.6666666666666666
 40
0.6666666666666666
 40
0.7333333333333333
 40
0.7333333333333333
 40
0.7333333333333333
 40
0.7333333333333333
 40
0.8
 40
0.8
 40
0.8
 40
0.8
 40
0.8666666666666666
 40
0.8666666666666666
 40
0.8666666666666666
 40
0.8666666666666666
 40
0.9333333333333332
 40
0.9333333333333332
 40
0.9333333333333332
 40
0.9333333333333332
 40
1.0
 40
1.0
 40
1.0
 40
1.0
 10
3992.57906492864
 20
1718.019322871265
 30
0.0
 10
3992.57906492864
 20
1718.019322871265
 30
0.0
 10
3992.57936933744
 20
1718.017496051265
 30
0.0
 10
3992.57936933744
 20
1718.017496051265
 30
0.0
 10
3992.57936933744
 20
1718.017496051265
 30
0.0
 10
3992.57936933744
 20
1718.017496051265
 30
0.0
 10
3992.579978338639
 20
1718.015669047665
 30
0.0
 10
3992.579978338639
 20
1718.015669047665
 30
0.0
 10
3992.579978338639
 20
1718.015669047665
 30
0.0
 10
3992.579978338639
 20
1718.015669047665
 30
0.0
 10
3992.580993279439
 20
1718.014146636465
 30
0.0
 10
3992.580993279439
 20
1718.014146636465
 30
0.0
 10
3992.580993279439
 20
1718.014146636465
 30
0.0
 10
3992.580993279439
 20
1718.014146636465
 30
0.0
 10
3992.58241415984
 20
1718.012827286865
 30
0.0
 10
3992.58241415984
 20
1718.012827286865
 30
0.0
 10
3992.58241415984
 20
1718.012827286865
 30
0.0
 10
3992.58241415984
 20
1718.012827286865
 30
0.0
 10
3992.58373350944
 20
1718.012015224065
 30
0.0
 10
3992.58373350944
 20
1718.012015224065
 30
0.0
 10
3992.58373350944
 20
1718.012015224065
 30
0.0
 10
3992.58373350944
 20
1718.012015224065
 30
0.0
 10
3992.58525592064
 20
1718.011507937265
 30
0.0
 10
3992.58525592064
 20
1718.011507937265
 30
0.0
 10
3992.58525592064
 20
1718.011507937265
 30
0.0
 10
3992.58525592064
 20
1718.011507937265
 30
0.0
 10
3992.58677833184
 20
1718.011304875665
 30
0.0
 10
3992.58677833184
 20
1718.011304875665
 30
0.0
 10
3992.58677833184
 20
1718.011304875665
 30
0.0
 10
3992.58677833184
 20
1718.011304875665
 30
0.0
 10
3992.58840245744
 20
1718.011406222865
 30
0.0
 10
3992.58840245744
 20
1718.011406222865
 30
0.0
 10
3992.58840245744
 20
1718.011406222865
 30
0.0
 10
3992.58840245744
 20
1718.011406222865
 30
0.0
 10
3992.58962045984
 20
1718.011710815265
 30
0.0
 10
3992.58962045984
 20
1718.011710815265
 30
0.0
 10
3992.58962045984
 20
1718.011710815265
 30
0.0
 10
3992.58962045984
 20
1718.011710815265
 30
0.0
 10
3992.59083846224
 20
1718.012218285665
 30
0.0
 10
3992.59083846224
 20
1718.012218285665
 30
0.0
 10
3992.59083846224
 20
1718.012218285665
 30
0.0
 10
3992.59083846224
 20
1718.012218285665
 30
0.0
 10
3992.591853219439
 20
1718.012928634065
 30
0.0
 10
3992.591853219439
 20
1718.012928634065
 30
0.0
 10
3992.591853219439
 20
1718.012928634065
 30
0.0
 10
3992.591853219439
 20
1718.012928634065
 30
0.0
 10
3992.592868160239
 20
1718.013740696865
 30
0.0
 10
3992.592868160239
 20
1718.013740696865
 30
0.0
 10
3992.592868160239
 20
1718.013740696865
 30
0.0
 10
3992.592868160239
 20
1718.013740696865
 30
0.0
 10
3992.59398463184
 20
1718.015263108065
 30
0.0
 10
3992.59398463184
 20
1718.015263108065
 30
0.0
 10
3992.59398463184
 20
1718.015263108065
 30
0.0
 10
3992.59398463184
 20
1718.015263108065
 30
0.0
 10
3992.594796694639
 20
1718.016988580865
 30
0.0
 10
3992.594796694639
 20
1718.016988580865
 30
0.0
 10
3992.594796694639
 20
1718.016988580865
 30
0.0
 10
3992.594796694639
 20
1718.016988580865
 30
0.0
 10
3992.595101103439
 20
1718.019322871265
 30
0.0
 10
3992.595101103439
 20
1718.019322871265
 30
0.0
  0
SPLINE
  5
1116
330
1F
100
AcDbEntity
  8
SANINDUSA
100
AcDbSpline
210
0.0
220
0.0
230
1.0
 70
     8
 71
     3
 72
    28
 73
    24
 74
     0
 42
0.0000000001
 43
0.0000000001
 40
0.0
 40
0.0
 40
0.0
 40
0.0
 40
0.1666666666666666
 40
0.1666666666666666
 40
0.1666666666666666
 40
0.1666666666666666
 40
0.3333333333333333
 40
0.3333333333333333
 40
0.3333333333333333
 40
0.3333333333333333
 40
0.5
 40
0.5
 40
0.5
 40
0.5
 40
0.6666666666666666
 40
0.6666666666666666
 40
0.6666666666666666
 40
0.6666666666666666
 40
0.8333333333333332
 40
0.8333333333333332
 40
0.8333333333333332
 40
0.8333333333333332
 40
1.0
 40
1.0
 40
1.0
 40
1.0
 10
3992.58525592064
 20
1718.050989281265
 30
0.0
 10
3992.58525592064
 20
1718.050989281265
 30
0.0
 10
3992.58342910064
 20
1718.045813046465
 30
0.0
 10
3992.58342910064
 20
1718.045813046465
 30
0.0
 10
3992.58342910064
 20
1718.045813046465
 30
0.0
 10
3992.58342910064
 20
1718.045813046465
 30
0.0
 10
3992.582008220239
 20
1718.040332402865
 30
0.0
 10
3992.582008220239
 20
1718.040332402865
 30
0.0
 10
3992.582008220239
 20
1718.040332402865
 30
0.0
 10
3992.582008220239
 20
1718.040332402865
 30
0.0
 10
3992.58089174864
 20
1718.035359229665
 30
0.0
 10
3992.58089174864
 20
1718.035359229665
 30
0.0
 10
3992.58089174864
 20
1718.035359229665
 30
0.0
 10
3992.58089174864
 20
1718.035359229665
 30
0.0
 10
3992.579978338639
 20
1718.030182994865
 30
0.0
 10
3992.579978338639
 20
1718.030182994865
 30
0.0
 10
3992.579978338639
 20
1718.030182994865
 30
0.0
 10
3992.579978338639
 20
1718.030182994865
 30
0.0
 10
3992.57936933744
 20
1718.023687410465
 30
0.0
 10
3992.57936933744
 20
1718.023687410465
 30
0.0
 10
3992.57936933744
 20
1718.023687410465
 30
0.0
 10
3992.57936933744
 20
1718.023687410465
 30
0.0
 10
3992.57906492864
 20
1718.019525932865
 30
0.0
 10
3992.57906492864
 20
1718.019525932865
 30
0.0
  0
SPLINE
  5
1117
330
1F
100
AcDbEntity
  8
SANINDUSA
100
AcDbSpline
210
0.0
220
0.0
230
1.0
 70
     8
 71
     3
 72
    28
 73
    24
 74
     0
 42
0.0000000001
 43
0.0000000001
 40
0.0
 40
0.0
 40
0.0
 40
0.0
 40
0.1666666666666666
 40
0.1666666666666666
 40
0.1666666666666666
 40
0.1666666666666666
 40
0.3333333333333333
 40
0.3333333333333333
 40
0.3333333333333333
 40
0.3333333333333333
 40
0.5
 40
0.5
 40
0.5
 40
0.5
 40
0.6666666666666666
 40
0.6666666666666666
 40
0.6666666666666666
 40
0.6666666666666666
 40
0.8333333333333332
 40
0.8333333333333332
 40
0.8333333333333332
 40
0.8333333333333332
 40
1.0
 40
1.0
 40
1.0
 40
1.0
 10
3992.589011458639
 20
1718.050989281265
 30
0.0
 10
3992.589011458639
 20
1718.050989281265
 30
0.0
 10
3992.58850398824
 20
1718.051699996865
 30
0.0
 10
3992.58850398824
 20
1718.051699996865
 30
0.0
 10
3992.58850398824
 20
1718.051699996865
 30
0.0
 10
3992.58850398824
 20
1718.051699996865
 30
0.0
 10
3992.58779345624
 20
1718.052207283665
 30
0.0
 10
3992.58779345624
 20
1718.052207283665
 30
0.0
 10
3992.58779345624
 20
1718.052207283665
 30
0.0
 10
3992.58779345624
 20
1718.052207283665
 30
0.0
 10
3992.58698139344
 20
1718.052308998065
 30
0.0
 10
3992.58698139344
 20
1718.052308998065
 30
0.0
 10
3992.58698139344
 20
1718.052308998065
 30
0.0
 10
3992.58698139344
 20
1718.052308998065
 30
0.0
 10
3992.58627104504
 20
1718.052105936465
 30
0.0
 10
3992.58627104504
 20
1718.052105936465
 30
0.0
 10
3992.58627104504
 20
1718.052105936465
 30
0.0
 10
3992.58627104504
 20
1718.052105936465
 30
0.0
 10
3992.58556051304
 20
1718.051496935265
 30
0.0
 10
3992.58556051304
 20
1718.051496935265
 30
0.0
 10
3992.58556051304
 20
1718.051496935265
 30
0.0
 10
3992.58556051304
 20
1718.051496935265
 30
0.0
 10
3992.58525592064
 20
1718.050989281265
 30
0.0
 10
3992.58525592064
 20
1718.050989281265
 30
0.0
  0
SPLINE
  5
1124
330
1F
100
AcDbEntity
  8
SANINDUSA
100
AcDbSpline
210
0.0
220
0.0
230
1.0
 70
     8
 71
     3
 72
   180
 73
   176
 74
     0
 42
0.0000000001
 43
0.0000000001
 40
0.0
 40
0.0
 40
0.0
 40
0.0
 40
0.0227272727272727
 40
0.0227272727272727
 40
0.0227272727272727
 40
0.0227272727272727
 40
0.0454545454545455
 40
0.0454545454545455
 40
0.0454545454545455
 40
0.0454545454545455
 40
0.0681818181818182
 40
0.0681818181818182
 40
0.0681818181818182
 40
0.0681818181818182
 40
0.0909090909090909
 40
0.0909090909090909
 40
0.0909090909090909
 40
0.0909090909090909
 40
0.1136363636363636
 40
0.1136363636363636
 40
0.1136363636363636
 40
0.1136363636363636
 40
0.1363636363636364
 40
0.1363636363636364
 40
0.1363636363636364
 40
0.1363636363636364
 40
0.1590909090909091
 40
0.1590909090909091
 40
0.1590909090909091
 40
0.1590909090909091
 40
0.1818181818181819
 40
0.1818181818181819
 40
0.1818181818181819
 40
0.1818181818181819
 40
0.2045454545454546
 40
0.2045454545454546
 40
0.2045454545454546
 40
0.2045454545454546
 40
0.2272727272727273
 40
0.2272727272727273
 40
0.2272727272727273
 40
0.2272727272727273
 40
0.25
 40
0.25
 40
0.25
 40
0.25
 40
0.2727272727272727
 40
0.2727272727272727
 40
0.2727272727272727
 40
0.2727272727272727
 40
0.2954545454545455
 40
0.2954545454545455
 40
0.2954545454545455
 40
0.2954545454545455
 40
0.3181818181818182
 40
0.3181818181818182
 40
0.3181818181818182
 40
0.3181818181818182
 40
0.3409090909090909
 40
0.3409090909090909
 40
0.3409090909090909
 40
0.3409090909090909
 40
0.3636363636363636
 40
0.3636363636363636
 40
0.3636363636363636
 40
0.3636363636363636
 40
0.3863636363636363
 40
0.3863636363636363
 40
0.3863636363636363
 40
0.3863636363636363
 40
0.409090909090909
 40
0.409090909090909
 40
0.409090909090909
 40
0.409090909090909
 40
0.4318181818181818
 40
0.4318181818181818
 40
0.4318181818181818
 40
0.4318181818181818
 40
0.4545454545454544
 40
0.4545454545454544
 40
0.4545454545454544
 40
0.4545454545454544
 40
0.4772727272727272
 40
0.4772727272727272
 40
0.4772727272727272
 40
0.4772727272727272
 40
0.4999999999999999
 40
0.4999999999999999
 40
0.4999999999999999
 40
0.4999999999999999
 40
0.5227272727272726
 40
0.5227272727272726
 40
0.5227272727272726
 40
0.5227272727272726
 40
0.5454545454545454
 40
0.5454545454545454
 40
0.5454545454545454
 40
0.5454545454545454
 40
0.568181818181818
 40
0.568181818181818
 40
0.568181818181818
 40
0.568181818181818
 40
0.5909090909090908
 40
0.5909090909090908
 40
0.5909090909090908
 40
0.5909090909090908
 40
0.6136363636363634
 40
0.6136363636363634
 40
0.6136363636363634
 40
0.6136363636363634
 40
0.6363636363636362
 40
0.6363636363636362
 40
0.6363636363636362
 40
0.6363636363636362
 40
0.6590909090909089
 40
0.6590909090909089
 40
0.6590909090909089
 40
0.6590909090909089
 40
0.6818181818181816
 40
0.6818181818181816
 40
0.6818181818181816
 40
0.6818181818181816
 40
0.7045454545454543
 40
0.7045454545454543
 40
0.7045454545454543
 40
0.7045454545454543
 40
0.727272727272727
 40
0.727272727272727
 40
0.727272727272727
 40
0.727272727272727
 40
0.7499999999999997
 40
0.7499999999999997
 40
0.7499999999999997
 40
0.7499999999999997
 40
0.7727272727272724
 40
0.7727272727272724
 40
0.7727272727272724
 40
0.7727272727272724
 40
0.7954545454545451
 40
0.7954545454545451
 40
0.7954545454545451
 40
0.7954545454545451
 40
0.8181818181818178
 40
0.8181818181818178
 40
0.8181818181818178
 40
0.8181818181818178
 40
0.8409090909090904
 40
0.8409090909090904
 40
0.8409090909090904
 40
0.8409090909090904
 40
0.8636363636363631
 40
0.8636363636363631
 40
0.8636363636363631
 40
0.8636363636363631
 40
0.8863636363636359
 40
0.8863636363636359
 40
0.8863636363636359
 40
0.8863636363636359
 40
0.9090909090909086
 40
0.9090909090909086
 40
0.9090909090909086
 40
0.9090909090909086
 40
0.9318181818181813
 40
0.9318181818181813
 40
0.9318181818181813
 40
0.9318181818181813
 40
0.9545454545454539
 40
0.9545454545454539
 40
0.9545454545454539
 40
0.9545454545454539
 40
0.9772727272727268
 40
0.9772727272727268
 40
0.9772727272727268
 40
0.9772727272727268
 40
1.0
 40
1.0
 40
1.0
 40
1.0
 10
3992.46082322384
 20
1718.139899050065
 30
0.0
 10
3992.46082322384
 20
1718.139899050065
 30
0.0
 10
3992.460924571039
 20
1718.139899050065
 30
0.0
 10
3992.460924571039
 20
1718.139899050065
 30
0.0
 10
3992.460924571039
 20
1718.139899050065
 30
0.0
 10
3992.460924571039
 20
1718.139899050065
 30
0.0
 10
3992.46102591824
 20
1718.139797702865
 30
0.0
 10
3992.46102591824
 20
1718.139797702865
 30
0.0
 10
3992.46102591824
 20
1718.139797702865
 30
0.0
 10
3992.46102591824
 20
1718.139797702865
 30
0.0
 10
3992.46122897984
 20
1718.139696172065
 30
0.0
 10
3992.46122897984
 20
1718.139696172065
 30
0.0
 10
3992.46122897984
 20
1718.139696172065
 30
0.0
 10
3992.46122897984
 20
1718.139696172065
 30
0.0
 10
3992.461432041439
 20
1718.139493110465
 30
0.0
 10
3992.461432041439
 20
1718.139493110465
 30
0.0
 10
3992.461432041439
 20
1718.139493110465
 30
0.0
 10
3992.461432041439
 20
1718.139493110465
 30
0.0
 10
3992.46163491944
 20
1718.139391763265
 30
0.0
 10
3992.46163491944
 20
1718.139391763265
 30
0.0
 10
3992.46163491944
 20
1718.139391763265
 30
0.0
 10
3992.46163491944
 20
1718.139391763265
 30
0.0
 10
3992.46193951184
 20
1718.139188701665
 30
0.0
 10
3992.46193951184
 20
1718.139188701665
 30
0.0
 10
3992.46193951184
 20
1718.139188701665
 30
0.0
 10
3992.46193951184
 20
1718.139188701665
 30
0.0
 10
3992.46234563504
 20
1718.138985640065
 30
0.0
 10
3992.46234563504
 20
1718.138985640065
 30
0.0
 10
3992.46234563504
 20
1718.138985640065
 30
0.0
 10
3992.46234563504
 20
1718.138985640065
 30
0.0
 10
3992.462650043839
 20
1718.138782762065
 30
0.0
 10
3992.462650043839
 20
1718.138782762065
 30
0.0
 10
3992.462650043839
 20
1718.138782762065
 30
0.0
 10
3992.462650043839
 20
1718.138782762065
 30
0.0
 10
3992.46305598344
 20
1718.138478353265
 30
0.0
 10
3992.46305598344
 20
1718.138478353265
 30
0.0
 10
3992.46305598344
 20
1718.138478353265
 30
0.0
 10
3992.46305598344
 20
1718.138478353265
 30
0.0
 10
3992.46356345384
 20
1718.138173760865
 30
0.0
 10
3992.46356345384
 20
1718.138173760865
 30
0.0
 10
3992.46356345384
 20
1718.138173760865
 30
0.0
 10
3992.46356345384
 20
1718.138173760865
 30
0.0
 10
3992.46407092424
 20
1718.137869352065
 30
0.0
 10
3992.46407092424
 20
1718.137869352065
 30
0.0
 10
3992.46407092424
 20
1718.137869352065
 30
0.0
 10
3992.46407092424
 20
1718.137869352065
 30
0.0
 10
3992.46457839464
 20
1718.137564759665
 30
0.0
 10
3992.46457839464
 20
1718.137564759665
 30
0.0
 10
3992.46457839464
 20
1718.137564759665
 30
0.0
 10
3992.46457839464
 20
1718.137564759665
 30
0.0
 10
3992.46508586504
 20
1718.137260350865
 30
0.0
 10
3992.46508586504
 20
1718.137260350865
 30
0.0
 10
3992.46508586504
 20
1718.137260350865
 30
0.0
 10
3992.46508586504
 20
1718.137260350865
 30
0.0
 10
3992.46569486624
 20
1718.136854227665
 30
0.0
 10
3992.46569486624
 20
1718.136854227665
 30
0.0
 10
3992.46569486624
 20
1718.136854227665
 30
0.0
 10
3992.46569486624
 20
1718.136854227665
 30
0.0
 10
3992.46630386744
 20
1718.136448288065
 30
0.0
 10
3992.46630386744
 20
1718.136448288065
 30
0.0
 10
3992.46630386744
 20
1718.136448288065
 30
0.0
 10
3992.46630386744
 20
1718.136448288065
 30
0.0
 10
3992.466912868639
 20
1718.136042348465
 30
0.0
 10
3992.466912868639
 20
1718.136042348465
 30
0.0
 10
3992.466912868639
 20
1718.136042348465
 30
0.0
 10
3992.466912868639
 20
1718.136042348465
 30
0.0
 10
3992.46762321704
 20
1718.135636225265
 30
0.0
 10
3992.46762321704
 20
1718.135636225265
 30
0.0
 10
3992.46762321704
 20
1718.135636225265
 30
0.0
 10
3992.46762321704
 20
1718.135636225265
 30
0.0
 10
3992.468232218239
 20
1718.135230285665
 30
0.0
 10
3992.468232218239
 20
1718.135230285665
 30
0.0
 10
3992.468232218239
 20
1718.135230285665
 30
0.0
 10
3992.468232218239
 20
1718.135230285665
 30
0.0
 10
3992.46894256664
 20
1718.134824529665
 30
0.0
 10
3992.46894256664
 20
1718.134824529665
 30
0.0
 10
3992.46894256664
 20
1718.134824529665
 30
0.0
 10
3992.46894256664
 20
1718.134824529665
 30
0.0
 10
3992.46965328224
 20
1718.134418406465
 30
0.0
 10
3992.46965328224
 20
1718.134418406465
 30
0.0
 10
3992.46965328224
 20
1718.134418406465
 30
0.0
 10
3992.46965328224
 20
1718.134418406465
 30
0.0
 10
3992.47026228344
 20
1718.134012466865
 30
0.0
 10
3992.47026228344
 20
1718.134012466865
 30
0.0
 10
3992.47026228344
 20
1718.134012466865
 30
0.0
 10
3992.47026228344
 20
1718.134012466865
 30
0.0
 10
3992.47097263184
 20
1718.133504812865
 30
0.0
 10
3992.47097263184
 20
1718.133504812865
 30
0.0
 10
3992.47097263184
 20
1718.133504812865
 30
0.0
 10
3992.47097263184
 20
1718.133504812865
 30
0.0
 10
3992.47168298024
 20
1718.133098873265
 30
0.0
 10
3992.47168298024
 20
1718.133098873265
 30
0.0
 10
3992.47168298024
 20
1718.133098873265
 30
0.0
 10
3992.47168298024
 20
1718.133098873265
 30
0.0
 10
3992.47239351224
 20
1718.132693117265
 30
0.0
 10
3992.47239351224
 20
1718.132693117265
 30
0.0
 10
3992.47239351224
 20
1718.132693117265
 30
0.0
 10
3992.47239351224
 20
1718.132693117265
 30
0.0
 10
3992.47310404424
 20
1718.132286994065
 30
0.0
 10
3992.47310404424
 20
1718.132286994065
 30
0.0
 10
3992.47310404424
 20
1718.132286994065
 30
0.0
 10
3992.47310404424
 20
1718.132286994065
 30
0.0
 10
3992.47371304544
 20
1718.131779523665
 30
0.0
 10
3992.47371304544
 20
1718.131779523665
 30
0.0
 10
3992.47371304544
 20
1718.131779523665
 30
0.0
 10
3992.47371304544
 20
1718.131779523665
 30
0.0
 10
3992.47442339384
 20
1718.131373400465
 30
0.0
 10
3992.47442339384
 20
1718.131373400465
 30
0.0
 10
3992.47442339384
 20
1718.131373400465
 30
0.0
 10
3992.47442339384
 20
1718.131373400465
 30
0.0
 10
3992.47503239504
 20
1718.130967644465
 30
0.0
 10
3992.47503239504
 20
1718.130967644465
 30
0.0
 10
3992.47503239504
 20
1718.130967644465
 30
0.0
 10
3992.47503239504
 20
1718.130967644465
 30
0.0
 10
3992.475641212639
 20
1718.130663052065
 30
0.0
 10
3992.475641212639
 20
1718.130663052065
 30
0.0
 10
3992.475641212639
 20
1718.130663052065
 30
0.0
 10
3992.475641212639
 20
1718.130663052065
 30
0.0
 10
3992.47625021384
 20
1718.130257112465
 30
0.0
 10
3992.47625021384
 20
1718.130257112465
 30
0.0
 10
3992.47625021384
 20
1718.130257112465
 30
0.0
 10
3992.47625021384
 20
1718.130257112465
 30
0.0
 10
3992.47685921504
 20
1718.129850989265
 30
0.0
 10
3992.47685921504
 20
1718.129850989265
 30
0.0
 10
3992.47685921504
 20
1718.129850989265
 30
0.0
 10
3992.47685921504
 20
1718.129850989265
 30
0.0
 10
3992.47736686904
 20
1718.129546580465
 30
0.0
 10
3992.47736686904
 20
1718.129546580465
 30
0.0
 10
3992.47736686904
 20
1718.129546580465
 30
0.0
 10
3992.47736686904
 20
1718.129546580465
 30
0.0
 10
3992.47797568664
 20
1718.129241988065
 30
0.0
 10
3992.47797568664
 20
1718.129241988065
 30
0.0
 10
3992.47797568664
 20
1718.129241988065
 30
0.0
 10
3992.47797568664
 20
1718.129241988065
 30
0.0
 10
3992.47838162624
 20
1718.128937579265
 30
0.0
 10
3992.47838162624
 20
1718.128937579265
 30
0.0
 10
3992.47838162624
 20
1718.128937579265
 30
0.0
 10
3992.47838162624
 20
1718.128937579265
 30
0.0
 10
3992.47888928024
 20
1718.128633170465
 30
0.0
 10
3992.47888928024
 20
1718.128633170465
 30
0.0
 10
3992.47888928024
 20
1718.128633170465
 30
0.0
 10
3992.47888928024
 20
1718.128633170465
 30
0.0
 10
3992.47929503624
 20
1718.128328578065
 30
0.0
 10
3992.47929503624
 20
1718.128328578065
 30
0.0
 10
3992.47929503624
 20
1718.128328578065
 30
0.0
 10
3992.47929503624
 20
1718.128328578065
 30
0.0
 10
3992.47970115944
 20
1718.128125700065
 30
0.0
 10
3992.47970115944
 20
1718.128125700065
 30
0.0
 10
3992.47970115944
 20
1718.128125700065
 30
0.0
 10
3992.47970115944
 20
1718.128125700065
 30
0.0
 10
3992.48000575184
 20
1718.127922638465
 30
0.0
 10
3992.48000575184
 20
1718.127922638465
 30
0.0
 10
3992.48000575184
 20
1718.127922638465
 30
0.0
 10
3992.48000575184
 20
1718.127922638465
 30
0.0
 10
3992.480310160639
 20
1718.127719576865
 30
0.0
 10
3992.480310160639
 20
1718.127719576865
 30
0.0
 10
3992.480310160639
 20
1718.127719576865
 30
0.0
 10
3992.480310160639
 20
1718.127719576865
 30
0.0
 10
3992.48061475304
 20
1718.127516882465
 30
0.0
 10
3992.48061475304
 20
1718.127516882465
 30
0.0
 10
3992.48061475304
 20
1718.127516882465
 30
0.0
 10
3992.48061475304
 20
1718.127516882465
 30
0.0
 10
3992.48081744744
 20
1718.127415168065
 30
0.0
 10
3992.48081744744
 20
1718.127415168065
 30
0.0
 10
3992.48081744744
 20
1718.127415168065
 30
0.0
 10
3992.48081744744
 20
1718.127415168065
 30
0.0
 10
3992.48091916184
 20
1718.127313820865
 30
0.0
 10
3992.48091916184
 20
1718.127313820865
 30
0.0
 10
3992.48091916184
 20
1718.127313820865
 30
0.0
 10
3992.48091916184
 20
1718.127313820865
 30
0.0
 10
3992.48102069264
 20
1718.127212290065
 30
0.0
 10
3992.48102069264
 20
1718.127212290065
 30
0.0
 10
3992.48102069264
 20
1718.127212290065
 30
0.0
 10
3992.48102069264
 20
1718.127212290065
 30
0.0
 10
3992.48112203984
 20
1718.127212290065
 30
0.0
 10
3992.48112203984
 20
1718.127212290065
 30
0.0
  0
SPLINE
  5
1125
330
1F
100
AcDbEntity
  8
SANINDUSA
100
AcDbSpline
210
0.0
220
0.0
230
1.0
 70
    24
 71
     3
 72
     8
 73
     4
 74
     0
 42
0.0000000001
 43
0.0000000001
 40
0.0
 40
0.0
 40
0.0
 40
0.0
 40
1.0
 40
1.0
 40
1.0
 40
1.0
 10
3992.48579098784
 20
1718.134519937265
 30
0.0
 10
3992.48579098784
 20
1718.134519937265
 30
0.0
 10
3992.48112203984
 20
1718.127212290065
 30
0.0
 10
3992.48112203984
 20
1718.127212290065
 30
0.0
  0
SPLINE
  5
1126
330
1F
100
AcDbEntity
  8
SANINDUSA
100
AcDbSpline
210
0.0
220
0.0
230
1.0
 70
    24
 71
     3
 72
     8
 73
     4
 74
     0
 42
0.0000000001
 43
0.0000000001
 40
0.0
 40
0.0
 40
0.0
 40
0.0
 40
1.0
 40
1.0
 40
1.0
 40
1.0
 10
3992.46204104264
 20
1718.141827584465
 30
0.0
 10
3992.46204104264
 20
1718.141827584465
 30
0.0
 10
3992.46082322384
 20
1718.139899050065
 30
0.0
 10
3992.46082322384
 20
1718.139899050065
 30
0.0
  0
SPLINE
  5
1127
330
1F
100
AcDbEntity
  8
SANINDUSA
100
AcDbSpline
210
0.0
220
0.0
230
1.0
 70
    24
 71
     3
 72
    12
 73
     8
 74
     0
 42
0.0000000001
 43
0.0000000001
 40
0.0
 40
0.0
 40
0.0
 40
0.0
 40
0.5
 40
0.5
 40
0.5
 40
0.5
 40
1.0
 40
1.0
 40
1.0
 40
1.0
 10
3992.59205628104
 20
1718.011203528465
 30
0.0
 10
3992.59205628104
 20
1718.011203528465
 30
0.0
 10
3992.61448632584
 20
1718.011203528465
 30
0.0
 10
3992.61448632584
 20
1718.011203528465
 30
0.0
 10
3992.61448632584
 20
1718.011203528465
 30
0.0
 10
3992.61448632584
 20
1718.011203528465
 30
0.0
 10
3992.61458804024
 20
1718.011203528465
 30
0.0
 10
3992.61458804024
 20
1718.011203528465
 30
0.0
  0
SPLINE
  5
1128
330
1F
100
AcDbEntity
  8
SANINDUSA
100
AcDbSpline
210
0.0
220
0.0
230
1.0
 70
     8
 71
     3
 72
    48
 73
    44
 74
     0
 42
0.0000000001
 43
0.0000000001
 40
0.0
 40
0.0
 40
0.0
 40
0.0
 40
0.0909090909090909
 40
0.0909090909090909
 40
0.0909090909090909
 40
0.0909090909090909
 40
0.1818181818181818
 40
0.1818181818181818
 40
0.1818181818181818
 40
0.1818181818181818
 40
0.2727272727272727
 40
0.2727272727272727
 40
0.2727272727272727
 40
0.2727272727272727
 40
0.3636363636363637
 40
0.3636363636363637
 40
0.3636363636363637
 40
0.3636363636363637
 40
0.4545454545454546
 40
0.4545454545454546
 40
0.4545454545454546
 40
0.4545454545454546
 40
0.5454545454545455
 40
0.5454545454545455
 40
0.5454545454545455
 40
0.5454545454545455
 40
0.6363636363636365
 40
0.6363636363636365
 40
0.6363636363636365
 40
0.6363636363636365
 40
0.7272727272727275
 40
0.7272727272727275
 40
0.7272727272727275
 40
0.7272727272727275
 40
0.8181818181818183
 40
0.8181818181818183
 40
0.8181818181818183
 40
0.8181818181818183
 40
0.9090909090909093
 40
0.9090909090909093
 40
0.9090909090909093
 40
0.9090909090909093
 40
1.0
 40
1.0
 40
1.0
 40
1.0
 10
3992.45696633864
 20
1718.143349995665
 30
0.0
 10
3992.45696633864
 20
1718.143349995665
 30
0.0
 10
3992.45727074744
 20
1718.143248464865
 30
0.0
 10
3992.45727074744
 20
1718.143248464865
 30
0.0
 10
3992.45727074744
 20
1718.143248464865
 30
0.0
 10
3992.45727074744
 20
1718.143248464865
 30
0.0
 10
3992.457981095839
 20
1718.143045586865
 30
0.0
 10
3992.457981095839
 20
1718.143045586865
 30
0.0
 10
3992.457981095839
 20
1718.143045586865
 30
0.0
 10
3992.457981095839
 20
1718.143045586865
 30
0.0
 10
3992.45899622024
 20
1718.142740994465
 30
0.0
 10
3992.45899622024
 20
1718.142740994465
 30
0.0
 10
3992.45899622024
 20
1718.142740994465
 30
0.0
 10
3992.45899622024
 20
1718.142740994465
 30
0.0
 10
3992.46021422264
 20
1718.142334871265
 30
0.0
 10
3992.46021422264
 20
1718.142334871265
 30
0.0
 10
3992.46021422264
 20
1718.142334871265
 30
0.0
 10
3992.46021422264
 20
1718.142334871265
 30
0.0
 10
3992.46173663384
 20
1718.141827584465
 30
0.0
 10
3992.46173663384
 20
1718.141827584465
 30
0.0
 10
3992.46173663384
 20
1718.141827584465
 30
0.0
 10
3992.46173663384
 20
1718.141827584465
 30
0.0
 10
3992.46356345384
 20
1718.141320114065
 30
0.0
 10
3992.46356345384
 20
1718.141320114065
 30
0.0
 10
3992.46356345384
 20
1718.141320114065
 30
0.0
 10
3992.46356345384
 20
1718.141320114065
 30
0.0
 10
3992.46559333544
 20
1718.140711112865
 30
0.0
 10
3992.46559333544
 20
1718.140711112865
 30
0.0
 10
3992.46559333544
 20
1718.140711112865
 30
0.0
 10
3992.46559333544
 20
1718.140711112865
 30
0.0
 10
3992.467927809439
 20
1718.140000764465
 30
0.0
 10
3992.467927809439
 20
1718.140000764465
 30
0.0
 10
3992.467927809439
 20
1718.140000764465
 30
0.0
 10
3992.467927809439
 20
1718.140000764465
 30
0.0
 10
3992.47046497784
 20
1718.139188701665
 30
0.0
 10
3992.47046497784
 20
1718.139188701665
 30
0.0
 10
3992.47046497784
 20
1718.139188701665
 30
0.0
 10
3992.47046497784
 20
1718.139188701665
 30
0.0
 10
3992.47300251344
 20
1718.138376638865
 30
0.0
 10
3992.47300251344
 20
1718.138376638865
 30
0.0
 10
3992.47300251344
 20
1718.138376638865
 30
0.0
 10
3992.47300251344
 20
1718.138376638865
 30
0.0
 10
3992.474829517039
 20
1718.137869352065
 30
0.0
 10
3992.474829517039
 20
1718.137869352065
 30
0.0
  0
SPLINE
  5
1129
330
1F
100
AcDbEntity
  8
SANINDUSA
100
AcDbSpline
210
0.0
220
0.0
230
1.0
 70
    24
 71
     3
 72
     8
 73
     4
 74
     0
 42
0.0000000001
 43
0.0000000001
 40
0.0
 40
0.0
 40
0.0
 40
0.0
 40
1.0
 40
1.0
 40
1.0
 40
1.0
 10
3992.58210975104
 20
1718.011203528465
 30
0.0
 10
3992.58210975104
 20
1718.011203528465
 30
0.0
 10
3992.58210975104
 20
1718.013030348465
 30
0.0
 10
3992.58210975104
 20
1718.013030348465
 30
0.0
  0
SPLINE
  5
112A
330
1F
100
AcDbEntity
  8
SANINDUSA
100
AcDbSpline
210
0.0
220
0.0
230
1.0
 70
     8
 71
     3
 72
    48
 73
    44
 74
     0
 42
0.0000000001
 43
0.0000000001
 40
0.0
 40
0.0
 40
0.0
 40
0.0
 40
0.0909090909090909
 40
0.0909090909090909
 40
0.0909090909090909
 40
0.0909090909090909
 40
0.1818181818181818
 40
0.1818181818181818
 40
0.1818181818181818
 40
0.1818181818181818
 40
0.2727272727272727
 40
0.2727272727272727
 40
0.2727272727272727
 40
0.2727272727272727
 40
0.3636363636363637
 40
0.3636363636363637
 40
0.3636363636363637
 40
0.3636363636363637
 40
0.4545454545454546
 40
0.4545454545454546
 40
0.4545454545454546
 40
0.4545454545454546
 40
0.5454545454545455
 40
0.5454545454545455
 40
0.5454545454545455
 40
0.5454545454545455
 40
0.6363636363636365
 40
0.6363636363636365
 40
0.6363636363636365
 40
0.6363636363636365
 40
0.7272727272727275
 40
0.7272727272727275
 40
0.7272727272727275
 40
0.7272727272727275
 40
0.8181818181818183
 40
0.8181818181818183
 40
0.8181818181818183
 40
0.8181818181818183
 40
0.9090909090909093
 40
0.9090909090909093
 40
0.9090909090909093
 40
0.9090909090909093
 40
1.0
 40
1.0
 40
1.0
 40
1.0
 10
3992.474829517039
 20
1718.137869352065
 30
0.0
 10
3992.474829517039
 20
1718.137869352065
 30
0.0
 10
3992.47493086424
 20
1718.137869352065
 30
0.0
 10
3992.47493086424
 20
1718.137869352065
 30
0.0
 10
3992.47493086424
 20
1718.137869352065
 30
0.0
 10
3992.47493086424
 20
1718.137869352065
 30
0.0
 10
3992.48244157304
 20
1718.135534878065
 30
0.0
 10
3992.48244157304
 20
1718.135534878065
 30
0.0
 10
3992.48244157304
 20
1718.135534878065
 30
0.0
 10
3992.48244157304
 20
1718.135534878065
 30
0.0
 10
3992.48721168464
 20
1718.134012466865
 30
0.0
 10
3992.48721168464
 20
1718.134012466865
 30
0.0
 10
3992.48721168464
 20
1718.134012466865
 30
0.0
 10
3992.48721168464
 20
1718.134012466865
 30
0.0
 10
3992.49015515984
 20
1718.133098873265
 30
0.0
 10
3992.49015515984
 20
1718.133098873265
 30
0.0
 10
3992.49015515984
 20
1718.133098873265
 30
0.0
 10
3992.49015515984
 20
1718.133098873265
 30
0.0
 10
3992.49198216344
 20
1718.132591402865
 30
0.0
 10
3992.49198216344
 20
1718.132591402865
 30
0.0
 10
3992.49198216344
 20
1718.132591402865
 30
0.0
 10
3992.49198216344
 20
1718.132591402865
 30
0.0
 10
3992.49319998224
 20
1718.132185463265
 30
0.0
 10
3992.49319998224
 20
1718.132185463265
 30
0.0
 10
3992.49319998224
 20
1718.132185463265
 30
0.0
 10
3992.49319998224
 20
1718.132185463265
 30
0.0
 10
3992.49391033064
 20
1718.131982401665
 30
0.0
 10
3992.49391033064
 20
1718.131982401665
 30
0.0
 10
3992.49391033064
 20
1718.131982401665
 30
0.0
 10
3992.49391033064
 20
1718.131982401665
 30
0.0
 10
3992.49431645384
 20
1718.131881054465
 30
0.0
 10
3992.49431645384
 20
1718.131881054465
 30
0.0
 10
3992.49431645384
 20
1718.131881054465
 30
0.0
 10
3992.49431645384
 20
1718.131881054465
 30
0.0
 10
3992.49472239344
 20
1718.131779523665
 30
0.0
 10
3992.49472239344
 20
1718.131779523665
 30
0.0
 10
3992.49472239344
 20
1718.131779523665
 30
0.0
 10
3992.49472239344
 20
1718.131779523665
 30
0.0
 10
3992.49502698584
 20
1718.131677992865
 30
0.0
 10
3992.49502698584
 20
1718.131677992865
 30
0.0
 10
3992.49502698584
 20
1718.131677992865
 30
0.0
 10
3992.49502698584
 20
1718.131677992865
 30
0.0
 10
3992.49512833304
 20
1718.131576462065
 30
0.0
 10
3992.49512833304
 20
1718.131576462065
 30
0.0
  0
SPLINE
  5
112B
330
1F
100
AcDbEntity
  8
SANINDUSA
100
AcDbSpline
210
0.0
220
0.0
230
1.0
 70
    24
 71
     3
 72
    12
 73
     8
 74
     0
 42
0.0000000001
 43
0.0000000001
 40
0.0
 40
0.0
 40
0.0
 40
0.0
 40
0.5
 40
0.5
 40
0.5
 40
0.5
 40
1.0
 40
1.0
 40
1.0
 40
1.0
 10
3992.55957780824
 20
1718.011203528465
 30
0.0
 10
3992.55957780824
 20
1718.011203528465
 30
0.0
 10
3992.55967915544
 20
1718.011203528465
 30
0.0
 10
3992.55967915544
 20
1718.011203528465
 30
0.0
 10
3992.55967915544
 20
1718.011203528465
 30
0.0
 10
3992.55967915544
 20
1718.011203528465
 30
0.0
 10
3992.58210975104
 20
1718.011203528465
 30
0.0
 10
3992.58210975104
 20
1718.011203528465
 30
0.0
  0
SPLINE
  5
112C
330
1F
100
AcDbEntity
  8
SANINDUSA
100
AcDbSpline
210
0.0
220
0.0
230
1.0
 70
    24
 71
     3
 72
     8
 73
     4
 74
     0
 42
0.0000000001
 43
0.0000000001
 40
0.0
 40
0.0
 40
0.0
 40
0.0
 40
1.0
 40
1.0
 40
1.0
 40
1.0
 10
3992.59205628104
 20
1718.013030348465
 30
0.0
 10
3992.59205628104
 20
1718.013030348465
 30
0.0
 10
3992.59205628104
 20
1718.011203528465
 30
0.0
 10
3992.59205628104
 20
1718.011203528465
 30
0.0
  0
SPLINE
  5
112D
330
1F
100
AcDbEntity
  8
SANINDUSA
100
AcDbSpline
210
0.0
220
0.0
230
1.0
 70
    11
 71
     3
 72
    72
 73
    68
 74
     0
 42
0.0000000001
 43
0.0000000001
 40
0.0
 40
0.0
 40
0.0
 40
0.0
 40
0.0588235294117647
 40
0.0588235294117647
 40
0.0588235294117647
 40
0.0588235294117647
 40
0.1176470588235294
 40
0.1176470588235294
 40
0.1176470588235294
 40
0.1176470588235294
 40
0.1764705882352941
 40
0.1764705882352941
 40
0.1764705882352941
 40
0.1764705882352941
 40
0.2352941176470588
 40
0.2352941176470588
 40
0.2352941176470588
 40
0.2352941176470588
 40
0.2941176470588235
 40
0.2941176470588235
 40
0.2941176470588235
 40
0.2941176470588235
 40
0.3529411764705883
 40
0.3529411764705883
 40
0.3529411764705883
 40
0.3529411764705883
 40
0.411764705882353
 40
0.411764705882353
 40
0.411764705882353
 40
0.411764705882353
 40
0.4705882352941177
 40
0.4705882352941177
 40
0.4705882352941177
 40
0.4705882352941177
 40
0.5294117647058824
 40
0.5294117647058824
 40
0.5294117647058824
 40
0.5294117647058824
 40
0.5882352941176471
 40
0.5882352941176471
 40
0.5882352941176471
 40
0.5882352941176471
 40
0.6470588235294118
 40
0.6470588235294118
 40
0.6470588235294118
 40
0.6470588235294118
 40
0.7058823529411766
 40
0.7058823529411766
 40
0.7058823529411766
 40
0.7058823529411766
 40
0.7647058823529413
 40
0.7647058823529413
 40
0.7647058823529413
 40
0.7647058823529413
 40
0.8235294117647059
 40
0.8235294117647059
 40
0.8235294117647059
 40
0.8235294117647059
 40
0.8823529411764706
 40
0.8823529411764706
 40
0.8823529411764706
 40
0.8823529411764706
 40
0.9411764705882353
 40
0.9411764705882353
 40
0.9411764705882353
 40
0.9411764705882353
 40
1.0
 40
1.0
 40
1.0
 40
1.0
 10
3992.59926221384
 20
1718.021048344065
 30
0.0
 10
3992.59926221384
 20
1718.021048344065
 30
0.0
 10
3992.59926221384
 20
1718.020946996865
 30
0.0
 10
3992.59926221384
 20
1718.020946996865
 30
0.0
 10
3992.59926221384
 20
1718.020946996865
 30
0.0
 10
3992.59926221384
 20
1718.020946996865
 30
0.0
 10
3992.59966852064
 20
1718.020134934065
 30
0.0
 10
3992.59966852064
 20
1718.020134934065
 30
0.0
 10
3992.59966852064
 20
1718.020134934065
 30
0.0
 10
3992.59966852064
 20
1718.020134934065
 30
0.0
 10
3992.59976986784
 20
1718.019119993265
 30
0.0
 10
3992.59976986784
 20
1718.019119993265
 30
0.0
 10
3992.59976986784
 20
1718.019119993265
 30
0.0
 10
3992.59976986784
 20
1718.019119993265
 30
0.0
 10
3992.59966852064
 20
1718.018206583265
 30
0.0
 10
3992.59966852064
 20
1718.018206583265
 30
0.0
 10
3992.59966852064
 20
1718.018206583265
 30
0.0
 10
3992.59966852064
 20
1718.018206583265
 30
0.0
 10
3992.599059519439
 20
1718.017394520465
 30
0.0
 10
3992.599059519439
 20
1718.017394520465
 30
0.0
 10
3992.599059519439
 20
1718.017394520465
 30
0.0
 10
3992.599059519439
 20
1718.017394520465
 30
0.0
 10
3992.59834880384
 20
1718.016887050065
 30
0.0
 10
3992.59834880384
 20
1718.016887050065
 30
0.0
 10
3992.59834880384
 20
1718.016887050065
 30
0.0
 10
3992.59834880384
 20
1718.016887050065
 30
0.0
 10
3992.59743539384
 20
1718.016684172065
 30
0.0
 10
3992.59743539384
 20
1718.016684172065
 30
0.0
 10
3992.59743539384
 20
1718.016684172065
 30
0.0
 10
3992.59743539384
 20
1718.016684172065
 30
0.0
 10
3992.59662351464
 20
1718.016988580865
 30
0.0
 10
3992.59662351464
 20
1718.016988580865
 30
0.0
 10
3992.59662351464
 20
1718.016988580865
 30
0.0
 10
3992.59662351464
 20
1718.016988580865
 30
0.0
 10
3992.595811635439
 20
1718.017597582065
 30
0.0
 10
3992.595811635439
 20
1718.017597582065
 30
0.0
 10
3992.595811635439
 20
1718.017597582065
 30
0.0
 10
3992.595811635439
 20
1718.017597582065
 30
0.0
 10
3992.59540569584
 20
1718.018409461265
 30
0.0
 10
3992.59540569584
 20
1718.018409461265
 30
0.0
 10
3992.59540569584
 20
1718.018409461265
 30
0.0
 10
3992.59540569584
 20
1718.018409461265
 30
0.0
 10
3992.59520263424
 20
1718.019424585665
 30
0.0
 10
3992.59520263424
 20
1718.019424585665
 30
0.0
 10
3992.59520263424
 20
1718.019424585665
 30
0.0
 10
3992.59520263424
 20
1718.019424585665
 30
0.0
 10
3992.59540569584
 20
1718.020439342865
 30
0.0
 10
3992.59540569584
 20
1718.020439342865
 30
0.0
 10
3992.59540569584
 20
1718.020439342865
 30
0.0
 10
3992.59540569584
 20
1718.020439342865
 30
0.0
 10
3992.59591298264
 20
1718.021251405665
 30
0.0
 10
3992.59591298264
 20
1718.021251405665
 30
0.0
 10
3992.59591298264
 20
1718.021251405665
 30
0.0
 10
3992.59591298264
 20
1718.021251405665
 30
0.0
 10
3992.59672504544
 20
1718.021758692465
 30
0.0
 10
3992.59672504544
 20
1718.021758692465
 30
0.0
 10
3992.59672504544
 20
1718.021758692465
 30
0.0
 10
3992.59672504544
 20
1718.021758692465
 30
0.0
 10
3992.597638455439
 20
1718.021961754065
 30
0.0
 10
3992.597638455439
 20
1718.021961754065
 30
0.0
 10
3992.597638455439
 20
1718.021961754065
 30
0.0
 10
3992.597638455439
 20
1718.021961754065
 30
0.0
 10
3992.59855186544
 20
1718.021657345265
 30
0.0
 10
3992.59855186544
 20
1718.021657345265
 30
0.0
 10
3992.59855186544
 20
1718.021657345265
 30
0.0
 10
3992.59855186544
 20
1718.021657345265
 30
0.0
 10
3992.59926221384
 20
1718.021048344065
 30
0.0
 10
3992.59926221384
 20
1718.021048344065
 30
0.0
  0
SPLINE
  5
1130
330
1F
100
AcDbEntity
  8
SANINDUSA
100
AcDbSpline
210
0.0
220
0.0
230
1.0
 70
     8
 71
     3
 72
    28
 73
    24
 74
     0
 42
0.0000000001
 43
0.0000000001
 40
0.0
 40
0.0
 40
0.0
 40
0.0
 40
0.1666666666666666
 40
0.1666666666666666
 40
0.1666666666666666
 40
0.1666666666666666
 40
0.3333333333333333
 40
0.3333333333333333
 40
0.3333333333333333
 40
0.3333333333333333
 40
0.5
 40
0.5
 40
0.5
 40
0.5
 40
0.6666666666666666
 40
0.6666666666666666
 40
0.6666666666666666
 40
0.6666666666666666
 40
0.8333333333333332
 40
0.8333333333333332
 40
0.8333333333333332
 40
0.8333333333333332
 40
1.0
 40
1.0
 40
1.0
 40
1.0
 10
3992.56008527864
 20
1718.063168754465
 30
0.0
 10
3992.56008527864
 20
1718.063168754465
 30
0.0
 10
3992.56008527864
 20
1718.064589818465
 30
0.0
 10
3992.56008527864
 20
1718.064589818465
 30
0.0
 10
3992.56008527864
 20
1718.064589818465
 30
0.0
 10
3992.56008527864
 20
1718.064589818465
 30
0.0
 10
3992.55998374784
 20
1718.065807637265
 30
0.0
 10
3992.55998374784
 20
1718.065807637265
 30
0.0
 10
3992.55998374784
 20
1718.065807637265
 30
0.0
 10
3992.55998374784
 20
1718.065807637265
 30
0.0
 10
3992.559882217039
 20
1718.066924292465
 30
0.0
 10
3992.559882217039
 20
1718.066924292465
 30
0.0
 10
3992.559882217039
 20
1718.066924292465
 30
0.0
 10
3992.559882217039
 20
1718.066924292465
 30
0.0
 10
3992.559780869839
 20
1718.067837702465
 30
0.0
 10
3992.559780869839
 20
1718.067837702465
 30
0.0
 10
3992.559780869839
 20
1718.067837702465
 30
0.0
 10
3992.559780869839
 20
1718.067837702465
 30
0.0
 10
3992.55967915544
 20
1718.068446703665
 30
0.0
 10
3992.55967915544
 20
1718.068446703665
 30
0.0
 10
3992.55967915544
 20
1718.068446703665
 30
0.0
 10
3992.55967915544
 20
1718.068446703665
 30
0.0
 10
3992.55957780824
 20
1718.068649581665
 30
0.0
 10
3992.55957780824
 20
1718.068649581665
 30
0.0
  0
SPLINE
  5
1132
330
1F
100
AcDbEntity
  8
SANINDUSA
100
AcDbSpline
210
0.0
220
0.0
230
1.0
 70
    24
 71
     3
 72
     8
 73
     4
 74
     0
 42
0.0000000001
 43
0.0000000001
 40
0.0
 40
0.0
 40
0.0
 40
0.0
 40
1.0
 40
1.0
 40
1.0
 40
1.0
 10
3992.56008527864
 20
1718.049162461265
 30
0.0
 10
3992.56008527864
 20
1718.049162461265
 30
0.0
 10
3992.56008527864
 20
1718.063168754465
 30
0.0
 10
3992.56008527864
 20
1718.063168754465
 30
0.0
  0
SPLINE
  5
1133
330
1F
100
AcDbEntity
  8
SANINDUSA
100
AcDbSpline
210
0.0
220
0.0
230
1.0
 70
    24
 71
     3
 72
     8
 73
     4
 74
     0
 42
0.0000000001
 43
0.0000000001
 40
0.0
 40
0.0
 40
0.0
 40
0.0
 40
1.0
 40
1.0
 40
1.0
 40
1.0
 10
3992.61458804024
 20
1718.106202758465
 30
0.0
 10
3992.61458804024
 20
1718.106202758465
 30
0.0
 10
3992.61458804024
 20
1718.011203528465
 30
0.0
 10
3992.61458804024
 20
1718.011203528465
 30
0.0
  0
SPLINE
  5
1134
330
1F
100
AcDbEntity
  8
SANINDUSA
100
AcDbSpline
210
0.0
220
0.0
230
1.0
 70
     8
 71
     3
 72
    44
 73
    40
 74
     0
 42
0.0000000001
 43
0.0000000001
 40
0.0
 40
0.0
 40
0.0
 40
0.0
 40
0.1
 40
0.1
 40
0.1
 40
0.1
 40
0.2
 40
0.2
 40
0.2
 40
0.2
 40
0.3
 40
0.3
 40
0.3
 40
0.3
 40
0.4
 40
0.4
 40
0.4
 40
0.4
 40
0.5
 40
0.5
 40
0.5
 40
0.5
 40
0.6
 40
0.6
 40
0.6
 40
0.6
 40
0.7
 40
0.7
 40
0.7
 40
0.7
 40
0.8
 40
0.8
 40
0.8
 40
0.8
 40
0.9
 40
0.9
 40
0.9
 40
0.9
 40
1.0
 40
1.0
 40
1.0
 40
1.0
 10
3992.55957780824
 20
1718.043783348465
 30
0.0
 10
3992.55957780824
 20
1718.043783348465
 30
0.0
 10
3992.55967915544
 20
1718.043884695665
 30
0.0
 10
3992.55967915544
 20
1718.043884695665
 30
0.0
 10
3992.55967915544
 20
1718.043884695665
 30
0.0
 10
3992.55967915544
 20
1718.043884695665
 30
0.0
 10
3992.55967915544
 20
1718.044290635265
 30
0.0
 10
3992.55967915544
 20
1718.044290635265
 30
0.0
 10
3992.55967915544
 20
1718.044290635265
 30
0.0
 10
3992.55967915544
 20
1718.044290635265
 30
0.0
 10
3992.559780869839
 20
1718.044493696865
 30
0.0
 10
3992.559780869839
 20
1718.044493696865
 30
0.0
 10
3992.559780869839
 20
1718.044493696865
 30
0.0
 10
3992.559780869839
 20
1718.044493696865
 30
0.0
 10
3992.559780869839
 20
1718.045001350865
 30
0.0
 10
3992.559780869839
 20
1718.045001350865
 30
0.0
 10
3992.559780869839
 20
1718.045001350865
 30
0.0
 10
3992.559780869839
 20
1718.045001350865
 30
0.0
 10
3992.559882217039
 20
1718.045305759665
 30
0.0
 10
3992.559882217039
 20
1718.045305759665
 30
0.0
 10
3992.559882217039
 20
1718.045305759665
 30
0.0
 10
3992.559882217039
 20
1718.045305759665
 30
0.0
 10
3992.559882217039
 20
1718.045914760865
 30
0.0
 10
3992.559882217039
 20
1718.045914760865
 30
0.0
 10
3992.559882217039
 20
1718.045914760865
 30
0.0
 10
3992.559882217039
 20
1718.045914760865
 30
0.0
 10
3992.55998374784
 20
1718.046219169665
 30
0.0
 10
3992.55998374784
 20
1718.046219169665
 30
0.0
 10
3992.55998374784
 20
1718.046219169665
 30
0.0
 10
3992.55998374784
 20
1718.046219169665
 30
0.0
 10
3992.55998374784
 20
1718.047031048865
 30
0.0
 10
3992.55998374784
 20
1718.047031048865
 30
0.0
 10
3992.55998374784
 20
1718.047031048865
 30
0.0
 10
3992.55998374784
 20
1718.047031048865
 30
0.0
 10
3992.56008527864
 20
1718.047437172065
 30
0.0
 10
3992.56008527864
 20
1718.047437172065
 30
0.0
 10
3992.56008527864
 20
1718.047437172065
 30
0.0
 10
3992.56008527864
 20
1718.047437172065
 30
0.0
 10
3992.56008527864
 20
1718.049162461265
 30
0.0
 10
3992.56008527864
 20
1718.049162461265
 30
0.0
  0
SPLINE
  5
1135
330
1F
100
AcDbEntity
  8
SANINDUSA
100
AcDbSpline
210
0.0
220
0.0
230
1.0
 70
    24
 71
     3
 72
     8
 73
     4
 74
     0
 42
0.0000000001
 43
0.0000000001
 40
0.0
 40
0.0
 40
0.0
 40
0.0
 40
1.0
 40
1.0
 40
1.0
 40
1.0
 10
3992.55957780824
 20
1718.043681634065
 30
0.0
 10
3992.55957780824
 20
1718.043681634065
 30
0.0
 10
3992.55957780824
 20
1718.043783348465
 30
0.0
 10
3992.55957780824
 20
1718.043783348465
 30
0.0
  0
SPLINE
  5
1136
330
1F
100
AcDbEntity
  8
SANINDUSA
100
AcDbSpline
210
0.0
220
0.0
230
1.0
 70
     8
 71
     3
 72
   268
 73
   264
 74
     0
 42
0.0000000001
 43
0.0000000001
 40
0.0
 40
0.0
 40
0.0
 40
0.0
 40
0.0151515151515152
 40
0.0151515151515152
 40
0.0151515151515152
 40
0.0151515151515152
 40
0.0303030303030303
 40
0.0303030303030303
 40
0.0303030303030303
 40
0.0303030303030303
 40
0.0454545454545455
 40
0.0454545454545455
 40
0.0454545454545455
 40
0.0454545454545455
 40
0.0606060606060606
 40
0.0606060606060606
 40
0.0606060606060606
 40
0.0606060606060606
 40
0.0757575757575758
 40
0.0757575757575758
 40
0.0757575757575758
 40
0.0757575757575758
 40
0.0909090909090909
 40
0.0909090909090909
 40
0.0909090909090909
 40
0.0909090909090909
 40
0.106060606060606
 40
0.106060606060606
 40
0.106060606060606
 40
0.106060606060606
 40
0.1212121212121212
 40
0.1212121212121212
 40
0.1212121212121212
 40
0.1212121212121212
 40
0.1363636363636363
 40
0.1363636363636363
 40
0.1363636363636363
 40
0.1363636363636363
 40
0.1515151515151515
 40
0.1515151515151515
 40
0.1515151515151515
 40
0.1515151515151515
 40
0.1666666666666666
 40
0.1666666666666666
 40
0.1666666666666666
 40
0.1666666666666666
 40
0.1818181818181818
 40
0.1818181818181818
 40
0.1818181818181818
 40
0.1818181818181818
 40
0.1969696969696969
 40
0.1969696969696969
 40
0.1969696969696969
 40
0.1969696969696969
 40
0.212121212121212
 40
0.212121212121212
 40
0.212121212121212
 40
0.212121212121212
 40
0.2272727272727272
 40
0.2272727272727272
 40
0.2272727272727272
 40
0.2272727272727272
 40
0.2424242424242423
 40
0.2424242424242423
 40
0.2424242424242423
 40
0.2424242424242423
 40
0.2575757575757574
 40
0.2575757575757574
 40
0.2575757575757574
 40
0.2575757575757574
 40
0.2727272727272726
 40
0.2727272727272726
 40
0.2727272727272726
 40
0.2727272727272726
 40
0.2878787878787877
 40
0.2878787878787877
 40
0.2878787878787877
 40
0.2878787878787877
 40
0.3030303030303028
 40
0.3030303030303028
 40
0.3030303030303028
 40
0.3030303030303028
 40
0.318181818181818
 40
0.318181818181818
 40
0.318181818181818
 40
0.318181818181818
 40
0.3333333333333331
 40
0.3333333333333331
 40
0.3333333333333331
 40
0.3333333333333331
 40
0.3484848484848483
 40
0.3484848484848483
 40
0.3484848484848483
 40
0.3484848484848483
 40
0.3636363636363634
 40
0.3636363636363634
 40
0.3636363636363634
 40
0.3636363636363634
 40
0.3787878787878785
 40
0.3787878787878785
 40
0.3787878787878785
 40
0.3787878787878785
 40
0.3939393939393937
 40
0.3939393939393937
 40
0.3939393939393937
 40
0.3939393939393937
 40
0.4090909090909089
 40
0.4090909090909089
 40
0.4090909090909089
 40
0.4090909090909089
 40
0.424242424242424
 40
0.424242424242424
 40
0.424242424242424
 40
0.424242424242424
 40
0.4393939393939391
 40
0.4393939393939391
 40
0.4393939393939391
 40
0.4393939393939391
 40
0.4545454545454543
 40
0.4545454545454543
 40
0.4545454545454543
 40
0.4545454545454543
 40
0.4696969696969694
 40
0.4696969696969694
 40
0.4696969696969694
 40
0.4696969696969694
 40
0.4848484848484845
 40
0.4848484848484845
 40
0.4848484848484845
 40
0.4848484848484845
 40
0.4999999999999997
 40
0.4999999999999997
 40
0.4999999999999997
 40
0.4999999999999997
 40
0.5151515151515148
 40
0.5151515151515148
 40
0.5151515151515148
 40
0.5151515151515148
 40
0.53030303030303
 40
0.53030303030303
 40
0.53030303030303
 40
0.53030303030303
 40
0.5454545454545451
 40
0.5454545454545451
 40
0.5454545454545451
 40
0.5454545454545451
 40
0.5606060606060602
 40
0.5606060606060602
 40
0.5606060606060602
 40
0.5606060606060602
 40
0.5757575757575754
 40
0.5757575757575754
 40
0.5757575757575754
 40
0.5757575757575754
 40
0.5909090909090905
 40
0.5909090909090905
 40
0.5909090909090905
 40
0.5909090909090905
 40
0.6060606060606056
 40
0.6060606060606056
 40
0.6060606060606056
 40
0.6060606060606056
 40
0.6212121212121208
 40
0.6212121212121208
 40
0.6212121212121208
 40
0.6212121212121208
 40
0.6363636363636359
 40
0.6363636363636359
 40
0.6363636363636359
 40
0.6363636363636359
 40
0.6515151515151511
 40
0.6515151515151511
 40
0.6515151515151511
 40
0.6515151515151511
 40
0.6666666666666662
 40
0.6666666666666662
 40
0.6666666666666662
 40
0.6666666666666662
 40
0.6818181818181813
 40
0.6818181818181813
 40
0.6818181818181813
 40
0.6818181818181813
 40
0.6969696969696965
 40
0.6969696969696965
 40
0.6969696969696965
 40
0.6969696969696965
 40
0.7121212121212116
 40
0.7121212121212116
 40
0.7121212121212116
 40
0.7121212121212116
 40
0.7272727272727268
 40
0.7272727272727268
 40
0.7272727272727268
 40
0.7272727272727268
 40
0.7424242424242419
 40
0.7424242424242419
 40
0.7424242424242419
 40
0.7424242424242419
 40
0.757575757575757
 40
0.757575757575757
 40
0.757575757575757
 40
0.757575757575757
 40
0.7727272727272722
 40
0.7727272727272722
 40
0.7727272727272722
 40
0.7727272727272722
 40
0.7878787878787873
 40
0.7878787878787873
 40
0.7878787878787873
 40
0.7878787878787873
 40
0.8030303030303024
 40
0.8030303030303024
 40
0.8030303030303024
 40
0.8030303030303024
 40
0.8181818181818176
 40
0.8181818181818176
 40
0.8181818181818176
 40
0.8181818181818176
 40
0.8333333333333326
 40
0.8333333333333326
 40
0.8333333333333326
 40
0.8333333333333326
 40
0.8484848484848479
 40
0.8484848484848479
 40
0.8484848484848479
 40
0.8484848484848479
 40
0.8636363636363629
 40
0.8636363636363629
 40
0.8636363636363629
 40
0.8636363636363629
 40
0.8787878787878781
 40
0.8787878787878781
 40
0.8787878787878781
 40
0.8787878787878781
 40
0.8939393939393932
 40
0.8939393939393932
 40
0.8939393939393932
 40
0.8939393939393932
 40
0.9090909090909084
 40
0.9090909090909084
 40
0.9090909090909084
 40
0.9090909090909084
 40
0.9242424242424235
 40
0.9242424242424235
 40
0.9242424242424235
 40
0.9242424242424235
 40
0.9393939393939387
 40
0.9393939393939387
 40
0.9393939393939387
 40
0.9393939393939387
 40
0.9545454545454537
 40
0.9545454545454537
 40
0.9545454545454537
 40
0.9545454545454537
 40
0.969696969696969
 40
0.969696969696969
 40
0.969696969696969
 40
0.969696969696969
 40
0.984848484848484
 40
0.984848484848484
 40
0.984848484848484
 40
0.984848484848484
 40
1.0
 40
1.0
 40
1.0
 40
1.0
 10
3992.55957780824
 20
1718.106202758465
 30
0.0
 10
3992.55957780824
 20
1718.106202758465
 30
0.0
 10
3992.55957780824
 20
1718.112596995665
 30
0.0
 10
3992.55957780824
 20
1718.112596995665
 30
0.0
 10
3992.55957780824
 20
1718.112596995665
 30
0.0
 10
3992.55957780824
 20
1718.112596995665
 30
0.0
 10
3992.559476461039
 20
1718.113611936465
 30
0.0
 10
3992.559476461039
 20
1718.113611936465
 30
0.0
 10
3992.559476461039
 20
1718.113611936465
 30
0.0
 10
3992.559476461039
 20
1718.113611936465
 30
0.0
 10
3992.559476461039
 20
1718.114626693665
 30
0.0
 10
3992.559476461039
 20
1718.114626693665
 30
0.0
 10
3992.559476461039
 20
1718.114626693665
 30
0.0
 10
3992.559476461039
 20
1718.114626693665
 30
0.0
 10
3992.559273399439
 20
1718.115743348865
 30
0.0
 10
3992.559273399439
 20
1718.115743348865
 30
0.0
 10
3992.559273399439
 20
1718.115743348865
 30
0.0
 10
3992.559273399439
 20
1718.115743348865
 30
0.0
 10
3992.55917186864
 20
1718.116758106065
 30
0.0
 10
3992.55917186864
 20
1718.116758106065
 30
0.0
 10
3992.55917186864
 20
1718.116758106065
 30
0.0
 10
3992.55917186864
 20
1718.116758106065
 30
0.0
 10
3992.55896880704
 20
1718.117773230465
 30
0.0
 10
3992.55896880704
 20
1718.117773230465
 30
0.0
 10
3992.55896880704
 20
1718.117773230465
 30
0.0
 10
3992.55896880704
 20
1718.117773230465
 30
0.0
 10
3992.558765745439
 20
1718.118788171265
 30
0.0
 10
3992.558765745439
 20
1718.118788171265
 30
0.0
 10
3992.558765745439
 20
1718.118788171265
 30
0.0
 10
3992.558765745439
 20
1718.118788171265
 30
0.0
 10
3992.55846133664
 20
1718.119701581265
 30
0.0
 10
3992.55846133664
 20
1718.119701581265
 30
0.0
 10
3992.55846133664
 20
1718.119701581265
 30
0.0
 10
3992.55846133664
 20
1718.119701581265
 30
0.0
 10
3992.55815674424
 20
1718.120716522065
 30
0.0
 10
3992.55815674424
 20
1718.120716522065
 30
0.0
 10
3992.55815674424
 20
1718.120716522065
 30
0.0
 10
3992.55815674424
 20
1718.120716522065
 30
0.0
 10
3992.55785233544
 20
1718.121731646465
 30
0.0
 10
3992.55785233544
 20
1718.121731646465
 30
0.0
 10
3992.55785233544
 20
1718.121731646465
 30
0.0
 10
3992.55785233544
 20
1718.121731646465
 30
0.0
 10
3992.55754774304
 20
1718.122645056465
 30
0.0
 10
3992.55754774304
 20
1718.122645056465
 30
0.0
 10
3992.55754774304
 20
1718.122645056465
 30
0.0
 10
3992.55754774304
 20
1718.122645056465
 30
0.0
 10
3992.55714198704
 20
1718.123659997265
 30
0.0
 10
3992.55714198704
 20
1718.123659997265
 30
0.0
 10
3992.55714198704
 20
1718.123659997265
 30
0.0
 10
3992.55714198704
 20
1718.123659997265
 30
0.0
 10
3992.55673604744
 20
1718.124573407265
 30
0.0
 10
3992.55673604744
 20
1718.124573407265
 30
0.0
 10
3992.55673604744
 20
1718.124573407265
 30
0.0
 10
3992.55673604744
 20
1718.124573407265
 30
0.0
 10
3992.55622839344
 20
1718.125486817265
 30
0.0
 10
3992.55622839344
 20
1718.125486817265
 30
0.0
 10
3992.55622839344
 20
1718.125486817265
 30
0.0
 10
3992.55622839344
 20
1718.125486817265
 30
0.0
 10
3992.55582263744
 20
1718.126400227265
 30
0.0
 10
3992.55582263744
 20
1718.126400227265
 30
0.0
 10
3992.55582263744
 20
1718.126400227265
 30
0.0
 10
3992.55582263744
 20
1718.126400227265
 30
0.0
 10
3992.555314983439
 20
1718.127313820865
 30
0.0
 10
3992.555314983439
 20
1718.127313820865
 30
0.0
 10
3992.555314983439
 20
1718.127313820865
 30
0.0
 10
3992.555314983439
 20
1718.127313820865
 30
0.0
 10
3992.55480751304
 20
1718.128227230865
 30
0.0
 10
3992.55480751304
 20
1718.128227230865
 30
0.0
 10
3992.55480751304
 20
1718.128227230865
 30
0.0
 10
3992.55480751304
 20
1718.128227230865
 30
0.0
 10
3992.55419851184
 20
1718.129140640865
 30
0.0
 10
3992.55419851184
 20
1718.129140640865
 30
0.0
 10
3992.55419851184
 20
1718.129140640865
 30
0.0
 10
3992.55419851184
 20
1718.129140640865
 30
0.0
 10
3992.553691225039
 20
1718.129952703665
 30
0.0
 10
3992.553691225039
 20
1718.129952703665
 30
0.0
 10
3992.553691225039
 20
1718.129952703665
 30
0.0
 10
3992.553691225039
 20
1718.129952703665
 30
0.0
 10
3992.55308222384
 20
1718.130764582865
 30
0.0
 10
3992.55308222384
 20
1718.130764582865
 30
0.0
 10
3992.55308222384
 20
1718.130764582865
 30
0.0
 10
3992.55308222384
 20
1718.130764582865
 30
0.0
 10
3992.55237150824
 20
1718.131576462065
 30
0.0
 10
3992.55237150824
 20
1718.131576462065
 30
0.0
 10
3992.55237150824
 20
1718.131576462065
 30
0.0
 10
3992.55237150824
 20
1718.131576462065
 30
0.0
 10
3992.55176269064
 20
1718.132388524865
 30
0.0
 10
3992.55176269064
 20
1718.132388524865
 30
0.0
 10
3992.55176269064
 20
1718.132388524865
 30
0.0
 10
3992.55176269064
 20
1718.132388524865
 30
0.0
 10
3992.55105215864
 20
1718.133200404065
 30
0.0
 10
3992.55105215864
 20
1718.133200404065
 30
0.0
 10
3992.55105215864
 20
1718.133200404065
 30
0.0
 10
3992.55105215864
 20
1718.133200404065
 30
0.0
 10
3992.55034181024
 20
1718.133910936065
 30
0.0
 10
3992.55034181024
 20
1718.133910936065
 30
0.0
 10
3992.55034181024
 20
1718.133910936065
 30
0.0
 10
3992.55034181024
 20
1718.133910936065
 30
0.0
 10
3992.54963127824
 20
1718.134621468065
 30
0.0
 10
3992.54963127824
 20
1718.134621468065
 30
0.0
 10
3992.54963127824
 20
1718.134621468065
 30
0.0
 10
3992.54963127824
 20
1718.134621468065
 30
0.0
 10
3992.54881939904
 20
1718.135331816465
 30
0.0
 10
3992.54881939904
 20
1718.135331816465
 30
0.0
 10
3992.54881939904
 20
1718.135331816465
 30
0.0
 10
3992.54881939904
 20
1718.135331816465
 30
0.0
 10
3992.54810886704
 20
1718.136042348465
 30
0.0
 10
3992.54810886704
 20
1718.136042348465
 30
0.0
 10
3992.54810886704
 20
1718.136042348465
 30
0.0
 10
3992.54810886704
 20
1718.136042348465
 30
0.0
 10
3992.54729698784
 20
1718.136651349665
 30
0.0
 10
3992.54729698784
 20
1718.136651349665
 30
0.0
 10
3992.54729698784
 20
1718.136651349665
 30
0.0
 10
3992.54729698784
 20
1718.136651349665
 30
0.0
 10
3992.546484925039
 20
1718.137260350865
 30
0.0
 10
3992.546484925039
 20
1718.137260350865
 30
0.0
 10
3992.546484925039
 20
1718.137260350865
 30
0.0
 10
3992.546484925039
 20
1718.137260350865
 30
0.0
 10
3992.54567286224
 20
1718.137869352065
 30
0.0
 10
3992.54567286224
 20
1718.137869352065
 30
0.0
 10
3992.54567286224
 20
1718.137869352065
 30
0.0
 10
3992.54567286224
 20
1718.137869352065
 30
0.0
 10
3992.54475945224
 20
1718.138478353265
 30
0.0
 10
3992.54475945224
 20
1718.138478353265
 30
0.0
 10
3992.54475945224
 20
1718.138478353265
 30
0.0
 10
3992.54475945224
 20
1718.138478353265
 30
0.0
 10
3992.54384604224
 20
1718.138985640065
 30
0.0
 10
3992.54384604224
 20
1718.138985640065
 30
0.0
 10
3992.54384604224
 20
1718.138985640065
 30
0.0
 10
3992.54384604224
 20
1718.138985640065
 30
0.0
 10
3992.54303416304
 20
1718.139493110465
 30
0.0
 10
3992.54303416304
 20
1718.139493110465
 30
0.0
 10
3992.54303416304
 20
1718.139493110465
 30
0.0
 10
3992.54303416304
 20
1718.139493110465
 30
0.0
 10
3992.54212075304
 20
1718.140000764465
 30
0.0
 10
3992.54212075304
 20
1718.140000764465
 30
0.0
 10
3992.54212075304
 20
1718.140000764465
 30
0.0
 10
3992.54212075304
 20
1718.140000764465
 30
0.0
 10
3992.54120734304
 20
1718.140508051265
 30
0.0
 10
3992.54120734304
 20
1718.140508051265
 30
0.0
 10
3992.54120734304
 20
1718.140508051265
 30
0.0
 10
3992.54120734304
 20
1718.140508051265
 30
0.0
 10
3992.54019221864
 20
1718.140914174465
 30
0.0
 10
3992.54019221864
 20
1718.140914174465
 30
0.0
 10
3992.54019221864
 20
1718.140914174465
 30
0.0
 10
3992.54019221864
 20
1718.140914174465
 30
0.0
 10
3992.53927862504
 20
1718.141320114065
 30
0.0
 10
3992.53927862504
 20
1718.141320114065
 30
0.0
 10
3992.53927862504
 20
1718.141320114065
 30
0.0
 10
3992.53927862504
 20
1718.141320114065
 30
0.0
 10
3992.53836521504
 20
1718.141624522865
 30
0.0
 10
3992.53836521504
 20
1718.141624522865
 30
0.0
 10
3992.53836521504
 20
1718.141624522865
 30
0.0
 10
3992.53836521504
 20
1718.141624522865
 30
0.0
 10
3992.53735045784
 20
1718.142030462465
 30
0.0
 10
3992.53735045784
 20
1718.142030462465
 30
0.0
 10
3992.53735045784
 20
1718.142030462465
 30
0.0
 10
3992.53735045784
 20
1718.142030462465
 30
0.0
 10
3992.53633551704
 20
1718.142334871265
 30
0.0
 10
3992.53633551704
 20
1718.142334871265
 30
0.0
 10
3992.53633551704
 20
1718.142334871265
 30
0.0
 10
3992.53633551704
 20
1718.142334871265
 30
0.0
 10
3992.53542210704
 20
1718.142639463665
 30
0.0
 10
3992.53542210704
 20
1718.142639463665
 30
0.0
 10
3992.53542210704
 20
1718.142639463665
 30
0.0
 10
3992.53542210704
 20
1718.142639463665
 30
0.0
 10
3992.53440698264
 20
1718.142842525265
 30
0.0
 10
3992.53440698264
 20
1718.142842525265
 30
0.0
 10
3992.53440698264
 20
1718.142842525265
 30
0.0
 10
3992.53440698264
 20
1718.142842525265
 30
0.0
 10
3992.53339204184
 20
1718.143045586865
 30
0.0
 10
3992.53339204184
 20
1718.143045586865
 30
0.0
 10
3992.53339204184
 20
1718.143045586865
 30
0.0
 10
3992.53339204184
 20
1718.143045586865
 30
0.0
 10
3992.53237728464
 20
1718.143248464865
 30
0.0
 10
3992.53237728464
 20
1718.143248464865
 30
0.0
 10
3992.53237728464
 20
1718.143248464865
 30
0.0
 10
3992.53237728464
 20
1718.143248464865
 30
0.0
 10
3992.53136216024
 20
1718.143349995665
 30
0.0
 10
3992.53136216024
 20
1718.143349995665
 30
0.0
 10
3992.53136216024
 20
1718.143349995665
 30
0.0
 10
3992.53136216024
 20
1718.143349995665
 30
0.0
 10
3992.530347219439
 20
1718.143552873665
 30
0.0
 10
3992.530347219439
 20
1718.143552873665
 30
0.0
 10
3992.530347219439
 20
1718.143552873665
 30
0.0
 10
3992.530347219439
 20
1718.143552873665
 30
0.0
 10
3992.52923074784
 20
1718.143552873665
 30
0.0
 10
3992.52923074784
 20
1718.143552873665
 30
0.0
 10
3992.52923074784
 20
1718.143552873665
 30
0.0
 10
3992.52923074784
 20
1718.143552873665
 30
0.0
 10
3992.52821580704
 20
1718.143654588065
 30
0.0
 10
3992.52821580704
 20
1718.143654588065
 30
0.0
 10
3992.52821580704
 20
1718.143654588065
 30
0.0
 10
3992.52821580704
 20
1718.143654588065
 30
0.0
 10
3992.52517098464
 20
1718.143654588065
 30
0.0
 10
3992.52517098464
 20
1718.143654588065
 30
0.0
 10
3992.52517098464
 20
1718.143654588065
 30
0.0
 10
3992.52517098464
 20
1718.143654588065
 30
0.0
 10
3992.52415604384
 20
1718.143552873665
 30
0.0
 10
3992.52415604384
 20
1718.143552873665
 30
0.0
 10
3992.52415604384
 20
1718.143552873665
 30
0.0
 10
3992.52415604384
 20
1718.143552873665
 30
0.0
 10
3992.52314091944
 20
1718.143451526465
 30
0.0
 10
3992.52314091944
 20
1718.143451526465
 30
0.0
 10
3992.52314091944
 20
1718.143451526465
 30
0.0
 10
3992.52314091944
 20
1718.143451526465
 30
0.0
 10
3992.52212616224
 20
1718.143248464865
 30
0.0
 10
3992.52212616224
 20
1718.143248464865
 30
0.0
 10
3992.52212616224
 20
1718.143248464865
 30
0.0
 10
3992.52212616224
 20
1718.143248464865
 30
0.0
 10
3992.52111122144
 20
1718.143045586865
 30
0.0
 10
3992.52111122144
 20
1718.143045586865
 30
0.0
 10
3992.52111122144
 20
1718.143045586865
 30
0.0
 10
3992.52111122144
 20
1718.143045586865
 30
0.0
 10
3992.52009609704
 20
1718.142842525265
 30
0.0
 10
3992.52009609704
 20
1718.142842525265
 30
0.0
 10
3992.52009609704
 20
1718.142842525265
 30
0.0
 10
3992.52009609704
 20
1718.142842525265
 30
0.0
 10
3992.519081339839
 20
1718.142639463665
 30
0.0
 10
3992.519081339839
 20
1718.142639463665
 30
0.0
 10
3992.519081339839
 20
1718.142639463665
 30
0.0
 10
3992.519081339839
 20
1718.142639463665
 30
0.0
 10
3992.518066399039
 20
1718.142334871265
 30
0.0
 10
3992.518066399039
 20
1718.142334871265
 30
0.0
 10
3992.518066399039
 20
1718.142334871265
 30
0.0
 10
3992.518066399039
 20
1718.142334871265
 30
0.0
 10
3992.51705127464
 20
1718.142030462465
 30
0.0
 10
3992.51705127464
 20
1718.142030462465
 30
0.0
 10
3992.51705127464
 20
1718.142030462465
 30
0.0
 10
3992.51705127464
 20
1718.142030462465
 30
0.0
 10
3992.516137864639
 20
1718.141726053665
 30
0.0
 10
3992.516137864639
 20
1718.141726053665
 30
0.0
 10
3992.516137864639
 20
1718.141726053665
 30
0.0
 10
3992.516137864639
 20
1718.141726053665
 30
0.0
 10
3992.51512292384
 20
1718.141421461265
 30
0.0
 10
3992.51512292384
 20
1718.141421461265
 30
0.0
 10
3992.51512292384
 20
1718.141421461265
 30
0.0
 10
3992.51512292384
 20
1718.141421461265
 30
0.0
 10
3992.51420951384
 20
1718.141015521665
 30
0.0
 10
3992.51420951384
 20
1718.141015521665
 30
0.0
 10
3992.51420951384
 20
1718.141015521665
 30
0.0
 10
3992.51420951384
 20
1718.141015521665
 30
0.0
 10
3992.51319457304
 20
1718.140508051265
 30
0.0
 10
3992.51319457304
 20
1718.140508051265
 30
0.0
 10
3992.51319457304
 20
1718.140508051265
 30
0.0
 10
3992.51319457304
 20
1718.140508051265
 30
0.0
 10
3992.51228116304
 20
1718.140102111665
 30
0.0
 10
3992.51228116304
 20
1718.140102111665
 30
0.0
 10
3992.51228116304
 20
1718.140102111665
 30
0.0
 10
3992.51228116304
 20
1718.140102111665
 30
0.0
 10
3992.51136775304
 20
1718.139594641265
 30
0.0
 10
3992.51136775304
 20
1718.139594641265
 30
0.0
 10
3992.51136775304
 20
1718.139594641265
 30
0.0
 10
3992.51136775304
 20
1718.139594641265
 30
0.0
 10
3992.50669880504
 20
1718.137057289265
 30
0.0
 10
3992.50669880504
 20
1718.137057289265
 30
0.0
 10
3992.50669880504
 20
1718.137057289265
 30
0.0
 10
3992.50669880504
 20
1718.137057289265
 30
0.0
 10
3992.50101528344
 20
1718.134012466865
 30
0.0
 10
3992.50101528344
 20
1718.134012466865
 30
0.0
 10
3992.50101528344
 20
1718.134012466865
 30
0.0
 10
3992.50101528344
 20
1718.134012466865
 30
0.0
 10
3992.49665074424
 20
1718.131779523665
 30
0.0
 10
3992.49665074424
 20
1718.131779523665
 30
0.0
  0
SPLINE
  5
1138
330
1F
100
AcDbEntity
  8
SANINDUSA
100
AcDbSpline
210
0.0
220
0.0
230
1.0
 70
     8
 71
     3
 72
    16
 73
    12
 74
     0
 42
0.0000000001
 43
0.0000000001
 40
0.0
 40
0.0
 40
0.0
 40
0.0
 40
0.3333333333333333
 40
0.3333333333333333
 40
0.3333333333333333
 40
0.3333333333333333
 40
0.6666666666666666
 40
0.6666666666666666
 40
0.6666666666666666
 40
0.6666666666666666
 40
1.0
 40
1.0
 40
1.0
 40
1.0
 10
3992.49665074424
 20
1718.131779523665
 30
0.0
 10
3992.49665074424
 20
1718.131779523665
 30
0.0
 10
3992.49654939704
 20
1718.131677992865
 30
0.0
 10
3992.49654939704
 20
1718.131677992865
 30
0.0
 10
3992.49654939704
 20
1718.131677992865
 30
0.0
 10
3992.49654939704
 20
1718.131677992865
 30
0.0
 10
3992.496346335439
 20
1718.131576462065
 30
0.0
 10
3992.496346335439
 20
1718.131576462065
 30
0.0
 10
3992.496346335439
 20
1718.131576462065
 30
0.0
 10
3992.496346335439
 20
1718.131576462065
 30
0.0
 10
3992.49512833304
 20
1718.131576462065
 30
0.0
 10
3992.49512833304
 20
1718.131576462065
 30
0.0
  0
SPLINE
  5
1139
330
1F
100
AcDbEntity
  8
SANINDUSA
100
AcDbSpline
210
0.0
220
0.0
230
1.0
 70
    24
 71
     3
 72
     8
 73
     4
 74
     0
 42
0.0000000001
 43
0.0000000001
 40
0.0
 40
0.0
 40
0.0
 40
0.0
 40
1.0
 40
1.0
 40
1.0
 40
1.0
 10
3992.55957780824
 20
1718.011203528465
 30
0.0
 10
3992.55957780824
 20
1718.011203528465
 30
0.0
 10
3992.55957780824
 20
1718.043681634065
 30
0.0
 10
3992.55957780824
 20
1718.043681634065
 30
0.0
  0
SPLINE
  5
113A
330
1F
100
AcDbEntity
  8
SANINDUSA
100
AcDbSpline
210
0.0
220
0.0
230
1.0
 70
    24
 71
     3
 72
     8
 73
     4
 74
     0
 42
0.0000000001
 43
0.0000000001
 40
0.0
 40
0.0
 40
0.0
 40
0.0
 40
1.0
 40
1.0
 40
1.0
 40
1.0
 10
3992.55957780824
 20
1718.068649581665
 30
0.0
 10
3992.55957780824
 20
1718.068649581665
 30
0.0
 10
3992.55957780824
 20
1718.106202758465
 30
0.0
 10
3992.55957780824
 20
1718.106202758465
 30
0.0
  0
SPLINE
  5
113B
330
1F
100
AcDbEntity
  8
SANINDUSA
100
AcDbSpline
210
0.0
220
0.0
230
1.0
 70
     8
 71
     3
 72
   384
 73
   380
 74
     0
 42
0.0000000001
 43
0.0000000001
 40
0.0
 40
0.0
 40
0.0
 40
0.0
 40
0.0105263157894737
 40
0.0105263157894737
 40
0.0105263157894737
 40
0.0105263157894737
 40
0.0210526315789474
 40
0.0210526315789474
 40
0.0210526315789474
 40
0.0210526315789474
 40
0.0315789473684211
 40
0.0315789473684211
 40
0.0315789473684211
 40
0.0315789473684211
 40
0.0421052631578947
 40
0.0421052631578947
 40
0.0421052631578947
 40
0.0421052631578947
 40
0.0526315789473684
 40
0.0526315789473684
 40
0.0526315789473684
 40
0.0526315789473684
 40
0.0631578947368421
 40
0.0631578947368421
 40
0.0631578947368421
 40
0.0631578947368421
 40
0.0736842105263158
 40
0.0736842105263158
 40
0.0736842105263158
 40
0.0736842105263158
 40
0.0842105263157895
 40
0.0842105263157895
 40
0.0842105263157895
 40
0.0842105263157895
 40
0.0947368421052632
 40
0.0947368421052632
 40
0.0947368421052632
 40
0.0947368421052632
 40
0.1052631578947369
 40
0.1052631578947369
 40
0.1052631578947369
 40
0.1052631578947369
 40
0.1157894736842105
 40
0.1157894736842105
 40
0.1157894736842105
 40
0.1157894736842105
 40
0.1263157894736842
 40
0.1263157894736842
 40
0.1263157894736842
 40
0.1263157894736842
 40
0.1368421052631579
 40
0.1368421052631579
 40
0.1368421052631579
 40
0.1368421052631579
 40
0.1473684210526316
 40
0.1473684210526316
 40
0.1473684210526316
 40
0.1473684210526316
 40
0.1578947368421053
 40
0.1578947368421053
 40
0.1578947368421053
 40
0.1578947368421053
 40
0.168421052631579
 40
0.168421052631579
 40
0.168421052631579
 40
0.168421052631579
 40
0.1789473684210527
 40
0.1789473684210527
 40
0.1789473684210527
 40
0.1789473684210527
 40
0.1894736842105264
 40
0.1894736842105264
 40
0.1894736842105264
 40
0.1894736842105264
 40
0.2000000000000001
 40
0.2000000000000001
 40
0.2000000000000001
 40
0.2000000000000001
 40
0.2105263157894738
 40
0.2105263157894738
 40
0.2105263157894738
 40
0.2105263157894738
 40
0.2210526315789474
 40
0.2210526315789474
 40
0.2210526315789474
 40
0.2210526315789474
 40
0.2315789473684211
 40
0.2315789473684211
 40
0.2315789473684211
 40
0.2315789473684211
 40
0.2421052631578948
 40
0.2421052631578948
 40
0.2421052631578948
 40
0.2421052631578948
 40
0.2526315789473685
 40
0.2526315789473685
 40
0.2526315789473685
 40
0.2526315789473685
 40
0.2631578947368421
 40
0.2631578947368421
 40
0.2631578947368421
 40
0.2631578947368421
 40
0.2736842105263158
 40
0.2736842105263158
 40
0.2736842105263158
 40
0.2736842105263158
 40
0.2842105263157895
 40
0.2842105263157895
 40
0.2842105263157895
 40
0.2842105263157895
 40
0.2947368421052631
 40
0.2947368421052631
 40
0.2947368421052631
 40
0.2947368421052631
 40
0.3052631578947368
 40
0.3052631578947368
 40
0.3052631578947368
 40
0.3052631578947368
 40
0.3157894736842104
 40
0.3157894736842104
 40
0.3157894736842104
 40
0.3157894736842104
 40
0.3263157894736841
 40
0.3263157894736841
 40
0.3263157894736841
 40
0.3263157894736841
 40
0.3368421052631578
 40
0.3368421052631578
 40
0.3368421052631578
 40
0.3368421052631578
 40
0.3473684210526314
 40
0.3473684210526314
 40
0.3473684210526314
 40
0.3473684210526314
 40
0.3578947368421051
 40
0.3578947368421051
 40
0.3578947368421051
 40
0.3578947368421051
 40
0.3684210526315788
 40
0.3684210526315788
 40
0.3684210526315788
 40
0.3684210526315788
 40
0.3789473684210524
 40
0.3789473684210524
 40
0.3789473684210524
 40
0.3789473684210524
 40
0.3894736842105261
 40
0.3894736842105261
 40
0.3894736842105261
 40
0.3894736842105261
 40
0.3999999999999997
 40
0.3999999999999997
 40
0.3999999999999997
 40
0.3999999999999997
 40
0.4105263157894735
 40
0.4105263157894735
 40
0.4105263157894735
 40
0.4105263157894735
 40
0.4210526315789471
 40
0.4210526315789471
 40
0.4210526315789471
 40
0.4210526315789471
 40
0.4315789473684207
 40
0.4315789473684207
 40
0.4315789473684207
 40
0.4315789473684207
 40
0.4421052631578945
 40
0.4421052631578945
 40
0.4421052631578945
 40
0.4421052631578945
 40
0.4526315789473681
 40
0.4526315789473681
 40
0.4526315789473681
 40
0.4526315789473681
 40
0.4631578947368417
 40
0.4631578947368417
 40
0.4631578947368417
 40
0.4631578947368417
 40
0.4736842105263154
 40
0.4736842105263154
 40
0.4736842105263154
 40
0.4736842105263154
 40
0.4842105263157891
 40
0.4842105263157891
 40
0.4842105263157891
 40
0.4842105263157891
 40
0.4947368421052627
 40
0.4947368421052627
 40
0.4947368421052627
 40
0.4947368421052627
 40
0.5052631578947365
 40
0.5052631578947365
 40
0.5052631578947365
 40
0.5052631578947365
 40
0.5157894736842101
 40
0.5157894736842101
 40
0.5157894736842101
 40
0.5157894736842101
 40
0.5263157894736839
 40
0.5263157894736839
 40
0.5263157894736839
 40
0.5263157894736839
 40
0.5368421052631576
 40
0.5368421052631576
 40
0.5368421052631576
 40
0.5368421052631576
 40
0.5473684210526314
 40
0.5473684210526314
 40
0.5473684210526314
 40
0.5473684210526314
 40
0.557894736842105
 40
0.557894736842105
 40
0.557894736842105
 40
0.557894736842105
 40
0.5684210526315788
 40
0.5684210526315788
 40
0.5684210526315788
 40
0.5684210526315788
 40
0.5789473684210524
 40
0.5789473684210524
 40
0.5789473684210524
 40
0.5789473684210524
 40
0.5894736842105262
 40
0.5894736842105262
 40
0.5894736842105262
 40
0.5894736842105262
 40
0.5999999999999999
 40
0.5999999999999999
 40
0.5999999999999999
 40
0.5999999999999999
 40
0.6105263157894737
 40
0.6105263157894737
 40
0.6105263157894737
 40
0.6105263157894737
 40
0.6210526315789473
 40
0.6210526315789473
 40
0.6210526315789473
 40
0.6210526315789473
 40
0.6315789473684211
 40
0.6315789473684211
 40
0.6315789473684211
 40
0.6315789473684211
 40
0.6421052631578947
 40
0.6421052631578947
 40
0.6421052631578947
 40
0.6421052631578947
 40
0.6526315789473685
 40
0.6526315789473685
 40
0.6526315789473685
 40
0.6526315789473685
 40
0.6631578947368422
 40
0.6631578947368422
 40
0.6631578947368422
 40
0.6631578947368422
 40
0.673684210526316
 40
0.673684210526316
 40
0.673684210526316
 40
0.673684210526316
 40
0.6842105263157896
 40
0.6842105263157896
 40
0.6842105263157896
 40
0.6842105263157896
 40
0.6947368421052634
 40
0.6947368421052634
 40
0.6947368421052634
 40
0.6947368421052634
 40
0.705263157894737
 40
0.705263157894737
 40
0.705263157894737
 40
0.705263157894737
 40
0.7157894736842108
 40
0.7157894736842108
 40
0.7157894736842108
 40
0.7157894736842108
 40
0.7263157894736845
 40
0.7263157894736845
 40
0.7263157894736845
 40
0.7263157894736845
 40
0.7368421052631583
 40
0.7368421052631583
 40
0.7368421052631583
 40
0.7368421052631583
 40
0.7473684210526319
 40
0.7473684210526319
 40
0.7473684210526319
 40
0.7473684210526319
 40
0.7578947368421057
 40
0.7578947368421057
 40
0.7578947368421057
 40
0.7578947368421057
 40
0.7684210526315793
 40
0.7684210526315793
 40
0.7684210526315793
 40
0.7684210526315793
 40
0.7789473684210531
 40
0.7789473684210531
 40
0.7789473684210531
 40
0.7789473684210531
 40
0.7894736842105268
 40
0.7894736842105268
 40
0.7894736842105268
 40
0.7894736842105268
 40
0.8000000000000005
 40
0.8000000000000005
 40
0.8000000000000005
 40
0.8000000000000005
 40
0.8105263157894741
 40
0.8105263157894741
 40
0.8105263157894741
 40
0.8105263157894741
 40
0.8210526315789479
 40
0.8210526315789479
 40
0.8210526315789479
 40
0.8210526315789479
 40
0.8315789473684215
 40
0.8315789473684215
 40
0.8315789473684215
 40
0.8315789473684215
 40
0.8421052631578954
 40
0.8421052631578954
 40
0.8421052631578954
 40
0.8421052631578954
 40
0.852631578947369
 40
0.852631578947369
 40
0.852631578947369
 40
0.852631578947369
 40
0.8631578947368428
 40
0.8631578947368428
 40
0.8631578947368428
 40
0.8631578947368428
 40
0.8736842105263164
 40
0.8736842105263164
 40
0.8736842105263164
 40
0.8736842105263164
 40
0.8842105263157902
 40
0.8842105263157902
 40
0.8842105263157902
 40
0.8842105263157902
 40
0.8947368421052638
 40
0.8947368421052638
 40
0.8947368421052638
 40
0.8947368421052638
 40
0.9052631578947377
 40
0.9052631578947377
 40
0.9052631578947377
 40
0.9052631578947377
 40
0.9157894736842113
 40
0.9157894736842113
 40
0.9157894736842113
 40
0.9157894736842113
 40
0.9263157894736851
 40
0.9263157894736851
 40
0.9263157894736851
 40
0.9263157894736851
 40
0.9368421052631587
 40
0.9368421052631587
 40
0.9368421052631587
 40
0.9368421052631587
 40
0.9473684210526325
 40
0.9473684210526325
 40
0.9473684210526325
 40
0.9473684210526325
 40
0.9578947368421061
 40
0.9578947368421061
 40
0.9578947368421061
 40
0.9578947368421061
 40
0.96842105263158
 40
0.96842105263158
 40
0.96842105263158
 40
0.96842105263158
 40
0.9789473684210536
 40
0.9789473684210536
 40
0.9789473684210536
 40
0.9789473684210536
 40
0.9894736842105274
 40
0.9894736842105274
 40
0.9894736842105274
 40
0.9894736842105274
 40
1.0
 40
1.0
 40
1.0
 40
1.0
 10
3992.456458684639
 20
1718.146902288465
 30
0.0
 10
3992.456458684639
 20
1718.146902288465
 30
0.0
 10
3992.45737209464
 20
1718.147409758865
 30
0.0
 10
3992.45737209464
 20
1718.147409758865
 30
0.0
 10
3992.45737209464
 20
1718.147409758865
 30
0.0
 10
3992.45737209464
 20
1718.147409758865
 30
0.0
 10
3992.45838721904
 20
1718.148120107265
 30
0.0
 10
3992.45838721904
 20
1718.148120107265
 30
0.0
 10
3992.45838721904
 20
1718.148120107265
 30
0.0
 10
3992.45838721904
 20
1718.148120107265
 30
0.0
 10
3992.45950350704
 20
1718.148932170065
 30
0.0
 10
3992.45950350704
 20
1718.148932170065
 30
0.0
 10
3992.45950350704
 20
1718.148932170065
 30
0.0
 10
3992.45950350704
 20
1718.148932170065
 30
0.0
 10
3992.46102591824
 20
1718.149845580065
 30
0.0
 10
3992.46102591824
 20
1718.149845580065
 30
0.0
 10
3992.46102591824
 20
1718.149845580065
 30
0.0
 10
3992.46102591824
 20
1718.149845580065
 30
0.0
 10
3992.46275157464
 20
1718.150962235265
 30
0.0
 10
3992.46275157464
 20
1718.150962235265
 30
0.0
 10
3992.46275157464
 20
1718.150962235265
 30
0.0
 10
3992.46275157464
 20
1718.150962235265
 30
0.0
 10
3992.46488280344
 20
1718.152281584865
 30
0.0
 10
3992.46488280344
 20
1718.152281584865
 30
0.0
 10
3992.46488280344
 20
1718.152281584865
 30
0.0
 10
3992.46488280344
 20
1718.152281584865
 30
0.0
 10
3992.46731880824
 20
1718.153905343265
 30
0.0
 10
3992.46731880824
 20
1718.153905343265
 30
0.0
 10
3992.46731880824
 20
1718.153905343265
 30
0.0
 10
3992.46731880824
 20
1718.153905343265
 30
0.0
 10
3992.47036363064
 20
1718.155833877665
 30
0.0
 10
3992.47036363064
 20
1718.155833877665
 30
0.0
 10
3992.47036363064
 20
1718.155833877665
 30
0.0
 10
3992.47036363064
 20
1718.155833877665
 30
0.0
 10
3992.474017454239
 20
1718.158168168065
 30
0.0
 10
3992.474017454239
 20
1718.158168168065
 30
0.0
 10
3992.474017454239
 20
1718.158168168065
 30
0.0
 10
3992.474017454239
 20
1718.158168168065
 30
0.0
 10
3992.47838162624
 20
1718.160908581665
 30
0.0
 10
3992.47838162624
 20
1718.160908581665
 30
0.0
 10
3992.47838162624
 20
1718.160908581665
 30
0.0
 10
3992.47838162624
 20
1718.160908581665
 30
0.0
 10
3992.48355786104
 20
1718.164257812865
 30
0.0
 10
3992.48355786104
 20
1718.164257812865
 30
0.0
 10
3992.48355786104
 20
1718.164257812865
 30
0.0
 10
3992.48355786104
 20
1718.164257812865
 30
0.0
 10
3992.48974922024
 20
1718.168317759665
 30
0.0
 10
3992.48974922024
 20
1718.168317759665
 30
0.0
 10
3992.48974922024
 20
1718.168317759665
 30
0.0
 10
3992.48974922024
 20
1718.168317759665
 30
0.0
 10
3992.497259745439
 20
1718.173087871265
 30
0.0
 10
3992.497259745439
 20
1718.173087871265
 30
0.0
 10
3992.497259745439
 20
1718.173087871265
 30
0.0
 10
3992.497259745439
 20
1718.173087871265
 30
0.0
 10
3992.49959421944
 20
1718.174508935265
 30
0.0
 10
3992.49959421944
 20
1718.174508935265
 30
0.0
 10
3992.49959421944
 20
1718.174508935265
 30
0.0
 10
3992.49959421944
 20
1718.174508935265
 30
0.0
 10
3992.501826979039
 20
1718.175929999265
 30
0.0
 10
3992.501826979039
 20
1718.175929999265
 30
0.0
 10
3992.501826979039
 20
1718.175929999265
 30
0.0
 10
3992.501826979039
 20
1718.175929999265
 30
0.0
 10
3992.50416145304
 20
1718.177249348865
 30
0.0
 10
3992.50416145304
 20
1718.177249348865
 30
0.0
 10
3992.50416145304
 20
1718.177249348865
 30
0.0
 10
3992.50416145304
 20
1718.177249348865
 30
0.0
 10
3992.50659745784
 20
1718.178467351265
 30
0.0
 10
3992.50659745784
 20
1718.178467351265
 30
0.0
 10
3992.50659745784
 20
1718.178467351265
 30
0.0
 10
3992.50659745784
 20
1718.178467351265
 30
0.0
 10
3992.50811986904
 20
1718.179177699665
 30
0.0
 10
3992.50811986904
 20
1718.179177699665
 30
0.0
 10
3992.50811986904
 20
1718.179177699665
 30
0.0
 10
3992.50811986904
 20
1718.179177699665
 30
0.0
 10
3992.50974362744
 20
1718.179888231665
 30
0.0
 10
3992.50974362744
 20
1718.179888231665
 30
0.0
 10
3992.50974362744
 20
1718.179888231665
 30
0.0
 10
3992.50974362744
 20
1718.179888231665
 30
0.0
 10
3992.51136775304
 20
1718.180598580065
 30
0.0
 10
3992.51136775304
 20
1718.180598580065
 30
0.0
 10
3992.51136775304
 20
1718.180598580065
 30
0.0
 10
3992.51136775304
 20
1718.180598580065
 30
0.0
 10
3992.51299151144
 20
1718.181207581265
 30
0.0
 10
3992.51299151144
 20
1718.181207581265
 30
0.0
 10
3992.51299151144
 20
1718.181207581265
 30
0.0
 10
3992.51299151144
 20
1718.181207581265
 30
0.0
 10
3992.51461545344
 20
1718.181816582465
 30
0.0
 10
3992.51461545344
 20
1718.181816582465
 30
0.0
 10
3992.51461545344
 20
1718.181816582465
 30
0.0
 10
3992.51461545344
 20
1718.181816582465
 30
0.0
 10
3992.51644227344
 20
1718.182526930865
 30
0.0
 10
3992.51644227344
 20
1718.182526930865
 30
0.0
 10
3992.51644227344
 20
1718.182526930865
 30
0.0
 10
3992.51644227344
 20
1718.182526930865
 30
0.0
 10
3992.51837080784
 20
1718.183034584865
 30
0.0
 10
3992.51837080784
 20
1718.183034584865
 30
0.0
 10
3992.51837080784
 20
1718.183034584865
 30
0.0
 10
3992.51837080784
 20
1718.183034584865
 30
0.0
 10
3992.520197811439
 20
1718.183542055265
 30
0.0
 10
3992.520197811439
 20
1718.183542055265
 30
0.0
 10
3992.520197811439
 20
1718.183542055265
 30
0.0
 10
3992.520197811439
 20
1718.183542055265
 30
0.0
 10
3992.52212616224
 20
1718.184049342065
 30
0.0
 10
3992.52212616224
 20
1718.184049342065
 30
0.0
 10
3992.52212616224
 20
1718.184049342065
 30
0.0
 10
3992.52212616224
 20
1718.184049342065
 30
0.0
 10
3992.52405451304
 20
1718.184455648865
 30
0.0
 10
3992.52405451304
 20
1718.184455648865
 30
0.0
 10
3992.52405451304
 20
1718.184455648865
 30
0.0
 10
3992.52405451304
 20
1718.184455648865
 30
0.0
 10
3992.525983047439
 20
1718.184861404865
 30
0.0
 10
3992.525983047439
 20
1718.184861404865
 30
0.0
 10
3992.525983047439
 20
1718.184861404865
 30
0.0
 10
3992.525983047439
 20
1718.184861404865
 30
0.0
 10
3992.52791139824
 20
1718.185267344465
 30
0.0
 10
3992.52791139824
 20
1718.185267344465
 30
0.0
 10
3992.52791139824
 20
1718.185267344465
 30
0.0
 10
3992.52791139824
 20
1718.185267344465
 30
0.0
 10
3992.529839749039
 20
1718.185470406065
 30
0.0
 10
3992.529839749039
 20
1718.185470406065
 30
0.0
 10
3992.529839749039
 20
1718.185470406065
 30
0.0
 10
3992.529839749039
 20
1718.185470406065
 30
0.0
 10
3992.53176828344
 20
1718.185774998465
 30
0.0
 10
3992.53176828344
 20
1718.185774998465
 30
0.0
 10
3992.53176828344
 20
1718.185774998465
 30
0.0
 10
3992.53176828344
 20
1718.185774998465
 30
0.0
 10
3992.53369663424
 20
1718.185876345665
 30
0.0
 10
3992.53369663424
 20
1718.185876345665
 30
0.0
 10
3992.53369663424
 20
1718.185876345665
 30
0.0
 10
3992.53369663424
 20
1718.185876345665
 30
0.0
 10
3992.53562480144
 20
1718.186079407265
 30
0.0
 10
3992.53562480144
 20
1718.186079407265
 30
0.0
 10
3992.53562480144
 20
1718.186079407265
 30
0.0
 10
3992.53562480144
 20
1718.186079407265
 30
0.0
 10
3992.53755351944
 20
1718.186079407265
 30
0.0
 10
3992.53755351944
 20
1718.186079407265
 30
0.0
 10
3992.53755351944
 20
1718.186079407265
 30
0.0
 10
3992.53755351944
 20
1718.186079407265
 30
0.0
 10
3992.539583217439
 20
1718.186180754465
 30
0.0
 10
3992.539583217439
 20
1718.186180754465
 30
0.0
 10
3992.539583217439
 20
1718.186180754465
 30
0.0
 10
3992.539583217439
 20
1718.186180754465
 30
0.0
 10
3992.54151175184
 20
1718.186079407265
 30
0.0
 10
3992.54151175184
 20
1718.186079407265
 30
0.0
 10
3992.54151175184
 20
1718.186079407265
 30
0.0
 10
3992.54151175184
 20
1718.186079407265
 30
0.0
 10
3992.54344010264
 20
1718.186079407265
 30
0.0
 10
3992.54344010264
 20
1718.186079407265
 30
0.0
 10
3992.54344010264
 20
1718.186079407265
 30
0.0
 10
3992.54344010264
 20
1718.186079407265
 30
0.0
 10
3992.54546998424
 20
1718.185876345665
 30
0.0
 10
3992.54546998424
 20
1718.185876345665
 30
0.0
 10
3992.54546998424
 20
1718.185876345665
 30
0.0
 10
3992.54546998424
 20
1718.185876345665
 30
0.0
 10
3992.54739833504
 20
1718.185774998465
 30
0.0
 10
3992.54739833504
 20
1718.185774998465
 30
0.0
 10
3992.54739833504
 20
1718.185774998465
 30
0.0
 10
3992.54739833504
 20
1718.185774998465
 30
0.0
 10
3992.549326685839
 20
1718.185470406065
 30
0.0
 10
3992.549326685839
 20
1718.185470406065
 30
0.0
 10
3992.549326685839
 20
1718.185470406065
 30
0.0
 10
3992.549326685839
 20
1718.185470406065
 30
0.0
 10
3992.55125522024
 20
1718.185267344465
 30
0.0
 10
3992.55125522024
 20
1718.185267344465
 30
0.0
 10
3992.55125522024
 20
1718.185267344465
 30
0.0
 10
3992.55125522024
 20
1718.185267344465
 30
0.0
 10
3992.55318357104
 20
1718.184861404865
 30
0.0
 10
3992.55318357104
 20
1718.184861404865
 30
0.0
 10
3992.55318357104
 20
1718.184861404865
 30
0.0
 10
3992.55318357104
 20
1718.184861404865
 30
0.0
 10
3992.55511192184
 20
1718.184556996065
 30
0.0
 10
3992.55511192184
 20
1718.184556996065
 30
0.0
 10
3992.55511192184
 20
1718.184556996065
 30
0.0
 10
3992.55511192184
 20
1718.184556996065
 30
0.0
 10
3992.557040456239
 20
1718.184151056465
 30
0.0
 10
3992.557040456239
 20
1718.184151056465
 30
0.0
 10
3992.557040456239
 20
1718.184151056465
 30
0.0
 10
3992.557040456239
 20
1718.184151056465
 30
0.0
 10
3992.55886745984
 20
1718.183643586065
 30
0.0
 10
3992.55886745984
 20
1718.183643586065
 30
0.0
 10
3992.55886745984
 20
1718.183643586065
 30
0.0
 10
3992.55886745984
 20
1718.183643586065
 30
0.0
 10
3992.56079581064
 20
1718.183135932065
 30
0.0
 10
3992.56079581064
 20
1718.183135932065
 30
0.0
 10
3992.56079581064
 20
1718.183135932065
 30
0.0
 10
3992.56079581064
 20
1718.183135932065
 30
0.0
 10
3992.56262263064
 20
1718.182526930865
 30
0.0
 10
3992.56262263064
 20
1718.182526930865
 30
0.0
 10
3992.56262263064
 20
1718.182526930865
 30
0.0
 10
3992.56262263064
 20
1718.182526930865
 30
0.0
 10
3992.56455098144
 20
1718.181918113265
 30
0.0
 10
3992.56455098144
 20
1718.181918113265
 30
0.0
 10
3992.56455098144
 20
1718.181918113265
 30
0.0
 10
3992.56455098144
 20
1718.181918113265
 30
0.0
 10
3992.56637798504
 20
1718.181207581265
 30
0.0
 10
3992.56637798504
 20
1718.181207581265
 30
0.0
 10
3992.56637798504
 20
1718.181207581265
 30
0.0
 10
3992.56637798504
 20
1718.181207581265
 30
0.0
 10
3992.56820480504
 20
1718.180497232865
 30
0.0
 10
3992.56820480504
 20
1718.180497232865
 30
0.0
 10
3992.56820480504
 20
1718.180497232865
 30
0.0
 10
3992.56820480504
 20
1718.180497232865
 30
0.0
 10
3992.56993027784
 20
1718.179685170065
 30
0.0
 10
3992.56993027784
 20
1718.179685170065
 30
0.0
 10
3992.56993027784
 20
1718.179685170065
 30
0.0
 10
3992.56993027784
 20
1718.179685170065
 30
0.0
 10
3992.57175728144
 20
1718.178873107265
 30
0.0
 10
3992.57175728144
 20
1718.178873107265
 30
0.0
 10
3992.57175728144
 20
1718.178873107265
 30
0.0
 10
3992.57175728144
 20
1718.178873107265
 30
0.0
 10
3992.57348275424
 20
1718.178061411665
 30
0.0
 10
3992.57348275424
 20
1718.178061411665
 30
0.0
 10
3992.57348275424
 20
1718.178061411665
 30
0.0
 10
3992.57348275424
 20
1718.178061411665
 30
0.0
 10
3992.575208043439
 20
1718.177148001665
 30
0.0
 10
3992.575208043439
 20
1718.177148001665
 30
0.0
 10
3992.575208043439
 20
1718.177148001665
 30
0.0
 10
3992.575208043439
 20
1718.177148001665
 30
0.0
 10
3992.576933516239
 20
1718.176234408065
 30
0.0
 10
3992.576933516239
 20
1718.176234408065
 30
0.0
 10
3992.576933516239
 20
1718.176234408065
 30
0.0
 10
3992.576933516239
 20
1718.176234408065
 30
0.0
 10
3992.578658989039
 20
1718.175219283665
 30
0.0
 10
3992.578658989039
 20
1718.175219283665
 30
0.0
 10
3992.578658989039
 20
1718.175219283665
 30
0.0
 10
3992.578658989039
 20
1718.175219283665
 30
0.0
 10
3992.580282747439
 20
1718.174204526465
 30
0.0
 10
3992.580282747439
 20
1718.174204526465
 30
0.0
 10
3992.580282747439
 20
1718.174204526465
 30
0.0
 10
3992.580282747439
 20
1718.174204526465
 30
0.0
 10
3992.58190668944
 20
1718.173087871265
 30
0.0
 10
3992.58190668944
 20
1718.173087871265
 30
0.0
 10
3992.58190668944
 20
1718.173087871265
 30
0.0
 10
3992.58190668944
 20
1718.173087871265
 30
0.0
 10
3992.58353081504
 20
1718.171971583265
 30
0.0
 10
3992.58353081504
 20
1718.171971583265
 30
0.0
 10
3992.58353081504
 20
1718.171971583265
 30
0.0
 10
3992.58353081504
 20
1718.171971583265
 30
0.0
 10
3992.58505322624
 20
1718.170753764465
 30
0.0
 10
3992.58505322624
 20
1718.170753764465
 30
0.0
 10
3992.58505322624
 20
1718.170753764465
 30
0.0
 10
3992.58505322624
 20
1718.170753764465
 30
0.0
 10
3992.58667698464
 20
1718.169535762065
 30
0.0
 10
3992.58667698464
 20
1718.169535762065
 30
0.0
 10
3992.58667698464
 20
1718.169535762065
 30
0.0
 10
3992.58667698464
 20
1718.169535762065
 30
0.0
 10
3992.58809804864
 20
1718.168317759665
 30
0.0
 10
3992.58809804864
 20
1718.168317759665
 30
0.0
 10
3992.58809804864
 20
1718.168317759665
 30
0.0
 10
3992.58809804864
 20
1718.168317759665
 30
0.0
 10
3992.58962045984
 20
1718.167099940865
 30
0.0
 10
3992.58962045984
 20
1718.167099940865
 30
0.0
 10
3992.58962045984
 20
1718.167099940865
 30
0.0
 10
3992.58962045984
 20
1718.167099940865
 30
0.0
 10
3992.59104115664
 20
1718.165678876865
 30
0.0
 10
3992.59104115664
 20
1718.165678876865
 30
0.0
 10
3992.59104115664
 20
1718.165678876865
 30
0.0
 10
3992.59104115664
 20
1718.165678876865
 30
0.0
 10
3992.59246222064
 20
1718.164359527265
 30
0.0
 10
3992.59246222064
 20
1718.164359527265
 30
0.0
 10
3992.59246222064
 20
1718.164359527265
 30
0.0
 10
3992.59246222064
 20
1718.164359527265
 30
0.0
 10
3992.59378157024
 20
1718.162938463265
 30
0.0
 10
3992.59378157024
 20
1718.162938463265
 30
0.0
 10
3992.59378157024
 20
1718.162938463265
 30
0.0
 10
3992.59378157024
 20
1718.162938463265
 30
0.0
 10
3992.59520263424
 20
1718.161517582865
 30
0.0
 10
3992.59520263424
 20
1718.161517582865
 30
0.0
 10
3992.59520263424
 20
1718.161517582865
 30
0.0
 10
3992.59520263424
 20
1718.161517582865
 30
0.0
 10
3992.59642045304
 20
1718.160096702465
 30
0.0
 10
3992.59642045304
 20
1718.160096702465
 30
0.0
 10
3992.59642045304
 20
1718.160096702465
 30
0.0
 10
3992.59642045304
 20
1718.160096702465
 30
0.0
 10
3992.59773980264
 20
1718.158574291265
 30
0.0
 10
3992.59773980264
 20
1718.158574291265
 30
0.0
 10
3992.59773980264
 20
1718.158574291265
 30
0.0
 10
3992.59773980264
 20
1718.158574291265
 30
0.0
 10
3992.59895780504
 20
1718.157051880065
 30
0.0
 10
3992.59895780504
 20
1718.157051880065
 30
0.0
 10
3992.59895780504
 20
1718.157051880065
 30
0.0
 10
3992.59895780504
 20
1718.157051880065
 30
0.0
 10
3992.60007427664
 20
1718.155427754465
 30
0.0
 10
3992.60007427664
 20
1718.155427754465
 30
0.0
 10
3992.60007427664
 20
1718.155427754465
 30
0.0
 10
3992.60007427664
 20
1718.155427754465
 30
0.0
 10
3992.60119093184
 20
1718.153905343265
 30
0.0
 10
3992.60119093184
 20
1718.153905343265
 30
0.0
 10
3992.60119093184
 20
1718.153905343265
 30
0.0
 10
3992.60119093184
 20
1718.153905343265
 30
0.0
 10
3992.60230721984
 20
1718.152281584865
 30
0.0
 10
3992.60230721984
 20
1718.152281584865
 30
0.0
 10
3992.60230721984
 20
1718.152281584865
 30
0.0
 10
3992.60230721984
 20
1718.152281584865
 30
0.0
 10
3992.60342369144
 20
1718.150657642865
 30
0.0
 10
3992.60342369144
 20
1718.150657642865
 30
0.0
 10
3992.60342369144
 20
1718.150657642865
 30
0.0
 10
3992.60342369144
 20
1718.150657642865
 30
0.0
 10
3992.60443863224
 20
1718.148932170065
 30
0.0
 10
3992.60443863224
 20
1718.148932170065
 30
0.0
 10
3992.60443863224
 20
1718.148932170065
 30
0.0
 10
3992.60443863224
 20
1718.148932170065
 30
0.0
 10
3992.60535204224
 20
1718.147206697265
 30
0.0
 10
3992.60535204224
 20
1718.147206697265
 30
0.0
 10
3992.60535204224
 20
1718.147206697265
 30
0.0
 10
3992.60535204224
 20
1718.147206697265
 30
0.0
 10
3992.60626545224
 20
1718.145481408065
 30
0.0
 10
3992.60626545224
 20
1718.145481408065
 30
0.0
 10
3992.60626545224
 20
1718.145481408065
 30
0.0
 10
3992.60626545224
 20
1718.145481408065
 30
0.0
 10
3992.60717886224
 20
1718.143755935265
 30
0.0
 10
3992.60717886224
 20
1718.143755935265
 30
0.0
 10
3992.60717886224
 20
1718.143755935265
 30
0.0
 10
3992.60717886224
 20
1718.143755935265
 30
0.0
 10
3992.60799092504
 20
1718.142030462465
 30
0.0
 10
3992.60799092504
 20
1718.142030462465
 30
0.0
 10
3992.60799092504
 20
1718.142030462465
 30
0.0
 10
3992.60799092504
 20
1718.142030462465
 30
0.0
 10
3992.60880298784
 20
1718.140203458865
 30
0.0
 10
3992.60880298784
 20
1718.140203458865
 30
0.0
 10
3992.60880298784
 20
1718.140203458865
 30
0.0
 10
3992.60880298784
 20
1718.140203458865
 30
0.0
 10
3992.60951333624
 20
1718.138376638865
 30
0.0
 10
3992.60951333624
 20
1718.138376638865
 30
0.0
 10
3992.60951333624
 20
1718.138376638865
 30
0.0
 10
3992.60951333624
 20
1718.138376638865
 30
0.0
 10
3992.61022368464
 20
1718.136549635265
 30
0.0
 10
3992.61022368464
 20
1718.136549635265
 30
0.0
 10
3992.61022368464
 20
1718.136549635265
 30
0.0
 10
3992.61022368464
 20
1718.136549635265
 30
0.0
 10
3992.61083268584
 20
1718.134722815265
 30
0.0
 10
3992.61083268584
 20
1718.134722815265
 30
0.0
 10
3992.61083268584
 20
1718.134722815265
 30
0.0
 10
3992.61083268584
 20
1718.134722815265
 30
0.0
 10
3992.61144168704
 20
1718.132794464465
 30
0.0
 10
3992.61144168704
 20
1718.132794464465
 30
0.0
 10
3992.61144168704
 20
1718.132794464465
 30
0.0
 10
3992.61144168704
 20
1718.132794464465
 30
0.0
 10
3992.61194934104
 20
1718.130967644465
 30
0.0
 10
3992.61194934104
 20
1718.130967644465
 30
0.0
 10
3992.61194934104
 20
1718.130967644465
 30
0.0
 10
3992.61194934104
 20
1718.130967644465
 30
0.0
 10
3992.61245662784
 20
1718.129039293665
 30
0.0
 10
3992.61245662784
 20
1718.129039293665
 30
0.0
 10
3992.61245662784
 20
1718.129039293665
 30
0.0
 10
3992.61245662784
 20
1718.129039293665
 30
0.0
 10
3992.612862567439
 20
1718.127110759265
 30
0.0
 10
3992.612862567439
 20
1718.127110759265
 30
0.0
 10
3992.612862567439
 20
1718.127110759265
 30
0.0
 10
3992.612862567439
 20
1718.127110759265
 30
0.0
 10
3992.61326832344
 20
1718.125182408465
 30
0.0
 10
3992.61326832344
 20
1718.125182408465
 30
0.0
 10
3992.61326832344
 20
1718.125182408465
 30
0.0
 10
3992.61326832344
 20
1718.125182408465
 30
0.0
 10
3992.613572915839
 20
1718.123254057665
 30
0.0
 10
3992.613572915839
 20
1718.123254057665
 30
0.0
 10
3992.613572915839
 20
1718.123254057665
 30
0.0
 10
3992.613572915839
 20
1718.123254057665
 30
0.0
 10
3992.61387732464
 20
1718.121325523265
 30
0.0
 10
3992.61387732464
 20
1718.121325523265
 30
0.0
 10
3992.61387732464
 20
1718.121325523265
 30
0.0
 10
3992.61387732464
 20
1718.121325523265
 30
0.0
 10
3992.61418191704
 20
1718.119397172465
 30
0.0
 10
3992.61418191704
 20
1718.119397172465
 30
0.0
 10
3992.61418191704
 20
1718.119397172465
 30
0.0
 10
3992.61418191704
 20
1718.119397172465
 30
0.0
 10
3992.61428344784
 20
1718.117468821665
 30
0.0
 10
3992.61428344784
 20
1718.117468821665
 30
0.0
 10
3992.61428344784
 20
1718.117468821665
 30
0.0
 10
3992.61428344784
 20
1718.117468821665
 30
0.0
 10
3992.61448632584
 20
1718.115540287265
 30
0.0
 10
3992.61448632584
 20
1718.115540287265
 30
0.0
 10
3992.61448632584
 20
1718.115540287265
 30
0.0
 10
3992.61448632584
 20
1718.115540287265
 30
0.0
 10
3992.61458804024
 20
1718.113611936465
 30
0.0
 10
3992.61458804024
 20
1718.113611936465
 30
0.0
 10
3992.61458804024
 20
1718.113611936465
 30
0.0
 10
3992.61458804024
 20
1718.113611936465
 30
0.0
 10
3992.61458804024
 20
1718.106202758465
 30
0.0
 10
3992.61458804024
 20
1718.106202758465
 30
0.0
  0
SPLINE
  5
113C
330
1F
100
AcDbEntity
  8
SANINDUSA
100
AcDbSpline
210
0.0
220
0.0
230
1.0
 70
     8
 71
     3
 72
    92
 73
    88
 74
     0
 42
0.0000000001
 43
0.0000000001
 40
0.0
 40
0.0
 40
0.0
 40
0.0
 40
0.0454545454545455
 40
0.0454545454545455
 40
0.0454545454545455
 40
0.0454545454545455
 40
0.0909090909090909
 40
0.0909090909090909
 40
0.0909090909090909
 40
0.0909090909090909
 40
0.1363636363636363
 40
0.1363636363636363
 40
0.1363636363636363
 40
0.1363636363636363
 40
0.1818181818181818
 40
0.1818181818181818
 40
0.1818181818181818
 40
0.1818181818181818
 40
0.2272727272727273
 40
0.2272727272727273
 40
0.2272727272727273
 40
0.2272727272727273
 40
0.2727272727272727
 40
0.2727272727272727
 40
0.2727272727272727
 40
0.2727272727272727
 40
0.3181818181818182
 40
0.3181818181818182
 40
0.3181818181818182
 40
0.3181818181818182
 40
0.3636363636363637
 40
0.3636363636363637
 40
0.3636363636363637
 40
0.3636363636363637
 40
0.4090909090909092
 40
0.4090909090909092
 40
0.4090909090909092
 40
0.4090909090909092
 40
0.4545454545454547
 40
0.4545454545454547
 40
0.4545454545454547
 40
0.4545454545454547
 40
0.5000000000000001
 40
0.5000000000000001
 40
0.5000000000000001
 40
0.5000000000000001
 40
0.5454545454545455
 40
0.5454545454545455
 40
0.5454545454545455
 40
0.5454545454545455
 40
0.590909090909091
 40
0.590909090909091
 40
0.590909090909091
 40
0.590909090909091
 40
0.6363636363636364
 40
0.6363636363636364
 40
0.6363636363636364
 40
0.6363636363636364
 40
0.6818181818181818
 40
0.6818181818181818
 40
0.6818181818181818
 40
0.6818181818181818
 40
0.7272727272727272
 40
0.7272727272727272
 40
0.7272727272727272
 40
0.7272727272727272
 40
0.7727272727272726
 40
0.7727272727272726
 40
0.7727272727272726
 40
0.7727272727272726
 40
0.8181818181818179
 40
0.8181818181818179
 40
0.8181818181818179
 40
0.8181818181818179
 40
0.8636363636363634
 40
0.8636363636363634
 40
0.8636363636363634
 40
0.8636363636363634
 40
0.9090909090909088
 40
0.9090909090909088
 40
0.9090909090909088
 40
0.9090909090909088
 40
0.9545454545454543
 40
0.9545454545454543
 40
0.9545454545454543
 40
0.9545454545454543
 40
1.0
 40
1.0
 40
1.0
 40
1.0
 10
3992.45696633864
 20
1718.143349995665
 30
0.0
 10
3992.45696633864
 20
1718.143349995665
 30
0.0
 10
3992.45676327704
 20
1718.143349995665
 30
0.0
 10
3992.45676327704
 20
1718.143349995665
 30
0.0
 10
3992.45676327704
 20
1718.143349995665
 30
0.0
 10
3992.45676327704
 20
1718.143349995665
 30
0.0
 10
3992.45666174624
 20
1718.143451526465
 30
0.0
 10
3992.45666174624
 20
1718.143451526465
 30
0.0
 10
3992.45666174624
 20
1718.143451526465
 30
0.0
 10
3992.45666174624
 20
1718.143451526465
 30
0.0
 10
3992.456458684639
 20
1718.143552873665
 30
0.0
 10
3992.456458684639
 20
1718.143552873665
 30
0.0
 10
3992.456458684639
 20
1718.143552873665
 30
0.0
 10
3992.456458684639
 20
1718.143552873665
 30
0.0
 10
3992.45625580664
 20
1718.143654588065
 30
0.0
 10
3992.45625580664
 20
1718.143654588065
 30
0.0
 10
3992.45625580664
 20
1718.143654588065
 30
0.0
 10
3992.45625580664
 20
1718.143654588065
 30
0.0
 10
3992.45615427584
 20
1718.143857282465
 30
0.0
 10
3992.45615427584
 20
1718.143857282465
 30
0.0
 10
3992.45615427584
 20
1718.143857282465
 30
0.0
 10
3992.45615427584
 20
1718.143857282465
 30
0.0
 10
3992.45605274504
 20
1718.143958996865
 30
0.0
 10
3992.45605274504
 20
1718.143958996865
 30
0.0
 10
3992.45605274504
 20
1718.143958996865
 30
0.0
 10
3992.45605274504
 20
1718.143958996865
 30
0.0
 10
3992.45595139784
 20
1718.144161874865
 30
0.0
 10
3992.45595139784
 20
1718.144161874865
 30
0.0
 10
3992.45595139784
 20
1718.144161874865
 30
0.0
 10
3992.45595139784
 20
1718.144161874865
 30
0.0
 10
3992.45584968344
 20
1718.144263589265
 30
0.0
 10
3992.45584968344
 20
1718.144263589265
 30
0.0
 10
3992.45584968344
 20
1718.144263589265
 30
0.0
 10
3992.45584968344
 20
1718.144263589265
 30
0.0
 10
3992.45574833624
 20
1718.144466283665
 30
0.0
 10
3992.45574833624
 20
1718.144466283665
 30
0.0
 10
3992.45574833624
 20
1718.144466283665
 30
0.0
 10
3992.45574833624
 20
1718.144466283665
 30
0.0
 10
3992.45564698904
 20
1718.144669345265
 30
0.0
 10
3992.45564698904
 20
1718.144669345265
 30
0.0
 10
3992.45564698904
 20
1718.144669345265
 30
0.0
 10
3992.45564698904
 20
1718.144669345265
 30
0.0
 10
3992.45564698904
 20
1718.144872406865
 30
0.0
 10
3992.45564698904
 20
1718.144872406865
 30
0.0
 10
3992.45564698904
 20
1718.144872406865
 30
0.0
 10
3992.45564698904
 20
1718.144872406865
 30
0.0
 10
3992.45554527464
 20
1718.145075284865
 30
0.0
 10
3992.45554527464
 20
1718.145075284865
 30
0.0
 10
3992.45554527464
 20
1718.145075284865
 30
0.0
 10
3992.45554527464
 20
1718.145075284865
 30
0.0
 10
3992.45554527464
 20
1718.145481408065
 30
0.0
 10
3992.45554527464
 20
1718.145481408065
 30
0.0
 10
3992.45554527464
 20
1718.145481408065
 30
0.0
 10
3992.45554527464
 20
1718.145481408065
 30
0.0
 10
3992.45564698904
 20
1718.145582938865
 30
0.0
 10
3992.45564698904
 20
1718.145582938865
 30
0.0
 10
3992.45564698904
 20
1718.145582938865
 30
0.0
 10
3992.45564698904
 20
1718.145582938865
 30
0.0
 10
3992.45564698904
 20
1718.145786000465
 30
0.0
 10
3992.45564698904
 20
1718.145786000465
 30
0.0
 10
3992.45564698904
 20
1718.145786000465
 30
0.0
 10
3992.45564698904
 20
1718.145786000465
 30
0.0
 10
3992.45574833624
 20
1718.145988694865
 30
0.0
 10
3992.45574833624
 20
1718.145988694865
 30
0.0
 10
3992.45574833624
 20
1718.145988694865
 30
0.0
 10
3992.45574833624
 20
1718.145988694865
 30
0.0
 10
3992.45584968344
 20
1718.146191756465
 30
0.0
 10
3992.45584968344
 20
1718.146191756465
 30
0.0
 10
3992.45584968344
 20
1718.146191756465
 30
0.0
 10
3992.45584968344
 20
1718.146191756465
 30
0.0
 10
3992.45595139784
 20
1718.146394818065
 30
0.0
 10
3992.45595139784
 20
1718.146394818065
 30
0.0
 10
3992.45595139784
 20
1718.146394818065
 30
0.0
 10
3992.45595139784
 20
1718.146394818065
 30
0.0
 10
3992.45605274504
 20
1718.146496348865
 30
0.0
 10
3992.45605274504
 20
1718.146496348865
 30
0.0
 10
3992.45605274504
 20
1718.146496348865
 30
0.0
 10
3992.45605274504
 20
1718.146496348865
 30
0.0
 10
3992.45615427584
 20
1718.146699410465
 30
0.0
 10
3992.45615427584
 20
1718.146699410465
 30
0.0
 10
3992.45615427584
 20
1718.146699410465
 30
0.0
 10
3992.45615427584
 20
1718.146699410465
 30
0.0
 10
3992.45625580664
 20
1718.146800757665
 30
0.0
 10
3992.45625580664
 20
1718.146800757665
 30
0.0
 10
3992.45625580664
 20
1718.146800757665
 30
0.0
 10
3992.45625580664
 20
1718.146800757665
 30
0.0
 10
3992.456458684639
 20
1718.146902288465
 30
0.0
 10
3992.456458684639
 20
1718.146902288465
 30
0.0
  0
SPLINE
  5
113F
330
1F
100
AcDbEntity
  8
SANINDUSA
100
AcDbSpline
210
0.0
220
0.0
230
1.0
 70
    24
 71
     3
 72
     8
 73
     4
 74
     0
 42
0.0000000001
 43
0.0000000001
 40
0.0
 40
0.0
 40
0.0
 40
0.0
 40
1.0
 40
1.0
 40
1.0
 40
1.0
 10
3992.36497357757
 20
1718.14865365261
 30
0.0
 10
3992.36497357757
 20
1718.14865365261
 30
0.0
 10
3992.36497357757
 20
1718.144898298209
 30
0.0
 10
3992.36497357757
 20
1718.144898298209
 30
0.0
  0
SPLINE
  5
1140
330
1F
100
AcDbEntity
  8
SANINDUSA
100
AcDbSpline
210
0.0
220
0.0
230
1.0
 70
    24
 71
     3
 72
     8
 73
     4
 74
     0
 42
0.0000000001
 43
0.0000000001
 40
0.0
 40
0.0
 40
0.0
 40
0.0
 40
1.0
 40
1.0
 40
1.0
 40
1.0
 10
3992.36497357757
 20
1718.15484482821
 30
0.0
 10
3992.36497357757
 20
1718.15484482821
 30
0.0
 10
3992.36497357757
 20
1718.14865365261
 30
0.0
 10
3992.36497357757
 20
1718.14865365261
 30
0.0
  0
SPLINE
  5
1141
330
1F
100
AcDbEntity
  8
SANINDUSA
100
AcDbSpline
210
0.0
220
0.0
230
1.0
 70
     8
 71
     3
 72
    48
 73
    44
 74
     0
 42
0.0000000001
 43
0.0000000001
 40
0.0
 40
0.0
 40
0.0
 40
0.0
 40
0.0909090909090909
 40
0.0909090909090909
 40
0.0909090909090909
 40
0.0909090909090909
 40
0.1818181818181818
 40
0.1818181818181818
 40
0.1818181818181818
 40
0.1818181818181818
 40
0.2727272727272727
 40
0.2727272727272727
 40
0.2727272727272727
 40
0.2727272727272727
 40
0.3636363636363637
 40
0.3636363636363637
 40
0.3636363636363637
 40
0.3636363636363637
 40
0.4545454545454546
 40
0.4545454545454546
 40
0.4545454545454546
 40
0.4545454545454546
 40
0.5454545454545455
 40
0.5454545454545455
 40
0.5454545454545455
 40
0.5454545454545455
 40
0.6363636363636365
 40
0.6363636363636365
 40
0.6363636363636365
 40
0.6363636363636365
 40
0.7272727272727275
 40
0.7272727272727275
 40
0.7272727272727275
 40
0.7272727272727275
 40
0.8181818181818183
 40
0.8181818181818183
 40
0.8181818181818183
 40
0.8181818181818183
 40
0.9090909090909093
 40
0.9090909090909093
 40
0.9090909090909093
 40
0.9090909090909093
 40
1.0
 40
1.0
 40
1.0
 40
1.0
 10
3992.37420957557
 20
1718.13972206341
 30
0.0
 10
3992.37420957557
 20
1718.13972206341
 30
0.0
 10
3992.37410822837
 20
1718.13962053261
 30
0.0
 10
3992.37410822837
 20
1718.13962053261
 30
0.0
 10
3992.37410822837
 20
1718.13962053261
 30
0.0
 10
3992.37410822837
 20
1718.13962053261
 30
0.0
 10
3992.37410822837
 20
1718.13941747101
 30
0.0
 10
3992.37410822837
 20
1718.13941747101
 30
0.0
 10
3992.37410822837
 20
1718.13941747101
 30
0.0
 10
3992.37410822837
 20
1718.13941747101
 30
0.0
 10
3992.37400651397
 20
1718.13931612381
 30
0.0
 10
3992.37400651397
 20
1718.13931612381
 30
0.0
 10
3992.37400651397
 20
1718.13931612381
 30
0.0
 10
3992.37400651397
 20
1718.13931612381
 30
0.0
 10
3992.37390516677
 20
1718.13921477661
 30
0.0
 10
3992.37390516677
 20
1718.13921477661
 30
0.0
 10
3992.37390516677
 20
1718.13921477661
 30
0.0
 10
3992.37390516677
 20
1718.13921477661
 30
0.0
 10
3992.37390516677
 20
1718.13911306221
 30
0.0
 10
3992.37390516677
 20
1718.13911306221
 30
0.0
 10
3992.37390516677
 20
1718.13911306221
 30
0.0
 10
3992.37390516677
 20
1718.13911306221
 30
0.0
 10
3992.373803635969
 20
1718.13901153141
 30
0.0
 10
3992.373803635969
 20
1718.13901153141
 30
0.0
 10
3992.373803635969
 20
1718.13901153141
 30
0.0
 10
3992.373803635969
 20
1718.13901153141
 30
0.0
 10
3992.37370210517
 20
1718.13901153141
 30
0.0
 10
3992.37370210517
 20
1718.13901153141
 30
0.0
 10
3992.37370210517
 20
1718.13901153141
 30
0.0
 10
3992.37370210517
 20
1718.13901153141
 30
0.0
 10
3992.37370210517
 20
1718.13891018421
 30
0.0
 10
3992.37370210517
 20
1718.13891018421
 30
0.0
 10
3992.37370210517
 20
1718.13891018421
 30
0.0
 10
3992.37370210517
 20
1718.13891018421
 30
0.0
 10
3992.37349922717
 20
1718.13891018421
 30
0.0
 10
3992.37349922717
 20
1718.13891018421
 30
0.0
 10
3992.37349922717
 20
1718.13891018421
 30
0.0
 10
3992.37349922717
 20
1718.13891018421
 30
0.0
 10
3992.37339751277
 20
1718.13880846981
 30
0.0
 10
3992.37339751277
 20
1718.13880846981
 30
0.0
 10
3992.37339751277
 20
1718.13880846981
 30
0.0
 10
3992.37339751277
 20
1718.13880846981
 30
0.0
 10
3992.37319463477
 20
1718.13880846981
 30
0.0
 10
3992.37319463477
 20
1718.13880846981
 30
0.0
  0
SPLINE
  5
1142
330
1F
100
AcDbEntity
  8
SANINDUSA
100
AcDbSpline
210
0.0
220
0.0
230
1.0
 70
    24
 71
     3
 72
     8
 73
     4
 74
     0
 42
0.0000000001
 43
0.0000000001
 40
0.0
 40
0.0
 40
0.0
 40
0.0
 40
1.0
 40
1.0
 40
1.0
 40
1.0
 10
3992.36497357757
 20
1718.144898298209
 30
0.0
 10
3992.36497357757
 20
1718.144898298209
 30
0.0
 10
3992.36497357757
 20
1718.13880846981
 30
0.0
 10
3992.36497357757
 20
1718.13880846981
 30
0.0
  0
SPLINE
  5
1143
330
1F
100
AcDbEntity
  8
SANINDUSA
100
AcDbSpline
210
0.0
220
0.0
230
1.0
 70
     8
 71
     3
 72
    52
 73
    48
 74
     0
 42
0.0000000001
 43
0.0000000001
 40
0.0
 40
0.0
 40
0.0
 40
0.0
 40
0.0833333333333333
 40
0.0833333333333333
 40
0.0833333333333333
 40
0.0833333333333333
 40
0.1666666666666666
 40
0.1666666666666666
 40
0.1666666666666666
 40
0.1666666666666666
 40
0.25
 40
0.25
 40
0.25
 40
0.25
 40
0.3333333333333333
 40
0.3333333333333333
 40
0.3333333333333333
 40
0.3333333333333333
 40
0.4166666666666666
 40
0.4166666666666666
 40
0.4166666666666666
 40
0.4166666666666666
 40
0.5
 40
0.5
 40
0.5
 40
0.5
 40
0.5833333333333333
 40
0.5833333333333333
 40
0.5833333333333333
 40
0.5833333333333333
 40
0.6666666666666666
 40
0.6666666666666666
 40
0.6666666666666666
 40
0.6666666666666666
 40
0.75
 40
0.75
 40
0.75
 40
0.75
 40
0.8333333333333333
 40
0.8333333333333333
 40
0.8333333333333333
 40
0.8333333333333333
 40
0.9166666666666667
 40
0.9166666666666667
 40
0.9166666666666667
 40
0.9166666666666667
 40
1.0
 40
1.0
 40
1.0
 40
1.0
 10
3992.37420957557
 20
1718.15393141821
 30
0.0
 10
3992.37420957557
 20
1718.15393141821
 30
0.0
 10
3992.37410822837
 20
1718.15403276541
 30
0.0
 10
3992.37410822837
 20
1718.15403276541
 30
0.0
 10
3992.37410822837
 20
1718.15403276541
 30
0.0
 10
3992.37410822837
 20
1718.15403276541
 30
0.0
 10
3992.37410822837
 20
1718.15413447981
 30
0.0
 10
3992.37410822837
 20
1718.15413447981
 30
0.0
 10
3992.37410822837
 20
1718.15413447981
 30
0.0
 10
3992.37410822837
 20
1718.15413447981
 30
0.0
 10
3992.37400651397
 20
1718.15423582701
 30
0.0
 10
3992.37400651397
 20
1718.15423582701
 30
0.0
 10
3992.37400651397
 20
1718.15423582701
 30
0.0
 10
3992.37400651397
 20
1718.15423582701
 30
0.0
 10
3992.37400651397
 20
1718.15433735781
 30
0.0
 10
3992.37400651397
 20
1718.15433735781
 30
0.0
 10
3992.37400651397
 20
1718.15433735781
 30
0.0
 10
3992.37400651397
 20
1718.15433735781
 30
0.0
 10
3992.37390516677
 20
1718.15443888861
 30
0.0
 10
3992.37390516677
 20
1718.15443888861
 30
0.0
 10
3992.37390516677
 20
1718.15443888861
 30
0.0
 10
3992.37390516677
 20
1718.15443888861
 30
0.0
 10
3992.37390516677
 20
1718.15454041941
 30
0.0
 10
3992.37390516677
 20
1718.15454041941
 30
0.0
 10
3992.37390516677
 20
1718.15454041941
 30
0.0
 10
3992.37390516677
 20
1718.15454041941
 30
0.0
 10
3992.373803635969
 20
1718.15454041941
 30
0.0
 10
3992.373803635969
 20
1718.15454041941
 30
0.0
 10
3992.373803635969
 20
1718.15454041941
 30
0.0
 10
3992.373803635969
 20
1718.15454041941
 30
0.0
 10
3992.37370210517
 20
1718.154641766609
 30
0.0
 10
3992.37370210517
 20
1718.154641766609
 30
0.0
 10
3992.37370210517
 20
1718.154641766609
 30
0.0
 10
3992.37370210517
 20
1718.154641766609
 30
0.0
 10
3992.37360057437
 20
1718.15474348101
 30
0.0
 10
3992.37360057437
 20
1718.15474348101
 30
0.0
 10
3992.37360057437
 20
1718.15474348101
 30
0.0
 10
3992.37360057437
 20
1718.15474348101
 30
0.0
 10
3992.37339751277
 20
1718.15474348101
 30
0.0
 10
3992.37339751277
 20
1718.15474348101
 30
0.0
 10
3992.37339751277
 20
1718.15474348101
 30
0.0
 10
3992.37339751277
 20
1718.15474348101
 30
0.0
 10
3992.37329616557
 20
1718.15484482821
 30
0.0
 10
3992.37329616557
 20
1718.15484482821
 30
0.0
 10
3992.37329616557
 20
1718.15484482821
 30
0.0
 10
3992.37329616557
 20
1718.15484482821
 30
0.0
 10
3992.37319463477
 20
1718.15484482821
 30
0.0
 10
3992.37319463477
 20
1718.15484482821
 30
0.0
  0
SPLINE
  5
1144
330
1F
100
AcDbEntity
  8
SANINDUSA
100
AcDbSpline
210
0.0
220
0.0
230
1.0
 70
     8
 71
     3
 72
    20
 73
    16
 74
     0
 42
0.0000000001
 43
0.0000000001
 40
0.0
 40
0.0
 40
0.0
 40
0.0
 40
0.25
 40
0.25
 40
0.25
 40
0.25
 40
0.5
 40
0.5
 40
0.5
 40
0.5
 40
0.75
 40
0.75
 40
0.75
 40
0.75
 40
1.0
 40
1.0
 40
1.0
 40
1.0
 10
3992.37420957557
 20
1718.13972206341
 30
0.0
 10
3992.37420957557
 20
1718.13972206341
 30
0.0
 10
3992.37420957557
 20
1718.14093988221
 30
0.0
 10
3992.37420957557
 20
1718.14093988221
 30
0.0
 10
3992.37420957557
 20
1718.14093988221
 30
0.0
 10
3992.37420957557
 20
1718.14093988221
 30
0.0
 10
3992.37441263717
 20
1718.14378201021
 30
0.0
 10
3992.37441263717
 20
1718.14378201021
 30
0.0
 10
3992.37441263717
 20
1718.14378201021
 30
0.0
 10
3992.37441263717
 20
1718.14378201021
 30
0.0
 10
3992.37441263717
 20
1718.14946553181
 30
0.0
 10
3992.37441263717
 20
1718.14946553181
 30
0.0
 10
3992.37441263717
 20
1718.14946553181
 30
0.0
 10
3992.37441263717
 20
1718.14946553181
 30
0.0
 10
3992.37420957557
 20
1718.15393141821
 30
0.0
 10
3992.37420957557
 20
1718.15393141821
 30
0.0
  0
SPLINE
  5
1146
330
1F
100
AcDbEntity
  8
SANINDUSA
100
AcDbSpline
210
0.0
220
0.0
230
1.0
 70
     8
 71
     3
 72
    20
 73
    16
 74
     0
 42
0.0000000001
 43
0.0000000001
 40
0.0
 40
0.0
 40
0.0
 40
0.0
 40
0.25
 40
0.25
 40
0.25
 40
0.25
 40
0.5
 40
0.5
 40
0.5
 40
0.5
 40
0.75
 40
0.75
 40
0.75
 40
0.75
 40
1.0
 40
1.0
 40
1.0
 40
1.0
 10
3992.36791686917
 20
1718.14591342261
 30
0.0
 10
3992.36791686917
 20
1718.14591342261
 30
0.0
 10
3992.36771399117
 20
1718.14601476981
 30
0.0
 10
3992.36771399117
 20
1718.14601476981
 30
0.0
 10
3992.36771399117
 20
1718.14601476981
 30
0.0
 10
3992.36771399117
 20
1718.14601476981
 30
0.0
 10
3992.367612276769
 20
1718.14642070941
 30
0.0
 10
3992.367612276769
 20
1718.14642070941
 30
0.0
 10
3992.367612276769
 20
1718.14642070941
 30
0.0
 10
3992.367612276769
 20
1718.14642070941
 30
0.0
 10
3992.367612276769
 20
1718.14713124141
 30
0.0
 10
3992.367612276769
 20
1718.14713124141
 30
0.0
 10
3992.367612276769
 20
1718.14713124141
 30
0.0
 10
3992.367612276769
 20
1718.14713124141
 30
0.0
 10
3992.36791686917
 20
1718.14774024261
 30
0.0
 10
3992.36791686917
 20
1718.14774024261
 30
0.0
  0
SPLINE
  5
1147
330
1F
100
AcDbEntity
  8
SANINDUSA
100
AcDbSpline
210
0.0
220
0.0
230
1.0
 70
     8
 71
     3
 72
    28
 73
    24
 74
     0
 42
0.0000000001
 43
0.0000000001
 40
0.0
 40
0.0
 40
0.0
 40
0.0
 40
0.1666666666666666
 40
0.1666666666666666
 40
0.1666666666666666
 40
0.1666666666666666
 40
0.3333333333333333
 40
0.3333333333333333
 40
0.3333333333333333
 40
0.3333333333333333
 40
0.5
 40
0.5
 40
0.5
 40
0.5
 40
0.6666666666666666
 40
0.6666666666666666
 40
0.6666666666666666
 40
0.6666666666666666
 40
0.8333333333333332
 40
0.8333333333333332
 40
0.8333333333333332
 40
0.8333333333333332
 40
1.0
 40
1.0
 40
1.0
 40
1.0
 10
3992.36791686917
 20
1718.14774024261
 30
0.0
 10
3992.36791686917
 20
1718.14774024261
 30
0.0
 10
3992.36933774957
 20
1718.14905959221
 30
0.0
 10
3992.36933774957
 20
1718.14905959221
 30
0.0
 10
3992.36933774957
 20
1718.14905959221
 30
0.0
 10
3992.36933774957
 20
1718.14905959221
 30
0.0
 10
3992.37126610037
 20
1718.15078506501
 30
0.0
 10
3992.37126610037
 20
1718.15078506501
 30
0.0
 10
3992.37126610037
 20
1718.15078506501
 30
0.0
 10
3992.37126610037
 20
1718.15078506501
 30
0.0
 10
3992.37248410277
 20
1718.15190135301
 30
0.0
 10
3992.37248410277
 20
1718.15190135301
 30
0.0
 10
3992.37248410277
 20
1718.15190135301
 30
0.0
 10
3992.37248410277
 20
1718.15190135301
 30
0.0
 10
3992.37339751277
 20
1718.15281494661
 30
0.0
 10
3992.37339751277
 20
1718.15281494661
 30
0.0
 10
3992.37339751277
 20
1718.15281494661
 30
0.0
 10
3992.37339751277
 20
1718.15281494661
 30
0.0
 10
3992.37400651397
 20
1718.15352547861
 30
0.0
 10
3992.37400651397
 20
1718.15352547861
 30
0.0
 10
3992.37400651397
 20
1718.15352547861
 30
0.0
 10
3992.37400651397
 20
1718.15352547861
 30
0.0
 10
3992.37420957557
 20
1718.15393141821
 30
0.0
 10
3992.37420957557
 20
1718.15393141821
 30
0.0
  0
SPLINE
  5
1149
330
1F
100
AcDbEntity
  8
SANINDUSA
100
AcDbSpline
210
0.0
220
0.0
230
1.0
 70
     8
 71
     3
 72
    52
 73
    48
 74
     0
 42
0.0000000001
 43
0.0000000001
 40
0.0
 40
0.0
 40
0.0
 40
0.0
 40
0.0833333333333333
 40
0.0833333333333333
 40
0.0833333333333333
 40
0.0833333333333333
 40
0.1666666666666666
 40
0.1666666666666666
 40
0.1666666666666666
 40
0.1666666666666666
 40
0.25
 40
0.25
 40
0.25
 40
0.25
 40
0.3333333333333333
 40
0.3333333333333333
 40
0.3333333333333333
 40
0.3333333333333333
 40
0.4166666666666666
 40
0.4166666666666666
 40
0.4166666666666666
 40
0.4166666666666666
 40
0.5
 40
0.5
 40
0.5
 40
0.5
 40
0.5833333333333333
 40
0.5833333333333333
 40
0.5833333333333333
 40
0.5833333333333333
 40
0.6666666666666666
 40
0.6666666666666666
 40
0.6666666666666666
 40
0.6666666666666666
 40
0.75
 40
0.75
 40
0.75
 40
0.75
 40
0.8333333333333333
 40
0.8333333333333333
 40
0.8333333333333333
 40
0.8333333333333333
 40
0.9166666666666667
 40
0.9166666666666667
 40
0.9166666666666667
 40
0.9166666666666667
 40
1.0
 40
1.0
 40
1.0
 40
1.0
 10
3992.37420957557
 20
1718.13972206341
 30
0.0
 10
3992.37420957557
 20
1718.13972206341
 30
0.0
 10
3992.37410822837
 20
1718.13962053261
 30
0.0
 10
3992.37410822837
 20
1718.13962053261
 30
0.0
 10
3992.37410822837
 20
1718.13962053261
 30
0.0
 10
3992.37410822837
 20
1718.13962053261
 30
0.0
 10
3992.37410822837
 20
1718.13941747101
 30
0.0
 10
3992.37410822837
 20
1718.13941747101
 30
0.0
 10
3992.37410822837
 20
1718.13941747101
 30
0.0
 10
3992.37410822837
 20
1718.13941747101
 30
0.0
 10
3992.37400651397
 20
1718.13941747101
 30
0.0
 10
3992.37400651397
 20
1718.13941747101
 30
0.0
 10
3992.37400651397
 20
1718.13941747101
 30
0.0
 10
3992.37400651397
 20
1718.13941747101
 30
0.0
 10
3992.37400651397
 20
1718.13931612381
 30
0.0
 10
3992.37400651397
 20
1718.13931612381
 30
0.0
 10
3992.37400651397
 20
1718.13931612381
 30
0.0
 10
3992.37400651397
 20
1718.13931612381
 30
0.0
 10
3992.37390516677
 20
1718.13921477661
 30
0.0
 10
3992.37390516677
 20
1718.13921477661
 30
0.0
 10
3992.37390516677
 20
1718.13921477661
 30
0.0
 10
3992.37390516677
 20
1718.13921477661
 30
0.0
 10
3992.37390516677
 20
1718.13911306221
 30
0.0
 10
3992.37390516677
 20
1718.13911306221
 30
0.0
 10
3992.37390516677
 20
1718.13911306221
 30
0.0
 10
3992.37390516677
 20
1718.13911306221
 30
0.0
 10
3992.373803635969
 20
1718.13901153141
 30
0.0
 10
3992.373803635969
 20
1718.13901153141
 30
0.0
 10
3992.373803635969
 20
1718.13901153141
 30
0.0
 10
3992.373803635969
 20
1718.13901153141
 30
0.0
 10
3992.37370210517
 20
1718.13901153141
 30
0.0
 10
3992.37370210517
 20
1718.13901153141
 30
0.0
 10
3992.37370210517
 20
1718.13901153141
 30
0.0
 10
3992.37370210517
 20
1718.13901153141
 30
0.0
 10
3992.37370210517
 20
1718.13891018421
 30
0.0
 10
3992.37370210517
 20
1718.13891018421
 30
0.0
 10
3992.37370210517
 20
1718.13891018421
 30
0.0
 10
3992.37370210517
 20
1718.13891018421
 30
0.0
 10
3992.37349922717
 20
1718.13891018421
 30
0.0
 10
3992.37349922717
 20
1718.13891018421
 30
0.0
 10
3992.37349922717
 20
1718.13891018421
 30
0.0
 10
3992.37349922717
 20
1718.13891018421
 30
0.0
 10
3992.37339751277
 20
1718.13880846981
 30
0.0
 10
3992.37339751277
 20
1718.13880846981
 30
0.0
 10
3992.37339751277
 20
1718.13880846981
 30
0.0
 10
3992.37339751277
 20
1718.13880846981
 30
0.0
 10
3992.37319463477
 20
1718.13880846981
 30
0.0
 10
3992.37319463477
 20
1718.13880846981
 30
0.0
  0
SPLINE
  5
114A
330
1F
100
AcDbEntity
  8
SANINDUSA
100
AcDbSpline
210
0.0
220
0.0
230
1.0
 70
    24
 71
     3
 72
     8
 73
     4
 74
     0
 42
0.0000000001
 43
0.0000000001
 40
0.0
 40
0.0
 40
0.0
 40
0.0
 40
1.0
 40
1.0
 40
1.0
 40
1.0
 10
3992.36497357757
 20
1718.13880846981
 30
0.0
 10
3992.36497357757
 20
1718.13880846981
 30
0.0
 10
3992.37319463477
 20
1718.13880846981
 30
0.0
 10
3992.37319463477
 20
1718.13880846981
 30
0.0
  0
SPLINE
  5
114B
330
1F
100
AcDbEntity
  8
SANINDUSA
100
AcDbSpline
210
0.0
220
0.0
230
1.0
 70
    24
 71
     3
 72
     8
 73
     4
 74
     0
 42
0.0000000001
 43
0.0000000001
 40
0.0
 40
0.0
 40
0.0
 40
0.0
 40
1.0
 40
1.0
 40
1.0
 40
1.0
 10
3992.36497357757
 20
1718.15484482821
 30
0.0
 10
3992.36497357757
 20
1718.15484482821
 30
0.0
 10
3992.37319463477
 20
1718.15484482821
 30
0.0
 10
3992.37319463477
 20
1718.15484482821
 30
0.0
  0
SPLINE
  5
1151
330
1F
100
AcDbEntity
  8
SANINDUSA
100
AcDbSpline
210
0.0
220
0.0
230
1.0
 70
     8
 71
     3
 72
    56
 73
    52
 74
     0
 42
0.0000000001
 43
0.0000000001
 40
0.0
 40
0.0
 40
0.0
 40
0.0
 40
0.0769230769230769
 40
0.0769230769230769
 40
0.0769230769230769
 40
0.0769230769230769
 40
0.1538461538461539
 40
0.1538461538461539
 40
0.1538461538461539
 40
0.1538461538461539
 40
0.2307692307692308
 40
0.2307692307692308
 40
0.2307692307692308
 40
0.2307692307692308
 40
0.3076923076923077
 40
0.3076923076923077
 40
0.3076923076923077
 40
0.3076923076923077
 40
0.3846153846153846
 40
0.3846153846153846
 40
0.3846153846153846
 40
0.3846153846153846
 40
0.4615384615384616
 40
0.4615384615384616
 40
0.4615384615384616
 40
0.4615384615384616
 40
0.5384615384615385
 40
0.5384615384615385
 40
0.5384615384615385
 40
0.5384615384615385
 40
0.6153846153846155
 40
0.6153846153846155
 40
0.6153846153846155
 40
0.6153846153846155
 40
0.6923076923076924
 40
0.6923076923076924
 40
0.6923076923076924
 40
0.6923076923076924
 40
0.7692307692307692
 40
0.7692307692307692
 40
0.7692307692307692
 40
0.7692307692307692
 40
0.8461538461538459
 40
0.8461538461538459
 40
0.8461538461538459
 40
0.8461538461538459
 40
0.9230769230769229
 40
0.9230769230769229
 40
0.9230769230769229
 40
0.9230769230769229
 40
1.0
 40
1.0
 40
1.0
 40
1.0
 10
3992.37319463477
 20
1718.15484482821
 30
0.0
 10
3992.37319463477
 20
1718.15484482821
 30
0.0
 10
3992.37329616557
 20
1718.15484482821
 30
0.0
 10
3992.37329616557
 20
1718.15484482821
 30
0.0
 10
3992.37329616557
 20
1718.15484482821
 30
0.0
 10
3992.37329616557
 20
1718.15484482821
 30
0.0
 10
3992.37339751277
 20
1718.15474348101
 30
0.0
 10
3992.37339751277
 20
1718.15474348101
 30
0.0
 10
3992.37339751277
 20
1718.15474348101
 30
0.0
 10
3992.37339751277
 20
1718.15474348101
 30
0.0
 10
3992.37349922717
 20
1718.15474348101
 30
0.0
 10
3992.37349922717
 20
1718.15474348101
 30
0.0
 10
3992.37349922717
 20
1718.15474348101
 30
0.0
 10
3992.37349922717
 20
1718.15474348101
 30
0.0
 10
3992.37360057437
 20
1718.154641766609
 30
0.0
 10
3992.37360057437
 20
1718.154641766609
 30
0.0
 10
3992.37360057437
 20
1718.154641766609
 30
0.0
 10
3992.37360057437
 20
1718.154641766609
 30
0.0
 10
3992.37370210517
 20
1718.154641766609
 30
0.0
 10
3992.37370210517
 20
1718.154641766609
 30
0.0
 10
3992.37370210517
 20
1718.154641766609
 30
0.0
 10
3992.37370210517
 20
1718.154641766609
 30
0.0
 10
3992.373803635969
 20
1718.15454041941
 30
0.0
 10
3992.373803635969
 20
1718.15454041941
 30
0.0
 10
3992.373803635969
 20
1718.15454041941
 30
0.0
 10
3992.373803635969
 20
1718.15454041941
 30
0.0
 10
3992.37390516677
 20
1718.15454041941
 30
0.0
 10
3992.37390516677
 20
1718.15454041941
 30
0.0
 10
3992.37390516677
 20
1718.15454041941
 30
0.0
 10
3992.37390516677
 20
1718.15454041941
 30
0.0
 10
3992.37390516677
 20
1718.15443888861
 30
0.0
 10
3992.37390516677
 20
1718.15443888861
 30
0.0
 10
3992.37390516677
 20
1718.15443888861
 30
0.0
 10
3992.37390516677
 20
1718.15443888861
 30
0.0
 10
3992.37400651397
 20
1718.15433735781
 30
0.0
 10
3992.37400651397
 20
1718.15433735781
 30
0.0
 10
3992.37400651397
 20
1718.15433735781
 30
0.0
 10
3992.37400651397
 20
1718.15433735781
 30
0.0
 10
3992.37400651397
 20
1718.15423582701
 30
0.0
 10
3992.37400651397
 20
1718.15423582701
 30
0.0
 10
3992.37400651397
 20
1718.15423582701
 30
0.0
 10
3992.37400651397
 20
1718.15423582701
 30
0.0
 10
3992.37410822837
 20
1718.15423582701
 30
0.0
 10
3992.37410822837
 20
1718.15423582701
 30
0.0
 10
3992.37410822837
 20
1718.15423582701
 30
0.0
 10
3992.37410822837
 20
1718.15423582701
 30
0.0
 10
3992.37410822837
 20
1718.15403276541
 30
0.0
 10
3992.37410822837
 20
1718.15403276541
 30
0.0
 10
3992.37410822837
 20
1718.15403276541
 30
0.0
 10
3992.37410822837
 20
1718.15403276541
 30
0.0
 10
3992.37420957557
 20
1718.15393141821
 30
0.0
 10
3992.37420957557
 20
1718.15393141821
 30
0.0
  0
SPLINE
  5
1152
330
1F
100
AcDbEntity
  8
SANINDUSA
100
AcDbSpline
210
0.0
220
0.0
230
1.0
 70
     8
 71
     3
 72
    28
 73
    24
 74
     0
 42
0.0000000001
 43
0.0000000001
 40
0.0
 40
0.0
 40
0.0
 40
0.0
 40
0.1666666666666666
 40
0.1666666666666666
 40
0.1666666666666666
 40
0.1666666666666666
 40
0.3333333333333333
 40
0.3333333333333333
 40
0.3333333333333333
 40
0.3333333333333333
 40
0.5
 40
0.5
 40
0.5
 40
0.5
 40
0.6666666666666666
 40
0.6666666666666666
 40
0.6666666666666666
 40
0.6666666666666666
 40
0.8333333333333332
 40
0.8333333333333332
 40
0.8333333333333332
 40
0.8333333333333332
 40
1.0
 40
1.0
 40
1.0
 40
1.0
 10
3992.37420957557
 20
1718.13972206341
 30
0.0
 10
3992.37420957557
 20
1718.13972206341
 30
0.0
 10
3992.37410822837
 20
1718.13992512501
 30
0.0
 10
3992.37410822837
 20
1718.13992512501
 30
0.0
 10
3992.37410822837
 20
1718.13992512501
 30
0.0
 10
3992.37410822837
 20
1718.13992512501
 30
0.0
 10
3992.37349922717
 20
1718.14063547341
 30
0.0
 10
3992.37349922717
 20
1718.14063547341
 30
0.0
 10
3992.37349922717
 20
1718.14063547341
 30
0.0
 10
3992.37349922717
 20
1718.14063547341
 30
0.0
 10
3992.372687164369
 20
1718.14154888341
 30
0.0
 10
3992.372687164369
 20
1718.14154888341
 30
0.0
 10
3992.372687164369
 20
1718.14154888341
 30
0.0
 10
3992.372687164369
 20
1718.14154888341
 30
0.0
 10
3992.37146916197
 20
1718.14256400781
 30
0.0
 10
3992.37146916197
 20
1718.14256400781
 30
0.0
 10
3992.37146916197
 20
1718.14256400781
 30
0.0
 10
3992.37146916197
 20
1718.14256400781
 30
0.0
 10
3992.36984540357
 20
1718.14408641901
 30
0.0
 10
3992.36984540357
 20
1718.14408641901
 30
0.0
 10
3992.36984540357
 20
1718.14408641901
 30
0.0
 10
3992.36984540357
 20
1718.14408641901
 30
0.0
 10
3992.36791686917
 20
1718.14591342261
 30
0.0
 10
3992.36791686917
 20
1718.14591342261
 30
0.0
  0
SPLINE
  5
1153
330
1F
100
AcDbEntity
  8
SANINDUSA
100
AcDbSpline
210
0.0
220
0.0
230
1.0
 70
    24
 71
     3
 72
     8
 73
     4
 74
     0
 42
0.0000000001
 43
0.0000000001
 40
0.0
 40
0.0
 40
0.0
 40
0.0
 40
1.0
 40
1.0
 40
1.0
 40
1.0
 10
3992.36497357757
 20
1718.13880846981
 30
0.0
 10
3992.36497357757
 20
1718.13880846981
 30
0.0
 10
3992.37319463477
 20
1718.13880846981
 30
0.0
 10
3992.37319463477
 20
1718.13880846981
 30
0.0
  0
SPLINE
  5
1154
330
1F
100
AcDbEntity
  8
SANINDUSA
100
AcDbSpline
210
0.0
220
0.0
230
1.0
 70
    24
 71
     3
 72
     8
 73
     4
 74
     0
 42
0.0000000001
 43
0.0000000001
 40
0.0
 40
0.0
 40
0.0
 40
0.0
 40
1.0
 40
1.0
 40
1.0
 40
1.0
 10
3992.36497357757
 20
1718.15484482821
 30
0.0
 10
3992.36497357757
 20
1718.15484482821
 30
0.0
 10
3992.37319463477
 20
1718.15484482821
 30
0.0
 10
3992.37319463477
 20
1718.15484482821
 30
0.0
  0
SPLINE
  5
1155
330
1F
100
AcDbEntity
  8
SANINDUSA
100
AcDbSpline
210
0.0
220
0.0
230
1.0
 70
    24
 71
     3
 72
     8
 73
     4
 74
     0
 42
0.0000000001
 43
0.0000000001
 40
0.0
 40
0.0
 40
0.0
 40
0.0
 40
1.0
 40
1.0
 40
1.0
 40
1.0
 10
3992.36446610717
 20
1718.14510135981
 30
0.0
 10
3992.36446610717
 20
1718.14510135981
 30
0.0
 10
3992.36497357757
 20
1718.14510135981
 30
0.0
 10
3992.36497357757
 20
1718.14510135981
 30
0.0
  0
SPLINE
  5
1156
330
1F
100
AcDbEntity
  8
SANINDUSA
100
AcDbSpline
210
0.0
220
0.0
230
1.0
 70
    24
 71
     3
 72
     8
 73
     4
 74
     0
 42
0.0000000001
 43
0.0000000001
 40
0.0
 40
0.0
 40
0.0
 40
0.0
 40
1.0
 40
1.0
 40
1.0
 40
1.0
 10
3992.36446610717
 20
1718.14855212181
 30
0.0
 10
3992.36446610717
 20
1718.14855212181
 30
0.0
 10
3992.36497357757
 20
1718.14855212181
 30
0.0
 10
3992.36497357757
 20
1718.14855212181
 30
0.0
  0
SPLINE
  5
1157
330
1F
100
AcDbEntity
  8
SANINDUSA
100
AcDbSpline
210
0.0
220
0.0
230
1.0
 70
    24
 71
     3
 72
     8
 73
     4
 74
     0
 42
0.0000000001
 43
0.0000000001
 40
0.0
 40
0.0
 40
0.0
 40
0.0
 40
1.0
 40
1.0
 40
1.0
 40
1.0
 10
3992.36446610717
 20
1718.15027759461
 30
0.0
 10
3992.36446610717
 20
1718.15027759461
 30
0.0
 10
3992.36497357757
 20
1718.15027759461
 30
0.0
 10
3992.36497357757
 20
1718.15027759461
 30
0.0
  0
SPLINE
  5
1158
330
1F
100
AcDbEntity
  8
SANINDUSA
100
AcDbSpline
210
0.0
220
0.0
230
1.0
 70
    24
 71
     3
 72
     8
 73
     4
 74
     0
 42
0.0000000001
 43
0.0000000001
 40
0.0
 40
0.0
 40
0.0
 40
0.0
 40
1.0
 40
1.0
 40
1.0
 40
1.0
 10
3992.36446610717
 20
1718.15037894181
 30
0.0
 10
3992.36446610717
 20
1718.15037894181
 30
0.0
 10
3992.36446610717
 20
1718.14794312061
 30
0.0
 10
3992.36446610717
 20
1718.14794312061
 30
0.0
  0
SPLINE
  5
1159
330
1F
100
AcDbEntity
  8
SANINDUSA
100
AcDbSpline
210
0.0
220
0.0
230
1.0
 70
    24
 71
     3
 72
     8
 73
     4
 74
     0
 42
0.0000000001
 43
0.0000000001
 40
0.0
 40
0.0
 40
0.0
 40
0.0
 40
1.0
 40
1.0
 40
1.0
 40
1.0
 10
3992.36446610717
 20
1718.144898298209
 30
0.0
 10
3992.36446610717
 20
1718.144898298209
 30
0.0
 10
3992.36446610717
 20
1718.14327435621
 30
0.0
 10
3992.36446610717
 20
1718.14327435621
 30
0.0
  0
SPLINE
  5
115A
330
1F
100
AcDbEntity
  8
SANINDUSA
100
AcDbSpline
210
0.0
220
0.0
230
1.0
 70
    24
 71
     3
 72
     8
 73
     4
 74
     0
 42
0.0000000001
 43
0.0000000001
 40
0.0
 40
0.0
 40
0.0
 40
0.0
 40
1.0
 40
1.0
 40
1.0
 40
1.0
 10
3992.36446610717
 20
1718.14337588701
 30
0.0
 10
3992.36446610717
 20
1718.14337588701
 30
0.0
 10
3992.36497357757
 20
1718.14337588701
 30
0.0
 10
3992.36497357757
 20
1718.14337588701
 30
0.0
  0
SPLINE
  5
115B
330
1F
100
AcDbEntity
  8
SANINDUSA
100
AcDbSpline
210
0.0
220
0.0
230
1.0
 70
    24
 71
     3
 72
     8
 73
     4
 74
     0
 42
0.0000000001
 43
0.0000000001
 40
0.0
 40
0.0
 40
0.0
 40
0.0
 40
1.0
 40
1.0
 40
1.0
 40
1.0
 10
3992.36446610717
 20
1718.15037894181
 30
0.0
 10
3992.36446610717
 20
1718.15037894181
 30
0.0
 10
3992.36395845317
 20
1718.15037894181
 30
0.0
 10
3992.36395845317
 20
1718.15037894181
 30
0.0
  0
SPLINE
  5
115C
330
1F
100
AcDbEntity
  8
SANINDUSA
100
AcDbSpline
210
0.0
220
0.0
230
1.0
 70
    24
 71
     3
 72
     8
 73
     4
 74
     0
 42
0.0000000001
 43
0.0000000001
 40
0.0
 40
0.0
 40
0.0
 40
0.0
 40
1.0
 40
1.0
 40
1.0
 40
1.0
 10
3992.36446610717
 20
1718.14327435621
 30
0.0
 10
3992.36446610717
 20
1718.14327435621
 30
0.0
 10
3992.36406016757
 20
1718.14327435621
 30
0.0
 10
3992.36406016757
 20
1718.14327435621
 30
0.0
  0
SPLINE
  5
115F
330
1F
100
AcDbEntity
  8
SANINDUSA
100
AcDbSpline
210
0.0
220
0.0
230
1.0
 70
     8
 71
     3
 72
    24
 73
    20
 74
     0
 42
0.0000000001
 43
0.0000000001
 40
0.0
 40
0.0
 40
0.0
 40
0.0
 40
0.2
 40
0.2
 40
0.2
 40
0.2
 40
0.4
 40
0.4
 40
0.4
 40
0.4
 40
0.6000000000000001
 40
0.6000000000000001
 40
0.6000000000000001
 40
0.6000000000000001
 40
0.8
 40
0.8
 40
0.8
 40
0.8
 40
1.0
 40
1.0
 40
1.0
 40
1.0
 10
3992.36365404437
 20
1718.14185347581
 30
0.0
 10
3992.36365404437
 20
1718.14185347581
 30
0.0
 10
3992.36375575877
 20
1718.14205653741
 30
0.0
 10
3992.36375575877
 20
1718.14205653741
 30
0.0
 10
3992.36375575877
 20
1718.14205653741
 30
0.0
 10
3992.36375575877
 20
1718.14205653741
 30
0.0
 10
3992.36395845317
 20
1718.14286860021
 30
0.0
 10
3992.36395845317
 20
1718.14286860021
 30
0.0
 10
3992.36395845317
 20
1718.14286860021
 30
0.0
 10
3992.36395845317
 20
1718.14286860021
 30
0.0
 10
3992.36416151477
 20
1718.14357894861
 30
0.0
 10
3992.36416151477
 20
1718.14357894861
 30
0.0
 10
3992.36416151477
 20
1718.14357894861
 30
0.0
 10
3992.36416151477
 20
1718.14357894861
 30
0.0
 10
3992.36436457637
 20
1718.14439101141
 30
0.0
 10
3992.36436457637
 20
1718.14439101141
 30
0.0
 10
3992.36436457637
 20
1718.14439101141
 30
0.0
 10
3992.36436457637
 20
1718.14439101141
 30
0.0
 10
3992.36466916877
 20
1718.14621783141
 30
0.0
 10
3992.36466916877
 20
1718.14621783141
 30
0.0
  0
SPLINE
  5
1160
330
1F
100
AcDbEntity
  8
SANINDUSA
100
AcDbSpline
210
0.0
220
0.0
230
1.0
 70
     8
 71
     3
 72
    32
 73
    28
 74
     0
 42
0.0000000001
 43
0.0000000001
 40
0.0
 40
0.0
 40
0.0
 40
0.0
 40
0.1428571428571428
 40
0.1428571428571428
 40
0.1428571428571428
 40
0.1428571428571428
 40
0.2857142857142857
 40
0.2857142857142857
 40
0.2857142857142857
 40
0.2857142857142857
 40
0.4285714285714286
 40
0.4285714285714286
 40
0.4285714285714286
 40
0.4285714285714286
 40
0.5714285714285714
 40
0.5714285714285714
 40
0.5714285714285714
 40
0.5714285714285714
 40
0.7142857142857143
 40
0.7142857142857143
 40
0.7142857142857143
 40
0.7142857142857143
 40
0.8571428571428569
 40
0.8571428571428569
 40
0.8571428571428569
 40
0.8571428571428569
 40
1.0
 40
1.0
 40
1.0
 40
1.0
 10
3992.36375575877
 20
1718.151800005809
 30
0.0
 10
3992.36375575877
 20
1718.151800005809
 30
0.0
 10
3992.36355251357
 20
1718.15251035421
 30
0.0
 10
3992.36355251357
 20
1718.15251035421
 30
0.0
 10
3992.36355251357
 20
1718.15251035421
 30
0.0
 10
3992.36355251357
 20
1718.15251035421
 30
0.0
 10
3992.36314675757
 20
1718.15352547861
 30
0.0
 10
3992.36314675757
 20
1718.15352547861
 30
0.0
 10
3992.36314675757
 20
1718.15352547861
 30
0.0
 10
3992.36314675757
 20
1718.15352547861
 30
0.0
 10
3992.36274063437
 20
1718.15443888861
 30
0.0
 10
3992.36274063437
 20
1718.15443888861
 30
0.0
 10
3992.36274063437
 20
1718.15443888861
 30
0.0
 10
3992.36274063437
 20
1718.15443888861
 30
0.0
 10
3992.36233469477
 20
1718.15535248221
 30
0.0
 10
3992.36233469477
 20
1718.15535248221
 30
0.0
 10
3992.36233469477
 20
1718.15535248221
 30
0.0
 10
3992.36233469477
 20
1718.15535248221
 30
0.0
 10
3992.361928755169
 20
1718.15636723941
 30
0.0
 10
3992.361928755169
 20
1718.15636723941
 30
0.0
 10
3992.361928755169
 20
1718.15636723941
 30
0.0
 10
3992.361928755169
 20
1718.15636723941
 30
0.0
 10
3992.361421284769
 20
1718.15728064941
 30
0.0
 10
3992.361421284769
 20
1718.15728064941
 30
0.0
 10
3992.361421284769
 20
1718.15728064941
 30
0.0
 10
3992.361421284769
 20
1718.15728064941
 30
0.0
 10
3992.36020328237
 20
1718.15931071461
 30
0.0
 10
3992.36020328237
 20
1718.15931071461
 30
0.0
  0
SPLINE
  5
1161
330
1F
100
AcDbEntity
  8
SANINDUSA
100
AcDbSpline
210
0.0
220
0.0
230
1.0
 70
     8
 71
     3
 72
   308
 73
   304
 74
     0
 42
0.0000000001
 43
0.0000000001
 40
0.0
 40
0.0
 40
0.0
 40
0.0
 40
0.0131578947368421
 40
0.0131578947368421
 40
0.0131578947368421
 40
0.0131578947368421
 40
0.0263157894736842
 40
0.0263157894736842
 40
0.0263157894736842
 40
0.0263157894736842
 40
0.0394736842105263
 40
0.0394736842105263
 40
0.0394736842105263
 40
0.0394736842105263
 40
0.0526315789473684
 40
0.0526315789473684
 40
0.0526315789473684
 40
0.0526315789473684
 40
0.0657894736842105
 40
0.0657894736842105
 40
0.0657894736842105
 40
0.0657894736842105
 40
0.0789473684210526
 40
0.0789473684210526
 40
0.0789473684210526
 40
0.0789473684210526
 40
0.0921052631578947
 40
0.0921052631578947
 40
0.0921052631578947
 40
0.0921052631578947
 40
0.1052631578947368
 40
0.1052631578947368
 40
0.1052631578947368
 40
0.1052631578947368
 40
0.1184210526315789
 40
0.1184210526315789
 40
0.1184210526315789
 40
0.1184210526315789
 40
0.131578947368421
 40
0.131578947368421
 40
0.131578947368421
 40
0.131578947368421
 40
0.1447368421052632
 40
0.1447368421052632
 40
0.1447368421052632
 40
0.1447368421052632
 40
0.1578947368421053
 40
0.1578947368421053
 40
0.1578947368421053
 40
0.1578947368421053
 40
0.1710526315789473
 40
0.1710526315789473
 40
0.1710526315789473
 40
0.1710526315789473
 40
0.1842105263157894
 40
0.1842105263157894
 40
0.1842105263157894
 40
0.1842105263157894
 40
0.1973684210526315
 40
0.1973684210526315
 40
0.1973684210526315
 40
0.1973684210526315
 40
0.2105263157894736
 40
0.2105263157894736
 40
0.2105263157894736
 40
0.2105263157894736
 40
0.2236842105263157
 40
0.2236842105263157
 40
0.2236842105263157
 40
0.2236842105263157
 40
0.2368421052631578
 40
0.2368421052631578
 40
0.2368421052631578
 40
0.2368421052631578
 40
0.2499999999999999
 40
0.2499999999999999
 40
0.2499999999999999
 40
0.2499999999999999
 40
0.263157894736842
 40
0.263157894736842
 40
0.263157894736842
 40
0.263157894736842
 40
0.2763157894736841
 40
0.2763157894736841
 40
0.2763157894736841
 40
0.2763157894736841
 40
0.2894736842105261
 40
0.2894736842105261
 40
0.2894736842105261
 40
0.2894736842105261
 40
0.3026315789473682
 40
0.3026315789473682
 40
0.3026315789473682
 40
0.3026315789473682
 40
0.3157894736842103
 40
0.3157894736842103
 40
0.3157894736842103
 40
0.3157894736842103
 40
0.3289473684210524
 40
0.3289473684210524
 40
0.3289473684210524
 40
0.3289473684210524
 40
0.3421052631578945
 40
0.3421052631578945
 40
0.3421052631578945
 40
0.3421052631578945
 40
0.3552631578947366
 40
0.3552631578947366
 40
0.3552631578947366
 40
0.3552631578947366
 40
0.3684210526315787
 40
0.3684210526315787
 40
0.3684210526315787
 40
0.3684210526315787
 40
0.3815789473684208
 40
0.3815789473684208
 40
0.3815789473684208
 40
0.3815789473684208
 40
0.3947368421052629
 40
0.3947368421052629
 40
0.3947368421052629
 40
0.3947368421052629
 40
0.407894736842105
 40
0.407894736842105
 40
0.407894736842105
 40
0.407894736842105
 40
0.4210526315789471
 40
0.4210526315789471
 40
0.4210526315789471
 40
0.4210526315789471
 40
0.4342105263157892
 40
0.4342105263157892
 40
0.4342105263157892
 40
0.4342105263157892
 40
0.4473684210526313
 40
0.4473684210526313
 40
0.4473684210526313
 40
0.4473684210526313
 40
0.4605263157894734
 40
0.4605263157894734
 40
0.4605263157894734
 40
0.4605263157894734
 40
0.4736842105263154
 40
0.4736842105263154
 40
0.4736842105263154
 40
0.4736842105263154
 40
0.4868421052631576
 40
0.4868421052631576
 40
0.4868421052631576
 40
0.4868421052631576
 40
0.4999999999999997
 40
0.4999999999999997
 40
0.4999999999999997
 40
0.4999999999999997
 40
0.5131578947368417
 40
0.5131578947368417
 40
0.5131578947368417
 40
0.5131578947368417
 40
0.5263157894736839
 40
0.5263157894736839
 40
0.5263157894736839
 40
0.5263157894736839
 40
0.5394736842105261
 40
0.5394736842105261
 40
0.5394736842105261
 40
0.5394736842105261
 40
0.5526315789473682
 40
0.5526315789473682
 40
0.5526315789473682
 40
0.5526315789473682
 40
0.5657894736842103
 40
0.5657894736842103
 40
0.5657894736842103
 40
0.5657894736842103
 40
0.5789473684210524
 40
0.5789473684210524
 40
0.5789473684210524
 40
0.5789473684210524
 40
0.5921052631578946
 40
0.5921052631578946
 40
0.5921052631578946
 40
0.5921052631578946
 40
0.6052631578947368
 40
0.6052631578947368
 40
0.6052631578947368
 40
0.6052631578947368
 40
0.6184210526315789
 40
0.6184210526315789
 40
0.6184210526315789
 40
0.6184210526315789
 40
0.6315789473684211
 40
0.6315789473684211
 40
0.6315789473684211
 40
0.6315789473684211
 40
0.6447368421052632
 40
0.6447368421052632
 40
0.6447368421052632
 40
0.6447368421052632
 40
0.6578947368421053
 40
0.6578947368421053
 40
0.6578947368421053
 40
0.6578947368421053
 40
0.6710526315789475
 40
0.6710526315789475
 40
0.6710526315789475
 40
0.6710526315789475
 40
0.6842105263157896
 40
0.6842105263157896
 40
0.6842105263157896
 40
0.6842105263157896
 40
0.6973684210526318
 40
0.6973684210526318
 40
0.6973684210526318
 40
0.6973684210526318
 40
0.7105263157894739
 40
0.7105263157894739
 40
0.7105263157894739
 40
0.7105263157894739
 40
0.7236842105263161
 40
0.7236842105263161
 40
0.7236842105263161
 40
0.7236842105263161
 40
0.7368421052631583
 40
0.7368421052631583
 40
0.7368421052631583
 40
0.7368421052631583
 40
0.7500000000000004
 40
0.7500000000000004
 40
0.7500000000000004
 40
0.7500000000000004
 40
0.7631578947368425
 40
0.7631578947368425
 40
0.7631578947368425
 40
0.7631578947368425
 40
0.7763157894736846
 40
0.7763157894736846
 40
0.7763157894736846
 40
0.7763157894736846
 40
0.7894736842105268
 40
0.7894736842105268
 40
0.7894736842105268
 40
0.7894736842105268
 40
0.8026315789473688
 40
0.8026315789473688
 40
0.8026315789473688
 40
0.8026315789473688
 40
0.8157894736842109
 40
0.8157894736842109
 40
0.8157894736842109
 40
0.8157894736842109
 40
0.8289473684210532
 40
0.8289473684210532
 40
0.8289473684210532
 40
0.8289473684210532
 40
0.8421052631578954
 40
0.8421052631578954
 40
0.8421052631578954
 40
0.8421052631578954
 40
0.8552631578947375
 40
0.8552631578947375
 40
0.8552631578947375
 40
0.8552631578947375
 40
0.8684210526315796
 40
0.8684210526315796
 40
0.8684210526315796
 40
0.8684210526315796
 40
0.8815789473684217
 40
0.8815789473684217
 40
0.8815789473684217
 40
0.8815789473684217
 40
0.8947368421052638
 40
0.8947368421052638
 40
0.8947368421052638
 40
0.8947368421052638
 40
0.907894736842106
 40
0.907894736842106
 40
0.907894736842106
 40
0.907894736842106
 40
0.9210526315789483
 40
0.9210526315789483
 40
0.9210526315789483
 40
0.9210526315789483
 40
0.9342105263157904
 40
0.9342105263157904
 40
0.9342105263157904
 40
0.9342105263157904
 40
0.9473684210526325
 40
0.9473684210526325
 40
0.9473684210526325
 40
0.9473684210526325
 40
0.9605263157894746
 40
0.9605263157894746
 40
0.9605263157894746
 40
0.9605263157894746
 40
0.9736842105263168
 40
0.9736842105263168
 40
0.9736842105263168
 40
0.9736842105263168
 40
0.9868421052631589
 40
0.9868421052631589
 40
0.9868421052631589
 40
0.9868421052631589
 40
1.0
 40
1.0
 40
1.0
 40
1.0
 10
3992.36020328237
 20
1718.15931071461
 30
0.0
 10
3992.36020328237
 20
1718.15931071461
 30
0.0
 10
3992.35979734277
 20
1718.15991971581
 30
0.0
 10
3992.35979734277
 20
1718.15991971581
 30
0.0
 10
3992.35979734277
 20
1718.15991971581
 30
0.0
 10
3992.35979734277
 20
1718.15991971581
 30
0.0
 10
3992.35918834157
 20
1718.16073141141
 30
0.0
 10
3992.35918834157
 20
1718.16073141141
 30
0.0
 10
3992.35918834157
 20
1718.16073141141
 30
0.0
 10
3992.35918834157
 20
1718.16073141141
 30
0.0
 10
3992.35857934037
 20
1718.16154347421
 30
0.0
 10
3992.35857934037
 20
1718.16154347421
 30
0.0
 10
3992.35857934037
 20
1718.16154347421
 30
0.0
 10
3992.35857934037
 20
1718.16154347421
 30
0.0
 10
3992.357868808369
 20
1718.16235553701
 30
0.0
 10
3992.357868808369
 20
1718.16235553701
 30
0.0
 10
3992.357868808369
 20
1718.16235553701
 30
0.0
 10
3992.357868808369
 20
1718.16235553701
 30
0.0
 10
3992.35725980717
 20
1718.16316741621
 30
0.0
 10
3992.35725980717
 20
1718.16316741621
 30
0.0
 10
3992.35725980717
 20
1718.16316741621
 30
0.0
 10
3992.35725980717
 20
1718.16316741621
 30
0.0
 10
3992.35654945877
 20
1718.16387794821
 30
0.0
 10
3992.35654945877
 20
1718.16387794821
 30
0.0
 10
3992.35654945877
 20
1718.16387794821
 30
0.0
 10
3992.35654945877
 20
1718.16387794821
 30
0.0
 10
3992.35583911037
 20
1718.16468982741
 30
0.0
 10
3992.35583911037
 20
1718.16468982741
 30
0.0
 10
3992.35583911037
 20
1718.16468982741
 30
0.0
 10
3992.35583911037
 20
1718.16468982741
 30
0.0
 10
3992.35512839477
 20
1718.16540035941
 30
0.0
 10
3992.35512839477
 20
1718.16540035941
 30
0.0
 10
3992.35512839477
 20
1718.16540035941
 30
0.0
 10
3992.35512839477
 20
1718.16540035941
 30
0.0
 10
3992.354316699169
 20
1718.16611089141
 30
0.0
 10
3992.354316699169
 20
1718.16611089141
 30
0.0
 10
3992.354316699169
 20
1718.16611089141
 30
0.0
 10
3992.354316699169
 20
1718.16611089141
 30
0.0
 10
3992.353504636369
 20
1718.16671970901
 30
0.0
 10
3992.353504636369
 20
1718.16671970901
 30
0.0
 10
3992.353504636369
 20
1718.16671970901
 30
0.0
 10
3992.353504636369
 20
1718.16671970901
 30
0.0
 10
3992.35269257357
 20
1718.16743024101
 30
0.0
 10
3992.35269257357
 20
1718.16743024101
 30
0.0
 10
3992.35269257357
 20
1718.16743024101
 30
0.0
 10
3992.35269257357
 20
1718.16743024101
 30
0.0
 10
3992.35188069437
 20
1718.16803905861
 30
0.0
 10
3992.35188069437
 20
1718.16803905861
 30
0.0
 10
3992.35188069437
 20
1718.16803905861
 30
0.0
 10
3992.35188069437
 20
1718.16803905861
 30
0.0
 10
3992.351068631569
 20
1718.16864805981
 30
0.0
 10
3992.351068631569
 20
1718.16864805981
 30
0.0
 10
3992.351068631569
 20
1718.16864805981
 30
0.0
 10
3992.351068631569
 20
1718.16864805981
 30
0.0
 10
3992.35015522157
 20
1718.16915571381
 30
0.0
 10
3992.35015522157
 20
1718.16915571381
 30
0.0
 10
3992.35015522157
 20
1718.16915571381
 30
0.0
 10
3992.35015522157
 20
1718.16915571381
 30
0.0
 10
3992.34934315877
 20
1718.16976471501
 30
0.0
 10
3992.34934315877
 20
1718.16976471501
 30
0.0
 10
3992.34934315877
 20
1718.16976471501
 30
0.0
 10
3992.34934315877
 20
1718.16976471501
 30
0.0
 10
3992.34842974877
 20
1718.17027218541
 30
0.0
 10
3992.34842974877
 20
1718.17027218541
 30
0.0
 10
3992.34842974877
 20
1718.17027218541
 30
0.0
 10
3992.34842974877
 20
1718.17027218541
 30
0.0
 10
3992.34751633877
 20
1718.17067812501
 30
0.0
 10
3992.34751633877
 20
1718.17067812501
 30
0.0
 10
3992.34751633877
 20
1718.17067812501
 30
0.0
 10
3992.34751633877
 20
1718.17067812501
 30
0.0
 10
3992.346602928769
 20
1718.17118559541
 30
0.0
 10
3992.346602928769
 20
1718.17118559541
 30
0.0
 10
3992.346602928769
 20
1718.17118559541
 30
0.0
 10
3992.346602928769
 20
1718.17118559541
 30
0.0
 10
3992.34558798797
 20
1718.171591351409
 30
0.0
 10
3992.34558798797
 20
1718.171591351409
 30
0.0
 10
3992.34558798797
 20
1718.171591351409
 30
0.0
 10
3992.34558798797
 20
1718.171591351409
 30
0.0
 10
3992.34467457797
 20
1718.17199729101
 30
0.0
 10
3992.34467457797
 20
1718.17199729101
 30
0.0
 10
3992.34467457797
 20
1718.17199729101
 30
0.0
 10
3992.34467457797
 20
1718.17199729101
 30
0.0
 10
3992.34365963717
 20
1718.17240341421
 30
0.0
 10
3992.34365963717
 20
1718.17240341421
 30
0.0
 10
3992.34365963717
 20
1718.17240341421
 30
0.0
 10
3992.34365963717
 20
1718.17240341421
 30
0.0
 10
3992.34274622717
 20
1718.17270782301
 30
0.0
 10
3992.34274622717
 20
1718.17270782301
 30
0.0
 10
3992.34274622717
 20
1718.17270782301
 30
0.0
 10
3992.34274622717
 20
1718.17270782301
 30
0.0
 10
3992.34173110277
 20
1718.173012231809
 30
0.0
 10
3992.34173110277
 20
1718.173012231809
 30
0.0
 10
3992.34173110277
 20
1718.173012231809
 30
0.0
 10
3992.34173110277
 20
1718.173012231809
 30
0.0
 10
3992.34071616197
 20
1718.173316824209
 30
0.0
 10
3992.34071616197
 20
1718.173316824209
 30
0.0
 10
3992.34071616197
 20
1718.173316824209
 30
0.0
 10
3992.34071616197
 20
1718.173316824209
 30
0.0
 10
3992.33970140477
 20
1718.17351970221
 30
0.0
 10
3992.33970140477
 20
1718.17351970221
 30
0.0
 10
3992.33970140477
 20
1718.17351970221
 30
0.0
 10
3992.33970140477
 20
1718.17351970221
 30
0.0
 10
3992.338686280369
 20
1718.17372276381
 30
0.0
 10
3992.338686280369
 20
1718.17372276381
 30
0.0
 10
3992.338686280369
 20
1718.17372276381
 30
0.0
 10
3992.338686280369
 20
1718.17372276381
 30
0.0
 10
3992.33767133957
 20
1718.17392582541
 30
0.0
 10
3992.33767133957
 20
1718.17392582541
 30
0.0
 10
3992.33767133957
 20
1718.17392582541
 30
0.0
 10
3992.33767133957
 20
1718.17392582541
 30
0.0
 10
3992.33665639877
 20
1718.17402717261
 30
0.0
 10
3992.33665639877
 20
1718.17402717261
 30
0.0
 10
3992.33665639877
 20
1718.17402717261
 30
0.0
 10
3992.33665639877
 20
1718.17402717261
 30
0.0
 10
3992.33564145797
 20
1718.17412851981
 30
0.0
 10
3992.33564145797
 20
1718.17412851981
 30
0.0
 10
3992.33564145797
 20
1718.17412851981
 30
0.0
 10
3992.33564145797
 20
1718.17412851981
 30
0.0
 10
3992.33462651717
 20
1718.174230234209
 30
0.0
 10
3992.33462651717
 20
1718.174230234209
 30
0.0
 10
3992.33462651717
 20
1718.174230234209
 30
0.0
 10
3992.33462651717
 20
1718.174230234209
 30
0.0
 10
3992.33361157637
 20
1718.17433158141
 30
0.0
 10
3992.33361157637
 20
1718.17433158141
 30
0.0
 10
3992.33361157637
 20
1718.17433158141
 30
0.0
 10
3992.33361157637
 20
1718.17433158141
 30
0.0
 10
3992.33148016397
 20
1718.17433158141
 30
0.0
 10
3992.33148016397
 20
1718.17433158141
 30
0.0
 10
3992.33148016397
 20
1718.17433158141
 30
0.0
 10
3992.33148016397
 20
1718.17433158141
 30
0.0
 10
3992.330465039569
 20
1718.174230234209
 30
0.0
 10
3992.330465039569
 20
1718.174230234209
 30
0.0
 10
3992.330465039569
 20
1718.174230234209
 30
0.0
 10
3992.330465039569
 20
1718.174230234209
 30
0.0
 10
3992.329450282369
 20
1718.17412851981
 30
0.0
 10
3992.329450282369
 20
1718.17412851981
 30
0.0
 10
3992.329450282369
 20
1718.17412851981
 30
0.0
 10
3992.329450282369
 20
1718.17412851981
 30
0.0
 10
3992.328435341569
 20
1718.17402717261
 30
0.0
 10
3992.328435341569
 20
1718.17402717261
 30
0.0
 10
3992.328435341569
 20
1718.17402717261
 30
0.0
 10
3992.328435341569
 20
1718.17402717261
 30
0.0
 10
3992.32742021717
 20
1718.17392582541
 30
0.0
 10
3992.32742021717
 20
1718.17392582541
 30
0.0
 10
3992.32742021717
 20
1718.17392582541
 30
0.0
 10
3992.32742021717
 20
1718.17392582541
 30
0.0
 10
3992.32640545997
 20
1718.17372276381
 30
0.0
 10
3992.32640545997
 20
1718.17372276381
 30
0.0
 10
3992.32640545997
 20
1718.17372276381
 30
0.0
 10
3992.32640545997
 20
1718.17372276381
 30
0.0
 10
3992.32539051917
 20
1718.17351970221
 30
0.0
 10
3992.32539051917
 20
1718.17351970221
 30
0.0
 10
3992.32539051917
 20
1718.17351970221
 30
0.0
 10
3992.32539051917
 20
1718.17351970221
 30
0.0
 10
3992.324375394769
 20
1718.173316824209
 30
0.0
 10
3992.324375394769
 20
1718.173316824209
 30
0.0
 10
3992.324375394769
 20
1718.173316824209
 30
0.0
 10
3992.324375394769
 20
1718.173316824209
 30
0.0
 10
3992.323360453969
 20
1718.173012231809
 30
0.0
 10
3992.323360453969
 20
1718.173012231809
 30
0.0
 10
3992.323360453969
 20
1718.173012231809
 30
0.0
 10
3992.323360453969
 20
1718.173012231809
 30
0.0
 10
3992.32234569677
 20
1718.17270782301
 30
0.0
 10
3992.32234569677
 20
1718.17270782301
 30
0.0
 10
3992.32234569677
 20
1718.17270782301
 30
0.0
 10
3992.32234569677
 20
1718.17270782301
 30
0.0
 10
3992.32133057237
 20
1718.17240341421
 30
0.0
 10
3992.32133057237
 20
1718.17240341421
 30
0.0
 10
3992.32133057237
 20
1718.17240341421
 30
0.0
 10
3992.32133057237
 20
1718.17240341421
 30
0.0
 10
3992.32041716237
 20
1718.17199729101
 30
0.0
 10
3992.32041716237
 20
1718.17199729101
 30
0.0
 10
3992.32041716237
 20
1718.17199729101
 30
0.0
 10
3992.32041716237
 20
1718.17199729101
 30
0.0
 10
3992.31940222157
 20
1718.171591351409
 30
0.0
 10
3992.31940222157
 20
1718.171591351409
 30
0.0
 10
3992.31940222157
 20
1718.171591351409
 30
0.0
 10
3992.31940222157
 20
1718.171591351409
 30
0.0
 10
3992.31848881157
 20
1718.17118559541
 30
0.0
 10
3992.31848881157
 20
1718.17118559541
 30
0.0
 10
3992.31848881157
 20
1718.17118559541
 30
0.0
 10
3992.31848881157
 20
1718.17118559541
 30
0.0
 10
3992.31757540157
 20
1718.17067812501
 30
0.0
 10
3992.31757540157
 20
1718.17067812501
 30
0.0
 10
3992.31757540157
 20
1718.17067812501
 30
0.0
 10
3992.31757540157
 20
1718.17067812501
 30
0.0
 10
3992.31666180797
 20
1718.17027218541
 30
0.0
 10
3992.31666180797
 20
1718.17027218541
 30
0.0
 10
3992.31666180797
 20
1718.17027218541
 30
0.0
 10
3992.31666180797
 20
1718.17027218541
 30
0.0
 10
3992.315748397969
 20
1718.16976471501
 30
0.0
 10
3992.315748397969
 20
1718.16976471501
 30
0.0
 10
3992.315748397969
 20
1718.16976471501
 30
0.0
 10
3992.315748397969
 20
1718.16976471501
 30
0.0
 10
3992.31483498797
 20
1718.16915571381
 30
0.0
 10
3992.31483498797
 20
1718.16915571381
 30
0.0
 10
3992.31483498797
 20
1718.16915571381
 30
0.0
 10
3992.31483498797
 20
1718.16915571381
 30
0.0
 10
3992.31402292517
 20
1718.16864805981
 30
0.0
 10
3992.31402292517
 20
1718.16864805981
 30
0.0
 10
3992.31402292517
 20
1718.16864805981
 30
0.0
 10
3992.31402292517
 20
1718.16864805981
 30
0.0
 10
3992.31321104597
 20
1718.16803905861
 30
0.0
 10
3992.31321104597
 20
1718.16803905861
 30
0.0
 10
3992.31321104597
 20
1718.16803905861
 30
0.0
 10
3992.31321104597
 20
1718.16803905861
 30
0.0
 10
3992.31229763597
 20
1718.16743024101
 30
0.0
 10
3992.31229763597
 20
1718.16743024101
 30
0.0
 10
3992.31229763597
 20
1718.16743024101
 30
0.0
 10
3992.31229763597
 20
1718.16743024101
 30
0.0
 10
3992.31148557317
 20
1718.16671970901
 30
0.0
 10
3992.31148557317
 20
1718.16671970901
 30
0.0
 10
3992.31148557317
 20
1718.16671970901
 30
0.0
 10
3992.31148557317
 20
1718.16671970901
 30
0.0
 10
3992.310775224769
 20
1718.16611089141
 30
0.0
 10
3992.310775224769
 20
1718.16611089141
 30
0.0
 10
3992.310775224769
 20
1718.16611089141
 30
0.0
 10
3992.310775224769
 20
1718.16611089141
 30
0.0
 10
3992.30996316197
 20
1718.16540035941
 30
0.0
 10
3992.30996316197
 20
1718.16540035941
 30
0.0
 10
3992.30996316197
 20
1718.16540035941
 30
0.0
 10
3992.30996316197
 20
1718.16540035941
 30
0.0
 10
3992.30925281357
 20
1718.16468982741
 30
0.0
 10
3992.30925281357
 20
1718.16468982741
 30
0.0
 10
3992.30925281357
 20
1718.16468982741
 30
0.0
 10
3992.30925281357
 20
1718.16468982741
 30
0.0
 10
3992.308542097969
 20
1718.16387794821
 30
0.0
 10
3992.308542097969
 20
1718.16387794821
 30
0.0
 10
3992.308542097969
 20
1718.16387794821
 30
0.0
 10
3992.308542097969
 20
1718.16387794821
 30
0.0
 10
3992.30783174957
 20
1718.16316741621
 30
0.0
 10
3992.30783174957
 20
1718.16316741621
 30
0.0
 10
3992.30783174957
 20
1718.16316741621
 30
0.0
 10
3992.30783174957
 20
1718.16316741621
 30
0.0
 10
3992.30712140117
 20
1718.16235553701
 30
0.0
 10
3992.30712140117
 20
1718.16235553701
 30
0.0
 10
3992.30712140117
 20
1718.16235553701
 30
0.0
 10
3992.30712140117
 20
1718.16235553701
 30
0.0
 10
3992.30651239997
 20
1718.16154347421
 30
0.0
 10
3992.30651239997
 20
1718.16154347421
 30
0.0
 10
3992.30651239997
 20
1718.16154347421
 30
0.0
 10
3992.30651239997
 20
1718.16154347421
 30
0.0
 10
3992.30590339877
 20
1718.16073141141
 30
0.0
 10
3992.30590339877
 20
1718.16073141141
 30
0.0
 10
3992.30590339877
 20
1718.16073141141
 30
0.0
 10
3992.30590339877
 20
1718.16073141141
 30
0.0
 10
3992.30529458117
 20
1718.15991971581
 30
0.0
 10
3992.30529458117
 20
1718.15991971581
 30
0.0
 10
3992.30529458117
 20
1718.15991971581
 30
0.0
 10
3992.30529458117
 20
1718.15991971581
 30
0.0
 10
3992.30468557997
 20
1718.15900630581
 30
0.0
 10
3992.30468557997
 20
1718.15900630581
 30
0.0
 10
3992.30468557997
 20
1718.15900630581
 30
0.0
 10
3992.30468557997
 20
1718.15900630581
 30
0.0
 10
3992.30417792597
 20
1718.15809271221
 30
0.0
 10
3992.30417792597
 20
1718.15809271221
 30
0.0
 10
3992.30417792597
 20
1718.15809271221
 30
0.0
 10
3992.30417792597
 20
1718.15809271221
 30
0.0
 10
3992.30367045557
 20
1718.15728064941
 30
0.0
 10
3992.30367045557
 20
1718.15728064941
 30
0.0
 10
3992.30367045557
 20
1718.15728064941
 30
0.0
 10
3992.30367045557
 20
1718.15728064941
 30
0.0
 10
3992.30316316877
 20
1718.15636723941
 30
0.0
 10
3992.30316316877
 20
1718.15636723941
 30
0.0
 10
3992.30316316877
 20
1718.15636723941
 30
0.0
 10
3992.30316316877
 20
1718.15636723941
 30
0.0
 10
3992.30275704557
 20
1718.15535248221
 30
0.0
 10
3992.30275704557
 20
1718.15535248221
 30
0.0
 10
3992.30275704557
 20
1718.15535248221
 30
0.0
 10
3992.30275704557
 20
1718.15535248221
 30
0.0
 10
3992.30224957517
 20
1718.15443888861
 30
0.0
 10
3992.30224957517
 20
1718.15443888861
 30
0.0
 10
3992.30224957517
 20
1718.15443888861
 30
0.0
 10
3992.30224957517
 20
1718.15443888861
 30
0.0
 10
3992.30194516637
 20
1718.15352547861
 30
0.0
 10
3992.30194516637
 20
1718.15352547861
 30
0.0
 10
3992.30194516637
 20
1718.15352547861
 30
0.0
 10
3992.30194516637
 20
1718.15352547861
 30
0.0
 10
3992.30153904317
 20
1718.15251035421
 30
0.0
 10
3992.30153904317
 20
1718.15251035421
 30
0.0
 10
3992.30153904317
 20
1718.15251035421
 30
0.0
 10
3992.30153904317
 20
1718.15251035421
 30
0.0
 10
3992.30123445077
 20
1718.15149559701
 30
0.0
 10
3992.30123445077
 20
1718.15149559701
 30
0.0
 10
3992.30123445077
 20
1718.15149559701
 30
0.0
 10
3992.30123445077
 20
1718.15149559701
 30
0.0
 10
3992.300930041969
 20
1718.150582003409
 30
0.0
 10
3992.300930041969
 20
1718.150582003409
 30
0.0
 10
3992.300930041969
 20
1718.150582003409
 30
0.0
 10
3992.300930041969
 20
1718.150582003409
 30
0.0
 10
3992.30062563317
 20
1718.14956724621
 30
0.0
 10
3992.30062563317
 20
1718.14956724621
 30
0.0
 10
3992.30062563317
 20
1718.14956724621
 30
0.0
 10
3992.30062563317
 20
1718.14956724621
 30
0.0
 10
3992.30042275517
 20
1718.14855212181
 30
0.0
 10
3992.30042275517
 20
1718.14855212181
 30
0.0
 10
3992.30042275517
 20
1718.14855212181
 30
0.0
 10
3992.30042275517
 20
1718.14855212181
 30
0.0
 10
3992.30021969357
 20
1718.14753718101
 30
0.0
 10
3992.30021969357
 20
1718.14753718101
 30
0.0
 10
3992.30021969357
 20
1718.14753718101
 30
0.0
 10
3992.30021969357
 20
1718.14753718101
 30
0.0
 10
3992.30001663197
 20
1718.14682683261
 30
0.0
 10
3992.30001663197
 20
1718.14682683261
 30
0.0
  0
SPLINE
  5
1163
330
1F
100
AcDbEntity
  8
SANINDUSA
100
AcDbSpline
210
0.0
220
0.0
230
1.0
 70
    24
 71
     3
 72
     8
 73
     4
 74
     0
 42
0.0000000001
 43
0.0000000001
 40
0.0
 40
0.0
 40
0.0
 40
0.0
 40
1.0
 40
1.0
 40
1.0
 40
1.0
 10
3992.36375575877
 20
1718.14185347581
 30
0.0
 10
3992.36375575877
 20
1718.14185347581
 30
0.0
 10
3992.36365404437
 20
1718.14185347581
 30
0.0
 10
3992.36365404437
 20
1718.14185347581
 30
0.0
  0
SPLINE
  5
1164
330
1F
100
AcDbEntity
  8
SANINDUSA
100
AcDbSpline
210
0.0
220
0.0
230
1.0
 70
    24
 71
     3
 72
     8
 73
     4
 74
     0
 42
0.0000000001
 43
0.0000000001
 40
0.0
 40
0.0
 40
0.0
 40
0.0
 40
1.0
 40
1.0
 40
1.0
 40
1.0
 10
3992.35756439957
 20
1718.03619700021
 30
0.0
 10
3992.35756439957
 20
1718.03619700021
 30
0.0
 10
3992.35756439957
 20
1718.03629871461
 30
0.0
 10
3992.35756439957
 20
1718.03629871461
 30
0.0
  0
SPLINE
  5
1165
330
1F
100
AcDbEntity
  8
SANINDUSA
100
AcDbSpline
210
0.0
220
0.0
230
1.0
 70
    24
 71
     3
 72
     8
 73
     4
 74
     0
 42
0.0000000001
 43
0.0000000001
 40
0.0
 40
0.0
 40
0.0
 40
0.0
 40
1.0
 40
1.0
 40
1.0
 40
1.0
 10
3992.36466916877
 20
1718.14621783141
 30
0.0
 10
3992.36466916877
 20
1718.14621783141
 30
0.0
 10
3992.36284216517
 20
1718.14276688581
 30
0.0
 10
3992.36284216517
 20
1718.14276688581
 30
0.0
  0
SPLINE
  5
1167
330
1F
100
AcDbEntity
  8
SANINDUSA
100
AcDbSpline
210
0.0
220
0.0
230
1.0
 70
     8
 71
     3
 72
    44
 73
    40
 74
     0
 42
0.0000000001
 43
0.0000000001
 40
0.0
 40
0.0
 40
0.0
 40
0.0
 40
0.1
 40
0.1
 40
0.1
 40
0.1
 40
0.2
 40
0.2
 40
0.2
 40
0.2
 40
0.3
 40
0.3
 40
0.3
 40
0.3
 40
0.4
 40
0.4
 40
0.4
 40
0.4
 40
0.5
 40
0.5
 40
0.5
 40
0.5
 40
0.6
 40
0.6
 40
0.6
 40
0.6
 40
0.7
 40
0.7
 40
0.7
 40
0.7
 40
0.8
 40
0.8
 40
0.8
 40
0.8
 40
0.9
 40
0.9
 40
0.9
 40
0.9
 40
1.0
 40
1.0
 40
1.0
 40
1.0
 10
3992.30001663197
 20
1718.14682683261
 30
0.0
 10
3992.30001663197
 20
1718.14682683261
 30
0.0
 10
3992.30021969357
 20
1718.14611611701
 30
0.0
 10
3992.30021969357
 20
1718.14611611701
 30
0.0
 10
3992.30021969357
 20
1718.14611611701
 30
0.0
 10
3992.30021969357
 20
1718.14611611701
 30
0.0
 10
3992.30042275517
 20
1718.14510135981
 30
0.0
 10
3992.30042275517
 20
1718.14510135981
 30
0.0
 10
3992.30042275517
 20
1718.14510135981
 30
0.0
 10
3992.30042275517
 20
1718.14510135981
 30
0.0
 10
3992.30062563317
 20
1718.14408641901
 30
0.0
 10
3992.30062563317
 20
1718.14408641901
 30
0.0
 10
3992.30062563317
 20
1718.14408641901
 30
0.0
 10
3992.30062563317
 20
1718.14408641901
 30
0.0
 10
3992.300930041969
 20
1718.14307129461
 30
0.0
 10
3992.300930041969
 20
1718.14307129461
 30
0.0
 10
3992.300930041969
 20
1718.14307129461
 30
0.0
 10
3992.300930041969
 20
1718.14307129461
 30
0.0
 10
3992.30123445077
 20
1718.14205653741
 30
0.0
 10
3992.30123445077
 20
1718.14205653741
 30
0.0
 10
3992.30123445077
 20
1718.14205653741
 30
0.0
 10
3992.30123445077
 20
1718.14205653741
 30
0.0
 10
3992.30153904317
 20
1718.14114294381
 30
0.0
 10
3992.30153904317
 20
1718.14114294381
 30
0.0
 10
3992.30153904317
 20
1718.14114294381
 30
0.0
 10
3992.30153904317
 20
1718.14114294381
 30
0.0
 10
3992.30194516637
 20
1718.140128186609
 30
0.0
 10
3992.30194516637
 20
1718.140128186609
 30
0.0
 10
3992.30194516637
 20
1718.140128186609
 30
0.0
 10
3992.30194516637
 20
1718.140128186609
 30
0.0
 10
3992.30224957517
 20
1718.13921477661
 30
0.0
 10
3992.30224957517
 20
1718.13921477661
 30
0.0
 10
3992.30224957517
 20
1718.13921477661
 30
0.0
 10
3992.30224957517
 20
1718.13921477661
 30
0.0
 10
3992.30275704557
 20
1718.13819965221
 30
0.0
 10
3992.30275704557
 20
1718.13819965221
 30
0.0
 10
3992.30275704557
 20
1718.13819965221
 30
0.0
 10
3992.30275704557
 20
1718.13819965221
 30
0.0
 10
3992.30306145437
 20
1718.137489120209
 30
0.0
 10
3992.30306145437
 20
1718.137489120209
 30
0.0
  0
SPLINE
  5
1168
330
1F
100
AcDbEntity
  8
SANINDUSA
100
AcDbSpline
210
0.0
220
0.0
230
1.0
 70
     8
 71
     3
 72
    24
 73
    20
 74
     0
 42
0.0000000001
 43
0.0000000001
 40
0.0
 40
0.0
 40
0.0
 40
0.0
 40
0.2
 40
0.2
 40
0.2
 40
0.2
 40
0.4
 40
0.4
 40
0.4
 40
0.4
 40
0.6000000000000001
 40
0.6000000000000001
 40
0.6000000000000001
 40
0.6000000000000001
 40
0.8
 40
0.8
 40
0.8
 40
0.8
 40
1.0
 40
1.0
 40
1.0
 40
1.0
 10
3992.361928755169
 20
1718.137489120209
 30
0.0
 10
3992.361928755169
 20
1718.137489120209
 30
0.0
 10
3992.36233469477
 20
1718.13819965221
 30
0.0
 10
3992.36233469477
 20
1718.13819965221
 30
0.0
 10
3992.36233469477
 20
1718.13819965221
 30
0.0
 10
3992.36233469477
 20
1718.13819965221
 30
0.0
 10
3992.36274063437
 20
1718.13921477661
 30
0.0
 10
3992.36274063437
 20
1718.13921477661
 30
0.0
 10
3992.36274063437
 20
1718.13921477661
 30
0.0
 10
3992.36274063437
 20
1718.13921477661
 30
0.0
 10
3992.36314675757
 20
1718.140128186609
 30
0.0
 10
3992.36314675757
 20
1718.140128186609
 30
0.0
 10
3992.36314675757
 20
1718.140128186609
 30
0.0
 10
3992.36314675757
 20
1718.140128186609
 30
0.0
 10
3992.36355251357
 20
1718.14114294381
 30
0.0
 10
3992.36355251357
 20
1718.14114294381
 30
0.0
 10
3992.36355251357
 20
1718.14114294381
 30
0.0
 10
3992.36355251357
 20
1718.14114294381
 30
0.0
 10
3992.36375575877
 20
1718.14185347581
 30
0.0
 10
3992.36375575877
 20
1718.14185347581
 30
0.0
  0
SPLINE
  5
1169
330
1F
100
AcDbEntity
  8
SANINDUSA
100
AcDbSpline
210
0.0
220
0.0
230
1.0
 70
     8
 71
     3
 72
   148
 73
   144
 74
     0
 42
0.0000000001
 43
0.0000000001
 40
0.0
 40
0.0
 40
0.0
 40
0.0
 40
0.0277777777777778
 40
0.0277777777777778
 40
0.0277777777777778
 40
0.0277777777777778
 40
0.0555555555555556
 40
0.0555555555555556
 40
0.0555555555555556
 40
0.0555555555555556
 40
0.0833333333333333
 40
0.0833333333333333
 40
0.0833333333333333
 40
0.0833333333333333
 40
0.1111111111111111
 40
0.1111111111111111
 40
0.1111111111111111
 40
0.1111111111111111
 40
0.1388888888888889
 40
0.1388888888888889
 40
0.1388888888888889
 40
0.1388888888888889
 40
0.1666666666666667
 40
0.1666666666666667
 40
0.1666666666666667
 40
0.1666666666666667
 40
0.1944444444444444
 40
0.1944444444444444
 40
0.1944444444444444
 40
0.1944444444444444
 40
0.2222222222222223
 40
0.2222222222222223
 40
0.2222222222222223
 40
0.2222222222222223
 40
0.25
 40
0.25
 40
0.25
 40
0.25
 40
0.2777777777777779
 40
0.2777777777777779
 40
0.2777777777777779
 40
0.2777777777777779
 40
0.3055555555555556
 40
0.3055555555555556
 40
0.3055555555555556
 40
0.3055555555555556
 40
0.3333333333333334
 40
0.3333333333333334
 40
0.3333333333333334
 40
0.3333333333333334
 40
0.3611111111111112
 40
0.3611111111111112
 40
0.3611111111111112
 40
0.3611111111111112
 40
0.388888888888889
 40
0.388888888888889
 40
0.388888888888889
 40
0.388888888888889
 40
0.4166666666666668
 40
0.4166666666666668
 40
0.4166666666666668
 40
0.4166666666666668
 40
0.4444444444444446
 40
0.4444444444444446
 40
0.4444444444444446
 40
0.4444444444444446
 40
0.4722222222222224
 40
0.4722222222222224
 40
0.4722222222222224
 40
0.4722222222222224
 40
0.5000000000000001
 40
0.5000000000000001
 40
0.5000000000000001
 40
0.5000000000000001
 40
0.5277777777777779
 40
0.5277777777777779
 40
0.5277777777777779
 40
0.5277777777777779
 40
0.5555555555555558
 40
0.5555555555555558
 40
0.5555555555555558
 40
0.5555555555555558
 40
0.5833333333333335
 40
0.5833333333333335
 40
0.5833333333333335
 40
0.5833333333333335
 40
0.6111111111111113
 40
0.6111111111111113
 40
0.6111111111111113
 40
0.6111111111111113
 40
0.6388888888888891
 40
0.6388888888888891
 40
0.6388888888888891
 40
0.6388888888888891
 40
0.6666666666666669
 40
0.6666666666666669
 40
0.6666666666666669
 40
0.6666666666666669
 40
0.6944444444444447
 40
0.6944444444444447
 40
0.6944444444444447
 40
0.6944444444444447
 40
0.7222222222222224
 40
0.7222222222222224
 40
0.7222222222222224
 40
0.7222222222222224
 40
0.7500000000000002
 40
0.7500000000000002
 40
0.7500000000000002
 40
0.7500000000000002
 40
0.7777777777777781
 40
0.7777777777777781
 40
0.7777777777777781
 40
0.7777777777777781
 40
0.8055555555555557
 40
0.8055555555555557
 40
0.8055555555555557
 40
0.8055555555555557
 40
0.8333333333333335
 40
0.8333333333333335
 40
0.8333333333333335
 40
0.8333333333333335
 40
0.8611111111111114
 40
0.8611111111111114
 40
0.8611111111111114
 40
0.8611111111111114
 40
0.8888888888888891
 40
0.8888888888888891
 40
0.8888888888888891
 40
0.8888888888888891
 40
0.9166666666666669
 40
0.9166666666666669
 40
0.9166666666666669
 40
0.9166666666666669
 40
0.9444444444444448
 40
0.9444444444444448
 40
0.9444444444444448
 40
0.9444444444444448
 40
0.9722222222222224
 40
0.9722222222222224
 40
0.9722222222222224
 40
0.9722222222222224
 40
1.0
 40
1.0
 40
1.0
 40
1.0
 10
3992.35756439957
 20
1718.03629871461
 30
0.0
 10
3992.35756439957
 20
1718.03629871461
 30
0.0
 10
3992.35807186997
 20
1718.05294370701
 30
0.0
 10
3992.35807186997
 20
1718.05294370701
 30
0.0
 10
3992.35807186997
 20
1718.05294370701
 30
0.0
 10
3992.35807186997
 20
1718.05294370701
 30
0.0
 10
3992.35817321717
 20
1718.05862759581
 30
0.0
 10
3992.35817321717
 20
1718.05862759581
 30
0.0
 10
3992.35817321717
 20
1718.05862759581
 30
0.0
 10
3992.35817321717
 20
1718.05862759581
 30
0.0
 10
3992.35827493157
 20
1718.06055576301
 30
0.0
 10
3992.35827493157
 20
1718.06055576301
 30
0.0
 10
3992.35827493157
 20
1718.06055576301
 30
0.0
 10
3992.35827493157
 20
1718.06055576301
 30
0.0
 10
3992.35837627877
 20
1718.06451417901
 30
0.0
 10
3992.35837627877
 20
1718.06451417901
 30
0.0
 10
3992.35837627877
 20
1718.06451417901
 30
0.0
 10
3992.35837627877
 20
1718.06451417901
 30
0.0
 10
3992.358477809569
 20
1718.066645591409
 30
0.0
 10
3992.358477809569
 20
1718.066645591409
 30
0.0
 10
3992.358477809569
 20
1718.066645591409
 30
0.0
 10
3992.358477809569
 20
1718.066645591409
 30
0.0
 10
3992.35857934037
 20
1718.07100994701
 30
0.0
 10
3992.35857934037
 20
1718.07100994701
 30
0.0
 10
3992.35857934037
 20
1718.07100994701
 30
0.0
 10
3992.35857934037
 20
1718.07100994701
 30
0.0
 10
3992.35868087117
 20
1718.07324270661
 30
0.0
 10
3992.35868087117
 20
1718.07324270661
 30
0.0
 10
3992.35868087117
 20
1718.07324270661
 30
0.0
 10
3992.35868087117
 20
1718.07324270661
 30
0.0
 10
3992.35878221837
 20
1718.07801318541
 30
0.0
 10
3992.35878221837
 20
1718.07801318541
 30
0.0
 10
3992.35878221837
 20
1718.07801318541
 30
0.0
 10
3992.35878221837
 20
1718.07801318541
 30
0.0
 10
3992.358985279969
 20
1718.08278329701
 30
0.0
 10
3992.358985279969
 20
1718.08278329701
 30
0.0
 10
3992.358985279969
 20
1718.08278329701
 30
0.0
 10
3992.358985279969
 20
1718.08278329701
 30
0.0
 10
3992.35908681077
 20
1718.08521911821
 30
0.0
 10
3992.35908681077
 20
1718.08521911821
 30
0.0
 10
3992.35908681077
 20
1718.08521911821
 30
0.0
 10
3992.35908681077
 20
1718.08521911821
 30
0.0
 10
3992.35928987237
 20
1718.08887294181
 30
0.0
 10
3992.35928987237
 20
1718.08887294181
 30
0.0
 10
3992.35928987237
 20
1718.08887294181
 30
0.0
 10
3992.35928987237
 20
1718.08887294181
 30
0.0
 10
3992.35939121957
 20
1718.092526765409
 30
0.0
 10
3992.35939121957
 20
1718.092526765409
 30
0.0
 10
3992.35939121957
 20
1718.092526765409
 30
0.0
 10
3992.35939121957
 20
1718.092526765409
 30
0.0
 10
3992.35959428117
 20
1718.096180589009
 30
0.0
 10
3992.35959428117
 20
1718.096180589009
 30
0.0
 10
3992.35959428117
 20
1718.096180589009
 30
0.0
 10
3992.35959428117
 20
1718.096180589009
 30
0.0
 10
3992.359695628369
 20
1718.099733065409
 30
0.0
 10
3992.359695628369
 20
1718.099733065409
 30
0.0
 10
3992.359695628369
 20
1718.099733065409
 30
0.0
 10
3992.359695628369
 20
1718.099733065409
 30
0.0
 10
3992.35989868997
 20
1718.10206753941
 30
0.0
 10
3992.35989868997
 20
1718.10206753941
 30
0.0
 10
3992.35989868997
 20
1718.10206753941
 30
0.0
 10
3992.35989868997
 20
1718.10206753941
 30
0.0
 10
3992.360101935169
 20
1718.10663477301
 30
0.0
 10
3992.360101935169
 20
1718.10663477301
 30
0.0
 10
3992.360101935169
 20
1718.10663477301
 30
0.0
 10
3992.360101935169
 20
1718.10663477301
 30
0.0
 10
3992.36030462957
 20
1718.110998945009
 30
0.0
 10
3992.36030462957
 20
1718.110998945009
 30
0.0
 10
3992.36030462957
 20
1718.110998945009
 30
0.0
 10
3992.36030462957
 20
1718.110998945009
 30
0.0
 10
3992.36040634397
 20
1718.11302901021
 30
0.0
 10
3992.36040634397
 20
1718.11302901021
 30
0.0
 10
3992.36040634397
 20
1718.11302901021
 30
0.0
 10
3992.36040634397
 20
1718.11302901021
 30
0.0
 10
3992.36050769117
 20
1718.11505870821
 30
0.0
 10
3992.36050769117
 20
1718.11505870821
 30
0.0
 10
3992.36050769117
 20
1718.11505870821
 30
0.0
 10
3992.36050769117
 20
1718.11505870821
 30
0.0
 10
3992.36060922197
 20
1718.11708858981
 30
0.0
 10
3992.36060922197
 20
1718.11708858981
 30
0.0
 10
3992.36060922197
 20
1718.11708858981
 30
0.0
 10
3992.36060922197
 20
1718.11708858981
 30
0.0
 10
3992.36071075277
 20
1718.11911865501
 30
0.0
 10
3992.36071075277
 20
1718.11911865501
 30
0.0
 10
3992.36071075277
 20
1718.11911865501
 30
0.0
 10
3992.36071075277
 20
1718.11911865501
 30
0.0
 10
3992.36091363077
 20
1718.12287382581
 30
0.0
 10
3992.36091363077
 20
1718.12287382581
 30
0.0
 10
3992.36091363077
 20
1718.12287382581
 30
0.0
 10
3992.36091363077
 20
1718.12287382581
 30
0.0
 10
3992.36121822317
 20
1718.12652764941
 30
0.0
 10
3992.36121822317
 20
1718.12652764941
 30
0.0
 10
3992.36121822317
 20
1718.12652764941
 30
0.0
 10
3992.36121822317
 20
1718.12652764941
 30
0.0
 10
3992.36131975397
 20
1718.12896365421
 30
0.0
 10
3992.36131975397
 20
1718.12896365421
 30
0.0
 10
3992.36131975397
 20
1718.12896365421
 30
0.0
 10
3992.36131975397
 20
1718.12896365421
 30
0.0
 10
3992.36152263197
 20
1718.13129812821
 30
0.0
 10
3992.36152263197
 20
1718.13129812821
 30
0.0
 10
3992.36152263197
 20
1718.13129812821
 30
0.0
 10
3992.36152263197
 20
1718.13129812821
 30
0.0
 10
3992.36162434637
 20
1718.13282053941
 30
0.0
 10
3992.36162434637
 20
1718.13282053941
 30
0.0
 10
3992.36162434637
 20
1718.13282053941
 30
0.0
 10
3992.36162434637
 20
1718.13282053941
 30
0.0
 10
3992.361827040769
 20
1718.13535770781
 30
0.0
 10
3992.361827040769
 20
1718.13535770781
 30
0.0
 10
3992.361827040769
 20
1718.13535770781
 30
0.0
 10
3992.361827040769
 20
1718.13535770781
 30
0.0
 10
3992.36203010237
 20
1718.13759065101
 30
0.0
 10
3992.36203010237
 20
1718.13759065101
 30
0.0
 10
3992.36203010237
 20
1718.13759065101
 30
0.0
 10
3992.36203010237
 20
1718.13759065101
 30
0.0
 10
3992.36203010237
 20
1718.13860577541
 30
0.0
 10
3992.36203010237
 20
1718.13860577541
 30
0.0
 10
3992.36203010237
 20
1718.13860577541
 30
0.0
 10
3992.36203010237
 20
1718.13860577541
 30
0.0
 10
3992.36223316397
 20
1718.13982359421
 30
0.0
 10
3992.36223316397
 20
1718.13982359421
 30
0.0
 10
3992.36223316397
 20
1718.13982359421
 30
0.0
 10
3992.36223316397
 20
1718.13982359421
 30
0.0
 10
3992.36233469477
 20
1718.14073718781
 30
0.0
 10
3992.36233469477
 20
1718.14073718781
 30
0.0
 10
3992.36233469477
 20
1718.14073718781
 30
0.0
 10
3992.36233469477
 20
1718.14073718781
 30
0.0
 10
3992.36243604197
 20
1718.14185347581
 30
0.0
 10
3992.36243604197
 20
1718.14185347581
 30
0.0
 10
3992.36243604197
 20
1718.14185347581
 30
0.0
 10
3992.36243604197
 20
1718.14185347581
 30
0.0
 10
3992.36253775637
 20
1718.14205653741
 30
0.0
 10
3992.36253775637
 20
1718.14205653741
 30
0.0
 10
3992.36253775637
 20
1718.14205653741
 30
0.0
 10
3992.36253775637
 20
1718.14205653741
 30
0.0
 10
3992.36263910357
 20
1718.14246229341
 30
0.0
 10
3992.36263910357
 20
1718.14246229341
 30
0.0
 10
3992.36263910357
 20
1718.14246229341
 30
0.0
 10
3992.36263910357
 20
1718.14246229341
 30
0.0
 10
3992.36274063437
 20
1718.14266535501
 30
0.0
 10
3992.36274063437
 20
1718.14266535501
 30
0.0
 10
3992.36274063437
 20
1718.14266535501
 30
0.0
 10
3992.36274063437
 20
1718.14266535501
 30
0.0
 10
3992.36284216517
 20
1718.14276688581
 30
0.0
 10
3992.36284216517
 20
1718.14276688581
 30
0.0
  0
SPLINE
  5
116A
330
1F
100
AcDbEntity
  8
SANINDUSA
100
AcDbSpline
210
0.0
220
0.0
230
1.0
 70
    24
 71
     3
 72
     8
 73
     4
 74
     0
 42
0.0000000001
 43
0.0000000001
 40
0.0
 40
0.0
 40
0.0
 40
0.0
 40
1.0
 40
1.0
 40
1.0
 40
1.0
 10
3992.36355251357
 20
1718.151800005809
 30
0.0
 10
3992.36355251357
 20
1718.151800005809
 30
0.0
 10
3992.36375575877
 20
1718.151800005809
 30
0.0
 10
3992.36375575877
 20
1718.151800005809
 30
0.0
  0
SPLINE
  5
116B
330
1F
100
AcDbEntity
  8
SANINDUSA
100
AcDbSpline
210
0.0
220
0.0
230
1.0
 70
    24
 71
     3
 72
     8
 73
     4
 74
     0
 42
0.0000000001
 43
0.0000000001
 40
0.0
 40
0.0
 40
0.0
 40
0.0
 40
1.0
 40
1.0
 40
1.0
 40
1.0
 10
3992.30001663197
 20
1718.14682683261
 30
0.0
 10
3992.30001663197
 20
1718.14682683261
 30
0.0
 10
3992.30224957517
 20
1718.14276688581
 30
0.0
 10
3992.30224957517
 20
1718.14276688581
 30
0.0
  0
SPLINE
  5
116C
330
1F
100
AcDbEntity
  8
SANINDUSA
100
AcDbSpline
210
0.0
220
0.0
230
1.0
 70
     8
 71
     3
 72
    24
 73
    20
 74
     0
 42
0.0000000001
 43
0.0000000001
 40
0.0
 40
0.0
 40
0.0
 40
0.0
 40
0.2
 40
0.2
 40
0.2
 40
0.2
 40
0.4
 40
0.4
 40
0.4
 40
0.4
 40
0.6000000000000001
 40
0.6000000000000001
 40
0.6000000000000001
 40
0.6000000000000001
 40
0.8
 40
0.8
 40
0.8
 40
0.8
 40
1.0
 40
1.0
 40
1.0
 40
1.0
 10
3992.36466916877
 20
1718.14621783141
 30
0.0
 10
3992.36466916877
 20
1718.14621783141
 30
0.0
 10
3992.36446610717
 20
1718.14774024261
 30
0.0
 10
3992.36446610717
 20
1718.14774024261
 30
0.0
 10
3992.36446610717
 20
1718.14774024261
 30
0.0
 10
3992.36446610717
 20
1718.14774024261
 30
0.0
 10
3992.36416151477
 20
1718.14916112301
 30
0.0
 10
3992.36416151477
 20
1718.14916112301
 30
0.0
 10
3992.36416151477
 20
1718.14916112301
 30
0.0
 10
3992.36416151477
 20
1718.14916112301
 30
0.0
 10
3992.36385710597
 20
1718.15068353421
 30
0.0
 10
3992.36385710597
 20
1718.15068353421
 30
0.0
 10
3992.36385710597
 20
1718.15068353421
 30
0.0
 10
3992.36385710597
 20
1718.15068353421
 30
0.0
 10
3992.36355251357
 20
1718.15159694421
 30
0.0
 10
3992.36355251357
 20
1718.15159694421
 30
0.0
 10
3992.36355251357
 20
1718.15159694421
 30
0.0
 10
3992.36355251357
 20
1718.15159694421
 30
0.0
 10
3992.36355251357
 20
1718.151800005809
 30
0.0
 10
3992.36355251357
 20
1718.151800005809
 30
0.0
  0
SPLINE
  5
116F
330
1F
100
AcDbEntity
  8
SANINDUSA
100
AcDbSpline
210
0.0
220
0.0
230
1.0
 70
     8
 71
     3
 72
   148
 73
   144
 74
     0
 42
0.0000000001
 43
0.0000000001
 40
0.0
 40
0.0
 40
0.0
 40
0.0
 40
0.0277777777777778
 40
0.0277777777777778
 40
0.0277777777777778
 40
0.0277777777777778
 40
0.0555555555555556
 40
0.0555555555555556
 40
0.0555555555555556
 40
0.0555555555555556
 40
0.0833333333333333
 40
0.0833333333333333
 40
0.0833333333333333
 40
0.0833333333333333
 40
0.1111111111111111
 40
0.1111111111111111
 40
0.1111111111111111
 40
0.1111111111111111
 40
0.1388888888888889
 40
0.1388888888888889
 40
0.1388888888888889
 40
0.1388888888888889
 40
0.1666666666666667
 40
0.1666666666666667
 40
0.1666666666666667
 40
0.1666666666666667
 40
0.1944444444444444
 40
0.1944444444444444
 40
0.1944444444444444
 40
0.1944444444444444
 40
0.2222222222222223
 40
0.2222222222222223
 40
0.2222222222222223
 40
0.2222222222222223
 40
0.25
 40
0.25
 40
0.25
 40
0.25
 40
0.2777777777777779
 40
0.2777777777777779
 40
0.2777777777777779
 40
0.2777777777777779
 40
0.3055555555555556
 40
0.3055555555555556
 40
0.3055555555555556
 40
0.3055555555555556
 40
0.3333333333333334
 40
0.3333333333333334
 40
0.3333333333333334
 40
0.3333333333333334
 40
0.3611111111111112
 40
0.3611111111111112
 40
0.3611111111111112
 40
0.3611111111111112
 40
0.388888888888889
 40
0.388888888888889
 40
0.388888888888889
 40
0.388888888888889
 40
0.4166666666666668
 40
0.4166666666666668
 40
0.4166666666666668
 40
0.4166666666666668
 40
0.4444444444444446
 40
0.4444444444444446
 40
0.4444444444444446
 40
0.4444444444444446
 40
0.4722222222222224
 40
0.4722222222222224
 40
0.4722222222222224
 40
0.4722222222222224
 40
0.5000000000000001
 40
0.5000000000000001
 40
0.5000000000000001
 40
0.5000000000000001
 40
0.5277777777777779
 40
0.5277777777777779
 40
0.5277777777777779
 40
0.5277777777777779
 40
0.5555555555555558
 40
0.5555555555555558
 40
0.5555555555555558
 40
0.5555555555555558
 40
0.5833333333333335
 40
0.5833333333333335
 40
0.5833333333333335
 40
0.5833333333333335
 40
0.6111111111111113
 40
0.6111111111111113
 40
0.6111111111111113
 40
0.6111111111111113
 40
0.6388888888888891
 40
0.6388888888888891
 40
0.6388888888888891
 40
0.6388888888888891
 40
0.6666666666666669
 40
0.6666666666666669
 40
0.6666666666666669
 40
0.6666666666666669
 40
0.6944444444444447
 40
0.6944444444444447
 40
0.6944444444444447
 40
0.6944444444444447
 40
0.7222222222222224
 40
0.7222222222222224
 40
0.7222222222222224
 40
0.7222222222222224
 40
0.7500000000000002
 40
0.7500000000000002
 40
0.7500000000000002
 40
0.7500000000000002
 40
0.7777777777777781
 40
0.7777777777777781
 40
0.7777777777777781
 40
0.7777777777777781
 40
0.8055555555555557
 40
0.8055555555555557
 40
0.8055555555555557
 40
0.8055555555555557
 40
0.8333333333333335
 40
0.8333333333333335
 40
0.8333333333333335
 40
0.8333333333333335
 40
0.8611111111111114
 40
0.8611111111111114
 40
0.8611111111111114
 40
0.8611111111111114
 40
0.8888888888888891
 40
0.8888888888888891
 40
0.8888888888888891
 40
0.8888888888888891
 40
0.9166666666666669
 40
0.9166666666666669
 40
0.9166666666666669
 40
0.9166666666666669
 40
0.9444444444444448
 40
0.9444444444444448
 40
0.9444444444444448
 40
0.9444444444444448
 40
0.9722222222222224
 40
0.9722222222222224
 40
0.9722222222222224
 40
0.9722222222222224
 40
1.0
 40
1.0
 40
1.0
 40
1.0
 10
3992.30752734077
 20
1718.03629871461
 30
0.0
 10
3992.30752734077
 20
1718.03629871461
 30
0.0
 10
3992.30701968677
 20
1718.05294370701
 30
0.0
 10
3992.30701968677
 20
1718.05294370701
 30
0.0
 10
3992.30701968677
 20
1718.05294370701
 30
0.0
 10
3992.30701968677
 20
1718.05294370701
 30
0.0
 10
3992.30691833957
 20
1718.05862759581
 30
0.0
 10
3992.30691833957
 20
1718.05862759581
 30
0.0
 10
3992.30691833957
 20
1718.05862759581
 30
0.0
 10
3992.30691833957
 20
1718.05862759581
 30
0.0
 10
3992.30681699237
 20
1718.06055576301
 30
0.0
 10
3992.30681699237
 20
1718.06055576301
 30
0.0
 10
3992.30681699237
 20
1718.06055576301
 30
0.0
 10
3992.30681699237
 20
1718.06055576301
 30
0.0
 10
3992.306715277969
 20
1718.06451417901
 30
0.0
 10
3992.306715277969
 20
1718.06451417901
 30
0.0
 10
3992.306715277969
 20
1718.06451417901
 30
0.0
 10
3992.306715277969
 20
1718.06451417901
 30
0.0
 10
3992.30661393077
 20
1718.066645591409
 30
0.0
 10
3992.30661393077
 20
1718.066645591409
 30
0.0
 10
3992.30661393077
 20
1718.066645591409
 30
0.0
 10
3992.30661393077
 20
1718.066645591409
 30
0.0
 10
3992.30651239997
 20
1718.07100994701
 30
0.0
 10
3992.30651239997
 20
1718.07100994701
 30
0.0
 10
3992.30651239997
 20
1718.07100994701
 30
0.0
 10
3992.30651239997
 20
1718.07100994701
 30
0.0
 10
3992.30641086917
 20
1718.07324270661
 30
0.0
 10
3992.30641086917
 20
1718.07324270661
 30
0.0
 10
3992.30641086917
 20
1718.07324270661
 30
0.0
 10
3992.30641086917
 20
1718.07324270661
 30
0.0
 10
3992.30620799117
 20
1718.07801318541
 30
0.0
 10
3992.30620799117
 20
1718.07801318541
 30
0.0
 10
3992.30620799117
 20
1718.07801318541
 30
0.0
 10
3992.30620799117
 20
1718.07801318541
 30
0.0
 10
3992.30600492957
 20
1718.08278329701
 30
0.0
 10
3992.30600492957
 20
1718.08278329701
 30
0.0
 10
3992.30600492957
 20
1718.08278329701
 30
0.0
 10
3992.30600492957
 20
1718.08278329701
 30
0.0
 10
3992.30600492957
 20
1718.08521911821
 30
0.0
 10
3992.30600492957
 20
1718.08521911821
 30
0.0
 10
3992.30600492957
 20
1718.08521911821
 30
0.0
 10
3992.30600492957
 20
1718.08521911821
 30
0.0
 10
3992.30580186797
 20
1718.08887294181
 30
0.0
 10
3992.30580186797
 20
1718.08887294181
 30
0.0
 10
3992.30580186797
 20
1718.08887294181
 30
0.0
 10
3992.30580186797
 20
1718.08887294181
 30
0.0
 10
3992.30559898997
 20
1718.092526765409
 30
0.0
 10
3992.30559898997
 20
1718.092526765409
 30
0.0
 10
3992.30559898997
 20
1718.092526765409
 30
0.0
 10
3992.30559898997
 20
1718.092526765409
 30
0.0
 10
3992.30549727557
 20
1718.096180589009
 30
0.0
 10
3992.30549727557
 20
1718.096180589009
 30
0.0
 10
3992.30549727557
 20
1718.096180589009
 30
0.0
 10
3992.30549727557
 20
1718.096180589009
 30
0.0
 10
3992.30529458117
 20
1718.099733065409
 30
0.0
 10
3992.30529458117
 20
1718.099733065409
 30
0.0
 10
3992.30529458117
 20
1718.099733065409
 30
0.0
 10
3992.30529458117
 20
1718.099733065409
 30
0.0
 10
3992.30519286677
 20
1718.10206753941
 30
0.0
 10
3992.30519286677
 20
1718.10206753941
 30
0.0
 10
3992.30519286677
 20
1718.10206753941
 30
0.0
 10
3992.30519286677
 20
1718.10206753941
 30
0.0
 10
3992.304989988769
 20
1718.10663477301
 30
0.0
 10
3992.304989988769
 20
1718.10663477301
 30
0.0
 10
3992.304989988769
 20
1718.10663477301
 30
0.0
 10
3992.304989988769
 20
1718.10663477301
 30
0.0
 10
3992.30478692717
 20
1718.110998945009
 30
0.0
 10
3992.30478692717
 20
1718.110998945009
 30
0.0
 10
3992.30478692717
 20
1718.110998945009
 30
0.0
 10
3992.30478692717
 20
1718.110998945009
 30
0.0
 10
3992.30468557997
 20
1718.11302901021
 30
0.0
 10
3992.30468557997
 20
1718.11302901021
 30
0.0
 10
3992.30468557997
 20
1718.11302901021
 30
0.0
 10
3992.30468557997
 20
1718.11302901021
 30
0.0
 10
3992.30458386557
 20
1718.11505870821
 30
0.0
 10
3992.30458386557
 20
1718.11505870821
 30
0.0
 10
3992.30458386557
 20
1718.11505870821
 30
0.0
 10
3992.30458386557
 20
1718.11505870821
 30
0.0
 10
3992.30448251837
 20
1718.11708858981
 30
0.0
 10
3992.30448251837
 20
1718.11708858981
 30
0.0
 10
3992.30448251837
 20
1718.11708858981
 30
0.0
 10
3992.30448251837
 20
1718.11708858981
 30
0.0
 10
3992.304380987569
 20
1718.11911865501
 30
0.0
 10
3992.304380987569
 20
1718.11911865501
 30
0.0
 10
3992.304380987569
 20
1718.11911865501
 30
0.0
 10
3992.304380987569
 20
1718.11911865501
 30
0.0
 10
3992.30407657877
 20
1718.12287382581
 30
0.0
 10
3992.30407657877
 20
1718.12287382581
 30
0.0
 10
3992.30407657877
 20
1718.12287382581
 30
0.0
 10
3992.30407657877
 20
1718.12287382581
 30
0.0
 10
3992.303873517169
 20
1718.12652764941
 30
0.0
 10
3992.303873517169
 20
1718.12652764941
 30
0.0
 10
3992.303873517169
 20
1718.12652764941
 30
0.0
 10
3992.303873517169
 20
1718.12652764941
 30
0.0
 10
3992.30377198637
 20
1718.12896365421
 30
0.0
 10
3992.30377198637
 20
1718.12896365421
 30
0.0
 10
3992.30377198637
 20
1718.12896365421
 30
0.0
 10
3992.30377198637
 20
1718.12896365421
 30
0.0
 10
3992.30356892477
 20
1718.13129812821
 30
0.0
 10
3992.30356892477
 20
1718.13129812821
 30
0.0
 10
3992.30356892477
 20
1718.13129812821
 30
0.0
 10
3992.30356892477
 20
1718.13129812821
 30
0.0
 10
3992.30346757757
 20
1718.13282053941
 30
0.0
 10
3992.30346757757
 20
1718.13282053941
 30
0.0
 10
3992.30346757757
 20
1718.13282053941
 30
0.0
 10
3992.30346757757
 20
1718.13282053941
 30
0.0
 10
3992.30326451597
 20
1718.13535770781
 30
0.0
 10
3992.30326451597
 20
1718.13535770781
 30
0.0
 10
3992.30326451597
 20
1718.13535770781
 30
0.0
 10
3992.30326451597
 20
1718.13535770781
 30
0.0
 10
3992.30306145437
 20
1718.13759065101
 30
0.0
 10
3992.30306145437
 20
1718.13759065101
 30
0.0
 10
3992.30306145437
 20
1718.13759065101
 30
0.0
 10
3992.30306145437
 20
1718.13759065101
 30
0.0
 10
3992.30296010717
 20
1718.13860577541
 30
0.0
 10
3992.30296010717
 20
1718.13860577541
 30
0.0
 10
3992.30296010717
 20
1718.13860577541
 30
0.0
 10
3992.30296010717
 20
1718.13860577541
 30
0.0
 10
3992.302858576369
 20
1718.13982359421
 30
0.0
 10
3992.302858576369
 20
1718.13982359421
 30
0.0
 10
3992.302858576369
 20
1718.13982359421
 30
0.0
 10
3992.302858576369
 20
1718.13982359421
 30
0.0
 10
3992.30275704557
 20
1718.14073718781
 30
0.0
 10
3992.30275704557
 20
1718.14073718781
 30
0.0
 10
3992.30275704557
 20
1718.14073718781
 30
0.0
 10
3992.30275704557
 20
1718.14073718781
 30
0.0
 10
3992.30255416757
 20
1718.14185347581
 30
0.0
 10
3992.30255416757
 20
1718.14185347581
 30
0.0
 10
3992.30255416757
 20
1718.14185347581
 30
0.0
 10
3992.30255416757
 20
1718.14185347581
 30
0.0
 10
3992.30255416757
 20
1718.14205653741
 30
0.0
 10
3992.30255416757
 20
1718.14205653741
 30
0.0
 10
3992.30255416757
 20
1718.14205653741
 30
0.0
 10
3992.30255416757
 20
1718.14205653741
 30
0.0
 10
3992.30235110597
 20
1718.14246229341
 30
0.0
 10
3992.30235110597
 20
1718.14246229341
 30
0.0
 10
3992.30235110597
 20
1718.14246229341
 30
0.0
 10
3992.30235110597
 20
1718.14246229341
 30
0.0
 10
3992.30235110597
 20
1718.14266535501
 30
0.0
 10
3992.30235110597
 20
1718.14266535501
 30
0.0
 10
3992.30235110597
 20
1718.14266535501
 30
0.0
 10
3992.30235110597
 20
1718.14266535501
 30
0.0
 10
3992.30224957517
 20
1718.14276688581
 30
0.0
 10
3992.30224957517
 20
1718.14276688581
 30
0.0
  0
SPLINE
  5
1170
330
1F
100
AcDbEntity
  8
SANINDUSA
100
AcDbSpline
210
0.0
220
0.0
230
1.0
 70
    24
 71
     3
 72
     8
 73
     4
 74
     0
 42
0.0000000001
 43
0.0000000001
 40
0.0
 40
0.0
 40
0.0
 40
0.0
 40
1.0
 40
1.0
 40
1.0
 40
1.0
 10
3992.30752734077
 20
1718.03629871461
 30
0.0
 10
3992.30752734077
 20
1718.03629871461
 30
0.0
 10
3992.30752734077
 20
1718.03619700021
 30
0.0
 10
3992.30752734077
 20
1718.03619700021
 30
0.0
  0
SPLINE
  5
1172
330
1F
100
AcDbEntity
  8
SANINDUSA
100
AcDbSpline
210
0.0
220
0.0
230
1.0
 70
     8
 71
     3
 72
   292
 73
   288
 74
     0
 42
0.0000000001
 43
0.0000000001
 40
0.0
 40
0.0
 40
0.0
 40
0.0
 40
0.0138888888888889
 40
0.0138888888888889
 40
0.0138888888888889
 40
0.0138888888888889
 40
0.0277777777777778
 40
0.0277777777777778
 40
0.0277777777777778
 40
0.0277777777777778
 40
0.0416666666666667
 40
0.0416666666666667
 40
0.0416666666666667
 40
0.0416666666666667
 40
0.0555555555555556
 40
0.0555555555555556
 40
0.0555555555555556
 40
0.0555555555555556
 40
0.0694444444444445
 40
0.0694444444444445
 40
0.0694444444444445
 40
0.0694444444444445
 40
0.0833333333333334
 40
0.0833333333333334
 40
0.0833333333333334
 40
0.0833333333333334
 40
0.0972222222222223
 40
0.0972222222222223
 40
0.0972222222222223
 40
0.0972222222222223
 40
0.1111111111111111
 40
0.1111111111111111
 40
0.1111111111111111
 40
0.1111111111111111
 40
0.125
 40
0.125
 40
0.125
 40
0.125
 40
0.1388888888888889
 40
0.1388888888888889
 40
0.1388888888888889
 40
0.1388888888888889
 40
0.1527777777777778
 40
0.1527777777777778
 40
0.1527777777777778
 40
0.1527777777777778
 40
0.1666666666666667
 40
0.1666666666666667
 40
0.1666666666666667
 40
0.1666666666666667
 40
0.1805555555555556
 40
0.1805555555555556
 40
0.1805555555555556
 40
0.1805555555555556
 40
0.1944444444444445
 40
0.1944444444444445
 40
0.1944444444444445
 40
0.1944444444444445
 40
0.2083333333333334
 40
0.2083333333333334
 40
0.2083333333333334
 40
0.2083333333333334
 40
0.2222222222222223
 40
0.2222222222222223
 40
0.2222222222222223
 40
0.2222222222222223
 40
0.2361111111111112
 40
0.2361111111111112
 40
0.2361111111111112
 40
0.2361111111111112
 40
0.25
 40
0.25
 40
0.25
 40
0.25
 40
0.2638888888888889
 40
0.2638888888888889
 40
0.2638888888888889
 40
0.2638888888888889
 40
0.2777777777777779
 40
0.2777777777777779
 40
0.2777777777777779
 40
0.2777777777777779
 40
0.2916666666666667
 40
0.2916666666666667
 40
0.2916666666666667
 40
0.2916666666666667
 40
0.3055555555555556
 40
0.3055555555555556
 40
0.3055555555555556
 40
0.3055555555555556
 40
0.3194444444444445
 40
0.3194444444444445
 40
0.3194444444444445
 40
0.3194444444444445
 40
0.3333333333333334
 40
0.3333333333333334
 40
0.3333333333333334
 40
0.3333333333333334
 40
0.3472222222222223
 40
0.3472222222222223
 40
0.3472222222222223
 40
0.3472222222222223
 40
0.3611111111111112
 40
0.3611111111111112
 40
0.3611111111111112
 40
0.3611111111111112
 40
0.3750000000000001
 40
0.3750000000000001
 40
0.3750000000000001
 40
0.3750000000000001
 40
0.388888888888889
 40
0.388888888888889
 40
0.388888888888889
 40
0.388888888888889
 40
0.4027777777777779
 40
0.4027777777777779
 40
0.4027777777777779
 40
0.4027777777777779
 40
0.4166666666666668
 40
0.4166666666666668
 40
0.4166666666666668
 40
0.4166666666666668
 40
0.4305555555555558
 40
0.4305555555555558
 40
0.4305555555555558
 40
0.4305555555555558
 40
0.4444444444444446
 40
0.4444444444444446
 40
0.4444444444444446
 40
0.4444444444444446
 40
0.4583333333333335
 40
0.4583333333333335
 40
0.4583333333333335
 40
0.4583333333333335
 40
0.4722222222222224
 40
0.4722222222222224
 40
0.4722222222222224
 40
0.4722222222222224
 40
0.4861111111111113
 40
0.4861111111111113
 40
0.4861111111111113
 40
0.4861111111111113
 40
0.5000000000000001
 40
0.5000000000000001
 40
0.5000000000000001
 40
0.5000000000000001
 40
0.513888888888889
 40
0.513888888888889
 40
0.513888888888889
 40
0.513888888888889
 40
0.5277777777777778
 40
0.5277777777777778
 40
0.5277777777777778
 40
0.5277777777777778
 40
0.5416666666666666
 40
0.5416666666666666
 40
0.5416666666666666
 40
0.5416666666666666
 40
0.5555555555555555
 40
0.5555555555555555
 40
0.5555555555555555
 40
0.5555555555555555
 40
0.5694444444444443
 40
0.5694444444444443
 40
0.5694444444444443
 40
0.5694444444444443
 40
0.5833333333333332
 40
0.5833333333333332
 40
0.5833333333333332
 40
0.5833333333333332
 40
0.597222222222222
 40
0.597222222222222
 40
0.597222222222222
 40
0.597222222222222
 40
0.6111111111111108
 40
0.6111111111111108
 40
0.6111111111111108
 40
0.6111111111111108
 40
0.6249999999999997
 40
0.6249999999999997
 40
0.6249999999999997
 40
0.6249999999999997
 40
0.6388888888888885
 40
0.6388888888888885
 40
0.6388888888888885
 40
0.6388888888888885
 40
0.6527777777777774
 40
0.6527777777777774
 40
0.6527777777777774
 40
0.6527777777777774
 40
0.6666666666666662
 40
0.6666666666666662
 40
0.6666666666666662
 40
0.6666666666666662
 40
0.680555555555555
 40
0.680555555555555
 40
0.680555555555555
 40
0.680555555555555
 40
0.6944444444444439
 40
0.6944444444444439
 40
0.6944444444444439
 40
0.6944444444444439
 40
0.7083333333333327
 40
0.7083333333333327
 40
0.7083333333333327
 40
0.7083333333333327
 40
0.7222222222222216
 40
0.7222222222222216
 40
0.7222222222222216
 40
0.7222222222222216
 40
0.7361111111111104
 40
0.7361111111111104
 40
0.7361111111111104
 40
0.7361111111111104
 40
0.7499999999999992
 40
0.7499999999999992
 40
0.7499999999999992
 40
0.7499999999999992
 40
0.7638888888888881
 40
0.7638888888888881
 40
0.7638888888888881
 40
0.7638888888888881
 40
0.7777777777777769
 40
0.7777777777777769
 40
0.7777777777777769
 40
0.7777777777777769
 40
0.7916666666666658
 40
0.7916666666666658
 40
0.7916666666666658
 40
0.7916666666666658
 40
0.8055555555555546
 40
0.8055555555555546
 40
0.8055555555555546
 40
0.8055555555555546
 40
0.8194444444444433
 40
0.8194444444444433
 40
0.8194444444444433
 40
0.8194444444444433
 40
0.8333333333333323
 40
0.8333333333333323
 40
0.8333333333333323
 40
0.8333333333333323
 40
0.847222222222221
 40
0.847222222222221
 40
0.847222222222221
 40
0.847222222222221
 40
0.86111111111111
 40
0.86111111111111
 40
0.86111111111111
 40
0.86111111111111
 40
0.8749999999999987
 40
0.8749999999999987
 40
0.8749999999999987
 40
0.8749999999999987
 40
0.8888888888888876
 40
0.8888888888888876
 40
0.8888888888888876
 40
0.8888888888888876
 40
0.9027777777777764
 40
0.9027777777777764
 40
0.9027777777777764
 40
0.9027777777777764
 40
0.9166666666666653
 40
0.9166666666666653
 40
0.9166666666666653
 40
0.9166666666666653
 40
0.9305555555555541
 40
0.9305555555555541
 40
0.9305555555555541
 40
0.9305555555555541
 40
0.944444444444443
 40
0.944444444444443
 40
0.944444444444443
 40
0.944444444444443
 40
0.9583333333333317
 40
0.9583333333333317
 40
0.9583333333333317
 40
0.9583333333333317
 40
0.9722222222222207
 40
0.9722222222222207
 40
0.9722222222222207
 40
0.9722222222222207
 40
0.9861111111111094
 40
0.9861111111111094
 40
0.9861111111111094
 40
0.9861111111111094
 40
1.0
 40
1.0
 40
1.0
 40
1.0
 10
3992.35756439957
 20
1718.03619700021
 30
0.0
 10
3992.35756439957
 20
1718.03619700021
 30
0.0
 10
3992.35746286877
 20
1718.035182059409
 30
0.0
 10
3992.35746286877
 20
1718.035182059409
 30
0.0
 10
3992.35746286877
 20
1718.035182059409
 30
0.0
 10
3992.35746286877
 20
1718.035182059409
 30
0.0
 10
3992.35725980717
 20
1718.03416730221
 30
0.0
 10
3992.35725980717
 20
1718.03416730221
 30
0.0
 10
3992.35725980717
 20
1718.03416730221
 30
0.0
 10
3992.35725980717
 20
1718.03416730221
 30
0.0
 10
3992.35695539837
 20
1718.03315217781
 30
0.0
 10
3992.35695539837
 20
1718.03315217781
 30
0.0
 10
3992.35695539837
 20
1718.03315217781
 30
0.0
 10
3992.35695539837
 20
1718.03315217781
 30
0.0
 10
3992.35675252037
 20
1718.03213723701
 30
0.0
 10
3992.35675252037
 20
1718.03213723701
 30
0.0
 10
3992.35675252037
 20
1718.03213723701
 30
0.0
 10
3992.35675252037
 20
1718.03213723701
 30
0.0
 10
3992.356346397169
 20
1718.031122479809
 30
0.0
 10
3992.356346397169
 20
1718.031122479809
 30
0.0
 10
3992.356346397169
 20
1718.031122479809
 30
0.0
 10
3992.356346397169
 20
1718.031122479809
 30
0.0
 10
3992.35594045757
 20
1718.03020888621
 30
0.0
 10
3992.35594045757
 20
1718.03020888621
 30
0.0
 10
3992.35594045757
 20
1718.03020888621
 30
0.0
 10
3992.35594045757
 20
1718.03020888621
 30
0.0
 10
3992.35553451797
 20
1718.02919376181
 30
0.0
 10
3992.35553451797
 20
1718.02919376181
 30
0.0
 10
3992.35553451797
 20
1718.02919376181
 30
0.0
 10
3992.35553451797
 20
1718.02919376181
 30
0.0
 10
3992.35502704757
 20
1718.02828035181
 30
0.0
 10
3992.35502704757
 20
1718.02828035181
 30
0.0
 10
3992.35502704757
 20
1718.02828035181
 30
0.0
 10
3992.35502704757
 20
1718.02828035181
 30
0.0
 10
3992.35451939357
 20
1718.02736694181
 30
0.0
 10
3992.35451939357
 20
1718.02736694181
 30
0.0
 10
3992.35451939357
 20
1718.02736694181
 30
0.0
 10
3992.35451939357
 20
1718.02736694181
 30
0.0
 10
3992.354012106769
 20
1718.02645353181
 30
0.0
 10
3992.354012106769
 20
1718.02645353181
 30
0.0
 10
3992.354012106769
 20
1718.02645353181
 30
0.0
 10
3992.354012106769
 20
1718.02645353181
 30
0.0
 10
3992.35340310557
 20
1718.02553993821
 30
0.0
 10
3992.35340310557
 20
1718.02553993821
 30
0.0
 10
3992.35340310557
 20
1718.02553993821
 30
0.0
 10
3992.35340310557
 20
1718.02553993821
 30
0.0
 10
3992.35269257357
 20
1718.02472824261
 30
0.0
 10
3992.35269257357
 20
1718.02472824261
 30
0.0
 10
3992.35269257357
 20
1718.02472824261
 30
0.0
 10
3992.35269257357
 20
1718.02472824261
 30
0.0
 10
3992.35198222517
 20
1718.02391617981
 30
0.0
 10
3992.35198222517
 20
1718.02391617981
 30
0.0
 10
3992.35198222517
 20
1718.02391617981
 30
0.0
 10
3992.35198222517
 20
1718.02391617981
 30
0.0
 10
3992.35127169317
 20
1718.02310411701
 30
0.0
 10
3992.35127169317
 20
1718.02310411701
 30
0.0
 10
3992.35127169317
 20
1718.02310411701
 30
0.0
 10
3992.35127169317
 20
1718.02310411701
 30
0.0
 10
3992.35045981397
 20
1718.022292421409
 30
0.0
 10
3992.35045981397
 20
1718.022292421409
 30
0.0
 10
3992.35045981397
 20
1718.022292421409
 30
0.0
 10
3992.35045981397
 20
1718.022292421409
 30
0.0
 10
3992.34964775117
 20
1718.02158170581
 30
0.0
 10
3992.34964775117
 20
1718.02158170581
 30
0.0
 10
3992.34964775117
 20
1718.02158170581
 30
0.0
 10
3992.34964775117
 20
1718.02158170581
 30
0.0
 10
3992.34883587197
 20
1718.02087135741
 30
0.0
 10
3992.34883587197
 20
1718.02087135741
 30
0.0
 10
3992.34883587197
 20
1718.02087135741
 30
0.0
 10
3992.34883587197
 20
1718.02087135741
 30
0.0
 10
3992.34792246197
 20
1718.020161009009
 30
0.0
 10
3992.34792246197
 20
1718.020161009009
 30
0.0
 10
3992.34792246197
 20
1718.020161009009
 30
0.0
 10
3992.34792246197
 20
1718.020161009009
 30
0.0
 10
3992.34700905197
 20
1718.01955200781
 30
0.0
 10
3992.34700905197
 20
1718.01955200781
 30
0.0
 10
3992.34700905197
 20
1718.01955200781
 30
0.0
 10
3992.34700905197
 20
1718.01955200781
 30
0.0
 10
3992.346095458369
 20
1718.018943006609
 30
0.0
 10
3992.346095458369
 20
1718.018943006609
 30
0.0
 10
3992.346095458369
 20
1718.018943006609
 30
0.0
 10
3992.346095458369
 20
1718.018943006609
 30
0.0
 10
3992.34508033397
 20
1718.01843553621
 30
0.0
 10
3992.34508033397
 20
1718.01843553621
 30
0.0
 10
3992.34508033397
 20
1718.01843553621
 30
0.0
 10
3992.34508033397
 20
1718.01843553621
 30
0.0
 10
3992.34406557677
 20
1718.01792788221
 30
0.0
 10
3992.34406557677
 20
1718.01792788221
 30
0.0
 10
3992.34406557677
 20
1718.01792788221
 30
0.0
 10
3992.34406557677
 20
1718.01792788221
 30
0.0
 10
3992.34305063597
 20
1718.01742059541
 30
0.0
 10
3992.34305063597
 20
1718.01742059541
 30
0.0
 10
3992.34305063597
 20
1718.01742059541
 30
0.0
 10
3992.34305063597
 20
1718.01742059541
 30
0.0
 10
3992.342035511569
 20
1718.017014472209
 30
0.0
 10
3992.342035511569
 20
1718.017014472209
 30
0.0
 10
3992.342035511569
 20
1718.017014472209
 30
0.0
 10
3992.342035511569
 20
1718.017014472209
 30
0.0
 10
3992.34112210157
 20
1718.01670987981
 30
0.0
 10
3992.34112210157
 20
1718.01670987981
 30
0.0
 10
3992.34112210157
 20
1718.01670987981
 30
0.0
 10
3992.34112210157
 20
1718.01670987981
 30
0.0
 10
3992.34031022237
 20
1718.01640547101
 30
0.0
 10
3992.34031022237
 20
1718.01640547101
 30
0.0
 10
3992.34031022237
 20
1718.01640547101
 30
0.0
 10
3992.34031022237
 20
1718.01640547101
 30
0.0
 10
3992.33939681237
 20
1718.01620259301
 30
0.0
 10
3992.33939681237
 20
1718.01620259301
 30
0.0
 10
3992.33939681237
 20
1718.01620259301
 30
0.0
 10
3992.33939681237
 20
1718.01620259301
 30
0.0
 10
3992.338483402369
 20
1718.01599953141
 30
0.0
 10
3992.338483402369
 20
1718.01599953141
 30
0.0
 10
3992.338483402369
 20
1718.01599953141
 30
0.0
 10
3992.338483402369
 20
1718.01599953141
 30
0.0
 10
3992.33756999237
 20
1718.01579646981
 30
0.0
 10
3992.33756999237
 20
1718.01579646981
 30
0.0
 10
3992.33756999237
 20
1718.01579646981
 30
0.0
 10
3992.33756999237
 20
1718.01579646981
 30
0.0
 10
3992.33665639877
 20
1718.015593591809
 30
0.0
 10
3992.33665639877
 20
1718.015593591809
 30
0.0
 10
3992.33665639877
 20
1718.015593591809
 30
0.0
 10
3992.33665639877
 20
1718.015593591809
 30
0.0
 10
3992.33574298877
 20
1718.01549206101
 30
0.0
 10
3992.33574298877
 20
1718.01549206101
 30
0.0
 10
3992.33574298877
 20
1718.01549206101
 30
0.0
 10
3992.33574298877
 20
1718.01549206101
 30
0.0
 10
3992.33482957877
 20
1718.01539053021
 30
0.0
 10
3992.33482957877
 20
1718.01539053021
 30
0.0
 10
3992.33482957877
 20
1718.01539053021
 30
0.0
 10
3992.33482957877
 20
1718.01539053021
 30
0.0
 10
3992.33391616877
 20
1718.01528918301
 30
0.0
 10
3992.33391616877
 20
1718.01528918301
 30
0.0
 10
3992.33391616877
 20
1718.01528918301
 30
0.0
 10
3992.33391616877
 20
1718.01528918301
 30
0.0
 10
3992.33117575517
 20
1718.01528918301
 30
0.0
 10
3992.33117575517
 20
1718.01528918301
 30
0.0
 10
3992.33117575517
 20
1718.01528918301
 30
0.0
 10
3992.33117575517
 20
1718.01528918301
 30
0.0
 10
3992.33026234517
 20
1718.01539053021
 30
0.0
 10
3992.33026234517
 20
1718.01539053021
 30
0.0
 10
3992.33026234517
 20
1718.01539053021
 30
0.0
 10
3992.33026234517
 20
1718.01539053021
 30
0.0
 10
3992.32934875157
 20
1718.01549206101
 30
0.0
 10
3992.32934875157
 20
1718.01549206101
 30
0.0
 10
3992.32934875157
 20
1718.01549206101
 30
0.0
 10
3992.32934875157
 20
1718.01549206101
 30
0.0
 10
3992.328435341569
 20
1718.015593591809
 30
0.0
 10
3992.328435341569
 20
1718.015593591809
 30
0.0
 10
3992.328435341569
 20
1718.015593591809
 30
0.0
 10
3992.328435341569
 20
1718.015593591809
 30
0.0
 10
3992.32762327877
 20
1718.01569512261
 30
0.0
 10
3992.32762327877
 20
1718.01569512261
 30
0.0
 10
3992.32762327877
 20
1718.01569512261
 30
0.0
 10
3992.32762327877
 20
1718.01569512261
 30
0.0
 10
3992.32670986877
 20
1718.01589818421
 30
0.0
 10
3992.32670986877
 20
1718.01589818421
 30
0.0
 10
3992.32670986877
 20
1718.01589818421
 30
0.0
 10
3992.32670986877
 20
1718.01589818421
 30
0.0
 10
3992.32579645877
 20
1718.016101062209
 30
0.0
 10
3992.32579645877
 20
1718.016101062209
 30
0.0
 10
3992.32579645877
 20
1718.016101062209
 30
0.0
 10
3992.32579645877
 20
1718.016101062209
 30
0.0
 10
3992.32488304877
 20
1718.01640547101
 30
0.0
 10
3992.32488304877
 20
1718.01640547101
 30
0.0
 10
3992.32488304877
 20
1718.01640547101
 30
0.0
 10
3992.32488304877
 20
1718.01640547101
 30
0.0
 10
3992.32407098597
 20
1718.01670987981
 30
0.0
 10
3992.32407098597
 20
1718.01670987981
 30
0.0
 10
3992.32407098597
 20
1718.01670987981
 30
0.0
 10
3992.32407098597
 20
1718.01670987981
 30
0.0
 10
3992.32315739237
 20
1718.017014472209
 30
0.0
 10
3992.32315739237
 20
1718.017014472209
 30
0.0
 10
3992.32315739237
 20
1718.017014472209
 30
0.0
 10
3992.32315739237
 20
1718.017014472209
 30
0.0
 10
3992.32234569677
 20
1718.01731888101
 30
0.0
 10
3992.32234569677
 20
1718.01731888101
 30
0.0
 10
3992.32234569677
 20
1718.01731888101
 30
0.0
 10
3992.32234569677
 20
1718.01731888101
 30
0.0
 10
3992.321533633969
 20
1718.01772500421
 30
0.0
 10
3992.321533633969
 20
1718.01772500421
 30
0.0
 10
3992.321533633969
 20
1718.01772500421
 30
0.0
 10
3992.321533633969
 20
1718.01772500421
 30
0.0
 10
3992.32062022397
 20
1718.018029596609
 30
0.0
 10
3992.32062022397
 20
1718.018029596609
 30
0.0
 10
3992.32062022397
 20
1718.018029596609
 30
0.0
 10
3992.32062022397
 20
1718.018029596609
 30
0.0
 10
3992.31990987557
 20
1718.01853688341
 30
0.0
 10
3992.31990987557
 20
1718.01853688341
 30
0.0
 10
3992.31990987557
 20
1718.01853688341
 30
0.0
 10
3992.31990987557
 20
1718.01853688341
 30
0.0
 10
3992.31909781277
 20
1718.018943006609
 30
0.0
 10
3992.31909781277
 20
1718.018943006609
 30
0.0
 10
3992.31909781277
 20
1718.018943006609
 30
0.0
 10
3992.31909781277
 20
1718.018943006609
 30
0.0
 10
3992.31828574997
 20
1718.01945029341
 30
0.0
 10
3992.31828574997
 20
1718.01945029341
 30
0.0
 10
3992.31828574997
 20
1718.01945029341
 30
0.0
 10
3992.31828574997
 20
1718.01945029341
 30
0.0
 10
3992.31757540157
 20
1718.01995794741
 30
0.0
 10
3992.31757540157
 20
1718.01995794741
 30
0.0
 10
3992.31757540157
 20
1718.01995794741
 30
0.0
 10
3992.31757540157
 20
1718.01995794741
 30
0.0
 10
3992.31676333877
 20
1718.02046541781
 30
0.0
 10
3992.31676333877
 20
1718.02046541781
 30
0.0
 10
3992.31676333877
 20
1718.02046541781
 30
0.0
 10
3992.31676333877
 20
1718.02046541781
 30
0.0
 10
3992.31605280677
 20
1718.02097270461
 30
0.0
 10
3992.31605280677
 20
1718.02097270461
 30
0.0
 10
3992.31605280677
 20
1718.02097270461
 30
0.0
 10
3992.31605280677
 20
1718.02097270461
 30
0.0
 10
3992.31544398917
 20
1718.02158170581
 30
0.0
 10
3992.31544398917
 20
1718.02158170581
 30
0.0
 10
3992.31544398917
 20
1718.02158170581
 30
0.0
 10
3992.31544398917
 20
1718.02158170581
 30
0.0
 10
3992.31473345717
 20
1718.02219070701
 30
0.0
 10
3992.31473345717
 20
1718.02219070701
 30
0.0
 10
3992.31473345717
 20
1718.02219070701
 30
0.0
 10
3992.31473345717
 20
1718.02219070701
 30
0.0
 10
3992.31412463957
 20
1718.02279970821
 30
0.0
 10
3992.31412463957
 20
1718.02279970821
 30
0.0
 10
3992.31412463957
 20
1718.02279970821
 30
0.0
 10
3992.31412463957
 20
1718.02279970821
 30
0.0
 10
3992.31341392397
 20
1718.02340870941
 30
0.0
 10
3992.31341392397
 20
1718.02340870941
 30
0.0
 10
3992.31341392397
 20
1718.02340870941
 30
0.0
 10
3992.31341392397
 20
1718.02340870941
 30
0.0
 10
3992.31290663717
 20
1718.02411924141
 30
0.0
 10
3992.31290663717
 20
1718.02411924141
 30
0.0
 10
3992.31290663717
 20
1718.02411924141
 30
0.0
 10
3992.31290663717
 20
1718.02411924141
 30
0.0
 10
3992.31229763597
 20
1718.02482958981
 30
0.0
 10
3992.31229763597
 20
1718.02482958981
 30
0.0
 10
3992.31229763597
 20
1718.02482958981
 30
0.0
 10
3992.31229763597
 20
1718.02482958981
 30
0.0
 10
3992.311790165569
 20
1718.02543859101
 30
0.0
 10
3992.311790165569
 20
1718.02543859101
 30
0.0
 10
3992.311790165569
 20
1718.02543859101
 30
0.0
 10
3992.311790165569
 20
1718.02543859101
 30
0.0
 10
3992.31128251157
 20
1718.026250653809
 30
0.0
 10
3992.31128251157
 20
1718.026250653809
 30
0.0
 10
3992.31128251157
 20
1718.026250653809
 30
0.0
 10
3992.31128251157
 20
1718.026250653809
 30
0.0
 10
3992.310775224769
 20
1718.02696100221
 30
0.0
 10
3992.310775224769
 20
1718.02696100221
 30
0.0
 10
3992.310775224769
 20
1718.02696100221
 30
0.0
 10
3992.310775224769
 20
1718.02696100221
 30
0.0
 10
3992.310267754369
 20
1718.02767135061
 30
0.0
 10
3992.310267754369
 20
1718.02767135061
 30
0.0
 10
3992.310267754369
 20
1718.02767135061
 30
0.0
 10
3992.310267754369
 20
1718.02767135061
 30
0.0
 10
3992.30986181477
 20
1718.02848341341
 30
0.0
 10
3992.30986181477
 20
1718.02848341341
 30
0.0
 10
3992.30986181477
 20
1718.02848341341
 30
0.0
 10
3992.30986181477
 20
1718.02848341341
 30
0.0
 10
3992.30945569157
 20
1718.02919376181
 30
0.0
 10
3992.30945569157
 20
1718.02919376181
 30
0.0
 10
3992.30945569157
 20
1718.02919376181
 30
0.0
 10
3992.30945569157
 20
1718.02919376181
 30
0.0
 10
3992.30915109917
 20
1718.03000582461
 30
0.0
 10
3992.30915109917
 20
1718.03000582461
 30
0.0
 10
3992.30915109917
 20
1718.03000582461
 30
0.0
 10
3992.30915109917
 20
1718.03000582461
 30
0.0
 10
3992.30884669037
 20
1718.030817887409
 30
0.0
 10
3992.30884669037
 20
1718.030817887409
 30
0.0
 10
3992.30884669037
 20
1718.030817887409
 30
0.0
 10
3992.30884669037
 20
1718.030817887409
 30
0.0
 10
3992.308542097969
 20
1718.03162976661
 30
0.0
 10
3992.308542097969
 20
1718.03162976661
 30
0.0
 10
3992.308542097969
 20
1718.03162976661
 30
0.0
 10
3992.308542097969
 20
1718.03162976661
 30
0.0
 10
3992.30823768917
 20
1718.03254317661
 30
0.0
 10
3992.30823768917
 20
1718.03254317661
 30
0.0
 10
3992.30823768917
 20
1718.03254317661
 30
0.0
 10
3992.30823768917
 20
1718.03254317661
 30
0.0
 10
3992.30803481117
 20
1718.03345658661
 30
0.0
 10
3992.30803481117
 20
1718.03345658661
 30
0.0
 10
3992.30803481117
 20
1718.03345658661
 30
0.0
 10
3992.30803481117
 20
1718.03345658661
 30
0.0
 10
3992.30783174957
 20
1718.03437018021
 30
0.0
 10
3992.30783174957
 20
1718.03437018021
 30
0.0
 10
3992.30783174957
 20
1718.03437018021
 30
0.0
 10
3992.30783174957
 20
1718.03437018021
 30
0.0
 10
3992.30762868797
 20
1718.03528359021
 30
0.0
 10
3992.30762868797
 20
1718.03528359021
 30
0.0
 10
3992.30762868797
 20
1718.03528359021
 30
0.0
 10
3992.30762868797
 20
1718.03528359021
 30
0.0
 10
3992.30752734077
 20
1718.03619700021
 30
0.0
 10
3992.30752734077
 20
1718.03619700021
 30
0.0
  0
ENDSEC
  0
SECTION
  2
OBJECTS
  0
DICTIONARY
  5
C
330
0
100
AcDbDictionary
281
     1
  3
ACAD_COLOR
350
EE6
  3
ACAD_GROUP
350
D
  3
ACAD_LAYOUT
350
1A
  3
ACAD_MATERIAL
350
EE5
  3
ACAD_MLINESTYLE
350
17
  3
ACAD_PLOTSETTINGS
350
19
  3
ACAD_PLOTSTYLENAME
350
E
  3
ACAD_TABLESTYLE
350
EE7
  3
ACDBHEADERROUNDTRIPXREC
350
11E3
  3
AcDbVariableDictionary
350
3D
  3
ASE_INDEX_DICTIONARY
350
1066
  0
DICTIONARY
  5
1051
330
2
100
AcDbDictionary
280
     1
281
     1
  3
ACAD_LAYERFILTERS
360
1065
  3
ACLYDICTIONARY
360
1064
  0
DICTIONARY
  5
EE6
102
{ACAD_REACTORS
330
C
102
}
330
C
100
AcDbDictionary
281
     1
  0
DICTIONARY
  5
D
102
{ACAD_REACTORS
330
C
102
}
330
C
100
AcDbDictionary
281
     1
  0
DICTIONARY
  5
1A
102
{ACAD_REACTORS
330
C
102
}
330
C
100
AcDbDictionary
281
     1
  3
Layout1
350
1E
  3
Layout2
350
26
  3
Model
350
22
  0
DICTIONARY
  5
EE5
102
{ACAD_REACTORS
330
C
102
}
330
C
100
AcDbDictionary
281
     1
  0
DICTIONARY
  5
17
102
{ACAD_REACTORS
330
C
102
}
330
C
100
AcDbDictionary
281
     1
  3
Standard
350
18
  0
DICTIONARY
  5
19
102
{ACAD_REACTORS
330
C
102
}
330
C
100
AcDbDictionary
281
     1
  0
ACDBDICTIONARYWDFLT
  5
E
102
{ACAD_REACTORS
330
C
102
}
330
C
100
AcDbDictionary
281
     1
  3
Normal
350
F
100
AcDbDictionaryWithDefault
340
F
  0
DICTIONARY
  5
EE7
102
{ACAD_REACTORS
330
C
102
}
330
C
100
AcDbDictionary
281
     1
  3
Standard
350
EE8
  0
DICTIONARY
  5
11E3
102
{ACAD_REACTORS
330
C
102
}
330
C
100
AcDbDictionary
281
     1
  0
DICTIONARY
  5
3D
102
{ACAD_REACTORS
330
C
102
}
330
C
100
AcDbDictionary
281
     1
  3
CTABLESTYLE
350
1049
  3
DIMASSOC
350
3F
  3
HIDETEXT
350
3E
  3
PROJECTNAME
350
11D9
  0
DICTIONARY
  5
1066
102
{ACAD_REACTORS
330
C
102
}
330
C
100
AcDbDictionary
281
     1
  3
ASEBlockHierarchyIndexRecord
350
1067
1001
DCO15
1040
1602247867.484
  0
DICTIONARY
  5
1065
102
{ACAD_REACTORS
330
1051
102
}
330
1051
100
AcDbDictionary
281
     1
  0
DICTIONARY
  5
1064
102
{ACAD_REACTORS
330
1051
102
}
330
1051
100
AcDbDictionary
281
     1
1001
ACAD
1000
<All
  0
LAYOUT
  5
1E
102
{ACAD_XDICTIONARY
360
11E4
102
}
102
{ACAD_REACTORS
330
1A
102
}
330
1A
100
AcDbPlotSettings
  1

  2
Ploter HP500
  4

  6

 40
0.0
 41
0.0
 42
0.0
 43
0.0
 44
0.0
 45
0.0
 46
0.0
 47
0.0
 48
0.0
 49
0.0
140
0.0
141
0.0
142
1.0
143
1.0
 70
   688
 72
     0
 73
     0
 74
     5
  7
sanindusa.ctb
 75
    16
147
1.0
148
0.0
149
0.0
100
AcDbLayout
  1
Layout1
 70
     1
 71
     1
 10
0.0
 20
0.0
 11
420.0
 21
297.0
 12
0.0
 22
0.0
 32
0.0
 14
1.000000000000000E+20
 24
1.000000000000000E+20
 34
1.000000000000000E+20
 15
-1.000000000000000E+20
 25
-1.000000000000000E+20
 35
-1.000000000000000E+20
146
0.0
 13
0.0
 23
0.0
 33
0.0
 16
1.0
 26
0.0
 36
0.0
 17
0.0
 27
1.0
 37
0.0
 76
     0
330
1B
  0
LAYOUT
  5
26
102
{ACAD_XDICTIONARY
360
11E8
102
}
102
{ACAD_REACTORS
330
1A
102
}
330
1A
100
AcDbPlotSettings
  1

  2
Ploter HP500
  4

  6

 40
0.0
 41
0.0
 42
0.0
 43
0.0
 44
0.0
 45
0.0
 46
0.0
 47
0.0
 48
0.0
 49
0.0
140
0.0
141
0.0
142
1.0
143
1.0
 70
   688
 72
     0
 73
     0
 74
     5
  7
sanindusa.ctb
 75
    16
147
1.0
148
0.0
149
0.0
100
AcDbLayout
  1
Layout2
 70
     1
 71
     2
 10
0.0
 20
0.0
 11
12.0
 21
9.0
 12
0.0
 22
0.0
 32
0.0
 14
0.0
 24
0.0
 34
0.0
 15
0.0
 25
0.0
 35
0.0
146
0.0
 13
0.0
 23
0.0
 33
0.0
 16
1.0
 26
0.0
 36
0.0
 17
0.0
 27
1.0
 37
0.0
 76
     0
330
23
  0
LAYOUT
  5
22
102
{ACAD_XDICTIONARY
360
11E6
102
}
102
{ACAD_REACTORS
330
1A
102
}
330
1A
100
AcDbPlotSettings
  1

  2
Ploter HP500
  4
User268
  6

 40
4.995333194732666
 41
16.97565841674804
 42
4.995330810546875
 43
16.97567749023437
 44
209.9733276367187
 45
296.9259948730469
 46
0.0
 47
0.0
 48
0.0
 49
0.0
140
0.0
141
0.0
142
1.0
143
1.0
 70
 11952
 72
     1
 73
     1
 74
     0
  7
sanindusa.ctb
 75
     0
147
1.0
148
-427.5957866592534
149
7.362384574453926
100
AcDbLayout
  1
Model
 70
     1
 71
     0
 10
0.0
 20
0.0
 11
12.0
 21
9.0
 12
0.0
 22
0.0
 32
0.0
 14
0.0
 24
0.0
 34
0.0
 15
0.0
 25
0.0
 35
0.0
146
0.0
 13
0.0
 23
0.0
 33
0.0
 16
1.0
 26
0.0
 36
0.0
 17
0.0
 27
1.0
 37
0.0
 76
     0
330
1F
  0
MLINESTYLE
  5
18
102
{ACAD_REACTORS
330
17
102
}
330
17
100
AcDbMlineStyle
  2
STANDARD
 70
     0
  3

 62
   256
 51
90.0
 52
90.0
 71
     2
 49
0.5
 62
   256
  6
BYLAYER
 49
-0.5
 62
   256
  6
BYLAYER
  0
ACDBPLACEHOLDER
  5
F
102
{ACAD_REACTORS
330
E
102
}
330
E
  0
TABLESTYLE
  5
EE8
102
{ACAD_REACTORS
330
EE7
102
}
330
EE7
100
AcDbTableStyle
  3
Standard
 70
     0
 71
     0
 40
1.5
 41
1.5
280
     0
281
     0
  7
Standard
140
4.5
170
     2
 62
     0
 63
     7
283
     0
274
    -2
284
     1
 64
     0
275
    -2
285
     1
 65
     0
276
    -2
286
     1
 66
     0
277
    -2
287
     1
 67
     0
278
    -2
288
     1
 68
     0
279
    -2
289
     1
 69
     0
  7
Standard
140
6.0
170
     5
 62
     0
 63
     7
283
     0
274
    -2
284
     1
 64
     0
275
    -2
285
     1
 65
     0
276
    -2
286
     1
 66
     0
277
    -2
287
     1
 67
     0
278
    -2
288
     1
 68
     0
279
    -2
289
     1
 69
     0
  7
Standard
140
4.5
170
     5
 62
     0
 63
     7
283
     0
274
    -2
284
     1
 64
     0
275
    -2
285
     1
 65
     0
276
    -2
286
     1
 66
     0
277
    -2
287
     1
 67
     0
278
    -2
288
     1
 68
     0
279
    -2
289
     1
 69
     0
  0
DICTIONARYVAR
  5
1049
102
{ACAD_REACTORS
330
3D
102
}
330
3D
100
DictionaryVariables
280
     0
  1
STANDARD
  0
DICTIONARYVAR
  5
3F
102
{ACAD_REACTORS
330
3D
102
}
330
3D
100
DictionaryVariables
280
     0
  1
2
  0
DICTIONARYVAR
  5
3E
102
{ACAD_REACTORS
330
3D
102
}
330
3D
100
DictionaryVariables
280
     0
  1
1
  0
DICTIONARYVAR
  5
11D9
102
{ACAD_REACTORS
330
3D
102
}
330
3D
100
DictionaryVariables
280
     0
  1

  0
XRECORD
  5
1067
102
{ACAD_REACTORS
330
1066
102
}
330
1066
100
AcDbXrecord
280
     1
  0
DICTIONARY
  5
11E4
330
1E
100
AcDbDictionary
280
     1
281
     1
  3
ACAD_XREC_ROUNDTRIP
360
11E5
  0
DICTIONARY
  5
11E8
330
26
100
AcDbDictionary
280
     1
281
     1
  3
ACAD_XREC_ROUNDTRIP
360
11E9
  0
DICTIONARY
  5
11E6
330
22
100
AcDbDictionary
280
     1
281
     1
  3
ACAD_XREC_ROUNDTRIP
360
11E7
  0
XRECORD
  5
11E5
102
{ACAD_REACTORS
330
11E4
102
}
330
11E4
100
AcDbXrecord
280
     1
102
SHADEPLOT
 70
     0
102
SHADEPLOTRESLEVEL
 70
     2
102
SHADEPLOTCUSTOMDPI
 70
   300
  0
XRECORD
  5
11E9
102
{ACAD_REACTORS
330
11E8
102
}
330
11E8
100
AcDbXrecord
280
     1
102
SHADEPLOT
 70
     0
102
SHADEPLOTRESLEVEL
 70
     2
102
SHADEPLOTCUSTOMDPI
 70
   300
  0
XRECORD
  5
11E7
102
{ACAD_REACTORS
330
11E6
102
}
330
11E6
100
AcDbXrecord
280
     1
102
SHADEPLOT
 70
     0
102
SHADEPLOTRESLEVEL
 70
     2
102
SHADEPLOTCUSTOMDPI
 70
   300
  0
ENDSEC
  0
EOF
