  0
SECTION
  2
HEADER
  9
$ACADVER
  1
AC1015
  9
$ACADMAINTVER
 70
    20
  9
$DWGCODEPAGE
  3
ANSI_1252
  9
$INSBASE
 10
0.0
 20
0.0
 30
0.0
  9
$EXTMIN
 10
189.0968390477865
 20
-229.5497469644192
 30
0.0
  9
$EXTMAX
 10
190.18406368186
 20
-228.4729146367913
 30
0.0
  9
$LIMMIN
 10
0.0
 20
0.0
  9
$LIMMAX
 10
420.0
 20
297.0
  9
$ORTHOMODE
 70
     1
  9
$REGENMODE
 70
     1
  9
$FILLMODE
 70
     1
  9
$QTEXTMODE
 70
     0
  9
$MIRRTEXT
 70
     0
  9
$LTSCALE
 40
1.0
  9
$ATTMODE
 70
     1
  9
$TEXTSIZE
 40
2.5
  9
$TRACEWID
 40
1.0
  9
$TEXTSTYLE
  7
Standard
  9
$CLAYER
  8
0
  9
$CELTYPE
  6
ByLayer
  9
$CECOLOR
 62
   256
  9
$CELTSCALE
 40
1.0
  9
$DISPSILH
 70
     0
  9
$DIMSCALE
 40
1.0
  9
$DIMASZ
 40
2.5
  9
$DIMEXO
 40
0.625
  9
$DIMDLI
 40
3.75
  9
$DIMRND
 40
0.0
  9
$DIMDLE
 40
0.0
  9
$DIMEXE
 40
1.25
  9
$DIMTP
 40
0.0
  9
$DIMTM
 40
0.0
  9
$DIMTXT
 40
2.5
  9
$DIMCEN
 40
2.5
  9
$DIMTSZ
 40
0.0
  9
$DIMTOL
 70
     0
  9
$DIMLIM
 70
     0
  9
$DIMTIH
 70
     0
  9
$DIMTOH
 70
     0
  9
$DIMSE1
 70
     0
  9
$DIMSE2
 70
     0
  9
$DIMTAD
 70
     1
  9
$DIMZIN
 70
     8
  9
$DIMBLK
  1

  9
$DIMASO
 70
     1
  9
$DIMSHO
 70
     1
  9
$DIMPOST
  1

  9
$DIMAPOST
  1

  9
$DIMALT
 70
     0
  9
$DIMALTD
 70
     3
  9
$DIMALTF
 40
0.03937007874016
  9
$DIMLFAC
 40
1.0
  9
$DIMTOFL
 70
     1
  9
$DIMTVP
 40
0.0
  9
$DIMTIX
 70
     0
  9
$DIMSOXD
 70
     0
  9
$DIMSAH
 70
     0
  9
$DIMBLK1
  1

  9
$DIMBLK2
  1

  9
$DIMSTYLE
  2
ISO-25
  9
$DIMCLRD
 70
     0
  9
$DIMCLRE
 70
     0
  9
$DIMCLRT
 70
     0
  9
$DIMTFAC
 40
1.0
  9
$DIMGAP
 40
0.625
  9
$DIMJUST
 70
     0
  9
$DIMSD1
 70
     0
  9
$DIMSD2
 70
     0
  9
$DIMTOLJ
 70
     0
  9
$DIMTZIN
 70
     8
  9
$DIMALTZ
 70
     0
  9
$DIMALTTZ
 70
     0
  9
$DIMUPT
 70
     0
  9
$DIMDEC
 70
     2
  9
$DIMTDEC
 70
     2
  9
$DIMALTU
 70
     2
  9
$DIMALTTD
 70
     3
  9
$DIMTXSTY
  7
Standard
  9
$DIMAUNIT
 70
     0
  9
$DIMADEC
 70
     0
  9
$DIMALTRND
 40
0.0
  9
$DIMAZIN
 70
     0
  9
$DIMDSEP
 70
    44
  9
$DIMATFIT
 70
     3
  9
$DIMFRAC
 70
     0
  9
$DIMLDRBLK
  1

  9
$DIMLUNIT
 70
     2
  9
$DIMLWD
 70
    -2
  9
$DIMLWE
 70
    -2
  9
$DIMTMOVE
 70
     0
  9
$LUNITS
 70
     2
  9
$LUPREC
 70
     4
  9
$SKETCHINC
 40
1.0
  9
$FILLETRAD
 40
0.0
  9
$AUNITS
 70
     0
  9
$AUPREC
 70
     0
  9
$MENU
  1
.
  9
$ELEVATION
 40
0.0
  9
$PELEVATION
 40
0.0
  9
$THICKNESS
 40
0.0
  9
$LIMCHECK
 70
     0
  9
$CHAMFERA
 40
0.0
  9
$CHAMFERB
 40
0.0
  9
$CHAMFERC
 40
0.0
  9
$CHAMFERD
 40
0.0
  9
$SKPOLY
 70
     0
  9
$TDCREATE
 40
2454928.413128797
  9
$TDUCREATE
 40
2454928.371462130
  9
$TDUPDATE
 40
2454928.417959884
  9
$TDUUPDATE
 40
2454928.376293218
  9
$TDINDWG
 40
0.0048314468
  9
$TDUSRTIMER
 40
0.0048314468
  9
$USRTIMER
 70
     1
  9
$ANGBASE
 50
0.0
  9
$ANGDIR
 70
     0
  9
$PDMODE
 70
     0
  9
$PDSIZE
 40
0.0
  9
$PLINEWID
 40
0.0
  9
$SPLFRAME
 70
     0
  9
$SPLINETYPE
 70
     6
  9
$SPLINESEGS
 70
     8
  9
$HANDSEED
  5
34C
  9
$SURFTAB1
 70
     6
  9
$SURFTAB2
 70
     6
  9
$SURFTYPE
 70
     6
  9
$SURFU
 70
     6
  9
$SURFV
 70
     6
  9
$UCSBASE
  2

  9
$UCSNAME
  2

  9
$UCSORG
 10
0.0
 20
0.0
 30
0.0
  9
$UCSXDIR
 10
1.0
 20
0.0
 30
0.0
  9
$UCSYDIR
 10
0.0
 20
1.0
 30
0.0
  9
$UCSORTHOREF
  2

  9
$UCSORTHOVIEW
 70
     0
  9
$UCSORGTOP
 10
0.0
 20
0.0
 30
0.0
  9
$UCSORGBOTTOM
 10
0.0
 20
0.0
 30
0.0
  9
$UCSORGLEFT
 10
0.0
 20
0.0
 30
0.0
  9
$UCSORGRIGHT
 10
0.0
 20
0.0
 30
0.0
  9
$UCSORGFRONT
 10
0.0
 20
0.0
 30
0.0
  9
$UCSORGBACK
 10
0.0
 20
0.0
 30
0.0
  9
$PUCSBASE
  2

  9
$PUCSNAME
  2

  9
$PUCSORG
 10
0.0
 20
0.0
 30
0.0
  9
$PUCSXDIR
 10
1.0
 20
0.0
 30
0.0
  9
$PUCSYDIR
 10
0.0
 20
1.0
 30
0.0
  9
$PUCSORTHOREF
  2

  9
$PUCSORTHOVIEW
 70
     0
  9
$PUCSORGTOP
 10
0.0
 20
0.0
 30
0.0
  9
$PUCSORGBOTTOM
 10
0.0
 20
0.0
 30
0.0
  9
$PUCSORGLEFT
 10
0.0
 20
0.0
 30
0.0
  9
$PUCSORGRIGHT
 10
0.0
 20
0.0
 30
0.0
  9
$PUCSORGFRONT
 10
0.0
 20
0.0
 30
0.0
  9
$PUCSORGBACK
 10
0.0
 20
0.0
 30
0.0
  9
$USERI1
 70
     0
  9
$USERI2
 70
     0
  9
$USERI3
 70
     0
  9
$USERI4
 70
     0
  9
$USERI5
 70
     0
  9
$USERR1
 40
0.0
  9
$USERR2
 40
0.0
  9
$USERR3
 40
0.0
  9
$USERR4
 40
0.0
  9
$USERR5
 40
0.0
  9
$WORLDVIEW
 70
     1
  9
$SHADEDGE
 70
     3
  9
$SHADEDIF
 70
    70
  9
$TILEMODE
 70
     1
  9
$MAXACTVP
 70
    64
  9
$PINSBASE
 10
0.0
 20
0.0
 30
0.0
  9
$PLIMCHECK
 70
     0
  9
$PEXTMIN
 10
1.000000000000000E+20
 20
1.000000000000000E+20
 30
1.000000000000000E+20
  9
$PEXTMAX
 10
-1.000000000000000E+20
 20
-1.000000000000000E+20
 30
-1.000000000000000E+20
  9
$PLIMMIN
 10
0.0
 20
0.0
  9
$PLIMMAX
 10
420.0
 20
297.0
  9
$UNITMODE
 70
     0
  9
$VISRETAIN
 70
     1
  9
$PLINEGEN
 70
     0
  9
$PSLTSCALE
 70
     1
  9
$TREEDEPTH
 70
  3020
  9
$CMLSTYLE
  2
Standard
  9
$CMLJUST
 70
     0
  9
$CMLSCALE
 40
20.0
  9
$PROXYGRAPHICS
 70
     1
  9
$MEASUREMENT
 70
     1
  9
$CELWEIGHT
370
    -1
  9
$ENDCAPS
280
     0
  9
$JOINSTYLE
280
     0
  9
$LWDISPLAY
290
     0
  9
$INSUNITS
 70
     4
  9
$HYPERLINKBASE
  1

  9
$STYLESHEET
  1

  9
$XEDIT
290
     1
  9
$CEPSNTYPE
380
     0
  9
$PSTYLEMODE
290
     1
  9
$FINGERPRINTGUID
  2
{D17363EA-A5A8-4FBD-907E-7B38748894CE}
  9
$VERSIONGUID
  2
{C02579FF-CC5E-407F-920B-F1C5D805A342}
  9
$EXTNAMES
290
     1
  9
$PSVPSCALE
 40
0.0
  9
$OLESTARTUP
290
     0
  0
ENDSEC
  0
SECTION
  2
CLASSES
  0
CLASS
  1
ACDBDICTIONARYWDFLT
  2
AcDbDictionaryWithDefault
  3
ObjectDBX Classes
 90
        0
280
     0
281
     0
  0
CLASS
  1
TABLESTYLE
  2
AcDbTableStyle
  3
ObjectDBX Classes
 90
     2047
280
     0
281
     0
  0
CLASS
  1
DICTIONARYVAR
  2
AcDbDictionaryVar
  3
ObjectDBX Classes
 90
        0
280
     0
281
     0
  0
CLASS
  1
ACDBPLACEHOLDER
  2
AcDbPlaceHolder
  3
ObjectDBX Classes
 90
        0
280
     0
281
     0
  0
CLASS
  1
LAYOUT
  2
AcDbLayout
  3
ObjectDBX Classes
 90
        0
280
     0
281
     0
  0
ENDSEC
  0
SECTION
  2
TABLES
  0
TABLE
  2
VPORT
  5
8
330
0
100
AcDbSymbolTable
 70
     9
  0
VPORT
  5
344
330
8
100
AcDbSymbolTableRecord
100
AcDbViewportTableRecord
  2
*Active
 70
     0
 10
0.0
 20
0.0
 11
1.0
 21
1.0
 12
189.6481060809917
 22
-229.007651905924
 13
0.0
 23
0.0
 14
10.0
 24
10.0
 15
10.0
 25
10.0
 16
0.0
 26
0.0
 36
1.0
 17
0.0
 27
0.0
 37
0.0
 40
1.364052787131793
 41
1.602030456852791
 42
50.0
 43
0.0
 44
0.0
 50
0.0
 51
0.0
 71
     0
 72
  1000
 73
     1
 74
     3
 75
     0
 76
     0
 77
     0
 78
     0
281
     0
 65
     1
110
0.0
120
0.0
130
0.0
111
1.0
121
0.0
131
0.0
112
0.0
122
1.0
132
0.0
 79
     0
146
0.0
  0
ENDTAB
  0
TABLE
  2
LTYPE
  5
5
330
0
100
AcDbSymbolTable
 70
     2
  0
LTYPE
  5
14
330
5
100
AcDbSymbolTableRecord
100
AcDbLinetypeTableRecord
  2
ByBlock
 70
     0
  3

 72
    65
 73
     0
 40
0.0
  0
LTYPE
  5
15
330
5
100
AcDbSymbolTableRecord
100
AcDbLinetypeTableRecord
  2
ByLayer
 70
     0
  3

 72
    65
 73
     0
 40
0.0
  0
LTYPE
  5
16
330
5
100
AcDbSymbolTableRecord
100
AcDbLinetypeTableRecord
  2
Continuous
 70
     0
  3
Solid line
 72
    65
 73
     0
 40
0.0
  0
ENDTAB
  0
TABLE
  2
LAYER
  5
2
330
0
100
AcDbSymbolTable
 70
     2
  0
LAYER
  5
10
330
2
100
AcDbSymbolTableRecord
100
AcDbLayerTableRecord
  2
0
 70
     0
 62
     7
  6
Continuous
370
    -3
390
F
  0
LAYER
  5
324
330
2
100
AcDbSymbolTableRecord
100
AcDbLayerTableRecord
  2
SANINDUSA
 70
     0
 62
     3
  6
Continuous
370
    -3
390
F
  0
ENDTAB
  0
TABLE
  2
STYLE
  5
3
330
0
100
AcDbSymbolTable
 70
     1
  0
STYLE
  5
11
330
3
100
AcDbSymbolTableRecord
100
AcDbTextStyleTableRecord
  2
Standard
 70
     0
 40
0.0
 41
1.0
 50
0.0
 71
     0
 42
2.5
  3
txt
  4

  0
ENDTAB
  0
TABLE
  2
VIEW
  5
6
330
0
100
AcDbSymbolTable
 70
     0
  0
ENDTAB
  0
TABLE
  2
UCS
  5
7
330
0
100
AcDbSymbolTable
 70
     0
  0
ENDTAB
  0
TABLE
  2
APPID
  5
9
330
0
100
AcDbSymbolTable
 70
     2
  0
APPID
  5
12
330
9
100
AcDbSymbolTableRecord
100
AcDbRegAppTableRecord
  2
ACAD
 70
     0
  0
APPID
  5
31E
330
9
100
AcDbSymbolTableRecord
100
AcDbRegAppTableRecord
  2
ACAD_EXEMPT_FROM_CAD_STANDARDS
 70
     0
  0
ENDTAB
  0
TABLE
  2
DIMSTYLE
  5
A
330
0
100
AcDbSymbolTable
 70
     2
100
AcDbDimStyleTable
 71
     1
340
2B
  0
DIMSTYLE
105
2B
330
A
100
AcDbSymbolTableRecord
100
AcDbDimStyleTableRecord
  2
ISO-25
 70
     0
 41
2.5
 42
0.625
 43
3.75
 44
1.25
 73
     0
 74
     0
 77
     1
 78
     8
140
2.5
141
2.5
143
0.03937007874016
147
0.625
171
     3
172
     1
271
     2
272
     2
274
     3
278
    44
283
     0
284
     8
340
11
  0
ENDTAB
  0
TABLE
  2
BLOCK_RECORD
  5
1
330
0
100
AcDbSymbolTable
 70
     3
  0
BLOCK_RECORD
  5
23
330
1
100
AcDbSymbolTableRecord
100
AcDbBlockTableRecord
  2
*Model_Space
340
26
  0
BLOCK_RECORD
  5
1F
330
1
100
AcDbSymbolTableRecord
100
AcDbBlockTableRecord
  2
*Paper_Space
340
22
  0
BLOCK_RECORD
  5
27
330
1
100
AcDbSymbolTableRecord
100
AcDbBlockTableRecord
  2
*Paper_Space0
340
2A
  0
ENDTAB
  0
ENDSEC
  0
SECTION
  2
BLOCKS
  0
BLOCK
  5
24
330
23
100
AcDbEntity
  8
0
100
AcDbBlockBegin
  2
*Model_Space
 70
     0
 10
0.0
 20
0.0
 30
0.0
  3
*Model_Space
  1

  0
ENDBLK
  5
25
330
23
100
AcDbEntity
  8
0
100
AcDbBlockEnd
  0
BLOCK
  5
20
330
1F
100
AcDbEntity
 67
     1
  8
0
100
AcDbBlockBegin
  2
*Paper_Space
 70
     0
 10
0.0
 20
0.0
 30
0.0
  3
*Paper_Space
  1

  0
ENDBLK
  5
21
330
1F
100
AcDbEntity
 67
     1
  8
0
100
AcDbBlockEnd
  0
BLOCK
  5
28
330
27
100
AcDbEntity
 67
     1
  8
0
100
AcDbBlockBegin
  2
*Paper_Space0
 70
     0
 10
0.0
 20
0.0
 30
0.0
  3
*Paper_Space0
  1

  0
ENDBLK
  5
29
330
27
100
AcDbEntity
 67
     1
  8
0
100
AcDbBlockEnd
  0
ENDSEC
  0
SECTION
  2
ENTITIES
  0
LINE
  5
1A8
330
23
100
AcDbEntity
  8
SANINDUSA
  6
Continuous
370
    15
100
AcDbLine
 10
189.5500624367638
 20
-228.5218448375051
 30
0.0
 11
189.5500626006766
 21
-228.5210903619115
 31
0.0
  0
LINE
  5
1A9
330
23
100
AcDbEntity
  8
SANINDUSA
  6
Continuous
370
    15
100
AcDbLine
 10
189.5309314021512
 20
-228.5209747289006
 30
0.0
 11
189.5309312084361
 21
-228.5218404267614
 31
0.0
  0
LINE
  5
1AA
330
23
100
AcDbEntity
  8
SANINDUSA
  6
Continuous
370
    15
100
AcDbLine
 10
189.5276078173562
 20
-228.5229080651586
 30
0.0
 11
189.5276340102581
 21
-228.5310571310815
 31
0.0
  0
LINE
  5
1AB
330
23
100
AcDbEntity
  8
SANINDUSA
  6
Continuous
370
    15
100
AcDbLine
 10
189.5274876264487
 20
-228.4855134558426
 30
0.0
 11
189.5275041350766
 21
-228.4906509850805
 31
0.0
  0
LINE
  5
1AC
330
23
100
AcDbEntity
  8
SANINDUSA
  6
Continuous
370
    15
100
AcDbLine
 10
189.55363387596
 20
-228.5309735638383
 30
0.0
 11
189.5534874921506
 21
-228.4854298885995
 31
0.0
  0
LINE
  5
1AD
330
23
100
AcDbEntity
  8
SANINDUSA
  6
Continuous
370
    15
100
AcDbLine
 10
189.5275040307685
 20
-228.4906156991307
 30
0.0
 11
189.5274966695948
 21
-228.5224688981358
 31
0.0
  0
LINE
  5
1AE
330
23
100
AcDbEntity
  8
SANINDUSA
  6
Continuous
370
    15
100
AcDbLine
 10
189.5534966775819
 20
-228.5224748586003
 30
0.0
 11
189.5535040238543
 21
-228.4906122420613
 31
0.0
  0
LWPOLYLINE
  5
1AF
330
23
100
AcDbEntity
  8
SANINDUSA
  6
Continuous
370
    15
100
AcDbPolyline
 90
       20
 70
   128
 43
0.0
 10
189.553672243063
 20
-228.5889708731954
 10
189.5536721983596
 20
-228.5866813991849
 10
189.5536719301387
 20
-228.5823399160687
 10
189.5536713787957
 20
-228.578032586414
 10
189.5536705592318
 20
-228.5737827752416
 10
189.5536694863482
 20
-228.5696128938977
 10
189.5536681452437
 20
-228.5655448172871
 10
189.5536665508195
 20
-228.5615999434774
 10
189.5536647179766
 20
-228.5577990744893
 10
189.5536626616164
 20
-228.5541619990651
 10
189.5536603817387
 20
-228.5507080291097
 10
189.5536578783437
 20
-228.5474551652257
 10
189.5536551812335
 20
-228.5444204543416
 10
189.5536523053094
 20
-228.5416198705022
 10
189.5536492654725
 20
-228.5390678380315
 10
189.553646076624
 20
-228.5367777083699
 10
189.5536427387639
 20
-228.5347611640279
 10
189.5536392816945
 20
-228.5330282185857
 10
189.5536357054158
 20
-228.5315867398564
 10
189.553633872573
 20
-228.530973527271
  0
LWPOLYLINE
  5
1B0
330
23
100
AcDbEntity
  8
SANINDUSA
  6
Continuous
370
    15
100
AcDbPolyline
 90
       20
 70
   128
 43
0.0
 10
189.5276340135976
 20
-228.531057092983
 10
189.5276358911439
 20
-228.5316861604039
 10
189.5276393780156
 20
-228.5331011746709
 10
189.5276427903815
 20
-228.5348142121617
 10
189.5276460984393
 20
-228.5368160937612
 10
189.5276492872878
 20
-228.5390948985402
 10
189.5276523122235
 20
-228.5416376326864
 10
189.5276551881476
 20
-228.5444307063405
 10
189.5276578703566
 20
-228.5474588607137
 10
189.5276603737517
 20
-228.550706121761
 10
189.5276626536294
 20
-228.5541553233449
 10
189.5276647099896
 20
-228.5577881072347
 10
189.5276665428324
 20
-228.5615852807347
 10
189.5276681372567
 20
-228.5655268762891
 10
189.5276694783612
 20
-228.5695920322721
 10
189.5276705512448
 20
-228.5737593506162
 10
189.5276713708087
 20
-228.5780068372075
 10
189.5276719221516
 20
-228.5823121403043
 10
189.5276722052737
 20
-228.5866524909322
 10
189.5276722499772
 20
-228.5889708731954
  0
LINE
  5
1B1
330
23
100
AcDbEntity
  8
SANINDUSA
  6
Continuous
370
    15
100
AcDbLine
 10
189.553672243063
 20
-228.7089708779638
 30
0.0
 11
189.5536722425809
 21
-228.5889708970372
 31
0.0
  0
LINE
  5
1B2
330
23
100
AcDbEntity
  8
SANINDUSA
  6
Continuous
370
    15
100
AcDbLine
 10
189.5276722425978
 20
-228.5889708970372
 30
0.0
 11
189.5276722499772
 21
-228.7089708779638
 31
0.0
  0
LINE
  5
1B3
330
23
100
AcDbEntity
  8
SANINDUSA
  6
Continuous
370
    15
100
AcDbLine
 10
189.5181722425932
 20
-228.7089708970372
 30
0.0
 11
189.5181722425932
 21
-228.7139708970372
 31
0.0
  0
LINE
  5
1B4
330
23
100
AcDbEntity
  8
SANINDUSA
  6
Continuous
370
    15
100
AcDbLine
 10
189.5631722425932
 20
-228.7139708970372
 30
0.0
 11
189.5631722425932
 21
-228.7089708970372
 31
0.0
  0
ARC
  5
1B5
330
23
100
AcDbEntity
  8
SANINDUSA
  6
Continuous
370
    15
100
AcDbCircle
 10
189.5869690022509
 20
-228.7638425430523
 30
0.0
 40
0.0256482937602556
100
AcDbArc
 50
69.04672279619511
 51
90.65580549809565
  0
LINE
  5
1B6
330
23
100
AcDbEntity
  8
SANINDUSA
  6
Continuous
370
    15
100
AcDbLine
 10
189.5581722297528
 20
-228.7381958970372
 30
0.0
 11
189.586629845517
 21
-228.7381958958665
 31
0.0
  0
LINE
  5
1B7
330
23
100
AcDbEntity
  8
SANINDUSA
  6
Continuous
370
    15
100
AcDbLine
 10
189.5961467831664
 20
-228.7398792340172
 30
0.0
 11
189.6048610795082
 21
-228.7431278381021
 31
0.0
  0
ARC
  5
1B8
330
23
100
AcDbEntity
  8
SANINDUSA
  6
Continuous
370
    15
100
AcDbCircle
 10
189.5870068749203
 20
-228.7634946386932
 30
0.0
 40
0.0313003454317996
100
AcDbArc
 50
68.97849819016475
 51
90.58897882603025
  0
LINE
  5
1B9
330
23
100
AcDbEntity
  8
SANINDUSA
  6
Continuous
370
    15
100
AcDbLine
 10
189.5866298459761
 20
-228.7321958985667
 30
0.0
 11
189.5581722297528
 21
-228.7321958970372
 31
0.0
  0
LINE
  5
1BA
330
23
100
AcDbEntity
  8
SANINDUSA
  6
Continuous
370
    15
100
AcDbLine
 10
189.6069569146569
 20
-228.7375057855383
 30
0.0
 11
189.5982417675107
 21
-228.7342569122537
 31
0.0
  0
LINE
  5
1BB
330
23
100
AcDbEntity
  8
SANINDUSA
  6
Continuous
370
    15
100
AcDbLine
 10
189.5581722297528
 20
-228.7321958970372
 30
0.0
 11
189.558172244732
 21
-228.7319708798711
 31
0.0
  0
LINE
  5
1BC
330
23
100
AcDbEntity
  8
SANINDUSA
  6
Continuous
370
    15
100
AcDbLine
 10
189.558172244732
 20
-228.7389709089581
 30
0.0
 11
189.5581722297528
 21
-228.7381958970372
 31
0.0
  0
LINE
  5
1BD
330
23
100
AcDbEntity
  8
SANINDUSA
  6
Continuous
370
    15
100
AcDbLine
 10
189.5181722425932
 20
-228.7139708970372
 30
0.0
 11
189.5181722381755
 21
-229.5357469652478
 31
0.0
  0
LINE
  5
1BE
330
23
100
AcDbEntity
  8
SANINDUSA
  6
Continuous
370
    15
100
AcDbLine
 10
189.5631722425932
 20
-228.7319708970372
 30
0.0
 11
189.5631722425932
 21
-228.7139708970372
 31
0.0
  0
LINE
  5
1BF
330
23
100
AcDbEntity
  8
SANINDUSA
  6
Continuous
370
    15
100
AcDbLine
 10
189.5631722399636
 20
-229.5357469652478
 30
0.0
 11
189.5631722425932
 21
-228.7389708970372
 31
0.0
  0
LINE
  5
1C0
330
23
100
AcDbEntity
  8
SANINDUSA
  6
Continuous
370
    15
100
AcDbLine
 10
189.4791722425932
 20
-229.5357469644192
 30
0.0
 11
189.4791722425932
 21
-229.5497469644192
 31
0.0
  0
LINE
  5
1C1
330
23
100
AcDbEntity
  8
SANINDUSA
  6
Continuous
370
    15
100
AcDbLine
 10
189.6021722425932
 20
-229.5497469644192
 30
0.0
 11
189.6021722425932
 21
-229.5357469644192
 31
0.0
  0
ARC
  5
1DE
330
23
100
AcDbEntity
  8
SANINDUSA
  6
Continuous
370
    15
100
AcDbCircle
 10
189.5472100095174
 20
-228.5157614164866
 30
0.0
 40
0.0084696936894662
100
AcDbArc
 50
281.6254358761174
 51
303.5106201886829
  0
LINE
  5
1DF
330
23
100
AcDbEntity
  8
SANINDUSA
  6
Continuous
370
    15
100
AcDbLine
 10
189.5518860592692
 20
-228.5228233440653
 30
0.0
 11
189.5518863936219
 21
-228.5213744553259
 31
0.0
  0
LINE
  5
1E0
330
23
100
AcDbEntity
  8
SANINDUSA
  6
Continuous
370
    15
100
AcDbLine
 10
189.5519565473872
 20
-228.5213179554224
 30
0.0
 11
189.5518863936219
 21
-228.5213744553259
 31
0.0
  0
LINE
  5
1E1
330
23
100
AcDbEntity
  8
SANINDUSA
  6
Continuous
370
    15
100
AcDbLine
 10
189.5288825073882
 20
-228.52142116769
 30
0.0
 11
189.5288822289497
 21
-228.522620977367
 31
0.0
  0
ARC
  5
1E2
330
23
100
AcDbEntity
  8
SANINDUSA
  6
Continuous
370
    15
100
AcDbCircle
 10
189.5329624912071
 20
-228.5175772087705
 30
0.0
 40
0.0064875651036671
100
AcDbArc
 50
231.0282919275193
 51
257.2344358568892
  0
LINE
  5
1E3
330
23
100
AcDbEntity
  8
SANINDUSA
  6
Continuous
370
    15
100
AcDbLine
 10
189.537302334015
 20
-228.5241756175344
 30
0.0
 11
189.5373021765875
 21
-228.5248357222496
 31
0.0
  0
ARC
  5
1E4
330
23
100
AcDbEntity
  8
SANINDUSA
  6
Continuous
370
    15
100
AcDbCircle
 10
189.5405111733155
 20
-228.4793415196292
 30
0.0
 40
0.0456071953993702
100
AcDbArc
 50
265.965233375548
 51
273.0253549559833
  0
LINE
  5
1E5
330
23
100
AcDbEntity
  8
SANINDUSA
  6
Continuous
370
    15
100
AcDbLine
 10
189.5429182277663
 20
-228.5248851271408
 30
0.0
 11
189.5429183730527
 21
-228.5242383216206
 31
0.0
  0
LINE
  5
1E6
330
23
100
AcDbEntity
  8
SANINDUSA
  6
Continuous
370
    15
100
AcDbLine
 10
189.5500625708743
 20
-228.5212617848699
 30
0.0
 11
189.5518863936219
 21
-228.5213744553259
 31
0.0
  0
LINE
  5
1E7
330
23
100
AcDbEntity
  8
SANINDUSA
  6
Continuous
370
    15
100
AcDbLine
 10
189.5308635843631
 20
-228.5210859125268
 30
0.0
 11
189.5309313669737
 21
-228.521146106624
 31
0.0
  0
LINE
  5
1E8
330
23
100
AcDbEntity
  8
SANINDUSA
  6
Continuous
370
    15
100
AcDbLine
 10
189.5292956271811
 20
-228.5211541388814
 30
0.0
 11
189.5308635843631
 21
-228.5210859125268
 31
0.0
  0
LWPOLYLINE
  5
1E9
330
23
100
AcDbEntity
  8
SANINDUSA
  6
Continuous
370
    15
100
AcDbPolyline
 90
       13
 70
   128
 43
0.0
 10
189.5401798227473
 20
-228.5243169997518
 10
189.5420510509654
 20
-228.5242858861272
 10
189.5438625404282
 20
-228.5241608355824
 10
189.5455447027131
 20
-228.5239467356984
 10
189.5470328667803
 20
-228.5236518119161
 10
189.5482698568745
 20
-228.5232872699086
 10
189.5492081233903
 20
-228.5228672955815
 10
189.5498116353198
 20
-228.5224078629796
 10
189.5500571766539
 20
-228.521926734287
 10
189.5499353298588
 20
-228.5214423869435
 10
189.5494507440968
 20
-228.5209735368077
 10
189.5486220756217
 20
-228.5205379460637
 10
189.5478438773795
 20
-228.5202588771169
  0
LWPOLYLINE
  5
1EA
330
23
100
AcDbEntity
  8
SANINDUSA
  6
Continuous
370
    15
100
AcDbPolyline
 90
       13
 70
   128
 43
0.0
 10
189.5327385106726
 20
-228.520392749149
 10
189.5327237883254
 20
-228.5203981135671
 10
189.5317855069085
 20
-228.5208180878941
 10
189.5311820098801
 20
-228.5212774012868
 10
189.5309364536448
 20
-228.5217585299794
 10
189.5310583153411
 20
-228.5222428773229
 10
189.5315428862019
 20
-228.5227118466679
 10
189.5323715546771
 20
-228.523147437412
 10
189.533512476985
 20
-228.5235328410451
 10
189.5349217990084
 20
-228.5238532756154
 10
189.5365453550263
 20
-228.5240964625661
 10
189.5383207836791
 20
-228.5242531035726
 10
189.5401798227473
 20
-228.5243169997518
  0
LINE
  5
1EB
330
23
100
AcDbEntity
  8
SANINDUSA
  6
Continuous
370
    15
100
AcDbLine
 10
189.5310620855179
 20
-228.5209827832905
 30
0.0
 11
189.5297868290587
 21
-228.5209039185826
 31
0.0
  0
LINE
  5
1EC
330
23
100
AcDbEntity
  8
SANINDUSA
  6
Continuous
370
    15
100
AcDbLine
 10
189.5330574104233
 20
-228.5199349854772
 30
0.0
 11
189.5333571610004
 21
-228.5200289280843
 31
0.0
  0
ARC
  5
1ED
330
23
100
AcDbEntity
  8
SANINDUSA
  6
Continuous
370
    15
100
AcDbCircle
 10
189.5348872856446
 20
-228.5269482288604
 30
0.0
 40
0.0070864716001928
100
AcDbArc
 50
102.4696108986434
 51
122.6692848770009
  0
LINE
  5
1EE
330
23
100
AcDbEntity
  8
SANINDUSA
  6
Continuous
370
    15
100
AcDbLine
 10
189.5333571919842
 20
-228.5198780034368
 30
0.0
 11
189.5333571610004
 21
-228.5200289280843
 31
0.0
  0
LINE
  5
1EF
330
23
100
AcDbEntity
  8
SANINDUSA
  6
Continuous
370
    15
100
AcDbLine
 10
189.5480846114874
 20
-228.5201584867486
 30
0.0
 11
189.5484770724221
 21
-228.5200510953252
 31
0.0
  0
LINE
  5
1F0
330
23
100
AcDbEntity
  8
SANINDUSA
  6
Continuous
370
    15
100
AcDbLine
 10
189.5480846503421
 20
-228.5199680064504
 30
0.0
 11
189.5480846114874
 21
-228.5201584867486
 31
0.0
  0
LINE
  5
1F1
330
23
100
AcDbEntity
  8
SANINDUSA
  6
Continuous
370
    15
100
AcDbLine
 10
189.5515692123814
 20
-228.5210879777257
 30
0.0
 11
189.5501303899387
 21
-228.5211505288248
 31
0.0
  0
ARC
  5
1F2
330
23
100
AcDbEntity
  8
SANINDUSA
  6
Continuous
370
    15
100
AcDbCircle
 10
189.5467933653135
 20
-228.5254266275154
 30
0.0
 40
0.0054240610793554
100
AcDbArc
 50
52.03169190564757
 51
76.22805853410902
  0
LINE
  5
1F3
330
23
100
AcDbEntity
  8
SANINDUSA
  6
Continuous
370
    15
100
AcDbLine
 10
189.5329090284617
 20
-228.5235268433424
 30
0.0
 11
189.5315289884717
 21
-228.523904448121
 31
0.0
  0
LINE
  5
1F4
330
23
100
AcDbEntity
  8
SANINDUSA
  6
Continuous
370
    15
100
AcDbLine
 10
189.5288822289497
 20
-228.522620977367
 30
0.0
 11
189.5308632500103
 21
-228.5225348012662
 31
0.0
  0
ARC
  5
1F5
330
23
100
AcDbEntity
  8
SANINDUSA
  6
Continuous
370
    15
100
AcDbCircle
 10
189.5342029571329
 20
-228.5182532043358
 30
0.0
 40
0.005430094140861
100
AcDbArc
 50
232.0453365402394
 51
256.214413897882
  0
LINE
  5
1F6
330
23
100
AcDbEntity
  8
SANINDUSA
  6
Continuous
370
    15
100
AcDbLine
 10
189.5308635843631
 20
-228.5210859125268
 30
0.0
 11
189.5308632500103
 21
-228.5225348012662
 31
0.0
  0
LINE
  5
1F7
330
23
100
AcDbEntity
  8
SANINDUSA
  6
Continuous
370
    15
100
AcDbLine
 10
189.5329090693637
 20
-228.5233485434834
 30
0.0
 11
189.5329090284617
 21
-228.5235268433424
 31
0.0
  0
LINE
  5
1F8
330
23
100
AcDbEntity
  8
SANINDUSA
  6
Continuous
370
    15
100
AcDbLine
 10
189.5499316641732
 20
-228.5222526524846
 30
0.0
 11
189.5499315544311
 21
-228.5227025468006
 31
0.0
  0
ARC
  5
1F9
330
23
100
AcDbEntity
  8
SANINDUSA
  6
Continuous
370
    15
100
AcDbCircle
 10
189.5461063087918
 20
-228.5167370324803
 30
0.0
 40
0.0070866018150863
100
AcDbArc
 50
282.4697984277512
 51
302.669097348728
  0
LINE
  5
1FA
330
23
100
AcDbEntity
  8
SANINDUSA
  6
Continuous
370
    15
100
AcDbLine
 10
189.5476365128203
 20
-228.5234918330495
 30
0.0
 11
189.5476364789486
 21
-228.5236564020067
 31
0.0
  0
LINE
  5
1FB
330
23
100
AcDbEntity
  8
SANINDUSA
  6
Continuous
370
    15
100
AcDbLine
 10
189.5499315544311
 20
-228.5227025468006
 30
0.0
 11
189.5518860592692
 21
-228.5228233440653
 31
0.0
  0
LINE
  5
1FC
330
23
100
AcDbEntity
  8
SANINDUSA
  6
Continuous
370
    15
100
AcDbLine
 10
189.5489167676123
 20
-228.5240574099281
 30
0.0
 11
189.5476364789486
 21
-228.5236564020067
 31
0.0
  0
LINE
  5
1FD
330
23
100
AcDbEntity
  8
SANINDUSA
  6
Continuous
370
    15
100
AcDbLine
 10
189.5423437629182
 20
-228.5243867250974
 30
0.0
 11
189.5429182277663
 21
-228.5248851271408
 31
0.0
  0
LINE
  5
1FE
330
23
100
AcDbEntity
  8
SANINDUSA
  6
Continuous
370
    15
100
AcDbLine
 10
189.5373021765875
 20
-228.5248357222496
 30
0.0
 11
189.5380029089844
 21
-228.5243485382274
 31
0.0
  0
ARC
  5
1FF
330
23
100
AcDbEntity
  8
SANINDUSA
  6
Continuous
370
    15
100
AcDbCircle
 10
189.5405076361596
 20
-228.4863271957162
 30
0.0
 40
0.0381038066614513
100
AcDbArc
 50
266.2309889243342
 51
272.7620190760242
  0
LINE
  5
200
330
23
100
AcDbEntity
  8
SANINDUSA
  6
Continuous
370
    15
100
AcDbLine
 10
189.5380029419108
 20
-228.5242322419469
 30
0.0
 11
189.5380029089844
 21
-228.5243485382274
 31
0.0
  0
LINE
  5
201
330
23
100
AcDbEntity
  8
SANINDUSA
  6
Continuous
370
    15
100
AcDbLine
 10
189.542343784277
 20
-228.5242721770589
 30
0.0
 11
189.5423437629182
 21
-228.5243867250974
 31
0.0
  0
LWPOLYLINE
  5
202
330
23
100
AcDbEntity
  8
SANINDUSA
  6
Continuous
370
    15
100
AcDbPolyline
 90
       38
 70
   128
 43
0.0
 10
189.5404845365925
 20
-228.4977837537114
 10
189.5426477977677
 20
-228.4976058934514
 10
189.5447488912983
 20
-228.4970775578801
 10
189.5467273929759
 20
-228.496213767368
 10
189.5485263803645
 20
-228.4950394366567
 10
189.5500941166325
 20
-228.4935884211843
 10
189.5513854661627
 20
-228.4919023249929
 10
189.5523633101626
 20
-228.4900299046819
 10
189.5529995003386
 20
-228.4880246852223
 10
189.5532757380648
 20
-228.485944602329
 10
189.5531840810223
 20
-228.4838494990651
 10
189.5527271518155
 20
-228.4817994569127
 10
189.5519181230708
 20
-228.4798536036794
 10
189.5507802555009
 20
-228.4780679677312
 10
189.5493462720557
 20
-228.4764938090627
 10
189.5476574340506
 20
-228.4751763079945
 10
189.5457623341723
 20
-228.4741536114995
 10
189.5437154659672
 20
-228.4734550450628
 10
189.5415757486268
 20
-228.4731006358449
 10
189.5394047239466
 20
-228.4731006358449
 10
189.5372648426934
 20
-228.4734550450628
 10
189.5352176615639
 20
-228.4741536114995
 10
189.5333220848485
 20
-228.4751763079945
 10
189.5316326358958
 20
-228.4764938090627
 10
189.5301979371949
 20
-228.4780679677312
 10
189.5290592351599
 20
-228.4798536036794
 10
189.5282492974444
 20
-228.4817994569127
 10
189.5277914294644
 20
-228.4838494990651
 10
189.5276988038464
 20
-228.485944602329
 10
189.5279740878983
 20
-228.4880246852223
 10
189.5286093542024
 20
-228.4900299046819
 10
189.5295863339349
 20
-228.4919023249929
 10
189.5308769086047
 20
-228.4935884211843
 10
189.5324439594193
 20
-228.4950394366567
 10
189.5342424103661
 20
-228.496213767368
 10
189.5362205097123
 20
-228.4970775578801
 10
189.5383213648243
 20
-228.4976058934514
 10
189.5404845365925
 20
-228.4977837537114
  0
ARC
  5
203
330
23
100
AcDbEntity
  8
SANINDUSA
  6
Continuous
370
    15
100
AcDbCircle
 10
189.5402439648281
 20
-228.4852649282714
 30
0.0
 40
0.0127587603460281
100
AcDbArc
 50
181.1159831055863
 51
269.2686143399243
  0
ARC
  5
204
330
23
100
AcDbEntity
  8
SANINDUSA
  6
Continuous
370
    15
100
AcDbCircle
 10
189.5407457830904
 20
-228.4852683468221
 30
0.0
 40
0.0127427389576233
100
AcDbArc
 50
273.8401469395907
 51
359.2737764315663
  0
ELLIPSE
  5
205
330
23
100
AcDbEntity
  8
SANINDUSA
  6
Continuous
370
    15
100
AcDbEllipse
 10
189.5405040305433
 20
-228.4905962893141
 30
0.0
 11
0.0129999984132186
 21
0.0000184958890645
 31
0.0
210
0.0
220
0.0
230
0.9999999999999996
 40
0.6672870312314502
 41
3.139460499586572
 42
6.281053153176385
  0
ELLIPSE
  5
206
330
23
100
AcDbEntity
  8
SANINDUSA
  6
Continuous
370
    15
100
AcDbEllipse
 10
189.5405040305433
 20
-228.4905962893141
 30
0.0
 11
0.0129999452342966
 21
0.0000452455885352
 31
0.0
210
0.0
220
0.0
230
1.0
 40
0.8557072813390671
 41
3.137525345255386
 42
6.279117998845196
  0
LWPOLYLINE
  5
207
330
23
100
AcDbEntity
  8
SANINDUSA
  6
Continuous
370
    15
100
AcDbPolyline
 90
       39
 70
   128
 43
0.0
 10
189.5404858627959
 20
-228.5191071961705
 10
189.5426257440491
 20
-228.519153091747
 10
189.544707540576
 20
-228.5192894671742
 10
189.5466744789525
 20
-228.5195127461736
 10
189.5484729000969
 20
-228.5198166106527
 10
189.550053764288
 20
-228.520193073589
 10
189.5513739177628
 20
-228.520631525356
 10
189.5523973742171
 20
-228.5211202834432
 10
189.5530962237759
 20
-228.5216458772008
 10
189.5534513780518
 20
-228.5221940015142
 10
189.5534531661912
 20
-228.5227496360128
 10
189.5531015285893
 20
-228.5232977603261
 10
189.5524060615941
 20
-228.5238233540837
 10
189.5513857492848
 20
-228.5243121121709
 10
189.5500684121295
 20
-228.5247506831471
 10
189.5484899768277
 20
-228.5251270268743
 10
189.5466934928341
 20
-228.5254310105626
 10
189.5447279998704
 20
-228.5256541703526
 10
189.5426470676108
 20
-228.5257905457799
 10
189.5405074843808
 20
-228.5258364413564
 10
189.5383676180287
 20
-228.5257905457799
 10
189.5362858066006
 20
-228.5256541703526
 10
189.5343188682242
 20
-228.5254310105626
 10
189.5325204470797
 20
-228.5251270268743
 10
189.5309395977898
 20
-228.5247506831471
 10
189.5296194294139
 20
-228.5243121121709
 10
189.5285959729596
 20
-228.5238233540837
 10
189.5278971234008
 20
-228.5232977603261
 10
189.5275419691249
 20
-228.5227496360128
 10
189.5275401809855
 20
-228.5221940015142
 10
189.5278918185874
 20
-228.5216458772008
 10
189.5285872855826
 20
-228.5211202834432
 10
189.5296075978919
 20
-228.520631525356
 10
189.5309249499484
 20
-228.520193073589
 10
189.5325033852502
 20
-228.5198166106527
 10
189.5342998543425
 20
-228.5195127461736
 10
189.5362653473063
 20
-228.5192894671742
 10
189.5383462795659
 20
-228.519153091747
 10
189.5404858627959
 20
-228.5191071961705
  0
LWPOLYLINE
  5
208
330
23
100
AcDbEntity
  8
SANINDUSA
  6
Continuous
370
    15
100
AcDbPolyline
 90
       38
 70
   128
 43
0.0
 10
189.5404864439412
 20
-228.5192883942906
 10
189.5425653049393
 20
-228.5193341706578
 10
189.5445846506997
 20
-228.5194701884572
 10
189.5464863815947
 20
-228.5196926329915
 10
189.5482158103629
 20
-228.5199949477498
 10
189.5497231820269
 20
-228.5203685496632
 10
189.5509651193066
 20
-228.5208027098958
 10
189.5519058892174
 20
-228.521284911472
 10
189.5525184461518
 20
-228.5218012069051
 10
189.5527851471348
 20
-228.5223366950337
 10
189.5526983478709
 20
-228.5228762362783
 10
189.5522605219527
 20
-228.5234039758031
 10
189.5514842608615
 20
-228.5239050124471
 10
189.550391916339
 20
-228.5243648026769
 10
189.5490149000331
 20
-228.5247701142613
 10
189.5473928341313
 20
-228.5251093838994
 10
189.5455723890706
 20
-228.52537271722
 10
189.5436059126302
 20
-228.5255526040379
 10
189.5415499845191
 20
-228.5256437991445
 10
189.5394637623473
 20
-228.5256437991445
 10
189.5374072530909
 20
-228.5255526040379
 10
189.5354396143599
 20
-228.52537271722
 10
189.5336174705668
 20
-228.5251093838994
 10
189.5319932141944
 20
-228.5247701142613
 10
189.5306136050864
 20
-228.5243648026769
 10
189.5295182952328
 20
-228.5239050124471
 10
189.528738830392
 20
-228.5234039758031
 10
189.528297607009
 20
-228.5228762362783
 10
189.5282073208733
 20
-228.5223366950337
 10
189.5284705945893
 20
-228.5218012069051
 10
189.5290798285647
 20
-228.521284911472
 10
189.530017499034
 20
-228.5208027098958
 10
189.5312566497965
 20
-228.5203685496632
 10
189.5327616074725
 20
-228.5199949477498
 10
189.5344890990897
 20
-228.5196926329915
 10
189.5363894143744
 20
-228.5194701884572
 10
189.5384078809662
 20
-228.5193341706578
 10
189.5404864439412
 20
-228.5192883942906
  0
LWPOLYLINE
  5
209
330
23
100
AcDbEntity
  8
SANINDUSA
  6
Continuous
370
    15
100
AcDbPolyline
 90
       21
 70
   128
 43
0.0
 10
189.5284606257125
 20
-228.5218132470433
 10
189.5283967593356
 20
-228.5221372578923
 10
189.5285823234959
 20
-228.5226810906713
 10
189.5291299113675
 20
-228.5232083533589
 10
189.5300228783532
 20
-228.5237030719106
 10
189.5312340894385
 20
-228.5241502259557
 10
189.5327267387553
 20
-228.5245362256353
 10
189.5344554671689
 20
-228.5248493884389
 10
189.5363677629872
 20
-228.5250800584142
 10
189.5384055265828
 20
-228.5252213214223
 10
189.5405068138285
 20
-228.5252688859288
 10
189.542607803051
 20
-228.5252213214223
 10
189.5446446576758
 20
-228.5250800584142
 10
189.546555463378
 20
-228.5248493884389
 10
189.548282195036
 20
-228.5245362256353
 10
189.5497723558589
 20
-228.5241502259557
 10
189.5509806910201
 20
-228.5237030719106
 10
189.5518704691573
 20
-228.5232083533589
 10
189.5524146744652
 20
-228.5226810906713
 10
189.5525967517539
 20
-228.5221372578923
 10
189.5525330194874
 20
-228.5218188498799
  0
LINE
  5
20A
330
23
100
AcDbEntity
  8
SANINDUSA
  6
Continuous
370
    15
100
AcDbLine
 10
189.5406722425932
 20
-228.7089708970372
 30
0.0
 11
189.5631722425932
 21
-228.7089708970372
 31
0.0
  0
LINE
  5
20B
330
23
100
AcDbEntity
  8
SANINDUSA
  6
Continuous
370
    15
100
AcDbLine
 10
189.5181722425932
 20
-228.7089708970372
 30
0.0
 11
189.5406722425932
 21
-228.7089708970372
 31
0.0
  0
LINE
  5
20C
330
23
100
AcDbEntity
  8
SANINDUSA
  6
Continuous
370
    15
100
AcDbLine
 10
189.5406722425932
 20
-228.7139708970372
 30
0.0
 11
189.5631722425932
 21
-228.7139708970372
 31
0.0
  0
LINE
  5
20D
330
23
100
AcDbEntity
  8
SANINDUSA
  6
Continuous
370
    15
100
AcDbLine
 10
189.5181722425932
 20
-228.7139708970372
 30
0.0
 11
189.5406722425932
 21
-228.7139708970372
 31
0.0
  0
ARC
  5
20F
330
23
100
AcDbEntity
  8
SANINDUSA
  6
Continuous
370
    15
100
AcDbCircle
 10
190.6218353367643
 20
-228.7350677125069
 30
0.0
 40
1.063667706767087
100
AcDbArc
 50
179.8776723339277
 51
180.168502311368
  0
LWPOLYLINE
  5
212
330
23
100
AcDbEntity
  8
SANINDUSA
  6
Continuous
370
    15
100
AcDbPolyline
 90
        9
 70
   128
 43
0.0
 10
189.604861069624
 20
-228.7431278560941
 10
189.604937423174
 20
-228.7431401942555
 10
189.6052735337659
 20
-228.7429638241117
 10
189.6056863257332
 20
-228.7424681518857
 10
189.6061259397908
 20
-228.7417130206411
 10
189.6065394172116
 20
-228.7407894466702
 10
189.6068768391057
 20
-228.7398088906591
 10
189.607097525303
 20
-228.7388896082227
 10
189.6071748623296
 20
-228.7381424640004
  0
LWPOLYLINE
  5
213
330
23
100
AcDbEntity
  8
SANINDUSA
  6
Continuous
370
    15
100
AcDbPolyline
 90
        3
 70
   128
 43
0.0
 10
189.5581722298308
 20
-228.7321958874051
 10
189.5581711718484
 20
-228.7323254082982
 10
189.5581700542613
 20
-228.7327967618291
  0
LWPOLYLINE
  5
214
330
23
100
AcDbEntity
  8
SANINDUSA
  6
Continuous
370
    15
100
AcDbPolyline
 90
        3
 70
   128
 43
0.0
 10
189.6069569179459
 20
-228.7375057671849
 10
189.6070995220586
 20
-228.7376575206105
 10
189.6071748623296
 20
-228.7381424640004
  0
LINE
  5
216
330
23
100
AcDbEntity
  8
SANINDUSA
  6
Continuous
370
    15
100
AcDbLine
 10
189.5331169975473
 20
-228.7319708970372
 30
0.0
 11
189.5631722425932
 21
-228.7319708970372
 31
0.0
  0
LWPOLYLINE
  5
217
330
23
100
AcDbEntity
  8
SANINDUSA
  6
Continuous
370
    15
100
AcDbPolyline
 90
       11
 70
   128
 43
0.0
 10
189.533117000167
 20
-228.7389709089581
 10
189.5320430436774
 20
-228.7387763593976
 10
189.5311068782254
 20
-228.7382158373181
 10
189.5303980746909
 20
-228.737344834644
 10
189.5299915412112
 20
-228.7362559769933
 10
189.5299310872002
 20
-228.7350856993977
 10
189.5302141198559
 20
-228.7339690063779
 10
189.5308142194195
 20
-228.7330154512708
 10
189.5316842982216
 20
-228.732327792484
 10
189.5327332207604
 20
-228.7319948409383
 10
189.533117000167
 20
-228.7319708798711
  0
LINE
  5
218
330
23
100
AcDbEntity
  8
SANINDUSA
  6
Continuous
370
    15
100
AcDbLine
 10
189.5631722425932
 20
-228.7389708970372
 30
0.0
 11
189.5331169975473
 21
-228.7389708970372
 31
0.0
  0
LINE
  5
219
330
23
100
AcDbEntity
  8
SANINDUSA
  6
Continuous
370
    15
100
AcDbLine
 10
189.5331169975473
 20
-228.7139708970372
 30
0.0
 11
189.5181722425932
 21
-228.7139708970372
 31
0.0
  0
LINE
  5
21A
330
23
100
AcDbEntity
  8
SANINDUSA
  6
Continuous
370
    15
100
AcDbLine
 10
189.5631722425932
 20
-228.7139708970372
 30
0.0
 11
189.5331169975473
 21
-228.7139708970372
 31
0.0
  0
LWPOLYLINE
  5
21B
330
23
100
AcDbEntity
  8
SANINDUSA
  6
Continuous
370
    15
100
AcDbPolyline
 90
       11
 70
   128
 43
0.0
 10
189.5346280524178
 20
-228.7319708798711
 10
189.5335605779334
 20
-228.7321639393155
 10
189.5326342919512
 20
-228.7327193950002
 10
189.531931612794
 20
-228.7335864041631
 10
189.5315266737386
 20
-228.7346764539067
 10
189.5314641931697
 20
-228.7358450625722
 10
189.5317369440242
 20
-228.7369553778951
 10
189.5323207864209
 20
-228.7379078005139
 10
189.5331788846894
 20
-228.7386026714627
 10
189.5342230984612
 20
-228.7389441464727
 10
189.5346280524178
 20
-228.7389709089581
  0
LINE
  5
21C
330
23
100
AcDbEntity
  8
SANINDUSA
  6
Continuous
370
    15
100
AcDbLine
 10
189.6021722425932
 20
-229.5497469644192
 30
0.0
 11
189.4791722425932
 21
-229.5497469644192
 31
0.0
  0
LINE
  5
21E
330
23
100
AcDbEntity
  8
SANINDUSA
  6
Continuous
370
    15
100
AcDbLine
 10
189.5700718481871
 20
-229.5357469644192
 30
0.0
 11
189.4791722425932
 21
-229.5357469644192
 31
0.0
  0
LINE
  5
220
330
23
100
AcDbEntity
  8
SANINDUSA
  6
Continuous
370
    15
100
AcDbLine
 10
189.6021722425932
 20
-229.5357469644192
 30
0.0
 11
189.5700718481871
 21
-229.5357469644192
 31
0.0
  0
LWPOLYLINE
  5
235
330
23
100
AcDbEntity
  8
SANINDUSA
  6
Continuous
370
    15
100
AcDbPolyline
 90
        3
 70
   128
 43
0.0
 10
189.5415992030545
 20
-228.4979824755971
 10
189.5404846558018
 20
-228.4980287288014
 10
189.5400811025544
 20
-228.4980226491277
  0
ARC
  5
236
330
23
100
AcDbEntity
  8
SANINDUSA
  6
Continuous
370
    15
100
AcDbCircle
 10
189.5408604019416
 20
-228.5307998066838
 30
0.0
 40
0.0127746518861661
100
AcDbArc
 50
268.9712516713615
 51
359.2208192156355
  0
ARC
  5
237
330
23
100
AcDbEntity
  8
SANINDUSA
  6
Continuous
370
    15
100
AcDbCircle
 10
189.5404018056981
 20
-228.5308041599661
 30
0.0
 40
0.0127702971866343
100
AcDbArc
 50
181.1348946578506
 51
271.0285695699501
  0
LINE
  5
238
330
23
100
AcDbEntity
  8
SANINDUSA
  6
Continuous
370
    15
100
AcDbLine
 10
189.5406610466477
 20
-228.5889708970372
 30
0.0
 11
189.5536722425809
 21
-228.5889708970372
 31
0.0
  0
LINE
  5
239
330
23
100
AcDbEntity
  8
SANINDUSA
  6
Continuous
370
    15
100
AcDbLine
 10
189.5276722425978
 20
-228.5889708970372
 30
0.0
 11
189.5406610466477
 21
-228.5889708970372
 31
0.0
  0
ARC
  5
23A
330
23
100
AcDbEntity
  8
SANINDUSA
  6
Continuous
370
    15
100
AcDbCircle
 10
190.6563134043588
 20
-228.7350652865652
 30
0.0
 40
1.069688143770511
100
AcDbArc
 50
179.8784907624234
 51
180.1676838828356
  0
LWPOLYLINE
  5
23B
330
23
100
AcDbEntity
  8
SANINDUSA
  6
Continuous
370
    15
100
AcDbPolyline
 90
        9
 70
   128
 43
0.0
 10
189.5961467811509
 20
-228.7398792241399
 10
189.5962253996773
 20
-228.7398925159757
 10
189.5965615400715
 20
-228.7397160862271
 10
189.5969743022366
 20
-228.7392204140012
 10
189.5974139460965
 20
-228.7384652827565
 10
189.5978274235173
 20
-228.7375417087857
 10
189.5981648454114
 20
-228.7365611527745
 10
189.5983855316087
 20
-228.7356418703382
 10
189.5984628686352
 20
-228.7348947261159
  0
LWPOLYLINE
  5
23C
330
23
100
AcDbEntity
  8
SANINDUSA
  6
Continuous
370
    15
100
AcDbPolyline
 90
        3
 70
   128
 43
0.0
 10
189.5984628686352
 20
-228.7348947261159
 10
189.5983875283642
 20
-228.7344098423306
 10
189.5982417652055
 20
-228.7342568968122
  0
LWPOLYLINE
  5
23D
330
23
100
AcDbEntity
  8
SANINDUSA
  6
Continuous
370
    15
100
AcDbPolyline
 90
        3
 70
   128
 43
0.0
 10
189.5866276660605
 20
-228.7327967618291
 10
189.5866287836476
 20
-228.7323254082982
 10
189.5866298416301
 20
-228.7321958874051
  0
LINE
  5
24A
330
23
100
AcDbEntity
  8
SANINDUSA
  6
Continuous
370
    15
100
AcDbLine
 10
189.1711622532033
 20
-229.2273071879025
 30
0.0
 11
189.1712921676369
 21
-229.0764612621343
 31
0.0
  0
LINE
  5
24B
330
23
100
AcDbEntity
  8
SANINDUSA
  6
Continuous
370
    15
100
AcDbLine
 10
189.1711457838276
 20
-229.246432509054
 30
0.0
 11
189.1711622532033
 21
-229.2273071879025
 31
0.0
  0
LINE
  5
24C
330
23
100
AcDbEntity
  8
SANINDUSA
  6
Continuous
370
    15
100
AcDbLine
 10
189.1451622601175
 20
-229.2272847914572
 30
0.0
 11
189.1451457934698
 21
-229.246410117163
 31
0.0
  0
LINE
  5
24D
330
23
100
AcDbEntity
  8
SANINDUSA
  6
Continuous
370
    15
100
AcDbLine
 10
189.1452921772792
 20
-229.0764388702433
 30
0.0
 11
189.1451622601175
 21
-229.2272847914572
 31
0.0
  0
LWPOLYLINE
  5
24E
330
23
100
AcDbEntity
  8
SANINDUSA
  6
Continuous
370
    15
100
AcDbPolyline
 90
       18
 70
   128
 43
0.0
 10
189.1453304793262
 20
-229.0319680297251
 10
189.1453303303146
 20
-229.0321458098914
 10
189.1453298683786
 20
-229.032678101721
 10
189.1453291084194
 20
-229.0335617461677
 10
189.1453280504369
 20
-229.0347915091987
 10
189.1453266944312
 20
-229.0363601022835
 10
189.1453250553035
 20
-229.0382582289602
 10
189.1453231479549
 20
-229.04047464444
 10
189.1453209723854
 20
-229.0429962114866
 10
189.1453185583972
 20
-229.0458079860981
 10
189.1453159059905
 20
-229.0488933087762
 10
189.1453130300664
 20
-229.0522338920708
 10
189.1453099455261
 20
-229.0558099435146
 10
189.1453066821718
 20
-229.0596002662058
 10
189.1453032549047
 20
-229.0635824040945
 10
189.145299678626
 20
-229.0677327574666
 10
189.145295983138
 20
-229.0720267282303
 10
189.1452921833419
 20
-229.0764388689275
  0
LWPOLYLINE
  5
24F
330
23
100
AcDbEntity
  8
SANINDUSA
  6
Continuous
370
    15
100
AcDbPolyline
 90
       18
 70
   128
 43
0.0
 10
189.1712921615266
 20
-229.0764612653728
 10
189.1712959613227
 20
-229.072049117225
 10
189.1712996717119
 20
-229.0677551464613
 10
189.1713032330894
 20
-229.0636047968145
 10
189.1713066752576
 20
-229.0596226589258
 10
189.1713099386119
 20
-229.0558323325093
 10
189.1713130082511
 20
-229.0522562847908
 10
189.1713158841753
 20
-229.0489157014961
 10
189.1713185514831
 20
-229.0458303788181
 10
189.1713209654712
 20
-229.0430186023439
 10
189.1713231410408
 20
-229.0404970352973
 10
189.1713250483894
 20
-229.0382806216802
 10
189.1713266875171
 20
-229.0363824931409
 10
189.1713280286216
 20
-229.034813900056
 10
189.1713291015052
 20
-229.033584137025
 10
189.1713298614645
 20
-229.0327004925783
 10
189.1713303084993
 20
-229.0321682026114
 10
189.171330472412
 20
-229.0319904205825
  0
LINE
  5
250
330
23
100
AcDbEntity
  8
SANINDUSA
  6
Continuous
370
    15
100
AcDbLine
 10
189.2042917058297
 20
-229.0290349002713
 30
0.0
 11
189.1806331928396
 21
-229.0290062413986
 31
0.0
  0
ARC
  5
251
330
23
100
AcDbEntity
  8
SANINDUSA
  6
Continuous
370
    15
100
AcDbCircle
 10
189.2045059825789
 20
-228.9931246920911
 30
0.0
 40
0.0359108472501563
100
AcDbArc
 50
269.6581209306375
 51
285.4063601901407
  0
LINE
  5
252
330
23
100
AcDbEntity
  8
SANINDUSA
  6
Continuous
370
    15
100
AcDbLine
 10
189.1806259210729
 20
-229.0350062367942
 30
0.0
 11
189.2042844374812
 21
-229.0350348958689
 31
0.0
  0
ARC
  5
253
330
23
100
AcDbEntity
  8
SANINDUSA
  6
Continuous
370
    15
100
AcDbCircle
 10
189.2046858181613
 20
-228.9947186715781
 30
0.0
 40
0.0403182218835186
100
AcDbArc
 50
269.4295895386554
 51
285.7806175593412
  0
LINE
  5
254
330
23
100
AcDbEntity
  8
SANINDUSA
  6
Continuous
370
    15
100
AcDbLine
 10
189.2227619436572
 20
-229.025323897042
 30
0.0
 11
189.214046281321
 21
-229.0277525752379
 31
0.0
  0
LINE
  5
255
330
23
100
AcDbEntity
  8
SANINDUSA
  6
Continuous
370
    15
100
AcDbLine
 10
189.2156547595806
 20
-229.0335328804677
 30
0.0
 11
189.224372509206
 21
-229.0311036962265
 31
0.0
  0
LWPOLYLINE
  5
256
330
23
100
AcDbEntity
  8
SANINDUSA
  6
Continuous
370
    15
100
AcDbPolyline
 90
       38
 70
   128
 43
0.0
 10
189.1581427659416
 20
-229.2499273741122
 10
189.1603060271167
 20
-229.249881597745
 10
189.1624071206474
 20
-229.2497418099518
 10
189.1643856223249
 20
-229.2495120638485
 10
189.1661846097135
 20
-229.2491989606495
 10
189.1677523459815
 20
-229.2488115155573
 10
189.1690436955118
 20
-229.2483608597393
 10
189.1700215395116
 20
-229.2478599572058
 10
189.1706577296876
 20
-229.2473232322808
 10
189.1709339674138
 20
-229.246766107666
 10
189.1708423103714
 20
-229.2462046319123
 10
189.1703853811645
 20
-229.2456549578782
 10
189.1695763524198
 20
-229.2451328658934
 10
189.1684384848499
 20
-229.2446534061308
 10
189.1670045014047
 20
-229.2442303770657
 10
189.1653156633996
 20
-229.2438759231444
 10
189.1634205635213
 20
-229.2436002516623
 10
189.1613736953163
 20
-229.2434112900372
 10
189.1592339779758
 20
-229.2433144920941
 10
189.1570629532957
 20
-229.2433126145478
 10
189.1549230720424
 20
-229.2434057319041
 10
189.152875890913
 20
-229.243591161954
 10
189.1509803141975
 20
-229.2438635700817
 10
189.1492908652448
 20
-229.2442151182766
 10
189.1478561665439
 20
-229.2446356886502
 10
189.146717464509
 20
-229.2451131814595
 10
189.1459075267934
 20
-229.2456338727351
 10
189.1454496588134
 20
-229.2461827719088
 10
189.1453570331954
 20
-229.2467440837498
 10
189.1456323172473
 20
-229.2473016703005
 10
189.1462675835514
 20
-229.2478394979115
 10
189.1472445632839
 20
-229.2483420842762
 10
189.1485351379537
 20
-229.2487949603672
 10
189.1501021887683
 20
-229.2491851174708
 10
189.1519006397151
 20
-229.2495013201113
 10
189.1538787390613
 20
-229.2497344636793
 10
189.1559795941734
 20
-229.2498778575535
 10
189.1581427659416
 20
-229.2499273741122
  0
LWPOLYLINE
  5
257
330
23
100
AcDbEntity
  8
SANINDUSA
  6
Continuous
370
    15
100
AcDbPolyline
 90
       21
 70
   128
 43
0.0
 10
189.1451457943344
 20
-229.2464101189251
 10
189.1451904382133
 20
-229.2461323016758
 10
189.1455442960882
 20
-229.2455844902868
 10
189.1462419088506
 20
-229.2450594925757
 10
189.1472642179155
 20
-229.2445716583605
 10
189.1485833432102
 20
-229.244134264576
 10
189.1501633133316
 20
-229.2437592619534
 10
189.1519610192203
 20
-229.2434568726893
 10
189.1539274360561
 20
-229.2432353371258
 10
189.1560089196586
 20
-229.2431007200356
 10
189.1581486817026
 20
-229.2430566722031
 10
189.1602883692407
 20
-229.2431044006224
 10
189.1623696144247
 20
-229.2432426088925
 10
189.1643356438303
 20
-229.2434675270195
 10
189.1661328430795
 20
-229.2437730157252
 10
189.1677121575498
 20
-229.2441507303591
 10
189.1690305377864
 20
-229.2445904040213
 10
189.1700519974851
 20
-229.2450799965735
 10
189.1707487012767
 20
-229.2456062012787
 10
189.1711016203784
 20
-229.2461546236153
 10
189.1711457874202
 20
-229.2464325153704
  0
ARC
  5
258
330
23
100
AcDbEntity
  8
SANINDUSA
  6
Continuous
370
    15
100
AcDbCircle
 10
189.1583304719422
 20
-229.0319792253872
 30
0.0
 40
0.0130000000000002
100
AcDbArc
 50
359.9506553463845
 51
179.9506553463845
  0
ARC
  5
259
330
23
100
AcDbEntity
  8
SANINDUSA
  6
Continuous
370
    15
100
AcDbCircle
 10
189.1583304719422
 20
-229.0319792253872
 30
0.0
 40
0.0225000000000001
100
AcDbArc
 50
305.245050021816
 51
234.6562606686344
  0
LWPOLYLINE
  5
25B
330
23
100
AcDbEntity
  8
SANINDUSA
  6
Continuous
370
    15
100
AcDbPolyline
 90
        8
 70
   128
 43
0.0
 10
189.2227619494819
 20
-229.025323897178
 10
189.2229367997074
 20
-229.0253191148366
 10
189.2233502771282
 20
-229.0255673681821
 10
189.2237898911857
 20
-229.0261348202328
 10
189.2242026831531
 20
-229.0269530271615
 10
189.2245388235473
 20
-229.0279233013715
 10
189.2247577514076
 20
-229.0289286137994
 10
189.2248330916786
 20
-229.0298477081086
  0
LWPOLYLINE
  5
25D
330
23
100
AcDbEntity
  8
SANINDUSA
  6
Continuous
370
    15
100
AcDbPolyline
 90
        4
 70
   128
 43
0.0
 10
189.2243724967861
 20
-229.0311036953206
 10
189.2245350684547
 20
-229.0310075902815
 10
189.224755754652
 20
-229.0305697289731
 10
189.2248330916786
 20
-229.0298477081086
  0
ARC
  5
261
330
23
100
AcDbEntity
  8
SANINDUSA
  6
Continuous
370
    15
100
AcDbCircle
 10
189.1583304719422
 20
-229.0319792253872
 30
0.0
 40
0.0615000000000001
100
AcDbArc
 50
282.1540152914207
 51
298.5576238142083
  0
ARC
  5
262
330
23
100
AcDbEntity
  8
SANINDUSA
  6
Continuous
370
    15
100
AcDbCircle
 10
189.1583304719422
 20
-229.0319792253872
 30
0.0
 40
0.0615000000000003
100
AcDbArc
 50
118.5576238142083
 51
257.7558961468791
  0
ARC
  5
263
330
23
100
AcDbEntity
  8
SANINDUSA
  6
Continuous
370
    15
100
AcDbCircle
 10
189.1583304719422
 20
-229.0319792253872
 30
0.0
 40
0.0615000000000003
100
AcDbArc
 50
5.376971737234769
 51
118.5576238142083
  0
ARC
  5
264
330
23
100
AcDbEntity
  8
SANINDUSA
  6
Continuous
370
    15
100
AcDbCircle
 10
189.1583304719422
 20
-229.0319792253872
 30
0.0
 40
0.0615000000000001
100
AcDbArc
 50
298.5576238142083
 51
359.6362166813767
  0
LWPOLYLINE
  5
2A4
330
23
100
AcDbEntity
  8
SANINDUSA
  6
Continuous
370
    15
100
AcDbPolyline
 90
       21
 70
   128
 43
0.0
 10
189.1712921615266
 20
-229.0764612653728
 10
189.171248009386
 20
-229.0761833736177
 10
189.1708950753831
 20
-229.0756349512811
 10
189.1701983864927
 20
-229.0751087540265
 10
189.1691769118928
 20
-229.0746191502984
 10
189.1678585465574
 20
-229.0741794915374
 10
189.1662792171859
 20
-229.0738017657275
 10
189.1644820328378
 20
-229.0734962770219
 10
189.1625160034322
 20
-229.0732713626201
 10
189.1604347582483
 20
-229.0731331506248
 10
189.1582950707101
 20
-229.0730854184802
 10
189.1561553086662
 20
-229.0731294663127
 10
189.1540738250636
 20
-229.0732640908535
 10
189.1521074082279
 20
-229.0734856189664
 10
189.1503097023391
 20
-229.0737880119558
 10
189.1487297322177
 20
-229.0741630145784
 10
189.1474105920219
 20
-229.0746004046376
 10
189.146388282957
 20
-229.0750882500287
 10
189.1456906850957
 20
-229.0756132402893
 10
189.1453368123197
 20
-229.0761610591288
 10
189.1452921833419
 20
-229.0764388689275
  0
LWPOLYLINE
  5
2A5
330
23
100
AcDbEntity
  8
SANINDUSA
  6
Continuous
370
    15
100
AcDbPolyline
 90
        8
 70
   128
 43
0.0
 10
189.2042858954095
 20
-229.0338360262539
 10
189.2042870129966
 20
-229.0329068475838
 10
189.2042882646942
 20
-229.0318724983807
 10
189.2042895014905
 20
-229.030857736754
 10
189.204290559473
 20
-229.0299849589791
 10
189.2042913194322
 20
-229.0293594324465
 10
189.2042916770601
 20
-229.0290566091861
 10
189.2042917068624
 20
-229.0290349000569
  0
LWPOLYLINE
  5
2A7
330
23
100
AcDbEntity
  8
SANINDUSA
  6
Continuous
370
    15
100
AcDbPolyline
 90
        8
 70
   128
 43
0.0
 10
189.2161210979843
 20
-229.0322753456856
 10
189.2160457577133
 20
-229.0313562495138
 10
189.2158268000507
 20
-229.0303509370859
 10
189.2154906894588
 20
-229.0293806628759
 10
189.2150778974914
 20
-229.0285624568786
 10
189.2146382834338
 20
-229.0279950057592
 10
189.2142248060131
 20
-229.0277467514823
 10
189.214046290102
 20
-229.0277525750424
  0
LWPOLYLINE
  5
2A8
330
23
100
AcDbEntity
  8
SANINDUSA
  6
Continuous
370
    15
100
AcDbPolyline
 90
        4
 70
   128
 43
0.0
 10
189.2042844350957
 20
-229.0350348954524
 10
189.2042845394039
 20
-229.0349567872907
 10
189.2042850311422
 20
-229.0345479627575
 10
189.2042858954095
 20
-229.0338360262539
  0
LWPOLYLINE
  5
2A9
330
23
100
AcDbEntity
  8
SANINDUSA
  6
Continuous
370
    15
100
AcDbPolyline
 90
        4
 70
   128
 43
0.0
 10
189.2156547512435
 20
-229.0335328807558
 10
189.2158230747604
 20
-229.0334352259959
 10
189.2160437609577
 20
-229.0329973665501
 10
189.2161210979843
 20
-229.0322753456856
  0
LINE
  5
2AB
330
23
100
AcDbEntity
  8
SANINDUSA
  6
Continuous
370
    15
100
AcDbLine
 10
189.1732202280109
 20
-229.0151107588234
 30
0.0
 11
189.1732533163577
 21
-229.0150732733421
 31
0.0
  0
LINE
  5
2AE
330
23
100
AcDbEntity
  8
SANINDUSA
  6
Continuous
370
    15
100
AcDbLine
 10
190.1771929721058
 20
-228.4729146367913
 30
0.0
 11
190.007221725186
 21
-228.5184583120301
 31
0.0
  0
LINE
  5
2AF
330
23
100
AcDbEntity
  8
SANINDUSA
  6
Continuous
370
    15
100
AcDbLine
 10
190.1792858331394
 20
-228.4992710088078
 30
0.0
 11
190.1839222671949
 21
-228.4980287079628
 31
0.0
  0
LINE
  5
2B0
330
23
100
AcDbEntity
  8
SANINDUSA
  6
Continuous
370
    15
100
AcDbLine
 10
190.0139510202751
 20
-228.5435723832016
 30
0.0
 11
190.1503080665064
 21
-228.5070355866734
 31
0.0
  0
LINE
  5
2B1
330
23
100
AcDbEntity
  8
SANINDUSA
  6
Continuous
370
    15
100
AcDbLine
 10
190.1527575491858
 20
-228.5084497664754
 30
0.0
 11
190.1574162858557
 21
-228.5258364880037
 31
0.0
  0
LINE
  5
2B2
330
23
100
AcDbEntity
  8
SANINDUSA
  6
Continuous
370
    15
100
AcDbLine
 10
190.1825303529943
 20
-228.5191071939953
 30
0.0
 11
190.177871608634
 21
-228.5017205212895
 31
0.0
  0
ARC
  5
2B3
330
23
100
AcDbEntity
  8
SANINDUSA
  6
Continuous
370
    15
100
AcDbCircle
 10
190.179735620765
 20
-228.5011526675585
 30
0.0
 40
0.0019248475825906
100
AcDbArc
 50
104.5421838528843
 51
195.8555080067758
  0
ARC
  5
2B4
330
23
100
AcDbEntity
  8
SANINDUSA
  6
Continuous
370
    15
100
AcDbCircle
 10
190.1508612522146
 20
-228.5089008413886
 30
0.0
 40
0.0019341253470474
100
AcDbArc
 50
14.55680166509778
 51
105.4821065433342
  0
ARC
  5
2B5
330
23
100
AcDbEntity
  8
SANINDUSA
  6
Continuous
370
    15
100
AcDbCircle
 10
190.0261154297654
 20
-228.5889708300318
 30
0.0
 40
0.0469998975269237
100
AcDbArc
 50
104.9999259480151
 51
180.0000526182824
  0
ARC
  5
2B6
330
23
100
AcDbEntity
  8
SANINDUSA
  6
Continuous
370
    15
100
AcDbCircle
 10
190.0261155415142
 20
-228.5889709273416
 30
0.0
 40
0.0730000084151182
100
AcDbArc
 50
105.0000185387245
 51
179.999957502497
  0
LINE
  5
2B7
330
23
100
AcDbEntity
  8
SANINDUSA
  6
Continuous
370
    15
100
AcDbLine
 10
189.9791155322385
 20
-228.7089708779638
 30
0.0
 11
189.9791155283139
 21
-228.5889708970372
 31
0.0
  0
LINE
  5
2B8
330
23
100
AcDbEntity
  8
SANINDUSA
  6
Continuous
370
    15
100
AcDbLine
 10
189.9531155331934
 20
-228.5889708970372
 30
0.0
 11
189.953115533099
 21
-228.7089708779638
 31
0.0
  0
LINE
  5
2B9
330
23
100
AcDbEntity
  8
SANINDUSA
  6
Continuous
370
    15
100
AcDbLine
 10
189.943615533135
 20
-228.7089708970372
 30
0.0
 11
189.943615533135
 21
-228.7139708970372
 31
0.0
  0
LINE
  5
2BA
330
23
100
AcDbEntity
  8
SANINDUSA
  6
Continuous
370
    15
100
AcDbLine
 10
189.988615533135
 20
-228.7139708970372
 30
0.0
 11
189.988615533135
 21
-228.7089708970372
 31
0.0
  0
LINE
  5
2BB
330
23
100
AcDbEntity
  8
SANINDUSA
  6
Continuous
370
    15
100
AcDbLine
 10
189.943615533135
 20
-228.7139708970372
 30
0.0
 11
189.9436155331717
 21
-229.5357469652478
 31
0.0
  0
LINE
  5
2BC
330
23
100
AcDbEntity
  8
SANINDUSA
  6
Continuous
370
    15
100
AcDbLine
 10
189.988615533135
 20
-228.7319708970372
 30
0.0
 11
189.988615533135
 21
-228.7139708970372
 31
0.0
  0
LINE
  5
2BD
330
23
100
AcDbEntity
  8
SANINDUSA
  6
Continuous
370
    15
100
AcDbLine
 10
189.9886155328643
 20
-229.5357469652478
 30
0.0
 11
189.988615533135
 21
-228.7389708970372
 31
0.0
  0
LINE
  5
2BE
330
23
100
AcDbEntity
  8
SANINDUSA
  6
Continuous
370
    15
100
AcDbLine
 10
190.027615533135
 20
-229.5497469644192
 30
0.0
 11
190.027615533135
 21
-229.5357469644192
 31
0.0
  0
LINE
  5
2BF
330
23
100
AcDbEntity
  8
SANINDUSA
  6
Continuous
370
    15
100
AcDbLine
 10
189.904615533135
 20
-229.5357469644192
 30
0.0
 11
189.904615533135
 21
-229.5497469644192
 31
0.0
  0
LWPOLYLINE
  5
2DE
330
23
100
AcDbEntity
  8
SANINDUSA
  6
Continuous
370
    15
100
AcDbPolyline
 90
       38
 70
   128
 43
0.0
 10
190.18406368186
 20
-228.4977837537114
 10
190.1840179054928
 20
-228.4976058934514
 10
190.1838781176996
 20
-228.4970775578801
 10
190.1836483715964
 20
-228.496213767368
 10
190.1833352683973
 20
-228.4950394366567
 10
190.1829478233052
 20
-228.4935884211843
 10
190.1824971674871
 20
-228.4919023249929
 10
190.1819962649536
 20
-228.4900299046819
 10
190.1814595400286
 20
-228.4880246852223
 10
190.1809024154139
 20
-228.485944602329
 10
190.1803409396601
 20
-228.4838494990651
 10
190.179791265626
 20
-228.4817994569127
 10
190.1792691736412
 20
-228.4798536036794
 10
190.1787897138786
 20
-228.4780679677312
 10
190.1783666848135
 20
-228.4764938090627
 10
190.1780122308922
 20
-228.4751763079945
 10
190.1777365594101
 20
-228.4741536114995
 10
190.177547597785
 20
-228.4734550450628
 10
190.1774507998419
 20
-228.4731006358449
 10
190.1774489222956
 20
-228.4731006358449
 10
190.1775420396519
 20
-228.4734550450628
 10
190.1777274697018
 20
-228.4741536114995
 10
190.1779998778296
 20
-228.4751763079945
 10
190.1783514260245
 20
-228.4764938090627
 10
190.178771996398
 20
-228.4780679677312
 10
190.1792494892073
 20
-228.4798536036794
 10
190.1797701804829
 20
-228.4817994569127
 10
190.1803190796566
 20
-228.4838494990651
 10
190.1808803914976
 20
-228.485944602329
 10
190.1814379780483
 20
-228.4880246852223
 10
190.1819758056593
 20
-228.4900299046819
 10
190.1824783920241
 20
-228.4919023249929
 10
190.1829312681151
 20
-228.4935884211843
 10
190.1833214252186
 20
-228.4950394366567
 10
190.1836376278591
 20
-228.496213767368
 10
190.1838707714272
 20
-228.4970775578801
 10
190.1840141653013
 20
-228.4976058934514
 10
190.18406368186
 20
-228.4977837537114
  0
ARC
  5
2DF
330
23
100
AcDbEntity
  8
SANINDUSA
  6
Continuous
370
    15
100
AcDbCircle
 10
196.0911287811647
 20
-226.9017359064403
 30
0.0
 40
6.11908812995493
100
AcDbArc
 50
194.8783024295131
 51
195.1217522431234
  0
LWPOLYLINE
  5
2E0
330
23
100
AcDbEntity
  8
SANINDUSA
  6
Continuous
370
    15
100
AcDbPolyline
 90
       20
 70
   128
 43
0.0
 10
190.1574162929249
 20
-228.5258364413564
 10
190.1575857042265
 20
-228.5257905457799
 10
190.1580930291605
 20
-228.5256541703526
 10
190.158924409647
 20
-228.5254310105626
 10
190.1600571810198
 20
-228.5251270268743
 10
190.1614604382706
 20
-228.5247506831471
 10
190.1630959003163
 20
-228.5243121121709
 10
190.1649189679814
 20
-228.5238233540837
 10
190.1668799011898
 20
-228.5232977603261
 10
190.1689252196741
 20
-228.5227496360128
 10
190.1709991185856
 20
-228.5221940015142
 10
190.1730450331164
 20
-228.5216458772008
 10
190.1750071733189
 20
-228.5211202834432
 10
190.176831999321
 20
-228.520631525356
 10
190.1784697263432
 20
-228.520193073589
 10
190.1798757105065
 20
-228.5198166106527
 10
190.1810115664196
 20
-228.5195127461736
 10
190.1818463443708
 20
-228.5192894671742
 10
190.1823572455836
 20
-228.519153091747
 10
190.1825303523731
 20
-228.5191071961705
  0
ARC
  5
2E1
330
23
100
AcDbEntity
  8
SANINDUSA
  6
Continuous
370
    15
100
AcDbCircle
 10
190.9452694549003
 20
-231.3995911970272
 30
0.0
 40
2.979791157530164
100
AcDbArc
 50
104.844736273983
 51
105.3169160096757
  0
LINE
  5
2E2
330
23
100
AcDbEntity
  8
SANINDUSA
  6
Continuous
370
    15
100
AcDbLine
 10
189.943615533135
 20
-228.7139708970372
 30
0.0
 11
189.988615533135
 21
-228.7139708970372
 31
0.0
  0
LINE
  5
2E3
330
23
100
AcDbEntity
  8
SANINDUSA
  6
Continuous
370
    15
100
AcDbLine
 10
189.943615533135
 20
-228.7089708970372
 30
0.0
 11
189.988615533135
 21
-228.7089708970372
 31
0.0
  0
LINE
  5
2E4
330
23
100
AcDbEntity
  8
SANINDUSA
  6
Continuous
370
    15
100
AcDbLine
 10
189.9604728573759
 20
-228.7229708970372
 30
0.0
 11
189.9583195250836
 21
-228.7229708970372
 31
0.0
  0
LINE
  5
2E5
330
23
100
AcDbEntity
  8
SANINDUSA
  6
Continuous
370
    15
100
AcDbLine
 10
189.9873091234938
 20
-228.7319708970372
 30
0.0
 11
189.988615533135
 21
-228.7319708970372
 31
0.0
  0
LWPOLYLINE
  5
2E6
330
23
100
AcDbEntity
  8
SANINDUSA
  6
Continuous
370
    15
100
AcDbPolyline
 90
       11
 70
   128
 43
0.0
 10
189.9873091219854
 20
-228.7389709089581
 10
189.9868950149906
 20
-228.7387763593976
 10
189.9864810383809
 20
-228.7382158373181
 10
189.9861328094196
 20
-228.737344834644
 10
189.9859188771737
 20
-228.7362559769933
 10
189.985886157949
 20
-228.7350856993977
 10
189.9860373227787
 20
-228.7339690063779
 10
189.986340997268
 20
-228.7330154512708
 10
189.9867423823965
 20
-228.732327792484
 10
189.9871683693421
 20
-228.7319948409383
 10
189.9873091219854
 20
-228.7319708798711
  0
LINE
  5
2E7
330
23
100
AcDbEntity
  8
SANINDUSA
  6
Continuous
370
    15
100
AcDbLine
 10
189.988615533135
 20
-228.7389708970372
 30
0.0
 11
189.9873091234938
 21
-228.7389708970372
 31
0.0
  0
SPLINE
  5
2E8
330
23
100
AcDbEntity
  8
SANINDUSA
  6
Continuous
370
    15
100
AcDbSpline
210
0.0
220
0.0
230
1.0
 70
    15
 71
     3
 72
    27
 73
    23
 74
     0
 42
0.0000000001
 43
0.0000000001
 40
0.0
 40
0.0
 40
0.0
 40
0.0
 40
0.0629966721004757
 40
0.1256912575408802
 40
0.1878843212790214
 40
0.2191458037747667
 40
0.2500210547211932
 40
0.2808268391625516
 40
0.3121326286423478
 40
0.3742632404146386
 40
0.4370083719759067
 40
0.5001570063665063
 40
0.5631399269894023
 40
0.6257508926128653
 40
0.6879148498195336
 40
0.7191956507413325
 40
0.7500725330413524
 40
0.780903814373943
 40
0.8122412894737937
 40
0.8744196786341159
 40
0.9370462139606281
 40
1.0
 40
1.0
 40
1.0
 40
1.0
 10
189.9585602884111
 20
-228.7245202992742
 30
0.0
 41
1.0
 10
189.9582417010126
 20
-228.7244807892998
 30
0.0
 41
1.0
 10
189.9576060539312
 20
-228.7244019588127
 30
0.0
 41
1.0
 10
189.9568088673967
 20
-228.7238204104162
 30
0.0
 41
1.0
 10
189.9563725194662
 20
-228.7231112291528
 30
0.0
 41
1.0
 10
189.9561908518381
 20
-228.722470674436
 30
0.0
 41
1.0
 10
189.9561448873081
 20
-228.7219708302751
 30
0.0
 41
1.0
 10
189.956190393719
 20
-228.7214704824144
 30
0.0
 41
1.0
 10
189.9563722362902
 20
-228.7208311795935
 30
0.0
 41
1.0
 10
189.9568085409594
 20
-228.7201163493012
 30
0.0
 41
1.0
 10
189.9576077304075
 20
-228.719558440544
 30
0.0
 41
1.0
 10
189.9585593683518
 20
-228.7193529948144
 30
0.0
 41
1.0
 10
189.9595269677254
 20
-228.7195579725059
 30
0.0
 41
1.0
 10
189.9603631333784
 20
-228.7201177114519
 30
0.0
 41
1.0
 10
189.9608317767181
 20
-228.7208318746288
 30
0.0
 41
1.0
 10
189.9610287911825
 20
-228.7214716524451
 30
0.0
 41
1.0
 10
189.9610784371626
 20
-228.7219719933761
 30
0.0
 41
1.0
 10
189.9610283561024
 20
-228.7224724102248
 30
0.0
 41
1.0
 10
189.9608305785488
 20
-228.7231128402628
 30
0.0
 41
1.0
 10
189.96036128834
 20
-228.7238214500861
 30
0.0
 41
1.0
 10
189.9595232711666
 20
-228.7244029012986
 30
0.0
 41
1.0
 10
189.9588818398332
 20
-228.7244810986905
 30
0.0
 41
1.0
 10
189.9585602884111
 20
-228.7245202992742
 30
0.0
 41
1.0
  0
SPLINE
  5
2E9
330
23
100
AcDbEntity
  8
SANINDUSA
  6
Continuous
370
    15
100
AcDbSpline
210
0.0
220
0.0
230
1.0
 70
    15
 71
     3
 72
    27
 73
    23
 74
     0
 42
0.0000000001
 43
0.0000000001
 40
0.0
 40
0.0
 40
0.0
 40
0.0
 40
0.0629967504053759
 40
0.1256893964430158
 40
0.1878825374871716
 40
0.2191475891608376
 40
0.2500191971329715
 40
0.2808250198659379
 40
0.3121343783941044
 40
0.3742620098802349
 40
0.4370072194337382
 40
0.5001566487055196
 40
0.5631403652361944
 40
0.6257493871275332
 40
0.6879134216040367
 40
0.7191977917364416
 40
0.7500710308151547
 40
0.7809060317479871
 40
0.812240016651908
 40
0.874421539656576
 40
0.9370461357090352
 40
1.0
 40
1.0
 40
1.0
 40
1.0
 10
189.9585602884111
 20
-228.7835202549283
 30
0.0
 41
1.0
 10
189.958241703403
 20
-228.7834807406771
 30
0.0
 41
1.0
 10
189.957606071293
 20
-228.7834019029219
 30
0.0
 41
1.0
 10
189.9568088553194
 20
-228.7828204318053
 30
0.0
 41
1.0
 10
189.9563725004385
 20
-228.7821112294871
 30
0.0
 41
1.0
 10
189.9561908662695
 20
-228.7814706664959
 30
0.0
 41
1.0
 10
189.9561448825285
 20
-228.7809708257681
 30
0.0
 41
1.0
 10
189.9561904038187
 20
-228.7804704810889
 30
0.0
 41
1.0
 10
189.9563722065158
 20
-228.7798311611606
 30
0.0
 41
1.0
 10
189.9568085656393
 20
-228.7791163553518
 30
0.0
 41
1.0
 10
189.9576077324673
 20
-228.7785584795297
 30
0.0
 41
1.0
 10
189.9585593715425
 20
-228.7783529045582
 30
0.0
 41
1.0
 10
189.959526942647
 20
-228.7785580241132
 30
0.0
 41
1.0
 10
189.960363147459
 20
-228.7791176536942
 30
0.0
 41
1.0
 10
189.9608317960018
 20
-228.7798318459494
 30
0.0
 41
1.0
 10
189.9610287775993
 20
-228.7804716316089
 30
0.0
 41
1.0
 10
189.9610784367102
 20
-228.7809719868237
 30
0.0
 41
1.0
 10
189.9610283713858
 20
-228.7814723909192
 30
0.0
 41
1.0
 10
189.9608305460347
 20
-228.7821128185071
 30
0.0
 41
1.0
 10
189.9603613313034
 20
-228.7828214706254
 30
0.0
 41
1.0
 10
189.9595232490866
 20
-228.7834028432269
 30
0.0
 41
1.0
 10
189.9588818359006
 20
-228.783481049342
 30
0.0
 41
1.0
 10
189.9585602884111
 20
-228.7835202549283
 30
0.0
 41
1.0
  0
LINE
  5
2EA
330
23
100
AcDbEntity
  8
SANINDUSA
  6
Continuous
370
    15
100
AcDbLine
 10
189.9873091234938
 20
-228.7139708970372
 30
0.0
 11
189.943615533135
 21
-228.7139708970372
 31
0.0
  0
LINE
  5
2EB
330
23
100
AcDbEntity
  8
SANINDUSA
  6
Continuous
370
    15
100
AcDbLine
 10
189.988615533135
 20
-228.7139708970372
 30
0.0
 11
189.9873091234938
 21
-228.7139708970372
 31
0.0
  0
ARC
  5
2EC
330
23
100
AcDbEntity
  8
SANINDUSA
  6
Continuous
370
    15
100
AcDbCircle
 10
189.9602203741935
 20
-228.7809708586069
 30
0.0
 40
0.0021598203221173
100
AcDbArc
 50
111.4575578007055
 51
248.5404777749372
  0
ARC
  5
2ED
330
23
100
AcDbEntity
  8
SANINDUSA
  6
Continuous
370
    15
100
AcDbCircle
 10
189.9602203741935
 20
-228.7219708433481
 30
0.0
 40
0.0021598203221168
100
AcDbArc
 50
111.4575578007055
 51
248.5404777749372
  0
SPLINE
  5
2EE
330
23
100
AcDbEntity
  8
SANINDUSA
  6
Continuous
370
    15
100
AcDbSpline
210
0.0
220
0.0
230
1.0
 70
    15
 71
     3
 72
    31
 73
    27
 74
     0
 42
0.0000000001
 43
0.0000000001
 40
0.0
 40
0.0
 40
0.0
 40
0.0
 40
0.0545910421230424
 40
0.0878026578748321
 40
0.1248951022374803
 40
0.1621257307112463
 40
0.19540742052893
 40
0.2499221922402921
 40
0.3044408512401485
 40
0.3377073424058206
 40
0.3749208522708685
 40
0.412042377308452
 40
0.4452644811328702
 40
0.4998259814903809
 40
0.5545968244705671
 40
0.5878915644028
 40
0.6250615956242961
 40
0.6622519206547621
 40
0.6954943495662455
 40
0.7499688663432709
 40
0.804476833487568
 40
0.8377559809222429
 40
0.8749816647019725
 40
0.9121133771333489
 40
0.9453582241736132
 40
1.0
 40
1.0
 40
1.0
 40
1.0
 10
189.9587130895746
 20
-228.7241208885495
 30
0.0
 41
1.0
 10
189.9589468750638
 20
-228.724096858973
 30
0.0
 41
1.0
 10
189.9593228889027
 20
-228.7240582104951
 30
0.0
 41
1.0
 10
189.9598118060725
 20
-228.723805500991
 30
0.0
 41
1.0
 10
189.9601823442379
 20
-228.7235060413131
 30
0.0
 41
1.0
 10
189.9604778214209
 20
-228.723123569611
 30
0.0
 41
1.0
 10
189.9607182233173
 20
-228.7226149996002
 30
0.0
 41
1.0
 10
189.9608309917125
 20
-228.7219719561488
 30
0.0
 41
1.0
 10
189.9607188949264
 20
-228.7213289217404
 30
0.0
 41
1.0
 10
189.9604789774698
 20
-228.7208201027802
 30
0.0
 41
1.0
 10
189.9601839807372
 20
-228.7204378313441
 30
0.0
 41
1.0
 10
189.9598135356725
 20
-228.7201358734147
 30
0.0
 41
1.0
 10
189.9593252458108
 20
-228.7198909120761
 30
0.0
 41
1.0
 10
189.9587119078739
 20
-228.7197776497098
 30
0.0
 41
1.0
 10
189.9581114229287
 20
-228.7198899589689
 30
0.0
 41
1.0
 10
189.957641204484
 20
-228.7201352857268
 30
0.0
 41
1.0
 10
189.9572921895144
 20
-228.7204374096354
 30
0.0
 41
1.0
 10
189.9570190173978
 20
-228.720819635621
 30
0.0
 41
1.0
 10
189.9567985898846
 20
-228.7213279921497
 30
0.0
 41
1.0
 10
189.9566997460813
 20
-228.7219706049914
 30
0.0
 41
1.0
 10
189.9567984744097
 20
-228.7226134794653
 30
0.0
 41
1.0
 10
189.9570189930834
 20
-228.7231221891066
 30
0.0
 41
1.0
 10
189.9572923595231
 20
-228.7235049830591
 30
0.0
 41
1.0
 10
189.9576413291173
 20
-228.7238049133654
 30
0.0
 41
1.0
 10
189.9581102109551
 20
-228.7240580775826
 30
0.0
 41
1.0
 10
189.9584819611912
 20
-228.7240968084167
 30
0.0
 41
1.0
 10
189.9587130895746
 20
-228.7241208885495
 30
0.0
 41
1.0
  0
SPLINE
  5
2EF
330
23
100
AcDbEntity
  8
SANINDUSA
  6
Continuous
370
    15
100
AcDbSpline
210
0.0
220
0.0
230
1.0
 70
    15
 71
     3
 72
    31
 73
    27
 74
     0
 42
0.0000000001
 43
0.0000000001
 40
0.0
 40
0.0
 40
0.0
 40
0.0
 40
0.054590995663883
 40
0.0878025831512598
 40
0.1248949959467548
 40
0.1621255927357675
 40
0.1954072542294025
 40
0.2499219795465143
 40
0.3044405921488122
 40
0.3377110367640364
 40
0.3749210513031181
 40
0.4120425447487996
 40
0.4452665369476772
 40
0.4998272302028789
 40
0.554598026570888
 40
0.587892738167966
 40
0.6250627377562794
 40
0.662249567950156
 40
0.6954959496846048
 40
0.7499704201016383
 40
0.8044783408574762
 40
0.8377534786599664
 40
0.8749825934853008
 40
0.912111537179849
 40
0.9453582706759489
 40
1.0
 40
1.0
 40
1.0
 40
1.0
 10
189.9587130895746
 20
-228.7831209038083
 30
0.0
 41
1.0
 10
189.9589468750612
 20
-228.7830968742331
 30
0.0
 41
1.0
 10
189.9593228888961
 20
-228.7830582257574
 30
0.0
 41
1.0
 10
189.959811806088
 20
-228.7828055162416
 30
0.0
 41
1.0
 10
189.9601823441709
 20
-228.7825060566075
 30
0.0
 41
1.0
 10
189.96047782166
 20
-228.7821235847423
 30
0.0
 41
1.0
 10
189.9607182223196
 20
-228.7816150153907
 30
0.0
 41
1.0
 10
189.9608309981917
 20
-228.7809719679543
 30
0.0
 41
1.0
 10
189.9607188719188
 20
-228.7803289295969
 30
0.0
 41
1.0
 10
189.9604790117948
 20
-228.7798200765627
 30
0.0
 41
1.0
 10
189.9601839597078
 20
-228.77943783938
 30
0.0
 41
1.0
 10
189.9598135223655
 20
-228.7791359035423
 30
0.0
 41
1.0
 10
189.9593252713869
 20
-228.7788908302096
 30
0.0
 41
1.0
 10
189.9587118964944
 20
-228.7787776970969
 30
0.0
 41
1.0
 10
189.9581114252474
 20
-228.7788899702589
 30
0.0
 41
1.0
 10
189.9576412016835
 20
-228.7791353000901
 30
0.0
 41
1.0
 10
189.9572922116206
 20
-228.7794374237003
 30
0.0
 41
1.0
 10
189.9570189853509
 20
-228.7798196078429
 30
0.0
 41
1.0
 10
189.9567986102632
 20
-228.7803280012985
 30
0.0
 41
1.0
 10
189.9566997464963
 20
-228.780970612269
 30
0.0
 41
1.0
 10
189.9567984526722
 20
-228.7816134905619
 30
0.0
 41
1.0
 10
189.9570190280981
 20
-228.7821221567064
 30
0.0
 41
1.0
 10
189.9572923178042
 20
-228.7825050074083
 30
0.0
 41
1.0
 10
189.9576413644805
 20
-228.7828048478367
 30
0.0
 41
1.0
 10
189.958110186267
 20
-228.7830581248142
 30
0.0
 41
1.0
 10
189.9584819548316
 20
-228.7830968362563
 30
0.0
 41
1.0
 10
189.9587130895746
 20
-228.7831209038083
 30
0.0
 41
1.0
  0
LINE
  5
2F0
330
23
100
AcDbEntity
  8
SANINDUSA
  6
Continuous
370
    15
100
AcDbLine
 10
189.904615533135
 20
-229.5497469644192
 30
0.0
 11
190.027615533135
 21
-229.5497469644192
 31
0.0
  0
LINE
  5
2F2
330
23
100
AcDbEntity
  8
SANINDUSA
  6
Continuous
370
    15
100
AcDbLine
 10
190.027615533135
 20
-229.5357469644192
 30
0.0
 11
189.9120978213089
 21
-229.5357469644192
 31
0.0
  0
LINE
  5
2F3
330
23
100
AcDbEntity
  8
SANINDUSA
  6
Continuous
370
    15
100
AcDbLine
 10
189.9120978213089
 20
-229.5357469644192
 30
0.0
 11
189.904615533135
 21
-229.5357469644192
 31
0.0
  0
ARC
  5
309
330
23
100
AcDbEntity
  8
SANINDUSA
  6
Continuous
370
    15
100
AcDbCircle
 10
195.9174359093546
 20
-226.9482794146292
 30
0.0
 40
6.115234545635455
100
AcDbArc
 50
194.8782019486611
 51
195.1218051478428
  0
ELLIPSE
  5
30A
330
23
100
AcDbEntity
  8
SANINDUSA
  6
Continuous
370
    15
100
AcDbEllipse
 10
190.1614322965885
 20
-228.4905962893141
 30
0.0
 11
0.0111242386679555
 21
0.0164393206000659
 31
0.0
210
0.0
220
0.0
230
1.0
 40
0.0004671415507381
 41
1.571112434379599
 42
3.142131663180294
  0
ELLIPSE
  5
30B
330
23
100
AcDbEntity
  8
SANINDUSA
  6
Continuous
370
    15
100
AcDbEllipse
 10
190.1614322965885
 20
-228.4905962893141
 30
0.0
 11
0.0178535317451241
 21
-0.0086747489503694
 31
0.0
210
0.0
220
0.0
230
1.0
 40
0.0002465026958204
 41
4.711881652351026
 42
6.282900881113473
  0
ELLIPSE
  5
30C
330
23
100
AcDbEntity
  8
SANINDUSA
  6
Continuous
370
    15
100
AcDbEllipse
 10
190.1614322965885
 20
-228.4905962893141
 30
0.0
 11
0.0086747493444813
 21
0.0178535344383812
 31
0.0
210
0.0
220
0.0
230
1.0
 40
0.0005073279712318
 41
1.571042829408254
 42
3.141007275151147
  0
ELLIPSE
  5
30D
330
23
100
AcDbEntity
  8
SANINDUSA
  6
Continuous
370
    15
100
AcDbEllipse
 10
190.1614322965885
 20
-228.4905962893141
 30
0.0
 11
0.0164393187577093
 21
-0.0111242385939886
 31
0.0
210
0.0
220
0.0
230
1.0
 40
0.0003161076617358
 41
4.711921838818899
 42
6.283550046806458
  0
LINE
  5
30E
330
23
100
AcDbEntity
  8
SANINDUSA
  6
Continuous
370
    15
100
AcDbLine
 10
189.9531155331934
 20
-228.5889708970372
 30
0.0
 11
189.9791155283139
 21
-228.5889708970372
 31
0.0
  0
ENDSEC
  0
SECTION
  2
OBJECTS
  0
DICTIONARY
  5
C
330
0
100
AcDbDictionary
281
     1
  3
ACAD_COLOR
350
1C
  3
ACAD_GROUP
350
D
  3
ACAD_LAYOUT
350
1A
  3
ACAD_MATERIAL
350
1B
  3
ACAD_MLINESTYLE
350
17
  3
ACAD_PLOTSETTINGS
350
19
  3
ACAD_PLOTSTYLENAME
350
E
  3
ACAD_TABLESTYLE
350
1D
  3
ACDBHEADERROUNDTRIPXREC
350
345
  3
AcDbVariableDictionary
350
326
  0
DICTIONARY
  5
1C
102
{ACAD_REACTORS
330
C
102
}
330
C
100
AcDbDictionary
281
     1
  0
DICTIONARY
  5
D
102
{ACAD_REACTORS
330
C
102
}
330
C
100
AcDbDictionary
281
     1
  0
DICTIONARY
  5
1A
102
{ACAD_REACTORS
330
C
102
}
330
C
100
AcDbDictionary
281
     1
  3
Layout1
350
22
  3
Layout2
350
2A
  3
Model
350
26
  0
DICTIONARY
  5
1B
102
{ACAD_REACTORS
330
C
102
}
330
C
100
AcDbDictionary
281
     1
  0
DICTIONARY
  5
17
102
{ACAD_REACTORS
330
C
102
}
330
C
100
AcDbDictionary
281
     1
  3
Standard
350
18
  0
DICTIONARY
  5
19
102
{ACAD_REACTORS
330
C
102
}
330
C
100
AcDbDictionary
281
     1
  0
ACDBDICTIONARYWDFLT
  5
E
102
{ACAD_REACTORS
330
C
102
}
330
C
100
AcDbDictionary
281
     1
  3
Normal
350
F
100
AcDbDictionaryWithDefault
340
F
  0
DICTIONARY
  5
1D
102
{ACAD_REACTORS
330
C
102
}
330
C
100
AcDbDictionary
281
     1
  3
Standard
350
1E
  0
DICTIONARY
  5
345
102
{ACAD_REACTORS
330
C
102
}
330
C
100
AcDbDictionary
281
     1
  0
DICTIONARY
  5
326
102
{ACAD_REACTORS
330
C
102
}
330
C
100
AcDbDictionary
281
     1
  3
CTABLESTYLE
350
327
  3
DIMASSOC
350
342
  3
HIDETEXT
350
341
  3
PROJECTNAME
350
343
  0
LAYOUT
  5
22
102
{ACAD_XDICTIONARY
360
346
102
}
102
{ACAD_REACTORS
330
1A
102
}
330
1A
100
AcDbPlotSettings
  1

  2
C:\Documents and Settings\Julio\Application Data\Autodesk\AutoCAD 2006\R16.2\enu\plotters\Default Windows System Printer.pc3
  4

  6

 40
0.0
 41
0.0
 42
0.0
 43
0.0
 44
0.0
 45
0.0
 46
0.0
 47
0.0
 48
0.0
 49
0.0
140
0.0
141
0.0
142
1.0
143
1.0
 70
   688
 72
     0
 73
     0
 74
     5
  7

 75
    16
147
1.0
148
0.0
149
0.0
100
AcDbLayout
  1
Layout1
 70
     1
 71
     1
 10
0.0
 20
0.0
 11
420.0
 21
297.0
 12
0.0
 22
0.0
 32
0.0
 14
1.000000000000000E+20
 24
1.000000000000000E+20
 34
1.000000000000000E+20
 15
-1.000000000000000E+20
 25
-1.000000000000000E+20
 35
-1.000000000000000E+20
146
0.0
 13
0.0
 23
0.0
 33
0.0
 16
1.0
 26
0.0
 36
0.0
 17
0.0
 27
1.0
 37
0.0
 76
     0
330
1F
  0
LAYOUT
  5
2A
102
{ACAD_XDICTIONARY
360
34A
102
}
102
{ACAD_REACTORS
330
1A
102
}
330
1A
100
AcDbPlotSettings
  1

  2
C:\Documents and Settings\Julio\Application Data\Autodesk\AutoCAD 2006\R16.2\enu\plotters\Default Windows System Printer.pc3
  4

  6

 40
0.0
 41
0.0
 42
0.0
 43
0.0
 44
0.0
 45
0.0
 46
0.0
 47
0.0
 48
0.0
 49
0.0
140
0.0
141
0.0
142
1.0
143
1.0
 70
   688
 72
     0
 73
     0
 74
     5
  7

 75
    16
147
1.0
148
0.0
149
0.0
100
AcDbLayout
  1
Layout2
 70
     1
 71
     2
 10
0.0
 20
0.0
 11
12.0
 21
9.0
 12
0.0
 22
0.0
 32
0.0
 14
0.0
 24
0.0
 34
0.0
 15
0.0
 25
0.0
 35
0.0
146
0.0
 13
0.0
 23
0.0
 33
0.0
 16
1.0
 26
0.0
 36
0.0
 17
0.0
 27
1.0
 37
0.0
 76
     0
330
27
  0
LAYOUT
  5
26
102
{ACAD_XDICTIONARY
360
348
102
}
102
{ACAD_REACTORS
330
1A
102
}
330
1A
100
AcDbPlotSettings
  1

  2
C:\Documents and Settings\Julio\Application Data\Autodesk\AutoCAD 2006\R16.2\enu\plotters\Default Windows System Printer.pc3
  4

  6

 40
0.0
 41
0.0
 42
0.0
 43
0.0
 44
0.0
 45
0.0
 46
0.0
 47
0.0
 48
0.0
 49
0.0
140
0.0
141
0.0
142
1.0
143
1.0
 70
  1712
 72
     0
 73
     0
 74
     0
  7

 75
     0
147
1.0
148
0.0
149
0.0
100
AcDbLayout
  1
Model
 70
     1
 71
     0
 10
0.0
 20
0.0
 11
12.0
 21
9.0
 12
0.0
 22
0.0
 32
0.0
 14
0.0
 24
0.0
 34
0.0
 15
0.0
 25
0.0
 35
0.0
146
0.0
 13
0.0
 23
0.0
 33
0.0
 16
1.0
 26
0.0
 36
0.0
 17
0.0
 27
1.0
 37
0.0
 76
     0
330
23
  0
MLINESTYLE
  5
18
102
{ACAD_REACTORS
330
17
102
}
330
17
100
AcDbMlineStyle
  2
STANDARD
 70
     0
  3

 62
   256
 51
90.0
 52
90.0
 71
     2
 49
0.5
 62
   256
  6
BYLAYER
 49
-0.5
 62
   256
  6
BYLAYER
  0
ACDBPLACEHOLDER
  5
F
102
{ACAD_REACTORS
330
E
102
}
330
E
  0
TABLESTYLE
  5
1E
102
{ACAD_REACTORS
330
1D
102
}
330
1D
100
AcDbTableStyle
  3
Standard
 70
     0
 71
     0
 40
1.5
 41
1.5
280
     0
281
     0
  7
Standard
140
4.5
170
     2
 62
     0
 63
     7
283
     0
274
    -2
284
     1
 64
     0
275
    -2
285
     1
 65
     0
276
    -2
286
     1
 66
     0
277
    -2
287
     1
 67
     0
278
    -2
288
     1
 68
     0
279
    -2
289
     1
 69
     0
  7
Standard
140
6.0
170
     5
 62
     0
 63
     7
283
     0
274
    -2
284
     1
 64
     0
275
    -2
285
     1
 65
     0
276
    -2
286
     1
 66
     0
277
    -2
287
     1
 67
     0
278
    -2
288
     1
 68
     0
279
    -2
289
     1
 69
     0
  7
Standard
140
4.5
170
     5
 62
     0
 63
     7
283
     0
274
    -2
284
     1
 64
     0
275
    -2
285
     1
 65
     0
276
    -2
286
     1
 66
     0
277
    -2
287
     1
 67
     0
278
    -2
288
     1
 68
     0
279
    -2
289
     1
 69
     0
  0
DICTIONARYVAR
  5
327
102
{ACAD_REACTORS
330
326
102
}
330
326
100
DictionaryVariables
280
     0
  1
STANDARD
  0
DICTIONARYVAR
  5
342
102
{ACAD_REACTORS
330
326
102
}
330
326
100
DictionaryVariables
280
     0
  1
2
  0
DICTIONARYVAR
  5
341
102
{ACAD_REACTORS
330
326
102
}
330
326
100
DictionaryVariables
280
     0
  1
1
  0
DICTIONARYVAR
  5
343
102
{ACAD_REACTORS
330
326
102
}
330
326
100
DictionaryVariables
280
     0
  1

  0
DICTIONARY
  5
346
330
22
100
AcDbDictionary
280
     1
281
     1
  3
ACAD_XREC_ROUNDTRIP
360
347
  0
DICTIONARY
  5
34A
330
2A
100
AcDbDictionary
280
     1
281
     1
  3
ACAD_XREC_ROUNDTRIP
360
34B
  0
DICTIONARY
  5
348
330
26
100
AcDbDictionary
280
     1
281
     1
  3
ACAD_XREC_ROUNDTRIP
360
349
  0
XRECORD
  5
347
102
{ACAD_REACTORS
330
346
102
}
330
346
100
AcDbXrecord
280
     1
102
SHADEPLOT
 70
     0
102
SHADEPLOTRESLEVEL
 70
     2
102
SHADEPLOTCUSTOMDPI
 70
   300
  0
XRECORD
  5
34B
102
{ACAD_REACTORS
330
34A
102
}
330
34A
100
AcDbXrecord
280
     1
102
SHADEPLOT
 70
     0
102
SHADEPLOTRESLEVEL
 70
     2
102
SHADEPLOTCUSTOMDPI
 70
   300
  0
XRECORD
  5
349
102
{ACAD_REACTORS
330
348
102
}
330
348
100
AcDbXrecord
280
     1
102
SHADEPLOT
 70
     0
102
SHADEPLOTRESLEVEL
 70
     2
102
SHADEPLOTCUSTOMDPI
 70
   300
  0
ENDSEC
  0
EOF
