  0
SECTION
  2
HEADER
  9
$ACADVER
  1
AC1015
  9
$ACADMAINTVER
 70
    20
  9
$DWGCODEPAGE
  3
ANSI_1252
  9
$INSBASE
 10
0.0
 20
0.0
 30
0.0
  9
$EXTMIN
 10
233.167420682925
 20
-243.9817653395955
 30
-0.0015258207003583
  9
$EXTMAX
 10
234.3850715625858
 20
-242.8941191997078
 30
0.0000000349246037
  9
$LIMMIN
 10
0.0
 20
0.0
  9
$LIMMAX
 10
420.0
 20
297.0
  9
$ORTHOMODE
 70
     1
  9
$REGENMODE
 70
     1
  9
$FILLMODE
 70
     1
  9
$QTEXTMODE
 70
     0
  9
$MIRRTEXT
 70
     0
  9
$LTSCALE
 40
1.0
  9
$ATTMODE
 70
     1
  9
$TEXTSIZE
 40
2.5
  9
$TRACEWID
 40
1.0
  9
$TEXTSTYLE
  7
Standard
  9
$CLAYER
  8
0
  9
$CELTYPE
  6
ByLayer
  9
$CECOLOR
 62
   256
  9
$CELTSCALE
 40
1.0
  9
$DISPSILH
 70
     0
  9
$DIMSCALE
 40
1.0
  9
$DIMASZ
 40
2.5
  9
$DIMEXO
 40
0.625
  9
$DIMDLI
 40
3.75
  9
$DIMRND
 40
0.0
  9
$DIMDLE
 40
0.0
  9
$DIMEXE
 40
1.25
  9
$DIMTP
 40
0.0
  9
$DIMTM
 40
0.0
  9
$DIMTXT
 40
2.5
  9
$DIMCEN
 40
2.5
  9
$DIMTSZ
 40
0.0
  9
$DIMTOL
 70
     0
  9
$DIMLIM
 70
     0
  9
$DIMTIH
 70
     0
  9
$DIMTOH
 70
     0
  9
$DIMSE1
 70
     0
  9
$DIMSE2
 70
     0
  9
$DIMTAD
 70
     1
  9
$DIMZIN
 70
     8
  9
$DIMBLK
  1

  9
$DIMASO
 70
     1
  9
$DIMSHO
 70
     1
  9
$DIMPOST
  1

  9
$DIMAPOST
  1

  9
$DIMALT
 70
     0
  9
$DIMALTD
 70
     3
  9
$DIMALTF
 40
0.03937007874016
  9
$DIMLFAC
 40
1.0
  9
$DIMTOFL
 70
     1
  9
$DIMTVP
 40
0.0
  9
$DIMTIX
 70
     0
  9
$DIMSOXD
 70
     0
  9
$DIMSAH
 70
     0
  9
$DIMBLK1
  1

  9
$DIMBLK2
  1

  9
$DIMSTYLE
  2
ISO-25
  9
$DIMCLRD
 70
     0
  9
$DIMCLRE
 70
     0
  9
$DIMCLRT
 70
     0
  9
$DIMTFAC
 40
1.0
  9
$DIMGAP
 40
0.625
  9
$DIMJUST
 70
     0
  9
$DIMSD1
 70
     0
  9
$DIMSD2
 70
     0
  9
$DIMTOLJ
 70
     0
  9
$DIMTZIN
 70
     8
  9
$DIMALTZ
 70
     0
  9
$DIMALTTZ
 70
     0
  9
$DIMUPT
 70
     0
  9
$DIMDEC
 70
     2
  9
$DIMTDEC
 70
     2
  9
$DIMALTU
 70
     2
  9
$DIMALTTD
 70
     3
  9
$DIMTXSTY
  7
Standard
  9
$DIMAUNIT
 70
     0
  9
$DIMADEC
 70
     0
  9
$DIMALTRND
 40
0.0
  9
$DIMAZIN
 70
     0
  9
$DIMDSEP
 70
    44
  9
$DIMATFIT
 70
     3
  9
$DIMFRAC
 70
     0
  9
$DIMLDRBLK
  1

  9
$DIMLUNIT
 70
     2
  9
$DIMLWD
 70
    -2
  9
$DIMLWE
 70
    -2
  9
$DIMTMOVE
 70
     0
  9
$LUNITS
 70
     2
  9
$LUPREC
 70
     4
  9
$SKETCHINC
 40
1.0
  9
$FILLETRAD
 40
0.0
  9
$AUNITS
 70
     0
  9
$AUPREC
 70
     0
  9
$MENU
  1
.
  9
$ELEVATION
 40
0.0
  9
$PELEVATION
 40
0.0
  9
$THICKNESS
 40
0.0
  9
$LIMCHECK
 70
     0
  9
$CHAMFERA
 40
0.0
  9
$CHAMFERB
 40
0.0
  9
$CHAMFERC
 40
0.0
  9
$CHAMFERD
 40
0.0
  9
$SKPOLY
 70
     0
  9
$TDCREATE
 40
2454928.405858831
  9
$TDUCREATE
 40
2454928.364192165
  9
$TDUPDATE
 40
2454928.408238750
  9
$TDUUPDATE
 40
2454928.366572084
  9
$TDINDWG
 40
0.0023800926
  9
$TDUSRTIMER
 40
0.0023800926
  9
$USRTIMER
 70
     1
  9
$ANGBASE
 50
0.0
  9
$ANGDIR
 70
     0
  9
$PDMODE
 70
     0
  9
$PDSIZE
 40
0.0
  9
$PLINEWID
 40
0.0
  9
$SPLFRAME
 70
     0
  9
$SPLINETYPE
 70
     6
  9
$SPLINESEGS
 70
     8
  9
$HANDSEED
  5
33C
  9
$SURFTAB1
 70
     6
  9
$SURFTAB2
 70
     6
  9
$SURFTYPE
 70
     6
  9
$SURFU
 70
     6
  9
$SURFV
 70
     6
  9
$UCSBASE
  2

  9
$UCSNAME
  2

  9
$UCSORG
 10
0.0
 20
0.0
 30
0.0
  9
$UCSXDIR
 10
1.0
 20
0.0
 30
0.0
  9
$UCSYDIR
 10
0.0
 20
1.0
 30
0.0
  9
$UCSORTHOREF
  2

  9
$UCSORTHOVIEW
 70
     0
  9
$UCSORGTOP
 10
0.0
 20
0.0
 30
0.0
  9
$UCSORGBOTTOM
 10
0.0
 20
0.0
 30
0.0
  9
$UCSORGLEFT
 10
0.0
 20
0.0
 30
0.0
  9
$UCSORGRIGHT
 10
0.0
 20
0.0
 30
0.0
  9
$UCSORGFRONT
 10
0.0
 20
0.0
 30
0.0
  9
$UCSORGBACK
 10
0.0
 20
0.0
 30
0.0
  9
$PUCSBASE
  2

  9
$PUCSNAME
  2

  9
$PUCSORG
 10
0.0
 20
0.0
 30
0.0
  9
$PUCSXDIR
 10
1.0
 20
0.0
 30
0.0
  9
$PUCSYDIR
 10
0.0
 20
1.0
 30
0.0
  9
$PUCSORTHOREF
  2

  9
$PUCSORTHOVIEW
 70
     0
  9
$PUCSORGTOP
 10
0.0
 20
0.0
 30
0.0
  9
$PUCSORGBOTTOM
 10
0.0
 20
0.0
 30
0.0
  9
$PUCSORGLEFT
 10
0.0
 20
0.0
 30
0.0
  9
$PUCSORGRIGHT
 10
0.0
 20
0.0
 30
0.0
  9
$PUCSORGFRONT
 10
0.0
 20
0.0
 30
0.0
  9
$PUCSORGBACK
 10
0.0
 20
0.0
 30
0.0
  9
$USERI1
 70
     0
  9
$USERI2
 70
     0
  9
$USERI3
 70
     0
  9
$USERI4
 70
     0
  9
$USERI5
 70
     0
  9
$USERR1
 40
0.0
  9
$USERR2
 40
0.0
  9
$USERR3
 40
0.0
  9
$USERR4
 40
0.0
  9
$USERR5
 40
0.0
  9
$WORLDVIEW
 70
     1
  9
$SHADEDGE
 70
     3
  9
$SHADEDIF
 70
    70
  9
$TILEMODE
 70
     1
  9
$MAXACTVP
 70
    64
  9
$PINSBASE
 10
0.0
 20
0.0
 30
0.0
  9
$PLIMCHECK
 70
     0
  9
$PEXTMIN
 10
1.000000000000000E+20
 20
1.000000000000000E+20
 30
1.000000000000000E+20
  9
$PEXTMAX
 10
-1.000000000000000E+20
 20
-1.000000000000000E+20
 30
-1.000000000000000E+20
  9
$PLIMMIN
 10
0.0
 20
0.0
  9
$PLIMMAX
 10
420.0
 20
297.0
  9
$UNITMODE
 70
     0
  9
$VISRETAIN
 70
     1
  9
$PLINEGEN
 70
     0
  9
$PSLTSCALE
 70
     1
  9
$TREEDEPTH
 70
  3020
  9
$CMLSTYLE
  2
Standard
  9
$CMLJUST
 70
     0
  9
$CMLSCALE
 40
20.0
  9
$PROXYGRAPHICS
 70
     1
  9
$MEASUREMENT
 70
     1
  9
$CELWEIGHT
370
    -1
  9
$ENDCAPS
280
     0
  9
$JOINSTYLE
280
     0
  9
$LWDISPLAY
290
     0
  9
$INSUNITS
 70
     4
  9
$HYPERLINKBASE
  1

  9
$STYLESHEET
  1

  9
$XEDIT
290
     1
  9
$CEPSNTYPE
380
     0
  9
$PSTYLEMODE
290
     1
  9
$FINGERPRINTGUID
  2
{BEF845C0-6261-4C78-AE99-7BFCBBF41235}
  9
$VERSIONGUID
  2
{1B2BA3CA-559C-4EA4-8112-0982978DA21C}
  9
$EXTNAMES
290
     1
  9
$PSVPSCALE
 40
0.0
  9
$OLESTARTUP
290
     0
  0
ENDSEC
  0
SECTION
  2
CLASSES
  0
CLASS
  1
ACDBDICTIONARYWDFLT
  2
AcDbDictionaryWithDefault
  3
ObjectDBX Classes
 90
        0
280
     0
281
     0
  0
CLASS
  1
TABLESTYLE
  2
AcDbTableStyle
  3
ObjectDBX Classes
 90
     2047
280
     0
281
     0
  0
CLASS
  1
DICTIONARYVAR
  2
AcDbDictionaryVar
  3
ObjectDBX Classes
 90
        0
280
     0
281
     0
  0
CLASS
  1
ACDBPLACEHOLDER
  2
AcDbPlaceHolder
  3
ObjectDBX Classes
 90
        0
280
     0
281
     0
  0
CLASS
  1
LAYOUT
  2
AcDbLayout
  3
ObjectDBX Classes
 90
        0
280
     0
281
     0
  0
ENDSEC
  0
SECTION
  2
TABLES
  0
TABLE
  2
VPORT
  5
8
330
0
100
AcDbSymbolTable
 70
     7
  0
VPORT
  5
334
330
8
100
AcDbSymbolTableRecord
100
AcDbViewportTableRecord
  2
*Active
 70
     0
 10
0.0
 20
0.0
 11
1.0
 21
1.0
 12
233.7762461227554
 22
-243.4379422696516
 13
0.0
 23
0.0
 14
10.0
 24
10.0
 15
10.0
 25
10.0
 16
0.0
 26
0.0
 36
1.0
 17
0.0
 27
0.0
 37
0.0
 40
1.094264676235866
 41
1.602030456852791
 42
50.0
 43
0.0
 44
0.0
 50
0.0
 51
0.0
 71
     0
 72
  1000
 73
     1
 74
     3
 75
     0
 76
     0
 77
     0
 78
     0
281
     0
 65
     1
110
0.0
120
0.0
130
0.0
111
1.0
121
0.0
131
0.0
112
0.0
122
1.0
132
0.0
 79
     0
146
0.0
  0
ENDTAB
  0
TABLE
  2
LTYPE
  5
5
330
0
100
AcDbSymbolTable
 70
     2
  0
LTYPE
  5
14
330
5
100
AcDbSymbolTableRecord
100
AcDbLinetypeTableRecord
  2
ByBlock
 70
     0
  3

 72
    65
 73
     0
 40
0.0
  0
LTYPE
  5
15
330
5
100
AcDbSymbolTableRecord
100
AcDbLinetypeTableRecord
  2
ByLayer
 70
     0
  3

 72
    65
 73
     0
 40
0.0
  0
LTYPE
  5
16
330
5
100
AcDbSymbolTableRecord
100
AcDbLinetypeTableRecord
  2
Continuous
 70
     0
  3
Solid line
 72
    65
 73
     0
 40
0.0
  0
ENDTAB
  0
TABLE
  2
LAYER
  5
2
330
0
100
AcDbSymbolTable
 70
     2
  0
LAYER
  5
10
330
2
100
AcDbSymbolTableRecord
100
AcDbLayerTableRecord
  2
0
 70
     0
 62
     7
  6
Continuous
370
    -3
390
F
  0
LAYER
  5
31E
330
2
100
AcDbSymbolTableRecord
100
AcDbLayerTableRecord
  2
SANINDUSA
 70
     0
 62
     3
  6
Continuous
370
    -3
390
F
  0
ENDTAB
  0
TABLE
  2
STYLE
  5
3
330
0
100
AcDbSymbolTable
 70
     1
  0
STYLE
  5
11
330
3
100
AcDbSymbolTableRecord
100
AcDbTextStyleTableRecord
  2
Standard
 70
     0
 40
0.0
 41
1.0
 50
0.0
 71
     0
 42
2.5
  3
txt
  4

  0
ENDTAB
  0
TABLE
  2
VIEW
  5
6
330
0
100
AcDbSymbolTable
 70
     0
  0
ENDTAB
  0
TABLE
  2
UCS
  5
7
330
0
100
AcDbSymbolTable
 70
     0
  0
ENDTAB
  0
TABLE
  2
APPID
  5
9
330
0
100
AcDbSymbolTable
 70
     2
  0
APPID
  5
12
330
9
100
AcDbSymbolTableRecord
100
AcDbRegAppTableRecord
  2
ACAD
 70
     0
  0
APPID
  5
318
330
9
100
AcDbSymbolTableRecord
100
AcDbRegAppTableRecord
  2
ACAD_EXEMPT_FROM_CAD_STANDARDS
 70
     0
  0
ENDTAB
  0
TABLE
  2
DIMSTYLE
  5
A
330
0
100
AcDbSymbolTable
 70
     2
100
AcDbDimStyleTable
 71
     1
340
2B
  0
DIMSTYLE
105
2B
330
A
100
AcDbSymbolTableRecord
100
AcDbDimStyleTableRecord
  2
ISO-25
 70
     0
 41
2.5
 42
0.625
 43
3.75
 44
1.25
 73
     0
 74
     0
 77
     1
 78
     8
140
2.5
141
2.5
143
0.03937007874016
147
0.625
171
     3
172
     1
271
     2
272
     2
274
     3
278
    44
283
     0
284
     8
340
11
  0
ENDTAB
  0
TABLE
  2
BLOCK_RECORD
  5
1
330
0
100
AcDbSymbolTable
 70
     3
  0
BLOCK_RECORD
  5
23
330
1
100
AcDbSymbolTableRecord
100
AcDbBlockTableRecord
  2
*Model_Space
340
26
  0
BLOCK_RECORD
  5
1F
330
1
100
AcDbSymbolTableRecord
100
AcDbBlockTableRecord
  2
*Paper_Space
340
22
  0
BLOCK_RECORD
  5
27
330
1
100
AcDbSymbolTableRecord
100
AcDbBlockTableRecord
  2
*Paper_Space0
340
2A
  0
ENDTAB
  0
ENDSEC
  0
SECTION
  2
BLOCKS
  0
BLOCK
  5
24
330
23
100
AcDbEntity
  8
0
100
AcDbBlockBegin
  2
*Model_Space
 70
     0
 10
0.0
 20
0.0
 30
0.0
  3
*Model_Space
  1

  0
ENDBLK
  5
25
330
23
100
AcDbEntity
  8
0
100
AcDbBlockEnd
  0
BLOCK
  5
20
330
1F
100
AcDbEntity
 67
     1
  8
0
100
AcDbBlockBegin
  2
*Paper_Space
 70
     0
 10
0.0
 20
0.0
 30
0.0
  3
*Paper_Space
  1

  0
ENDBLK
  5
21
330
1F
100
AcDbEntity
 67
     1
  8
0
100
AcDbBlockEnd
  0
BLOCK
  5
28
330
27
100
AcDbEntity
 67
     1
  8
0
100
AcDbBlockBegin
  2
*Paper_Space0
 70
     0
 10
0.0
 20
0.0
 30
0.0
  3
*Paper_Space0
  1

  0
ENDBLK
  5
29
330
27
100
AcDbEntity
 67
     1
  8
0
100
AcDbBlockEnd
  0
ENDSEC
  0
SECTION
  2
ENTITIES
  0
LINE
  5
1A5
330
23
100
AcDbEntity
  8
SANINDUSA
  6
Continuous
370
    15
100
AcDbLine
 10
233.7435218420401
 20
-242.9929850855625
 30
0.0
 11
233.7435206940714
 21
-242.9919244426256
 31
0.0
  0
LINE
  5
1A6
330
23
100
AcDbEntity
  8
SANINDUSA
  6
Continuous
370
    15
100
AcDbLine
 10
233.7243894782677
 20
-242.9919451169982
 30
0.0
 11
233.7243906286135
 21
-242.9930057683742
 31
0.0
  0
LINE
  5
1A7
330
23
100
AcDbEntity
  8
SANINDUSA
  6
Continuous
370
    15
100
AcDbLine
 10
233.7469562318698
 20
-242.9929813900745
 30
0.0
 11
233.7468857288868
 21
-242.9277473726738
 31
0.0
  0
LINE
  5
1A8
330
23
100
AcDbEntity
  8
SANINDUSA
  6
Continuous
370
    15
100
AcDbLine
 10
233.7208857440686
 20
-242.927775469862
 30
0.0
 11
233.7209562387839
 21
-242.9930094638622
 31
0.0
  0
LINE
  5
1A9
330
23
100
AcDbEntity
  8
SANINDUSA
  6
Continuous
370
    15
100
AcDbLine
 10
233.7339656379596
 20
-242.9842980066097
 30
0.0
 11
233.7339653250352
 21
-242.9842980066097
 31
0.0
  0
LINE
  5
1AA
330
23
100
AcDbEntity
  8
SANINDUSA
  6
Continuous
370
    15
100
AcDbLine
 10
233.7339283403531
 20
-242.9842980662144
 30
0.0
 11
233.7339280423299
 21
-242.9842980662144
 31
0.0
  0
LWPOLYLINE
  5
1AB
330
23
100
AcDbEntity
  8
SANINDUSA
  6
Continuous
370
    15
100
AcDbPolyline
 90
       13
 70
   128
 43
0.0
 10
233.7208460894004
 20
-242.9105400601185
 10
233.7208459403888
 20
-242.910533265189
 10
233.7208473112956
 20
-242.9106461563862
 10
233.7208502468243
 20
-242.9110034266269
 10
233.7208541807309
 20
-242.9116961518086
 10
233.7208584871665
 20
-242.9127329149998
 10
233.7208628383056
 20
-242.9140921393192
 10
233.72086712984
 20
-242.9157563010014
 10
233.7208713021651
 20
-242.9177122870243
 10
233.7208753105775
 20
-242.9199473419941
 10
233.7208791550771
 20
-242.9224489489353
 10
233.7208827909604
 20
-242.9252032795704
 10
233.7208857413903
 20
-242.927775458411
  0
LWPOLYLINE
  5
1AC
330
23
100
AcDbEntity
  8
SANINDUSA
  6
Continuous
370
    15
100
AcDbPolyline
 90
       67
 70
   128
 43
0.0
 10
233.7468857344762
 20
-242.9277473250187
 10
233.7468839463368
 20
-242.9261585036075
 10
233.7468803700581
 20
-242.9233147660053
 10
233.7468765851632
 20
-242.9207165995395
 10
233.7468726065532
 20
-242.9183779516971
 10
233.7468684491292
 20
-242.9163105049885
 10
233.7468641426936
 20
-242.9145246306217
 10
233.7468596723452
 20
-242.9130284348286
 10
233.7468550678864
 20
-242.9118270436084
 10
233.7468502697125
 20
-242.9109196224964
 10
233.7468448456899
 20
-242.910280064658
 10
233.7468401816264
 20
-242.9099862137592
 10
233.7468347725049
 20
-242.9097862997807
 10
233.7468206462041
 20
-242.9094693222797
 10
233.7467945393697
 20
-242.9090979853428
 10
233.7467348900214
 20
-242.9085367480076
 10
233.7466129985228
 20
-242.907768682555
 10
233.7463285949603
 20
-242.9065774241245
 10
233.7456666406766
 20
-242.9047905960834
 10
233.7447233524695
 20
-242.9030779162205
 10
233.7437594708577
 20
-242.9017853298939
 10
233.7425265189782
 20
-242.900516108588
 10
233.7410793927089
 20
-242.8993901768482
 10
233.7394522008076
 20
-242.8984616556919
 10
233.737685653247
 20
-242.8977696457661
 10
233.7358233657256
 20
-242.8973400154865
 10
233.7337061789408
 20
-242.8971885004795
 10
233.7316923913136
 20
-242.8973664799488
 10
233.7298209544793
 20
-242.8978246012485
 10
233.7281120893136
 20
-242.898517684058
 10
233.7265820529834
 20
-242.899402455405
 10
233.7252421256676
 20
-242.9004369536198
 10
233.7240981337205
 20
-242.9015796938694
 10
233.7231502261535
 20
-242.9027896681583
 10
233.7223928895369
 20
-242.9040259877003
 10
233.7218150076047
 20
-242.9052477637089
 10
233.7214000847712
 20
-242.9064123192585
 10
233.7211269613877
 20
-242.907470182494
 10
233.7209712591544
 20
-242.9083426752842
 10
233.7208999123946
 20
-242.9089363375461
 10
233.7208687391654
 20
-242.9093144694126
 10
233.7208551195041
 20
-242.9095445433414
 10
233.7208469387666
 20
-242.9097311058796
 10
233.7208413657323
 20
-242.9099100390232
 10
233.7208376255408
 20
-242.9100895682132
 10
233.7208337512389
 20
-242.9103873530185
 10
233.7208286997452
 20
-242.9110481301105
 10
233.7208241399899
 20
-242.9119572201527
 10
233.7208194759265
 20
-242.9132183352268
 10
233.7208150055781
 20
-242.9147659102238
 10
233.7208106991425
 20
-242.9165988722599
 10
233.7208065566197
 20
-242.9187104264057
 10
233.720802607812
 20
-242.9210907974995
 10
233.7207988527194
 20
-242.9237283030308
 10
233.720795306243
 20
-242.9266092339314
 10
233.7207920130864
 20
-242.9297189274586
 10
233.7207889583484
 20
-242.9330409327305
 10
233.7207861867323
 20
-242.9365582028187
 10
233.7207836982384
 20
-242.9402520218647
 10
233.7207814928666
 20
-242.9441033163822
 10
233.7207796004191
 20
-242.9480915823734
 10
233.7207780357972
 20
-242.952196077422
 10
233.7207767840997
 20
-242.9563951054371
 10
233.7207758751288
 20
-242.9606666127003
 10
233.7207752939836
 20
-242.9649883070744
 10
233.7207750555649
 20
-242.9691084185398
 10
233.7207750555649
 20
-242.9701878586567
  0
LINE
  5
1AD
330
23
100
AcDbEntity
  8
SANINDUSA
  6
Continuous
370
    15
100
AcDbLine
 10
233.7467750486508
 20
-243.1221878090656
 30
0.0
 11
233.7467750486508
 21
-242.9945178786076
 31
0.0
  0
LINE
  5
1AE
330
23
100
AcDbEntity
  8
SANINDUSA
  6
Continuous
370
    15
100
AcDbLine
 10
233.7207750482512
 20
-242.9701878281391
 30
0.0
 11
233.7207750555649
 21
-243.1221878090656
 31
0.0
  0
LINE
  5
1AF
330
23
100
AcDbEntity
  8
SANINDUSA
  6
Continuous
370
    15
100
AcDbLine
 10
233.711275048181
 20
-243.1221878281391
 30
0.0
 11
233.711275048181
 21
-243.1271878281391
 31
0.0
  0
LINE
  5
1B0
330
23
100
AcDbEntity
  8
SANINDUSA
  6
Continuous
370
    15
100
AcDbLine
 10
233.756275048181
 20
-243.1271878281391
 30
0.0
 11
233.756275048181
 21
-243.1221878281391
 31
0.0
  0
LINE
  5
1B1
330
23
100
AcDbEntity
  8
SANINDUSA
  6
Continuous
370
    15
100
AcDbLine
 10
233.7789251573723
 20
-243.1454128281391
 30
0.0
 11
233.7512750503198
 21
-243.145412818507
 31
0.0
  0
LINE
  5
1B2
330
23
100
AcDbEntity
  8
SANINDUSA
  6
Continuous
370
    15
100
AcDbLine
 10
233.7512750503198
 20
-243.151412800864
 30
0.0
 11
233.7789251573723
 21
-243.1514128281391
 31
0.0
  0
LINE
  5
1B3
330
23
100
AcDbEntity
  8
SANINDUSA
  6
Continuous
370
    15
100
AcDbLine
 10
233.7995355900899
 20
-243.1513255396641
 30
0.0
 11
233.7906325273861
 21
-243.1477150933071
 31
0.0
  0
LINE
  5
1B4
330
23
100
AcDbEntity
  8
SANINDUSA
  6
Continuous
370
    15
100
AcDbLine
 10
233.7906325273861
 20
-243.1477150933071
 30
0.0
 11
233.7895230528489
 21
-243.1472892919338
 31
0.0
  0
ARC
  5
1B5
330
23
100
AcDbEntity
  8
SANINDUSA
  6
Continuous
370
    15
100
AcDbCircle
 10
233.7792291787671
 20
-243.1746269213476
 30
0.0
 40
0.0292114673642838
100
AcDbArc
 50
69.3663374319576
 51
90.59901963479692
  0
LINE
  5
1B6
330
23
100
AcDbEntity
  8
SANINDUSA
  6
Continuous
370
    15
100
AcDbLine
 10
233.7883777244687
 20
-243.1532752968829
 30
0.0
 11
233.7972807761803
 21
-243.1568856993473
 31
0.0
  0
ARC
  5
1B7
330
23
100
AcDbEntity
  8
SANINDUSA
  6
Continuous
370
    15
100
AcDbCircle
 10
233.7789849291062
 20
-243.1761948752835
 30
0.0
 40
0.0247695716310328
100
AcDbArc
 50
67.7154279037443
 51
90.13985622783687
  0
LINE
  5
1B8
330
23
100
AcDbEntity
  8
SANINDUSA
  6
Continuous
370
    15
100
AcDbLine
 10
233.7512750503198
 20
-243.15218784006
 30
0.0
 11
233.7512750503198
 21
-243.145187810973
 31
0.0
  0
LINE
  5
1B9
330
23
100
AcDbEntity
  8
SANINDUSA
  6
Continuous
370
    15
100
AcDbLine
 10
233.711275048181
 20
-243.1271878281391
 30
0.0
 11
233.7112750437632
 21
-243.9558640559918
 31
0.0
  0
LINE
  5
1BA
330
23
100
AcDbEntity
  8
SANINDUSA
  6
Continuous
370
    15
100
AcDbLine
 10
233.756275048181
 20
-243.1451878281391
 30
0.0
 11
233.756275048181
 21
-243.1271878281391
 31
0.0
  0
LINE
  5
1BB
330
23
100
AcDbEntity
  8
SANINDUSA
  6
Continuous
370
    15
100
AcDbLine
 10
233.7562750455514
 20
-243.9558640559918
 30
0.0
 11
233.756275048181
 21
-243.1521878281391
 31
0.0
  0
LINE
  5
1BC
330
23
100
AcDbEntity
  8
SANINDUSA
  6
Continuous
370
    15
100
AcDbLine
 10
233.672275048181
 20
-243.9558640561219
 30
0.0
 11
233.672275048181
 21
-243.9698640561219
 31
0.0
  0
LINE
  5
1BD
330
23
100
AcDbEntity
  8
SANINDUSA
  6
Continuous
370
    15
100
AcDbLine
 10
233.795275048181
 20
-243.9698640561219
 30
0.0
 11
233.795275048181
 21
-243.9558640561219
 31
0.0
  0
ARC
  5
1DA
330
23
100
AcDbEntity
  8
SANINDUSA
  6
Continuous
370
    15
100
AcDbCircle
 10
233.737280253474
 20
-242.9915511663
 30
0.0
 40
0.0090617425764363
100
AcDbArc
 50
301.6736911907532
 51
330.7993641381562
  0
LINE
  5
1DB
330
23
100
AcDbEntity
  8
SANINDUSA
  6
Continuous
370
    15
100
AcDbLine
 10
233.7451903941576
 20
-242.9959721139526
 30
0.0
 11
233.7451892521754
 21
-242.994911448077
 31
0.0
  0
LINE
  5
1DC
330
23
100
AcDbEntity
  8
SANINDUSA
  6
Continuous
370
    15
100
AcDbLine
 10
233.7456788149253
 20
-242.9909637132443
 30
0.0
 11
233.7456790367353
 21
-242.991175852624
 31
0.0
  0
ARC
  5
1DD
330
23
100
AcDbEntity
  8
SANINDUSA
  6
Continuous
370
    15
100
AcDbCircle
 10
233.7382490185685
 20
-242.9936468697862
 30
0.0
 40
0.007830143869562
100
AcDbArc
 50
18.39572968472992
 51
50.53025305601401
  0
LINE
  5
1DE
330
23
100
AcDbEntity
  8
SANINDUSA
  6
Continuous
370
    15
100
AcDbLine
 10
233.7432264138551
 20
-242.9876023120759
 30
0.0
 11
233.7432261881009
 21
-242.9873901763714
 31
0.0
  0
LINE
  5
1DF
330
23
100
AcDbEntity
  8
SANINDUSA
  6
Continuous
370
    15
100
AcDbLine
 10
233.73759663371
 20
-242.9846959868229
 30
0.0
 11
233.7375968620479
 21
-242.9849081240029
 31
0.0
  0
ARC
  5
1E0
330
23
100
AcDbEntity
  8
SANINDUSA
  6
Continuous
370
    15
100
AcDbCircle
 10
233.7339624203448
 20
-243.0012777875985
 30
0.0
 40
0.0167682782898697
100
AcDbArc
 50
77.48208980396213
 51
96.74749917014327
  0
LINE
  5
1E1
330
23
100
AcDbEntity
  8
SANINDUSA
  6
Continuous
370
    15
100
AcDbLine
 10
233.7319922520819
 20
-242.9846256381071
 30
0.0
 11
233.7319920238629
 21
-242.9844135204113
 31
0.0
  0
LINE
  5
1E2
330
23
100
AcDbEntity
  8
SANINDUSA
  6
Continuous
370
    15
100
AcDbLine
 10
233.7258738305941
 20
-242.9865155974186
 30
0.0
 11
233.725874057697
 21
-242.9867277113626
 31
0.0
  0
ARC
  5
1E3
330
23
100
AcDbEntity
  8
SANINDUSA
  6
Continuous
370
    15
100
AcDbCircle
 10
233.73063239393
 20
-242.9944399750505
 30
0.0
 40
0.0090620370865844
100
AcDbArc
 50
121.6739661438494
 51
150.798323073564
  0
LINE
  5
1E4
330
23
100
AcDbEntity
  8
SANINDUSA
  6
Continuous
370
    15
100
AcDbLine
 10
233.7227220706112
 20
-242.9900187660148
 30
0.0
 11
233.7227218475714
 21
-242.9898066082752
 31
0.0
  0
LINE
  5
1E5
330
23
100
AcDbEntity
  8
SANINDUSA
  6
Continuous
370
    15
100
AcDbLine
 10
233.7222322848216
 20
-242.993754343108
 30
0.0
 11
233.7222334280335
 21
-242.9948150273434
 31
0.0
  0
ARC
  5
1E6
330
23
100
AcDbEntity
  8
SANINDUSA
  6
Continuous
370
    15
100
AcDbCircle
 10
233.7296634954336
 20
-242.9923439751544
 30
0.0
 40
0.0078301878418617
100
AcDbArc
 50
198.3956920484118
 51
230.5299658682234
  0
ARC
  5
1E7
330
23
100
AcDbEntity
  8
SANINDUSA
  6
Continuous
370
    15
100
AcDbCircle
 10
233.7330638897759
 20
-242.986956306514
 30
0.0
 40
0.0133519128220629
100
AcDbArc
 50
234.9868820704315
 51
258.1165838107008
  0
LINE
  5
1E8
330
23
100
AcDbEntity
  8
SANINDUSA
  6
Continuous
370
    15
100
AcDbLine
 10
233.7303144565061
 20
-243.0000220957927
 30
0.0
 11
233.7303156027209
 21
-243.0010827559645
 31
0.0
  0
ARC
  5
1E9
330
23
100
AcDbEntity
  8
SANINDUSA
  6
Continuous
370
    15
100
AcDbCircle
 10
233.7339500840236
 20
-242.9847156150352
 30
0.0
 40
0.0167658007276459
100
AcDbArc
 50
257.4800397723019
 51
276.7483336168833
  0
LINE
  5
1EA
330
23
100
AcDbEntity
  8
SANINDUSA
  6
Continuous
370
    15
100
AcDbLine
 10
233.7359202126869
 20
-243.0013652418603
 30
0.0
 11
233.7359190664721
 21
-243.0003045816885
 31
0.0
  0
ARC
  5
1EB
330
23
100
AcDbEntity
  8
SANINDUSA
  6
Continuous
370
    15
100
AcDbCircle
 10
233.7342745572632
 20
-242.9854566853731
 30
0.0
 40
0.0149387023858957
100
AcDbArc
 50
276.3201254308987
 51
298.2330452664432
  0
LINE
  5
1EC
330
23
100
AcDbEntity
  8
SANINDUSA
  6
Continuous
370
    15
100
AcDbLine
 10
233.7324916553235
 20
-242.9860014134141
 30
0.0
 11
233.7319922520819
 21
-242.9846256381071
 31
0.0
  0
LINE
  5
1ED
330
23
100
AcDbEntity
  8
SANINDUSA
  6
Continuous
370
    15
100
AcDbLine
 10
233.7375968620479
 20
-242.9849081240029
 30
0.0
 11
233.7368236659203
 21
-242.9862197572242
 31
0.0
  0
ARC
  5
1EE
330
23
100
AcDbEntity
  8
SANINDUSA
  6
Continuous
370
    15
100
AcDbCircle
 10
233.7339617902269
 20
-242.9999138921989
 30
0.0
 40
0.0139899625604628
100
AcDbArc
 50
78.1958853479688
 51
96.03204408188888
  0
LWPOLYLINE
  5
1EF
330
23
100
AcDbEntity
  8
SANINDUSA
  6
Continuous
370
    15
100
AcDbPolyline
 90
        3
 70
   128
 43
0.0
 10
233.7435206946507
 20
-242.9919244209088
 10
233.7434467401877
 20
-242.9910901943005
 10
233.7432895478383
 20
-242.9904517689503
  0
ARC
  5
1F0
330
23
100
AcDbEntity
  8
SANINDUSA
  6
Continuous
370
    15
100
AcDbCircle
 10
233.7349830572247
 20
-242.9951615396538
 30
0.0
 40
0.0098441056471639
100
AcDbArc
 50
46.25130527861412
 51
76.95090876009451
  0
ARC
  5
1F1
330
23
100
AcDbEntity
  8
SANINDUSA
  6
Continuous
370
    15
100
AcDbCircle
 10
233.7334820897627
 20
-242.9963530776957
 30
0.0
 40
0.0111409622718264
100
AcDbArc
 50
96.44912932183768
 51
124.9950425673757
  0
LWPOLYLINE
  5
1F2
330
23
100
AcDbEntity
  8
SANINDUSA
  6
Continuous
370
    15
100
AcDbPolyline
 90
        3
 70
   128
 43
0.0
 10
233.7246416684762
 20
-242.9903968730724
 10
233.7244142022505
 20
-242.9914539018429
 10
233.7243894812242
 20
-242.9919451037205
  0
LINE
  5
1F3
330
23
100
AcDbEntity
  8
SANINDUSA
  6
Continuous
370
    15
100
AcDbLine
 10
233.7432696398869
 20
-242.9945333162105
 30
0.0
 11
233.7451892521754
 21
-242.994911448077
 31
0.0
  0
LINE
  5
1F4
330
23
100
AcDbEntity
  8
SANINDUSA
  6
Continuous
370
    15
100
AcDbLine
 10
233.735680582799
 20
-242.9996476331508
 30
0.0
 11
233.7359190664721
 21
-243.0003045816885
 31
0.0
  0
LINE
  5
1F5
330
23
100
AcDbEntity
  8
SANINDUSA
  6
Continuous
370
    15
100
AcDbLine
 10
233.7303144565061
 20
-243.0000220957927
 30
0.0
 11
233.7307055917159
 21
-242.9993585506237
 31
0.0
  0
ARC
  5
1F6
330
23
100
AcDbEntity
  8
SANINDUSA
  6
Continuous
370
    15
100
AcDbCircle
 10
233.7296142018385
 20
-242.9917533219809
 30
0.0
 40
0.0056877484571363
100
AcDbArc
 50
198.6392853753896
 51
208.6277635335341
  0
LINE
  5
1F7
330
23
100
AcDbEntity
  8
SANINDUSA
  6
Continuous
370
    15
100
AcDbLine
 10
233.7222322848216
 20
-242.993754343108
 30
0.0
 11
233.7242247842671
 21
-242.9935711668366
 31
0.0
  0
LINE
  5
1F8
330
23
100
AcDbEntity
  8
SANINDUSA
  6
Continuous
370
    15
100
AcDbLine
 10
233.7264138188735
 20
-242.9861676255024
 30
0.0
 11
233.7270922240392
 21
-242.9867955008305
 31
0.0
  0
LINE
  5
1F9
330
23
100
AcDbEntity
  8
SANINDUSA
  6
Continuous
370
    15
100
AcDbLine
 10
233.7417896714583
 20
-242.9875362673557
 30
0.0
 11
233.7426793005839
 21
-242.9869198957241
 31
0.0
  0
LWPOLYLINE
  5
1FA
330
23
100
AcDbEntity
  8
SANINDUSA
  6
Continuous
370
    15
100
AcDbPolyline
 90
       33
 70
   128
 43
0.0
 10
233.7332688745633
 20
-242.9997422257221
 10
233.7351434108391
 20
-242.9997064033306
 10
233.7369723346606
 20
-242.9994126716412
 10
233.7386853423491
 20
-242.9988723555362
 10
233.7402166154757
 20
-242.9981061974323
 10
233.7415073093549
 20
-242.9971435824192
 10
233.7425078180209
 20
-242.9960215845859
 10
233.7431796964779
 20
-242.9947832980907
 10
233.7434971210137
 20
-242.9934763470448
 10
233.7434478875771
 20
-242.9921508589542
 10
233.7430339035169
 20
-242.9908578553951
 10
233.7422710683719
 20
-242.9896469870365
 10
233.7411886927262
 20
-242.9885647455013
 10
233.739828380622
 20
-242.9876528540409
 10
233.7382424053326
 20
-242.9869462409771
 10
233.7364917275086
 20
-242.9864720860279
 10
233.7346435960904
 20
-242.9862486282146
 10
233.7327690598145
 20
-242.9862844506061
 10
233.7309401359931
 20
-242.9865781822956
 10
233.7292271283045
 20
-242.9871184984005
 10
233.7276958551779
 20
-242.9878847161091
 10
233.7264051612988
 20
-242.9888472715175
 10
233.7254046526328
 20
-242.9899692693508
 10
233.7247327741757
 20
-242.991207555846
 10
233.72441534964
 20
-242.9925145664967
 10
233.7244645830765
 20
-242.9938400545871
 10
233.7248785671369
 20
-242.9951330581463
 10
233.7256414022818
 20
-242.9963439265049
 10
233.7267237779275
 20
-242.9974261084354
 10
233.7280840751305
 20
-242.9983380595005
 10
233.7296700504199
 20
-242.9990446129597
 10
233.7314207431451
 20
-242.9995187679089
 10
233.7332688745633
 20
-242.9997422257221
  0
LINE
  5
1FB
330
23
100
AcDbEntity
  8
SANINDUSA
  6
Continuous
370
    15
100
AcDbLine
 10
233.7246570764726
 20
-242.9903999222664
 30
0.0
 11
233.7227220706112
 21
-242.9900187660148
 31
0.0
  0
LINE
  5
1FC
330
23
100
AcDbEntity
  8
SANINDUSA
  6
Continuous
370
    15
100
AcDbLine
 10
233.725874057697
 20
-242.9867277113626
 30
0.0
 11
233.7270933640178
 21
-242.987856144249
 31
0.0
  0
ARC
  5
1FD
330
23
100
AcDbEntity
  8
SANINDUSA
  6
Continuous
370
    15
100
AcDbCircle
 10
233.7311768013559
 20
-242.9942056689332
 30
0.0
 40
0.0075492114833217
100
AcDbArc
 50
122.7454811595271
 51
149.7266288850581
  0
LINE
  5
1FE
330
23
100
AcDbEntity
  8
SANINDUSA
  6
Continuous
370
    15
100
AcDbLine
 10
233.7270922240392
 20
-242.9867955008305
 30
0.0
 11
233.7270933640178
 21
-242.987856144249
 31
0.0
  0
LINE
  5
1FF
330
23
100
AcDbEntity
  8
SANINDUSA
  6
Continuous
370
    15
100
AcDbLine
 10
233.7417908112354
 20
-242.9885969311314
 30
0.0
 11
233.7432264138551
 21
-242.9876023120759
 31
0.0
  0
LINE
  5
200
330
23
100
AcDbEntity
  8
SANINDUSA
  6
Continuous
370
    15
100
AcDbLine
 10
233.7456790367353
 20
-242.991175852624
 30
0.0
 11
233.7436865342868
 21
-242.9913590529589
 31
0.0
  0
ARC
  5
201
330
23
100
AcDbEntity
  8
SANINDUSA
  6
Continuous
370
    15
100
AcDbCircle
 10
233.7375433226875
 20
-242.9935436974633
 30
0.0
 40
0.0065200909120746
100
AcDbArc
 50
19.57623271401183
 51
49.34935516400466
  0
LINE
  5
202
330
23
100
AcDbEntity
  8
SANINDUSA
  6
Continuous
370
    15
100
AcDbLine
 10
233.7417896714583
 20
-242.9875362673557
 30
0.0
 11
233.7417908112354
 21
-242.9885969311314
 31
0.0
  0
LINE
  5
203
330
23
100
AcDbEntity
  8
SANINDUSA
  6
Continuous
370
    15
100
AcDbLine
 10
233.7261216535334
 20
-242.9973939488359
 30
0.0
 11
233.7246860509137
 21
-242.9983885678914
 31
0.0
  0
LINE
  5
204
330
23
100
AcDbEntity
  8
SANINDUSA
  6
Continuous
370
    15
100
AcDbLine
 10
233.7222334280335
 20
-242.9948150273434
 30
0.0
 11
233.7242259304819
 21
-242.9946318270084
 31
0.0
  0
ARC
  5
205
330
23
100
AcDbEntity
  8
SANINDUSA
  6
Continuous
370
    15
100
AcDbCircle
 10
233.7303694090607
 20
-242.9924469199025
 30
0.0
 40
0.0065204501937064
100
AcDbArc
 50
199.5778722115368
 51
229.3488693820414
  0
LINE
  5
206
330
23
100
AcDbEntity
  8
SANINDUSA
  6
Continuous
370
    15
100
AcDbLine
 10
233.7242247842671
 20
-242.9935711668366
 30
0.0
 11
233.7242259304819
 21
-242.9946318270084
 31
0.0
  0
LINE
  5
207
330
23
100
AcDbEntity
  8
SANINDUSA
  6
Continuous
370
    15
100
AcDbLine
 10
233.726121100463
 20
-242.9968798318661
 30
0.0
 11
233.7261216535334
 21
-242.9973939488359
 31
0.0
  0
LINE
  5
208
330
23
100
AcDbEntity
  8
SANINDUSA
  6
Continuous
370
    15
100
AcDbLine
 10
233.7432542916909
 20
-242.9945789733685
 30
0.0
 11
233.7432553882962
 21
-242.995590957701
 31
0.0
  0
ARC
  5
209
330
23
100
AcDbEntity
  8
SANINDUSA
  6
Continuous
370
    15
100
AcDbCircle
 10
233.7367346730882
 20
-242.9917843796756
 30
0.0
 40
0.0075504778292376
100
AcDbArc
 50
302.7482891917825
 51
329.7251621301602
  0
LINE
  5
20A
330
23
100
AcDbEntity
  8
SANINDUSA
  6
Continuous
370
    15
100
AcDbLine
 10
233.7408186372891
 20
-242.9977038660801
 30
0.0
 11
233.740819100751
 21
-242.9981347357184
 31
0.0
  0
LINE
  5
20B
330
23
100
AcDbEntity
  8
SANINDUSA
  6
Continuous
370
    15
100
AcDbLine
 10
233.7432553882962
 20
-242.995590957701
 30
0.0
 11
233.7451903941576
 21
-242.9959721139526
 31
0.0
  0
LINE
  5
20C
330
23
100
AcDbEntity
  8
SANINDUSA
  6
Continuous
370
    15
100
AcDbLine
 10
233.7420384070718
 20
-242.9992631686047
 30
0.0
 11
233.740819100751
 21
-242.9981347357184
 31
0.0
  0
LINE
  5
20D
330
23
100
AcDbEntity
  8
SANINDUSA
  6
Continuous
370
    15
100
AcDbLine
 10
233.7354208094452
 20
-242.9999894665532
 30
0.0
 11
233.7359202126869
 21
-243.0013652418603
 31
0.0
  0
LINE
  5
20E
330
23
100
AcDbEntity
  8
SANINDUSA
  6
Continuous
370
    15
100
AcDbLine
 10
233.7303156027209
 20
-243.0010827559645
 30
0.0
 11
233.7310887988485
 21
-242.9997711227431
 31
0.0
  0
ARC
  5
20F
330
23
100
AcDbEntity
  8
SANINDUSA
  6
Continuous
370
    15
100
AcDbCircle
 10
233.7339504222323
 20
-242.9860783461697
 30
0.0
 40
0.0139886129318142
100
AcDbArc
 50
258.1958104715383
 51
276.0336916426352
  0
LINE
  5
210
330
23
100
AcDbEntity
  8
SANINDUSA
  6
Continuous
370
    15
100
AcDbLine
 10
233.7310884472505
 20
-242.9994497457302
 30
0.0
 11
233.7310887988485
 21
-242.9997711227431
 31
0.0
  0
LINE
  5
211
330
23
100
AcDbEntity
  8
SANINDUSA
  6
Continuous
370
    15
100
AcDbLine
 10
233.7354204681292
 20
-242.9996788659847
 30
0.0
 11
233.7354208094452
 21
-242.9999894665532
 31
0.0
  0
LWPOLYLINE
  5
212
330
23
100
AcDbEntity
  8
SANINDUSA
  6
Continuous
370
    15
100
AcDbPolyline
 90
       39
 70
   128
 43
0.0
 10
233.7339462962523
 20
-243.0021878042972
 10
233.7360861626044
 20
-243.0020624557293
 10
233.738167929329
 20
-243.0016897478855
 10
233.7401348081008
 20
-243.0010799327648
 10
233.7419331547395
 20
-243.0002495208538
 10
233.7435139146224
 20
-242.9992212811268
 10
233.7448339637891
 20
-242.9980232277668
 10
233.7458572861329
 20
-242.9966879645145
 10
233.7465559866801
 20
-242.9952520290172
 10
233.7469110068456
 20
-242.9937545219219
 10
233.7469126459733
 20
-242.9922363320148
 10
233.746560874261
 20
-242.9907388249195
 10
233.7458652731553
 20
-242.9893028894222
 10
233.7448448267356
 20
-242.9879676857746
 10
233.743527370371
 20
-242.9867696324146
 10
233.741948830761
 20
-242.985741333083
 10
233.7401522871628
 20
-242.9849109807766
 10
233.7381867196933
 20
-242.9843011060512
 10
233.7361057576314
 20
-242.9839283982075
 10
233.7339661595002
 20
-242.9838030496395
 10
233.7318263080493
 20
-242.9839283982075
 10
233.7297445413247
 20
-242.9843011060512
 10
233.7277776625529
 20
-242.9849109807766
 10
233.7259793159142
 20
-242.985741333083
 10
233.7243985560313
 20
-242.9867696324146
 10
233.7230785068646
 20
-242.9879676857746
 10
233.7220551696197
 20
-242.9893028894222
 10
233.7213564690724
 20
-242.9907388249195
 10
233.7210014638081
 20
-242.9922363320148
 10
233.7209998246804
 20
-242.9937545219219
 10
233.7213515963927
 20
-242.9952520290172
 10
233.7220471974984
 20
-242.9966879645145
 10
233.7230676439181
 20
-242.9980232277668
 10
233.7243851002828
 20
-242.9992212811268
 10
233.7259636398926
 20
-243.0002495208538
 10
233.7277601834908
 20
-243.0010799327648
 10
233.7297257509604
 20
-243.0016897478855
 10
233.7318067130223
 20
-243.0020624557293
 10
233.7339462962523
 20
-243.0021878042972
  0
LWPOLYLINE
  5
213
330
23
100
AcDbEntity
  8
SANINDUSA
  6
Continuous
370
    15
100
AcDbPolyline
 90
       38
 70
   128
 43
0.0
 10
233.7339468326941
 20
-243.001692847327
 10
233.731868254818
 20
-243.0015677371776
 10
233.7298497584239
 20
-243.0011960426128
 10
233.7279493835345
 20
-243.000588432864
 10
233.7262218174115
 20
-242.9997623124874
 10
233.7247167554274
 20
-242.9987415829456
 10
233.7234775003568
 20
-242.9975555697239
 10
233.722539695777
 20
-242.9962383070744
 10
233.7219303276912
 20
-242.9948278227604
 10
233.7216669198647
 20
-242.9933645883358
 10
233.7217570569888
 20
-242.9918906846798
 10
233.7221981462613
 20
-242.9904486099041
 10
233.7229774769917
 20
-242.9890798488415
 10
233.724072667636
 20
-242.9878236809528
 10
233.7254521724358
 20
-242.9867162862576
 10
233.7270763394013
 20
-242.9857895532406
 10
233.7288984086886
 20
-242.9850701251782
 10
233.7308660027161
 20
-242.984578684882
 10
233.7329224821702
 20
-242.9843293586529
 10
233.735008704342
 20
-242.9843293586529
 10
233.7370646622554
 20
-242.984578684882
 10
233.7390311833993
 20
-242.9850701251782
 10
233.7408517029658
 20
-242.9857895532406
 10
233.7424738582746
 20
-242.9867162862576
 10
233.7438509788886
 20
-242.9878236809528
 10
233.7449434426204
 20
-242.9890798488415
 10
233.7457198229209
 20
-242.9904486099041
 10
233.7461577978507
 20
-242.9918906846798
 10
233.7462447461263
 20
-242.9933645883358
 10
233.7459781792536
 20
-242.9948278227604
 10
233.7453657564298
 20
-242.9962383070744
 10
233.7444251057282
 20
-242.9975555697239
 10
233.7431832876578
 20
-242.9987415829456
 10
233.7416760203019
 20
-242.9997623124874
 10
233.7399466660396
 20
-243.000588432864
 10
233.7380449947492
 20
-243.0011960426128
 10
233.7360256787911
 20
-243.0015677371776
 10
233.7339468326941
 20
-243.001692847327
  0
ARC
  5
214
330
23
100
AcDbEntity
  8
SANINDUSA
  6
Continuous
370
    15
100
AcDbCircle
 10
233.7342423311877
 20
-242.9864721063723
 30
0.0
 40
0.0149408393715701
100
AcDbArc
 50
268.866735657377
 51
301.3197285330591
  0
LWPOLYLINE
  5
215
330
23
100
AcDbEntity
  8
SANINDUSA
  6
Continuous
370
    15
100
AcDbPolyline
 90
       27
 70
   128
 43
0.0
 10
233.7443960335627
 20
-242.9971737423695
 10
233.744430350937
 20
-242.9971320191181
 10
233.7453231987134
 20
-242.9957803645885
 10
233.7458706375733
 20
-242.994339779929
 10
233.7460560676232
 20
-242.9928540149486
 10
233.7458738562241
 20
-242.991368309573
 10
233.7453295168057
 20
-242.9899277249134
 10
233.7444396045581
 20
-242.9885760107792
 10
233.7432311501876
 20
-242.9873543539799
 10
233.7417408850566
 20
-242.9862997689999
 10
233.7400140788928
 20
-242.9854443231381
 10
233.7381032135859
 20
-242.9848140040196
 10
233.7360663291589
 20
-242.98442800434
 10
233.7339653250352
 20
-242.9842980066097
 10
233.7318640377894
 20
-242.98442800434
 10
233.7298263337985
 20
-242.9848140040196
 10
233.7279140975848
 20
-242.9854443231381
 10
233.726185443677
 20
-242.9862997689999
 10
233.7246928837672
 20
-242.9873543539799
 10
233.7234818067923
 20
-242.9885760107792
 10
233.7225889739171
 20
-242.9899277249134
 10
233.722041520156
 20
-242.991368309573
 10
233.7218560901061
 20
-242.9928540149486
 10
233.7220383015051
 20
-242.994339779929
 10
233.7225826409236
 20
-242.9957803645885
 10
233.7234725531712
 20
-242.9971320191181
 10
233.723525496997
 20
-242.9971962729252
  0
ARC
  5
216
330
23
100
AcDbEntity
  8
SANINDUSA
  6
Continuous
370
    15
100
AcDbCircle
 10
233.733619351165
 20
-242.9868227893389
 30
0.0
 40
0.0145909094447335
100
AcDbArc
 50
232.3466183014994
 51
271.2860668639984
  0
LINE
  5
217
330
23
100
AcDbEntity
  8
SANINDUSA
  6
Continuous
370
    15
100
AcDbLine
 10
233.7342761116385
 20
-243.1221878281391
 30
0.0
 11
233.756275048181
 21
-243.1221878281391
 31
0.0
  0
LINE
  5
218
330
23
100
AcDbEntity
  8
SANINDUSA
  6
Continuous
370
    15
100
AcDbLine
 10
233.711275048181
 20
-243.1221878281391
 30
0.0
 11
233.7342761116385
 21
-243.1221878281391
 31
0.0
  0
LINE
  5
219
330
23
100
AcDbEntity
  8
SANINDUSA
  6
Continuous
370
    15
100
AcDbLine
 10
233.7342761116385
 20
-243.1271878281391
 30
0.0
 11
233.756275048181
 21
-243.1271878281391
 31
0.0
  0
LINE
  5
21A
330
23
100
AcDbEntity
  8
SANINDUSA
  6
Continuous
370
    15
100
AcDbLine
 10
233.711275048181
 20
-243.1271878281391
 30
0.0
 11
233.7342761116385
 21
-243.1271878281391
 31
0.0
  0
LWPOLYLINE
  5
21C
330
23
100
AcDbEntity
  8
SANINDUSA
  6
Continuous
370
    15
100
AcDbPolyline
 90
       10
 70
   128
 43
0.0
 10
233.7973949488774
 20
-243.1565228262699
 10
233.7976263043061
 20
-243.1559072294987
 10
233.7979519542829
 20
-243.1550743737972
 10
233.798332649149
 20
-243.1541246333874
 10
233.7987224635258
 20
-243.153172628001
 10
233.7990743395463
 20
-243.152333156184
 10
233.7993458983079
 20
-243.1517074862278
 10
233.7995043274537
 20
-243.151371018008
 10
233.7995305534974
 20
-243.1513644018925
 10
233.7994214173928
 20
-243.1516884127415
  0
LWPOLYLINE
  5
21F
330
23
100
AcDbEntity
  8
SANINDUSA
  6
Continuous
370
    15
100
AcDbPolyline
 90
       10
 70
   128
 43
0.0
 10
233.7973949488774
 20
-243.1565228262699
 10
233.7972858127728
 20
-243.1568468371189
 10
233.7973120388165
 20
-243.1568402210033
 10
233.7974704977646
 20
-243.1565037527836
 10
233.797742026724
 20
-243.1558780828274
 10
233.7980939325467
 20
-243.1550386110103
 10
233.7984837171212
 20
-243.1540865460194
 10
233.7988644119874
 20
-243.1531368652141
 10
233.7991900619641
 20
-243.1523040095127
 10
233.7994214173928
 20
-243.1516884127415
  0
LINE
  5
220
330
23
100
AcDbEntity
  8
SANINDUSA
  6
Continuous
370
    15
100
AcDbLine
 10
233.726219803135
 20
-243.1451878281391
 30
0.0
 11
233.756275048181
 21
-243.1451878281391
 31
0.0
  0
LWPOLYLINE
  5
221
330
23
100
AcDbEntity
  8
SANINDUSA
  6
Continuous
370
    15
100
AcDbPolyline
 90
       11
 70
   128
 43
0.0
 10
233.7262198057548
 20
-243.15218784006
 10
233.7251458492652
 20
-243.1519932904995
 10
233.7242096838131
 20
-243.15143276842
 10
233.7235008802787
 20
-243.1505617657459
 10
233.723094346799
 20
-243.1494729080952
 10
233.723033892788
 20
-243.1483026304996
 10
233.7233169254437
 20
-243.1471859374798
 10
233.7239170250073
 20
-243.1462323823727
 10
233.7247871038094
 20
-243.1455447235859
 10
233.7258360263482
 20
-243.1452117720402
 10
233.7262198057548
 20
-243.145187810973
  0
LINE
  5
222
330
23
100
AcDbEntity
  8
SANINDUSA
  6
Continuous
370
    15
100
AcDbLine
 10
233.756275048181
 20
-243.1521878281391
 30
0.0
 11
233.726219803135
 21
-243.1521878281391
 31
0.0
  0
LINE
  5
223
330
23
100
AcDbEntity
  8
SANINDUSA
  6
Continuous
370
    15
100
AcDbLine
 10
233.726219803135
 20
-243.1271878281391
 30
0.0
 11
233.711275048181
 21
-243.1271878281391
 31
0.0
  0
LINE
  5
224
330
23
100
AcDbEntity
  8
SANINDUSA
  6
Continuous
370
    15
100
AcDbLine
 10
233.756275048181
 20
-243.1271878281391
 30
0.0
 11
233.726219803135
 21
-243.1271878281391
 31
0.0
  0
LWPOLYLINE
  5
225
330
23
100
AcDbEntity
  8
SANINDUSA
  6
Continuous
370
    15
100
AcDbPolyline
 90
       11
 70
   128
 43
0.0
 10
233.7277308580056
 20
-243.145187810973
 10
233.7266633835211
 20
-243.1453808704174
 10
233.725737097539
 20
-243.1459363261021
 10
233.7250344183818
 20
-243.146803335265
 10
233.7246294793263
 20
-243.1478933850086
 10
233.7245669987574
 20
-243.1490619936741
 10
233.7248397496119
 20
-243.150172308997
 10
233.7254235920087
 20
-243.1511247316158
 10
233.7262816902772
 20
-243.1518196025646
 10
233.727325904049
 20
-243.1521610775746
 10
233.7277308580056
 20
-243.15218784006
  0
LINE
  5
226
330
23
100
AcDbEntity
  8
SANINDUSA
  6
Continuous
370
    15
100
AcDbLine
 10
233.795275048181
 20
-243.9698640561219
 30
0.0
 11
233.672275048181
 21
-243.9698640561219
 31
0.0
  0
LINE
  5
228
330
23
100
AcDbEntity
  8
SANINDUSA
  6
Continuous
370
    15
100
AcDbLine
 10
233.7631746537748
 20
-243.9558640561219
 30
0.0
 11
233.672275048181
 21
-243.9558640561219
 31
0.0
  0
LINE
  5
22A
330
23
100
AcDbEntity
  8
SANINDUSA
  6
Continuous
370
    15
100
AcDbLine
 10
233.795275048181
 20
-243.9558640561219
 30
0.0
 11
233.7631746537748
 21
-243.9558640561219
 31
0.0
  0
LWPOLYLINE
  5
23F
330
23
100
AcDbEntity
  8
SANINDUSA
  6
Continuous
370
    15
100
AcDbPolyline
 90
       21
 70
   128
 43
0.0
 10
233.7468857344762
 20
-242.9277473250187
 10
233.7468421485797
 20
-242.927002266959
 10
233.7464903768674
 20
-242.925504879073
 10
233.7457947757617
 20
-242.924068883971
 10
233.744774329342
 20
-242.9227336207187
 10
233.7434568729773
 20
-242.9215355673588
 10
233.7418783333674
 20
-242.9205073872364
 10
233.7400817897692
 20
-242.9196769753254
 10
233.7381162222996
 20
-242.9190671006001
 10
233.7360352602378
 20
-242.9186944523609
 10
233.7338956770078
 20
-242.9185690441883
 10
233.7317558106557
 20
-242.9186944523609
 10
233.7296740439311
 20
-242.9190671006001
 10
233.7277071651593
 20
-242.9196769753254
 10
233.7259088185206
 20
-242.9205073872364
 10
233.7243280586377
 20
-242.9215355673588
 10
233.723008009471
 20
-242.9227336207187
 10
233.7219846871272
 20
-242.924068883971
 10
233.7212859716788
 20
-242.925504879073
 10
233.7209309664145
 20
-242.927002266959
 10
233.7208857413903
 20
-242.927775458411
  0
LINE
  5
240
330
23
100
AcDbEntity
  8
SANINDUSA
  6
Continuous
370
    15
100
AcDbLine
 10
233.7207750482512
 20
-242.9701878281391
 30
0.0
 11
233.7209315774805
 21
-242.9701878281391
 31
0.0
  0
LWPOLYLINE
  5
241
330
23
100
AcDbEntity
  8
SANINDUSA
  6
Continuous
370
    15
100
AcDbPolyline
 90
        9
 70
   128
 43
0.0
 10
233.7791815128699
 20
-243.151079908923
 10
233.7793363061324
 20
-243.1504492917812
 10
233.7794415083304
 20
-243.1495729842938
 10
233.7794844236746
 20
-243.148556784705
 10
233.7794598814622
 20
-243.1475232401646
 10
233.779370847024
 20
-243.1465969839848
 10
233.7792280640975
 20
-243.1458897152698
 10
233.7790487435237
 20
-243.1454867878712
 10
233.7789251532927
 20
-243.145412818507
  0
LWPOLYLINE
  5
243
330
23
100
AcDbEntity
  8
SANINDUSA
  6
Continuous
370
    15
100
AcDbPolyline
 90
        3
 70
   128
 43
0.0
 10
233.7789251532927
 20
-243.151412800864
 10
233.7789958145991
 20
-243.1513888397968
 10
233.7791815128699
 20
-243.151079908923
  0
ARC
  5
244
330
23
100
AcDbEntity
  8
SANINDUSA
  6
Continuous
370
    15
100
AcDbCircle
 10
233.8506383621726
 20
-243.1754695930339
 30
0.0
 40
0.0661136212609244
100
AcDbArc
 50
155.1780508145449
 51
160.0507072465444
  0
LWPOLYLINE
  5
245
330
23
100
AcDbEntity
  8
SANINDUSA
  6
Continuous
370
    15
100
AcDbPolyline
 90
        3
 70
   128
 43
0.0
 10
233.7883777197972
 20
-243.1532752671993
 10
233.7883827414885
 20
-243.1532364049709
 10
233.7884918924943
 20
-243.1529123941219
  0
LWPOLYLINE
  5
252
330
23
100
AcDbEntity
  8
SANINDUSA
  6
Continuous
370
    15
100
AcDbPolyline
 90
       31
 70
   128
 43
0.0
 10
233.232617398028
 20
-243.4705816935963
 10
233.2326175917431
 20
-243.470766652397
 10
233.2326182026907
 20
-243.4713203925855
 10
233.2326191861674
 20
-243.4722394980706
 10
233.2326205719754
 20
-243.4735183008231
 10
233.2326223303124
 20
-243.4751489181287
 10
233.2326244611784
 20
-243.4771212972916
 10
233.2326269496724
 20
-243.4794232789643
 10
233.232629780893
 20
-243.482040667928
 10
233.2326329399391
 20
-243.4849573262252
 10
233.2326363821074
 20
-243.4881552756048
 10
233.2326401222989
 20
-243.4916147999681
 10
233.2326441307112
 20
-243.4953145645775
 10
233.232648362641
 20
-243.4992317632056
 10
233.232652803187
 20
-243.5033422447957
 10
233.232657422547
 20
-243.5076206661976
 10
233.2326622058197
 20
-243.512040648631
 10
233.2326671083018
 20
-243.5165749453224
 10
233.2326721001908
 20
-243.5211955942429
 10
233.2326771516844
 20
-243.525874111823
 10
233.2326822329804
 20
-243.530581656865
 10
233.2326873291775
 20
-243.5352892019071
 10
233.2326923806712
 20
-243.5399677194871
 10
233.2326973725602
 20
-243.5445883684076
 10
233.2327022750422
 20
-243.549122665099
 10
233.2327070583149
 20
-243.5535426475323
 10
233.2327116776749
 20
-243.5578210689343
 10
233.232716118221
 20
-243.5619315542496
 10
233.2327203501507
 20
-243.5658487566031
 10
233.2327243436619
 20
-243.5695485212125
 10
233.2327280838534
 20
-243.5730080418505
  0
LWPOLYLINE
  5
253
330
23
100
AcDbEntity
  8
SANINDUSA
  6
Continuous
370
    15
100
AcDbPolyline
 90
       31
 70
   128
 43
0.0
 10
233.2587280769392
 20
-243.572979945711
 10
233.2587243367478
 20
-243.5695204176224
 10
233.2587203283354
 20
-243.5658206530131
 10
233.2587160964056
 20
-243.5619034581102
 10
233.2587116558596
 20
-243.5577929727949
 10
233.2587070364996
 20
-243.5535145513929
 10
233.2587022532269
 20
-243.5490945689596
 10
233.258697365646
 20
-243.5445602722682
 10
233.2586923588559
 20
-243.5399396233477
 10
233.2586873073622
 20
-243.5352611057676
 10
233.2586822260662
 20
-243.5305535607255
 10
233.2586771298691
 20
-243.5258460156835
 10
233.2586720783755
 20
-243.5211674981035
 10
233.2586670864865
 20
-243.516546849183
 10
233.2586621840044
 20
-243.5120125524915
 10
233.2586574156329
 20
-243.5075925700582
 10
233.2586527813717
 20
-243.5033141486563
 10
233.2586483408257
 20
-243.4992036670662
 10
233.2586441088959
 20
-243.495286468438
 10
233.2586401153847
 20
-243.4915867001034
 10
233.2586363751933
 20
-243.4881271794654
 10
233.2586329181239
 20
-243.4849292300857
 10
233.2586297590777
 20
-243.4820125699259
 10
233.2586269427582
 20
-243.4793951809622
 10
233.2586244542643
 20
-243.4770932011522
 10
233.2586223233982
 20
-243.4751208219893
 10
233.2586205501601
 20
-243.473490202821
 10
233.2586191792533
 20
-243.4722114000685
 10
233.2586181808754
 20
-243.4712922945834
 10
233.258617584829
 20
-243.4707385562576
 10
233.2586173762127
 20
-243.4705535955943
  0
LINE
  5
254
330
23
100
AcDbEntity
  8
SANINDUSA
  6
Continuous
370
    15
100
AcDbLine
 10
233.2587985672565
 20
-243.6382139239139
 30
0.0
 11
233.2587280713499
 21
-243.5729799432893
 31
0.0
  0
LINE
  5
255
330
23
100
AcDbEntity
  8
SANINDUSA
  6
Continuous
370
    15
100
AcDbLine
 10
233.2327280865317
 20
-243.5730080404939
 30
0.0
 11
233.2327985824383
 21
-243.6382420211186
 31
0.0
  0
LINE
  5
256
330
23
100
AcDbEntity
  8
SANINDUSA
  6
Continuous
370
    15
100
AcDbLine
 10
233.2680845905587
 20
-243.4693530928559
 30
0.0
 11
233.2913274108687
 21
-243.4649375363126
 31
0.0
  0
ARC
  5
257
330
23
100
AcDbEntity
  8
SANINDUSA
  6
Continuous
370
    15
100
AcDbCircle
 10
233.3001628188219
 20
-243.5093790217107
 30
0.0
 40
0.0453112585372034
100
AcDbArc
 50
88.59791747375242
 51
101.2443581180416
  0
LINE
  5
258
330
23
100
AcDbEntity
  8
SANINDUSA
  6
Continuous
370
    15
100
AcDbLine
 10
233.2902075888021
 20
-243.4590429626606
 30
0.0
 11
233.266964768295
 21
-243.4634585203819
 31
0.0
  0
ARC
  5
259
330
23
100
AcDbEntity
  8
SANINDUSA
  6
Continuous
370
    15
100
AcDbCircle
 10
233.3000824099869
 20
-243.5085553790416
 30
0.0
 40
0.0504875385781914
100
AcDbArc
 50
88.49577152876488
 51
101.2791544175397
  0
LINE
  5
25A
330
23
100
AcDbEntity
  8
SANINDUSA
  6
Continuous
370
    15
100
AcDbLine
 10
233.3012726916935
 20
-243.464070965755
 30
0.0
 11
233.3101827152927
 21
-243.4642724893989
 31
0.0
  0
LINE
  5
25B
330
23
100
AcDbEntity
  8
SANINDUSA
  6
Continuous
370
    15
100
AcDbLine
 10
233.3103183478604
 20
-243.4582740226109
 30
0.0
 11
233.3014074497081
 21
-243.4580726089608
 31
0.0
  0
ARC
  5
25C
330
23
100
AcDbEntity
  8
SANINDUSA
  6
Continuous
370
    15
100
AcDbCircle
 10
233.2456173906441
 20
-243.4705676448287
 30
0.0
 40
0.013
100
AcDbArc
 50
0.0619173675936156
 51
180.0619173675936
  0
LWPOLYLINE
  5
25D
330
23
100
AcDbEntity
  8
SANINDUSA
  6
Continuous
370
    15
100
AcDbPolyline
 90
       21
 70
   128
 43
0.0
 10
233.2587985743328
 20
-243.6382139288105
 10
233.2587549884364
 20
-243.6389730684675
 10
233.2584032167241
 20
-243.6404709480918
 10
233.2577076156184
 20
-243.6419076435484
 10
233.2566871691986
 20
-243.643243964783
 10
233.255369712834
 20
-243.6444434635557
 10
233.2537911732241
 20
-243.6454734318174
 10
233.2519946296259
 20
-243.6463057510771
 10
233.2500290621563
 20
-243.6469177268661
 10
233.2479481000945
 20
-243.6472926698841
 10
233.2458085019633
 20
-243.6474203579344
 10
233.2436686505123
 20
-243.6472972892441
 10
233.2415868837878
 20
-243.6469268463768
 10
233.239620005016
 20
-243.6463191174186
 10
233.2378216583773
 20
-243.645490687362
 10
233.2362408984944
 20
-243.6444641463674
 10
233.2349208493277
 20
-243.6432674937166
 10
233.2338975120827
 20
-243.6419333778538
 10
233.2331988115355
 20
-243.6404981874145
 10
233.2328438062712
 20
-243.6390010677494
 10
233.232798581247
 20
-243.6382420174993
  0
ARC
  5
25E
330
23
100
AcDbEntity
  8
SANINDUSA
  6
Continuous
370
    15
100
AcDbCircle
 10
233.245617390644
 20
-243.4705676448287
 30
0.0
 40
0.0225
100
AcDbArc
 50
305.3563120437215
 51
234.7675226912287
  0
LWPOLYLINE
  5
261
330
23
100
AcDbEntity
  8
SANINDUSA
  6
Continuous
370
    15
100
AcDbPolyline
 90
        7
 70
   128
 43
0.0
 10
233.3101827104136
 20
-243.4642724897928
 10
233.3105648059889
 20
-243.4641071232252
 10
233.3109166820094
 20
-243.4636001959659
 10
233.311188240771
 20
-243.4628126053355
 10
233.3113466699168
 20
-243.4618393462367
 10
233.3113728959605
 20
-243.4607978081547
 10
233.3112637598559
 20
-243.4598136162601
  0
LWPOLYLINE
  5
262
330
23
100
AcDbEntity
  8
SANINDUSA
  6
Continuous
370
    15
100
AcDbPolyline
 90
        5
 70
   128
 43
0.0
 10
233.3103183407828
 20
-243.4582740226976
 10
233.3103260595843
 20
-243.4582742676354
 10
233.3107067544505
 20
-243.458470868434
 10
233.3110324044272
 20
-243.4590054787911
 10
233.3112637598559
 20
-243.4598136162601
  0
ARC
  5
263
330
23
100
AcDbEntity
  8
SANINDUSA
  6
Continuous
370
    15
100
AcDbCircle
 10
233.245617390644
 20
-243.4705676448287
 30
0.0
 40
0.0225500000000003
100
AcDbArc
 50
118.5576238142083
 51
234.8574046581137
  0
ARC
  5
264
330
23
100
AcDbEntity
  8
SANINDUSA
  6
Continuous
370
    15
100
AcDbCircle
 10
233.245617390644
 20
-243.4705676448287
 30
0.0
 40
0.0225500000000001
100
AcDbArc
 50
305.2664300768848
 51
3.111424183650861
  0
ARC
  5
265
330
23
100
AcDbEntity
  8
SANINDUSA
  6
Continuous
370
    15
100
AcDbCircle
 10
233.245617390644
 20
-243.4705676448287
 30
0.0
 40
0.0225500000000003
100
AcDbArc
 50
18.40175320858289
 51
118.5576238142083
  0
ARC
  5
266
330
23
100
AcDbEntity
  8
SANINDUSA
  6
Continuous
370
    15
100
AcDbCircle
 10
233.245617390644
 20
-243.4705676448287
 30
0.0
 40
0.0615
100
AcDbArc
 50
282.265277313577
 51
298.5576238142083
  0
ARC
  5
267
330
23
100
AcDbEntity
  8
SANINDUSA
  6
Continuous
370
    15
100
AcDbCircle
 10
233.245617390644
 20
-243.4705676448287
 30
0.0
 40
0.0615000000000001
100
AcDbArc
 50
118.5576238142083
 51
257.7558961468791
  0
ARC
  5
268
330
23
100
AcDbEntity
  8
SANINDUSA
  6
Continuous
370
    15
100
AcDbCircle
 10
233.245617390644
 20
-243.4705676448287
 30
0.0
 40
0.0615000000000001
100
AcDbArc
 50
11.62686052025664
 51
118.5576238142083
  0
ARC
  5
269
330
23
100
AcDbEntity
  8
SANINDUSA
  6
Continuous
370
    15
100
AcDbCircle
 10
233.245617390644
 20
-243.4705676448287
 30
0.0
 40
0.0615
100
AcDbArc
 50
298.5576238142083
 51
5.947027844979142
  0
ARC
  5
26A
330
23
100
AcDbEntity
  8
SANINDUSA
  6
Continuous
370
    15
100
AcDbCircle
 10
233.2238673906441
 20
-243.4705676448287
 30
0.0
 40
0.0017109999999998
100
AcDbArc
 50
244.0983080607827
 51
245.337628915398
  0
LWPOLYLINE
  5
2AA
330
23
100
AcDbEntity
  8
SANINDUSA
  6
Continuous
370
    15
100
AcDbPolyline
 90
       21
 70
   128
 43
0.0
 10
233.2587280769392
 20
-243.572979945711
 10
233.2586844910427
 20
-243.5737390928186
 10
233.2583327193304
 20
-243.575236972443
 10
233.2576371182248
 20
-243.5766736678995
 10
233.256616671805
 20
-243.5780099891342
 10
233.2552992154404
 20
-243.5792094879068
 10
233.2537206758305
 20
-243.5802394412674
 10
233.2519241322323
 20
-243.581071760527
 10
233.2499585647627
 20
-243.5816837512172
 10
233.2478776027008
 20
-243.5820586942352
 10
233.2457380194708
 20
-243.5821863673843
 10
233.2435981531187
 20
-243.5820633135952
 10
233.2415163863942
 20
-243.5816928707279
 10
233.2395495076224
 20
-243.5810851417698
 10
233.2377511609837
 20
-243.580256696812
 10
233.2361704011008
 20
-243.5792301558174
 10
233.2348503519341
 20
-243.5780335031665
 10
233.2338270295903
 20
-243.5766994022049
 10
233.2331283141419
 20
-243.5752642043151
 10
233.2327733088776
 20
-243.5737670921005
 10
233.2327280838534
 20
-243.5730080418505
  0
LWPOLYLINE
  5
2AC
330
23
100
AcDbEntity
  8
SANINDUSA
  6
Continuous
370
    15
100
AcDbPolyline
 90
        7
 70
   128
 43
0.0
 10
233.2913274068876
 20
-243.4649375360675
 10
233.2913022239253
 20
-243.4648049809254
 10
233.2912131894871
 20
-243.4643363245047
 10
233.2910704065605
 20
-243.4635846968956
 10
233.2908910859867
 20
-243.4626407549001
 10
233.2906968493506
 20
-243.461618352703
 10
233.2905111361786
 20
-243.460640805795
  0
LWPOLYLINE
  5
2AD
330
23
100
AcDbEntity
  8
SANINDUSA
  6
Continuous
370
    15
100
AcDbPolyline
 90
        7
 70
   128
 43
0.0
 10
233.301272680287
 20
-243.4640709655575
 10
233.3016617198035
 20
-243.4639058141254
 10
233.3020136256262
 20
-243.4633988868661
 10
233.3022851843878
 20
-243.4626112962357
 10
233.3024436135336
 20
-243.4616380371369
 10
233.3024698395773
 20
-243.4605964990549
 10
233.3023607034728
 20
-243.4596123071603
  0
LWPOLYLINE
  5
2AE
330
23
100
AcDbEntity
  8
SANINDUSA
  6
Continuous
370
    15
100
AcDbPolyline
 90
        5
 70
   128
 43
0.0
 10
233.2905111361786
 20
-243.460640805795
 10
233.2903563578173
 20
-243.4598260224081
 10
233.2902511556193
 20
-243.459272277563
 10
233.290208240275
 20
-243.4590463591955
 10
233.2902075846239
 20
-243.4590429626621
  0
LWPOLYLINE
  5
2AF
330
23
100
AcDbEntity
  8
SANINDUSA
  6
Continuous
370
    15
100
AcDbPolyline
 90
        5
 70
   128
 43
0.0
 10
233.3023607034728
 20
-243.4596123071603
 10
233.302129348044
 20
-243.4588041696913
 10
233.3018036980673
 20
-243.4582695593342
 10
233.3014230032012
 20
-243.4580729585356
 10
233.3014074463889
 20
-243.4580726088241
  0
LINE
  5
2B0
330
23
100
AcDbEntity
  8
SANINDUSA
  6
Continuous
370
    15
100
AcDbLine
 10
233.2306945462285
 20
-243.4874735968738
 30
0.0
 11
233.2307276345753
 21
-243.4874361113926
 31
0.0
  0
LINE
  5
2B1
330
23
100
AcDbEntity
  8
SANINDUSA
  6
Continuous
370
    15
100
AcDbLine
 10
233.2605071467127
 20
-243.4536991782649
 30
0.0
 11
233.2605402350595
 21
-243.4536616927836
 31
0.0
  0
LINE
  5
2B4
330
23
100
AcDbEntity
  8
SANINDUSA
  6
Continuous
370
    15
100
AcDbLine
 10
234.1966229650781
 20
-243.1221878090656
 30
0.0
 11
234.1966229583837
 21
-242.9701878281391
 31
0.0
  0
LINE
  5
2B5
330
23
100
AcDbEntity
  8
SANINDUSA
  6
Continuous
370
    15
100
AcDbLine
 10
234.1706229659746
 20
-242.9701878281391
 30
0.0
 11
234.1706229659386
 21
-243.1221878090656
 31
0.0
  0
ARC
  5
2B6
330
23
100
AcDbEntity
  8
SANINDUSA
  6
Continuous
370
    15
100
AcDbCircle
 10
234.2436228777282
 20
-242.9701877311077
 30
0.0
 40
0.0469999126502668
100
AcDbArc
 50
44.99985467813939
 51
180.0001554903466
  0
ARC
  5
2B7
330
23
100
AcDbEntity
  8
SANINDUSA
  6
Continuous
370
    15
100
AcDbCircle
 10
234.2436229388536
 20
-242.9701878313599
 30
0.0
 40
0.072999972915016
100
AcDbArc
 50
45.00001253965851
 51
180.0000214238092
  0
LINE
  5
2B8
330
23
100
AcDbEntity
  8
SANINDUSA
  6
Continuous
370
    15
100
AcDbLine
 10
234.3604756845013
 20
-242.983803054512
 30
0.0
 11
234.295241704498
 21
-242.9185690364992
 31
0.0
  0
LINE
  5
2B9
330
23
100
AcDbEntity
  8
SANINDUSA
  6
Continuous
370
    15
100
AcDbLine
 10
234.2768569302496
 20
-242.9369538094233
 30
0.0
 11
234.3420909108743
 21
-243.0021878281391
 31
0.0
  0
LINE
  5
2BA
330
23
100
AcDbEntity
  8
SANINDUSA
  6
Continuous
370
    15
100
AcDbLine
 10
234.1611229659746
 20
-243.1221878281391
 30
0.0
 11
234.1611229659746
 21
-243.1271878281391
 31
0.0
  0
LINE
  5
2BB
330
23
100
AcDbEntity
  8
SANINDUSA
  6
Continuous
370
    15
100
AcDbLine
 10
234.2061229659746
 20
-243.1271878281391
 30
0.0
 11
234.2061229659746
 21
-243.1221878281391
 31
0.0
  0
LINE
  5
2BC
330
23
100
AcDbEntity
  8
SANINDUSA
  6
Continuous
370
    15
100
AcDbLine
 10
234.1611229659746
 20
-243.1271878281391
 30
0.0
 11
234.1611229660113
 21
-243.9558640559918
 31
0.0
  0
LINE
  5
2BD
330
23
100
AcDbEntity
  8
SANINDUSA
  6
Continuous
370
    15
100
AcDbLine
 10
234.2061229659746
 20
-243.1451878281391
 30
0.0
 11
234.2061229659746
 21
-243.1271878281391
 31
0.0
  0
LINE
  5
2BE
330
23
100
AcDbEntity
  8
SANINDUSA
  6
Continuous
370
    15
100
AcDbLine
 10
234.2061229657039
 20
-243.9558640559918
 30
0.0
 11
234.2061229659746
 21
-243.1521878281391
 31
0.0
  0
LINE
  5
2BF
330
23
100
AcDbEntity
  8
SANINDUSA
  6
Continuous
370
    15
100
AcDbLine
 10
234.2451229659746
 20
-243.9698640561219
 30
0.0
 11
234.2451229659746
 21
-243.9558640561219
 31
0.0
  0
LINE
  5
2C0
330
23
100
AcDbEntity
  8
SANINDUSA
  6
Continuous
370
    15
100
AcDbLine
 10
234.1221229659746
 20
-243.9558640561219
 30
0.0
 11
234.1221229659746
 21
-243.9698640561219
 31
0.0
  0
ARC
  5
2DF
330
23
100
AcDbEntity
  8
SANINDUSA
  6
Continuous
370
    15
100
AcDbCircle
 10
229.6531124246466
 20
-238.2948207493656
 30
0.0
 40
6.64423237262768
100
AcDbArc
 50
314.8878727789114
 51
315.112080781656
  0
LINE
  5
2E0
330
23
100
AcDbEntity
  8
SANINDUSA
  6
Continuous
370
    15
100
AcDbLine
 10
234.1611229659746
 20
-243.1271878281391
 30
0.0
 11
234.2061229659746
 21
-243.1271878281391
 31
0.0
  0
LINE
  5
2E1
330
23
100
AcDbEntity
  8
SANINDUSA
  6
Continuous
370
    15
100
AcDbLine
 10
234.1611229659746
 20
-243.1221878281391
 30
0.0
 11
234.2061229659746
 21
-243.1221878281391
 31
0.0
  0
LINE
  5
2E2
330
23
100
AcDbEntity
  8
SANINDUSA
  6
Continuous
370
    15
100
AcDbLine
 10
234.177981025997
 20
-243.1361878281391
 30
0.0
 11
234.1758449983585
 21
-243.1361878281391
 31
0.0
  0
LINE
  5
2E3
330
23
100
AcDbEntity
  8
SANINDUSA
  6
Continuous
370
    15
100
AcDbLine
 10
234.2048165563334
 20
-243.1451878281391
 30
0.0
 11
234.2061229659746
 21
-243.1451878281391
 31
0.0
  0
LWPOLYLINE
  5
2E4
330
23
100
AcDbEntity
  8
SANINDUSA
  6
Continuous
370
    15
100
AcDbPolyline
 90
       11
 70
   128
 43
0.0
 10
234.204816554825
 20
-243.15218784006
 10
234.2044024478302
 20
-243.1519932904995
 10
234.2039884712205
 20
-243.15143276842
 10
234.2036402422592
 20
-243.1505617657459
 10
234.2034263100133
 20
-243.1494729080952
 10
234.2033935907886
 20
-243.1483026304996
 10
234.2035447556183
 20
-243.1471859374798
 10
234.2038484301076
 20
-243.1462323823727
 10
234.2042498152361
 20
-243.1455447235859
 10
234.2046758021817
 20
-243.1452117720402
 10
234.204816554825
 20
-243.145187810973
  0
LINE
  5
2E5
330
23
100
AcDbEntity
  8
SANINDUSA
  6
Continuous
370
    15
100
AcDbLine
 10
234.2061229659746
 20
-243.1521878281391
 30
0.0
 11
234.2048165563334
 21
-243.1521878281391
 31
0.0
  0
SPLINE
  5
2E6
330
23
100
AcDbEntity
  8
SANINDUSA
  6
Continuous
370
    15
100
AcDbSpline
210
0.0
220
0.0
230
1.0
 70
    15
 71
     3
 72
    27
 73
    23
 74
     0
 42
0.0000000001
 43
0.0000000001
 40
0.0
 40
0.0
 40
0.0
 40
0.0
 40
0.0629966721004757
 40
0.1256912575408802
 40
0.1878843212790214
 40
0.2191458037747667
 40
0.2500210547211932
 40
0.2808268391625516
 40
0.3121326286423478
 40
0.3742632404146386
 40
0.4370083719759067
 40
0.5001570063665063
 40
0.5631399269894023
 40
0.6257508926128653
 40
0.6879148498195336
 40
0.7191956507413325
 40
0.7500725330413524
 40
0.780903814373943
 40
0.8122412894737937
 40
0.8744196786341159
 40
0.9370462139606281
 40
1.0
 40
1.0
 40
1.0
 40
1.0
 10
234.1760677212507
 20
-243.1377372303761
 30
0.0
 41
1.0
 10
234.1757491338522
 20
-243.1376977204017
 30
0.0
 41
1.0
 10
234.1751134867708
 20
-243.1376188899146
 30
0.0
 41
1.0
 10
234.1743163002363
 20
-243.1370373415181
 30
0.0
 41
1.0
 10
234.1738799523057
 20
-243.1363281602547
 30
0.0
 41
1.0
 10
234.1736982846776
 20
-243.1356876055378
 30
0.0
 41
1.0
 10
234.1736523201477
 20
-243.1351877613769
 30
0.0
 41
1.0
 10
234.1736978265586
 20
-243.1346874135163
 30
0.0
 41
1.0
 10
234.1738796691299
 20
-243.1340481106954
 30
0.0
 41
1.0
 10
234.174315973799
 20
-243.1333332804031
 30
0.0
 41
1.0
 10
234.175115163247
 20
-243.1327753716459
 30
0.0
 41
1.0
 10
234.1760668011914
 20
-243.1325699259162
 30
0.0
 41
1.0
 10
234.177034400565
 20
-243.1327749036078
 30
0.0
 41
1.0
 10
234.177870566218
 20
-243.1333346425538
 30
0.0
 41
1.0
 10
234.1783392095577
 20
-243.1340488057307
 30
0.0
 41
1.0
 10
234.178536224022
 20
-243.134688583547
 30
0.0
 41
1.0
 10
234.1785858700021
 20
-243.135188924478
 30
0.0
 41
1.0
 10
234.178535788942
 20
-243.1356893413267
 30
0.0
 41
1.0
 10
234.1783380113884
 20
-243.1363297713647
 30
0.0
 41
1.0
 10
234.1778687211796
 20
-243.137038381188
 30
0.0
 41
1.0
 10
234.1770307040062
 20
-243.1376198324004
 30
0.0
 41
1.0
 10
234.1763892726728
 20
-243.1376980297924
 30
0.0
 41
1.0
 10
234.1760677212507
 20
-243.1377372303761
 30
0.0
 41
1.0
  0
SPLINE
  5
2E7
330
23
100
AcDbEntity
  8
SANINDUSA
  6
Continuous
370
    15
100
AcDbSpline
210
0.0
220
0.0
230
1.0
 70
    15
 71
     3
 72
    27
 73
    23
 74
     0
 42
0.0000000001
 43
0.0000000001
 40
0.0
 40
0.0
 40
0.0
 40
0.0
 40
0.0629967504053759
 40
0.1256893964430158
 40
0.1878825374871716
 40
0.2191475891608376
 40
0.2500191971329715
 40
0.2808250198659379
 40
0.3121343783941044
 40
0.3742620098802349
 40
0.4370072194337382
 40
0.5001566487055196
 40
0.5631403652361944
 40
0.6257493871275332
 40
0.6879134216040367
 40
0.7191977917364416
 40
0.7500710308151547
 40
0.7809060317479871
 40
0.812240016651908
 40
0.874421539656576
 40
0.9370461357090352
 40
1.0
 40
1.0
 40
1.0
 40
1.0
 10
234.1760677212507
 20
-243.1967371860302
 30
0.0
 41
1.0
 10
234.1757491362426
 20
-243.196697671779
 30
0.0
 41
1.0
 10
234.1751135041326
 20
-243.1966188340238
 30
0.0
 41
1.0
 10
234.174316288159
 20
-243.1960373629072
 30
0.0
 41
1.0
 10
234.1738799332781
 20
-243.195328160589
 30
0.0
 41
1.0
 10
234.1736982991091
 20
-243.1946875975978
 30
0.0
 41
1.0
 10
234.1736523153681
 20
-243.19418775687
 30
0.0
 41
1.0
 10
234.1736978366583
 20
-243.1936874121908
 30
0.0
 41
1.0
 10
234.1738796393554
 20
-243.1930480922625
 30
0.0
 41
1.0
 10
234.1743159984789
 20
-243.1923332864537
 30
0.0
 41
1.0
 10
234.1751151653069
 20
-243.1917754106315
 30
0.0
 41
1.0
 10
234.1760668043821
 20
-243.1915698356601
 30
0.0
 41
1.0
 10
234.1770343754866
 20
-243.1917749552151
 30
0.0
 41
1.0
 10
234.1778705802986
 20
-243.1923345847961
 30
0.0
 41
1.0
 10
234.1783392288414
 20
-243.1930487770513
 30
0.0
 41
1.0
 10
234.1785362104389
 20
-243.1936885627108
 30
0.0
 41
1.0
 10
234.1785858695498
 20
-243.1941889179256
 30
0.0
 41
1.0
 10
234.1785358042254
 20
-243.1946893220211
 30
0.0
 41
1.0
 10
234.1783379788743
 20
-243.195329749609
 30
0.0
 41
1.0
 10
234.177868764143
 20
-243.1960384017273
 30
0.0
 41
1.0
 10
234.1770306819261
 20
-243.1966197743288
 30
0.0
 41
1.0
 10
234.1763892687402
 20
-243.1966979804439
 30
0.0
 41
1.0
 10
234.1760677212507
 20
-243.1967371860302
 30
0.0
 41
1.0
  0
LINE
  5
2E8
330
23
100
AcDbEntity
  8
SANINDUSA
  6
Continuous
370
    15
100
AcDbLine
 10
234.2048165563334
 20
-243.1271878281391
 30
0.0
 11
234.1611229659746
 21
-243.1271878281391
 31
0.0
  0
LINE
  5
2E9
330
23
100
AcDbEntity
  8
SANINDUSA
  6
Continuous
370
    15
100
AcDbLine
 10
234.2061229659746
 20
-243.1271878281391
 30
0.0
 11
234.2048165563334
 21
-243.1271878281391
 31
0.0
  0
ARC
  5
2EA
330
23
100
AcDbEntity
  8
SANINDUSA
  6
Continuous
370
    15
100
AcDbCircle
 10
234.1777278070331
 20
-243.1941877897088
 30
0.0
 40
0.0021598203221171
100
AcDbArc
 50
111.4575578007055
 51
248.5404777749372
  0
ARC
  5
2EB
330
23
100
AcDbEntity
  8
SANINDUSA
  6
Continuous
370
    15
100
AcDbCircle
 10
234.1777278070331
 20
-243.13518777445
 30
0.0
 40
0.0021598203221176
100
AcDbArc
 50
111.4575578007055
 51
248.5404777749372
  0
SPLINE
  5
2EC
330
23
100
AcDbEntity
  8
SANINDUSA
  6
Continuous
370
    15
100
AcDbSpline
210
0.0
220
0.0
230
1.0
 70
    15
 71
     3
 72
    31
 73
    27
 74
     0
 42
0.0000000001
 43
0.0000000001
 40
0.0
 40
0.0
 40
0.0
 40
0.0
 40
0.054590995663883
 40
0.0878025831512598
 40
0.1248949959467548
 40
0.1621255927357675
 40
0.1954072542294025
 40
0.2499219795465143
 40
0.3044405921488122
 40
0.3377110367640364
 40
0.3749210513031181
 40
0.4120425447487996
 40
0.4452665369476772
 40
0.4998272302028789
 40
0.554598026570888
 40
0.587892738167966
 40
0.6250627377562794
 40
0.662249567950156
 40
0.6954959496846048
 40
0.7499704201016383
 40
0.8044783408574762
 40
0.8377534786599664
 40
0.8749825934853008
 40
0.912111537179849
 40
0.9453582706759489
 40
1.0
 40
1.0
 40
1.0
 40
1.0
 10
234.1762205224142
 20
-243.1963378349102
 30
0.0
 41
1.0
 10
234.1764543079008
 20
-243.196313805335
 30
0.0
 41
1.0
 10
234.1768303217357
 20
-243.1962751568593
 30
0.0
 41
1.0
 10
234.1773192389276
 20
-243.1960224473435
 30
0.0
 41
1.0
 10
234.1776897770105
 20
-243.1957229877094
 30
0.0
 41
1.0
 10
234.1779852544996
 20
-243.1953405158442
 30
0.0
 41
1.0
 10
234.1782256551592
 20
-243.1948319464926
 30
0.0
 41
1.0
 10
234.1783384310313
 20
-243.1941888990562
 30
0.0
 41
1.0
 10
234.1782263047584
 20
-243.1935458606988
 30
0.0
 41
1.0
 10
234.1779864446344
 20
-243.1930370076646
 30
0.0
 41
1.0
 10
234.1776913925474
 20
-243.1926547704819
 30
0.0
 41
1.0
 10
234.1773209552051
 20
-243.1923528346441
 30
0.0
 41
1.0
 10
234.1768327042265
 20
-243.1921077613115
 30
0.0
 41
1.0
 10
234.176219329334
 20
-243.1919946281988
 30
0.0
 41
1.0
 10
234.175618858087
 20
-243.1921069013608
 30
0.0
 41
1.0
 10
234.1751486345231
 20
-243.192352231192
 30
0.0
 41
1.0
 10
234.1747996444602
 20
-243.1926543548022
 30
0.0
 41
1.0
 10
234.1745264181906
 20
-243.1930365389448
 30
0.0
 41
1.0
 10
234.1743060431028
 20
-243.1935449324003
 30
0.0
 41
1.0
 10
234.1742071793359
 20
-243.1941875433709
 30
0.0
 41
1.0
 10
234.1743058855119
 20
-243.1948304216638
 30
0.0
 41
1.0
 10
234.1745264609377
 20
-243.1953390878083
 30
0.0
 41
1.0
 10
234.1747997506438
 20
-243.1957219385102
 30
0.0
 41
1.0
 10
234.17514879732
 20
-243.1960217789386
 30
0.0
 41
1.0
 10
234.1756176191066
 20
-243.1962750559161
 30
0.0
 41
1.0
 10
234.1759893876711
 20
-243.1963137673582
 30
0.0
 41
1.0
 10
234.1762205224142
 20
-243.1963378349102
 30
0.0
 41
1.0
  0
SPLINE
  5
2ED
330
23
100
AcDbEntity
  8
SANINDUSA
  6
Continuous
370
    15
100
AcDbSpline
210
0.0
220
0.0
230
1.0
 70
    15
 71
     3
 72
    31
 73
    27
 74
     0
 42
0.0000000001
 43
0.0000000001
 40
0.0
 40
0.0
 40
0.0
 40
0.0
 40
0.0545910421230424
 40
0.0878026578748321
 40
0.1248951022374803
 40
0.1621257307112463
 40
0.19540742052893
 40
0.2499221922402921
 40
0.3044408512401485
 40
0.3377073424058206
 40
0.3749208522708685
 40
0.412042377308452
 40
0.4452644811328702
 40
0.4998259814903809
 40
0.5545968244705671
 40
0.5878915644028
 40
0.6250615956242961
 40
0.6622519206547621
 40
0.6954943495662455
 40
0.7499688663432709
 40
0.804476833487568
 40
0.8377559809222429
 40
0.8749816647019725
 40
0.9121133771333489
 40
0.9453582241736132
 40
1.0
 40
1.0
 40
1.0
 40
1.0
 10
234.1762205224142
 20
-243.1373378196514
 30
0.0
 41
1.0
 10
234.1764543079034
 20
-243.1373137900749
 30
0.0
 41
1.0
 10
234.1768303217423
 20
-243.137275141597
 30
0.0
 41
1.0
 10
234.1773192389121
 20
-243.1370224320929
 30
0.0
 41
1.0
 10
234.1776897770775
 20
-243.136722972415
 30
0.0
 41
1.0
 10
234.1779852542605
 20
-243.1363405007129
 30
0.0
 41
1.0
 10
234.1782256561569
 20
-243.1358319307021
 30
0.0
 41
1.0
 10
234.1783384245521
 20
-243.1351888872507
 30
0.0
 41
1.0
 10
234.178226327766
 20
-243.1345458528423
 30
0.0
 41
1.0
 10
234.1779864103093
 20
-243.1340370338821
 30
0.0
 41
1.0
 10
234.1776914135768
 20
-243.133654762446
 30
0.0
 41
1.0
 10
234.1773209685121
 20
-243.1333528045166
 30
0.0
 41
1.0
 10
234.1768326786504
 20
-243.133107843178
 30
0.0
 41
1.0
 10
234.1762193407135
 20
-243.1329945808117
 30
0.0
 41
1.0
 10
234.1756188557682
 20
-243.1331068900708
 30
0.0
 41
1.0
 10
234.1751486373236
 20
-243.1333522168287
 30
0.0
 41
1.0
 10
234.174799622354
 20
-243.1336543407373
 30
0.0
 41
1.0
 10
234.1745264502375
 20
-243.1340365667229
 30
0.0
 41
1.0
 10
234.1743060227242
 20
-243.1345449232515
 30
0.0
 41
1.0
 10
234.1742071789209
 20
-243.1351875360933
 30
0.0
 41
1.0
 10
234.1743059072493
 20
-243.1358304105672
 30
0.0
 41
1.0
 10
234.174526425923
 20
-243.1363391202085
 30
0.0
 41
1.0
 10
234.1747997923627
 20
-243.136721914161
 30
0.0
 41
1.0
 10
234.1751487619569
 20
-243.1370218444673
 30
0.0
 41
1.0
 10
234.1756176437947
 20
-243.1372750086845
 30
0.0
 41
1.0
 10
234.1759893940308
 20
-243.1373137395186
 30
0.0
 41
1.0
 10
234.1762205224142
 20
-243.1373378196514
 30
0.0
 41
1.0
  0
LINE
  5
2EE
330
23
100
AcDbEntity
  8
SANINDUSA
  6
Continuous
370
    15
100
AcDbLine
 10
234.1221229659746
 20
-243.9698640561219
 30
0.0
 11
234.2451229659746
 21
-243.9698640561219
 31
0.0
  0
LINE
  5
2F0
330
23
100
AcDbEntity
  8
SANINDUSA
  6
Continuous
370
    15
100
AcDbLine
 10
234.2451229659746
 20
-243.9558640561219
 30
0.0
 11
234.1296052541485
 21
-243.9558640561219
 31
0.0
  0
LINE
  5
2F2
330
23
100
AcDbEntity
  8
SANINDUSA
  6
Continuous
370
    15
100
AcDbLine
 10
234.1296052541485
 20
-243.9558640561219
 30
0.0
 11
234.1221229659746
 21
-243.9558640561219
 31
0.0
  0
LINE
  5
307
330
23
100
AcDbEntity
  8
SANINDUSA
  6
Continuous
370
    15
100
AcDbLine
 10
234.1706229659746
 20
-242.9701878281391
 30
0.0
 11
234.1966229583837
 21
-242.9701878281391
 31
0.0
  0
ARC
  5
308
330
23
100
AcDbEntity
  8
SANINDUSA
  6
Continuous
370
    15
100
AcDbCircle
 10
229.5625245934928
 20
-238.2042482116183
 30
0.0
 40
6.680077256672191
100
AcDbArc
 50
314.8885670201764
 51
315.1115722958098
  0
ENDSEC
  0
SECTION
  2
OBJECTS
  0
DICTIONARY
  5
C
330
0
100
AcDbDictionary
281
     1
  3
ACAD_COLOR
350
1C
  3
ACAD_GROUP
350
D
  3
ACAD_LAYOUT
350
1A
  3
ACAD_MATERIAL
350
1B
  3
ACAD_MLINESTYLE
350
17
  3
ACAD_PLOTSETTINGS
350
19
  3
ACAD_PLOTSTYLENAME
350
E
  3
ACAD_TABLESTYLE
350
1D
  3
ACDBHEADERROUNDTRIPXREC
350
335
  3
AcDbVariableDictionary
350
32F
  0
DICTIONARY
  5
1C
102
{ACAD_REACTORS
330
C
102
}
330
C
100
AcDbDictionary
281
     1
  0
DICTIONARY
  5
D
102
{ACAD_REACTORS
330
C
102
}
330
C
100
AcDbDictionary
281
     1
  0
DICTIONARY
  5
1A
102
{ACAD_REACTORS
330
C
102
}
330
C
100
AcDbDictionary
281
     1
  3
Layout1
350
22
  3
Layout2
350
2A
  3
Model
350
26
  0
DICTIONARY
  5
1B
102
{ACAD_REACTORS
330
C
102
}
330
C
100
AcDbDictionary
281
     1
  0
DICTIONARY
  5
17
102
{ACAD_REACTORS
330
C
102
}
330
C
100
AcDbDictionary
281
     1
  3
Standard
350
18
  0
DICTIONARY
  5
19
102
{ACAD_REACTORS
330
C
102
}
330
C
100
AcDbDictionary
281
     1
  0
ACDBDICTIONARYWDFLT
  5
E
102
{ACAD_REACTORS
330
C
102
}
330
C
100
AcDbDictionary
281
     1
  3
Normal
350
F
100
AcDbDictionaryWithDefault
340
F
  0
DICTIONARY
  5
1D
102
{ACAD_REACTORS
330
C
102
}
330
C
100
AcDbDictionary
281
     1
  3
Standard
350
1E
  0
DICTIONARY
  5
335
102
{ACAD_REACTORS
330
C
102
}
330
C
100
AcDbDictionary
281
     1
  0
DICTIONARY
  5
32F
102
{ACAD_REACTORS
330
C
102
}
330
C
100
AcDbDictionary
281
     1
  3
CTABLESTYLE
350
330
  3
DIMASSOC
350
332
  3
HIDETEXT
350
331
  3
PROJECTNAME
350
333
  0
LAYOUT
  5
22
102
{ACAD_XDICTIONARY
360
336
102
}
102
{ACAD_REACTORS
330
1A
102
}
330
1A
100
AcDbPlotSettings
  1

  2
C:\Documents and Settings\Julio\Application Data\Autodesk\AutoCAD 2006\R16.2\enu\plotters\Default Windows System Printer.pc3
  4

  6

 40
0.0
 41
0.0
 42
0.0
 43
0.0
 44
0.0
 45
0.0
 46
0.0
 47
0.0
 48
0.0
 49
0.0
140
0.0
141
0.0
142
1.0
143
1.0
 70
   688
 72
     0
 73
     0
 74
     5
  7

 75
    16
147
1.0
148
0.0
149
0.0
100
AcDbLayout
  1
Layout1
 70
     1
 71
     1
 10
0.0
 20
0.0
 11
420.0
 21
297.0
 12
0.0
 22
0.0
 32
0.0
 14
1.000000000000000E+20
 24
1.000000000000000E+20
 34
1.000000000000000E+20
 15
-1.000000000000000E+20
 25
-1.000000000000000E+20
 35
-1.000000000000000E+20
146
0.0
 13
0.0
 23
0.0
 33
0.0
 16
1.0
 26
0.0
 36
0.0
 17
0.0
 27
1.0
 37
0.0
 76
     0
330
1F
  0
LAYOUT
  5
2A
102
{ACAD_XDICTIONARY
360
33A
102
}
102
{ACAD_REACTORS
330
1A
102
}
330
1A
100
AcDbPlotSettings
  1

  2
C:\Documents and Settings\Julio\Application Data\Autodesk\AutoCAD 2006\R16.2\enu\plotters\Default Windows System Printer.pc3
  4

  6

 40
0.0
 41
0.0
 42
0.0
 43
0.0
 44
0.0
 45
0.0
 46
0.0
 47
0.0
 48
0.0
 49
0.0
140
0.0
141
0.0
142
1.0
143
1.0
 70
   688
 72
     0
 73
     0
 74
     5
  7

 75
    16
147
1.0
148
0.0
149
0.0
100
AcDbLayout
  1
Layout2
 70
     1
 71
     2
 10
0.0
 20
0.0
 11
12.0
 21
9.0
 12
0.0
 22
0.0
 32
0.0
 14
0.0
 24
0.0
 34
0.0
 15
0.0
 25
0.0
 35
0.0
146
0.0
 13
0.0
 23
0.0
 33
0.0
 16
1.0
 26
0.0
 36
0.0
 17
0.0
 27
1.0
 37
0.0
 76
     0
330
27
  0
LAYOUT
  5
26
102
{ACAD_XDICTIONARY
360
338
102
}
102
{ACAD_REACTORS
330
1A
102
}
330
1A
100
AcDbPlotSettings
  1

  2
C:\Documents and Settings\Julio\Application Data\Autodesk\AutoCAD 2006\R16.2\enu\plotters\Default Windows System Printer.pc3
  4

  6

 40
0.0
 41
0.0
 42
0.0
 43
0.0
 44
0.0
 45
0.0
 46
0.0
 47
0.0
 48
0.0
 49
0.0
140
0.0
141
0.0
142
1.0
143
1.0
 70
  1712
 72
     0
 73
     0
 74
     0
  7

 75
     0
147
1.0
148
0.0
149
0.0
100
AcDbLayout
  1
Model
 70
     1
 71
     0
 10
0.0
 20
0.0
 11
12.0
 21
9.0
 12
0.0
 22
0.0
 32
0.0
 14
0.0
 24
0.0
 34
0.0
 15
0.0
 25
0.0
 35
0.0
146
0.0
 13
0.0
 23
0.0
 33
0.0
 16
1.0
 26
0.0
 36
0.0
 17
0.0
 27
1.0
 37
0.0
 76
     0
330
23
  0
MLINESTYLE
  5
18
102
{ACAD_REACTORS
330
17
102
}
330
17
100
AcDbMlineStyle
  2
STANDARD
 70
     0
  3

 62
   256
 51
90.0
 52
90.0
 71
     2
 49
0.5
 62
   256
  6
BYLAYER
 49
-0.5
 62
   256
  6
BYLAYER
  0
ACDBPLACEHOLDER
  5
F
102
{ACAD_REACTORS
330
E
102
}
330
E
  0
TABLESTYLE
  5
1E
102
{ACAD_REACTORS
330
1D
102
}
330
1D
100
AcDbTableStyle
  3
Standard
 70
     0
 71
     0
 40
1.5
 41
1.5
280
     0
281
     0
  7
Standard
140
4.5
170
     2
 62
     0
 63
     7
283
     0
274
    -2
284
     1
 64
     0
275
    -2
285
     1
 65
     0
276
    -2
286
     1
 66
     0
277
    -2
287
     1
 67
     0
278
    -2
288
     1
 68
     0
279
    -2
289
     1
 69
     0
  7
Standard
140
6.0
170
     5
 62
     0
 63
     7
283
     0
274
    -2
284
     1
 64
     0
275
    -2
285
     1
 65
     0
276
    -2
286
     1
 66
     0
277
    -2
287
     1
 67
     0
278
    -2
288
     1
 68
     0
279
    -2
289
     1
 69
     0
  7
Standard
140
4.5
170
     5
 62
     0
 63
     7
283
     0
274
    -2
284
     1
 64
     0
275
    -2
285
     1
 65
     0
276
    -2
286
     1
 66
     0
277
    -2
287
     1
 67
     0
278
    -2
288
     1
 68
     0
279
    -2
289
     1
 69
     0
  0
DICTIONARYVAR
  5
330
102
{ACAD_REACTORS
330
32F
102
}
330
32F
100
DictionaryVariables
280
     0
  1
STANDARD
  0
DICTIONARYVAR
  5
332
102
{ACAD_REACTORS
330
32F
102
}
330
32F
100
DictionaryVariables
280
     0
  1
2
  0
DICTIONARYVAR
  5
331
102
{ACAD_REACTORS
330
32F
102
}
330
32F
100
DictionaryVariables
280
     0
  1
1
  0
DICTIONARYVAR
  5
333
102
{ACAD_REACTORS
330
32F
102
}
330
32F
100
DictionaryVariables
280
     0
  1

  0
DICTIONARY
  5
336
330
22
100
AcDbDictionary
280
     1
281
     1
  3
ACAD_XREC_ROUNDTRIP
360
337
  0
DICTIONARY
  5
33A
330
2A
100
AcDbDictionary
280
     1
281
     1
  3
ACAD_XREC_ROUNDTRIP
360
33B
  0
DICTIONARY
  5
338
330
26
100
AcDbDictionary
280
     1
281
     1
  3
ACAD_XREC_ROUNDTRIP
360
339
  0
XRECORD
  5
337
102
{ACAD_REACTORS
330
336
102
}
330
336
100
AcDbXrecord
280
     1
102
SHADEPLOT
 70
     0
102
SHADEPLOTRESLEVEL
 70
     2
102
SHADEPLOTCUSTOMDPI
 70
   300
  0
XRECORD
  5
33B
102
{ACAD_REACTORS
330
33A
102
}
330
33A
100
AcDbXrecord
280
     1
102
SHADEPLOT
 70
     0
102
SHADEPLOTRESLEVEL
 70
     2
102
SHADEPLOTCUSTOMDPI
 70
   300
  0
XRECORD
  5
339
102
{ACAD_REACTORS
330
338
102
}
330
338
100
AcDbXrecord
280
     1
102
SHADEPLOT
 70
     0
102
SHADEPLOTRESLEVEL
 70
     2
102
SHADEPLOTCUSTOMDPI
 70
   300
  0
ENDSEC
  0
EOF
