  0
SECTION
  2
HEADER
  9
$ACADVER
  1
AC1015
  9
$ACADMAINTVER
 70
    20
  9
$DWGCODEPAGE
  3
ANSI_1252
  9
$INSBASE
 10
0.0
 20
0.0
 30
0.0
  9
$EXTMIN
 10
4125.746681036311
 20
1992.584008337142
 30
0.0
  9
$EXTMAX
 10
4127.045991779833
 20
1993.048758337142
 30
0.0
  9
$LIMMIN
 10
0.0
 20
0.0
  9
$LIMMAX
 10
420.0
 20
297.0
  9
$ORTHOMODE
 70
     1
  9
$REGENMODE
 70
     1
  9
$FILLMODE
 70
     1
  9
$QTEXTMODE
 70
     0
  9
$MIRRTEXT
 70
     1
  9
$LTSCALE
 40
1.0
  9
$ATTMODE
 70
     1
  9
$TEXTSIZE
 40
2.5
  9
$TRACEWID
 40
1.0
  9
$TEXTSTYLE
  7
SANINDUSA
  9
$CLAYER
  8
0
  9
$CELTYPE
  6
ByLayer
  9
$CECOLOR
 62
   256
  9
$CELTSCALE
 40
1.0
  9
$DISPSILH
 70
     0
  9
$DIMSCALE
 40
1.0
  9
$DIMASZ
 40
2.0
  9
$DIMEXO
 40
1.0
  9
$DIMDLI
 40
1.0
  9
$DIMRND
 40
0.0
  9
$DIMDLE
 40
0.0
  9
$DIMEXE
 40
1.0
  9
$DIMTP
 40
0.0
  9
$DIMTM
 40
0.0
  9
$DIMTXT
 40
2.0
  9
$DIMCEN
 40
0.0
  9
$DIMTSZ
 40
0.0
  9
$DIMTOL
 70
     0
  9
$DIMLIM
 70
     0
  9
$DIMTIH
 70
     0
  9
$DIMTOH
 70
     0
  9
$DIMSE1
 70
     0
  9
$DIMSE2
 70
     0
  9
$DIMTAD
 70
     1
  9
$DIMZIN
 70
     8
  9
$DIMBLK
  1

  9
$DIMASO
 70
     1
  9
$DIMSHO
 70
     1
  9
$DIMPOST
  1

  9
$DIMAPOST
  1

  9
$DIMALT
 70
     0
  9
$DIMALTD
 70
     3
  9
$DIMALTF
 40
0.03937007874016
  9
$DIMLFAC
 40
1.0
  9
$DIMTOFL
 70
     1
  9
$DIMTVP
 40
0.0
  9
$DIMTIX
 70
     0
  9
$DIMSOXD
 70
     0
  9
$DIMSAH
 70
     0
  9
$DIMBLK1
  1

  9
$DIMBLK2
  1

  9
$DIMSTYLE
  2
SANINDUSA
  9
$DIMCLRD
 70
   256
  9
$DIMCLRE
 70
   256
  9
$DIMCLRT
 70
   256
  9
$DIMTFAC
 40
1.0
  9
$DIMGAP
 40
1.0
  9
$DIMJUST
 70
     0
  9
$DIMSD1
 70
     0
  9
$DIMSD2
 70
     0
  9
$DIMTOLJ
 70
     0
  9
$DIMTZIN
 70
     8
  9
$DIMALTZ
 70
     0
  9
$DIMALTTZ
 70
     0
  9
$DIMUPT
 70
     0
  9
$DIMDEC
 70
     1
  9
$DIMTDEC
 70
     1
  9
$DIMALTU
 70
     2
  9
$DIMALTTD
 70
     3
  9
$DIMTXSTY
  7
SANINDUSA
  9
$DIMAUNIT
 70
     0
  9
$DIMADEC
 70
     1
  9
$DIMALTRND
 40
0.0
  9
$DIMAZIN
 70
     0
  9
$DIMDSEP
 70
    44
  9
$DIMATFIT
 70
     3
  9
$DIMFRAC
 70
     0
  9
$DIMLDRBLK
  1

  9
$DIMLUNIT
 70
     2
  9
$DIMLWD
 70
    -1
  9
$DIMLWE
 70
    -1
  9
$DIMTMOVE
 70
     0
  9
$LUNITS
 70
     2
  9
$LUPREC
 70
     4
  9
$SKETCHINC
 40
1.0
  9
$FILLETRAD
 40
3.0
  9
$AUNITS
 70
     0
  9
$AUPREC
 70
     0
  9
$MENU
  1
.
  9
$ELEVATION
 40
0.0
  9
$PELEVATION
 40
0.0
  9
$THICKNESS
 40
0.0
  9
$LIMCHECK
 70
     0
  9
$CHAMFERA
 40
10.0
  9
$CHAMFERB
 40
10.0
  9
$CHAMFERC
 40
20.0
  9
$CHAMFERD
 40
0.0
  9
$SKPOLY
 70
     0
  9
$TDCREATE
 40
2458879.529826493
  9
$TDUCREATE
 40
2458879.529826493
  9
$TDUPDATE
 40
2458879.597275787
  9
$TDUUPDATE
 40
2458879.597275787
  9
$TDINDWG
 40
0.0674514583
  9
$TDUSRTIMER
 40
0.0674514583
  9
$USRTIMER
 70
     1
  9
$ANGBASE
 50
0.0
  9
$ANGDIR
 70
     0
  9
$PDMODE
 70
     0
  9
$PDSIZE
 40
0.0
  9
$PLINEWID
 40
0.0
  9
$SPLFRAME
 70
     0
  9
$SPLINETYPE
 70
     6
  9
$SPLINESEGS
 70
     8
  9
$HANDSEED
  5
1ADF
  9
$SURFTAB1
 70
     6
  9
$SURFTAB2
 70
     6
  9
$SURFTYPE
 70
     6
  9
$SURFU
 70
     6
  9
$SURFV
 70
     6
  9
$UCSBASE
  2

  9
$UCSNAME
  2

  9
$UCSORG
 10
0.0
 20
0.0
 30
0.0
  9
$UCSXDIR
 10
1.0
 20
0.0
 30
0.0
  9
$UCSYDIR
 10
0.0
 20
1.0
 30
0.0
  9
$UCSORTHOREF
  2

  9
$UCSORTHOVIEW
 70
     0
  9
$UCSORGTOP
 10
0.0
 20
0.0
 30
0.0
  9
$UCSORGBOTTOM
 10
0.0
 20
0.0
 30
0.0
  9
$UCSORGLEFT
 10
0.0
 20
0.0
 30
0.0
  9
$UCSORGRIGHT
 10
0.0
 20
0.0
 30
0.0
  9
$UCSORGFRONT
 10
0.0
 20
0.0
 30
0.0
  9
$UCSORGBACK
 10
0.0
 20
0.0
 30
0.0
  9
$PUCSBASE
  2

  9
$PUCSNAME
  2

  9
$PUCSORG
 10
0.0
 20
0.0
 30
0.0
  9
$PUCSXDIR
 10
1.0
 20
0.0
 30
0.0
  9
$PUCSYDIR
 10
0.0
 20
1.0
 30
0.0
  9
$PUCSORTHOREF
  2

  9
$PUCSORTHOVIEW
 70
     0
  9
$PUCSORGTOP
 10
0.0
 20
0.0
 30
0.0
  9
$PUCSORGBOTTOM
 10
0.0
 20
0.0
 30
0.0
  9
$PUCSORGLEFT
 10
0.0
 20
0.0
 30
0.0
  9
$PUCSORGRIGHT
 10
0.0
 20
0.0
 30
0.0
  9
$PUCSORGFRONT
 10
0.0
 20
0.0
 30
0.0
  9
$PUCSORGBACK
 10
0.0
 20
0.0
 30
0.0
  9
$USERI1
 70
     0
  9
$USERI2
 70
     0
  9
$USERI3
 70
     0
  9
$USERI4
 70
     0
  9
$USERI5
 70
     0
  9
$USERR1
 40
0.0
  9
$USERR2
 40
0.0
  9
$USERR3
 40
0.0
  9
$USERR4
 40
0.0
  9
$USERR5
 40
0.0
  9
$WORLDVIEW
 70
     1
  9
$SHADEDGE
 70
     3
  9
$SHADEDIF
 70
    70
  9
$TILEMODE
 70
     1
  9
$MAXACTVP
 70
    64
  9
$PINSBASE
 10
0.0
 20
0.0
 30
0.0
  9
$PLIMCHECK
 70
     0
  9
$PEXTMIN
 10
1.000000000000000E+20
 20
1.000000000000000E+20
 30
1.000000000000000E+20
  9
$PEXTMAX
 10
-1.000000000000000E+20
 20
-1.000000000000000E+20
 30
-1.000000000000000E+20
  9
$PLIMMIN
 10
0.0
 20
0.0
  9
$PLIMMAX
 10
420.0
 20
297.0
  9
$UNITMODE
 70
     0
  9
$VISRETAIN
 70
     1
  9
$PLINEGEN
 70
     0
  9
$PSLTSCALE
 70
     1
  9
$TREEDEPTH
 70
  3020
  9
$CMLSTYLE
  2
Standard
  9
$CMLJUST
 70
     0
  9
$CMLSCALE
 40
20.0
  9
$PROXYGRAPHICS
 70
     1
  9
$MEASUREMENT
 70
     1
  9
$CELWEIGHT
370
    -1
  9
$ENDCAPS
280
     0
  9
$JOINSTYLE
280
     0
  9
$LWDISPLAY
290
     0
  9
$INSUNITS
 70
     4
  9
$HYPERLINKBASE
  1

  9
$STYLESHEET
  1
sanindusa.ctb
  9
$XEDIT
290
     1
  9
$CEPSNTYPE
380
     0
  9
$PSTYLEMODE
290
     1
  9
$FINGERPRINTGUID
  2
{EA9B1718-FC02-4BF0-8F1E-B350CB1AB0DC}
  9
$VERSIONGUID
  2
{B1E3111A-605F-4DC2-8B0C-AA959BC88E07}
  9
$EXTNAMES
290
     1
  9
$PSVPSCALE
 40
0.0
  9
$OLESTARTUP
290
     0
  0
ENDSEC
  0
SECTION
  2
CLASSES
  0
CLASS
  1
ACDBDICTIONARYWDFLT
  2
AcDbDictionaryWithDefault
  3
ObjectDBX Classes
 90
        0
280
     0
281
     0
  0
CLASS
  1
ACDBPLACEHOLDER
  2
AcDbPlaceHolder
  3
ObjectDBX Classes
 90
        0
280
     0
281
     0
  0
CLASS
  1
LAYOUT
  2
AcDbLayout
  3
ObjectDBX Classes
 90
        0
280
     0
281
     0
  0
CLASS
  1
DICTIONARYVAR
  2
AcDbDictionaryVar
  3
ObjectDBX Classes
 90
        0
280
     0
281
     0
  0
CLASS
  1
DIMASSOC
  2
AcDbDimAssoc
  3
"AcDbDimAssoc|Product Desc:     AcDim ARX App For Dimension|Company:          Autodesk, Inc.|WEB Address:      www.autodesk.com"
 90
        0
280
     0
281
     0
  0
CLASS
  1
TABLESTYLE
  2
AcDbTableStyle
  3
ObjectDBX Classes
 90
     4095
280
     0
281
     0
  0
CLASS
  1
MATERIAL
  2
AcDbMaterial
  3
ObjectDBX Classes
 90
     1153
280
     0
281
     0
  0
CLASS
  1
VISUALSTYLE
  2
AcDbVisualStyle
  3
ObjectDBX Classes
 90
     4095
280
     0
281
     0
  0
CLASS
  1
SCALE
  2
AcDbScale
  3
ObjectDBX Classes
 90
     1153
280
     0
281
     0
  0
CLASS
  1
MLEADERSTYLE
  2
AcDbMLeaderStyle
  3
ACDB_MLEADERSTYLE_CLASS
 90
     4095
280
     0
281
     0
  0
CLASS
  1
ACDBSECTIONVIEWSTYLE
  2
AcDbSectionViewStyle
  3
ObjectDBX Classes
 90
     1025
280
     0
281
     0
  0
CLASS
  1
ACDBDETAILVIEWSTYLE
  2
AcDbDetailViewStyle
  3
ObjectDBX Classes
 90
     1025
280
     0
281
     0
  0
CLASS
  1
CELLSTYLEMAP
  2
AcDbCellStyleMap
  3
ObjectDBX Classes
 90
     1152
280
     0
281
     0
  0
CLASS
  1
SOLID_BACKGROUND
  2
AcDbSolidBackground
  3
SCENEOE
 90
     4095
280
     0
281
     0
  0
CLASS
  1
NPOCOLLECTION
  2
AcDbImpNonPersistentObjectsCollection
  3
ObjectDBX Classes
 90
     1153
280
     0
281
     0
  0
ENDSEC
  0
SECTION
  2
TABLES
  0
TABLE
  2
VPORT
  5
8
330
0
100
AcDbSymbolTable
 70
     1
  0
VPORT
  5
1068
330
8
100
AcDbSymbolTableRecord
100
AcDbViewportTableRecord
  2
*Active
 70
     0
 10
0.0
 20
0.0
 11
1.0
 21
1.0
 12
4126.396336408071
 22
1992.816383337142
 13
0.0
 23
0.0
 14
10.0
 24
10.0
 15
10.0
 25
10.0
 16
0.0
 26
0.0
 36
1.0
 17
0.0
 27
0.0
 37
0.0
 40
0.7686619628116845
 41
1.696774193548387
 42
50.0
 43
0.0
 44
0.0
 50
0.0
 51
0.0
 71
     0
 72
   100
 73
     1
 74
     2
 75
     0
 76
     0
 77
     0
 78
     0
281
     0
 65
     1
110
0.0
120
0.0
130
0.0
111
1.0
121
0.0
131
0.0
112
0.0
122
1.0
132
0.0
 79
     0
146
0.0
1001
ACAD_NAV_VCDISPLAY
1070
     3
  0
ENDTAB
  0
TABLE
  2
LTYPE
  5
5
330
0
100
AcDbSymbolTable
 70
     6
  0
LTYPE
  5
14
330
5
100
AcDbSymbolTableRecord
100
AcDbLinetypeTableRecord
  2
ByBlock
 70
     0
  3

 72
    65
 73
     0
 40
0.0
  0
LTYPE
  5
15
330
5
100
AcDbSymbolTableRecord
100
AcDbLinetypeTableRecord
  2
ByLayer
 70
     0
  3

 72
    65
 73
     0
 40
0.0
  0
LTYPE
  5
16
330
5
100
AcDbSymbolTableRecord
100
AcDbLinetypeTableRecord
  2
Continuous
 70
     0
  3
Solid line
 72
    65
 73
     0
 40
0.0
  0
LTYPE
  5
2D
330
5
100
AcDbSymbolTableRecord
100
AcDbLinetypeTableRecord
  2
DASHDOT
 70
     0
  3
Dash dot __ . __ . __ . __ . __ . __ . __ . __
 72
    65
 73
     4
 40
25.4
 49
12.7
 74
     0
 49
-6.349999999999999
 74
     0
 49
0.0
 74
     0
 49
-6.349999999999999
 74
     0
  0
LTYPE
  5
2E
330
5
100
AcDbSymbolTableRecord
100
AcDbLinetypeTableRecord
  2
HIDDEN
 70
     0
  3
Hidden __ __ __ __ __ __ __ __ __ __ __ __ __ _
 72
    65
 73
     2
 40
9.524999999999998
 49
6.349999999999999
 74
     0
 49
-3.174999999999999
 74
     0
  0
LTYPE
  5
C75
330
5
100
AcDbSymbolTableRecord
100
AcDbLinetypeTableRecord
  2
AM_ISO02W050
 70
     0
  3
__ __ __ __ __ __ __ __ __ __ __ __ __ __ __
 72
    65
 73
     2
 40
7.5
 49
6.0
 74
     0
 49
-1.5
 74
     0
  0
LTYPE
  5
C76
330
5
100
AcDbSymbolTableRecord
100
AcDbLinetypeTableRecord
  2
AM_ISO08W050
 70
     0
  3
____ . ____ . ____ . ____ . ____ . ____ . ____
 72
    65
 73
     4
 40
18.0
 49
12.0
 74
     0
 49
-1.5
 74
     0
 49
3.0
 74
     0
 49
-1.5
 74
     0
  0
ENDTAB
  0
TABLE
  2
LAYER
  5
2
102
{ACAD_XDICTIONARY
360
1051
102
}
330
0
100
AcDbSymbolTable
 70
    17
  0
LAYER
  5
10
102
{ACAD_XDICTIONARY
360
1A24
102
}
330
2
100
AcDbSymbolTableRecord
100
AcDbLayerTableRecord
  2
0
 70
     0
 62
     7
  6
Continuous
370
    -3
390
F
  0
LAYER
  5
2F
102
{ACAD_XDICTIONARY
360
1A26
102
}
330
2
100
AcDbSymbolTableRecord
100
AcDbLayerTableRecord
  2
1
 70
     0
 62
     1
  6
Continuous
370
    -3
390
F
  0
LAYER
  5
30
102
{ACAD_XDICTIONARY
360
1A28
102
}
330
2
100
AcDbSymbolTableRecord
100
AcDbLayerTableRecord
  2
2
 70
     0
 62
     2
  6
Continuous
370
    -3
390
F
  0
LAYER
  5
31
102
{ACAD_XDICTIONARY
360
1A2A
102
}
330
2
100
AcDbSymbolTableRecord
100
AcDbLayerTableRecord
  2
3
 70
     0
 62
     3
  6
Continuous
370
    -3
390
F
  0
LAYER
  5
32
102
{ACAD_XDICTIONARY
360
1A2C
102
}
330
2
100
AcDbSymbolTableRecord
100
AcDbLayerTableRecord
  2
4
 70
     0
 62
     4
  6
Continuous
370
    -3
390
F
  0
LAYER
  5
33
102
{ACAD_XDICTIONARY
360
1A2E
102
}
330
2
100
AcDbSymbolTableRecord
100
AcDbLayerTableRecord
  2
5
 70
     0
 62
     5
  6
Continuous
370
    -3
390
F
  0
LAYER
  5
34
102
{ACAD_XDICTIONARY
360
1A30
102
}
330
2
100
AcDbSymbolTableRecord
100
AcDbLayerTableRecord
  2
6
 70
     0
 62
     6
  6
Continuous
370
    -3
390
F
  0
LAYER
  5
35
102
{ACAD_XDICTIONARY
360
1A32
102
}
330
2
100
AcDbSymbolTableRecord
100
AcDbLayerTableRecord
  2
7
 70
     0
 62
     7
  6
Continuous
370
    -3
390
F
  0
LAYER
  5
36
102
{ACAD_XDICTIONARY
360
1A34
102
}
330
2
100
AcDbSymbolTableRecord
100
AcDbLayerTableRecord
  2
cen
 70
     0
 62
     7
  6
DASHDOT
370
    -3
390
F
  0
LAYER
  5
37
102
{ACAD_XDICTIONARY
360
1A36
102
}
330
2
100
AcDbSymbolTableRecord
100
AcDbLayerTableRecord
  2
hid
 70
     0
 62
     7
  6
HIDDEN
370
    -3
390
F
  0
LAYER
  5
5D6
102
{ACAD_XDICTIONARY
360
1A38
102
}
330
2
100
AcDbSymbolTableRecord
100
AcDbLayerTableRecord
  2
hatch
 70
     0
 62
     9
  6
Continuous
370
    -3
390
F
  0
LAYER
  5
8AF
102
{ACAD_XDICTIONARY
360
1A3A
102
}
330
2
100
AcDbSymbolTableRecord
100
AcDbLayerTableRecord
  2
9
 70
     0
 62
     9
  6
Continuous
370
    -3
390
F
  0
LAYER
  5
8F8
102
{ACAD_XDICTIONARY
360
1A3C
102
}
330
2
100
AcDbSymbolTableRecord
100
AcDbLayerTableRecord
  2
leg fin
 70
     0
 62
     9
  6
Continuous
370
    -3
390
F
  0
LAYER
  5
91D
102
{ACAD_XDICTIONARY
360
1A3E
102
}
330
2
100
AcDbSymbolTableRecord
100
AcDbLayerTableRecord
  2
cotas
 70
     0
 62
     1
  6
Continuous
370
    -3
390
F
  0
LAYER
  5
92F
330
2
100
AcDbSymbolTableRecord
100
AcDbLayerTableRecord
  2
Defpoints
 70
     0
 62
     7
  6
Continuous
290
     0
370
    -3
390
F
  0
LAYER
  5
C7B
102
{ACAD_XDICTIONARY
360
1A40
102
}
330
2
100
AcDbSymbolTableRecord
100
AcDbLayerTableRecord
  2
SANINDUSA
 70
     0
 62
     3
  6
Continuous
370
    -3
390
F
  0
LAYER
  5
1060
102
{ACAD_XDICTIONARY
360
1A42
102
}
330
2
100
AcDbSymbolTableRecord
100
AcDbLayerTableRecord
  2
hid1
 70
     0
 62
     9
  6
HIDDEN
370
    -3
390
F
1001
AcAecLayerStandard
1000

1000

  0
ENDTAB
  0
TABLE
  2
STYLE
  5
3
330
0
100
AcDbSymbolTable
 70
     4
  0
STYLE
  5
11
330
3
100
AcDbSymbolTableRecord
100
AcDbTextStyleTableRecord
  2
Standard
 70
     0
 40
0.0
 41
1.0
 50
0.0
 71
     0
 42
2.5
  3
Avgardn.ttf
  4

1001
ACAD
1000
AvantGarde Bk BT
1071
       34
  0
STYLE
  5
2C
330
3
100
AcDbSymbolTableRecord
100
AcDbTextStyleTableRecord
  2

 70
     1
 40
0.0
 41
1.0
 50
0.0
 71
     0
 42
2.5
  3
ltypeshp.shx
  4

  0
STYLE
  5
91F
330
3
100
AcDbSymbolTableRecord
100
AcDbTextStyleTableRecord
  2
SANINDUSA
 70
     0
 40
0.0
 41
1.0
 50
0.0
 71
     0
 42
2.5
  3
verdana.ttf
  4

1001
ACAD
1000
Verdana
1071
       34
  0
STYLE
  5
C7C
330
3
100
AcDbSymbolTableRecord
100
AcDbTextStyleTableRecord
  2
futura
 70
     0
 40
0.0
 41
1.0
 50
0.0
 71
     0
 42
2.5
  3
zuricrm.ttf
  4

1001
ACAD
1000
Zurich BT
1071
       34
  0
ENDTAB
  0
TABLE
  2
VIEW
  5
6
330
0
100
AcDbSymbolTable
 70
     0
  0
ENDTAB
  0
TABLE
  2
UCS
  5
7
330
0
100
AcDbSymbolTable
 70
     0
  0
ENDTAB
  0
TABLE
  2
APPID
  5
9
330
0
100
AcDbSymbolTable
 70
    16
  0
APPID
  5
12
330
9
100
AcDbSymbolTableRecord
100
AcDbRegAppTableRecord
  2
ACAD
 70
     0
  0
APPID
  5
3A
330
9
100
AcDbSymbolTableRecord
100
AcDbRegAppTableRecord
  2
DCO15
 70
     0
  0
APPID
  5
EEE
330
9
100
AcDbSymbolTableRecord
100
AcDbRegAppTableRecord
  2
ACAD_DSTYLE_DIMTEXT_FILL
 70
     0
  0
APPID
  5
EEF
330
9
100
AcDbSymbolTableRecord
100
AcDbRegAppTableRecord
  2
ACAD_DSTYLE_DIMEXT_LENGTH
 70
     0
  0
APPID
  5
EF0
330
9
100
AcDbSymbolTableRecord
100
AcDbRegAppTableRecord
  2
ACAD_DSTYLE_DIMEXT_ENABLED
 70
     0
  0
APPID
  5
EF1
330
9
100
AcDbSymbolTableRecord
100
AcDbRegAppTableRecord
  2
ACAD_DSTYLE_DIM_LINETYPE
 70
     0
  0
APPID
  5
EF2
330
9
100
AcDbSymbolTableRecord
100
AcDbRegAppTableRecord
  2
ACAD_DSTYLE_DIM_EXT1_LINETYPE
 70
     0
  0
APPID
  5
EF3
330
9
100
AcDbSymbolTableRecord
100
AcDbRegAppTableRecord
  2
ACAD_DSTYLE_DIM_EXT2_LINETYPE
 70
     0
  0
APPID
  5
FAF
330
9
100
AcDbSymbolTableRecord
100
AcDbRegAppTableRecord
  2
ACAD_DSTYLE_DIMJOGGED_JOGANGLE_SYMBOL
 70
     0
  0
APPID
  5
1013
330
9
100
AcDbSymbolTableRecord
100
AcDbRegAppTableRecord
  2
ACAD_DSTYLE_DIMARC_LENGTH_SYMBOL
 70
     0
  0
APPID
  5
1061
330
9
100
AcDbSymbolTableRecord
100
AcDbRegAppTableRecord
  2
AcAecLayerStandard
 70
     0
  0
APPID
  5
10BC
330
9
100
AcDbSymbolTableRecord
100
AcDbRegAppTableRecord
  2
ACAD_NAV_VCDISPLAY
 70
     0
  0
APPID
  5
114C
330
9
100
AcDbSymbolTableRecord
100
AcDbRegAppTableRecord
  2
ACAD_DSTYLE_DIMJAG
 70
     0
  0
APPID
  5
114D
330
9
100
AcDbSymbolTableRecord
100
AcDbRegAppTableRecord
  2
ACAD_DSTYLE_DIMTALN
 70
     0
  0
APPID
  5
197F
330
9
100
AcDbSymbolTableRecord
100
AcDbRegAppTableRecord
  2
ACAD_EXEMPT_FROM_CAD_STANDARDS
 70
     0
  0
APPID
  5
1AD8
330
9
100
AcDbSymbolTableRecord
100
AcDbRegAppTableRecord
  2
ACAD_MLEADERVER
 70
     0
  0
ENDTAB
  0
TABLE
  2
DIMSTYLE
  5
A
330
0
100
AcDbSymbolTable
 70
     4
100
AcDbDimStyleTable
 71
     1
340
921
  0
DIMSTYLE
105
45
330
A
100
AcDbSymbolTableRecord
100
AcDbDimStyleTableRecord
  2
STANDARD
 70
     0
289
     0
340
11
  0
DIMSTYLE
105
921
330
A
100
AcDbSymbolTableRecord
100
AcDbDimStyleTableRecord
  2
SANINDUSA
 70
     0
 41
2.0
 42
1.0
 43
1.0
 44
1.0
 73
     0
 74
     0
 77
     1
 78
     8
140
2.0
141
0.0
143
0.03937007874016
147
1.0
171
     3
172
     1
176
   256
177
   256
178
   256
179
     1
271
     1
272
     1
274
     3
278
    44
283
     0
284
     8
340
91F
371
    -1
372
    -1
1001
ACAD_DSTYLE_DIMJOGGED_JOGANGLE_SYMBOL
1070
   384
1040
1.570796326794896
  0
DIMSTYLE
105
C7D
330
A
100
AcDbSymbolTableRecord
100
AcDbDimStyleTableRecord
  2
AM_ISO
 70
     0
  4
"
 41
2.5
 42
1.0
 43
10.0
 44
1.0
 47
0.1
 48
0.1
 73
     0
 74
     0
 77
     1
 78
     8
 79
     2
140
3.5
141
0.0
143
0.0393701
146
0.71
147
1.5
172
     1
176
   256
177
   256
178
     2
271
     2
272
     3
274
     4
283
     0
284
     8
340
11
371
    -1
372
    -1
  0
ENDTAB
  0
TABLE
  2
BLOCK_RECORD
  5
1
330
0
100
AcDbSymbolTable
 70
    30
  0
BLOCK_RECORD
  5
1F
330
1
100
AcDbSymbolTableRecord
100
AcDbBlockTableRecord
  2
*Model_Space
340
22
  0
BLOCK_RECORD
  5
1B
330
1
100
AcDbSymbolTableRecord
100
AcDbBlockTableRecord
  2
*Paper_Space
340
1E
  0
BLOCK_RECORD
  5
23
330
1
100
AcDbSymbolTableRecord
100
AcDbBlockTableRecord
  2
*Paper_Space0
340
26
  0
BLOCK_RECORD
  5
919
330
1
100
AcDbSymbolTableRecord
100
AcDbBlockTableRecord
  2
_DotSmall
340
0
  0
BLOCK_RECORD
  5
922
330
1
100
AcDbSymbolTableRecord
100
AcDbBlockTableRecord
  2
base para cotas
340
0
310
2800000020000000200000000100080000000000000400000000000000000000000000000000000000000000000080000080000000808000800000008000800080800000C0C0C000C0DCC000F0CAA6000020400000206000002080000020A0000020C0000020E00000400000004020000040400000406000004080000040A0
310
000040C0000040E00000600000006020000060400000606000006080000060A0000060C0000060E00000800000008020000080400000806000008080000080A0000080C0000080E00000A0000000A0200000A0400000A0600000A0800000A0A00000A0C00000A0E00000C0000000C0200000C0400000C0600000C0800000C0
310
A00000C0C00000C0E00000E0000000E0200000E0400000E0600000E0800000E0A00000E0C00000E0E00040000000400020004000400040006000400080004000A0004000C0004000E00040200000402020004020400040206000402080004020A0004020C0004020E000404000004040200040404000404060004040800040
310
40A0004040C0004040E00040600000406020004060400040606000406080004060A0004060C0004060E00040800000408020004080400040806000408080004080A0004080C0004080E00040A0000040A0200040A0400040A0600040A0800040A0A00040A0C00040A0E00040C0000040C0200040C0400040C0600040C08000
310
40C0A00040C0C00040C0E00040E0000040E0200040E0400040E0600040E0800040E0A00040E0C00040E0E00080000000800020008000400080006000800080008000A0008000C0008000E00080200000802020008020400080206000802080008020A0008020C0008020E00080400000804020008040400080406000804080
310
008040A0008040C0008040E00080600000806020008060400080606000806080008060A0008060C0008060E00080800000808020008080400080806000808080008080A0008080C0008080E00080A0000080A0200080A0400080A0600080A0800080A0A00080A0C00080A0E00080C0000080C0200080C0400080C0600080C0
310
800080C0A00080C0C00080C0E00080E0000080E0200080E0400080E0600080E0800080E0A00080E0C00080E0E000C0000000C0002000C0004000C0006000C0008000C000A000C000C000C000E000C0200000C0202000C0204000C0206000C0208000C020A000C020C000C020E000C0400000C0402000C0404000C0406000C0
310
408000C040A000C040C000C040E000C0600000C0602000C0604000C0606000C0608000C060A000C060C000C060E000C0800000C0802000C0804000C0806000C0808000C080A000C080C000C080E000C0A00000C0A02000C0A04000C0A06000C0A08000C0A0A000C0A0C000C0A0E000C0C00000C0C02000C0C04000C0C06000
310
C0C08000C0C0A000F0FBFF00A4A0A000808080000000FF0000FF000000FFFF00FF000000FF00FF00FFFF0000FFFFFF00A4A4A4A4A4A4A4A4A4A4A4A4A4A4A4A4A4A4A4A4A4A4A4A4A4A4A4A4A4A4A4A4A4A4A4A4A4A4A4A4A4A4A4A4A4A4A4A4A4A4A4A4A4A4A4A4A4A4A4A4A4A4A4A4A4A4A4A4A4A4A4A4A4A4A4A4A4A4A4
310
A4A4A4A4A4A4A4A4A4A4A4A4A4A4A4A4A4A4A4A4A4A4A4A4A4A4A4A4A4A4A4A4A4A4A4A4A4A4A4A4A4A4A4A4A4A4A4A4A4A4A4A4A4A4A4A4A4A4A4A4A4A4A4A4A4A4A4A4A4A4A4A4A4A4A4A4A4A4A4A4A4A4A4A4A4A4A4A4A4A4A4A4A4A4A4A4A4A4A4A4A4A4A4A4A4A4A4A4A4A4A4A4A4A4A4A4A4A4A4A4A4A4A4A4A4A4A4
310
A4A4A4A4A4A4A4A4A4A4A4A4A4A4A4A4A4A4A4A4A4A4A4A4A4A4A4A4A4A4A4A4A4A4A4A4A4A4A4A4A4A4A4A4A4A4A4A4A4A4A4A4A4A4A4A4A4A4A4A4A4A4A4A4A4A4A4A4A4A4A4A4A4A4A4A4A4A4A4A4A4A4A4A4A4A4A4A4A4A4A4A4A4A4A4A4A4A4A4A4A4A4A4A4A4A4A4A4A4A4A4A4A4A4A4A4A4A4A4A4A4A4A4A4A4A4A4
310
A4A4A4A4A4A4A4A4A4A4A4A4A4A4A4A4A4A4A4A4A4A4A4A4A4A4A4A4A4A4A4A4A4A4A4A4A4A4A4A4A4A4A4A4A4A4A4A4A4A4A4A4A4A4A4A4A4A4A4A4A4A4A4A4A4A4A4A4A4A4A4A4A4A4A4A4A4A4A4A4A4A4A4A4A4A4A4A4A4A4A4A4A4A4A4A4A4A4A4A4A4A4A4A4A4A4A4A4A4A4A4A4A4A4A4A4F9F9F9F9F9F9F9F9F9F9F9
310
F9F9F9F9F9F9F9F9F9F9F9F9F9F9F9F9F9F9F9A4A4F9F9F9F9F9F9F9F9F9F9F9F9F9F9F9F9F9F9F9F9F9F9F9F9F9F9F9F9F9F9A4A4F9F9F9F9F9F9F9F9F9F9F9F9F9F9F9F9F9F9F9F9F9F9F9F9F9F9F9F9F9F9A4A4F9A4A4A4A4A4A4A4A4A4A4A4A4A4A4A4A4A4A4A4A4A4A4A4A4A4A4A4A4F9A4A4A4A4A4A4A4A4A4A4A4A4
310
A4A4A4A4A4A4A4A4A4A4A4A4A4A4A4A4A4A4A4A4A4A4A4A4A4A4A4A4A4A4A4A4A4A4A4A4A4A4A4A4A4A4A4A4A4A4A4A4A4A4A4A4A4A4A4A4A4A4A4A4A4A4A4A4A4A4A4A4A4A4A4A4A4A4A4A4A4A4A4A4A4A4A4A4A4A4A4A4A4A4A4A4A4A4A4A4A4A4A4A4A4A4A4A4A4A4A4A4A4A4A4A4A4A4A4A4A4A4A4A4A4A4A4A4A4A4A4
310
A4A4A4A4A4A4A4A4A4A4A4A4A4A4A4A4A4A4A4A4A4A4A4A4A4A4A4A4A4A4A4A4A4A4A4A4A4A4A4A4A4A4A4A4A4A4A4A4A4A4A4A4A4A4A4A4A4A4A4A4A4A4A4A4A4A4A4A4A4A4A4A4A4A4A4A4A4A4A4A4A4A4A4A4A4A4A4A4A4A4A4A4A4A4A4A4A4A4A4A4A4A4A4A4A4A4A4A4A4A4A4A4A4A4A4A4A4A4A4A4A4A4A4A4A4A4A4
310
A4A4A4A4A4A4A4A4A4A4A4A4A4A4A4A4A4A4A4A4A4A4A4A4A4A4A4A4A4A4A4A4A4A4A4A4A4A4A4A4A4A4A4A4A4A4A4A4A4A4A4A4A4A4A4A4A4A4A4A4A4A4A4A4A4A4A4A4A4A4A4A4A4A4A4A4A4A4A4A4A4A4A4A4A4A4A4A4A4A4A4A4A4A4A4A4A4A4A4A4A4A4A4A4A4A4A4A4A4A4A4A4A4A4A4A4A4A4A4A4A4A4A4A4A4A4A4
310
A4A4A4A4A4A4A4A4A4A4A4A4A4A4A4A4A4A4A4A4A4A4A4A4A4A4A4A4A4A4A4A4A4A4A4A4A4A4A4A4A4A4A4A4A4A4A4A4A4A4A4A4A4A4A4A4
1001
ACAD
1000
DesignCenter Data
1002
{
1070
     1
1070
     4
1002
}
  0
BLOCK_RECORD
  5
AA8
330
1
100
AcDbSymbolTableRecord
100
AcDbBlockTableRecord
  2
_CLOSED
340
0
  0
BLOCK_RECORD
  5
B79
330
1
100
AcDbSymbolTableRecord
100
AcDbBlockTableRecord
  2
nota revisoes
340
0
1001
ACAD
1000
DesignCenter Data
1002
{
1070
     1
1070
     4
1002
}
  0
BLOCK_RECORD
  5
B8E
330
1
100
AcDbSymbolTableRecord
100
AcDbBlockTableRecord
  2
a3l
340
0
1001
ACAD
1000
DesignCenter Data
1002
{
1070
     1
1070
     4
1002
}
  0
BLOCK_RECORD
  5
B9E
330
1
100
AcDbSymbolTableRecord
100
AcDbBlockTableRecord
  2
legenda desenvolvimento
340
0
1001
ACAD
1000
DesignCenter Data
1002
{
1070
     1
1070
     4
1002
}
  0
BLOCK_RECORD
  5
10CC
330
1
100
AcDbSymbolTableRecord
100
AcDbBlockTableRecord
  2
*D7
340
0
  0
BLOCK_RECORD
  5
10D8
330
1
100
AcDbSymbolTableRecord
100
AcDbBlockTableRecord
  2
*D8
340
0
  0
BLOCK_RECORD
  5
10E4
330
1
100
AcDbSymbolTableRecord
100
AcDbBlockTableRecord
  2
*D9
340
0
  0
BLOCK_RECORD
  5
10F2
330
1
100
AcDbSymbolTableRecord
100
AcDbBlockTableRecord
  2
*D10
340
0
  0
BLOCK_RECORD
  5
1100
330
1
100
AcDbSymbolTableRecord
100
AcDbBlockTableRecord
  2
*D11
340
0
  0
BLOCK_RECORD
  5
110C
330
1
100
AcDbSymbolTableRecord
100
AcDbBlockTableRecord
  2
*D12
340
0
  0
BLOCK_RECORD
  5
1118
330
1
100
AcDbSymbolTableRecord
100
AcDbBlockTableRecord
  2
*D13
340
0
  0
BLOCK_RECORD
  5
1124
330
1
100
AcDbSymbolTableRecord
100
AcDbBlockTableRecord
  2
*D14
340
0
  0
BLOCK_RECORD
  5
1130
330
1
100
AcDbSymbolTableRecord
100
AcDbBlockTableRecord
  2
*D15
340
0
  0
BLOCK_RECORD
  5
113E
330
1
100
AcDbSymbolTableRecord
100
AcDbBlockTableRecord
  2
*D16
340
0
  0
BLOCK_RECORD
  5
1905
330
1
100
AcDbSymbolTableRecord
100
AcDbBlockTableRecord
  2
*D18
340
0
  0
BLOCK_RECORD
  5
1911
330
1
100
AcDbSymbolTableRecord
100
AcDbBlockTableRecord
  2
*D19
340
0
  0
BLOCK_RECORD
  5
191D
330
1
100
AcDbSymbolTableRecord
100
AcDbBlockTableRecord
  2
*D20
340
0
  0
BLOCK_RECORD
  5
1929
330
1
100
AcDbSymbolTableRecord
100
AcDbBlockTableRecord
  2
*D21
340
0
  0
BLOCK_RECORD
  5
1935
330
1
100
AcDbSymbolTableRecord
100
AcDbBlockTableRecord
  2
*D22
340
0
  0
BLOCK_RECORD
  5
1941
330
1
100
AcDbSymbolTableRecord
100
AcDbBlockTableRecord
  2
*D23
340
0
  0
BLOCK_RECORD
  5
194D
330
1
100
AcDbSymbolTableRecord
100
AcDbBlockTableRecord
  2
*D24
340
0
  0
BLOCK_RECORD
  5
1959
330
1
100
AcDbSymbolTableRecord
100
AcDbBlockTableRecord
  2
*D25
340
0
  0
BLOCK_RECORD
  5
1965
330
1
100
AcDbSymbolTableRecord
100
AcDbBlockTableRecord
  2
*D26
340
0
  0
BLOCK_RECORD
  5
1973
330
1
100
AcDbSymbolTableRecord
100
AcDbBlockTableRecord
  2
*D27
340
0
  0
BLOCK_RECORD
  5
1A0D
330
1
100
AcDbSymbolTableRecord
100
AcDbBlockTableRecord
  2
*D29
340
0
  0
ENDTAB
  0
ENDSEC
  0
SECTION
  2
BLOCKS
  0
BLOCK
  5
20
330
1F
100
AcDbEntity
  8
0
100
AcDbBlockBegin
  2
*Model_Space
 70
     0
 10
0.0
 20
0.0
 30
0.0
  3
*Model_Space
  1

  0
ENDBLK
  5
21
330
1F
100
AcDbEntity
  8
0
100
AcDbBlockEnd
  0
BLOCK
  5
1C
330
1B
100
AcDbEntity
 67
     1
  8
0
100
AcDbBlockBegin
  2
*Paper_Space
 70
     0
 10
0.0
 20
0.0
 30
0.0
  3
*Paper_Space
  1

  0
ENDBLK
  5
1D
330
1B
100
AcDbEntity
 67
     1
  8
0
100
AcDbBlockEnd
  0
BLOCK
  5
24
330
23
100
AcDbEntity
 67
     1
  8
0
100
AcDbBlockBegin
  2
*Paper_Space0
 70
     0
 10
0.0
 20
0.0
 30
0.0
  3
*Paper_Space0
  1

  0
ENDBLK
  5
25
330
23
100
AcDbEntity
 67
     1
  8
0
100
AcDbBlockEnd
  0
BLOCK
  5
91B
330
919
100
AcDbEntity
  8
0
100
AcDbBlockBegin
  2
_DotSmall
 70
     0
 10
0.0
 20
0.0
 30
0.0
  3
_DotSmall
  1

  0
LWPOLYLINE
  5
91A
330
919
100
AcDbEntity
  8
0
  6
ByBlock
 62
     0
100
AcDbPolyline
 90
        2
 70
     1
 43
0.5
 10
-0.0625
 20
0.0
 42
1.0
 10
0.0625
 20
0.0
 42
1.0
  0
ENDBLK
  5
91C
330
919
100
AcDbEntity
  8
0
100
AcDbBlockEnd
  0
BLOCK
  5
92A
330
922
100
AcDbEntity
  8
0
100
AcDbBlockBegin
  2
base para cotas
 70
     0
 10
0.0
 20
0.0
 30
0.0
  3
base para cotas
  1

  0
LINE
  5
B36
330
922
100
AcDbEntity
  8
cotas
100
AcDbLine
 10
0.0
 20
-30.0
 30
0.0
 11
327.1260136525398
 21
-30.0
 31
0.0
  0
LINE
  5
B37
330
922
100
AcDbEntity
  8
cotas
100
AcDbLine
 10
0.0
 20
-25.0
 30
0.0
 11
327.1260136525398
 21
-25.0
 31
0.0
  0
LINE
  5
B38
330
922
100
AcDbEntity
  8
cotas
100
AcDbLine
 10
0.0
 20
-20.0
 30
0.0
 11
327.1260136525398
 21
-20.0
 31
0.0
  0
LINE
  5
B39
330
922
100
AcDbEntity
  8
cotas
100
AcDbLine
 10
0.0
 20
-15.0
 30
0.0
 11
327.1260136525398
 21
-15.0
 31
0.0
  0
LINE
  5
B3A
330
922
100
AcDbEntity
  8
cotas
100
AcDbLine
 10
0.0
 20
-10.0
 30
0.0
 11
327.1260136525398
 21
-10.0
 31
0.0
  0
LINE
  5
B3B
330
922
100
AcDbEntity
  8
cotas
100
AcDbLine
 10
0.0
 20
0.0
 30
0.0
 11
0.0
 21
-30.0
 31
0.0
  0
LINE
  5
B3C
330
922
100
AcDbEntity
  8
cotas
100
AcDbLine
 10
327.1260136525398
 20
-30.0
 30
0.0
 11
327.1260136525398
 21
0.0
 31
0.0
  0
ENDBLK
  5
92B
330
922
100
AcDbEntity
  8
0
100
AcDbBlockEnd
  0
BLOCK
  5
AAD
330
AA8
100
AcDbEntity
  8
0
100
AcDbBlockBegin
  2
_CLOSED
 70
     0
 10
0.0
 20
0.0
 30
0.0
  3
_CLOSED
  1

  0
LINE
  5
AA9
330
AA8
100
AcDbEntity
  8
0
100
AcDbLine
 10
-1.0
 20
0.166667
 30
0.0
 11
0.0
 21
0.0
 31
0.0
  0
LINE
  5
AAA
330
AA8
100
AcDbEntity
  8
0
100
AcDbLine
 10
0.0
 20
0.0
 30
0.0
 11
-1.0
 21
-0.166667
 31
0.0
  0
LINE
  5
AAB
330
AA8
100
AcDbEntity
  8
0
100
AcDbLine
 10
-1.0
 20
0.166667
 30
0.0
 11
-1.0
 21
-0.166667
 31
0.0
  0
LINE
  5
AAC
330
AA8
100
AcDbEntity
  8
0
100
AcDbLine
 10
0.0
 20
0.0
 30
0.0
 11
-1.0
 21
0.0
 31
0.0
  0
ENDBLK
  5
AAE
330
AA8
100
AcDbEntity
  8
0
100
AcDbBlockEnd
  0
BLOCK
  5
B7C
330
B79
100
AcDbEntity
  8
0
100
AcDbBlockBegin
  2
nota revisoes
 70
     0
 10
0.0
 20
0.0
 30
0.0
  3
nota revisoes
  1

  0
CIRCLE
  5
B7A
330
B79
100
AcDbEntity
  8
4
100
AcDbCircle
 10
0.0
 20
0.0
 30
0.0
 40
13.69426055101189
  0
TEXT
  5
B7B
330
B79
100
AcDbEntity
  8
4
100
AcDbText
 10
-5.496248358154345
 20
-5.354545554066362
 30
0.0
 40
12.0
  1
1
  7
SANINDUSA
 72
     1
 11
-0.249774214433728
 21
-5.354545554066362
 31
0.0
100
AcDbText
  0
ENDBLK
  5
B7D
330
B79
100
AcDbEntity
  8
0
100
AcDbBlockEnd
  0
BLOCK
  5
B9C
330
B8E
100
AcDbEntity
  8
0
100
AcDbBlockBegin
  2
a3l
 70
     0
 10
0.0
 20
0.0
 30
0.0
  3
a3l
  1

  0
LINE
  5
B8F
330
B8E
100
AcDbEntity
  8
1
100
AcDbLine
 10
-364.2925296599447
 20
-362.1188951399395
 30
0.0
 11
-364.2925296599447
 21
-65.11889513993946
 31
0.0
  0
LINE
  5
B90
330
B8E
100
AcDbEntity
  8
4
100
AcDbLine
 10
-369.2925296599447
 20
-357.1188951399395
 30
0.0
 11
-369.2925296599447
 21
-70.11889513993946
 31
0.0
  0
LINE
  5
B91
330
B8E
100
AcDbEntity
  8
1
100
AcDbLine
 10
-784.2925296599446
 20
-65.11889513993946
 30
0.0
 11
-784.2925296599446
 21
-362.1188951399395
 31
0.0
  0
LINE
  5
B92
330
B8E
100
AcDbEntity
  8
4
100
AcDbLine
 10
-759.2925296599446
 20
-357.1188951399395
 30
0.0
 11
-759.2925296599446
 21
-70.11889513993946
 31
0.0
  0
LINE
  5
B93
330
B8E
100
AcDbEntity
  8
1
100
AcDbLine
 10
-784.2925296599446
 20
-362.1188951399395
 30
0.0
 11
-364.2925296599447
 21
-362.1188951399395
 31
0.0
  0
LINE
  5
B94
330
B8E
100
AcDbEntity
  8
4
100
AcDbLine
 10
-759.2925296599446
 20
-357.1188951399395
 30
0.0
 11
-369.2925296599447
 21
-357.1188951399395
 31
0.0
  0
LINE
  5
B95
330
B8E
100
AcDbEntity
  8
1
100
AcDbLine
 10
-654.2925296599446
 20
-357.1188951399395
 30
0.0
 11
-654.2925296599446
 21
-362.1188951399395
 31
0.0
  0
LINE
  5
B96
330
B8E
100
AcDbEntity
  8
1
100
AcDbLine
 10
-364.2925296599447
 20
-65.11889513993946
 30
0.0
 11
-784.2925296599446
 21
-65.11889513993946
 31
0.0
  0
LINE
  5
B97
330
B8E
100
AcDbEntity
  8
4
100
AcDbLine
 10
-369.2925296599447
 20
-70.11889513993946
 30
0.0
 11
-759.2925296599446
 21
-70.11889513993946
 31
0.0
  0
LINE
  5
B98
330
B8E
100
AcDbEntity
  8
1
100
AcDbLine
 10
-654.2925296599446
 20
-65.11889513993946
 30
0.0
 11
-654.2925296599446
 21
-70.11889513993946
 31
0.0
  0
LINE
  5
B99
330
B8E
100
AcDbEntity
  8
1
100
AcDbLine
 10
-549.2925296599446
 20
-70.11889513993946
 30
0.0
 11
-549.2925296599446
 21
-65.11889513993946
 31
0.0
  0
LINE
  5
B9A
330
B8E
100
AcDbEntity
  8
1
100
AcDbLine
 10
-369.2925296599447
 20
-65.11889513993946
 30
0.0
 11
-364.2925296599447
 21
-65.11889513993946
 31
0.0
  0
LINE
  5
B9B
330
B8E
100
AcDbEntity
  8
1
100
AcDbLine
 10
-549.2925296599446
 20
-357.1188951399395
 30
0.0
 11
-549.2925296599446
 21
-362.1188951399395
 31
0.0
  0
ENDBLK
  5
B9D
330
B8E
100
AcDbEntity
  8
0
100
AcDbBlockEnd
  0
BLOCK
  5
C13
330
B9E
100
AcDbEntity
  8
0
100
AcDbBlockBegin
  2
legenda desenvolvimento
 70
     2
 10
0.0
 20
0.0
 30
0.0
  3
legenda desenvolvimento
  1

  0
ATTDEF
  5
B9F
330
B9E
100
AcDbEntity
  8
1
100
AcDbText
 10
-108.606245802552
 20
55.5
 30
0.0
 40
4.0
  1
XXXXXXXXXXXXXX
 41
0.8
  7
SANINDUSA
 72
     4
 11
-87.5
 21
57.5
 31
0.0
100
AcDbAttributeDefinition
  3
Nome do Produto:
  2
PRODUTO
 70
     0
  0
ATTDEF
  5
BA0
330
B9E
100
AcDbEntity
  8
1
100
AcDbText
 10
-97.9997966101695
 20
41.25
 30
0.0
 40
3.0
  1
XXXXXXXXX
 41
0.8
  7
futura
 72
     4
 11
-87.5
 21
42.75
 31
0.0
100
AcDbAttributeDefinition
  3
Nome da Peça:
  2
PECA
 70
     0
  0
ATTDEF
  5
BA1
330
B9E
100
AcDbEntity
  8
1
100
AcDbText
 10
-133.4422431161853
 20
21.11745296763252
 30
0.0
 40
2.5
  1
X
 41
0.8
  7
SANINDUSA
 72
     4
 11
-132.5
 21
22.36745296763252
 31
0.0
100
AcDbAttributeDefinition
  3
Cod. TESTE:
  2
TESTE
 70
     0
  0
ATTDEF
  5
BA2
330
B9E
100
AcDbEntity
  8
1
100
AcDbText
 10
-124.3844862323707
 20
21.11745296763252
 30
0.0
 40
2.5
  1
XX
 41
0.8
  7
SANINDUSA
 72
     4
 11
-122.5
 21
22.36745296763252
 31
0.0
100
AcDbAttributeDefinition
  3
Cod. Ano:
  2
ANO
 70
     0
  0
ATTDEF
  5
BA3
330
B9E
100
AcDbEntity
  8
1
100
AcDbText
 10
-112.526889953052
 20
21.11745296763252
 30
0.0
 40
2.5
  1
XXX
 41
0.8
  7
SANINDUSA
 72
     4
 11
-109.700160604496
 21
22.36745296763252
 31
0.0
100
AcDbAttributeDefinition
  3
Cod. Sequência:
  2
SEQUENCIA
 70
     0
  0
ATTDEF
  5
BA4
330
B9E
100
AcDbEntity
  8
1
100
AcDbText
 10
-99.35382430979316
 20
21.11745296763252
 30
0.0
 40
2.5
  1
XX
 41
0.8
  7
SANINDUSA
 72
     4
 11
-97.46933807742244
 21
22.36745296763252
 31
0.0
100
AcDbAttributeDefinition
  3
Cod. Tipo:
  2
TIPO
 70
     0
  0
ATTDEF
  5
BA5
330
B9E
100
AcDbEntity
  8
1
100
AcDbText
 10
-87.42035911468438
 20
21.11745296763252
 30
0.0
 40
2.5
  1
XXX
 41
0.8
  7
SANINDUSA
 72
     4
 11
-84.59362976612828
 21
22.36745296763252
 31
0.0
100
AcDbAttributeDefinition
  3
Cod. Produto:
  2
PRODUTO
 70
     0
  0
ATTDEF
  5
BA6
330
B9E
100
AcDbEntity
  8
1
100
AcDbText
 10
-74.62051971917853
 20
21.11745296763252
 30
0.0
 40
2.5
  1
XXX
 41
0.8
  7
SANINDUSA
 72
     4
 11
-71.79379037062244
 21
22.36745296763252
 31
0.0
100
AcDbAttributeDefinition
  3
Cod. Peça:
  2
PECA
 70
     0
  0
ATTDEF
  5
BA7
330
B9E
100
AcDbEntity
  8
1
100
AcDbText
 10
-61.10603446650329
 20
21.11745296763252
 30
0.0
 40
2.5
  1
XX
 41
0.8
  7
SANINDUSA
 72
     4
 11
-59.22154823413257
 21
22.36745296763252
 31
0.0
100
AcDbAttributeDefinition
  3
Cod. Revisão:
  2
REV
 70
     0
  0
ATTDEF
  5
BA8
330
B9E
100
AcDbEntity
  8
1
100
AcDbText
 10
-48.43615325006194
 20
21.11745296763252
 30
0.0
 40
2.5
  1
XX
 41
0.8
  7
SANINDUSA
 72
     4
 11
-46.55166701769121
 21
22.36745296763252
 31
0.0
100
AcDbAttributeDefinition
  3
Cod. Alteração:
  2
ALT
 70
     0
  0
ATTDEF
  5
BA9
330
B9E
100
AcDbEntity
  8
1
100
AcDbText
 10
-35.19086635325722
 20
23.98875083948959
 30
0.0
 40
3.0
  1
1/XXX
 41
0.8
  7
SANINDUSA
 72
     4
 11
-30.0
 21
25.25
 31
0.0
100
AcDbAttributeDefinition
  3
Escala geral:
  2
ESCALA
 70
     0
  0
ATTDEF
  5
BAA
330
B9E
100
AcDbEntity
  8
1
100
AcDbText
 10
-15.65345869711215
 20
23.75
 30
0.0
 40
3.0
  1
XXXXX
 41
0.8
  7
SANINDUSA
 72
     4
 11
-10.0
 21
25.25
 31
0.0
100
AcDbAttributeDefinition
  3
Folha:
  2
FOLHA
 70
     0
  0
ATTDEF
  5
BAB
330
B9E
100
AcDbEntity
  8
1
100
AcDbText
 10
-178.5146998822042
 20
56.9531347542807
 30
0.0
 40
2.0
  1
xx
 41
0.8
  7
SANINDUSA
 72
     4
 11
-177.2123493113513
 21
57.70330265219877
 31
0.0
100
AcDbAttributeDefinition
  3
revisão
  2
REV.
 70
     0
  0
ATTDEF
  5
BAC
330
B9E
100
AcDbEntity
  8
1
100
AcDbText
 10
-172.7849640077129
 20
56.9531347542807
 30
0.0
 40
2.0
  1
xx
 41
0.8
  7
SANINDUSA
 72
     4
 11
-171.48261343686
 21
57.70330265219877
 31
0.0
100
AcDbAttributeDefinition
  3
alteração
  2
ALT.
 70
     0
  0
ATTDEF
  5
BAD
330
B9E
100
AcDbEntity
  8
1
100
AcDbText
 10
-168.007199951307
 20
56.70330265219877
 30
0.0
 40
2.0
  1
xx/xx/xxxx
 41
0.8
  7
SANINDUSA
 11
-168.007199951307
 21
57.70330265219877
 31
0.0
100
AcDbAttributeDefinition
  3
data
  2
DATA
 70
     0
 74
     2
  0
ATTDEF
  5
BAE
330
B9E
100
AcDbEntity
  8
1
100
AcDbText
 10
-168.5396372253371
 20
13.15916722632639
 30
0.0
 40
2.0
  1
XX/XX/XXXX
 41
0.8
  7
SANINDUSA
 72
     4
 11
-161.5099528734231
 21
14.0
 31
0.0
100
AcDbAttributeDefinition
  3
Data projecto
  2
DATA_PROJ
 70
     0
  0
ATTDEF
  5
BAF
330
B9E
100
AcDbEntity
  8
1
100
AcDbText
 10
-150.8658110728766
 20
13.24983210208193
 30
0.0
 40
2.0
  1
xxxxxxxx
 41
0.8
  7
SANINDUSA
 72
     4
 11
-145.6564087894649
 21
14.0
 31
0.0
100
AcDbAttributeDefinition
  3
nome de quem projectou
  2
NOME
 70
     0
  0
ATTDEF
  5
BB0
330
B9E
100
AcDbEntity
  8
1
100
AcDbText
 10
-168.5396372253371
 20
9.159167226326394
 30
0.0
 40
2.0
  1
XX/XX/XXXX
 41
0.8
  7
SANINDUSA
 72
     4
 11
-161.5099528734231
 21
10.0
 31
0.0
100
AcDbAttributeDefinition
  3
Data desenhou
  2
DATA_DES
 70
     0
  0
ATTDEF
  5
BB1
330
B9E
100
AcDbEntity
  8
1
100
AcDbText
 10
-151.516986358303
 20
9.249832102081933
 30
0.0
 40
2.0
  1
xxxxxxxxx
 41
0.8
  7
SANINDUSA
 72
     4
 11
-145.6564087894649
 21
10.0
 31
0.0
100
AcDbAttributeDefinition
  3
nome
  2
NOME
 70
     0
  0
ATTDEF
  5
BB2
330
B9E
100
AcDbEntity
  8
1
100
AcDbText
 10
-127.2924214135946
 20
14.1979876583216
 30
0.0
 40
2.0
  1
Vitreous China
 41
0.8
  7
SANINDUSA
 72
     4
 11
-119.231709526422
 21
15.22216495852308
 31
0.0
100
AcDbAttributeDefinition
  3
Nome do Material:
  2
MATERIAL
 70
     0
  0
ATTDEF
  5
BB3
330
B9E
100
AcDbEntity
  8
1
100
AcDbText
 10
-103.1563452122093
 20
14.38019043949261
 30
0.0
 40
2.0
  1
Branco
 41
0.8
  7
SANINDUSA
 72
     4
 11
-99.33418268702462
 21
15.35937109765245
 31
0.0
100
AcDbAttributeDefinition
  3
cor da peça
  2
COR
 70
     0
  0
ATTDEF
  5
BB4
330
B9E
100
AcDbEntity
  8
1
100
AcDbText
 10
-116.7235057085292
 20
5.975822699798522
 30
0.0
 40
2.0
  1
Vidrado
 41
0.8
  7
SANINDUSA
 72
     4
 11
-112.5
 21
7.0
 31
0.0
100
AcDbAttributeDefinition
  3
Tipo de acabamento:
  2
ACABAMENTO
 70
     0
  0
ATTDEF
  5
BB5
330
B9E
100
AcDbEntity
  8
1
100
AcDbText
 10
-79.18527869967246
 20
16.65066409850533
 30
0.0
 40
2.0
  1
XXXXXXX
 41
0.8
  7
SANINDUSA
 72
     4
 11
-73.90871724903445
 21
17.65066409850533
 31
0.0
100
AcDbAttributeDefinition
  3
Normas
  2
NORMAS
 70
     0
  0
ATTDEF
  5
BB6
330
B9E
100
AcDbEntity
  8
1
100
AcDbText
 10
-30.55312290127603
 20
14.0
 30
0.0
 40
2.0
  1
XXXXXXXXXXXXXX
 41
0.8
  7
SANINDUSA
 72
     4
 11
-20.0
 21
15.0
 31
0.0
100
AcDbAttributeDefinition
  3
Substitui o desenho:
  2
SUBSTITUI
 70
     0
  0
ATTDEF
  5
BB7
330
B9E
100
AcDbEntity
  8
1
100
AcDbText
 10
-31.30691739422431
 20
6.0
 30
0.0
 40
2.0
  1
XXXXXXXXXXXXXXX
 41
0.8
  7
SANINDUSA
 72
     4
 11
-20.0
 21
7.0
 31
0.0
100
AcDbAttributeDefinition
  3
Substituido por:
  2
SUBSTITUIDO
 70
     0
  0
ATTDEF
  5
BB8
330
B9E
100
AcDbEntity
  8
1
100
AcDbText
 10
-110.0220608548302
 20
1.478208457928303
 30
0.0
 40
2.0
  1
XXXXXXXXXXXXXXXXXXXXXXXXXXXXXXXXXX
 41
0.8
  7
SANINDUSA
 11
-110.0220608548302
 21
2.478208457928303
 31
0.0
100
AcDbAttributeDefinition
  3
Localização do desenho:
  2
LOC-DWG
 70
     0
 74
     2
  0
LINE
  5
BB9
330
B9E
100
AcDbEntity
  8
3
100
AcDbLine
 10
-135.0
 20
4.0
 30
0.0
 11
0.0000000000004547
 21
4.0
 31
0.0
  0
LINE
  5
BBA
330
B9E
100
AcDbEntity
  8
3
100
AcDbLine
 10
-90.00000000000046
 20
12.0
 30
0.0
 11
-135.0
 21
12.0
 31
0.0
  0
LINE
  5
BBB
330
B9E
100
AcDbEntity
  8
3
100
AcDbLine
 10
-135.0
 20
32.5
 30
0.0
 11
-40.0
 21
32.5
 31
0.0
  0
TEXT
  5
BBC
330
B9E
100
AcDbEntity
  8
1
100
AcDbText
 10
-134.0
 20
1.25
 30
0.0
 40
2.0
  1
Localização do des.:
 41
0.8
  7
SANINDUSA
 11
-134.0
 21
2.25
 31
0.0
100
AcDbText
 73
     2
  0
LINE
  5
BBD
330
B9E
100
AcDbEntity
  8
3
100
AcDbLine
 10
-180.0
 20
65.0
 30
0.0
 11
0.0
 21
65.0
 31
0.0
  0
LINE
  5
BBE
330
B9E
100
AcDbEntity
  8
leg fin
100
AcDbLine
 10
-40.0
 20
25.05956924886846
 30
0.0
 11
-135.0
 21
25.05956924886846
 31
0.0
  0
LINE
  5
BBF
330
B9E
100
AcDbEntity
  8
leg fin
100
AcDbLine
 10
-40.0
 20
28.5
 30
0.0
 11
-135.0
 21
28.5
 31
0.0
  0
LINE
  5
BC0
330
B9E
100
AcDbEntity
  8
3
100
AcDbLine
 10
-135.0
 20
50.0
 30
0.0
 11
-40.0
 21
50.0
 31
0.0
  0
TEXT
  5
BC1
330
B9E
100
AcDbEntity
  8
1
100
AcDbText
 10
-134.0
 20
29.75
 30
0.0
 40
2.0
  1
Desenho nº:
 41
0.8
  7
SANINDUSA
 11
-134.0
 21
30.75
 31
0.0
100
AcDbText
 73
     2
  0
TEXT
  5
BC2
330
B9E
100
AcDbEntity
  8
1
100
AcDbText
 10
-134.0
 20
9.25
 30
0.0
 40
2.0
  1
Acabamento:
 41
0.8
  7
SANINDUSA
 11
-134.0
 21
10.25
 31
0.0
100
AcDbText
 73
     2
  0
LINE
  5
BC3
330
B9E
100
AcDbEntity
  8
3
100
AcDbLine
 10
-180.0
 20
20.0
 30
0.0
 11
0.0
 21
20.0
 31
0.0
  0
LINE
  5
BC4
330
B9E
100
AcDbEntity
  8
1
100
AcDbLine
 10
-174.5810776056337
 20
55.5
 30
0.0
 11
-174.5810776056337
 21
65.0
 31
0.0
  0
LINE
  5
BC5
330
B9E
100
AcDbEntity
  8
1
100
AcDbLine
 10
-168.9210461879161
 20
55.5
 30
0.0
 11
-168.9210461879161
 21
65.0
 31
0.0
  0
LINE
  5
BC6
330
B9E
100
AcDbEntity
  8
1
100
AcDbLine
 10
-154.0988595589306
 20
55.5
 30
0.0
 11
-154.0988595589306
 21
65.0
 31
0.0
  0
LINE
  5
BC7
330
B9E
100
AcDbEntity
  8
3
100
AcDbLine
 10
-180.0
 20
65.0
 30
0.0
 11
-180.0
 21
0.0
 31
0.0
  0
LINE
  5
BC8
330
B9E
100
AcDbEntity
  8
3
100
AcDbLine
 10
-135.0
 20
0.0
 30
0.0
 11
-135.0
 21
65.0
 31
0.0
  0
TEXT
  5
BC9
330
B9E
100
AcDbEntity
  8
1
100
AcDbText
 10
-179.0
 20
9.75
 30
0.0
 40
1.5
  1
Des.
 41
0.8
  7
SANINDUSA
 11
-179.0
 21
10.5
 31
0.0
100
AcDbText
 73
     2
  0
LINE
  5
BCA
330
B9E
100
AcDbEntity
  8
1
100
AcDbLine
 10
-168.9210461879161
 20
20.0
 30
0.0
 11
-168.9210461879161
 21
0.0
 31
0.0
  0
LINE
  5
BCB
330
B9E
100
AcDbEntity
  8
1
100
AcDbLine
 10
-154.0988595589306
 20
20.0
 30
0.0
 11
-154.0988595589306
 21
0.0
 31
0.0
  0
LINE
  5
BCC
330
B9E
100
AcDbEntity
  8
1
100
AcDbLine
 10
-180.0
 20
4.0
 30
0.0
 11
-135.0
 21
4.0
 31
0.0
  0
LINE
  5
BCD
330
B9E
100
AcDbEntity
  8
1
100
AcDbLine
 10
-180.0
 20
8.0
 30
0.0
 11
-135.0
 21
8.0
 31
0.0
  0
TEXT
  5
BCE
330
B9E
100
AcDbEntity
  8
1
100
AcDbText
 10
-179.0
 20
1.73257823687436
 30
0.0
 40
1.5
  1
Aprov.
 41
0.8
  7
SANINDUSA
 11
-179.0
 21
2.48257823687436
 31
0.0
100
AcDbText
 73
     2
  0
TEXT
  5
BCF
330
B9E
100
AcDbEntity
  8
1
100
AcDbText
 10
-179.0
 20
5.75
 30
0.0
 40
1.5
  1
Ver.
 41
0.8
  7
SANINDUSA
 11
-179.0
 21
6.5
 31
0.0
100
AcDbText
 73
     2
  0
LINE
  5
BD0
330
B9E
100
AcDbEntity
  8
1
100
AcDbLine
 10
-180.0
 20
16.0
 30
0.0
 11
-135.0
 21
16.0
 31
0.0
  0
LINE
  5
BD1
330
B9E
100
AcDbEntity
  8
1
100
AcDbLine
 10
-180.0
 20
12.0
 30
0.0
 11
-135.0
 21
12.0
 31
0.0
  0
TEXT
  5
BD2
330
B9E
100
AcDbEntity
  8
1
100
AcDbText
 10
-179.0
 20
13.75
 30
0.0
 40
1.5
  1
Proj.
 41
0.8
  7
SANINDUSA
 11
-179.0
 21
14.5
 31
0.0
100
AcDbText
 73
     2
  0
TEXT
  5
BD3
330
B9E
100
AcDbEntity
  8
1
100
AcDbText
 10
-167.9210461879161
 20
17.75
 30
0.0
 40
1.5
  1
Data
 41
0.8
  7
SANINDUSA
 11
-167.9210461879161
 21
18.5
 31
0.0
100
AcDbText
 73
     2
  0
TEXT
  5
BD4
330
B9E
100
AcDbEntity
  8
1
100
AcDbText
 10
-153.0988595589306
 20
17.75
 30
0.0
 40
1.5
  1
Nome
 41
0.8
  7
SANINDUSA
 11
-153.0988595589306
 21
18.5
 31
0.0
100
AcDbText
 73
     2
  0
LINE
  5
BD5
330
B9E
100
AcDbEntity
  8
leg fin
100
AcDbLine
 10
-130.0
 20
20.0
 30
0.0
 11
-130.0
 21
28.5
 31
0.0
  0
TEXT
  5
BD6
330
B9E
100
AcDbEntity
  8
1
100
AcDbText
 10
-134.0
 20
17.25
 30
0.0
 40
2.0
  1
Material:
 41
0.8
  7
SANINDUSA
 11
-134.0
 21
18.25
 31
0.0
100
AcDbText
 73
     2
  0
TEXT
  5
BD7
330
B9E
100
AcDbEntity
  8
1
100
AcDbText
 10
-129.0
 20
26.43288406845113
 30
0.0
 40
1.5
  1
Ano:
 41
0.8
  7
SANINDUSA
 11
-129.0
 21
27.18288406845113
 31
0.0
100
AcDbText
 73
     2
  0
LINE
  5
BD8
330
B9E
100
AcDbEntity
  8
1
100
AcDbLine
 10
-180.0
 20
55.5
 30
0.0
 11
-135.0
 21
55.5
 31
0.0
  0
TEXT
  5
BD9
330
B9E
100
AcDbEntity
  8
1
100
AcDbText
 10
-179.0
 20
52.67772246885193
 30
0.0
 40
1.5
  1
descrição
 41
0.8
  7
SANINDUSA
 11
-179.0
 21
53.42772246885193
 31
0.0
100
AcDbText
 73
     2
  0
TEXT
  5
BDA
330
B9E
100
AcDbEntity
  8
1
100
AcDbText
 10
-134.0
 20
47.25
 30
0.0
 40
2.0
  1
Peça:
 41
0.8
  7
SANINDUSA
 11
-134.0
 21
48.25
 31
0.0
100
AcDbText
 73
     2
  0
LINE
  5
BDB
330
B9E
100
AcDbEntity
  8
1
100
AcDbLine
 10
-180.0
 20
59.5
 30
0.0
 11
-135.0
 21
59.5
 31
0.0
  0
TEXT
  5
BDC
330
B9E
100
AcDbEntity
  8
1
100
AcDbText
 10
-173.5810776056337
 20
62.75
 30
0.0
 40
1.5
  1
Alt.
 41
0.8
  7
SANINDUSA
 11
-173.5810776056337
 21
63.5
 31
0.0
100
AcDbText
 73
     2
  0
TEXT
  5
BDD
330
B9E
100
AcDbEntity
  8
1
100
AcDbText
 10
-179.0
 20
62.75
 30
0.0
 40
1.5
  1
Rev.
 41
0.8
  7
SANINDUSA
 11
-179.0
 21
63.5
 31
0.0
100
AcDbText
 73
     2
  0
TEXT
  5
BDE
330
B9E
100
AcDbEntity
  8
1
100
AcDbText
 10
-167.9210461879161
 20
62.75
 30
0.0
 40
1.5
  1
Data
 41
0.8
  7
SANINDUSA
 11
-167.9210461879161
 21
63.5
 31
0.0
100
AcDbText
 73
     2
  0
TEXT
  5
BDF
330
B9E
100
AcDbEntity
  8
1
100
AcDbText
 10
-153.0988595589306
 20
62.75
 30
0.0
 40
1.5
  1
Nome
 41
0.8
  7
SANINDUSA
 11
-153.0988595589306
 21
63.5
 31
0.0
100
AcDbText
 73
     2
  0
TEXT
  5
BE0
330
B9E
100
AcDbEntity
  8
1
100
AcDbText
 10
-134.0
 20
62.25
 30
0.0
 40
2.0
  1
Produto:
 41
0.8
  7
SANINDUSA
 11
-134.0
 21
63.25
 31
0.0
100
AcDbText
 73
     2
  0
LINE
  5
BE1
330
B9E
100
AcDbEntity
  8
3
100
AcDbLine
 10
-40.0
 20
4.0
 30
0.0
 11
-40.0
 21
65.0
 31
0.0
  0
LWPOLYLINE
  5
BE2
102
{ACAD_REACTORS
330
BEC
102
}
330
B9E
100
AcDbEntity
  8
9
100
AcDbPolyline
 90
       12
 70
     1
 43
0.0
 10
-3.038714600644652
 20
58.90010174665076
 10
-5.726962862472191
 20
58.90010174665076
 10
-5.726962862472191
 20
58.5001017466509
 10
-3.038748516195028
 20
58.5001017466509
 42
-0.4142135623731731
 10
-2.638748516194482
 20
58.1001017466508
 10
-2.638748516194482
 20
57.42799728675596
 10
-5.21497371544865
 20
57.42799728675596
 42
0.4142135623731289
 10
-6.014973715448377
 20
56.627997286756
 10
-6.014973715448377
 20
55.92380871629643
 42
0.4142135623731132
 10
-5.21497371544865
 20
55.12380871629648
 10
-2.23871460064447
 20
55.12380871629648
 10
-2.23871460064447
 20
58.10010174665103
 42
0.4142135623730717
  0
LWPOLYLINE
  5
BE3
102
{ACAD_REACTORS
330
BEC
102
}
330
B9E
100
AcDbEntity
  8
9
100
AcDbPolyline
 90
       20
 70
     1
 43
0.0
 10
-10.01531287095122
 20
57.82799728675581
 10
-10.01531287095122
 20
58.10010174665103
 42
-0.4142135623730744
 10
-9.615312870951584
 20
58.5001017466509
 10
-6.92703069357276
 20
58.5001017466509
 10
-6.92703069357276
 20
58.90010174665076
 10
-9.615346786501959
 20
58.90010174665076
 42
0.4142135623730883
 10
-10.41534678650168
 20
58.1001017466508
 10
-10.41534678650168
 20
57.82796337120567
 42
0.4142135623730717
 10
-9.615346786501959
 20
57.02796337120571
 10
-7.423079531965413
 20
57.02796337120571
 42
-0.4142135623730847
 10
-7.023079531965322
 20
56.62796337120562
 10
-7.023079531965322
 20
55.90786840766487
 42
-0.4142135623730744
 10
-7.423079531965413
 20
55.507868407665
 10
-10.41534678650168
 20
55.507868407665
 10
-10.41534678650168
 20
55.12380871629648
 10
-7.445787917283723
 20
55.12380871629648
 42
0.4114777732064574
 10
-6.645822882998345
 20
55.9163291493976
 10
-6.639238813324936
 20
56.62051771985716
 42
0.4169546541682913
 10
-7.439203847610315
 20
57.42799728675596
 10
-9.615312870951584
 20
57.42799728675596
 42
-0.4142135623731576
  0
LWPOLYLINE
  5
BE4
102
{ACAD_REACTORS
330
BEC
102
}
330
B9E
100
AcDbEntity
  8
9
100
AcDbPolyline
 90
       12
 70
     1
 43
0.0
 10
-14.41561811090378
 20
58.90010174665076
 10
-14.79964388672215
 20
58.90010174665076
 10
-14.79964388672215
 20
55.92380871629643
 42
0.4142135623731133
 10
-13.99964388672242
 20
55.12380871629648
 10
-11.8233508563676
 20
55.12380871629648
 42
0.4142135623730872
 10
-11.02335085636741
 20
55.92380871629643
 10
-11.02335085636741
 20
58.90010174665076
 10
-11.42338477191788
 20
58.90010174665076
 10
-11.42338477191788
 20
55.91567577726095
 42
-0.4131711701795318
 10
-11.82196067063523
 20
55.51567831234956
 10
-14.0141940096214
 20
55.50787335710947
 42
-0.4152567234624407
 10
-14.41561811090378
 20
55.90787082202087
  0
LWPOLYLINE
  5
BE5
102
{ACAD_REACTORS
330
BEC
102
}
330
B9E
100
AcDbEntity
  8
9
100
AcDbPolyline
 90
        6
 70
     1
 43
0.0
 10
-15.80771578768872
 20
55.507868407665
 10
-18.39994912667453
 20
55.507868407665
 42
-0.4142135623731731
 10
-18.79994912667462
 20
55.90786840766487
 10
-18.79994912667462
 20
58.10010174665103
 42
-0.4142135623730744
 10
-18.39994912667453
 20
58.5001017466509
 10
-15.80771578768872
 20
58.5001017466509
  0
LWPOLYLINE
  5
BE6
102
{ACAD_REACTORS
330
BEC
102
}
330
B9E
100
AcDbEntity
  8
9
100
AcDbPolyline
 90
        8
 70
     1
 43
0.0
 10
-15.4236900118708
 20
59.87619128370352
 10
-15.80771578768872
 20
59.87619128370352
 10
-15.80771578768872
 20
58.90010174665076
 10
-18.39176256411201
 20
58.90010174665076
 42
0.4131164467977967
 10
-19.19175694739761
 20
58.1030995310698
 10
-19.1999120763262
 20
55.92680650071542
 42
0.4153115297271718
 10
-18.39991769304061
 20
55.12380871629648
 10
-15.4236900118708
 20
55.12380871629648
  0
LWPOLYLINE
  5
BE7
102
{ACAD_REACTORS
330
BEC
102
}
330
B9E
100
AcDbEntity
  8
9
100
AcDbPolyline
 90
       10
 70
     1
 43
0.0
 10
-20.59201288790928
 20
58.90010174665076
 10
-23.56830591826338
 20
58.90010174665076
 10
-23.56830591826338
 20
55.12380871629648
 10
-23.18424622689509
 20
55.12380871629648
 10
-23.18424622689509
 20
58.5001017466509
 10
-20.59204680345965
 20
58.5001017466509
 42
-0.4142135623730898
 10
-20.19204680345956
 20
58.1001017466508
 10
-20.19204680345956
 20
55.12380871629648
 10
-19.79201288790909
 20
55.12380871629648
 10
-19.79201288790909
 20
58.10010174665103
 42
0.4142135623731132
  0
LWPOLYLINE
  5
BE8
102
{ACAD_REACTORS
330
BEC
102
}
330
B9E
100
AcDbEntity
  8
9
100
AcDbPolyline
 90
        4
 70
     1
 43
0.0
 10
-24.19231812786165
 20
58.90010174665076
 10
-24.57637781922995
 20
58.90010174665076
 10
-24.57637781922995
 20
55.12380871629648
 10
-24.19231812786165
 20
55.12380871629648
  0
LWPOLYLINE
  5
BE9
102
{ACAD_REACTORS
330
BEC
102
}
330
B9E
100
AcDbEntity
  8
9
100
AcDbPolyline
 90
       10
 70
     1
 43
0.0
 10
-28.57661522808212
 20
58.5001017466509
 10
-25.98444972019706
 20
58.5001017466509
 42
-0.4142135623731731
 10
-25.58444972019652
 20
58.1001017466508
 10
-25.58444972019652
 20
55.12380871629648
 10
-25.2004239443786
 20
55.12380871629648
 10
-25.2004239443786
 20
58.10010174665103
 42
0.4142135623730717
 10
-26.00042394437833
 20
58.90010174665076
 10
-28.97664914363259
 20
58.90010174665076
 10
-28.97664914363259
 20
55.12380871629648
 10
-28.57661522808212
 20
55.12380871629648
  0
LWPOLYLINE
  5
BEA
102
{ACAD_REACTORS
330
BEC
102
}
330
B9E
100
AcDbEntity
  8
9
100
AcDbPolyline
 90
       12
 70
     1
 43
0.0
 10
-29.58465321349832
 20
58.10010174665103
 42
0.4142135623730716
 10
-30.3846532134985
 20
58.90010174665076
 10
-33.07296930642724
 20
58.90010174665076
 10
-33.07296930642724
 20
58.5001017466509
 10
-30.38468712904842
 20
58.5001017466509
 42
-0.4142135623730067
 10
-29.98468712904878
 20
58.1001017466508
 10
-29.98468712904878
 20
57.42799728675618
 10
-32.56098015940324
 20
57.42799728675596
 42
0.4142135623731289
 10
-33.36098015940343
 20
56.627997286756
 10
-33.36098015940343
 20
55.92380871629643
 42
0.4142135623731132
 10
-32.56098015940324
 20
55.12380871629648
 10
-29.58465321349832
 20
55.12380871629648
  0
LWPOLYLINE
  5
BEB
102
{ACAD_REACTORS
330
BEC
102
}
330
B9E
100
AcDbEntity
  8
9
100
AcDbPolyline
 90
       20
 70
     1
 43
0.0
 10
-34.7850262845518
 20
57.42799728675596
 10
-36.96125148380543
 20
57.42799728675596
 42
-0.4142135623730898
 10
-37.36125148380552
 20
57.82799728675604
 10
-37.36125148380552
 20
58.10010174665103
 42
-0.4142135623730744
 10
-36.96125148380543
 20
58.5001017466509
 10
-34.27303713752781
 20
58.50010174665067
 10
-34.27303713752781
 20
58.90010174665076
 10
-36.96128539935535
 20
58.90010174665076
 42
0.4142135623731289
 10
-37.76128539935553
 20
58.1001017466508
 10
-37.76128539935553
 20
57.82796337120567
 42
0.4142135623730716
 10
-36.9612853993558
 20
57.02796337120571
 10
-34.76901814481926
 20
57.02796337120571
 42
-0.414213562373168
 10
-34.36901814481962
 20
56.62796337120562
 10
-34.36901814481962
 20
55.90786840766487
 42
-0.4142135623730744
 10
-34.76901814481926
 20
55.507868407665
 10
-37.76128539935553
 20
55.507868407665
 10
-37.76128539935553
 20
55.12380871629648
 10
-34.7850262845518
 20
55.12380871629648
 42
0.4142135623731289
 10
-33.98502628455162
 20
55.92380871629643
 10
-33.98502628455162
 20
56.627997286756
 42
0.4142135623731132
  0
HATCH
  5
BEC
330
B9E
100
AcDbEntity
  8
9
100
AcDbHatch
 10
0.0
 20
0.0
 30
0.0
210
0.0
220
0.0
230
1.0
  2
SOLID
 70
     1
 71
     1
 91
       13
 92
        7
 72
     1
 73
     1
 93
       20
 10
-34.36901814481962
 20
55.90786840766487
 42
-0.414213562372991
 10
-34.76901814481926
 20
55.507868407665
 42
0.0
 10
-37.76128539935553
 20
55.507868407665
 42
0.0
 10
-37.76128539935553
 20
55.12380871629648
 42
0.0
 10
-34.7850262845518
 20
55.12380871629648
 42
0.4142135623731705
 10
-33.98502628455162
 20
55.92380871629666
 42
0.0
 10
-33.98502628455162
 20
56.627997286756
 42
0.4142135623731547
 10
-34.7850262845518
 20
57.42799728675596
 42
0.0
 10
-36.96125148380543
 20
57.42799728675596
 42
-0.4142135623730898
 10
-37.36125148380552
 20
57.82799728675604
 42
0.0
 10
-37.36125148380552
 20
58.1001017466508
 42
-0.4142135623731575
 10
-36.96125148380543
 20
58.5001017466509
 42
0.0
 10
-34.27303713752781
 20
58.50010174665067
 42
0.0
 10
-34.27303713752781
 20
58.90010174665076
 42
0.0
 10
-36.96128539935535
 20
58.90010174665076
 42
0.4142135623731705
 10
-37.76128539935553
 20
58.10010174665058
 42
0.0
 10
-37.76128539935553
 20
57.82796337120544
 42
0.4142135623730299
 10
-36.9612853993558
 20
57.02796337120571
 42
0.0
 10
-34.76901814481926
 20
57.02796337120571
 42
-0.4142135623730015
 10
-34.36901814481962
 20
56.62796337120608
 42
0.0
 97
        1
330
BEB
 92
        7
 72
     1
 73
     1
 93
       12
 10
-33.36098015940343
 20
55.92380871629666
 42
0.4142135623731547
 10
-32.56098015940324
 20
55.12380871629648
 42
0.0
 10
-29.58465321349877
 20
55.12380871629648
 42
0.0
 10
-29.58465321349832
 20
58.10010174665058
 42
0.4142135623731964
 10
-30.3846532134985
 20
58.90010174665076
 42
0.0
 10
-33.07296930642724
 20
58.90010174665076
 42
0.0
 10
-33.07296930642724
 20
58.50010174665067
 42
0.0
 10
-30.38468712904887
 20
58.5001017466509
 42
-0.4142135623732564
 10
-29.98468712904878
 20
58.10010174665103
 42
0.0
 10
-29.98468712904923
 20
57.42799728675596
 42
0.0
 10
-32.56098015940324
 20
57.42799728675596
 42
0.4142135623731705
 10
-33.36098015940343
 20
56.627997286756
 42
0.0
 97
        1
330
BEA
 92
       22
 72
     1
 73
     1
 93
        6
 10
-32.97692046803468
 20
56.62796337120562
 42
-0.4142135623731576
 10
-32.57692046803459
 20
57.02796337120571
 42
0.0
 10
-29.98468712904878
 20
57.02796337120571
 42
0.0
 10
-29.98468712904878
 20
55.507868407665
 42
0.0
 10
-32.57692046803459
 20
55.507868407665
 42
-0.4142135623731731
 10
-32.97692046803468
 20
55.90786840766487
 42
0.0
 97
        1
330
C11
 92
        7
 72
     1
 73
     1
 93
       10
 10
-28.57661522808212
 20
58.5001017466509
 42
0.0
 10
-25.98444972019661
 20
58.5001017466509
 42
-0.4142135623730067
 10
-25.58444972019652
 20
58.10010174665058
 42
0.0
 10
-25.58444972019606
 20
55.12380871629648
 42
0.0
 10
-25.20042394437906
 20
55.12380871629648
 42
0.0
 10
-25.2004239443786
 20
58.1001017466508
 42
0.4142135623731134
 10
-26.00042394437833
 20
58.90010174665076
 42
0.0
 10
-28.97664914363259
 20
58.90010174665076
 42
0.0
 10
-28.97664914363259
 20
55.12380871629648
 42
0.0
 10
-28.57661522808212
 20
55.12380871629648
 42
0.0
 97
        1
330
BE9
 92
        7
 72
     0
 73
     1
 93
        4
 10
-24.57637781922995
 20
55.12380871629648
 10
-24.19231812786165
 20
55.12380871629648
 10
-24.19231812786165
 20
58.90010174665076
 10
-24.57637781922995
 20
58.90010174665076
 97
        1
330
BE8
 92
        7
 72
     0
 73
     1
 93
        4
 10
-24.19231812786165
 20
59.87619128370352
 10
-24.5763778192304
 20
59.87619128370352
 10
-24.5763778192304
 20
59.28412752246913
 10
-24.1923181278612
 20
59.28412752246913
 97
        1
330
C12
 92
        7
 72
     1
 73
     1
 93
       10
 10
-23.18424622689509
 20
58.5001017466509
 42
0.0
 10
-20.59204680345965
 20
58.5001017466509
 42
-0.4142135623730898
 10
-20.19204680345956
 20
58.1001017466508
 42
0.0
 10
-20.19204680345956
 20
55.12380871629648
 42
0.0
 10
-19.79201288790909
 20
55.12380871629648
 42
0.0
 10
-19.79201288790909
 20
58.1001017466508
 42
0.4142135623731547
 10
-20.59201288790928
 20
58.90010174665076
 42
0.0
 10
-23.56830591826338
 20
58.90010174665076
 42
0.0
 10
-23.56830591826338
 20
55.12380871629648
 42
0.0
 10
-23.18424622689463
 20
55.12380871629648
 42
0.0
 97
        1
330
BE7
 92
        7
 72
     1
 73
     1
 93
        8
 10
-19.1999120763262
 20
55.92680650071542
 42
0.4153115297271299
 10
-18.39991769304061
 20
55.12380871629648
 42
0.0
 10
-15.4236900118708
 20
55.12380871629648
 42
0.0
 10
-15.4236900118708
 20
59.87619128370352
 42
0.0
 10
-15.80771578768872
 20
59.87619128370352
 42
0.0
 10
-15.80771578768872
 20
58.90010174665076
 42
0.0
 10
-18.39176256411201
 20
58.90010174665076
 42
0.4131164467977965
 10
-19.19175694739761
 20
58.1030995310698
 42
0.0
 97
        1
330
BE6
 92
       22
 72
     1
 73
     1
 93
        6
 10
-18.79994912667462
 20
58.1001017466508
 42
-0.4142135623731575
 10
-18.39994912667453
 20
58.5001017466509
 42
0.0
 10
-15.80771578768872
 20
58.50010174665067
 42
0.0
 10
-15.80771578768827
 20
55.507868407665
 42
0.0
 10
-18.39994912667453
 20
55.507868407665
 42
-0.4142135623731731
 10
-18.79994912667462
 20
55.90786840766487
 42
0.0
 97
        1
330
BE5
 92
        7
 72
     1
 73
     1
 93
       12
 10
-14.79964388672215
 20
55.92380871629621
 42
0.4142135623729885
 10
-13.99964388672242
 20
55.12380871629648
 42
0.0
 10
-11.8233508563676
 20
55.12380871629648
 42
0.4142135623731289
 10
-11.02335085636741
 20
55.92380871629666
 42
0.0
 10
-11.02335085636741
 20
58.90010174665076
 42
0.0
 10
-11.42338477191788
 20
58.90010174665076
 42
0.0
 10
-11.42338477191788
 20
55.91567577726095
 42
-0.4131711701795319
 10
-11.82196067063523
 20
55.51567831234956
 42
0.0
 10
-14.01419400962095
 20
55.50787335710947
 42
-0.4152567234626918
 10
-14.41561811090378
 20
55.90787082202087
 42
0.0
 10
-14.41561811090378
 20
58.90010174665076
 42
0.0
 10
-14.7996438867226
 20
58.90010174665076
 42
0.0
 97
        1
330
BE4
 92
        7
 72
     1
 73
     1
 93
       20
 10
-7.423079531965413
 20
57.02796337120571
 42
-0.414213562373168
 10
-7.023079531965322
 20
56.62796337120562
 42
0.0
 10
-7.023079531965322
 20
55.90786840766487
 42
-0.4142135623731575
 10
-7.423079531965413
 20
55.507868407665
 42
0.0
 10
-10.41534678650168
 20
55.507868407665
 42
0.0
 10
-10.41534678650168
 20
55.12380871629648
 42
0.0
 10
-7.445787917283723
 20
55.12380871629648
 42
0.4114777732065809
 10
-6.645822882998345
 20
55.91632914939783
 42
0.0
 10
-6.639238813324936
 20
56.62051771985716
 42
0.4169546541682913
 10
-7.439203847610315
 20
57.42799728675596
 42
0.0
 10
-9.615312870951584
 20
57.42799728675596
 42
-0.4142135623729911
 10
-10.01531287095122
 20
57.82799728675581
 42
0.0
 10
-10.01531287095122
 20
58.10010174665103
 42
-0.414213562372991
 10
-9.615312870951584
 20
58.5001017466509
 42
0.0
 10
-6.92703069357276
 20
58.50010174665067
 42
0.0
 10
-6.927030693572305
 20
58.90010174665076
 42
0.0
 10
-9.615346786501959
 20
58.90010174665076
 42
0.4142135623730467
 10
-10.41534678650168
 20
58.10010174665103
 42
0.0
 10
-10.41534678650168
 20
57.82796337120544
 42
0.4142135623730301
 10
-9.615346786501959
 20
57.02796337120571
 42
0.0
 97
        1
330
BE3
 92
        7
 72
     1
 73
     1
 93
       12
 10
-5.21497371544865
 20
57.42799728675596
 42
0.4142135623730871
 10
-6.014973715448377
 20
56.627997286756
 42
0.0
 10
-6.014973715448377
 20
55.92380871629621
 42
0.4142135623730715
 10
-5.21497371544865
 20
55.12380871629648
 42
0.0
 10
-2.23871460064447
 20
55.12380871629648
 42
0.0
 10
-2.23871460064447
 20
58.10010174665058
 42
0.414213562373155
 10
-3.038714600644652
 20
58.90010174665076
 42
0.0
 10
-5.726962862471737
 20
58.90010174665076
 42
0.0
 10
-5.726962862472191
 20
58.5001017466509
 42
0.0
 10
-3.038748516194573
 20
58.5001017466509
 42
-0.4142135623730067
 10
-2.638748516194482
 20
58.10010174665058
 42
0.0
 10
-2.638748516194482
 20
57.42799728675596
 42
0.0
 97
        1
330
BE2
 92
       22
 72
     1
 73
     1
 93
        6
 10
-2.638748516194937
 20
57.02796337120571
 42
0.0
 10
-2.638748516194482
 20
55.50786840766477
 42
0.0
 10
-5.21497371544865
 20
55.507868407665
 42
-0.4142135623731731
 10
-5.614973715448741
 20
55.90786840766509
 42
0.0
 10
-5.614973715448741
 20
56.62796337120562
 42
-0.4142135623731576
 10
-5.21497371544865
 20
57.02796337120571
 42
0.0
 97
        1
330
C0D
 75
     0
 76
     1
 47
0.0407044778999864
 98
       13
 10
-34.18710075113677
 20
56.16907953933765
 10
-33.12851374392494
 20
56.49471602641233
 10
-33.12851374392494
 20
56.49471602641233
 10
-28.77202873835904
 20
57.51232930166111
 10
-24.41554807250941
 20
57.91937341678636
 10
-24.41554807250941
 20
59.384734621186
 10
-23.31624584658039
 20
58.3264175319116
 10
-19.04119127844888
 20
57.75655517324913
 10
-19.04119127844888
 20
57.75655517324913
 10
-14.64399105416578
 20
57.43091868617466
 10
-8.048195057457178
 20
57.22739662861204
 10
-4.017427461911665
 20
57.18669281458665
 10
-4.017427461911665
 20
57.18669281458665
  0
TEXT
  5
BED
330
B9E
100
AcDbEntity
  8
leg fin
100
AcDbText
 10
3.391127401597259
 20
2.107634911895729
 30
0.0
 40
1.5
  1
Este desenho é propriedade da Sanindusa, S.A., e não pode ser copiado nem divulgado sem nossa autorização.
 50
90.0
 41
0.8
  7
SANINDUSA
100
AcDbText
  0
LINE
  5
BEE
330
B9E
100
AcDbEntity
  8
3
100
AcDbLine
 10
-90.0
 20
4.0
 30
0.0
 11
-90.0
 21
12.0
 31
0.0
  0
TEXT
  5
BEF
330
B9E
100
AcDbEntity
  8
1
100
AcDbText
 10
-39.0
 20
9.25
 30
0.0
 40
2.0
  1
Substituido por:
 41
0.8
  7
SANINDUSA
 11
-39.0
 21
10.25
 31
0.0
100
AcDbText
 73
     2
  0
POINT
  5
BF0
330
B9E
100
AcDbEntity
  8
SANINDUSA
100
AcDbPoint
 10
0.0
 20
0.0
 30
0.0
  0
TEXT
  5
BF1
330
B9E
100
AcDbEntity
  8
1
100
AcDbText
 10
-89.0
 20
16.74927010445663
 30
0.0
 40
2.0
  1
Normas:
 41
0.8
  7
SANINDUSA
 11
-89.0
 21
17.74927010445663
 31
0.0
100
AcDbText
 73
     2
  0
LINE
  5
BF2
330
B9E
100
AcDbEntity
  8
3
100
AcDbLine
 10
-90.0
 20
12.0
 30
0.0
 11
-90.0
 21
20.0
 31
0.0
  0
LINE
  5
BF3
330
B9E
100
AcDbEntity
  8
3
100
AcDbLine
 10
-110.546019464768
 20
12.0
 30
0.0
 11
-110.546019464768
 21
20.0
 31
0.0
  0
TEXT
  5
BF4
330
B9E
100
AcDbEntity
  8
1
100
AcDbText
 10
-109.6177520618648
 20
17.25
 30
0.0
 40
2.0
  1
Cor:
 41
0.8
  7
SANINDUSA
 11
-109.6177520618648
 21
18.25
 31
0.0
100
AcDbText
 73
     2
  0
LINE
  5
BF5
330
B9E
100
AcDbEntity
  8
leg fin
100
AcDbLine
 10
-91.42857142857156
 20
20.0
 30
0.0
 11
-91.42857142857156
 21
28.5
 31
0.0
  0
LINE
  5
BF6
330
B9E
100
AcDbEntity
  8
leg fin
100
AcDbLine
 10
-104.2857142857142
 20
20.0
 30
0.0
 11
-104.2857142857142
 21
28.5
 31
0.0
  0
LINE
  5
BF7
330
B9E
100
AcDbEntity
  8
leg fin
100
AcDbLine
 10
-117.1428571428573
 20
20.0
 30
0.0
 11
-117.1428571428573
 21
28.5
 31
0.0
  0
POINT
  5
BF8
330
B9E
100
AcDbEntity
  8
SANINDUSA
100
AcDbPoint
 10
-117.1428571428573
 20
28.5
 30
0.0
  0
POINT
  5
BF9
330
B9E
100
AcDbEntity
  8
SANINDUSA
100
AcDbPoint
 10
-104.2857142857142
 20
28.5
 30
0.0
  0
POINT
  5
BFA
330
B9E
100
AcDbEntity
  8
SANINDUSA
100
AcDbPoint
 10
-91.42857142857156
 20
28.5
 30
0.0
  0
TEXT
  5
BFB
330
B9E
100
AcDbEntity
  8
1
100
AcDbText
 10
-116.200160604496
 20
26.43288406845113
 30
0.0
 40
1.5
  1
Nº Seq.:
 41
0.8
  7
SANINDUSA
 11
-116.200160604496
 21
27.18288406845113
 31
0.0
100
AcDbText
 73
     2
  0
TEXT
  5
BFC
330
B9E
100
AcDbEntity
  8
1
100
AcDbText
 10
-103.2106584078738
 20
26.43288406845113
 30
0.0
 40
1.5
  1
Tipo:
 41
0.8
  7
SANINDUSA
 11
-103.2106584078738
 21
27.18288406845113
 31
0.0
100
AcDbText
 73
     2
  0
TEXT
  5
BFD
330
B9E
100
AcDbEntity
  8
1
100
AcDbText
 10
-90.22114672289353
 20
26.43288406845113
 30
0.0
 40
1.5
  1
Prod.:
 41
0.8
  7
SANINDUSA
 11
-90.22114672289353
 21
27.18288406845113
 31
0.0
100
AcDbText
 73
     2
  0
TEXT
  5
BFE
330
B9E
100
AcDbEntity
  8
1
100
AcDbText
 10
-64.77320576346574
 20
26.43288406845113
 30
0.0
 40
1.5
  1
Rev.:
 41
0.8
  7
SANINDUSA
 11
-64.77320576346574
 21
27.18288406845113
 31
0.0
100
AcDbText
 73
     2
  0
LINE
  5
BFF
330
B9E
100
AcDbEntity
  8
leg fin
100
AcDbLine
 10
-52.85714285714266
 20
20.0
 30
0.0
 11
-52.85714285714266
 21
28.5
 31
0.0
  0
LINE
  5
C00
330
B9E
100
AcDbEntity
  8
leg fin
100
AcDbLine
 10
-65.71428571428578
 20
20.0
 30
0.0
 11
-65.71428571428578
 21
28.5
 31
0.0
  0
LINE
  5
C01
330
B9E
100
AcDbEntity
  8
leg fin
100
AcDbLine
 10
-78.57142857142844
 20
20.0
 30
0.0
 11
-78.57142857142844
 21
28.5
 31
0.0
  0
POINT
  5
C02
330
B9E
100
AcDbEntity
  8
SANINDUSA
100
AcDbPoint
 10
-78.57142857142844
 20
28.5
 30
0.0
  0
POINT
  5
C03
330
B9E
100
AcDbEntity
  8
SANINDUSA
100
AcDbPoint
 10
-65.71428571428578
 20
28.5
 30
0.0
  0
POINT
  5
C04
330
B9E
100
AcDbEntity
  8
SANINDUSA
100
AcDbPoint
 10
-52.85714285714266
 20
28.5
 30
0.0
  0
TEXT
  5
C05
330
B9E
100
AcDbEntity
  8
1
100
AcDbText
 10
-77.61097961686573
 20
26.43288406845113
 30
0.0
 40
1.5
  1
Peça:
 41
0.8
  7
SANINDUSA
 11
-77.61097961686573
 21
27.18288406845113
 31
0.0
100
AcDbText
 73
     2
  0
TEXT
  5
C06
330
B9E
100
AcDbEntity
  8
1
100
AcDbText
 10
-52.06538060077036
 20
26.43288406845113
 30
0.0
 40
1.5
  1
Alt.:
 41
0.8
  7
SANINDUSA
 11
-52.06538060077036
 21
27.18288406845113
 31
0.0
100
AcDbText
 73
     2
  0
LINE
  5
C07
330
B9E
100
AcDbEntity
  8
3
100
AcDbLine
 10
0.0
 20
12.0
 30
0.0
 11
-40.0
 21
12.0
 31
0.0
  0
LINE
  5
C08
330
B9E
100
AcDbEntity
  8
3
100
AcDbLine
 10
-40.0
 20
32.5
 30
0.0
 11
0.0
 21
32.5
 31
0.0
  0
TEXT
  5
C09
330
B9E
100
AcDbEntity
  8
1
100
AcDbText
 10
-19.0
 20
29.75
 30
0.0
 40
2.0
  1
Folha:
 41
0.8
  7
SANINDUSA
 11
-19.0
 21
30.75
 31
0.0
100
AcDbText
 73
     2
  0
LINE
  5
C0A
330
B9E
100
AcDbEntity
  8
3
100
AcDbLine
 10
-20.0
 20
32.5
 30
0.0
 11
-20.0
 21
20.0
 31
0.0
  0
TEXT
  5
C0B
330
B9E
100
AcDbEntity
  8
1
100
AcDbText
 10
-39.0
 20
29.75
 30
0.0
 40
2.0
  1
Escala:
 41
0.8
  7
SANINDUSA
 11
-39.0
 21
30.75
 31
0.0
100
AcDbText
 73
     2
  0
TEXT
  5
C0C
330
B9E
100
AcDbEntity
  8
1
100
AcDbText
 10
-39.0
 20
17.25
 30
0.0
 40
2.0
  1
Substitui:
 41
0.8
  7
SANINDUSA
 11
-39.0
 21
18.25
 31
0.0
100
AcDbText
 73
     2
  0
LWPOLYLINE
  5
C0D
102
{ACAD_REACTORS
330
BEC
102
}
330
B9E
100
AcDbEntity
  8
9
100
AcDbPolyline
 90
        6
 70
     1
 43
0.0
 10
-2.638748516194482
 20
57.02796337120571
 10
-2.638748516194482
 20
55.50786840766477
 10
-5.21497371544865
 20
55.507868407665
 42
-0.4142135623730898
 10
-5.614973715448741
 20
55.90786840766487
 10
-5.614973715448741
 20
56.62796337120562
 42
-0.4142135623731576
 10
-5.21497371544865
 20
57.02796337120571
  0
LINE
  5
C0E
330
B9E
100
AcDbEntity
  8
3
100
AcDbLine
 10
-40.0
 20
50.0
 30
0.0
 11
0.0
 21
50.0
 31
0.0
  0
ATTDEF
  5
C0F
330
B9E
100
AcDbEntity
  8
1
100
AcDbText
 10
-31.30691739422431
 20
40.25
 30
0.0
 40
2.0
  1
XXXXXXXXXXXXXXX
 41
0.8
  7
SANINDUSA
 72
     4
 11
-20.0
 21
41.25
 31
0.0
100
AcDbAttributeDefinition
  3
Observações:
  2
OBS
 70
     0
  0
TEXT
  5
C10
330
B9E
100
AcDbEntity
  8
1
100
AcDbText
 10
-39.0
 20
47.25
 30
0.0
 40
2.0
  1
Observações:
 41
0.8
  7
SANINDUSA
 11
-39.0
 21
48.25
 31
0.0
100
AcDbText
 73
     2
  0
LWPOLYLINE
  5
C11
102
{ACAD_REACTORS
330
BEC
102
}
330
B9E
100
AcDbEntity
  8
9
100
AcDbPolyline
 90
        6
 70
     1
 43
0.0
 10
-29.98468712904878
 20
57.02796337120571
 10
-29.98468712904878
 20
55.507868407665
 10
-32.57692046803459
 20
55.507868407665
 42
-0.4142135623731731
 10
-32.97692046803468
 20
55.90786840766487
 10
-32.97692046803468
 20
56.62796337120562
 42
-0.4142135623731576
 10
-32.57692046803459
 20
57.02796337120571
  0
LWPOLYLINE
  5
C12
102
{ACAD_REACTORS
330
BEC
102
}
330
B9E
100
AcDbEntity
  8
9
100
AcDbPolyline
 90
        4
 70
     1
 43
0.0
 10
-24.19231812786165
 20
59.87619128370352
 10
-24.57637781922995
 20
59.87619128370352
 10
-24.57637781922995
 20
59.28412752246913
 10
-24.19231812786165
 20
59.28412752246913
  0
ENDBLK
  5
C14
330
B9E
100
AcDbEntity
  8
0
100
AcDbBlockEnd
  0
BLOCK
  5
10CD
330
10CC
100
AcDbEntity
  8
0
100
AcDbBlockBegin
  2
*D7
 70
     1
 10
0.0
 20
0.0
 30
0.0
  3
*D7
  1

  0
LINE
  5
10CE
330
10CC
100
AcDbEntity
  8
0
100
AcDbLine
 10
3884.43204161261
 20
1841.571079501624
 30
0.0
 11
3884.43204161261
 21
1803.40573119601
 31
0.0
  0
LINE
  5
10CF
330
10CC
100
AcDbEntity
  8
0
100
AcDbLine
 10
3634.432041612621
 20
1841.571079501624
 30
0.0
 11
3634.432041612621
 21
1803.40573119601
 31
0.0
  0
LINE
  5
10D0
330
10CC
100
AcDbEntity
  8
0
100
AcDbLine
 10
3874.43204161261
 20
1808.40573119601
 30
0.0
 11
3644.432041612621
 21
1808.40573119601
 31
0.0
  0
SOLID
  5
10D1
330
10CC
100
AcDbEntity
  8
0
100
AcDbTrace
 10
3874.43204161261
 20
1810.072397862677
 30
0.0
 11
3874.43204161261
 21
1806.739064529343
 31
0.0
 12
3884.43204161261
 22
1808.40573119601
 32
0.0
 13
3884.43204161261
 23
1808.40573119601
 33
0.0
  0
SOLID
  5
10D2
330
10CC
100
AcDbEntity
  8
0
100
AcDbTrace
 10
3644.432041612621
 20
1810.072397862677
 30
0.0
 11
3644.432041612621
 21
1806.739064529343
 31
0.0
 12
3634.432041612621
 22
1808.40573119601
 32
0.0
 13
3634.432041612621
 23
1808.40573119601
 33
0.0
  0
MTEXT
  5
10D3
330
10CC
100
AcDbEntity
  8
0
100
AcDbMText
 10
3759.432041612616
 20
1818.613924614411
 30
0.0
 40
10.0
 41
0.0
 71
     5
 72
     1
  1
250
  7
SANINDUSA
 73
     1
 44
1.0
1001
ACAD
1000
MTEXTBEGIN
1070
    73
1070
     1
1070
    44
1040
1.0
1070
    74
1070
     0
1000
MTEXTEND
  0
POINT
  5
10D4
330
10CC
100
AcDbEntity
  8
Defpoints
 62
     0
100
AcDbPoint
 10
3884.43204161261
 20
1846.571079501624
 30
0.0
  0
POINT
  5
10D5
330
10CC
100
AcDbEntity
  8
Defpoints
 62
     0
100
AcDbPoint
 10
3634.432041612621
 20
1846.571079501624
 30
0.0
  0
POINT
  5
10D6
330
10CC
100
AcDbEntity
  8
Defpoints
 62
     0
100
AcDbPoint
 10
3634.432041612621
 20
1808.40573119601
 30
0.0
  0
ENDBLK
  5
10D7
330
10CC
100
AcDbEntity
  8
0
100
AcDbBlockEnd
  0
BLOCK
  5
10D9
330
10D8
100
AcDbEntity
  8
0
100
AcDbBlockBegin
  2
*D8
 70
     1
 10
0.0
 20
0.0
 30
0.0
  3
*D8
  1

  0
LINE
  5
10DA
330
10D8
100
AcDbEntity
  8
0
100
AcDbLine
 10
3868.103481643629
 20
1843.40573119601
 30
0.0
 11
3959.43204161261
 21
1843.40573119601
 31
0.0
  0
LINE
  5
10DB
330
10D8
100
AcDbEntity
  8
0
100
AcDbLine
 10
3764.45348166458
 20
1982.066426759113
 30
0.0
 11
3959.43204161261
 21
1982.066426759113
 31
0.0
  0
LINE
  5
10DC
330
10D8
100
AcDbEntity
  8
0
100
AcDbLine
 10
3954.432041612611
 20
1853.40573119601
 30
0.0
 11
3954.432041612611
 21
1972.066426759113
 31
0.0
  0
SOLID
  5
10DD
330
10D8
100
AcDbEntity
  8
0
100
AcDbTrace
 10
3952.765374945944
 20
1853.40573119601
 30
0.0
 11
3956.098708279277
 21
1853.40573119601
 31
0.0
 12
3954.432041612611
 22
1843.40573119601
 32
0.0
 13
3954.432041612611
 23
1843.40573119601
 33
0.0
  0
SOLID
  5
10DE
330
10D8
100
AcDbEntity
  8
0
100
AcDbTrace
 10
3952.765374945944
 20
1972.066426759113
 30
0.0
 11
3956.098708279277
 21
1972.066426759113
 31
0.0
 12
3954.432041612611
 22
1982.066426759113
 32
0.0
 13
3954.432041612611
 23
1982.066426759113
 33
0.0
  0
MTEXT
  5
10DF
330
10D8
100
AcDbEntity
  8
0
100
AcDbMText
 10
3944.223848194209
 20
1912.736078977562
 30
0.0
 40
10.0
 41
0.0
 71
     5
 72
     1
  1
139
  7
SANINDUSA
 11
0.0000000000000001
 21
1.0
 31
0.0
 73
     1
 44
1.0
1001
ACAD
1000
MTEXTBEGIN
1070
    73
1070
     1
1070
    44
1040
1.0
1070
    74
1070
     0
1000
MTEXTEND
  0
POINT
  5
10E0
330
10D8
100
AcDbEntity
  8
Defpoints
 62
     0
100
AcDbPoint
 10
3863.10348164363
 20
1843.40573119601
 30
0.0
  0
POINT
  5
10E1
330
10D8
100
AcDbEntity
  8
Defpoints
 62
     0
100
AcDbPoint
 10
3759.453481664579
 20
1982.066426759113
 30
0.0
  0
POINT
  5
10E2
330
10D8
100
AcDbEntity
  8
Defpoints
 62
     0
100
AcDbPoint
 10
3954.432041612611
 20
1982.066426759113
 30
0.0
  0
ENDBLK
  5
10E3
330
10D8
100
AcDbEntity
  8
0
100
AcDbBlockEnd
  0
BLOCK
  5
10E5
330
10E4
100
AcDbEntity
  8
0
100
AcDbBlockBegin
  2
*D9
 70
     1
 10
0.0
 20
0.0
 30
0.0
  3
*D9
  1

  0
LINE
  5
10E6
330
10E4
100
AcDbEntity
  8
0
100
AcDbLine
 10
3868.103481643629
 20
1843.40573119601
 30
0.0
 11
3924.43204161261
 21
1843.40573119601
 31
0.0
  0
LINE
  5
10E7
330
10E4
100
AcDbEntity
  8
0
100
AcDbLine
 10
3866.069375977153
 20
1851.321079691613
 30
0.0
 11
3924.43204161261
 21
1851.321079691613
 31
0.0
  0
LINE
  5
10E8
330
10E4
100
AcDbEntity
  8
0
100
AcDbLine
 10
3919.432041612611
 20
1833.40573119601
 30
0.0
 11
3919.432041612611
 21
1823.40573119601
 31
0.0
  0
LINE
  5
10E9
330
10E4
100
AcDbEntity
  8
0
100
AcDbLine
 10
3919.432041612611
 20
1861.321079691614
 30
0.0
 11
3919.432041612611
 21
1888.426519584159
 31
0.0
  0
LINE
  5
10EA
330
10E4
100
AcDbEntity
  8
0
100
AcDbLine
 10
3919.432041612611
 20
1843.40573119601
 30
0.0
 11
3919.432041612611
 21
1851.321079691613
 31
0.0
  0
SOLID
  5
10EB
330
10E4
100
AcDbEntity
  8
0
100
AcDbTrace
 10
3917.765374945944
 20
1833.40573119601
 30
0.0
 11
3921.098708279277
 21
1833.40573119601
 31
0.0
 12
3919.432041612611
 22
1843.40573119601
 32
0.0
 13
3919.432041612611
 23
1843.40573119601
 33
0.0
  0
SOLID
  5
10EC
330
10E4
100
AcDbEntity
  8
0
100
AcDbTrace
 10
3917.765374945944
 20
1861.321079691614
 30
0.0
 11
3921.098708279277
 21
1861.321079691614
 31
0.0
 12
3919.432041612611
 22
1851.321079691613
 32
0.0
 13
3919.432041612611
 23
1851.321079691613
 33
0.0
  0
MTEXT
  5
10ED
330
10E4
100
AcDbEntity
  8
0
100
AcDbMText
 10
3909.203700444041
 20
1879.873799637887
 30
0.0
 40
10.0
 41
0.0
 71
     5
 72
     1
  1
8
  7
SANINDUSA
 11
0.0000000000000001
 21
1.0
 31
0.0
 73
     1
 44
1.0
1001
ACAD
1000
MTEXTBEGIN
1070
    73
1070
     1
1070
    44
1040
1.0
1070
    74
1070
     0
1000
MTEXTEND
  0
POINT
  5
10EE
330
10E4
100
AcDbEntity
  8
Defpoints
 62
     0
100
AcDbPoint
 10
3863.10348164363
 20
1843.40573119601
 30
0.0
  0
POINT
  5
10EF
330
10E4
100
AcDbEntity
  8
Defpoints
 62
     0
100
AcDbPoint
 10
3861.069375977153
 20
1851.321079691613
 30
0.0
  0
POINT
  5
10F0
330
10E4
100
AcDbEntity
  8
Defpoints
 62
     0
100
AcDbPoint
 10
3919.432041612611
 20
1851.321079691613
 30
0.0
  0
ENDBLK
  5
10F1
330
10E4
100
AcDbEntity
  8
0
100
AcDbBlockEnd
  0
BLOCK
  5
10F3
330
10F2
100
AcDbEntity
  8
0
100
AcDbBlockBegin
  2
*D10
 70
     1
 10
0.0
 20
0.0
 30
0.0
  3
*D10
  1

  0
LINE
  5
10F4
330
10F2
100
AcDbEntity
  8
0
100
AcDbLine
 10
4121.744541612617
 20
1963.266426759112
 30
0.0
 11
4085.744541612617
 21
1963.266426759112
 31
0.0
  0
LINE
  5
10F5
330
10F2
100
AcDbEntity
  8
0
100
AcDbLine
 10
4121.744541612617
 20
1942.866426759112
 30
0.0
 11
4085.744541612617
 21
1942.866426759112
 31
0.0
  0
LINE
  5
10F6
330
10F2
100
AcDbEntity
  8
0
100
AcDbLine
 10
4090.744541612617
 20
1973.266426759112
 30
0.0
 11
4090.744541612617
 21
1983.266426759112
 31
0.0
  0
LINE
  5
10F7
330
10F2
100
AcDbEntity
  8
0
100
AcDbLine
 10
4090.744541612617
 20
1932.866426759112
 30
0.0
 11
4090.744541612617
 21
1887.580328706728
 31
0.0
  0
LINE
  5
10F8
330
10F2
100
AcDbEntity
  8
0
100
AcDbLine
 10
4090.744541612617
 20
1963.266426759112
 30
0.0
 11
4090.744541612617
 21
1942.866426759112
 31
0.0
  0
SOLID
  5
10F9
330
10F2
100
AcDbEntity
  8
0
100
AcDbTrace
 10
4089.07787494595
 20
1973.266426759112
 30
0.0
 11
4092.411208279283
 21
1973.266426759112
 31
0.0
 12
4090.744541612617
 22
1963.266426759112
 32
0.0
 13
4090.744541612617
 23
1963.266426759112
 33
0.0
  0
SOLID
  5
10FA
330
10F2
100
AcDbEntity
  8
0
100
AcDbTrace
 10
4089.07787494595
 20
1932.866426759112
 30
0.0
 11
4092.411208279283
 21
1932.866426759112
 31
0.0
 12
4090.744541612617
 22
1942.866426759112
 32
0.0
 13
4090.744541612617
 23
1942.866426759112
 33
0.0
  0
MTEXT
  5
10FB
330
10F2
100
AcDbEntity
  8
0
100
AcDbMText
 10
4077.395873602767
 20
1905.223377732921
 30
0.0
 40
10.0
 41
0.0
 71
     5
 72
     1
  1
G {\H0.7x;\S1/2;}"
  7
SANINDUSA
 11
0.0000000000000001
 21
1.0
 31
0.0
 73
     1
 44
1.0
1001
ACAD
1000
MTEXTBEGIN
1070
    73
1070
     1
1070
    44
1040
1.0
1070
    74
1070
     0
1000
MTEXTEND
  0
POINT
  5
10FC
330
10F2
100
AcDbEntity
  8
Defpoints
 62
     0
100
AcDbPoint
 10
4126.744541612617
 20
1963.266426759112
 30
0.0
  0
POINT
  5
10FD
330
10F2
100
AcDbEntity
  8
Defpoints
 62
     0
100
AcDbPoint
 10
4126.744541612617
 20
1942.866426759112
 30
0.0
  0
POINT
  5
10FE
330
10F2
100
AcDbEntity
  8
Defpoints
 62
     0
100
AcDbPoint
 10
4090.744541612617
 20
1942.866426759112
 30
0.0
  0
ENDBLK
  5
10FF
330
10F2
100
AcDbEntity
  8
0
100
AcDbBlockEnd
  0
BLOCK
  5
1101
330
1100
100
AcDbEntity
  8
0
100
AcDbBlockBegin
  2
*D11
 70
     1
 10
0.0
 20
0.0
 30
0.0
  3
*D11
  1

  0
LINE
  5
1102
330
1100
100
AcDbEntity
  8
0
100
AcDbLine
 10
4140.994541612617
 20
1982.066426759113
 30
0.0
 11
4050.744541612617
 21
1982.066426759113
 31
0.0
  0
LINE
  5
1103
330
1100
100
AcDbEntity
  8
0
100
AcDbLine
 10
4140.994541612617
 20
1924.066426759113
 30
0.0
 11
4050.744541612617
 21
1924.066426759113
 31
0.0
  0
LINE
  5
1104
330
1100
100
AcDbEntity
  8
0
100
AcDbLine
 10
4055.744541612617
 20
1972.066426759113
 30
0.0
 11
4055.744541612617
 21
1934.066426759113
 31
0.0
  0
SOLID
  5
1105
330
1100
100
AcDbEntity
  8
0
100
AcDbTrace
 10
4054.077874945951
 20
1972.066426759113
 30
0.0
 11
4057.411208279284
 21
1972.066426759113
 31
0.0
 12
4055.744541612617
 22
1982.066426759113
 32
0.0
 13
4055.744541612617
 23
1982.066426759113
 33
0.0
  0
SOLID
  5
1106
330
1100
100
AcDbEntity
  8
0
100
AcDbTrace
 10
4054.077874945951
 20
1934.066426759113
 30
0.0
 11
4057.411208279284
 21
1934.066426759113
 31
0.0
 12
4055.744541612617
 22
1924.066426759113
 32
0.0
 13
4055.744541612617
 23
1924.066426759113
 33
0.0
  0
MTEXT
  5
1107
102
{ACAD_XDICTIONARY
360
1ADB
102
}
330
1100
100
AcDbEntity
  8
0
100
AcDbMText
 10
4045.133393190858
 20
1953.066426759113
 30
0.0
 40
10.0
 41
0.0
 71
     5
 72
     1
  1
\U+00F858
  7
SANINDUSA
 11
0.0000000000000001
 21
1.0
 31
0.0
 73
     1
 44
1.0
1001
ACAD
1000
MTEXTBEGIN
1070
    73
1070
     1
1070
    44
1040
1.0
1070
    74
1070
     0
1000
MTEXTEND
  0
POINT
  5
1108
330
1100
100
AcDbEntity
  8
Defpoints
 62
     0
100
AcDbPoint
 10
4145.994541612617
 20
1982.066426759113
 30
0.0
  0
POINT
  5
1109
330
1100
100
AcDbEntity
  8
Defpoints
 62
     0
100
AcDbPoint
 10
4145.994541612617
 20
1924.066426759113
 30
0.0
  0
POINT
  5
110A
330
1100
100
AcDbEntity
  8
Defpoints
 62
     0
100
AcDbPoint
 10
4055.744541612617
 20
1924.066426759113
 30
0.0
  0
ENDBLK
  5
110B
330
1100
100
AcDbEntity
  8
0
100
AcDbBlockEnd
  0
BLOCK
  5
110D
330
110C
100
AcDbEntity
  8
0
100
AcDbBlockBegin
  2
*D12
 70
     1
 10
0.0
 20
0.0
 30
0.0
  3
*D12
  1

  0
LINE
  5
110E
330
110C
100
AcDbEntity
  8
0
100
AcDbLine
 10
3793.45348166458
 20
1767.901947159165
 30
0.0
 11
3924.43204161261
 21
1767.901947159165
 31
0.0
  0
LINE
  5
110F
330
110C
100
AcDbEntity
  8
0
100
AcDbLine
 10
3874.43204161261
 20
1303.151947159165
 30
0.0
 11
3924.43204161261
 21
1303.151947159165
 31
0.0
  0
LINE
  5
1110
330
110C
100
AcDbEntity
  8
0
100
AcDbLine
 10
3919.432041612611
 20
1757.901947159164
 30
0.0
 11
3919.432041612611
 21
1313.151947159165
 31
0.0
  0
SOLID
  5
1111
330
110C
100
AcDbEntity
  8
0
100
AcDbTrace
 10
3917.765374945944
 20
1757.901947159164
 30
0.0
 11
3921.098708279277
 21
1757.901947159164
 31
0.0
 12
3919.432041612611
 22
1767.901947159165
 32
0.0
 13
3919.432041612611
 23
1767.901947159165
 33
0.0
  0
SOLID
  5
1112
330
110C
100
AcDbEntity
  8
0
100
AcDbTrace
 10
3917.765374945944
 20
1313.151947159165
 30
0.0
 11
3921.098708279277
 21
1313.151947159165
 31
0.0
 12
3919.432041612611
 22
1303.151947159165
 32
0.0
 13
3919.432041612611
 23
1303.151947159165
 33
0.0
  0
MTEXT
  5
1113
330
110C
100
AcDbEntity
  8
0
100
AcDbMText
 10
3909.233922069292
 20
1535.526947159165
 30
0.0
 40
10.0
 41
0.0
 71
     5
 72
     1
  1
465
  7
SANINDUSA
 11
0.0000000000000001
 21
1.0
 31
0.0
 73
     1
 44
1.0
1001
ACAD
1000
MTEXTBEGIN
1070
    73
1070
     1
1070
    44
1040
1.0
1070
    74
1070
     0
1000
MTEXTEND
  0
POINT
  5
1114
330
110C
100
AcDbEntity
  8
Defpoints
 62
     0
100
AcDbPoint
 10
3788.453481664579
 20
1767.901947159165
 30
0.0
  0
POINT
  5
1115
330
110C
100
AcDbEntity
  8
Defpoints
 62
     0
100
AcDbPoint
 10
3869.43204161261
 20
1303.151947159165
 30
0.0
  0
POINT
  5
1116
330
110C
100
AcDbEntity
  8
Defpoints
 62
     0
100
AcDbPoint
 10
3919.432041612611
 20
1303.151947159165
 30
0.0
  0
ENDBLK
  5
1117
330
110C
100
AcDbEntity
  8
0
100
AcDbBlockEnd
  0
BLOCK
  5
1119
330
1118
100
AcDbEntity
  8
0
100
AcDbBlockBegin
  2
*D13
 70
     1
 10
0.0
 20
0.0
 30
0.0
  3
*D13
  1

  0
LINE
  5
111A
330
1118
100
AcDbEntity
  8
0
100
AcDbLine
 10
4360.744541612617
 20
1841.571079501624
 30
0.0
 11
4360.744541612617
 21
1803.40573119601
 31
0.0
  0
LINE
  5
111B
330
1118
100
AcDbEntity
  8
0
100
AcDbLine
 10
4610.744541612617
 20
1841.571079501624
 30
0.0
 11
4610.744541612617
 21
1803.40573119601
 31
0.0
  0
LINE
  5
111C
330
1118
100
AcDbEntity
  8
0
100
AcDbLine
 10
4370.744541612618
 20
1808.40573119601
 30
0.0
 11
4600.744541612617
 21
1808.40573119601
 31
0.0
  0
SOLID
  5
111D
330
1118
100
AcDbEntity
  8
0
100
AcDbTrace
 10
4370.744541612618
 20
1810.072397862677
 30
0.0
 11
4370.744541612618
 21
1806.739064529343
 31
0.0
 12
4360.744541612617
 22
1808.40573119601
 32
0.0
 13
4360.744541612617
 23
1808.40573119601
 33
0.0
  0
SOLID
  5
111E
330
1118
100
AcDbEntity
  8
0
100
AcDbTrace
 10
4600.744541612617
 20
1810.072397862677
 30
0.0
 11
4600.744541612617
 21
1806.739064529343
 31
0.0
 12
4610.744541612617
 22
1808.40573119601
 32
0.0
 13
4610.744541612617
 23
1808.40573119601
 33
0.0
  0
MTEXT
  5
111F
330
1118
100
AcDbEntity
  8
0
100
AcDbMText
 10
4485.744541612617
 20
1818.613924614411
 30
0.0
 40
10.0
 41
0.0
 71
     5
 72
     1
  1
250
  7
SANINDUSA
 73
     1
 44
1.0
1001
ACAD
1000
MTEXTBEGIN
1070
    73
1070
     1
1070
    44
1040
1.0
1070
    74
1070
     0
1000
MTEXTEND
  0
POINT
  5
1120
330
1118
100
AcDbEntity
  8
Defpoints
 62
     0
100
AcDbPoint
 10
4360.744541612617
 20
1846.571079501624
 30
0.0
  0
POINT
  5
1121
330
1118
100
AcDbEntity
  8
Defpoints
 62
     0
100
AcDbPoint
 10
4610.744541612617
 20
1846.571079501624
 30
0.0
  0
POINT
  5
1122
330
1118
100
AcDbEntity
  8
Defpoints
 62
     0
100
AcDbPoint
 10
4610.744541612617
 20
1808.40573119601
 30
0.0
  0
ENDBLK
  5
1123
330
1118
100
AcDbEntity
  8
0
100
AcDbBlockEnd
  0
BLOCK
  5
1125
330
1124
100
AcDbEntity
  8
0
100
AcDbBlockBegin
  2
*D14
 70
     1
 10
0.0
 20
0.0
 30
0.0
  3
*D14
  1

  0
LINE
  5
1126
330
1124
100
AcDbEntity
  8
0
100
AcDbLine
 10
3773.65348166458
 20
1788.151947159164
 30
0.0
 11
3959.43204161261
 21
1788.151947159164
 31
0.0
  0
LINE
  5
1127
330
1124
100
AcDbEntity
  8
0
100
AcDbLine
 10
3874.43204161261
 20
1303.151947159165
 30
0.0
 11
3959.43204161261
 21
1303.151947159165
 31
0.0
  0
LINE
  5
1128
330
1124
100
AcDbEntity
  8
0
100
AcDbLine
 10
3954.432041612611
 20
1778.151947159164
 30
0.0
 11
3954.432041612611
 21
1313.151947159165
 31
0.0
  0
SOLID
  5
1129
330
1124
100
AcDbEntity
  8
0
100
AcDbTrace
 10
3952.765374945944
 20
1778.151947159164
 30
0.0
 11
3956.098708279277
 21
1778.151947159164
 31
0.0
 12
3954.432041612611
 22
1788.151947159164
 32
0.0
 13
3954.432041612611
 23
1788.151947159164
 33
0.0
  0
SOLID
  5
112A
330
1124
100
AcDbEntity
  8
0
100
AcDbTrace
 10
3952.765374945944
 20
1313.151947159165
 30
0.0
 11
3956.098708279277
 21
1313.151947159165
 31
0.0
 12
3954.432041612611
 22
1303.151947159165
 32
0.0
 13
3954.432041612611
 23
1303.151947159165
 33
0.0
  0
MTEXT
  5
112B
330
1124
100
AcDbEntity
  8
0
100
AcDbMText
 10
3944.20370044404
 20
1545.651947159165
 30
0.0
 40
10.0
 41
0.0
 71
     5
 72
     1
  1
485
  7
SANINDUSA
 11
0.0000000000000001
 21
1.0
 31
0.0
 73
     1
 44
1.0
1001
ACAD
1000
MTEXTBEGIN
1070
    73
1070
     1
1070
    44
1040
1.0
1070
    74
1070
     0
1000
MTEXTEND
  0
POINT
  5
112C
330
1124
100
AcDbEntity
  8
Defpoints
 62
     0
100
AcDbPoint
 10
3768.65348166458
 20
1788.151947159164
 30
0.0
  0
POINT
  5
112D
330
1124
100
AcDbEntity
  8
Defpoints
 62
     0
100
AcDbPoint
 10
3869.43204161261
 20
1303.151947159165
 30
0.0
  0
POINT
  5
112E
330
1124
100
AcDbEntity
  8
Defpoints
 62
     0
100
AcDbPoint
 10
3954.432041612611
 20
1303.151947159165
 30
0.0
  0
ENDBLK
  5
112F
330
1124
100
AcDbEntity
  8
0
100
AcDbBlockEnd
  0
BLOCK
  5
1131
330
1130
100
AcDbEntity
  8
0
100
AcDbBlockBegin
  2
*D15
 70
     1
 10
0.0
 20
0.0
 30
0.0
  3
*D15
  1

  0
LINE
  5
1132
330
1130
100
AcDbEntity
  8
0
100
AcDbLine
 10
4355.994541612617
 20
1846.321079501624
 30
0.0
 11
4320.744541612618
 21
1846.321079501624
 31
0.0
  0
LINE
  5
1133
330
1130
100
AcDbEntity
  8
0
100
AcDbLine
 10
4379.107207248071
 20
1851.321079691613
 30
0.0
 11
4320.744541612618
 21
1851.321079691613
 31
0.0
  0
LINE
  5
1134
330
1130
100
AcDbEntity
  8
0
100
AcDbLine
 10
4325.744541612617
 20
1836.321079501624
 30
0.0
 11
4325.744541612617
 21
1826.321079501624
 31
0.0
  0
LINE
  5
1135
330
1130
100
AcDbEntity
  8
0
100
AcDbLine
 10
4325.744541612617
 20
1861.321079691614
 30
0.0
 11
4325.744541612617
 21
1887.835518912567
 31
0.0
  0
LINE
  5
1136
330
1130
100
AcDbEntity
  8
0
100
AcDbLine
 10
4325.744541612617
 20
1846.321079501624
 30
0.0
 11
4325.744541612617
 21
1851.321079691613
 31
0.0
  0
SOLID
  5
1137
330
1130
100
AcDbEntity
  8
0
100
AcDbTrace
 10
4324.077874945951
 20
1836.321079501624
 30
0.0
 11
4327.411208279285
 21
1836.321079501624
 31
0.0
 12
4325.744541612617
 22
1846.321079501624
 32
0.0
 13
4325.744541612617
 23
1846.321079501624
 33
0.0
  0
SOLID
  5
1138
330
1130
100
AcDbEntity
  8
0
100
AcDbTrace
 10
4324.077874945951
 20
1861.321079691614
 30
0.0
 11
4327.411208279285
 21
1861.321079691614
 31
0.0
 12
4325.744541612617
 22
1851.321079691613
 32
0.0
 13
4325.744541612617
 23
1851.321079691613
 33
0.0
  0
MTEXT
  5
1139
330
1130
100
AcDbEntity
  8
0
100
AcDbMText
 10
4315.640444903416
 20
1879.578299302091
 30
0.0
 40
10.0
 41
0.0
 71
     5
 72
     1
  1
5
  7
SANINDUSA
 11
0.0000000000000001
 21
1.0
 31
0.0
 73
     1
 44
1.0
1001
ACAD
1000
MTEXTBEGIN
1070
    73
1070
     1
1070
    44
1040
1.0
1070
    74
1070
     0
1000
MTEXTEND
  0
POINT
  5
113A
330
1130
100
AcDbEntity
  8
Defpoints
 62
     0
100
AcDbPoint
 10
4360.994541612617
 20
1846.321079501624
 30
0.0
  0
POINT
  5
113B
330
1130
100
AcDbEntity
  8
Defpoints
 62
     0
100
AcDbPoint
 10
4384.107207248071
 20
1851.321079691613
 30
0.0
  0
POINT
  5
113C
330
1130
100
AcDbEntity
  8
Defpoints
 62
     0
100
AcDbPoint
 10
4325.744541612617
 20
1851.321079691613
 30
0.0
  0
ENDBLK
  5
113D
330
1130
100
AcDbEntity
  8
0
100
AcDbBlockEnd
  0
BLOCK
  5
113F
330
113E
100
AcDbEntity
  8
0
100
AcDbBlockBegin
  2
*D16
 70
     1
 10
0.0
 20
0.0
 30
0.0
  3
*D16
  1

  0
LINE
  5
1140
330
113E
100
AcDbEntity
  8
0
100
AcDbLine
 10
4145.994541612617
 20
1919.066426759113
 30
0.0
 11
4145.994541612617
 21
1884.066426759113
 31
0.0
  0
LINE
  5
1141
330
113E
100
AcDbEntity
  8
0
100
AcDbLine
 10
4153.994541612617
 20
1919.316426759113
 30
0.0
 11
4153.994541612617
 21
1884.066426759113
 31
0.0
  0
LINE
  5
1142
330
113E
100
AcDbEntity
  8
0
100
AcDbLine
 10
4135.994541612617
 20
1889.066426759113
 30
0.0
 11
4125.994541612618
 21
1889.066426759113
 31
0.0
  0
LINE
  5
1143
330
113E
100
AcDbEntity
  8
0
100
AcDbLine
 10
4163.994541612617
 20
1889.066426759113
 30
0.0
 11
4191.099981505163
 21
1889.066426759113
 31
0.0
  0
LINE
  5
1144
330
113E
100
AcDbEntity
  8
0
100
AcDbLine
 10
4145.994541612617
 20
1889.066426759113
 30
0.0
 11
4153.994541612617
 21
1889.066426759113
 31
0.0
  0
SOLID
  5
1145
330
113E
100
AcDbEntity
  8
0
100
AcDbTrace
 10
4135.994541612617
 20
1890.733093425779
 30
0.0
 11
4135.994541612617
 21
1887.399760092446
 31
0.0
 12
4145.994541612617
 22
1889.066426759113
 32
0.0
 13
4145.994541612617
 23
1889.066426759113
 33
0.0
  0
SOLID
  5
1146
330
113E
100
AcDbEntity
  8
0
100
AcDbTrace
 10
4163.994541612617
 20
1890.733093425779
 30
0.0
 11
4163.994541612617
 21
1887.399760092446
 31
0.0
 12
4153.994541612617
 22
1889.066426759113
 32
0.0
 13
4153.994541612617
 23
1889.066426759113
 33
0.0
  0
MTEXT
  5
1147
330
113E
100
AcDbEntity
  8
0
100
AcDbMText
 10
4182.54726155889
 20
1899.294767927682
 30
0.0
 40
10.0
 41
0.0
 71
     5
 72
     1
  1
8
  7
SANINDUSA
 73
     1
 44
1.0
1001
ACAD
1000
MTEXTBEGIN
1070
    73
1070
     1
1070
    44
1040
1.0
1070
    74
1070
     0
1000
MTEXTEND
  0
POINT
  5
1148
330
113E
100
AcDbEntity
  8
Defpoints
 62
     0
100
AcDbPoint
 10
4145.994541612617
 20
1924.066426759113
 30
0.0
  0
POINT
  5
1149
330
113E
100
AcDbEntity
  8
Defpoints
 62
     0
100
AcDbPoint
 10
4153.994541612617
 20
1924.316426759113
 30
0.0
  0
POINT
  5
114A
330
113E
100
AcDbEntity
  8
Defpoints
 62
     0
100
AcDbPoint
 10
4153.994541612617
 20
1889.066426759113
 30
0.0
  0
ENDBLK
  5
114B
330
113E
100
AcDbEntity
  8
0
100
AcDbBlockEnd
  0
BLOCK
  5
1906
330
1905
100
AcDbEntity
  8
0
100
AcDbBlockBegin
  2
*D18
 70
     1
 10
0.0
 20
0.0
 30
0.0
  3
*D18
  1

  0
LINE
  5
1908
330
1905
100
AcDbEntity
  8
0
100
AcDbLine
 10
4167.092066973299
 20
1895.607594632546
 30
0.0
 11
4167.092066973299
 21
1857.442246326932
 31
0.0
  0
LINE
  5
1909
330
1905
100
AcDbEntity
  8
0
100
AcDbLine
 10
3917.092066973311
 20
1895.607594632546
 30
0.0
 11
3917.092066973311
 21
1857.442246326932
 31
0.0
  0
LINE
  5
190A
330
1905
100
AcDbEntity
  8
0
100
AcDbLine
 10
4165.0920669733
 20
1858.442246326932
 30
0.0
 11
3919.092066973311
 21
1858.442246326932
 31
0.0
  0
SOLID
  5
190B
330
1905
100
AcDbEntity
  8
0
100
AcDbTrace
 10
4165.0920669733
 20
1858.775579660266
 30
0.0
 11
4165.0920669733
 21
1858.108912993599
 31
0.0
 12
4167.092066973299
 22
1858.442246326932
 32
0.0
 13
4167.092066973299
 23
1858.442246326932
 33
0.0
  0
SOLID
  5
190C
330
1905
100
AcDbEntity
  8
0
100
AcDbTrace
 10
3919.092066973311
 20
1858.775579660266
 30
0.0
 11
3919.092066973311
 21
1858.108912993599
 31
0.0
 12
3917.092066973311
 22
1858.442246326932
 32
0.0
 13
3917.092066973311
 23
1858.442246326932
 33
0.0
  0
MTEXT
  5
190D
330
1905
100
AcDbEntity
  8
0
100
AcDbMText
 10
4042.092066973305
 20
1860.483885010612
 30
0.0
 40
2.0
 41
0.0
 71
     5
 72
     1
  1
250
  7
SANINDUSA
 73
     1
 44
1.0
1001
ACAD
1000
MTEXTBEGIN
1070
    73
1070
     1
1070
    44
1040
1.0
1070
    74
1070
     0
1000
MTEXTEND
  0
POINT
  5
190E
330
1905
100
AcDbEntity
  8
Defpoints
 62
     0
100
AcDbPoint
 10
4167.092066973299
 20
1896.607594632546
 30
0.0
  0
POINT
  5
190F
330
1905
100
AcDbEntity
  8
Defpoints
 62
     0
100
AcDbPoint
 10
3917.092066973311
 20
1896.607594632546
 30
0.0
  0
POINT
  5
1910
330
1905
100
AcDbEntity
  8
Defpoints
 62
     0
100
AcDbPoint
 10
3917.092066973311
 20
1858.442246326932
 30
0.0
  0
ENDBLK
  5
1907
330
1905
100
AcDbEntity
  8
0
100
AcDbBlockEnd
  0
BLOCK
  5
1912
330
1911
100
AcDbEntity
  8
0
100
AcDbBlockBegin
  2
*D19
 70
     1
 10
0.0
 20
0.0
 30
0.0
  3
*D19
  1

  0
LINE
  5
1914
330
1911
100
AcDbEntity
  8
0
100
AcDbLine
 10
4146.763507004318
 20
1893.442246326932
 30
0.0
 11
4238.092066973299
 21
1893.442246326932
 31
0.0
  0
LINE
  5
1915
330
1911
100
AcDbEntity
  8
0
100
AcDbLine
 10
4043.113507025268
 20
2032.102941890035
 30
0.0
 11
4238.092066973299
 21
2032.102941890035
 31
0.0
  0
LINE
  5
1916
330
1911
100
AcDbEntity
  8
0
100
AcDbLine
 10
4237.092066973299
 20
1895.442246326932
 30
0.0
 11
4237.092066973299
 21
2030.102941890035
 31
0.0
  0
SOLID
  5
1917
330
1911
100
AcDbEntity
  8
0
100
AcDbTrace
 10
4236.758733639966
 20
1895.442246326932
 30
0.0
 11
4237.425400306633
 21
1895.442246326932
 31
0.0
 12
4237.092066973299
 22
1893.442246326932
 32
0.0
 13
4237.092066973299
 23
1893.442246326932
 33
0.0
  0
SOLID
  5
1918
330
1911
100
AcDbEntity
  8
0
100
AcDbTrace
 10
4236.758733639966
 20
2030.102941890035
 30
0.0
 11
4237.425400306633
 21
2030.102941890035
 31
0.0
 12
4237.092066973299
 22
2032.102941890035
 32
0.0
 13
4237.092066973299
 23
2032.102941890035
 33
0.0
  0
MTEXT
  5
1919
330
1911
100
AcDbEntity
  8
0
100
AcDbMText
 10
4234.820743937706
 20
1962.772594108484
 30
0.0
 40
2.0
 41
0.0
 71
     5
 72
     1
  1
138,7
  7
SANINDUSA
 11
0.0000000000000001
 21
1.0
 31
0.0
 73
     1
 44
1.0
1001
ACAD
1000
MTEXTBEGIN
1070
    73
1070
     1
1070
    44
1040
1.0
1070
    74
1070
     0
1000
MTEXTEND
  0
POINT
  5
191A
330
1911
100
AcDbEntity
  8
Defpoints
 62
     0
100
AcDbPoint
 10
4145.763507004319
 20
1893.442246326932
 30
0.0
  0
POINT
  5
191B
330
1911
100
AcDbEntity
  8
Defpoints
 62
     0
100
AcDbPoint
 10
4042.113507025269
 20
2032.102941890035
 30
0.0
  0
POINT
  5
191C
330
1911
100
AcDbEntity
  8
Defpoints
 62
     0
100
AcDbPoint
 10
4237.092066973299
 20
2032.102941890035
 30
0.0
  0
ENDBLK
  5
1913
330
1911
100
AcDbEntity
  8
0
100
AcDbBlockEnd
  0
BLOCK
  5
191E
330
191D
100
AcDbEntity
  8
0
100
AcDbBlockBegin
  2
*D20
 70
     1
 10
0.0
 20
0.0
 30
0.0
  3
*D20
  1

  0
LINE
  5
1920
330
191D
100
AcDbEntity
  8
0
100
AcDbLine
 10
4146.763507004318
 20
1893.442246326932
 30
0.0
 11
4203.0920669733
 21
1893.442246326932
 31
0.0
  0
LINE
  5
1921
330
191D
100
AcDbEntity
  8
0
100
AcDbLine
 10
4144.729401337842
 20
1901.357594822536
 30
0.0
 11
4203.0920669733
 21
1901.357594822536
 31
0.0
  0
LINE
  5
1922
330
191D
100
AcDbEntity
  8
0
100
AcDbLine
 10
4202.092066973299
 20
1895.442246326932
 30
0.0
 11
4202.092066973299
 21
1899.357594822536
 31
0.0
  0
SOLID
  5
1923
330
191D
100
AcDbEntity
  8
0
100
AcDbTrace
 10
4201.758733639966
 20
1895.442246326932
 30
0.0
 11
4202.425400306633
 21
1895.442246326932
 31
0.0
 12
4202.092066973299
 22
1893.442246326932
 32
0.0
 13
4202.092066973299
 23
1893.442246326932
 33
0.0
  0
SOLID
  5
1924
330
191D
100
AcDbEntity
  8
0
100
AcDbTrace
 10
4201.758733639966
 20
1899.357594822536
 30
0.0
 11
4202.425400306633
 21
1899.357594822536
 31
0.0
 12
4202.092066973299
 22
1901.357594822536
 32
0.0
 13
4202.092066973299
 23
1901.357594822536
 33
0.0
  0
MTEXT
  5
1925
330
191D
100
AcDbEntity
  8
0
100
AcDbMText
 10
4199.823430304394
 20
1897.399920574734
 30
0.0
 40
2.0
 41
0.0
 71
     5
 72
     1
  1
7,9
  7
SANINDUSA
 11
0.0000000000000001
 21
1.0
 31
0.0
 73
     1
 44
1.0
1001
ACAD
1000
MTEXTBEGIN
1070
    73
1070
     1
1070
    44
1040
1.0
1070
    74
1070
     0
1000
MTEXTEND
  0
POINT
  5
1926
330
191D
100
AcDbEntity
  8
Defpoints
 62
     0
100
AcDbPoint
 10
4145.763507004319
 20
1893.442246326932
 30
0.0
  0
POINT
  5
1927
330
191D
100
AcDbEntity
  8
Defpoints
 62
     0
100
AcDbPoint
 10
4143.729401337842
 20
1901.357594822536
 30
0.0
  0
POINT
  5
1928
330
191D
100
AcDbEntity
  8
Defpoints
 62
     0
100
AcDbPoint
 10
4202.092066973299
 20
1901.357594822536
 30
0.0
  0
ENDBLK
  5
191F
330
191D
100
AcDbEntity
  8
0
100
AcDbBlockEnd
  0
BLOCK
  5
192A
330
1929
100
AcDbEntity
  8
0
100
AcDbBlockBegin
  2
*D21
 70
     1
 10
0.0
 20
0.0
 30
0.0
  3
*D21
  1

  0
LINE
  5
192C
330
1929
100
AcDbEntity
  8
0
100
AcDbLine
 10
4408.404566973307
 20
2013.302941890034
 30
0.0
 11
4372.404566973306
 21
2013.302941890034
 31
0.0
  0
LINE
  5
192D
330
1929
100
AcDbEntity
  8
0
100
AcDbLine
 10
4408.404566973307
 20
1992.902941890034
 30
0.0
 11
4372.404566973306
 21
1992.902941890034
 31
0.0
  0
LINE
  5
192E
330
1929
100
AcDbEntity
  8
0
100
AcDbLine
 10
4373.404566973307
 20
2011.302941890034
 30
0.0
 11
4373.404566973307
 21
1994.902941890034
 31
0.0
  0
SOLID
  5
192F
330
1929
100
AcDbEntity
  8
0
100
AcDbTrace
 10
4373.071233639974
 20
2011.302941890034
 30
0.0
 11
4373.73790030664
 21
2011.302941890034
 31
0.0
 12
4373.404566973307
 22
2013.302941890034
 32
0.0
 13
4373.404566973307
 23
2013.302941890034
 33
0.0
  0
SOLID
  5
1930
330
1929
100
AcDbEntity
  8
0
100
AcDbTrace
 10
4373.071233639974
 20
1994.902941890034
 30
0.0
 11
4373.73790030664
 21
1994.902941890034
 31
0.0
 12
4373.404566973307
 22
1992.902941890034
 32
0.0
 13
4373.404566973307
 23
1992.902941890034
 33
0.0
  0
MTEXT
  5
1931
330
1929
100
AcDbEntity
  8
0
100
AcDbMText
 10
4370.734833371336
 20
2003.102941890035
 30
0.0
 40
2.0
 41
0.0
 71
     5
 72
     1
  1
G {\H0.7x;\S1/2;}"
  7
SANINDUSA
 11
0.0000000000000001
 21
1.0
 31
0.0
 73
     1
 44
1.0
1001
ACAD
1000
MTEXTBEGIN
1070
    73
1070
     1
1070
    44
1040
1.0
1070
    74
1070
     0
1000
MTEXTEND
  0
POINT
  5
1932
330
1929
100
AcDbEntity
  8
Defpoints
 62
     0
100
AcDbPoint
 10
4409.404566973306
 20
2013.302941890034
 30
0.0
  0
POINT
  5
1933
330
1929
100
AcDbEntity
  8
Defpoints
 62
     0
100
AcDbPoint
 10
4409.404566973306
 20
1992.902941890034
 30
0.0
  0
POINT
  5
1934
330
1929
100
AcDbEntity
  8
Defpoints
 62
     0
100
AcDbPoint
 10
4373.404566973307
 20
1992.902941890034
 30
0.0
  0
ENDBLK
  5
192B
330
1929
100
AcDbEntity
  8
0
100
AcDbBlockEnd
  0
BLOCK
  5
1936
330
1935
100
AcDbEntity
  8
0
100
AcDbBlockBegin
  2
*D22
 70
     1
 10
0.0
 20
0.0
 30
0.0
  3
*D22
  1

  0
LINE
  5
1938
330
1935
100
AcDbEntity
  8
0
100
AcDbLine
 10
4427.654566973306
 20
2032.102941890035
 30
0.0
 11
4337.404566973307
 21
2032.102941890035
 31
0.0
  0
LINE
  5
1939
330
1935
100
AcDbEntity
  8
0
100
AcDbLine
 10
4427.654566973306
 20
1974.102941890035
 30
0.0
 11
4337.404566973307
 21
1974.102941890035
 31
0.0
  0
LINE
  5
193A
330
1935
100
AcDbEntity
  8
0
100
AcDbLine
 10
4338.404566973307
 20
2030.102941890035
 30
0.0
 11
4338.404566973307
 21
1976.102941890035
 31
0.0
  0
SOLID
  5
193B
330
1935
100
AcDbEntity
  8
0
100
AcDbTrace
 10
4338.071233639974
 20
2030.102941890035
 30
0.0
 11
4338.737900306639
 21
2030.102941890035
 31
0.0
 12
4338.404566973307
 22
2032.102941890035
 32
0.0
 13
4338.404566973307
 23
2032.102941890035
 33
0.0
  0
SOLID
  5
193C
330
1935
100
AcDbEntity
  8
0
100
AcDbTrace
 10
4338.071233639974
 20
1976.102941890035
 30
0.0
 11
4338.737900306639
 21
1976.102941890035
 31
0.0
 12
4338.404566973307
 22
1974.102941890035
 32
0.0
 13
4338.404566973307
 23
1974.102941890035
 33
0.0
  0
MTEXT
  5
193D
102
{ACAD_XDICTIONARY
360
1ADD
102
}
330
1935
100
AcDbEntity
  8
0
100
AcDbMText
 10
4336.282337288955
 20
2003.102941890036
 30
0.0
 40
2.0
 41
0.0
 71
     5
 72
     1
  1
\U+00F858
  7
SANINDUSA
 11
0.0000000000000001
 21
1.0
 31
0.0
 73
     1
 44
1.0
1001
ACAD
1000
MTEXTBEGIN
1070
    73
1070
     1
1070
    44
1040
1.0
1070
    74
1070
     0
1000
MTEXTEND
  0
POINT
  5
193E
330
1935
100
AcDbEntity
  8
Defpoints
 62
     0
100
AcDbPoint
 10
4428.654566973306
 20
2032.102941890035
 30
0.0
  0
POINT
  5
193F
330
1935
100
AcDbEntity
  8
Defpoints
 62
     0
100
AcDbPoint
 10
4428.654566973306
 20
1974.102941890035
 30
0.0
  0
POINT
  5
1940
330
1935
100
AcDbEntity
  8
Defpoints
 62
     0
100
AcDbPoint
 10
4338.404566973307
 20
1974.102941890035
 30
0.0
  0
ENDBLK
  5
1937
330
1935
100
AcDbEntity
  8
0
100
AcDbBlockEnd
  0
BLOCK
  5
1942
330
1941
100
AcDbEntity
  8
0
100
AcDbBlockBegin
  2
*D23
 70
     1
 10
0.0
 20
0.0
 30
0.0
  3
*D23
  1

  0
LINE
  5
1944
330
1941
100
AcDbEntity
  8
0
100
AcDbLine
 10
4072.113507025268
 20
1817.938462290087
 30
0.0
 11
4203.0920669733
 21
1817.938462290087
 31
0.0
  0
LINE
  5
1945
330
1941
100
AcDbEntity
  8
0
100
AcDbLine
 10
4153.092066973299
 20
1353.188462290087
 30
0.0
 11
4203.0920669733
 21
1353.188462290087
 31
0.0
  0
LINE
  5
1946
330
1941
100
AcDbEntity
  8
0
100
AcDbLine
 10
4202.092066973299
 20
1815.938462290087
 30
0.0
 11
4202.092066973299
 21
1355.188462290087
 31
0.0
  0
SOLID
  5
1947
330
1941
100
AcDbEntity
  8
0
100
AcDbTrace
 10
4201.758733639966
 20
1815.938462290087
 30
0.0
 11
4202.425400306633
 21
1815.938462290087
 31
0.0
 12
4202.092066973299
 22
1817.938462290087
 32
0.0
 13
4202.092066973299
 23
1817.938462290087
 33
0.0
  0
SOLID
  5
1948
330
1941
100
AcDbEntity
  8
0
100
AcDbTrace
 10
4201.758733639966
 20
1355.188462290087
 30
0.0
 11
4202.425400306633
 21
1355.188462290087
 31
0.0
 12
4202.092066973299
 22
1353.188462290087
 32
0.0
 13
4202.092066973299
 23
1353.188462290087
 33
0.0
  0
MTEXT
  5
1949
330
1941
100
AcDbEntity
  8
0
100
AcDbMText
 10
4199.820743937705
 20
1585.563462290087
 30
0.0
 40
2.0
 41
0.0
 71
     5
 72
     1
  1
464,8
  7
SANINDUSA
 11
0.0000000000000001
 21
1.0
 31
0.0
 73
     1
 44
1.0
1001
ACAD
1000
MTEXTBEGIN
1070
    73
1070
     1
1070
    44
1040
1.0
1070
    74
1070
     0
1000
MTEXTEND
  0
POINT
  5
194A
330
1941
100
AcDbEntity
  8
Defpoints
 62
     0
100
AcDbPoint
 10
4071.113507025269
 20
1817.938462290087
 30
0.0
  0
POINT
  5
194B
330
1941
100
AcDbEntity
  8
Defpoints
 62
     0
100
AcDbPoint
 10
4152.092066973299
 20
1353.188462290087
 30
0.0
  0
POINT
  5
194C
330
1941
100
AcDbEntity
  8
Defpoints
 62
     0
100
AcDbPoint
 10
4202.092066973299
 20
1353.188462290087
 30
0.0
  0
ENDBLK
  5
1943
330
1941
100
AcDbEntity
  8
0
100
AcDbBlockEnd
  0
BLOCK
  5
194E
330
194D
100
AcDbEntity
  8
0
100
AcDbBlockBegin
  2
*D24
 70
     1
 10
0.0
 20
0.0
 30
0.0
  3
*D24
  1

  0
LINE
  5
1950
330
194D
100
AcDbEntity
  8
0
100
AcDbLine
 10
4643.404566973306
 20
1895.607594632546
 30
0.0
 11
4643.404566973306
 21
1857.442246326932
 31
0.0
  0
LINE
  5
1951
330
194D
100
AcDbEntity
  8
0
100
AcDbLine
 10
4893.404566973306
 20
1895.607594632546
 30
0.0
 11
4893.404566973306
 21
1857.442246326932
 31
0.0
  0
LINE
  5
1952
330
194D
100
AcDbEntity
  8
0
100
AcDbLine
 10
4645.404566973307
 20
1858.442246326932
 30
0.0
 11
4891.404566973307
 21
1858.442246326932
 31
0.0
  0
SOLID
  5
1953
330
194D
100
AcDbEntity
  8
0
100
AcDbTrace
 10
4645.404566973307
 20
1858.775579660266
 30
0.0
 11
4645.404566973307
 21
1858.108912993599
 31
0.0
 12
4643.404566973306
 22
1858.442246326932
 32
0.0
 13
4643.404566973306
 23
1858.442246326932
 33
0.0
  0
SOLID
  5
1954
330
194D
100
AcDbEntity
  8
0
100
AcDbTrace
 10
4891.404566973307
 20
1858.775579660266
 30
0.0
 11
4891.404566973307
 21
1858.108912993599
 31
0.0
 12
4893.404566973306
 22
1858.442246326932
 32
0.0
 13
4893.404566973306
 23
1858.442246326932
 33
0.0
  0
MTEXT
  5
1955
330
194D
100
AcDbEntity
  8
0
100
AcDbMText
 10
4768.404566973306
 20
1860.483885010612
 30
0.0
 40
2.0
 41
0.0
 71
     5
 72
     1
  1
250
  7
SANINDUSA
 73
     1
 44
1.0
1001
ACAD
1000
MTEXTBEGIN
1070
    73
1070
     1
1070
    44
1040
1.0
1070
    74
1070
     0
1000
MTEXTEND
  0
POINT
  5
1956
330
194D
100
AcDbEntity
  8
Defpoints
 62
     0
100
AcDbPoint
 10
4643.404566973306
 20
1896.607594632546
 30
0.0
  0
POINT
  5
1957
330
194D
100
AcDbEntity
  8
Defpoints
 62
     0
100
AcDbPoint
 10
4893.404566973306
 20
1896.607594632546
 30
0.0
  0
POINT
  5
1958
330
194D
100
AcDbEntity
  8
Defpoints
 62
     0
100
AcDbPoint
 10
4893.404566973306
 20
1858.442246326932
 30
0.0
  0
ENDBLK
  5
194F
330
194D
100
AcDbEntity
  8
0
100
AcDbBlockEnd
  0
BLOCK
  5
195A
330
1959
100
AcDbEntity
  8
0
100
AcDbBlockBegin
  2
*D25
 70
     1
 10
0.0
 20
0.0
 30
0.0
  3
*D25
  1

  0
LINE
  5
195C
330
1959
100
AcDbEntity
  8
0
100
AcDbLine
 10
4052.313507025269
 20
1838.188462290087
 30
0.0
 11
4238.092066973299
 21
1838.188462290087
 31
0.0
  0
LINE
  5
195D
330
1959
100
AcDbEntity
  8
0
100
AcDbLine
 10
4153.092066973299
 20
1353.188462290087
 30
0.0
 11
4238.092066973299
 21
1353.188462290087
 31
0.0
  0
LINE
  5
195E
330
1959
100
AcDbEntity
  8
0
100
AcDbLine
 10
4237.092066973299
 20
1836.188462290087
 30
0.0
 11
4237.092066973299
 21
1355.188462290087
 31
0.0
  0
SOLID
  5
195F
330
1959
100
AcDbEntity
  8
0
100
AcDbTrace
 10
4236.758733639966
 20
1836.188462290087
 30
0.0
 11
4237.425400306633
 21
1836.188462290087
 31
0.0
 12
4237.092066973299
 22
1838.188462290087
 32
0.0
 13
4237.092066973299
 23
1838.188462290087
 33
0.0
  0
SOLID
  5
1960
330
1959
100
AcDbEntity
  8
0
100
AcDbTrace
 10
4236.758733639966
 20
1355.188462290087
 30
0.0
 11
4237.425400306633
 21
1355.188462290087
 31
0.0
 12
4237.092066973299
 22
1353.188462290087
 32
0.0
 13
4237.092066973299
 23
1353.188462290087
 33
0.0
  0
MTEXT
  5
1961
330
1959
100
AcDbEntity
  8
0
100
AcDbMText
 10
4235.046398739586
 20
1595.688462290087
 30
0.0
 40
2.0
 41
0.0
 71
     5
 72
     1
  1
485
  7
SANINDUSA
 11
0.0000000000000001
 21
1.0
 31
0.0
 73
     1
 44
1.0
1001
ACAD
1000
MTEXTBEGIN
1070
    73
1070
     1
1070
    44
1040
1.0
1070
    74
1070
     0
1000
MTEXTEND
  0
POINT
  5
1962
330
1959
100
AcDbEntity
  8
Defpoints
 62
     0
100
AcDbPoint
 10
4051.313507025269
 20
1838.188462290087
 30
0.0
  0
POINT
  5
1963
330
1959
100
AcDbEntity
  8
Defpoints
 62
     0
100
AcDbPoint
 10
4152.092066973299
 20
1353.188462290087
 30
0.0
  0
POINT
  5
1964
330
1959
100
AcDbEntity
  8
Defpoints
 62
     0
100
AcDbPoint
 10
4237.092066973299
 20
1353.188462290087
 30
0.0
  0
ENDBLK
  5
195B
330
1959
100
AcDbEntity
  8
0
100
AcDbBlockEnd
  0
BLOCK
  5
1966
330
1965
100
AcDbEntity
  8
0
100
AcDbBlockBegin
  2
*D26
 70
     1
 10
0.0
 20
0.0
 30
0.0
  3
*D26
  1

  0
LINE
  5
1968
330
1965
100
AcDbEntity
  8
0
100
AcDbLine
 10
4642.654566973306
 20
1896.357594632546
 30
0.0
 11
4607.404566973307
 21
1896.357594632546
 31
0.0
  0
LINE
  5
1969
330
1965
100
AcDbEntity
  8
0
100
AcDbLine
 10
4665.76723260876
 20
1901.357594822536
 30
0.0
 11
4607.404566973307
 21
1901.357594822536
 31
0.0
  0
LINE
  5
196A
330
1965
100
AcDbEntity
  8
0
100
AcDbLine
 10
4608.404566973307
 20
1894.357594632546
 30
0.0
 11
4608.404566973307
 21
1892.357594632546
 31
0.0
  0
LINE
  5
196B
330
1965
100
AcDbEntity
  8
0
100
AcDbLine
 10
4608.404566973307
 20
1903.357594822536
 30
0.0
 11
4608.404566973307
 21
1905.357594822536
 31
0.0
  0
LINE
  5
196C
330
1965
100
AcDbEntity
  8
0
100
AcDbLine
 10
4608.404566973307
 20
1896.357594632546
 30
0.0
 11
4608.404566973307
 21
1901.357594822536
 31
0.0
  0
SOLID
  5
196D
330
1965
100
AcDbEntity
  8
0
100
AcDbTrace
 10
4608.071233639974
 20
1894.357594632546
 30
0.0
 11
4608.73790030664
 21
1894.357594632546
 31
0.0
 12
4608.404566973307
 22
1896.357594632546
 32
0.0
 13
4608.404566973307
 23
1896.357594632546
 33
0.0
  0
SOLID
  5
196E
330
1965
100
AcDbEntity
  8
0
100
AcDbTrace
 10
4608.071233639974
 20
1903.357594822536
 30
0.0
 11
4608.73790030664
 21
1903.357594822536
 31
0.0
 12
4608.404566973307
 22
1901.357594822536
 32
0.0
 13
4608.404566973307
 23
1901.357594822536
 33
0.0
  0
MTEXT
  5
196F
330
1965
100
AcDbEntity
  8
0
100
AcDbMText
 10
4606.383747631467
 20
1898.857594727542
 30
0.0
 40
2.0
 41
0.0
 71
     5
 72
     1
  1
5
  7
SANINDUSA
 11
0.0000000000000001
 21
1.0
 31
0.0
 73
     1
 44
1.0
1001
ACAD
1000
MTEXTBEGIN
1070
    73
1070
     1
1070
    44
1040
1.0
1070
    74
1070
     0
1000
MTEXTEND
  0
POINT
  5
1970
330
1965
100
AcDbEntity
  8
Defpoints
 62
     0
100
AcDbPoint
 10
4643.654566973307
 20
1896.357594632546
 30
0.0
  0
POINT
  5
1971
330
1965
100
AcDbEntity
  8
Defpoints
 62
     0
100
AcDbPoint
 10
4666.76723260876
 20
1901.357594822536
 30
0.0
  0
POINT
  5
1972
330
1965
100
AcDbEntity
  8
Defpoints
 62
     0
100
AcDbPoint
 10
4608.404566973307
 20
1901.357594822536
 30
0.0
  0
ENDBLK
  5
1967
330
1965
100
AcDbEntity
  8
0
100
AcDbBlockEnd
  0
BLOCK
  5
1974
330
1973
100
AcDbEntity
  8
0
100
AcDbBlockBegin
  2
*D27
 70
     1
 10
0.0
 20
0.0
 30
0.0
  3
*D27
  1

  0
LINE
  5
1976
330
1973
100
AcDbEntity
  8
0
100
AcDbLine
 10
4428.654566973306
 20
1973.102941890035
 30
0.0
 11
4428.654566973306
 21
1938.102941890035
 31
0.0
  0
LINE
  5
1977
330
1973
100
AcDbEntity
  8
0
100
AcDbLine
 10
4436.654566973307
 20
1973.352941890035
 30
0.0
 11
4436.654566973307
 21
1938.102941890035
 31
0.0
  0
LINE
  5
1978
330
1973
100
AcDbEntity
  8
0
100
AcDbLine
 10
4430.654566973307
 20
1939.102941890035
 30
0.0
 11
4434.654566973306
 21
1939.102941890035
 31
0.0
  0
SOLID
  5
1979
330
1973
100
AcDbEntity
  8
0
100
AcDbTrace
 10
4430.654566973307
 20
1939.436275223368
 30
0.0
 11
4430.654566973307
 21
1938.769608556702
 31
0.0
 12
4428.654566973306
 22
1939.102941890035
 32
0.0
 13
4428.654566973306
 23
1939.102941890035
 33
0.0
  0
SOLID
  5
197A
330
1973
100
AcDbEntity
  8
0
100
AcDbTrace
 10
4434.654566973306
 20
1939.436275223368
 30
0.0
 11
4434.654566973306
 21
1938.769608556702
 31
0.0
 12
4436.654566973307
 22
1939.102941890035
 32
0.0
 13
4436.654566973307
 23
1939.102941890035
 33
0.0
  0
MTEXT
  5
197B
330
1973
100
AcDbEntity
  8
0
100
AcDbMText
 10
4432.654566973307
 20
1941.148610123749
 30
0.0
 40
2.0
 41
0.0
 71
     5
 72
     1
  1
8
  7
SANINDUSA
 73
     1
 44
1.0
1001
ACAD
1000
MTEXTBEGIN
1070
    73
1070
     1
1070
    44
1040
1.0
1070
    74
1070
     0
1000
MTEXTEND
  0
POINT
  5
197C
330
1973
100
AcDbEntity
  8
Defpoints
 62
     0
100
AcDbPoint
 10
4428.654566973306
 20
1974.102941890035
 30
0.0
  0
POINT
  5
197D
330
1973
100
AcDbEntity
  8
Defpoints
 62
     0
100
AcDbPoint
 10
4436.654566973307
 20
1974.352941890035
 30
0.0
  0
POINT
  5
197E
330
1973
100
AcDbEntity
  8
Defpoints
 62
     0
100
AcDbPoint
 10
4436.654566973307
 20
1939.102941890035
 30
0.0
  0
ENDBLK
  5
1975
330
1973
100
AcDbEntity
  8
0
100
AcDbBlockEnd
  0
BLOCK
  5
1A0E
330
1A0D
100
AcDbEntity
  8
0
100
AcDbBlockBegin
  2
*D29
 70
     1
 10
0.0
 20
0.0
 30
0.0
  3
*D29
  1

  0
LINE
  5
1A1A
330
1A0D
100
AcDbEntity
  8
0
100
AcDbLine
 10
3594.093823451948
 20
1737.91938899714
 30
0.0
 11
3594.093823451948
 21
1678.753611065015
 31
0.0
  0
LINE
  5
1A1B
330
1A0D
100
AcDbEntity
  8
0
100
AcDbLine
 10
3844.093823451937
 20
1737.91938899714
 30
0.0
 11
3844.093823451937
 21
1678.753611065015
 31
0.0
  0
LINE
  5
1A1C
330
1A0D
100
AcDbEntity
  8
0
100
AcDbLine
 10
3596.093823451948
 20
1679.753611065014
 30
0.0
 11
3842.093823451938
 21
1679.753611065014
 31
0.0
  0
SOLID
  5
1A1D
330
1A0D
100
AcDbEntity
  8
0
100
AcDbTrace
 10
3596.093823451948
 20
1680.086944398348
 30
0.0
 11
3596.093823451948
 21
1679.420277731681
 31
0.0
 12
3594.093823451948
 22
1679.753611065014
 32
0.0
 13
3594.093823451948
 23
1679.753611065014
 33
0.0
  0
SOLID
  5
1A1E
330
1A0D
100
AcDbEntity
  8
0
100
AcDbTrace
 10
3842.093823451938
 20
1680.086944398348
 30
0.0
 11
3842.093823451938
 21
1679.420277731681
 31
0.0
 12
3844.093823451937
 22
1679.753611065014
 32
0.0
 13
3844.093823451937
 23
1679.753611065014
 33
0.0
  0
MTEXT
  5
1A1F
330
1A0D
100
AcDbEntity
  8
0
100
AcDbMText
 10
3719.093823451943
 20
1681.795249748695
 30
0.0
 40
2.0
 41
0.0
 71
     5
 72
     1
  1
250
  7
SANINDUSA
 73
     1
 44
1.0
1001
ACAD
1000
MTEXTBEGIN
1070
    73
1070
     1
1070
    44
1040
1.0
1070
    74
1070
     0
1000
MTEXTEND
  0
POINT
  5
1A20
330
1A0D
100
AcDbEntity
  8
Defpoints
 62
     0
100
AcDbPoint
 10
3594.093823451948
 20
1738.91938899714
 30
0.0
  0
POINT
  5
1A21
330
1A0D
100
AcDbEntity
  8
Defpoints
 62
     0
100
AcDbPoint
 10
3844.093823451937
 20
1738.91938899714
 30
0.0
  0
POINT
  5
1A22
330
1A0D
100
AcDbEntity
  8
Defpoints
 62
     0
100
AcDbPoint
 10
3844.093823451937
 20
1679.753611065014
 30
0.0
  0
ENDBLK
  5
1A0F
330
1A0D
100
AcDbEntity
  8
0
100
AcDbBlockEnd
  0
ENDSEC
  0
SECTION
  2
ENTITIES
  0
LINE
  5
152C
330
1F
100
AcDbEntity
  8
SANINDUSA
100
AcDbLine
 10
4126.289116078939
 20
1992.803191890035
 30
0.0
 11
4126.289116078939
 21
1992.813191890035
 31
0.0
  0
LINE
  5
152D
330
1F
100
AcDbEntity
  8
SANINDUSA
100
AcDbLine
 10
4126.268616078937
 20
1992.813191890035
 30
0.0
 11
4126.268616078937
 21
1992.803191890035
 31
0.0
  0
LINE
  5
152E
330
1F
100
AcDbEntity
  8
SANINDUSA
100
AcDbLine
 10
4126.268616078937
 20
1992.863191890035
 30
0.0
 11
4126.268616078937
 21
1992.813191890035
 31
0.0
  0
LINE
  5
152F
330
1F
100
AcDbEntity
  8
SANINDUSA
100
AcDbLine
 10
4126.289116078939
 20
1992.813191890035
 30
0.0
 11
4126.289116078939
 21
1992.863191890035
 31
0.0
  0
LINE
  5
1530
330
1F
100
AcDbEntity
  8
SANINDUSA
100
AcDbLine
 10
4126.302116078848
 20
1992.755831194505
 30
0.0
 11
4126.302116078848
 21
1992.75644654273
 31
0.0
  0
LINE
  5
1531
330
1F
100
AcDbEntity
  8
SANINDUSA
100
AcDbLine
 10
4126.296616079028
 20
1992.75644654273
 30
0.0
 11
4126.296616079028
 21
1992.755831194505
 31
0.0
  0
LINE
  5
1532
330
1F
100
AcDbEntity
  8
SANINDUSA
100
AcDbLine
 10
4126.343116078849
 20
1992.755831194505
 30
0.0
 11
4126.343116078849
 21
1992.75644654273
 31
0.0
  0
LINE
  5
1533
330
1F
100
AcDbEntity
  8
SANINDUSA
100
AcDbLine
 10
4126.337616079029
 20
1992.75644654273
 30
0.0
 11
4126.337616079029
 21
1992.755831194505
 31
0.0
  0
LINE
  5
1534
330
1F
100
AcDbEntity
  8
SANINDUSA
100
AcDbLine
 10
4126.384116078848
 20
1992.755831194505
 30
0.0
 11
4126.384116078848
 21
1992.75644654273
 31
0.0
  0
LINE
  5
1535
330
1F
100
AcDbEntity
  8
SANINDUSA
100
AcDbLine
 10
4126.378616079029
 20
1992.75644654273
 30
0.0
 11
4126.378616079029
 21
1992.755831194505
 31
0.0
  0
LINE
  5
1536
330
1F
100
AcDbEntity
  8
SANINDUSA
100
AcDbLine
 10
4126.179116078849
 20
1992.755831194505
 30
0.0
 11
4126.179116078849
 21
1992.75644654273
 31
0.0
  0
LINE
  5
1537
330
1F
100
AcDbEntity
  8
SANINDUSA
100
AcDbLine
 10
4126.173616079028
 20
1992.75644654273
 30
0.0
 11
4126.173616079028
 21
1992.755831194505
 31
0.0
  0
ARC
  5
1538
330
1F
100
AcDbEntity
  8
SANINDUSA
100
AcDbCircle
 10
4126.363016078848
 20
1992.755831194472
 30
0.0
 40
0.0006000000000141
100
AcDbArc
 50
270.0000085981843
 51
0.0000032047777853
  0
ARC
  5
1539
330
1F
100
AcDbEntity
  8
SANINDUSA
100
AcDbCircle
 10
4126.358716079028
 20
1992.755831194472
 30
0.0
 40
0.0006000000000141
100
AcDbArc
 50
179.9999967952222
 51
269.9999914018157
  0
ARC
  5
153A
330
1F
100
AcDbEntity
  8
SANINDUSA
100
AcDbCircle
 10
4126.281016078848
 20
1992.755831194472
 30
0.0
 40
0.0006000000000141
100
AcDbArc
 50
270.0000085981843
 51
0.0000032047777853
  0
ARC
  5
153B
330
1F
100
AcDbEntity
  8
SANINDUSA
100
AcDbCircle
 10
4126.276716079028
 20
1992.755831194472
 30
0.0
 40
0.0006000000000141
100
AcDbArc
 50
179.9999967952222
 51
269.9999914018157
  0
LINE
  5
153C
330
1F
100
AcDbEntity
  8
SANINDUSA
100
AcDbLine
 10
4126.220116078849
 20
1992.755831194505
 30
0.0
 11
4126.220116078849
 21
1992.75644654273
 31
0.0
  0
LINE
  5
153D
330
1F
100
AcDbEntity
  8
SANINDUSA
100
AcDbLine
 10
4126.214616079027
 20
1992.75644654273
 30
0.0
 11
4126.214616079027
 21
1992.755831194505
 31
0.0
  0
LINE
  5
153E
330
1F
100
AcDbEntity
  8
SANINDUSA
100
AcDbLine
 10
4126.363616078848
 20
1992.755831194505
 30
0.0
 11
4126.363616078848
 21
1992.75644654273
 31
0.0
  0
LINE
  5
153F
330
1F
100
AcDbEntity
  8
SANINDUSA
100
AcDbLine
 10
4126.358116079027
 20
1992.75644654273
 30
0.0
 11
4126.358116079027
 21
1992.755831194505
 31
0.0
  0
ARC
  5
1540
330
1F
100
AcDbEntity
  8
SANINDUSA
100
AcDbCircle
 10
4126.199016078849
 20
1992.755831194472
 30
0.0
 40
0.0006000000000141
100
AcDbArc
 50
270.0000085981843
 51
0.0000032047777853
  0
ARC
  5
1541
330
1F
100
AcDbEntity
  8
SANINDUSA
100
AcDbCircle
 10
4126.194716079028
 20
1992.755831194472
 30
0.0
 40
0.0006000000000141
100
AcDbArc
 50
179.9999967952222
 51
269.9999914018157
  0
LINE
  5
1542
330
1F
100
AcDbEntity
  8
SANINDUSA
100
AcDbLine
 10
4126.322616078849
 20
1992.755831194505
 30
0.0
 11
4126.322616078849
 21
1992.75644654273
 31
0.0
  0
LINE
  5
1543
330
1F
100
AcDbEntity
  8
SANINDUSA
100
AcDbLine
 10
4126.317116079028
 20
1992.75644654273
 30
0.0
 11
4126.317116079028
 21
1992.755831194505
 31
0.0
  0
LINE
  5
1544
330
1F
100
AcDbEntity
  8
SANINDUSA
100
AcDbLine
 10
4126.281616078848
 20
1992.755831194505
 30
0.0
 11
4126.281616078848
 21
1992.75644654273
 31
0.0
  0
LINE
  5
1545
330
1F
100
AcDbEntity
  8
SANINDUSA
100
AcDbLine
 10
4126.276116079028
 20
1992.75644654273
 30
0.0
 11
4126.276116079028
 21
1992.755831194505
 31
0.0
  0
ARC
  5
1546
330
1F
100
AcDbEntity
  8
SANINDUSA
100
AcDbCircle
 10
4126.260516078849
 20
1992.755831194472
 30
0.0
 40
0.0006000000000141
100
AcDbArc
 50
270.0000085981843
 51
0.0000032047777853
  0
ARC
  5
1547
330
1F
100
AcDbEntity
  8
SANINDUSA
100
AcDbCircle
 10
4126.256216079029
 20
1992.755831194472
 30
0.0
 40
0.0006000000000141
100
AcDbArc
 50
179.9999967952222
 51
269.9999914018157
  0
ARC
  5
1548
330
1F
100
AcDbEntity
  8
SANINDUSA
100
AcDbCircle
 10
4126.240016078848
 20
1992.755831194472
 30
0.0
 40
0.0006000000000141
100
AcDbArc
 50
270.0000085981843
 51
0.0000032047777853
  0
ARC
  5
1549
330
1F
100
AcDbEntity
  8
SANINDUSA
100
AcDbCircle
 10
4126.235716079028
 20
1992.755831194472
 30
0.0
 40
0.0006000000000141
100
AcDbArc
 50
179.9999967952222
 51
269.9999914018157
  0
ARC
  5
154A
330
1F
100
AcDbEntity
  8
SANINDUSA
100
AcDbCircle
 10
4126.322016078848
 20
1992.755831194472
 30
0.0
 40
0.0006000000000141
100
AcDbArc
 50
270.0000085981843
 51
0.0000032047777853
  0
ARC
  5
154B
330
1F
100
AcDbEntity
  8
SANINDUSA
100
AcDbCircle
 10
4126.317716079028
 20
1992.755831194472
 30
0.0
 40
0.0006000000000141
100
AcDbArc
 50
179.9999967952222
 51
269.9999914018157
  0
LINE
  5
154C
330
1F
100
AcDbEntity
  8
SANINDUSA
100
AcDbLine
 10
4126.199616078848
 20
1992.755831194505
 30
0.0
 11
4126.199616078848
 21
1992.75644654273
 31
0.0
  0
LINE
  5
154D
330
1F
100
AcDbEntity
  8
SANINDUSA
100
AcDbLine
 10
4126.194116079028
 20
1992.75644654273
 30
0.0
 11
4126.194116079028
 21
1992.755831194505
 31
0.0
  0
ARC
  5
154E
330
1F
100
AcDbEntity
  8
SANINDUSA
100
AcDbCircle
 10
4126.178516078848
 20
1992.755831194472
 30
0.0
 40
0.0006000000000141
100
AcDbArc
 50
270.0000085981843
 51
0.0000032047777853
  0
ARC
  5
154F
330
1F
100
AcDbEntity
  8
SANINDUSA
100
AcDbCircle
 10
4126.174216079028
 20
1992.755831194472
 30
0.0
 40
0.0006000000000141
100
AcDbArc
 50
179.9999967952222
 51
269.9999914018157
  0
ARC
  5
1550
330
1F
100
AcDbEntity
  8
SANINDUSA
100
AcDbCircle
 10
4126.301516078848
 20
1992.755831194472
 30
0.0
 40
0.0006000000000141
100
AcDbArc
 50
270.0000085981843
 51
0.0000032047777853
  0
ARC
  5
1551
330
1F
100
AcDbEntity
  8
SANINDUSA
100
AcDbCircle
 10
4126.297216079029
 20
1992.755831194472
 30
0.0
 40
0.0006000000000141
100
AcDbArc
 50
179.9999967952222
 51
269.9999914018157
  0
ARC
  5
1552
330
1F
100
AcDbEntity
  8
SANINDUSA
100
AcDbCircle
 10
4126.383516078848
 20
1992.755831194472
 30
0.0
 40
0.0006000000000141
100
AcDbArc
 50
270.0000085981843
 51
0.0000032047777853
  0
ARC
  5
1553
330
1F
100
AcDbEntity
  8
SANINDUSA
100
AcDbCircle
 10
4126.379216079028
 20
1992.755831194472
 30
0.0
 40
0.0006000000000141
100
AcDbArc
 50
179.9999967952222
 51
269.9999914018157
  0
ARC
  5
1554
330
1F
100
AcDbEntity
  8
SANINDUSA
100
AcDbCircle
 10
4126.219516078848
 20
1992.755831194472
 30
0.0
 40
0.0006000000000141
100
AcDbArc
 50
270.0000085981843
 51
0.0000032047777853
  0
ARC
  5
1555
330
1F
100
AcDbEntity
  8
SANINDUSA
100
AcDbCircle
 10
4126.215216079028
 20
1992.755831194472
 30
0.0
 40
0.0006000000000141
100
AcDbArc
 50
179.9999967952222
 51
269.9999914018157
  0
LINE
  5
1556
330
1F
100
AcDbEntity
  8
SANINDUSA
100
AcDbLine
 10
4126.240616078848
 20
1992.755831194505
 30
0.0
 11
4126.240616078848
 21
1992.75644654273
 31
0.0
  0
LINE
  5
1557
330
1F
100
AcDbEntity
  8
SANINDUSA
100
AcDbLine
 10
4126.235116079029
 20
1992.75644654273
 30
0.0
 11
4126.235116079029
 21
1992.755831194505
 31
0.0
  0
LINE
  5
1558
330
1F
100
AcDbEntity
  8
SANINDUSA
100
AcDbLine
 10
4126.261116078848
 20
1992.755831194505
 30
0.0
 11
4126.261116078848
 21
1992.75644654273
 31
0.0
  0
LINE
  5
1559
330
1F
100
AcDbEntity
  8
SANINDUSA
100
AcDbLine
 10
4126.255616079028
 20
1992.75644654273
 30
0.0
 11
4126.255616079028
 21
1992.755831194505
 31
0.0
  0
ARC
  5
155A
330
1F
100
AcDbEntity
  8
SANINDUSA
100
AcDbCircle
 10
4126.342516078849
 20
1992.755831194472
 30
0.0
 40
0.0006000000000141
100
AcDbArc
 50
270.0000085981843
 51
0.0000032047777853
  0
ARC
  5
155B
330
1F
100
AcDbEntity
  8
SANINDUSA
100
AcDbCircle
 10
4126.338216079028
 20
1992.755831194472
 30
0.0
 40
0.0006000000000141
100
AcDbArc
 50
179.9999967952222
 51
269.9999914018157
  0
ARC
  5
155C
330
1F
100
AcDbEntity
  8
SANINDUSA
100
AcDbCircle
 10
4126.219416078917
 20
1992.754931194472
 30
0.0
 40
0.0003000000000002
100
AcDbArc
 50
89.99999598751399
 51
180.0000128712213
  0
ARC
  5
155D
330
1F
100
AcDbEntity
  8
SANINDUSA
100
AcDbCircle
 10
4126.215316078959
 20
1992.754931194472
 30
0.0
 40
0.0003000000000002
100
AcDbArc
 50
359.9999871287786
 51
90.000004012486
  0
ARC
  5
155E
330
1F
100
AcDbEntity
  8
SANINDUSA
100
AcDbCircle
 10
4126.198916078917
 20
1992.754931194472
 30
0.0
 40
0.0003000000000002
100
AcDbArc
 50
89.99999598751399
 51
180.0000128712213
  0
ARC
  5
155F
330
1F
100
AcDbEntity
  8
SANINDUSA
100
AcDbCircle
 10
4126.194816078959
 20
1992.754931194472
 30
0.0
 40
0.0003000000000002
100
AcDbArc
 50
359.9999871287786
 51
90.000004012486
  0
ARC
  5
1560
330
1F
100
AcDbEntity
  8
SANINDUSA
100
AcDbCircle
 10
4126.239916078917
 20
1992.754931194472
 30
0.0
 40
0.0003000000000002
100
AcDbArc
 50
89.99999598751399
 51
180.0000128712213
  0
ARC
  5
1561
330
1F
100
AcDbEntity
  8
SANINDUSA
100
AcDbCircle
 10
4126.235816078959
 20
1992.754931194472
 30
0.0
 40
0.0003000000000002
100
AcDbArc
 50
359.9999871287786
 51
90.000004012486
  0
ARC
  5
1562
330
1F
100
AcDbEntity
  8
SANINDUSA
100
AcDbCircle
 10
4126.260416078918
 20
1992.754931194472
 30
0.0
 40
0.0003000000000002
100
AcDbArc
 50
89.99999598751399
 51
180.0000128712213
  0
ARC
  5
1563
330
1F
100
AcDbEntity
  8
SANINDUSA
100
AcDbCircle
 10
4126.25631607896
 20
1992.754931194472
 30
0.0
 40
0.0003000000000002
100
AcDbArc
 50
359.9999871287786
 51
90.000004012486
  0
ARC
  5
1564
330
1F
100
AcDbEntity
  8
SANINDUSA
100
AcDbCircle
 10
4126.280916078918
 20
1992.754931194472
 30
0.0
 40
0.0003000000000002
100
AcDbArc
 50
89.99999598751399
 51
180.0000128712213
  0
ARC
  5
1565
330
1F
100
AcDbEntity
  8
SANINDUSA
100
AcDbCircle
 10
4126.276816078958
 20
1992.754931194472
 30
0.0
 40
0.0003000000000002
100
AcDbArc
 50
359.9999871287786
 51
90.000004012486
  0
ARC
  5
1566
330
1F
100
AcDbEntity
  8
SANINDUSA
100
AcDbCircle
 10
4126.178416078917
 20
1992.754931194472
 30
0.0
 40
0.0003000000000002
100
AcDbArc
 50
89.99999598751399
 51
180.0000128712213
  0
ARC
  5
1567
330
1F
100
AcDbEntity
  8
SANINDUSA
100
AcDbCircle
 10
4126.174316078959
 20
1992.754931194472
 30
0.0
 40
0.0003000000000002
100
AcDbArc
 50
359.9999871287786
 51
90.000004012486
  0
ARC
  5
1568
330
1F
100
AcDbEntity
  8
SANINDUSA
100
AcDbCircle
 10
4126.301416078916
 20
1992.754931194472
 30
0.0
 40
0.0003000000000002
100
AcDbArc
 50
89.99999598751399
 51
180.0000128712213
  0
ARC
  5
1569
330
1F
100
AcDbEntity
  8
SANINDUSA
100
AcDbCircle
 10
4126.29731607896
 20
1992.754931194472
 30
0.0
 40
0.0003000000000002
100
AcDbArc
 50
359.9999871287786
 51
90.000004012486
  0
ARC
  5
156A
330
1F
100
AcDbEntity
  8
SANINDUSA
100
AcDbCircle
 10
4126.362916078917
 20
1992.754931194472
 30
0.0
 40
0.0003000000000002
100
AcDbArc
 50
89.99999598751399
 51
180.0000128712213
  0
ARC
  5
156B
330
1F
100
AcDbEntity
  8
SANINDUSA
100
AcDbCircle
 10
4126.358816078959
 20
1992.754931194472
 30
0.0
 40
0.0003000000000002
100
AcDbArc
 50
359.9999871287786
 51
90.000004012486
  0
ARC
  5
156C
330
1F
100
AcDbEntity
  8
SANINDUSA
100
AcDbCircle
 10
4126.342416078917
 20
1992.754931194472
 30
0.0
 40
0.0003000000000002
100
AcDbArc
 50
89.99999598751399
 51
180.0000128712213
  0
ARC
  5
156D
330
1F
100
AcDbEntity
  8
SANINDUSA
100
AcDbCircle
 10
4126.338316078959
 20
1992.754931194472
 30
0.0
 40
0.0003000000000002
100
AcDbArc
 50
359.9999871287786
 51
90.000004012486
  0
ARC
  5
156E
330
1F
100
AcDbEntity
  8
SANINDUSA
100
AcDbCircle
 10
4126.383416078917
 20
1992.754931194472
 30
0.0
 40
0.0003000000000002
100
AcDbArc
 50
89.99999598751399
 51
180.0000128712213
  0
ARC
  5
156F
330
1F
100
AcDbEntity
  8
SANINDUSA
100
AcDbCircle
 10
4126.379316078959
 20
1992.754931194472
 30
0.0
 40
0.0003000000000002
100
AcDbArc
 50
359.9999871287786
 51
90.000004012486
  0
ARC
  5
1570
330
1F
100
AcDbEntity
  8
SANINDUSA
100
AcDbCircle
 10
4126.321916078917
 20
1992.754931194472
 30
0.0
 40
0.0003000000000002
100
AcDbArc
 50
89.99999598751399
 51
180.0000128712213
  0
ARC
  5
1571
330
1F
100
AcDbEntity
  8
SANINDUSA
100
AcDbCircle
 10
4126.317816078959
 20
1992.754931194472
 30
0.0
 40
0.0003000000000002
100
AcDbArc
 50
359.9999871287786
 51
90.000004012486
  0
ARC
  5
1572
330
1F
100
AcDbEntity
  8
SANINDUSA
100
AcDbCircle
 10
4126.198016078917
 20
1992.754131194472
 30
0.0
 40
0.0005999999999997
100
AcDbArc
 50
270.0000019801879
 51
359.9999899427299
  0
ARC
  5
1573
330
1F
100
AcDbEntity
  8
SANINDUSA
100
AcDbCircle
 10
4126.195716078959
 20
1992.754131194472
 30
0.0
 40
0.0005999999999999
100
AcDbArc
 50
180.0000100572701
 51
269.9999980198121
  0
LINE
  5
1574
330
1F
100
AcDbEntity
  8
SANINDUSA
100
AcDbLine
 10
4126.239616078918
 20
1992.754131194366
 30
0.0
 11
4126.239616078918
 21
1992.754931194404
 31
0.0
  0
LINE
  5
1575
330
1F
100
AcDbEntity
  8
SANINDUSA
100
AcDbLine
 10
4126.236116078959
 20
1992.754931194404
 30
0.0
 11
4126.236116078959
 21
1992.754131194366
 31
0.0
  0
ARC
  5
1576
330
1F
100
AcDbEntity
  8
SANINDUSA
100
AcDbCircle
 10
4126.280016078918
 20
1992.754131194472
 30
0.0
 40
0.0005999999999998
100
AcDbArc
 50
270.0000019801879
 51
359.9999899427299
  0
ARC
  5
1577
330
1F
100
AcDbEntity
  8
SANINDUSA
100
AcDbCircle
 10
4126.277716078958
 20
1992.754131194472
 30
0.0
 40
0.0005999999999998
100
AcDbArc
 50
180.0000100572701
 51
269.9999980198121
  0
LINE
  5
1578
330
1F
100
AcDbEntity
  8
SANINDUSA
100
AcDbLine
 10
4126.198616078918
 20
1992.754131194366
 30
0.0
 11
4126.198616078918
 21
1992.754931194404
 31
0.0
  0
LINE
  5
1579
330
1F
100
AcDbEntity
  8
SANINDUSA
100
AcDbLine
 10
4126.195116078959
 20
1992.754931194404
 30
0.0
 11
4126.195116078959
 21
1992.754131194366
 31
0.0
  0
ARC
  5
157A
330
1F
100
AcDbEntity
  8
SANINDUSA
100
AcDbCircle
 10
4126.362016078918
 20
1992.754131194472
 30
0.0
 40
0.0005999999999999
100
AcDbArc
 50
270.0000019801879
 51
359.9999899427299
  0
ARC
  5
157B
330
1F
100
AcDbEntity
  8
SANINDUSA
100
AcDbCircle
 10
4126.359716078959
 20
1992.754131194472
 30
0.0
 40
0.0005999999999999
100
AcDbArc
 50
180.0000100572701
 51
269.9999980198121
  0
ARC
  5
157C
330
1F
100
AcDbEntity
  8
SANINDUSA
100
AcDbCircle
 10
4126.300516078917
 20
1992.754131194472
 30
0.0
 40
0.0005999999999997
100
AcDbArc
 50
270.0000019801879
 51
359.9999899427299
  0
ARC
  5
157D
330
1F
100
AcDbEntity
  8
SANINDUSA
100
AcDbCircle
 10
4126.29821607896
 20
1992.754131194472
 30
0.0
 40
0.0005999999999998
100
AcDbArc
 50
180.0000100572701
 51
269.9999980198121
  0
ARC
  5
157E
330
1F
100
AcDbEntity
  8
SANINDUSA
100
AcDbCircle
 10
4126.239016078917
 20
1992.754131194472
 30
0.0
 40
0.0005999999999999
100
AcDbArc
 50
270.0000019801879
 51
359.9999899427299
  0
ARC
  5
157F
330
1F
100
AcDbEntity
  8
SANINDUSA
100
AcDbCircle
 10
4126.236716078959
 20
1992.754131194472
 30
0.0
 40
0.0005999999999999
100
AcDbArc
 50
180.0000100572701
 51
269.9999980198121
  0
LINE
  5
1580
330
1F
100
AcDbEntity
  8
SANINDUSA
100
AcDbLine
 10
4126.301116078917
 20
1992.754131194366
 30
0.0
 11
4126.301116078917
 21
1992.754931194404
 31
0.0
  0
LINE
  5
1581
330
1F
100
AcDbEntity
  8
SANINDUSA
100
AcDbLine
 10
4126.29761607896
 20
1992.754931194404
 30
0.0
 11
4126.29761607896
 21
1992.754131194366
 31
0.0
  0
LINE
  5
1582
330
1F
100
AcDbEntity
  8
SANINDUSA
100
AcDbLine
 10
4126.321616078917
 20
1992.754131194366
 30
0.0
 11
4126.321616078917
 21
1992.754931194404
 31
0.0
  0
LINE
  5
1583
330
1F
100
AcDbEntity
  8
SANINDUSA
100
AcDbLine
 10
4126.318116078959
 20
1992.754931194404
 30
0.0
 11
4126.318116078959
 21
1992.754131194366
 31
0.0
  0
ARC
  5
1584
330
1F
100
AcDbEntity
  8
SANINDUSA
100
AcDbCircle
 10
4126.341516078917
 20
1992.754131194472
 30
0.0
 40
0.0005999999999997
100
AcDbArc
 50
270.0000019801879
 51
359.9999899427299
  0
ARC
  5
1585
330
1F
100
AcDbEntity
  8
SANINDUSA
100
AcDbCircle
 10
4126.339216078959
 20
1992.754131194472
 30
0.0
 40
0.0005999999999999
100
AcDbArc
 50
180.0000100572701
 51
269.9999980198121
  0
LINE
  5
1586
330
1F
100
AcDbEntity
  8
SANINDUSA
100
AcDbLine
 10
4126.219116078917
 20
1992.754131194366
 30
0.0
 11
4126.219116078917
 21
1992.754931194404
 31
0.0
  0
LINE
  5
1587
330
1F
100
AcDbEntity
  8
SANINDUSA
100
AcDbLine
 10
4126.215616078959
 20
1992.754931194404
 30
0.0
 11
4126.215616078959
 21
1992.754131194366
 31
0.0
  0
ARC
  5
1588
330
1F
100
AcDbEntity
  8
SANINDUSA
100
AcDbCircle
 10
4126.259516078918
 20
1992.754131194472
 30
0.0
 40
0.0005999999999999
100
AcDbArc
 50
270.0000019801879
 51
359.9999899427299
  0
ARC
  5
1589
330
1F
100
AcDbEntity
  8
SANINDUSA
100
AcDbCircle
 10
4126.257216078959
 20
1992.754131194472
 30
0.0
 40
0.0005999999999998
100
AcDbArc
 50
180.0000100572701
 51
269.9999980198121
  0
ARC
  5
158A
330
1F
100
AcDbEntity
  8
SANINDUSA
100
AcDbCircle
 10
4126.382516078917
 20
1992.754131194472
 30
0.0
 40
0.0005999999999999
100
AcDbArc
 50
270.0000019801879
 51
359.9999899427299
  0
ARC
  5
158B
330
1F
100
AcDbEntity
  8
SANINDUSA
100
AcDbCircle
 10
4126.380216078959
 20
1992.754131194472
 30
0.0
 40
0.0005999999999999
100
AcDbArc
 50
180.0000100572701
 51
269.9999980198121
  0
LINE
  5
158C
330
1F
100
AcDbEntity
  8
SANINDUSA
100
AcDbLine
 10
4126.260116078917
 20
1992.754131194366
 30
0.0
 11
4126.260116078917
 21
1992.754931194404
 31
0.0
  0
LINE
  5
158D
330
1F
100
AcDbEntity
  8
SANINDUSA
100
AcDbLine
 10
4126.256616078959
 20
1992.754931194404
 30
0.0
 11
4126.256616078959
 21
1992.754131194366
 31
0.0
  0
LINE
  5
158E
330
1F
100
AcDbEntity
  8
SANINDUSA
100
AcDbLine
 10
4126.342116078918
 20
1992.754131194366
 30
0.0
 11
4126.342116078918
 21
1992.754931194404
 31
0.0
  0
LINE
  5
158F
330
1F
100
AcDbEntity
  8
SANINDUSA
100
AcDbLine
 10
4126.338616078959
 20
1992.754931194404
 30
0.0
 11
4126.338616078959
 21
1992.754131194366
 31
0.0
  0
ARC
  5
1590
330
1F
100
AcDbEntity
  8
SANINDUSA
100
AcDbCircle
 10
4126.218516078917
 20
1992.754131194472
 30
0.0
 40
0.0005999999999999
100
AcDbArc
 50
270.0000019801879
 51
359.9999899427299
  0
ARC
  5
1591
330
1F
100
AcDbEntity
  8
SANINDUSA
100
AcDbCircle
 10
4126.216216078959
 20
1992.754131194472
 30
0.0
 40
0.0005999999999999
100
AcDbArc
 50
180.0000100572701
 51
269.9999980198121
  0
LINE
  5
1592
330
1F
100
AcDbEntity
  8
SANINDUSA
100
AcDbLine
 10
4126.362616078917
 20
1992.754131194366
 30
0.0
 11
4126.362616078917
 21
1992.754931194404
 31
0.0
  0
LINE
  5
1593
330
1F
100
AcDbEntity
  8
SANINDUSA
100
AcDbLine
 10
4126.359116078959
 20
1992.754931194404
 30
0.0
 11
4126.359116078959
 21
1992.754131194366
 31
0.0
  0
ARC
  5
1594
330
1F
100
AcDbEntity
  8
SANINDUSA
100
AcDbCircle
 10
4126.321016078917
 20
1992.754131194472
 30
0.0
 40
0.0005999999999998
100
AcDbArc
 50
270.0000019801879
 51
359.9999899427299
  0
ARC
  5
1595
330
1F
100
AcDbEntity
  8
SANINDUSA
100
AcDbCircle
 10
4126.318716078959
 20
1992.754131194472
 30
0.0
 40
0.0005999999999997
100
AcDbArc
 50
180.0000100572701
 51
269.9999980198121
  0
LINE
  5
1596
330
1F
100
AcDbEntity
  8
SANINDUSA
100
AcDbLine
 10
4126.383116078918
 20
1992.754131194366
 30
0.0
 11
4126.383116078918
 21
1992.754931194404
 31
0.0
  0
LINE
  5
1597
330
1F
100
AcDbEntity
  8
SANINDUSA
100
AcDbLine
 10
4126.379616078959
 20
1992.754931194404
 30
0.0
 11
4126.379616078959
 21
1992.754131194366
 31
0.0
  0
LINE
  5
1598
330
1F
100
AcDbEntity
  8
SANINDUSA
100
AcDbLine
 10
4126.280616078918
 20
1992.754131194366
 30
0.0
 11
4126.280616078918
 21
1992.754931194404
 31
0.0
  0
LINE
  5
1599
330
1F
100
AcDbEntity
  8
SANINDUSA
100
AcDbLine
 10
4126.277116078959
 20
1992.754931194404
 30
0.0
 11
4126.277116078959
 21
1992.754131194366
 31
0.0
  0
ARC
  5
159A
330
1F
100
AcDbEntity
  8
SANINDUSA
100
AcDbCircle
 10
4126.177516078917
 20
1992.754131194472
 30
0.0
 40
0.0005999999999998
100
AcDbArc
 50
270.0000019801879
 51
359.9999899427299
  0
ARC
  5
159B
330
1F
100
AcDbEntity
  8
SANINDUSA
100
AcDbCircle
 10
4126.175216078959
 20
1992.754131194472
 30
0.0
 40
0.0005999999999997
100
AcDbArc
 50
180.0000100572701
 51
269.9999980198121
  0
LINE
  5
159C
330
1F
100
AcDbEntity
  8
SANINDUSA
100
AcDbLine
 10
4126.178116078917
 20
1992.754131194366
 30
0.0
 11
4126.178116078917
 21
1992.754931194404
 31
0.0
  0
LINE
  5
159D
330
1F
100
AcDbEntity
  8
SANINDUSA
100
AcDbLine
 10
4126.17461607896
 20
1992.754931194404
 30
0.0
 11
4126.17461607896
 21
1992.754131194366
 31
0.0
  0
ARC
  5
159E
330
1F
100
AcDbEntity
  8
SANINDUSA
100
AcDbCircle
 10
4126.300052842439
 20
1992.764446542967
 30
0.0
 40
0.0030000000000001
100
AcDbArc
 50
243.4349487238784
 51
270.0
  0
ARC
  5
159F
330
1F
100
AcDbEntity
  8
SANINDUSA
100
AcDbCircle
 10
4126.257679315437
 20
1992.764446542967
 30
0.0
 40
0.0030000000000001
100
AcDbArc
 50
270.0
 51
296.5650512761216
  0
LINE
  5
15A0
330
1F
100
AcDbEntity
  8
SANINDUSA
100
AcDbLine
 10
4126.298711201646
 20
1992.761763261397
 30
0.0
 11
4126.295978075983
 21
1992.763129824236
 31
0.0
  0
LINE
  5
15A1
330
1F
100
AcDbEntity
  8
SANINDUSA
100
AcDbLine
 10
4126.261754081894
 20
1992.763129824236
 30
0.0
 11
4126.25902095623
 21
1992.761763261397
 31
0.0
  0
ARC
  5
15A2
330
1F
100
AcDbEntity
  8
SANINDUSA
100
AcDbCircle
 10
4126.294636434969
 20
1992.760446542778
 30
0.0
 40
0.0030000000000004
100
AcDbArc
 50
63.43494395230378
 51
90.00000026055102
  0
ARC
  5
15A3
330
1F
100
AcDbEntity
  8
SANINDUSA
100
AcDbCircle
 10
4126.263095722908
 20
1992.760446542778
 30
0.0
 40
0.0030000000000004
100
AcDbArc
 50
89.99999973944897
 51
116.5650560476962
  0
ARC
  5
15A4
330
1F
100
AcDbEntity
  8
SANINDUSA
100
AcDbCircle
 10
4126.293844639089
 20
1992.774946542777
 30
0.0
 40
0.0010000000000001
100
AcDbArc
 50
0.0
 51
90.0
  0
ARC
  5
15A5
330
1F
100
AcDbEntity
  8
SANINDUSA
100
AcDbCircle
 10
4126.263887518787
 20
1992.774946542777
 30
0.0
 40
0.001
100
AcDbArc
 50
90.0
 51
180.0
  0
LINE
  5
15A6
330
1F
100
AcDbEntity
  8
SANINDUSA
100
AcDbLine
 10
4126.294844639089
 20
1992.763746361687
 30
0.0
 11
4126.294844639089
 21
1992.774946542777
 31
0.0
  0
ARC
  5
15A7
330
1F
100
AcDbEntity
  8
SANINDUSA
100
AcDbCircle
 10
4126.29454463909
 20
1992.763746361687
 30
0.0
 40
0.0003000000000001
100
AcDbArc
 50
271.990884439268
 51
0.0
  0
LINE
  5
15A8
330
1F
100
AcDbEntity
  8
SANINDUSA
100
AcDbLine
 10
4126.262887518787
 20
1992.774946542777
 30
0.0
 11
4126.262887518787
 21
1992.763746361687
 31
0.0
  0
ARC
  5
15A9
330
1F
100
AcDbEntity
  8
SANINDUSA
100
AcDbCircle
 10
4126.263187518786
 20
1992.763746361687
 30
0.0
 40
0.0003
100
AcDbArc
 50
180.0
 51
268.009115560732
  0
LINE
  5
15AC
330
1F
100
AcDbEntity
  8
SANINDUSA
100
AcDbLine
 10
4126.268894639229
 20
1992.78248176463
 30
0.0
 11
4126.269887519312
 21
1992.781786544652
 31
0.0
  0
LINE
  5
15AD
330
1F
100
AcDbEntity
  8
SANINDUSA
100
AcDbLine
 10
4126.287844638564
 20
1992.781786544652
 30
0.0
 11
4126.288794638674
 21
1992.782451739842
 31
0.0
  0
LINE
  5
15AE
330
1F
100
AcDbEntity
  8
SANINDUSA
100
AcDbLine
 10
4126.290244639217
 20
1992.788191889484
 30
0.0
 11
4126.290244639217
 21
1992.802991890035
 31
0.0
  0
LINE
  5
15AF
330
1F
100
AcDbEntity
  8
SANINDUSA
100
AcDbLine
 10
4126.26748751866
 20
1992.802991890035
 30
0.0
 11
4126.26748751866
 21
1992.788191889484
 31
0.0
  0
ARC
  5
15B0
330
1F
100
AcDbEntity
  8
SANINDUSA
100
AcDbCircle
 10
4126.29004463909
 20
1992.802991890035
 30
0.0
 40
0.0002000000000007
100
AcDbArc
 50
0.0
 51
90.0
  0
ARC
  5
15B1
330
1F
100
AcDbEntity
  8
SANINDUSA
100
AcDbCircle
 10
4126.267687518787
 20
1992.802991890035
 30
0.0
 40
0.0002000000000007
100
AcDbArc
 50
90.0
 51
180.0
  0
LINE
  5
15B2
330
1F
100
AcDbEntity
  8
SANINDUSA
100
AcDbLine
 10
4126.289688994633
 20
1992.775946542777
 30
0.0
 11
4126.287844638703
 21
1992.778276489188
 31
0.0
  0
LINE
  5
15B3
330
1F
100
AcDbEntity
  8
SANINDUSA
100
AcDbLine
 10
4126.269887519174
 20
1992.778276489188
 30
0.0
 11
4126.268043163243
 21
1992.775946542777
 31
0.0
  0
LINE
  5
15B4
330
1F
100
AcDbEntity
  8
SANINDUSA
100
AcDbLine
 10
4126.287844638634
 20
1992.778276489188
 30
0.0
 11
4126.287844638634
 21
1992.781786544652
 31
0.0
  0
LINE
  5
15B5
330
1F
100
AcDbEntity
  8
SANINDUSA
100
AcDbLine
 10
4126.269887519243
 20
1992.781786544652
 30
0.0
 11
4126.269887519243
 21
1992.778276489188
 31
0.0
  0
ARC
  5
15B6
330
1F
100
AcDbEntity
  8
SANINDUSA
100
AcDbCircle
 10
4126.278866078938
 20
1992.863191890035
 30
0.0
 40
0.0290000000000001
100
AcDbArc
 50
290.698372722358
 51
17.32090977611173
  0
ARC
  5
15B7
330
1F
100
AcDbEntity
  8
SANINDUSA
100
AcDbCircle
 10
4126.278866078938
 20
1992.863191890035
 30
0.0
 40
0.0290000000000001
100
AcDbArc
 50
17.32090977611173
 51
249.301627277642
  0
ARC
  5
15BA
330
1F
100
AcDbEntity
  8
SANINDUSA
100
AcDbCircle
 10
4126.278866078938
 20
1992.863191890035
 30
0.0
 40
0.0102500000000001
100
AcDbArc
 50
0.0
 51
180.0
  0
LINE
  5
15BC
330
1F
100
AcDbEntity
  8
SANINDUSA
100
AcDbLine
 10
4126.403844638886
 20
1992.758196542778
 30
0.0
 11
4126.403844638886
 21
1992.757451542777
 31
0.0
  0
LINE
  5
15BF
330
1F
100
AcDbEntity
  8
SANINDUSA
100
AcDbLine
 10
4126.388844638887
 20
1992.758446542777
 30
0.0
 11
4126.403594638886
 21
1992.758446542777
 31
0.0
  0
ARC
  5
15C0
330
1F
100
AcDbEntity
  8
SANINDUSA
100
AcDbCircle
 10
4126.403594638886
 20
1992.758196542778
 30
0.0
 40
0.00025
100
AcDbArc
 50
0.0
 51
90.0
  0
LINE
  5
15C1
330
1F
100
AcDbEntity
  8
SANINDUSA
100
AcDbLine
 10
4126.154094638887
 20
1992.758446542777
 30
0.0
 11
4126.168844638885
 21
1992.758446542777
 31
0.0
  0
ARC
  5
15C2
330
1F
100
AcDbEntity
  8
SANINDUSA
100
AcDbCircle
 10
4126.154094638887
 20
1992.758196542778
 30
0.0
 40
0.0002500000000001
100
AcDbArc
 50
90.0
 51
180.0
  0
LINE
  5
15C3
330
1F
100
AcDbEntity
  8
SANINDUSA
100
AcDbLine
 10
4126.153844638887
 20
1992.757451542777
 30
0.0
 11
4126.153844638887
 21
1992.758196542778
 31
0.0
  0
LINE
  5
15C5
330
1F
100
AcDbEntity
  8
SANINDUSA
100
AcDbLine
 10
4126.403594638886
 20
1992.756446542777
 30
0.0
 11
4126.388844638887
 21
1992.756446542777
 31
0.0
  0
ARC
  5
15C6
330
1F
100
AcDbEntity
  8
SANINDUSA
100
AcDbCircle
 10
4126.403594638886
 20
1992.756696542777
 30
0.0
 40
0.00025
100
AcDbArc
 50
270.0
 51
0.0
  0
LINE
  5
15C7
330
1F
100
AcDbEntity
  8
SANINDUSA
100
AcDbLine
 10
4126.168844638885
 20
1992.756446542777
 30
0.0
 11
4126.154094638887
 21
1992.756446542777
 31
0.0
  0
ARC
  5
15C8
330
1F
100
AcDbEntity
  8
SANINDUSA
100
AcDbCircle
 10
4126.154094638887
 20
1992.756696542777
 30
0.0
 40
0.0002500000000001
100
AcDbArc
 50
180.0
 51
270.0
  0
LINE
  5
15C9
330
1F
100
AcDbEntity
  8
SANINDUSA
100
AcDbLine
 10
4126.388844638887
 20
1992.756446542777
 30
0.0
 11
4126.168844638885
 21
1992.756446542777
 31
0.0
  0
LINE
  5
15CA
330
1F
100
AcDbEntity
  8
SANINDUSA
100
AcDbLine
 10
4126.168844638885
 20
1992.758446542777
 30
0.0
 11
4126.388844638887
 21
1992.758446542777
 31
0.0
  0
LINE
  5
15CB
330
1F
100
AcDbEntity
  8
SANINDUSA
100
AcDbLine
 10
4126.153844638887
 20
1992.756696542777
 30
0.0
 11
4126.153844638887
 21
1992.757441542778
 31
0.0
  0
LINE
  5
15CD
330
1F
100
AcDbEntity
  8
SANINDUSA
100
AcDbLine
 10
4126.403844638886
 20
1992.757441542778
 30
0.0
 11
4126.403844638886
 21
1992.756696542777
 31
0.0
  0
ARC
  5
15D1
330
1F
100
AcDbEntity
  8
SANINDUSA
100
AcDbCircle
 10
4126.389207307952
 20
1992.760446542778
 30
0.0
 40
0.0020000000000001
100
AcDbArc
 50
249.4439441406438
 51
270.0
  0
ARC
  5
15D2
330
1F
100
AcDbEntity
  8
SANINDUSA
100
AcDbCircle
 10
4126.168481969818
 20
1992.760446542778
 30
0.0
 40
0.002
100
AcDbArc
 50
270.0
 51
290.5560558593561
  0
LINE
  5
15D3
330
1F
100
AcDbEntity
  8
SANINDUSA
100
AcDbLine
 10
4126.169184217049
 20
1992.758573884552
 30
0.0
 11
4126.176505057291
 21
1992.761319201192
 31
0.0
  0
LINE
  5
15D4
330
1F
100
AcDbEntity
  8
SANINDUSA
100
AcDbLine
 10
4126.381184220481
 20
1992.761319201192
 30
0.0
 11
4126.388505060721
 21
1992.758573884552
 31
0.0
  0
LINE
  5
15D5
330
1F
100
AcDbEntity
  8
SANINDUSA
100
AcDbLine
 10
4126.363016078938
 20
1992.755231194472
 30
0.0
 11
4126.358716078939
 21
1992.755231194472
 31
0.0
  0
LINE
  5
15D6
330
1F
100
AcDbEntity
  8
SANINDUSA
100
AcDbLine
 10
4126.281016078938
 20
1992.755231194472
 30
0.0
 11
4126.276716078938
 21
1992.755231194472
 31
0.0
  0
LINE
  5
15D7
330
1F
100
AcDbEntity
  8
SANINDUSA
100
AcDbLine
 10
4126.199016078937
 20
1992.755231194472
 30
0.0
 11
4126.194716078939
 21
1992.755231194472
 31
0.0
  0
LINE
  5
15D8
330
1F
100
AcDbEntity
  8
SANINDUSA
100
AcDbLine
 10
4126.260516078938
 20
1992.755231194472
 30
0.0
 11
4126.256216078938
 21
1992.755231194472
 31
0.0
  0
LINE
  5
15D9
330
1F
100
AcDbEntity
  8
SANINDUSA
100
AcDbLine
 10
4126.240016078938
 20
1992.755231194472
 30
0.0
 11
4126.235716078939
 21
1992.755231194472
 31
0.0
  0
LINE
  5
15DA
330
1F
100
AcDbEntity
  8
SANINDUSA
100
AcDbLine
 10
4126.322016078939
 20
1992.755231194472
 30
0.0
 11
4126.317716078938
 21
1992.755231194472
 31
0.0
  0
LINE
  5
15DB
330
1F
100
AcDbEntity
  8
SANINDUSA
100
AcDbLine
 10
4126.178516078939
 20
1992.755231194472
 30
0.0
 11
4126.174216078938
 21
1992.755231194472
 31
0.0
  0
LINE
  5
15DC
330
1F
100
AcDbEntity
  8
SANINDUSA
100
AcDbLine
 10
4126.301516078938
 20
1992.755231194472
 30
0.0
 11
4126.297216078938
 21
1992.755231194472
 31
0.0
  0
LINE
  5
15DD
330
1F
100
AcDbEntity
  8
SANINDUSA
100
AcDbLine
 10
4126.383516078938
 20
1992.755231194472
 30
0.0
 11
4126.379216078939
 21
1992.755231194472
 31
0.0
  0
LINE
  5
15DE
330
1F
100
AcDbEntity
  8
SANINDUSA
100
AcDbLine
 10
4126.219516078939
 20
1992.755231194472
 30
0.0
 11
4126.215216078938
 21
1992.755231194472
 31
0.0
  0
LINE
  5
15DF
330
1F
100
AcDbEntity
  8
SANINDUSA
100
AcDbLine
 10
4126.342516078937
 20
1992.755231194472
 30
0.0
 11
4126.338216078939
 21
1992.755231194472
 31
0.0
  0
LINE
  5
15E0
330
1F
100
AcDbEntity
  8
SANINDUSA
100
AcDbLine
 10
4126.198016078938
 20
1992.753531194472
 30
0.0
 11
4126.195716078938
 21
1992.753531194472
 31
0.0
  0
LINE
  5
15E1
330
1F
100
AcDbEntity
  8
SANINDUSA
100
AcDbLine
 10
4126.280016078938
 20
1992.753531194472
 30
0.0
 11
4126.277716078938
 21
1992.753531194472
 31
0.0
  0
LINE
  5
15E2
330
1F
100
AcDbEntity
  8
SANINDUSA
100
AcDbLine
 10
4126.362016078938
 20
1992.753531194472
 30
0.0
 11
4126.359716078939
 21
1992.753531194472
 31
0.0
  0
LINE
  5
15E3
330
1F
100
AcDbEntity
  8
SANINDUSA
100
AcDbLine
 10
4126.300516078939
 20
1992.753531194472
 30
0.0
 11
4126.298216078938
 21
1992.753531194472
 31
0.0
  0
LINE
  5
15E4
330
1F
100
AcDbEntity
  8
SANINDUSA
100
AcDbLine
 10
4126.239016078938
 20
1992.753531194472
 30
0.0
 11
4126.236716078937
 21
1992.753531194472
 31
0.0
  0
LINE
  5
15E5
330
1F
100
AcDbEntity
  8
SANINDUSA
100
AcDbLine
 10
4126.341516078938
 20
1992.753531194472
 30
0.0
 11
4126.339216078938
 21
1992.753531194472
 31
0.0
  0
LINE
  5
15E6
330
1F
100
AcDbEntity
  8
SANINDUSA
100
AcDbLine
 10
4126.259516078938
 20
1992.753531194472
 30
0.0
 11
4126.257216078939
 21
1992.753531194472
 31
0.0
  0
LINE
  5
15E7
330
1F
100
AcDbEntity
  8
SANINDUSA
100
AcDbLine
 10
4126.382516078939
 20
1992.753531194472
 30
0.0
 11
4126.380216078938
 21
1992.753531194472
 31
0.0
  0
LINE
  5
15E8
330
1F
100
AcDbEntity
  8
SANINDUSA
100
AcDbLine
 10
4126.218516078938
 20
1992.753531194472
 30
0.0
 11
4126.216216078939
 21
1992.753531194472
 31
0.0
  0
LINE
  5
15E9
330
1F
100
AcDbEntity
  8
SANINDUSA
100
AcDbLine
 10
4126.321016078938
 20
1992.753531194472
 30
0.0
 11
4126.318716078938
 21
1992.753531194472
 31
0.0
  0
LINE
  5
15EA
330
1F
100
AcDbEntity
  8
SANINDUSA
100
AcDbLine
 10
4126.177516078938
 20
1992.753531194472
 30
0.0
 11
4126.175216078938
 21
1992.753531194472
 31
0.0
  0
ARC
  5
15EB
330
1F
100
AcDbEntity
  8
SANINDUSA
100
AcDbCircle
 10
4126.177207304522
 20
1992.759446542967
 30
0.0
 40
0.0020000000000002
100
AcDbArc
 50
90.0
 51
110.5560558593561
  0
LINE
  5
15EC
330
1F
100
AcDbEntity
  8
SANINDUSA
100
AcDbLine
 10
4126.177207304522
 20
1992.761446542967
 30
0.0
 11
4126.380481973251
 21
1992.761446542967
 31
0.0
  0
ARC
  5
15ED
330
1F
100
AcDbEntity
  8
SANINDUSA
100
AcDbCircle
 10
4126.380481973251
 20
1992.759446542967
 30
0.0
 40
0.0019999999999999
100
AcDbArc
 50
69.44394414064385
 51
90.0
  0
LINE
  5
15EE
330
1F
100
AcDbEntity
  8
SANINDUSA
100
AcDbLine
 10
4126.294636434954
 20
1992.763446542777
 30
0.0
 11
4126.263095722923
 21
1992.763446542777
 31
0.0
  0
LINE
  5
15EF
330
1F
100
AcDbEntity
  8
SANINDUSA
100
AcDbLine
 10
4126.284191232853
 20
1992.775946542777
 30
0.0
 11
4126.293844639089
 21
1992.775946542777
 31
0.0
  0
LINE
  5
15F0
330
1F
100
AcDbEntity
  8
SANINDUSA
100
AcDbLine
 10
4126.263887518787
 20
1992.775946542777
 30
0.0
 11
4126.273540925023
 21
1992.775946542777
 31
0.0
  0
LINE
  5
15F1
330
1F
100
AcDbEntity
  8
SANINDUSA
100
AcDbLine
 10
4126.273540925023
 20
1992.775946542777
 30
0.0
 11
4126.284191232853
 21
1992.775946542777
 31
0.0
  0
LINE
  5
15F2
330
1F
100
AcDbEntity
  8
SANINDUSA
100
AcDbLine
 10
4126.287844638564
 20
1992.781786544652
 30
0.0
 11
4126.269887519312
 21
1992.781786544652
 31
0.0
  0
SPLINE
  5
15F3
330
1F
100
AcDbEntity
  8
SANINDUSA
100
AcDbSpline
210
0.0
220
0.0
230
1.0
 70
    24
 71
     3
 72
     9
 73
     5
 74
     0
 42
0.00000001
 43
0.0000000001
 40
0.0
 40
0.0
 40
0.0
 40
0.0
 40
0.3860076380197161
 40
1.0
 40
1.0
 40
1.0
 40
1.0
 10
4126.268894639229
 20
1992.78253149679
 30
0.0
 10
4126.268894639229
 20
1992.782542164757
 30
0.0
 10
4126.268894639229
 20
1992.78256980143
 30
0.0
 10
4126.268894639229
 20
1992.783125712786
 30
0.0
 10
4126.268894639229
 20
1992.783467038113
 30
0.0
  0
LINE
  5
15F4
330
1F
100
AcDbEntity
  8
SANINDUSA
100
AcDbLine
 10
4126.288794638674
 20
1992.783467038113
 30
0.0
 11
4126.268894639229
 21
1992.783467038113
 31
0.0
  0
SPLINE
  5
15F5
330
1F
100
AcDbEntity
  8
SANINDUSA
100
AcDbSpline
210
0.0
220
0.0
230
1.0
 70
    24
 71
     3
 72
    10
 73
     6
 74
     0
 42
0.00000001
 43
0.0000000001
 40
0.0
 40
0.0
 40
0.0
 40
0.0
 40
0.397698650586088
 40
0.8772381832545235
 40
1.0
 40
1.0
 40
1.0
 40
1.0
 10
4126.288794638674
 20
1992.783467038113
 30
0.0
 10
4126.288794638674
 20
1992.783248221812
 30
0.0
 10
4126.288794638674
 20
1992.782765559842
 30
0.0
 10
4126.288794638674
 20
1992.782412357084
 30
0.0
 10
4126.288794638674
 20
1992.782487727629
 30
0.0
 10
4126.288794638674
 20
1992.782503089747
 30
0.0
  0
LINE
  5
15F6
330
1F
100
AcDbEntity
  8
SANINDUSA
100
AcDbLine
 10
4126.290244639217
 20
1992.788191889484
 30
0.0
 11
4126.288794638674
 21
1992.788191889484
 31
0.0
  0
LINE
  5
15F7
330
1F
100
AcDbEntity
  8
SANINDUSA
100
AcDbLine
 10
4126.288794638674
 20
1992.788191889484
 30
0.0
 11
4126.288794638674
 21
1992.783467038113
 31
0.0
  0
LINE
  5
15F8
330
1F
100
AcDbEntity
  8
SANINDUSA
100
AcDbLine
 10
4126.268894639229
 20
1992.783467038113
 30
0.0
 11
4126.268894639229
 21
1992.788191889484
 31
0.0
  0
LINE
  5
15F9
330
1F
100
AcDbEntity
  8
SANINDUSA
100
AcDbLine
 10
4126.268894639229
 20
1992.788191889484
 30
0.0
 11
4126.26748751866
 21
1992.788191889484
 31
0.0
  0
LINE
  5
15FA
330
1F
100
AcDbEntity
  8
SANINDUSA
100
AcDbLine
 10
4126.29004463909
 20
1992.803191890035
 30
0.0
 11
4126.267687518787
 21
1992.803191890035
 31
0.0
  0
LINE
  5
15FB
330
1F
100
AcDbEntity
  8
SANINDUSA
100
AcDbLine
 10
4126.287844638703
 20
1992.778276489188
 30
0.0
 11
4126.269887519174
 21
1992.778276489188
 31
0.0
  0
SPLINE
  5
1643
330
1F
100
AcDbEntity
  8
SANINDUSA
100
AcDbSpline
210
0.0
220
0.0
230
1.0
 70
     8
 71
     3
 72
     8
 73
     4
 74
     0
 42
0.00000001
 43
0.0000000001
 40
0.0
 40
0.0
 40
0.0
 40
0.0
 40
0.0004203711244605
 40
0.0004203711244605
 40
0.0004203711244605
 40
0.0004203711244605
 10
4126.284285937771
 20
1992.763451417543
 30
0.0
 10
4126.284145824173
 20
1992.763449734624
 30
0.0
 10
4126.284005709872
 20
1992.763448109178
 30
0.0
 10
4126.283865594921
 20
1992.763446542777
 30
0.0
  0
SPLINE
  5
1644
330
1F
100
AcDbEntity
  8
SANINDUSA
100
AcDbSpline
210
0.0
220
0.0
230
1.0
 70
     8
 71
     3
 72
     8
 73
     4
 74
     0
 42
0.00000001
 43
0.0000000001
 40
0.0
 40
0.0
 40
0.0
 40
0.0
 40
0.0004203711244605
 40
0.0004203711244605
 40
0.0004203711244605
 40
0.0004203711244605
 10
4126.273866562955
 20
1992.763446542777
 30
0.0
 10
4126.273726448004
 20
1992.763448109178
 30
0.0
 10
4126.273586333704
 20
1992.763449734624
 30
0.0
 10
4126.273446220105
 20
1992.763451417543
 30
0.0
  0
SPLINE
  5
1646
330
1F
100
AcDbEntity
  8
SANINDUSA
100
AcDbSpline
210
0.0
220
0.0
230
1.0
 70
     8
 71
     3
 72
    14
 73
    10
 74
     0
 42
0.00000001
 43
0.0000000001
 40
0.0
 40
0.0
 40
0.0
 40
0.0
 40
0.25
 40
0.25
 40
0.5
 40
0.5
 40
0.75
 40
0.75
 40
1.0
 40
1.0
 40
1.0
 40
1.0
 10
4126.284457294435
 20
1992.774946542777
 30
0.0
 10
4126.284457294435
 20
1992.775078868058
 30
0.0
 10
4126.284450438457
 20
1992.775208818344
 30
0.0
 10
4126.284423981585
 20
1992.77545106806
 30
0.0
 10
4126.28440436271
 20
1992.775562072361
 30
0.0
 10
4126.284355553067
 20
1992.775746272383
 30
0.0
 10
4126.284325965989
 20
1992.77582061943
 30
0.0
 10
4126.284261865034
 20
1992.775920140905
 30
0.0
 10
4126.284226262324
 20
1992.775946542777
 30
0.0
 10
4126.284191232853
 20
1992.775946542777
 30
0.0
  0
SPLINE
  5
164B
330
1F
100
AcDbEntity
  8
SANINDUSA
100
AcDbSpline
210
0.0
220
0.0
230
1.0
 70
     8
 71
     3
 72
    14
 73
    10
 74
     0
 42
0.00000001
 43
0.0000000001
 40
0.0
 40
0.0
 40
0.0
 40
0.0
 40
0.25
 40
0.25
 40
0.5
 40
0.5
 40
0.75
 40
0.75
 40
1.0
 40
1.0
 40
1.0
 40
1.0
 10
4126.273274863442
 20
1992.774946542777
 30
0.0
 10
4126.273274863442
 20
1992.775078868058
 30
0.0
 10
4126.273281719419
 20
1992.775208818344
 30
0.0
 10
4126.273308176291
 20
1992.77545106806
 30
0.0
 10
4126.273327795167
 20
1992.775562072361
 30
0.0
 10
4126.27337660481
 20
1992.775746272383
 30
0.0
 10
4126.273406191889
 20
1992.77582061943
 30
0.0
 10
4126.273470292843
 20
1992.775920140905
 30
0.0
 10
4126.273505895552
 20
1992.775946542777
 30
0.0
 10
4126.273540925023
 20
1992.775946542777
 30
0.0
  0
LINE
  5
1651
330
1F
100
AcDbEntity
  8
SANINDUSA
100
AcDbLine
 10
4126.273274863442
 20
1992.763751670546
 30
0.0
 11
4126.273274863442
 21
1992.774946542777
 31
0.0
  0
LINE
  5
1652
330
1F
100
AcDbEntity
  8
SANINDUSA
100
AcDbLine
 10
4126.284457294435
 20
1992.774946542777
 30
0.0
 11
4126.284457294435
 21
1992.763751670546
 31
0.0
  0
SPLINE
  5
1654
330
1F
100
AcDbEntity
  8
SANINDUSA
100
AcDbSpline
210
0.0
220
0.0
230
1.0
 70
     8
 71
     3
 72
     8
 73
     4
 74
     0
 42
0.00000001
 43
0.0000000001
 40
0.0
 40
0.0
 40
0.0
 40
0.0
 40
1.0
 40
1.0
 40
1.0
 40
1.0
 10
4126.273446220105
 20
1992.763451417543
 30
0.0
 10
4126.273422116454
 20
1992.763451707054
 30
0.0
 10
4126.273398773917
 20
1992.763451851635
 30
0.0
 10
4126.273376192482
 20
1992.763451851635
 30
0.0
  0
LWPOLYLINE
  5
1655
330
1F
100
AcDbEntity
  8
SANINDUSA
100
AcDbPolyline
 90
        9
 70
   128
 43
0.0
 10
4126.273376192482
 20
1992.763451851635
 10
4126.273356239186
 20
1992.763459350134
 10
4126.273337153274
 20
1992.763477592351
 10
4126.273319636214
 20
1992.763505907824
 10
4126.273304331816
 20
1992.763543255868
 10
4126.273291802564
 20
1992.763588263824
 10
4126.27328250895
 20
1992.763639277504
 10
4126.273276792544
 20
1992.763694421991
 10
4126.273274863442
 20
1992.763751670546
  0
LWPOLYLINE
  5
1656
330
1F
100
AcDbEntity
  8
SANINDUSA
100
AcDbPolyline
 90
        9
 70
   128
 43
0.0
 10
4126.284457294435
 20
1992.763751670546
 10
4126.284455365332
 20
1992.763694421991
 10
4126.284449648926
 20
1992.763639277504
 10
4126.284440355312
 20
1992.763588263824
 10
4126.28442782606
 20
1992.763543255868
 10
4126.284412521662
 20
1992.763505907824
 10
4126.284395004602
 20
1992.763477592351
 10
4126.28437591869
 20
1992.763459350134
 10
4126.284355965394
 20
1992.763451851635
  0
SPLINE
  5
1657
330
1F
100
AcDbEntity
  8
SANINDUSA
100
AcDbSpline
210
0.0
220
0.0
230
1.0
 70
     8
 71
     3
 72
     8
 73
     4
 74
     0
 42
0.00000001
 43
0.0000000001
 40
0.0
 40
0.0
 40
0.0
 40
0.0
 40
1.0
 40
1.0
 40
1.0
 40
1.0
 10
4126.284355965394
 20
1992.763451851635
 30
0.0
 10
4126.28433338396
 20
1992.763451851635
 30
0.0
 10
4126.284310041422
 20
1992.763451707054
 30
0.0
 10
4126.284285937771
 20
1992.763451417543
 30
0.0
  0
LINE
  5
165D
330
1F
100
AcDbEntity
  8
SANINDUSA
100
AcDbLine
 10
4126.581241779832
 20
1992.834191890035
 30
0.0
 11
4126.588991779833
 21
1992.834191890035
 31
0.0
  0
LINE
  5
165E
330
1F
100
AcDbEntity
  8
SANINDUSA
100
AcDbLine
 10
4126.588991779833
 20
1992.892191890035
 30
0.0
 11
4126.581241779832
 21
1992.892191890035
 31
0.0
  0
ARC
  5
165F
330
1F
100
AcDbEntity
  8
SANINDUSA
100
AcDbCircle
 10
4126.588991779833
 20
1992.891941890035
 30
0.0
 40
0.0002500000000001
100
AcDbArc
 50
0.0
 51
90.0
  0
ARC
  5
1660
330
1F
100
AcDbEntity
  8
SANINDUSA
100
AcDbCircle
 10
4126.588991779833
 20
1992.834441890035
 30
0.0
 40
0.0002500000000001
100
AcDbArc
 50
270.0
 51
0.0
  0
LINE
  5
1661
330
1F
100
AcDbEntity
  8
SANINDUSA
100
AcDbLine
 10
4126.589241779833
 20
1992.852941890035
 30
0.0
 11
4126.870991779833
 21
1992.852941890035
 31
0.0
  0
LINE
  5
1662
330
1F
100
AcDbEntity
  8
SANINDUSA
100
AcDbLine
 10
4126.870991779833
 20
1992.873441890035
 30
0.0
 11
4126.589241779833
 21
1992.873441890035
 31
0.0
  0
ARC
  5
1663
330
1F
100
AcDbEntity
  8
SANINDUSA
100
AcDbCircle
 10
4126.870991779833
 20
1992.813191890035
 30
0.0
 40
0.0397500000000001
100
AcDbArc
 50
0.0
 51
90.0
  0
ARC
  5
1664
330
1F
100
AcDbEntity
  8
SANINDUSA
100
AcDbCircle
 10
4126.870991779833
 20
1992.813191890035
 30
0.0
 40
0.0602500000000001
100
AcDbArc
 50
0.0
 51
90.0
  0
LINE
  5
1665
330
1F
100
AcDbEntity
  8
SANINDUSA
100
AcDbLine
 10
4126.931241779833
 20
1992.803191890035
 30
0.0
 11
4126.931241779833
 21
1992.813191890035
 31
0.0
  0
LINE
  5
1666
330
1F
100
AcDbEntity
  8
SANINDUSA
100
AcDbLine
 10
4126.910741779833
 20
1992.813191890035
 30
0.0
 11
4126.910741779833
 21
1992.803191890035
 31
0.0
  0
ARC
  5
16DB
330
1F
100
AcDbEntity
  8
SANINDUSA
100
AcDbCircle
 10
4126.942178543333
 20
1992.764446542967
 30
0.0
 40
0.0030000000000001
100
AcDbArc
 50
243.4349487238784
 51
270.0
  0
ARC
  5
16DC
330
1F
100
AcDbEntity
  8
SANINDUSA
100
AcDbCircle
 10
4126.899805016332
 20
1992.764446542967
 30
0.0
 40
0.0030000000000001
100
AcDbArc
 50
270.0
 51
296.5650512761216
  0
LINE
  5
16DD
330
1F
100
AcDbEntity
  8
SANINDUSA
100
AcDbLine
 10
4126.940836902541
 20
1992.761763261397
 30
0.0
 11
4126.938103776878
 21
1992.763129824236
 31
0.0
  0
LINE
  5
16DE
330
1F
100
AcDbEntity
  8
SANINDUSA
100
AcDbLine
 10
4126.903879782788
 20
1992.763129824236
 30
0.0
 11
4126.901146657124
 21
1992.761763261397
 31
0.0
  0
ARC
  5
16DF
330
1F
100
AcDbEntity
  8
SANINDUSA
100
AcDbCircle
 10
4126.936762135863
 20
1992.760446542778
 30
0.0
 40
0.0030000000000004
100
AcDbArc
 50
63.43494395230378
 51
90.00000026055102
  0
ARC
  5
16E0
330
1F
100
AcDbEntity
  8
SANINDUSA
100
AcDbCircle
 10
4126.905221423803
 20
1992.760446542778
 30
0.0
 40
0.0030000000000003
100
AcDbArc
 50
89.99999973944897
 51
116.5650560476962
  0
LINE
  5
16E1
330
1F
100
AcDbEntity
  8
SANINDUSA
100
AcDbLine
 10
4126.932370340111
 20
1992.783467038113
 30
0.0
 11
4126.932370340111
 21
1992.802991890035
 31
0.0
  0
LINE
  5
16E2
330
1F
100
AcDbEntity
  8
SANINDUSA
100
AcDbLine
 10
4126.909613219555
 20
1992.802991890035
 30
0.0
 11
4126.909613219555
 21
1992.783467038113
 31
0.0
  0
ARC
  5
16E3
330
1F
100
AcDbEntity
  8
SANINDUSA
100
AcDbCircle
 10
4126.932170339984
 20
1992.802991890035
 30
0.0
 40
0.0002000000000007
100
AcDbArc
 50
0.0
 51
90.0
  0
ARC
  5
16E4
330
1F
100
AcDbEntity
  8
SANINDUSA
100
AcDbCircle
 10
4126.909813219682
 20
1992.802991890035
 30
0.0
 40
0.0002000000000008
100
AcDbArc
 50
90.0
 51
180.0
  0
LINE
  5
16E5
330
1F
100
AcDbEntity
  8
SANINDUSA
100
AcDbLine
 10
4126.931814695527
 20
1992.775946542777
 30
0.0
 11
4126.929970339597
 21
1992.778276489188
 31
0.0
  0
LINE
  5
16E6
330
1F
100
AcDbEntity
  8
SANINDUSA
100
AcDbLine
 10
4126.912013220069
 20
1992.778276489188
 30
0.0
 11
4126.910168864138
 21
1992.775946542777
 31
0.0
  0
LINE
  5
16E7
330
1F
100
AcDbEntity
  8
SANINDUSA
100
AcDbLine
 10
4126.909613219427
 20
1992.783467038113
 30
0.0
 11
4126.912013220207
 21
1992.781786544652
 31
0.0
  0
LINE
  5
16E8
330
1F
100
AcDbEntity
  8
SANINDUSA
100
AcDbLine
 10
4126.929970339458
 20
1992.781786544652
 30
0.0
 11
4126.932370340237
 21
1992.783467038113
 31
0.0
  0
LINE
  5
16E9
330
1F
100
AcDbEntity
  8
SANINDUSA
100
AcDbLine
 10
4126.929970339528
 20
1992.778276489188
 30
0.0
 11
4126.929970339528
 21
1992.781786544652
 31
0.0
  0
LINE
  5
16EA
330
1F
100
AcDbEntity
  8
SANINDUSA
100
AcDbLine
 10
4126.912013220137
 20
1992.781786544652
 30
0.0
 11
4126.912013220137
 21
1992.778276489188
 31
0.0
  0
LINE
  5
16EC
330
1F
100
AcDbEntity
  8
SANINDUSA
100
AcDbLine
 10
4126.581241779832
 20
1992.834191890035
 30
0.0
 11
4126.581241779832
 21
1992.892191890035
 31
0.0
  0
LINE
  5
16EE
330
1F
100
AcDbEntity
  8
SANINDUSA
100
AcDbLine
 10
4126.589241779833
 20
1992.891941890035
 30
0.0
 11
4126.589241779833
 21
1992.834441890035
 31
0.0
  0
LINE
  5
16F6
330
1F
100
AcDbEntity
  8
SANINDUSA
100
AcDbLine
 10
4126.795991779832
 20
1992.756696542777
 30
0.0
 11
4126.795991779832
 21
1992.757441542778
 31
0.0
  0
LINE
  5
16F7
330
1F
100
AcDbEntity
  8
SANINDUSA
100
AcDbLine
 10
4126.796241779833
 20
1992.758446542777
 30
0.0
 11
4126.810991779833
 21
1992.758446542777
 31
0.0
  0
ARC
  5
16F8
330
1F
100
AcDbEntity
  8
SANINDUSA
100
AcDbCircle
 10
4126.796241779833
 20
1992.758196542778
 30
0.0
 40
0.0002500000000001
100
AcDbArc
 50
90.0
 51
180.0
  0
LINE
  5
16F9
330
1F
100
AcDbEntity
  8
SANINDUSA
100
AcDbLine
 10
4126.795991779832
 20
1992.757451542777
 30
0.0
 11
4126.795991779832
 21
1992.758196542778
 31
0.0
  0
LINE
  5
16FB
330
1F
100
AcDbEntity
  8
SANINDUSA
100
AcDbLine
 10
4126.810991779833
 20
1992.756446542777
 30
0.0
 11
4126.796241779833
 21
1992.756446542777
 31
0.0
  0
ARC
  5
16FC
330
1F
100
AcDbEntity
  8
SANINDUSA
100
AcDbCircle
 10
4126.796241779833
 20
1992.756696542777
 30
0.0
 40
0.0002500000000001
100
AcDbArc
 50
180.0
 51
270.0
  0
LINE
  5
16FD
330
1F
100
AcDbEntity
  8
SANINDUSA
100
AcDbLine
 10
4126.810991779833
 20
1992.758446542777
 30
0.0
 11
4127.030991779832
 21
1992.758446542777
 31
0.0
  0
LINE
  5
16FF
330
1F
100
AcDbEntity
  8
SANINDUSA
100
AcDbLine
 10
4127.030991779832
 20
1992.756446542777
 30
0.0
 11
4126.810991779833
 21
1992.756446542777
 31
0.0
  0
LINE
  5
1701
330
1F
100
AcDbEntity
  8
SANINDUSA
100
AcDbLine
 10
4127.030991779832
 20
1992.758446542777
 30
0.0
 11
4127.045741779832
 21
1992.758446542777
 31
0.0
  0
ARC
  5
1702
330
1F
100
AcDbEntity
  8
SANINDUSA
100
AcDbCircle
 10
4127.045741779832
 20
1992.758196542778
 30
0.0
 40
0.0002500000000003
100
AcDbArc
 50
0.0
 51
90.0
  0
LINE
  5
1703
330
1F
100
AcDbEntity
  8
SANINDUSA
100
AcDbLine
 10
4127.045741779832
 20
1992.756446542777
 30
0.0
 11
4127.030991779832
 21
1992.756446542777
 31
0.0
  0
ARC
  5
1704
330
1F
100
AcDbEntity
  8
SANINDUSA
100
AcDbCircle
 10
4127.045741779832
 20
1992.756696542777
 30
0.0
 40
0.0002500000000003
100
AcDbArc
 50
270.0
 51
0.0
  0
LINE
  5
1705
330
1F
100
AcDbEntity
  8
SANINDUSA
100
AcDbLine
 10
4127.045991779833
 20
1992.757441542778
 30
0.0
 11
4127.045991779833
 21
1992.756696542777
 31
0.0
  0
LINE
  5
1707
330
1F
100
AcDbEntity
  8
SANINDUSA
100
AcDbLine
 10
4127.045991779833
 20
1992.758196542778
 30
0.0
 11
4127.045991779833
 21
1992.757451542777
 31
0.0
  0
ARC
  5
170B
330
1F
100
AcDbEntity
  8
SANINDUSA
100
AcDbCircle
 10
4126.810629110766
 20
1992.760446542778
 30
0.0
 40
0.0020000000000001
100
AcDbArc
 50
270.0
 51
290.5560558593561
  0
ARC
  5
170C
330
1F
100
AcDbEntity
  8
SANINDUSA
100
AcDbCircle
 10
4127.031354448899
 20
1992.760446542778
 30
0.0
 40
0.002
100
AcDbArc
 50
249.4439441406438
 51
270.0
  0
LINE
  5
170D
330
1F
100
AcDbEntity
  8
SANINDUSA
100
AcDbLine
 10
4126.811331357997
 20
1992.758573884552
 30
0.0
 11
4126.818652198237
 21
1992.761319201192
 31
0.0
  0
LINE
  5
170E
330
1F
100
AcDbEntity
  8
SANINDUSA
100
AcDbLine
 10
4127.023331361428
 20
1992.761319201192
 30
0.0
 11
4127.030652201668
 21
1992.758573884552
 31
0.0
  0
LINE
  5
1725
330
1F
100
AcDbEntity
  8
SANINDUSA
100
AcDbLine
 10
4126.819354445468
 20
1992.761446542967
 30
0.0
 11
4127.022629114197
 21
1992.761446542967
 31
0.0
  0
ARC
  5
1726
330
1F
100
AcDbEntity
  8
SANINDUSA
100
AcDbCircle
 10
4126.819354445468
 20
1992.759446542967
 30
0.0
 40
0.0020000000000001
100
AcDbArc
 50
90.0
 51
110.5560558593561
  0
ARC
  5
1727
330
1F
100
AcDbEntity
  8
SANINDUSA
100
AcDbCircle
 10
4127.022629114197
 20
1992.759446542967
 30
0.0
 40
0.0019999999999999
100
AcDbArc
 50
69.44394414064385
 51
90.0
  0
LINE
  5
1728
330
1F
100
AcDbEntity
  8
SANINDUSA
100
AcDbLine
 10
4126.936762135836
 20
1992.763446542777
 30
0.0
 11
4126.905221423817
 21
1992.763446542777
 31
0.0
  0
LINE
  5
172A
330
1F
100
AcDbEntity
  8
SANINDUSA
100
AcDbLine
 10
4126.906991779832
 20
1992.775946542777
 30
0.0
 11
4126.934991779832
 21
1992.775946542777
 31
0.0
  0
LINE
  5
172C
330
1F
100
AcDbEntity
  8
SANINDUSA
100
AcDbLine
 10
4126.932370340237
 20
1992.783467038113
 30
0.0
 11
4126.926472840588
 21
1992.783467038113
 31
0.0
  0
LINE
  5
172D
330
1F
100
AcDbEntity
  8
SANINDUSA
100
AcDbLine
 10
4126.926472840588
 20
1992.783467038113
 30
0.0
 11
4126.926472840326
 21
1992.788191889484
 31
0.0
  0
LINE
  5
172E
330
1F
100
AcDbEntity
  8
SANINDUSA
100
AcDbLine
 10
4126.926472840326
 20
1992.788191889484
 30
0.0
 11
4126.91551071934
 21
1992.788191889484
 31
0.0
  0
LINE
  5
172F
330
1F
100
AcDbEntity
  8
SANINDUSA
100
AcDbLine
 10
4126.91551071934
 20
1992.788191889484
 30
0.0
 11
4126.91551071934
 21
1992.783467038113
 31
0.0
  0
LINE
  5
1730
330
1F
100
AcDbEntity
  8
SANINDUSA
100
AcDbLine
 10
4126.91551071934
 20
1992.783467038113
 30
0.0
 11
4126.909613219427
 21
1992.783467038113
 31
0.0
  0
LINE
  5
1731
330
1F
100
AcDbEntity
  8
SANINDUSA
100
AcDbLine
 10
4126.932170339425
 20
1992.803191890035
 30
0.0
 11
4126.909813219682
 21
1992.803191890035
 31
0.0
  0
LINE
  5
1732
330
1F
100
AcDbEntity
  8
SANINDUSA
100
AcDbLine
 10
4126.929970339597
 20
1992.778276489188
 30
0.0
 11
4126.912013220069
 21
1992.778276489188
 31
0.0
  0
LINE
  5
1733
330
1F
100
AcDbEntity
  8
SANINDUSA
100
AcDbLine
 10
4126.929970339458
 20
1992.781786544652
 30
0.0
 11
4126.912013220207
 21
1992.781786544652
 31
0.0
  0
SPLINE
  5
1734
330
1F
100
AcDbEntity
  8
SANINDUSA
100
AcDbSpline
210
0.0
220
0.0
230
1.0
 70
     8
 71
     3
 72
    18
 73
    14
 74
     0
 42
0.00000001
 43
0.0000000001
 40
0.0
 40
0.0
 40
0.0
 40
0.0
 40
0.125
 40
0.125
 40
0.2500000000000001
 40
0.2500000000000001
 40
0.5000000000000002
 40
0.5000000000000002
 40
0.6250000000000001
 40
0.6250000000000001
 40
0.7500000000000001
 40
0.7500000000000001
 40
1.0
 40
1.0
 40
1.0
 40
1.0
 10
4126.915510719302
 20
1992.783467038037
 30
0.0
 10
4126.915948333548
 20
1992.783319435379
 30
0.0
 10
4126.916391652652
 20
1992.783183412652
 30
0.0
 10
4126.917292873009
 20
1992.782940966581
 30
0.0
 10
4126.917753309305
 20
1992.782834196527
 30
0.0
 10
4126.919134073919
 20
1992.782574707602
 30
0.0
 10
4126.920057899776
 20
1992.78248217359
 30
0.0
 10
4126.921449334073
 20
1992.782481562212
 30
0.0
 10
4126.921914083891
 20
1992.782504126382
 30
0.0
 10
4126.922845429084
 20
1992.782594033352
 30
0.0
 10
4126.923314106742
 20
1992.782661886103
 30
0.0
 10
4126.924696202085
 20
1992.782922042308
 30
0.0
 10
4126.92559266125
 20
1992.783170162919
 30
0.0
 10
4126.926472840588
 20
1992.783467038113
 30
0.0
  0
SPLINE
  5
1735
330
1F
100
AcDbEntity
  8
SANINDUSA
100
AcDbSpline
210
0.0
220
0.0
230
1.0
 70
     8
 71
     3
 72
    14
 73
    10
 74
     0
 42
0.00000001
 43
0.0000000001
 40
0.0
 40
0.0
 40
0.0
 40
0.0
 40
0.25
 40
0.25
 40
0.5
 40
0.5
 40
0.75
 40
0.75
 40
1.0
 40
1.0
 40
1.0
 40
1.0
 10
4126.905991779833
 20
1992.774946542777
 30
0.0
 10
4126.905991779833
 20
1992.775078859977
 30
0.0
 10
4126.906017912335
 20
1992.775208803939
 30
0.0
 10
4126.906118469706
 20
1992.775451050697
 30
0.0
 10
4126.906192948536
 20
1992.775562058638
 30
0.0
 10
4126.906377425703
 20
1992.775746267867
 30
0.0
 10
4126.906488898474
 20
1992.775820619673
 30
0.0
 10
4126.906729097107
 20
1992.775920143243
 30
0.0
 10
4126.906861853899
 20
1992.775946542777
 30
0.0
 10
4126.906991779832
 20
1992.775946542777
 30
0.0
  0
SPLINE
  5
1736
330
1F
100
AcDbEntity
  8
SANINDUSA
100
AcDbSpline
210
0.0
220
0.0
230
1.0
 70
     8
 71
     3
 72
    14
 73
    10
 74
     0
 42
0.00000001
 43
0.0000000001
 40
0.0
 40
0.0
 40
0.0
 40
0.0
 40
0.25
 40
0.25
 40
0.5
 40
0.5
 40
0.75
 40
0.75
 40
1.0
 40
1.0
 40
1.0
 40
1.0
 10
4126.935991779833
 20
1992.774946542777
 30
0.0
 10
4126.935991779833
 20
1992.775078859977
 30
0.0
 10
4126.935965647329
 20
1992.775208803939
 30
0.0
 10
4126.935865089961
 20
1992.775451050697
 30
0.0
 10
4126.93579061113
 20
1992.775562058638
 30
0.0
 10
4126.935606133963
 20
1992.775746267867
 30
0.0
 10
4126.935494661192
 20
1992.775820619673
 30
0.0
 10
4126.935254462557
 20
1992.775920143243
 30
0.0
 10
4126.935121705767
 20
1992.775946542777
 30
0.0
 10
4126.934991779832
 20
1992.775946542777
 30
0.0
  0
ARC
  5
1737
330
1F
100
AcDbEntity
  8
SANINDUSA
100
AcDbCircle
 10
4126.906291768166
 20
1992.763751246812
 30
0.0
 40
0.0002999883332996
100
AcDbArc
 50
180.0019784812915
 51
268.1340882776106
  0
LINE
  5
1738
330
1F
100
AcDbEntity
  8
SANINDUSA
100
AcDbLine
 10
4126.905991779833
 20
1992.763751236453
 30
0.0
 11
4126.905991779833
 21
1992.774946542777
 31
0.0
  0
LINE
  5
1739
330
1F
100
AcDbEntity
  8
SANINDUSA
100
AcDbLine
 10
4126.935991779833
 20
1992.774946542777
 30
0.0
 11
4126.935991779833
 21
1992.763751236453
 31
0.0
  0
ARC
  5
178F
330
1F
100
AcDbEntity
  8
SANINDUSA
100
AcDbCircle
 10
4126.9356917915
 20
1992.763751246812
 30
0.0
 40
0.0002999883332996
100
AcDbArc
 50
271.8659117223894
 51
359.9980215187084
  0
LINE
  5
1790
330
1F
100
AcDbEntity
  8
SANINDUSA
100
AcDbLine
 10
4125.842702476363
 20
1993.048758337142
 30
0.0
 11
4125.842702476363
 21
1993.041008337142
 31
0.0
  0
LINE
  5
1791
330
1F
100
AcDbEntity
  8
SANINDUSA
100
AcDbLine
 10
4125.900702476363
 20
1993.041008337142
 30
0.0
 11
4125.900702476363
 21
1993.048758337142
 31
0.0
  0
ARC
  5
1792
330
1F
100
AcDbEntity
  8
SANINDUSA
100
AcDbCircle
 10
4125.900452476363
 20
1993.041008337142
 30
0.0
 40
0.00025
100
AcDbArc
 50
270.0
 51
0.0
  0
ARC
  5
1793
330
1F
100
AcDbEntity
  8
SANINDUSA
100
AcDbCircle
 10
4125.842952476364
 20
1993.041008337142
 30
0.0
 40
0.00025
100
AcDbArc
 50
180.0
 51
270.0
  0
LINE
  5
1794
330
1F
100
AcDbEntity
  8
SANINDUSA
100
AcDbLine
 10
4125.861452476363
 20
1993.040758337142
 30
0.0
 11
4125.861452476363
 21
1992.759008337142
 31
0.0
  0
LINE
  5
1795
330
1F
100
AcDbEntity
  8
SANINDUSA
100
AcDbLine
 10
4125.881952476363
 20
1992.759008337142
 30
0.0
 11
4125.881952476363
 21
1993.040758337142
 31
0.0
  0
LINE
  5
1796
330
1F
100
AcDbEntity
  8
SANINDUSA
100
AcDbLine
 10
4125.861452476363
 20
1992.759008337142
 30
0.0
 11
4125.861452476363
 21
1992.709008337142
 31
0.0
  0
LINE
  5
1797
330
1F
100
AcDbEntity
  8
SANINDUSA
100
AcDbLine
 10
4125.881952476363
 20
1992.709008337142
 30
0.0
 11
4125.881952476363
 21
1992.759008337142
 31
0.0
  0
LINE
  5
179E
330
1F
100
AcDbEntity
  8
SANINDUSA
100
AcDbLine
 10
4125.842702476363
 20
1993.048758337142
 30
0.0
 11
4125.900702476363
 21
1993.048758337142
 31
0.0
  0
LINE
  5
179F
330
1F
100
AcDbEntity
  8
SANINDUSA
100
AcDbLine
 10
4125.899148727419
 20
1993.040758337142
 30
0.0
 11
4125.842952476364
 21
1993.040758337142
 31
0.0
  0
LINE
  5
17A0
330
1F
100
AcDbEntity
  8
SANINDUSA
100
AcDbLine
 10
4125.900452476363
 20
1993.040758337142
 30
0.0
 11
4125.899148727419
 21
1993.040758337142
 31
0.0
  0
ARC
  5
17A2
330
1F
100
AcDbEntity
  8
SANINDUSA
100
AcDbCircle
 10
4125.871702476364
 20
1992.709008337142
 30
0.0
 40
0.0102500000000001
100
AcDbArc
 50
180.0
 51
0.0
  0
ARC
  5
17A5
330
1F
100
AcDbEntity
  8
SANINDUSA
100
AcDbCircle
 10
4125.871702476364
 20
1992.709008337142
 30
0.0
 40
0.0113785601517272
100
AcDbArc
 50
154.2656620291652
 51
25.73433797083478
  0
ARC
  5
17A6
330
1F
100
AcDbEntity
  8
SANINDUSA
100
AcDbCircle
 10
4125.871702476364
 20
1992.709008337142
 30
0.0
 40
0.0159785601517243
100
AcDbArc
 50
129.9026104079019
 51
249.517586679735
  0
ARC
  5
17A7
330
1F
100
AcDbEntity
  8
SANINDUSA
100
AcDbCircle
 10
4125.871702476364
 20
1992.709008337142
 30
0.0
 40
0.0159785601517242
100
AcDbArc
 50
290.482413320265
 51
50.0973895920981
  0
ARC
  5
17A8
330
1F
100
AcDbEntity
  8
SANINDUSA
100
AcDbCircle
 10
4125.866286220795
 20
1992.694508337142
 30
0.0
 40
0.0005
100
AcDbArc
 50
249.517586679735
 51
270.0
  0
ARC
  5
17A9
330
1F
100
AcDbEntity
  8
SANINDUSA
100
AcDbCircle
 10
4125.87711873193
 20
1992.694508337142
 30
0.0
 40
0.0005
100
AcDbArc
 50
270.0
 51
290.482413320265
  0
LINE
  5
17AA
330
1F
100
AcDbEntity
  8
SANINDUSA
100
AcDbLine
 10
4125.87711873193
 20
1992.694008337142
 30
0.0
 11
4125.866286220795
 21
1992.694008337142
 31
0.0
  0
ARC
  5
17AB
330
1F
100
AcDbEntity
  8
SANINDUSA
100
AcDbCircle
 10
4125.981681036312
 20
1992.819008337142
 30
0.0
 40
0.015
100
AcDbArc
 50
0.0
 51
90.0
  0
ARC
  5
17AC
330
1F
100
AcDbEntity
  8
SANINDUSA
100
AcDbCircle
 10
4125.761681036311
 20
1992.819008337142
 30
0.0
 40
0.015
100
AcDbArc
 50
90.0
 51
180.0
  0
LINE
  5
17AD
330
1F
100
AcDbEntity
  8
SANINDUSA
100
AcDbLine
 10
4125.761681036311
 20
1992.834008337142
 30
0.0
 11
4125.861452476363
 21
1992.834008337142
 31
0.0
  0
LINE
  5
17AE
330
1F
100
AcDbEntity
  8
SANINDUSA
100
AcDbLine
 10
4125.881952476363
 20
1992.834008337142
 30
0.0
 11
4125.981681036312
 21
1992.834008337142
 31
0.0
  0
LINE
  5
17AF
330
1F
100
AcDbEntity
  8
SANINDUSA
100
AcDbLine
 10
4125.996681036311
 20
1992.819008337142
 30
0.0
 11
4125.996681036311
 21
1992.599008337142
 31
0.0
  0
LINE
  5
17B0
330
1F
100
AcDbEntity
  8
SANINDUSA
100
AcDbLine
 10
4125.746681036311
 20
1992.599008337142
 30
0.0
 11
4125.746681036311
 21
1992.819008337142
 31
0.0
  0
ARC
  5
17B1
330
1F
100
AcDbEntity
  8
SANINDUSA
100
AcDbCircle
 10
4125.981681036312
 20
1992.599008337142
 30
0.0
 40
0.015
100
AcDbArc
 50
270.0
 51
0.0
  0
ARC
  5
17B2
330
1F
100
AcDbEntity
  8
SANINDUSA
100
AcDbCircle
 10
4125.761681036311
 20
1992.599008337142
 30
0.0
 40
0.015
100
AcDbArc
 50
180.0
 51
270.0
  0
LINE
  5
17B3
330
1F
100
AcDbEntity
  8
SANINDUSA
100
AcDbLine
 10
4125.981681036312
 20
1992.584008337142
 30
0.0
 11
4125.761681036311
 21
1992.584008337142
 31
0.0
  0
LINE
  5
17B4
330
1F
100
AcDbEntity
  8
SANINDUSA
100
AcDbLine
 10
4125.899387390471
 20
1993.041008337142
 30
0.0
 11
4125.900702476363
 21
1993.041008337142
 31
0.0
  0
ARC
  5
17C0
330
1F
100
AcDbEntity
  8
SANINDUSA
100
AcDbCircle
 10
4125.871702476364
 20
1992.709008337142
 30
0.0
 40
0.0157703560155462
100
AcDbArc
 50
252.0176456997279
 51
287.9823543002721
  0
ARC
  5
17C1
330
1F
100
AcDbEntity
  8
SANINDUSA
100
AcDbCircle
 10
4125.871702476364
 20
1992.709008337142
 30
0.0
 40
0.0198451227082065
100
AcDbArc
 50
180.0
 51
58.90224994729171
  0
ARC
  5
17C2
330
1F
100
AcDbEntity
  8
SANINDUSA
100
AcDbCircle
 10
4125.871702476364
 20
1992.709008337142
 30
0.0
 40
0.0198451227082065
100
AcDbArc
 50
121.0977500527083
 51
180.0
  0
LINE
  5
17CA
330
1F
100
AcDbEntity
  8
SANINDUSA
100
AcDbLine
 10
4125.974020617906
 20
1992.810645671507
 30
0.0
 11
4125.974020617906
 21
1992.607371002777
 31
0.0
  0
ARC
  5
17CE
330
1F
100
AcDbEntity
  8
SANINDUSA
100
AcDbCircle
 10
4125.968257413108
 20
1992.805584713939
 30
0.0
 40
0.0076699296642199
100
AcDbArc
 50
41.28798138249971
 51
48.71201860890415
  0
LINE
  5
17D0
330
1F
100
AcDbEntity
  8
SANINDUSA
100
AcDbLine
 10
4125.770043701947
 20
1992.811347918737
 30
0.0
 11
4125.861452476363
 21
1992.811347918737
 31
0.0
  0
LINE
  5
17D1
330
1F
100
AcDbEntity
  8
SANINDUSA
100
AcDbLine
 10
4125.881952476363
 20
1992.811347918737
 30
0.0
 11
4125.973318370675
 21
1992.811347918737
 31
0.0
  0
ARC
  5
17D3
330
1F
100
AcDbEntity
  8
SANINDUSA
100
AcDbCircle
 10
4125.775104659516
 20
1992.805584713939
 30
0.0
 40
0.0076699296651184
100
AcDbArc
 50
131.2879813910958
 51
138.7120186175002
  0
LINE
  5
17D5
330
1F
100
AcDbEntity
  8
SANINDUSA
100
AcDbLine
 10
4125.769341454716
 20
1992.607371002777
 30
0.0
 11
4125.769341454716
 21
1992.810645671507
 31
0.0
  0
ARC
  5
17D7
330
1F
100
AcDbEntity
  8
SANINDUSA
100
AcDbCircle
 10
4125.968257413108
 20
1992.612431960345
 30
0.0
 40
0.0076699296642109
100
AcDbArc
 50
311.2879813910959
 51
318.7120186175003
  0
LINE
  5
17D8
330
1F
100
AcDbEntity
  8
SANINDUSA
100
AcDbLine
 10
4125.973318370675
 20
1992.606668755547
 30
0.0
 11
4125.770043701947
 21
1992.606668755547
 31
0.0
  0
ARC
  5
17DA
330
1F
100
AcDbEntity
  8
SANINDUSA
100
AcDbCircle
 10
4125.775104659516
 20
1992.612431960345
 30
0.0
 40
0.0076699296651275
100
AcDbArc
 50
221.2879813824997
 51
228.7120186089041
  0
LINE
  5
17DB
330
1F
100
AcDbEntity
  8
SANINDUSA
100
AcDbLine
 10
4125.769341454716
 20
1992.810645671507
 30
0.0
 11
4125.762020614475
 21
1992.817966511747
 31
0.0
  0
ELLIPSE
  5
17DC
330
1F
100
AcDbEntity
  8
SANINDUSA
100
AcDbEllipse
 10
4125.772710366602
 20
1992.807979006852
 30
0.0
 11
0.0106728176405743
 21
-0.0106728176379591
 31
0.0
210
0.0
220
0.0
230
1.0
 40
0.1325061113355878
 41
2.890686449987287
 42
3.392498857074501
  0
LINE
  5
17DD
330
1F
100
AcDbEntity
  8
SANINDUSA
100
AcDbLine
 10
4125.762722861704
 20
1992.818668758977
 30
0.0
 11
4125.770043701947
 21
1992.811347918737
 31
0.0
  0
LINE
  5
17DE
330
1F
100
AcDbEntity
  8
SANINDUSA
100
AcDbLine
 10
4125.770043701947
 20
1992.606668755547
 30
0.0
 11
4125.762722861704
 21
1992.599347915307
 31
0.0
  0
ELLIPSE
  5
17DF
330
1F
100
AcDbEntity
  8
SANINDUSA
100
AcDbEllipse
 10
4125.772710366602
 20
1992.610037667432
 30
0.0
 11
0.0106728176405743
 21
0.010672817637959
 31
0.0
210
0.0
220
0.0
230
1.0
 40
0.1325061113355849
 41
2.890686450105225
 42
3.392498857192424
  0
LINE
  5
17E0
330
1F
100
AcDbEntity
  8
SANINDUSA
100
AcDbLine
 10
4125.762020614475
 20
1992.600050162537
 30
0.0
 11
4125.769341454716
 21
1992.607371002777
 31
0.0
  0
LINE
  5
17E1
330
1F
100
AcDbEntity
  8
SANINDUSA
100
AcDbLine
 10
4125.973318370675
 20
1992.811347918737
 30
0.0
 11
4125.980639210916
 21
1992.818668758977
 31
0.0
  0
ELLIPSE
  5
17E2
330
1F
100
AcDbEntity
  8
SANINDUSA
100
AcDbEllipse
 10
4125.970651706022
 20
1992.807979006852
 30
0.0
 11
0.010672817637962
 21
0.0106728176379619
 31
0.0
210
0.0
220
0.0
230
1.0
 40
0.1325061113517798
 41
6.032279103608589
 42
6.534091510750656
  0
LINE
  5
17E3
330
1F
100
AcDbEntity
  8
SANINDUSA
100
AcDbLine
 10
4125.981341458146
 20
1992.817966511746
 30
0.0
 11
4125.974020617906
 21
1992.810645671507
 31
0.0
  0
LINE
  5
17E4
330
1F
100
AcDbEntity
  8
SANINDUSA
100
AcDbLine
 10
4125.974020617906
 20
1992.607371002777
 30
0.0
 11
4125.981341458146
 21
1992.600050162537
 31
0.0
  0
ELLIPSE
  5
17E5
330
1F
100
AcDbEntity
  8
SANINDUSA
100
AcDbEllipse
 10
4125.970651706022
 20
1992.610037667432
 30
0.0
 11
0.010672817637962
 21
-0.0106728176379619
 31
0.0
210
0.0
220
0.0
230
1.0
 40
0.1325061113517898
 41
6.032279103608631
 42
6.534091510750637
  0
LINE
  5
17E6
330
1F
100
AcDbEntity
  8
SANINDUSA
100
AcDbLine
 10
4125.980639210916
 20
1992.599347915307
 30
0.0
 11
4125.973318370675
 21
1992.606668755547
 31
0.0
  0
LINE
  5
17E7
330
1F
100
AcDbEntity
  8
SANINDUSA
100
AcDbLine
 10
4125.762020614475
 20
1992.817966511747
 30
0.0
 11
4125.762020614475
 21
1992.600050162537
 31
0.0
  0
LINE
  5
17E8
330
1F
100
AcDbEntity
  8
SANINDUSA
100
AcDbLine
 10
4125.981341458146
 20
1992.600050162537
 30
0.0
 11
4125.981341458146
 21
1992.817966511746
 31
0.0
  0
LINE
  5
17E9
330
1F
100
AcDbEntity
  8
SANINDUSA
100
AcDbLine
 10
4125.980639210916
 20
1992.818668758977
 30
0.0
 11
4125.881952476363
 21
1992.818668758977
 31
0.0
  0
LINE
  5
17EA
330
1F
100
AcDbEntity
  8
SANINDUSA
100
AcDbLine
 10
4125.861452476363
 20
1992.818668758977
 30
0.0
 11
4125.762722861704
 21
1992.818668758977
 31
0.0
  0
LINE
  5
17EB
330
1F
100
AcDbEntity
  8
SANINDUSA
100
AcDbLine
 10
4125.762722861704
 20
1992.599347915307
 30
0.0
 11
4125.980639210916
 21
1992.599347915307
 31
0.0
  0
LINE
  5
1988
330
1F
100
AcDbEntity
  8
SANINDUSA
100
AcDbLine
 10
4126.944263219795
 20
1992.755831194505
 30
0.0
 11
4126.944263219795
 21
1992.75644654273
 31
0.0
  0
LINE
  5
1989
330
1F
100
AcDbEntity
  8
SANINDUSA
100
AcDbLine
 10
4126.938763219975
 20
1992.75644654273
 30
0.0
 11
4126.938763219975
 21
1992.755831194505
 31
0.0
  0
LINE
  5
198A
330
1F
100
AcDbEntity
  8
SANINDUSA
100
AcDbLine
 10
4126.985263219795
 20
1992.755831194505
 30
0.0
 11
4126.985263219795
 21
1992.75644654273
 31
0.0
  0
LINE
  5
198B
330
1F
100
AcDbEntity
  8
SANINDUSA
100
AcDbLine
 10
4126.979763219974
 20
1992.75644654273
 30
0.0
 11
4126.979763219974
 21
1992.755831194505
 31
0.0
  0
LINE
  5
198C
330
1F
100
AcDbEntity
  8
SANINDUSA
100
AcDbLine
 10
4127.026263219795
 20
1992.755831194505
 30
0.0
 11
4127.026263219795
 21
1992.75644654273
 31
0.0
  0
LINE
  5
198D
330
1F
100
AcDbEntity
  8
SANINDUSA
100
AcDbLine
 10
4127.020763219974
 20
1992.75644654273
 30
0.0
 11
4127.020763219974
 21
1992.755831194505
 31
0.0
  0
LINE
  5
198E
330
1F
100
AcDbEntity
  8
SANINDUSA
100
AcDbLine
 10
4126.821263219794
 20
1992.755831194505
 30
0.0
 11
4126.821263219794
 21
1992.75644654273
 31
0.0
  0
LINE
  5
198F
330
1F
100
AcDbEntity
  8
SANINDUSA
100
AcDbLine
 10
4126.815763219974
 20
1992.75644654273
 30
0.0
 11
4126.815763219974
 21
1992.755831194505
 31
0.0
  0
ARC
  5
1990
330
1F
100
AcDbEntity
  8
SANINDUSA
100
AcDbCircle
 10
4127.005163219794
 20
1992.755831194472
 30
0.0
 40
0.0006000000000141
100
AcDbArc
 50
270.0000085981843
 51
0.0000032047777853
  0
ARC
  5
1991
330
1F
100
AcDbEntity
  8
SANINDUSA
100
AcDbCircle
 10
4127.000863219975
 20
1992.755831194472
 30
0.0
 40
0.0006000000000141
100
AcDbArc
 50
179.9999967952222
 51
269.9999914018157
  0
ARC
  5
1992
330
1F
100
AcDbEntity
  8
SANINDUSA
100
AcDbCircle
 10
4126.923163219795
 20
1992.755831194472
 30
0.0
 40
0.0006000000000141
100
AcDbArc
 50
270.0000085981843
 51
0.0000032047777853
  0
ARC
  5
1993
330
1F
100
AcDbEntity
  8
SANINDUSA
100
AcDbCircle
 10
4126.918863219975
 20
1992.755831194472
 30
0.0
 40
0.0006000000000141
100
AcDbArc
 50
179.9999967952222
 51
269.9999914018157
  0
LINE
  5
1994
330
1F
100
AcDbEntity
  8
SANINDUSA
100
AcDbLine
 10
4126.862263219794
 20
1992.755831194505
 30
0.0
 11
4126.862263219794
 21
1992.75644654273
 31
0.0
  0
LINE
  5
1995
330
1F
100
AcDbEntity
  8
SANINDUSA
100
AcDbLine
 10
4126.856763219975
 20
1992.75644654273
 30
0.0
 11
4126.856763219975
 21
1992.755831194505
 31
0.0
  0
LINE
  5
1996
330
1F
100
AcDbEntity
  8
SANINDUSA
100
AcDbLine
 10
4127.005763219795
 20
1992.755831194505
 30
0.0
 11
4127.005763219795
 21
1992.75644654273
 31
0.0
  0
LINE
  5
1997
330
1F
100
AcDbEntity
  8
SANINDUSA
100
AcDbLine
 10
4127.000263219975
 20
1992.75644654273
 30
0.0
 11
4127.000263219975
 21
1992.755831194505
 31
0.0
  0
ARC
  5
1998
330
1F
100
AcDbEntity
  8
SANINDUSA
100
AcDbCircle
 10
4126.841163219795
 20
1992.755831194472
 30
0.0
 40
0.0006000000000141
100
AcDbArc
 50
270.0000085981843
 51
0.0000032047777853
  0
ARC
  5
1999
330
1F
100
AcDbEntity
  8
SANINDUSA
100
AcDbCircle
 10
4126.836863219974
 20
1992.755831194472
 30
0.0
 40
0.0006000000000141
100
AcDbArc
 50
179.9999967952222
 51
269.9999914018157
  0
LINE
  5
199A
330
1F
100
AcDbEntity
  8
SANINDUSA
100
AcDbLine
 10
4126.964763219794
 20
1992.755831194505
 30
0.0
 11
4126.964763219794
 21
1992.75644654273
 31
0.0
  0
LINE
  5
199B
330
1F
100
AcDbEntity
  8
SANINDUSA
100
AcDbLine
 10
4126.959263219974
 20
1992.75644654273
 30
0.0
 11
4126.959263219974
 21
1992.755831194505
 31
0.0
  0
LINE
  5
199C
330
1F
100
AcDbEntity
  8
SANINDUSA
100
AcDbLine
 10
4126.923763219795
 20
1992.755831194505
 30
0.0
 11
4126.923763219795
 21
1992.75644654273
 31
0.0
  0
LINE
  5
199D
330
1F
100
AcDbEntity
  8
SANINDUSA
100
AcDbLine
 10
4126.918263219974
 20
1992.75644654273
 30
0.0
 11
4126.918263219974
 21
1992.755831194505
 31
0.0
  0
ARC
  5
199E
330
1F
100
AcDbEntity
  8
SANINDUSA
100
AcDbCircle
 10
4126.902663219794
 20
1992.755831194472
 30
0.0
 40
0.0006000000000141
100
AcDbArc
 50
270.0000085981843
 51
0.0000032047777853
  0
ARC
  5
199F
330
1F
100
AcDbEntity
  8
SANINDUSA
100
AcDbCircle
 10
4126.898363219974
 20
1992.755831194472
 30
0.0
 40
0.0006000000000141
100
AcDbArc
 50
179.9999967952222
 51
269.9999914018157
  0
ARC
  5
19A0
330
1F
100
AcDbEntity
  8
SANINDUSA
100
AcDbCircle
 10
4126.882163219795
 20
1992.755831194472
 30
0.0
 40
0.0006000000000141
100
AcDbArc
 50
270.0000085981843
 51
0.0000032047777853
  0
ARC
  5
19A1
330
1F
100
AcDbEntity
  8
SANINDUSA
100
AcDbCircle
 10
4126.877863219974
 20
1992.755831194472
 30
0.0
 40
0.0006000000000141
100
AcDbArc
 50
179.9999967952222
 51
269.9999914018157
  0
ARC
  5
19A2
330
1F
100
AcDbEntity
  8
SANINDUSA
100
AcDbCircle
 10
4126.964163219795
 20
1992.755831194472
 30
0.0
 40
0.0006000000000141
100
AcDbArc
 50
270.0000085981843
 51
0.0000032047777853
  0
ARC
  5
19A3
330
1F
100
AcDbEntity
  8
SANINDUSA
100
AcDbCircle
 10
4126.959863219975
 20
1992.755831194472
 30
0.0
 40
0.0006000000000141
100
AcDbArc
 50
179.9999967952222
 51
269.9999914018157
  0
LINE
  5
19A4
330
1F
100
AcDbEntity
  8
SANINDUSA
100
AcDbLine
 10
4126.841763219795
 20
1992.755831194505
 30
0.0
 11
4126.841763219795
 21
1992.75644654273
 31
0.0
  0
LINE
  5
19A5
330
1F
100
AcDbEntity
  8
SANINDUSA
100
AcDbLine
 10
4126.836263219975
 20
1992.75644654273
 30
0.0
 11
4126.836263219975
 21
1992.755831194505
 31
0.0
  0
ARC
  5
19A6
330
1F
100
AcDbEntity
  8
SANINDUSA
100
AcDbCircle
 10
4126.820663219795
 20
1992.755831194472
 30
0.0
 40
0.0006000000000141
100
AcDbArc
 50
270.0000085981843
 51
0.0000032047777853
  0
ARC
  5
19A7
330
1F
100
AcDbEntity
  8
SANINDUSA
100
AcDbCircle
 10
4126.816363219975
 20
1992.755831194472
 30
0.0
 40
0.0006000000000141
100
AcDbArc
 50
179.9999967952222
 51
269.9999914018157
  0
ARC
  5
19A8
330
1F
100
AcDbEntity
  8
SANINDUSA
100
AcDbCircle
 10
4126.943663219795
 20
1992.755831194472
 30
0.0
 40
0.0006000000000141
100
AcDbArc
 50
270.0000085981843
 51
0.0000032047777853
  0
ARC
  5
19A9
330
1F
100
AcDbEntity
  8
SANINDUSA
100
AcDbCircle
 10
4126.939363219974
 20
1992.755831194472
 30
0.0
 40
0.0006000000000141
100
AcDbArc
 50
179.9999967952222
 51
269.9999914018157
  0
ARC
  5
19AA
330
1F
100
AcDbEntity
  8
SANINDUSA
100
AcDbCircle
 10
4127.025663219796
 20
1992.755831194472
 30
0.0
 40
0.0006000000000141
100
AcDbArc
 50
270.0000085981843
 51
0.0000032047777853
  0
ARC
  5
19AB
330
1F
100
AcDbEntity
  8
SANINDUSA
100
AcDbCircle
 10
4127.021363219975
 20
1992.755831194472
 30
0.0
 40
0.0006000000000141
100
AcDbArc
 50
179.9999967952222
 51
269.9999914018157
  0
ARC
  5
19AC
330
1F
100
AcDbEntity
  8
SANINDUSA
100
AcDbCircle
 10
4126.861663219794
 20
1992.755831194472
 30
0.0
 40
0.0006000000000141
100
AcDbArc
 50
270.0000085981843
 51
0.0000032047777853
  0
ARC
  5
19AD
330
1F
100
AcDbEntity
  8
SANINDUSA
100
AcDbCircle
 10
4126.857363219975
 20
1992.755831194472
 30
0.0
 40
0.0006000000000141
100
AcDbArc
 50
179.9999967952222
 51
269.9999914018157
  0
LINE
  5
19AE
330
1F
100
AcDbEntity
  8
SANINDUSA
100
AcDbLine
 10
4126.882763219795
 20
1992.755831194505
 30
0.0
 11
4126.882763219795
 21
1992.75644654273
 31
0.0
  0
LINE
  5
19AF
330
1F
100
AcDbEntity
  8
SANINDUSA
100
AcDbLine
 10
4126.877263219974
 20
1992.75644654273
 30
0.0
 11
4126.877263219974
 21
1992.755831194505
 31
0.0
  0
LINE
  5
19B0
330
1F
100
AcDbEntity
  8
SANINDUSA
100
AcDbLine
 10
4126.903263219794
 20
1992.755831194505
 30
0.0
 11
4126.903263219794
 21
1992.75644654273
 31
0.0
  0
LINE
  5
19B1
330
1F
100
AcDbEntity
  8
SANINDUSA
100
AcDbLine
 10
4126.897763219974
 20
1992.75644654273
 30
0.0
 11
4126.897763219974
 21
1992.755831194505
 31
0.0
  0
ARC
  5
19B2
330
1F
100
AcDbEntity
  8
SANINDUSA
100
AcDbCircle
 10
4126.984663219795
 20
1992.755831194472
 30
0.0
 40
0.0006000000000141
100
AcDbArc
 50
270.0000085981843
 51
0.0000032047777853
  0
ARC
  5
19B3
330
1F
100
AcDbEntity
  8
SANINDUSA
100
AcDbCircle
 10
4126.980363219974
 20
1992.755831194472
 30
0.0
 40
0.0006000000000141
100
AcDbArc
 50
179.9999967952222
 51
269.9999914018157
  0
ARC
  5
19B4
330
1F
100
AcDbEntity
  8
SANINDUSA
100
AcDbCircle
 10
4126.861563219864
 20
1992.754931194472
 30
0.0
 40
0.0003000000000002
100
AcDbArc
 50
89.99999598751399
 51
180.0000128712213
  0
ARC
  5
19B5
330
1F
100
AcDbEntity
  8
SANINDUSA
100
AcDbCircle
 10
4126.857463219906
 20
1992.754931194472
 30
0.0
 40
0.0003000000000002
100
AcDbArc
 50
359.9999871287786
 51
90.000004012486
  0
ARC
  5
19B6
330
1F
100
AcDbEntity
  8
SANINDUSA
100
AcDbCircle
 10
4126.841063219863
 20
1992.754931194472
 30
0.0
 40
0.0003000000000002
100
AcDbArc
 50
89.99999598751399
 51
180.0000128712213
  0
ARC
  5
19B7
330
1F
100
AcDbEntity
  8
SANINDUSA
100
AcDbCircle
 10
4126.836963219905
 20
1992.754931194472
 30
0.0
 40
0.0003000000000002
100
AcDbArc
 50
359.9999871287786
 51
90.000004012486
  0
ARC
  5
19B8
330
1F
100
AcDbEntity
  8
SANINDUSA
100
AcDbCircle
 10
4126.882063219864
 20
1992.754931194472
 30
0.0
 40
0.0003000000000002
100
AcDbArc
 50
89.99999598751399
 51
180.0000128712213
  0
ARC
  5
19B9
330
1F
100
AcDbEntity
  8
SANINDUSA
100
AcDbCircle
 10
4126.877963219905
 20
1992.754931194472
 30
0.0
 40
0.0003000000000002
100
AcDbArc
 50
359.9999871287786
 51
90.000004012486
  0
ARC
  5
19BA
330
1F
100
AcDbEntity
  8
SANINDUSA
100
AcDbCircle
 10
4126.902563219863
 20
1992.754931194472
 30
0.0
 40
0.0003000000000002
100
AcDbArc
 50
89.99999598751399
 51
180.0000128712213
  0
ARC
  5
19BB
330
1F
100
AcDbEntity
  8
SANINDUSA
100
AcDbCircle
 10
4126.898463219905
 20
1992.754931194472
 30
0.0
 40
0.0003000000000002
100
AcDbArc
 50
359.9999871287786
 51
90.000004012486
  0
ARC
  5
19BC
330
1F
100
AcDbEntity
  8
SANINDUSA
100
AcDbCircle
 10
4126.923063219864
 20
1992.754931194472
 30
0.0
 40
0.0003000000000002
100
AcDbArc
 50
89.99999598751399
 51
180.0000128712213
  0
ARC
  5
19BD
330
1F
100
AcDbEntity
  8
SANINDUSA
100
AcDbCircle
 10
4126.918963219906
 20
1992.754931194472
 30
0.0
 40
0.0003000000000002
100
AcDbArc
 50
359.9999871287786
 51
90.000004012486
  0
ARC
  5
19BE
330
1F
100
AcDbEntity
  8
SANINDUSA
100
AcDbCircle
 10
4126.820563219864
 20
1992.754931194472
 30
0.0
 40
0.0003000000000002
100
AcDbArc
 50
89.99999598751399
 51
180.0000128712213
  0
ARC
  5
19BF
330
1F
100
AcDbEntity
  8
SANINDUSA
100
AcDbCircle
 10
4126.816463219905
 20
1992.754931194472
 30
0.0
 40
0.0003000000000002
100
AcDbArc
 50
359.9999871287786
 51
90.000004012486
  0
ARC
  5
19C0
330
1F
100
AcDbEntity
  8
SANINDUSA
100
AcDbCircle
 10
4126.943563219863
 20
1992.754931194472
 30
0.0
 40
0.0003000000000002
100
AcDbArc
 50
89.99999598751399
 51
180.0000128712213
  0
ARC
  5
19C1
330
1F
100
AcDbEntity
  8
SANINDUSA
100
AcDbCircle
 10
4126.939463219906
 20
1992.754931194472
 30
0.0
 40
0.0003000000000002
100
AcDbArc
 50
359.9999871287786
 51
90.000004012486
  0
ARC
  5
19C2
330
1F
100
AcDbEntity
  8
SANINDUSA
100
AcDbCircle
 10
4127.005063219864
 20
1992.754931194472
 30
0.0
 40
0.0003000000000002
100
AcDbArc
 50
89.99999598751399
 51
180.0000128712213
  0
ARC
  5
19C3
330
1F
100
AcDbEntity
  8
SANINDUSA
100
AcDbCircle
 10
4127.000963219905
 20
1992.754931194472
 30
0.0
 40
0.0003000000000002
100
AcDbArc
 50
359.9999871287786
 51
90.000004012486
  0
ARC
  5
19C4
330
1F
100
AcDbEntity
  8
SANINDUSA
100
AcDbCircle
 10
4126.984563219863
 20
1992.754931194472
 30
0.0
 40
0.0003000000000002
100
AcDbArc
 50
89.99999598751399
 51
180.0000128712213
  0
ARC
  5
19C5
330
1F
100
AcDbEntity
  8
SANINDUSA
100
AcDbCircle
 10
4126.980463219905
 20
1992.754931194472
 30
0.0
 40
0.0003000000000002
100
AcDbArc
 50
359.9999871287786
 51
90.000004012486
  0
ARC
  5
19C6
330
1F
100
AcDbEntity
  8
SANINDUSA
100
AcDbCircle
 10
4127.025563219864
 20
1992.754931194472
 30
0.0
 40
0.0003000000000002
100
AcDbArc
 50
89.99999598751399
 51
180.0000128712213
  0
ARC
  5
19C7
330
1F
100
AcDbEntity
  8
SANINDUSA
100
AcDbCircle
 10
4127.021463219906
 20
1992.754931194472
 30
0.0
 40
0.0003000000000002
100
AcDbArc
 50
359.9999871287786
 51
90.000004012486
  0
ARC
  5
19C8
330
1F
100
AcDbEntity
  8
SANINDUSA
100
AcDbCircle
 10
4126.964063219864
 20
1992.754931194472
 30
0.0
 40
0.0003000000000002
100
AcDbArc
 50
89.99999598751399
 51
180.0000128712213
  0
ARC
  5
19C9
330
1F
100
AcDbEntity
  8
SANINDUSA
100
AcDbCircle
 10
4126.959963219905
 20
1992.754931194472
 30
0.0
 40
0.0003000000000002
100
AcDbArc
 50
359.9999871287786
 51
90.000004012486
  0
ARC
  5
19CA
330
1F
100
AcDbEntity
  8
SANINDUSA
100
AcDbCircle
 10
4126.840163219863
 20
1992.754131194472
 30
0.0
 40
0.0005999999999997
100
AcDbArc
 50
270.0000019801879
 51
359.9999899427299
  0
ARC
  5
19CB
330
1F
100
AcDbEntity
  8
SANINDUSA
100
AcDbCircle
 10
4126.837863219906
 20
1992.754131194472
 30
0.0
 40
0.0005999999999999
100
AcDbArc
 50
180.0000100572701
 51
269.9999980198121
  0
LINE
  5
19CC
330
1F
100
AcDbEntity
  8
SANINDUSA
100
AcDbLine
 10
4126.881763219864
 20
1992.754131194366
 30
0.0
 11
4126.881763219864
 21
1992.754931194404
 31
0.0
  0
LINE
  5
19CD
330
1F
100
AcDbEntity
  8
SANINDUSA
100
AcDbLine
 10
4126.878263219905
 20
1992.754931194404
 30
0.0
 11
4126.878263219905
 21
1992.754131194366
 31
0.0
  0
ARC
  5
19CE
330
1F
100
AcDbEntity
  8
SANINDUSA
100
AcDbCircle
 10
4126.922163219864
 20
1992.754131194472
 30
0.0
 40
0.0005999999999998
100
AcDbArc
 50
270.0000019801879
 51
359.9999899427299
  0
ARC
  5
19CF
330
1F
100
AcDbEntity
  8
SANINDUSA
100
AcDbCircle
 10
4126.919863219906
 20
1992.754131194472
 30
0.0
 40
0.0005999999999998
100
AcDbArc
 50
180.0000100572701
 51
269.9999980198121
  0
LINE
  5
19D0
330
1F
100
AcDbEntity
  8
SANINDUSA
100
AcDbLine
 10
4126.840763219864
 20
1992.754131194366
 30
0.0
 11
4126.840763219864
 21
1992.754931194404
 31
0.0
  0
LINE
  5
19D1
330
1F
100
AcDbEntity
  8
SANINDUSA
100
AcDbLine
 10
4126.837263219906
 20
1992.754931194404
 30
0.0
 11
4126.837263219906
 21
1992.754131194366
 31
0.0
  0
ARC
  5
19D2
330
1F
100
AcDbEntity
  8
SANINDUSA
100
AcDbCircle
 10
4127.004163219863
 20
1992.754131194472
 30
0.0
 40
0.0005999999999999
100
AcDbArc
 50
270.0000019801879
 51
359.9999899427299
  0
ARC
  5
19D3
330
1F
100
AcDbEntity
  8
SANINDUSA
100
AcDbCircle
 10
4127.001863219905
 20
1992.754131194472
 30
0.0
 40
0.0005999999999999
100
AcDbArc
 50
180.0000100572701
 51
269.9999980198121
  0
ARC
  5
19D4
330
1F
100
AcDbEntity
  8
SANINDUSA
100
AcDbCircle
 10
4126.942663219863
 20
1992.754131194472
 30
0.0
 40
0.0005999999999997
100
AcDbArc
 50
270.0000019801879
 51
359.9999899427299
  0
ARC
  5
19D5
330
1F
100
AcDbEntity
  8
SANINDUSA
100
AcDbCircle
 10
4126.940363219905
 20
1992.754131194472
 30
0.0
 40
0.0005999999999998
100
AcDbArc
 50
180.0000100572701
 51
269.9999980198121
  0
ARC
  5
19D6
330
1F
100
AcDbEntity
  8
SANINDUSA
100
AcDbCircle
 10
4126.881163219864
 20
1992.754131194472
 30
0.0
 40
0.0005999999999999
100
AcDbArc
 50
270.0000019801879
 51
359.9999899427299
  0
ARC
  5
19D7
330
1F
100
AcDbEntity
  8
SANINDUSA
100
AcDbCircle
 10
4126.878863219905
 20
1992.754131194472
 30
0.0
 40
0.0005999999999999
100
AcDbArc
 50
180.0000100572701
 51
269.9999980198121
  0
LINE
  5
19D8
330
1F
100
AcDbEntity
  8
SANINDUSA
100
AcDbLine
 10
4126.943263219864
 20
1992.754131194366
 30
0.0
 11
4126.943263219864
 21
1992.754931194404
 31
0.0
  0
LINE
  5
19D9
330
1F
100
AcDbEntity
  8
SANINDUSA
100
AcDbLine
 10
4126.939763219906
 20
1992.754931194404
 30
0.0
 11
4126.939763219906
 21
1992.754131194366
 31
0.0
  0
LINE
  5
19DA
330
1F
100
AcDbEntity
  8
SANINDUSA
100
AcDbLine
 10
4126.963763219864
 20
1992.754131194366
 30
0.0
 11
4126.963763219864
 21
1992.754931194404
 31
0.0
  0
LINE
  5
19DB
330
1F
100
AcDbEntity
  8
SANINDUSA
100
AcDbLine
 10
4126.960263219905
 20
1992.754931194404
 30
0.0
 11
4126.960263219905
 21
1992.754131194366
 31
0.0
  0
ARC
  5
19DC
330
1F
100
AcDbEntity
  8
SANINDUSA
100
AcDbCircle
 10
4126.983663219863
 20
1992.754131194472
 30
0.0
 40
0.0005999999999997
100
AcDbArc
 50
270.0000019801879
 51
359.9999899427299
  0
ARC
  5
19DD
330
1F
100
AcDbEntity
  8
SANINDUSA
100
AcDbCircle
 10
4126.981363219906
 20
1992.754131194472
 30
0.0
 40
0.0005999999999999
100
AcDbArc
 50
180.0000100572701
 51
269.9999980198121
  0
LINE
  5
19DE
330
1F
100
AcDbEntity
  8
SANINDUSA
100
AcDbLine
 10
4126.861263219864
 20
1992.754131194366
 30
0.0
 11
4126.861263219864
 21
1992.754931194404
 31
0.0
  0
LINE
  5
19DF
330
1F
100
AcDbEntity
  8
SANINDUSA
100
AcDbLine
 10
4126.857763219906
 20
1992.754931194404
 30
0.0
 11
4126.857763219906
 21
1992.754131194366
 31
0.0
  0
ARC
  5
19E0
330
1F
100
AcDbEntity
  8
SANINDUSA
100
AcDbCircle
 10
4126.901663219864
 20
1992.754131194472
 30
0.0
 40
0.0005999999999999
100
AcDbArc
 50
270.0000019801879
 51
359.9999899427299
  0
ARC
  5
19E1
330
1F
100
AcDbEntity
  8
SANINDUSA
100
AcDbCircle
 10
4126.899363219905
 20
1992.754131194472
 30
0.0
 40
0.0005999999999998
100
AcDbArc
 50
180.0000100572701
 51
269.9999980198121
  0
ARC
  5
19E2
330
1F
100
AcDbEntity
  8
SANINDUSA
100
AcDbCircle
 10
4127.024663219864
 20
1992.754131194472
 30
0.0
 40
0.0005999999999999
100
AcDbArc
 50
270.0000019801879
 51
359.9999899427299
  0
ARC
  5
19E3
330
1F
100
AcDbEntity
  8
SANINDUSA
100
AcDbCircle
 10
4127.022363219906
 20
1992.754131194472
 30
0.0
 40
0.0005999999999999
100
AcDbArc
 50
180.0000100572701
 51
269.9999980198121
  0
LINE
  5
19E4
330
1F
100
AcDbEntity
  8
SANINDUSA
100
AcDbLine
 10
4126.902263219863
 20
1992.754131194366
 30
0.0
 11
4126.902263219863
 21
1992.754931194404
 31
0.0
  0
LINE
  5
19E5
330
1F
100
AcDbEntity
  8
SANINDUSA
100
AcDbLine
 10
4126.898763219906
 20
1992.754931194404
 30
0.0
 11
4126.898763219906
 21
1992.754131194366
 31
0.0
  0
LINE
  5
19E6
330
1F
100
AcDbEntity
  8
SANINDUSA
100
AcDbLine
 10
4126.984263219864
 20
1992.754131194366
 30
0.0
 11
4126.984263219864
 21
1992.754931194404
 31
0.0
  0
LINE
  5
19E7
330
1F
100
AcDbEntity
  8
SANINDUSA
100
AcDbLine
 10
4126.980763219905
 20
1992.754931194404
 30
0.0
 11
4126.980763219905
 21
1992.754131194366
 31
0.0
  0
ARC
  5
19E8
330
1F
100
AcDbEntity
  8
SANINDUSA
100
AcDbCircle
 10
4126.860663219863
 20
1992.754131194472
 30
0.0
 40
0.0005999999999999
100
AcDbArc
 50
270.0000019801879
 51
359.9999899427299
  0
ARC
  5
19E9
330
1F
100
AcDbEntity
  8
SANINDUSA
100
AcDbCircle
 10
4126.858363219906
 20
1992.754131194472
 30
0.0
 40
0.0005999999999999
100
AcDbArc
 50
180.0000100572701
 51
269.9999980198121
  0
LINE
  5
19EA
330
1F
100
AcDbEntity
  8
SANINDUSA
100
AcDbLine
 10
4127.004763219864
 20
1992.754131194366
 30
0.0
 11
4127.004763219864
 21
1992.754931194404
 31
0.0
  0
LINE
  5
19EB
330
1F
100
AcDbEntity
  8
SANINDUSA
100
AcDbLine
 10
4127.001263219906
 20
1992.754931194404
 30
0.0
 11
4127.001263219906
 21
1992.754131194366
 31
0.0
  0
ARC
  5
19EC
330
1F
100
AcDbEntity
  8
SANINDUSA
100
AcDbCircle
 10
4126.963163219863
 20
1992.754131194472
 30
0.0
 40
0.0005999999999998
100
AcDbArc
 50
270.0000019801879
 51
359.9999899427299
  0
ARC
  5
19ED
330
1F
100
AcDbEntity
  8
SANINDUSA
100
AcDbCircle
 10
4126.960863219905
 20
1992.754131194472
 30
0.0
 40
0.0005999999999997
100
AcDbArc
 50
180.0000100572701
 51
269.9999980198121
  0
LINE
  5
19EE
330
1F
100
AcDbEntity
  8
SANINDUSA
100
AcDbLine
 10
4127.025263219863
 20
1992.754131194366
 30
0.0
 11
4127.025263219863
 21
1992.754931194404
 31
0.0
  0
LINE
  5
19EF
330
1F
100
AcDbEntity
  8
SANINDUSA
100
AcDbLine
 10
4127.021763219905
 20
1992.754931194404
 30
0.0
 11
4127.021763219905
 21
1992.754131194366
 31
0.0
  0
LINE
  5
19F0
330
1F
100
AcDbEntity
  8
SANINDUSA
100
AcDbLine
 10
4126.922763219863
 20
1992.754131194366
 30
0.0
 11
4126.922763219863
 21
1992.754931194404
 31
0.0
  0
LINE
  5
19F1
330
1F
100
AcDbEntity
  8
SANINDUSA
100
AcDbLine
 10
4126.919263219906
 20
1992.754931194404
 30
0.0
 11
4126.919263219906
 21
1992.754131194366
 31
0.0
  0
ARC
  5
19F2
330
1F
100
AcDbEntity
  8
SANINDUSA
100
AcDbCircle
 10
4126.819663219865
 20
1992.754131194472
 30
0.0
 40
0.0005999999999998
100
AcDbArc
 50
270.0000019801879
 51
359.9999899427299
  0
ARC
  5
19F3
330
1F
100
AcDbEntity
  8
SANINDUSA
100
AcDbCircle
 10
4126.817363219905
 20
1992.754131194472
 30
0.0
 40
0.0005999999999997
100
AcDbArc
 50
180.0000100572701
 51
269.9999980198121
  0
LINE
  5
19F4
330
1F
100
AcDbEntity
  8
SANINDUSA
100
AcDbLine
 10
4126.820263219864
 20
1992.754131194366
 30
0.0
 11
4126.820263219864
 21
1992.754931194404
 31
0.0
  0
LINE
  5
19F5
330
1F
100
AcDbEntity
  8
SANINDUSA
100
AcDbLine
 10
4126.816763219905
 20
1992.754931194404
 30
0.0
 11
4126.816763219905
 21
1992.754131194366
 31
0.0
  0
LINE
  5
19F6
330
1F
100
AcDbEntity
  8
SANINDUSA
100
AcDbLine
 10
4127.005163219885
 20
1992.755231194472
 30
0.0
 11
4127.000863219885
 21
1992.755231194472
 31
0.0
  0
LINE
  5
19F7
330
1F
100
AcDbEntity
  8
SANINDUSA
100
AcDbLine
 10
4126.923163219884
 20
1992.755231194472
 30
0.0
 11
4126.918863219884
 21
1992.755231194472
 31
0.0
  0
LINE
  5
19F8
330
1F
100
AcDbEntity
  8
SANINDUSA
100
AcDbLine
 10
4126.841163219885
 20
1992.755231194472
 30
0.0
 11
4126.836863219884
 21
1992.755231194472
 31
0.0
  0
LINE
  5
19F9
330
1F
100
AcDbEntity
  8
SANINDUSA
100
AcDbLine
 10
4126.902663219885
 20
1992.755231194472
 30
0.0
 11
4126.898363219885
 21
1992.755231194472
 31
0.0
  0
LINE
  5
19FA
330
1F
100
AcDbEntity
  8
SANINDUSA
100
AcDbLine
 10
4126.882163219884
 20
1992.755231194472
 30
0.0
 11
4126.877863219884
 21
1992.755231194472
 31
0.0
  0
LINE
  5
19FB
330
1F
100
AcDbEntity
  8
SANINDUSA
100
AcDbLine
 10
4126.964163219884
 20
1992.755231194472
 30
0.0
 11
4126.959863219885
 21
1992.755231194472
 31
0.0
  0
LINE
  5
19FC
330
1F
100
AcDbEntity
  8
SANINDUSA
100
AcDbLine
 10
4126.820663219884
 20
1992.755231194472
 30
0.0
 11
4126.816363219885
 21
1992.755231194472
 31
0.0
  0
LINE
  5
19FD
330
1F
100
AcDbEntity
  8
SANINDUSA
100
AcDbLine
 10
4126.943663219885
 20
1992.755231194472
 30
0.0
 11
4126.939363219884
 21
1992.755231194472
 31
0.0
  0
LINE
  5
19FE
330
1F
100
AcDbEntity
  8
SANINDUSA
100
AcDbLine
 10
4127.025663219884
 20
1992.755231194472
 30
0.0
 11
4127.021363219884
 21
1992.755231194472
 31
0.0
  0
LINE
  5
19FF
330
1F
100
AcDbEntity
  8
SANINDUSA
100
AcDbLine
 10
4126.861663219885
 20
1992.755231194472
 30
0.0
 11
4126.857363219885
 21
1992.755231194472
 31
0.0
  0
LINE
  5
1A00
330
1F
100
AcDbEntity
  8
SANINDUSA
100
AcDbLine
 10
4126.984663219885
 20
1992.755231194472
 30
0.0
 11
4126.980363219884
 21
1992.755231194472
 31
0.0
  0
LINE
  5
1A01
330
1F
100
AcDbEntity
  8
SANINDUSA
100
AcDbLine
 10
4126.840163219884
 20
1992.753531194472
 30
0.0
 11
4126.837863219884
 21
1992.753531194472
 31
0.0
  0
LINE
  5
1A02
330
1F
100
AcDbEntity
  8
SANINDUSA
100
AcDbLine
 10
4126.922163219885
 20
1992.753531194472
 30
0.0
 11
4126.919863219884
 21
1992.753531194472
 31
0.0
  0
LINE
  5
1A03
330
1F
100
AcDbEntity
  8
SANINDUSA
100
AcDbLine
 10
4127.004163219885
 20
1992.753531194472
 30
0.0
 11
4127.001863219884
 21
1992.753531194472
 31
0.0
  0
LINE
  5
1A04
330
1F
100
AcDbEntity
  8
SANINDUSA
100
AcDbLine
 10
4126.942663219884
 20
1992.753531194472
 30
0.0
 11
4126.940363219884
 21
1992.753531194472
 31
0.0
  0
LINE
  5
1A05
330
1F
100
AcDbEntity
  8
SANINDUSA
100
AcDbLine
 10
4126.881163219884
 20
1992.753531194472
 30
0.0
 11
4126.878863219885
 21
1992.753531194472
 31
0.0
  0
LINE
  5
1A06
330
1F
100
AcDbEntity
  8
SANINDUSA
100
AcDbLine
 10
4126.983663219885
 20
1992.753531194472
 30
0.0
 11
4126.981363219885
 21
1992.753531194472
 31
0.0
  0
LINE
  5
1A07
330
1F
100
AcDbEntity
  8
SANINDUSA
100
AcDbLine
 10
4126.901663219885
 20
1992.753531194472
 30
0.0
 11
4126.899363219884
 21
1992.753531194472
 31
0.0
  0
LINE
  5
1A08
330
1F
100
AcDbEntity
  8
SANINDUSA
100
AcDbLine
 10
4127.024663219884
 20
1992.753531194472
 30
0.0
 11
4127.022363219885
 21
1992.753531194472
 31
0.0
  0
LINE
  5
1A09
330
1F
100
AcDbEntity
  8
SANINDUSA
100
AcDbLine
 10
4126.860663219884
 20
1992.753531194472
 30
0.0
 11
4126.858363219885
 21
1992.753531194472
 31
0.0
  0
LINE
  5
1A0A
330
1F
100
AcDbEntity
  8
SANINDUSA
100
AcDbLine
 10
4126.963163219885
 20
1992.753531194472
 30
0.0
 11
4126.960863219885
 21
1992.753531194472
 31
0.0
  0
LINE
  5
1A0B
330
1F
100
AcDbEntity
  8
SANINDUSA
100
AcDbLine
 10
4126.819663219885
 20
1992.753531194472
 30
0.0
 11
4126.817363219885
 21
1992.753531194472
 31
0.0
  0
ENDSEC
  0
SECTION
  2
OBJECTS
  0
DICTIONARY
  5
C
330
0
100
AcDbDictionary
281
     1
  3
ACAD_2007HEADERVARS_RT
350
1A9C
  3
ACAD_BACKGROUND
350
1A92
  3
ACAD_CIP_PREVIOUS_PRODUCT_INFO
350
10B9
  3
ACAD_COLOR
350
EE6
  3
ACAD_DETAILVIEWSTYLE
350
10B1
  3
ACAD_GROUP
350
D
  3
ACAD_LAYOUT
350
1A
  3
ACAD_MATERIAL
350
EE5
  3
ACAD_MLEADERSTYLE
350
10AD
  3
ACAD_MLINESTYLE
350
17
  3
ACAD_PLOTSETTINGS
350
19
  3
ACAD_PLOTSTYLENAME
350
E
  3
ACAD_SCALELIST
350
109B
  3
ACAD_SECTIONVIEWSTYLE
350
10AF
  3
ACAD_TABLESTYLE
350
EE7
  3
ACAD_VISUALSTYLE
350
1082
  3
ACDB_RECOMPOSE_DATA
350
1A9A
  3
AcDbVariableDictionary
350
3D
  3
ASE_INDEX_DICTIONARY
350
1066
  3
DWGPROPS
350
1A9B
  0
DICTIONARY
  5
1051
330
2
100
AcDbDictionary
280
     1
281
     1
  3
ACAD_LAYERFILTERS
360
1065
  3
ACLYDICTIONARY
360
1064
  0
DICTIONARY
  5
1A24
330
10
100
AcDbDictionary
280
     1
281
     1
  3
ADSK_XREC_LAYER_RECONCILED
360
1A25
  0
DICTIONARY
  5
1A26
330
2F
100
AcDbDictionary
280
     1
281
     1
  3
ADSK_XREC_LAYER_RECONCILED
360
1A27
  0
DICTIONARY
  5
1A28
330
30
100
AcDbDictionary
280
     1
281
     1
  3
ADSK_XREC_LAYER_RECONCILED
360
1A29
  0
DICTIONARY
  5
1A2A
330
31
100
AcDbDictionary
280
     1
281
     1
  3
ADSK_XREC_LAYER_RECONCILED
360
1A2B
  0
DICTIONARY
  5
1A2C
330
32
100
AcDbDictionary
280
     1
281
     1
  3
ADSK_XREC_LAYER_RECONCILED
360
1A2D
  0
DICTIONARY
  5
1A2E
330
33
100
AcDbDictionary
280
     1
281
     1
  3
ADSK_XREC_LAYER_RECONCILED
360
1A2F
  0
DICTIONARY
  5
1A30
330
34
100
AcDbDictionary
280
     1
281
     1
  3
ADSK_XREC_LAYER_RECONCILED
360
1A31
  0
DICTIONARY
  5
1A32
330
35
100
AcDbDictionary
280
     1
281
     1
  3
ADSK_XREC_LAYER_RECONCILED
360
1A33
  0
DICTIONARY
  5
1A34
330
36
100
AcDbDictionary
280
     1
281
     1
  3
ADSK_XREC_LAYER_RECONCILED
360
1A35
  0
DICTIONARY
  5
1A36
330
37
100
AcDbDictionary
280
     1
281
     1
  3
ADSK_XREC_LAYER_RECONCILED
360
1A37
  0
DICTIONARY
  5
1A38
330
5D6
100
AcDbDictionary
280
     1
281
     1
  3
ADSK_XREC_LAYER_RECONCILED
360
1A39
  0
DICTIONARY
  5
1A3A
330
8AF
100
AcDbDictionary
280
     1
281
     1
  3
ADSK_XREC_LAYER_RECONCILED
360
1A3B
  0
DICTIONARY
  5
1A3C
330
8F8
100
AcDbDictionary
280
     1
281
     1
  3
ADSK_XREC_LAYER_RECONCILED
360
1A3D
  0
DICTIONARY
  5
1A3E
330
91D
100
AcDbDictionary
280
     1
281
     1
  3
ADSK_XREC_LAYER_RECONCILED
360
1A3F
  0
DICTIONARY
  5
1A40
330
C7B
100
AcDbDictionary
280
     1
281
     1
  3
ADSK_XREC_LAYER_RECONCILED
360
1A41
  0
DICTIONARY
  5
1A42
330
1060
100
AcDbDictionary
280
     1
281
     1
  3
ADSK_XREC_LAYER_RECONCILED
360
1A43
  0
DICTIONARY
  5
1ADB
330
1107
100
AcDbDictionary
280
     1
281
     1
  3
ACAD_MTEXT_RT
360
1ADC
  0
DICTIONARY
  5
1ADD
330
193D
100
AcDbDictionary
280
     1
281
     1
  3
ACAD_MTEXT_RT
360
1ADE
  0
DICTIONARY
  5
1A9C
102
{ACAD_REACTORS
330
C
102
}
330
C
100
AcDbDictionary
281
     1
  3
DIMJOGANG
350
1A9D
  0
DICTIONARY
  5
1A92
102
{ACAD_REACTORS
330
C
102
}
330
C
100
AcDbDictionary
281
     1
  0
XRECORD
  5
10B9
102
{ACAD_REACTORS
330
C
102
}
330
C
100
AcDbXrecord
280
     1
300
ACD
300
2013
300
ACD_F_S
  0
DICTIONARY
  5
EE6
102
{ACAD_REACTORS
330
C
102
}
330
C
100
AcDbDictionary
281
     1
  0
DICTIONARY
  5
10B1
102
{ACAD_REACTORS
330
C
102
}
330
C
100
AcDbDictionary
281
     1
  3
Metric50
350
10B2
  0
DICTIONARY
  5
D
102
{ACAD_REACTORS
330
C
102
}
330
C
100
AcDbDictionary
281
     1
  0
DICTIONARY
  5
1A
102
{ACAD_REACTORS
330
C
102
}
330
C
100
AcDbDictionary
281
     1
  3
Layout1
350
1E
  3
Layout2
350
26
  3
Model
350
22
  0
DICTIONARY
  5
EE5
102
{ACAD_REACTORS
330
C
102
}
330
C
100
AcDbDictionary
281
     1
  3
ByBlock
350
1072
  3
ByLayer
350
106A
  3
Global
350
107A
  0
DICTIONARY
  5
10AD
102
{ACAD_REACTORS
330
C
102
}
330
C
100
AcDbDictionary
281
     1
  3
Standard
350
10AE
  0
DICTIONARY
  5
17
102
{ACAD_REACTORS
330
C
102
}
330
C
100
AcDbDictionary
281
     1
  3
Standard
350
18
  0
DICTIONARY
  5
19
102
{ACAD_REACTORS
330
C
102
}
330
C
100
AcDbDictionary
281
     1
  0
ACDBDICTIONARYWDFLT
  5
E
102
{ACAD_REACTORS
330
C
102
}
330
C
100
AcDbDictionary
281
     1
  3
Normal
350
F
100
AcDbDictionaryWithDefault
340
F
  0
DICTIONARY
  5
109B
102
{ACAD_REACTORS
330
C
102
}
330
C
100
AcDbDictionary
281
     1
  3
A0
350
109C
  3
A1
350
109D
  3
A2
350
109E
  3
A3
350
109F
  3
A4
350
10A0
  3
A5
350
10A1
  3
A6
350
10A2
  3
A7
350
10A3
  3
A8
350
10A4
  3
A9
350
10A5
  3
B0
350
10A6
  3
B1
350
10A7
  3
B2
350
10A8
  3
B3
350
10A9
  3
B4
350
10AA
  3
B5
350
10AB
  3
B6
350
10AC
  0
DICTIONARY
  5
10AF
102
{ACAD_REACTORS
330
C
102
}
330
C
100
AcDbDictionary
281
     1
  3
Metric50
350
10B0
  0
DICTIONARY
  5
EE7
102
{ACAD_REACTORS
330
C
102
}
330
C
100
AcDbDictionary
281
     1
  3
Standard
350
EE8
  0
DICTIONARY
  5
1082
102
{ACAD_REACTORS
330
C
102
}
330
C
100
AcDbDictionary
281
     1
  3
2dWireframe
350
1088
  3
Basic
350
1087
  3
Brighten
350
108E
  3
ColorChange
350
1092
  3
Conceptual
350
108B
  3
Dim
350
108D
  3
EdgeColorOff
350
109A
  3
Facepattern
350
1091
  3
Flat
350
1083
  3
FlatWithEdges
350
1084
  3
Gouraud
350
1085
  3
GouraudWithEdges
350
1086
  3
Hidden
350
108A
  3
JitterOff
350
1098
  3
Linepattern
350
1090
  3
OverhangOff
350
1099
  3
Realistic
350
108C
  3
Shaded
350
1097
  3
Shaded with edges
350
1096
  3
Shades of Gray
350
1093
  3
Sketchy
350
1094
  3
Thicken
350
108F
  3
Wireframe
350
1089
  3
X-Ray
350
1095
  0
XRECORD
  5
1A9A
102
{ACAD_REACTORS
330
C
102
}
330
C
100
AcDbXrecord
280
     1
 90
        1
330
EE8
  0
DICTIONARY
  5
3D
102
{ACAD_REACTORS
330
C
102
}
330
C
100
AcDbDictionary
281
     1
  3
CANNOSCALE
350
10C1
  3
CMLEADERSTYLE
350
10BD
  3
CTABLESTYLE
350
1049
  3
CVIEWDETAILSTYLE
350
10BE
  3
CVIEWSECTIONSTYLE
350
10BF
  3
DIMASSOC
350
3F
  3
HIDETEXT
350
3E
  3
INDEXCTL
350
1A96
  3
LAYEREVAL
350
10C3
  3
LAYERNOTIFY
350
10C4
  3
LIGHTINGUNITS
350
10C2
  3
MSLTSCALE
350
10C0
  3
SORTENTS
350
1A95
  3
XCLIPFRAME
350
1A97
  0
DICTIONARY
  5
1066
102
{ACAD_REACTORS
330
C
102
}
330
C
100
AcDbDictionary
281
     1
  3
ASEBlockHierarchyIndexRecord
350
1067
1001
DCO15
1040
1602247867.484
  0
XRECORD
  5
1A9B
102
{ACAD_REACTORS
330
C
102
}
330
C
100
AcDbXrecord
280
     1
  1
DWGPROPS COOKIE
  2

  3

  4

  6

  7

  8
Julio
  9

300
=
301
=
302
=
303
=
304
=
305
=
306
=
307
=
308
=
309
=
 40
0.0674494791666667
 41
2458879.529826493
 42
2458879.597275787
  1

 90
        0
  0
DICTIONARY
  5
1065
102
{ACAD_REACTORS
330
1051
102
}
330
1051
100
AcDbDictionary
281
     1
  0
DICTIONARY
  5
1064
102
{ACAD_REACTORS
330
1051
102
}
330
1051
100
AcDbDictionary
281
     1
1001
ACAD
1000
<All
  0
XRECORD
  5
1A25
102
{ACAD_REACTORS
330
1A24
102
}
330
1A24
100
AcDbXrecord
280
     1
290
     1
  0
XRECORD
  5
1A27
102
{ACAD_REACTORS
330
1A26
102
}
330
1A26
100
AcDbXrecord
280
     1
290
     1
  0
XRECORD
  5
1A29
102
{ACAD_REACTORS
330
1A28
102
}
330
1A28
100
AcDbXrecord
280
     1
290
     1
  0
XRECORD
  5
1A2B
102
{ACAD_REACTORS
330
1A2A
102
}
330
1A2A
100
AcDbXrecord
280
     1
290
     1
  0
XRECORD
  5
1A2D
102
{ACAD_REACTORS
330
1A2C
102
}
330
1A2C
100
AcDbXrecord
280
     1
290
     1
  0
XRECORD
  5
1A2F
102
{ACAD_REACTORS
330
1A2E
102
}
330
1A2E
100
AcDbXrecord
280
     1
290
     1
  0
XRECORD
  5
1A31
102
{ACAD_REACTORS
330
1A30
102
}
330
1A30
100
AcDbXrecord
280
     1
290
     1
  0
XRECORD
  5
1A33
102
{ACAD_REACTORS
330
1A32
102
}
330
1A32
100
AcDbXrecord
280
     1
290
     1
  0
XRECORD
  5
1A35
102
{ACAD_REACTORS
330
1A34
102
}
330
1A34
100
AcDbXrecord
280
     1
290
     1
  0
XRECORD
  5
1A37
102
{ACAD_REACTORS
330
1A36
102
}
330
1A36
100
AcDbXrecord
280
     1
290
     1
  0
XRECORD
  5
1A39
102
{ACAD_REACTORS
330
1A38
102
}
330
1A38
100
AcDbXrecord
280
     1
290
     1
  0
XRECORD
  5
1A3B
102
{ACAD_REACTORS
330
1A3A
102
}
330
1A3A
100
AcDbXrecord
280
     1
290
     1
  0
XRECORD
  5
1A3D
102
{ACAD_REACTORS
330
1A3C
102
}
330
1A3C
100
AcDbXrecord
280
     1
290
     1
  0
XRECORD
  5
1A3F
102
{ACAD_REACTORS
330
1A3E
102
}
330
1A3E
100
AcDbXrecord
280
     1
290
     1
  0
XRECORD
  5
1A41
102
{ACAD_REACTORS
330
1A40
102
}
330
1A40
100
AcDbXrecord
280
     1
290
     1
  0
XRECORD
  5
1A43
102
{ACAD_REACTORS
330
1A42
102
}
330
1A42
100
AcDbXrecord
280
     1
290
     1
  0
XRECORD
  5
1ADC
102
{ACAD_REACTORS
330
1ADB
102
}
330
1ADB
100
AcDbXrecord
280
     1
 40
2563.0
  1
ø58
  0
XRECORD
  5
1ADE
102
{ACAD_REACTORS
330
1ADD
102
}
330
1ADD
100
AcDbXrecord
280
     1
 40
2563.0
  1
ø58
  0
XRECORD
  5
1A9D
102
{ACAD_REACTORS
330
1A9C
102
}
330
1A9C
100
AcDbXrecord
280
     1
 40
1.570796326794896
  0
ACDBDETAILVIEWSTYLE
  5
10B2
102
{ACAD_REACTORS
330
10B1
102
}
330
10B1
100
AcDbModelDocViewStyle
 70
     0
  3
Metric50
290
     0
100
AcDbDetailViewStyle
 70
     0
 71
     0
 90
        3
 71
     1
340
11
 40
5.0
340
0
 40
5.0
300

 40
0.0
280
     1
 71
     2
340
16
 90
       25
 71
     3
340
11
 40
5.0
 90
        0
 40
15.0
 90
        1
300
%<\AcVar ViewDetailId>% (%<\AcVar ViewScale \f "%sn">%)
 71
     4
340
16
 90
       25
340
16
 90
       25
280
     0
  0
LAYOUT
  5
1E
102
{ACAD_XDICTIONARY
360
1A9E
102
}
102
{ACAD_REACTORS
330
1A
102
}
330
1A
100
AcDbPlotSettings
  1

  2
Ploter HP500
  4

  6

 40
0.0
 41
0.0
 42
0.0
 43
0.0
 44
0.0
 45
0.0
 46
0.0
 47
0.0
 48
0.0
 49
0.0
140
0.0
141
0.0
142
1.0
143
1.0
 70
   688
 72
     0
 73
     0
 74
     5
  7
sanindusa.ctb
 75
    16
147
1.0
148
0.0
149
0.0
100
AcDbLayout
  1
Layout1
 70
     1
 71
     1
 10
0.0
 20
0.0
 11
420.0
 21
297.0
 12
0.0
 22
0.0
 32
0.0
 14
1.000000000000000E+20
 24
1.000000000000000E+20
 34
1.000000000000000E+20
 15
-1.000000000000000E+20
 25
-1.000000000000000E+20
 35
-1.000000000000000E+20
146
0.0
 13
0.0
 23
0.0
 33
0.0
 16
1.0
 26
0.0
 36
0.0
 17
0.0
 27
1.0
 37
0.0
 76
     0
330
1B
  0
LAYOUT
  5
26
102
{ACAD_XDICTIONARY
360
1AA2
102
}
102
{ACAD_REACTORS
330
1A
102
}
330
1A
100
AcDbPlotSettings
  1

  2
Ploter HP500
  4

  6

 40
0.0
 41
0.0
 42
0.0
 43
0.0
 44
0.0
 45
0.0
 46
0.0
 47
0.0
 48
0.0
 49
0.0
140
0.0
141
0.0
142
1.0
143
1.0
 70
   688
 72
     0
 73
     0
 74
     5
  7
sanindusa.ctb
 75
    16
147
1.0
148
0.0
149
0.0
100
AcDbLayout
  1
Layout2
 70
     1
 71
     2
 10
0.0
 20
0.0
 11
12.0
 21
9.0
 12
0.0
 22
0.0
 32
0.0
 14
0.0
 24
0.0
 34
0.0
 15
0.0
 25
0.0
 35
0.0
146
0.0
 13
0.0
 23
0.0
 33
0.0
 16
1.0
 26
0.0
 36
0.0
 17
0.0
 27
1.0
 37
0.0
 76
     0
330
23
  0
LAYOUT
  5
22
102
{ACAD_XDICTIONARY
360
1AA0
102
}
102
{ACAD_REACTORS
330
1A
102
}
330
1A
100
AcDbPlotSettings
  1

  2
Ploter HP500
  4
User268
  6

 40
4.995333194732666
 41
16.97565841674804
 42
4.995330810546875
 43
16.97567749023437
 44
209.9733276367187
 45
296.9259948730469
 46
0.0
 47
0.0
 48
0.0
 49
0.0
140
0.0
141
0.0
142
1.0
143
1.0
 70
 11952
 72
     1
 73
     1
 74
     0
  7
sanindusa.ctb
 75
     0
147
1.0
148
-427.5957866592534
149
7.362384574453926
100
AcDbLayout
  1
Model
 70
     1
 71
     0
 10
0.0
 20
0.0
 11
12.0
 21
9.0
 12
0.0
 22
0.0
 32
0.0
 14
0.0
 24
0.0
 34
0.0
 15
0.0
 25
0.0
 35
0.0
146
0.0
 13
0.0
 23
0.0
 33
0.0
 16
1.0
 26
0.0
 36
0.0
 17
0.0
 27
1.0
 37
0.0
 76
     0
330
1F
331
1068
  0
MATERIAL
  5
1072
102
{ACAD_XDICTIONARY
360
1073
102
}
102
{ACAD_REACTORS
330
EE5
102
}
330
EE5
100
AcDbMaterial
  1
ByBlock
 72
     0
 43
0.0008202099737533
 43
0.0
 43
0.0
 43
0.0
 43
0.0
 43
0.0008202099737533
 43
0.0
 43
0.0
 43
0.0
 43
0.0
 43
1.0
 43
0.0
 43
0.0
 43
0.0
 43
0.0
 43
1.0
 77
     0
 47
0.0008202099737533
 47
0.0
 47
0.0
 47
0.0
 47
0.0
 47
0.0008202099737533
 47
0.0
 47
0.0
 47
0.0
 47
0.0
 47
1.0
 47
0.0
 47
0.0
 47
0.0
 47
0.0
 47
1.0
171
     0
 49
0.0008202099737533
 49
0.0
 49
0.0
 49
0.0
 49
0.0
 49
0.0008202099737533
 49
0.0
 49
0.0
 49
0.0
 49
0.0
 49
1.0
 49
0.0
 49
0.0
 49
0.0
 49
0.0
 49
1.0
175
     0
142
0.0008202099737533
142
0.0
142
0.0
142
0.0
142
0.0
142
0.0008202099737533
142
0.0
142
0.0
142
0.0
142
0.0
142
1.0
142
0.0
142
0.0
142
0.0
142
0.0
142
1.0
179
     0
144
0.0008202099737533
144
0.0
144
0.0
144
0.0
144
0.0
144
0.0008202099737533
144
0.0
144
0.0
144
0.0
144
0.0
144
1.0
144
0.0
144
0.0
144
0.0
144
0.0
144
1.0
147
0.0008202099737533
147
0.0
147
0.0
147
0.0
147
0.0
147
0.0008202099737533
147
0.0
147
0.0
147
0.0
147
0.0
147
1.0
147
0.0
147
0.0
147
0.0
147
0.0
147
1.0
  0
MATERIAL
  5
106A
102
{ACAD_XDICTIONARY
360
106B
102
}
102
{ACAD_REACTORS
330
EE5
102
}
330
EE5
100
AcDbMaterial
  1
ByLayer
 72
     0
 43
0.0008202099737533
 43
0.0
 43
0.0
 43
0.0
 43
0.0
 43
0.0008202099737533
 43
0.0
 43
0.0
 43
0.0
 43
0.0
 43
1.0
 43
0.0
 43
0.0
 43
0.0
 43
0.0
 43
1.0
 77
     0
 47
0.0008202099737533
 47
0.0
 47
0.0
 47
0.0
 47
0.0
 47
0.0008202099737533
 47
0.0
 47
0.0
 47
0.0
 47
0.0
 47
1.0
 47
0.0
 47
0.0
 47
0.0
 47
0.0
 47
1.0
171
     0
 49
0.0008202099737533
 49
0.0
 49
0.0
 49
0.0
 49
0.0
 49
0.0008202099737533
 49
0.0
 49
0.0
 49
0.0
 49
0.0
 49
1.0
 49
0.0
 49
0.0
 49
0.0
 49
0.0
 49
1.0
175
     0
142
0.0008202099737533
142
0.0
142
0.0
142
0.0
142
0.0
142
0.0008202099737533
142
0.0
142
0.0
142
0.0
142
0.0
142
1.0
142
0.0
142
0.0
142
0.0
142
0.0
142
1.0
179
     0
144
0.0008202099737533
144
0.0
144
0.0
144
0.0
144
0.0
144
0.0008202099737533
144
0.0
144
0.0
144
0.0
144
0.0
144
1.0
144
0.0
144
0.0
144
0.0
144
0.0
144
1.0
147
0.0008202099737533
147
0.0
147
0.0
147
0.0
147
0.0
147
0.0008202099737533
147
0.0
147
0.0
147
0.0
147
0.0
147
1.0
147
0.0
147
0.0
147
0.0
147
0.0
147
1.0
  0
MATERIAL
  5
107A
102
{ACAD_XDICTIONARY
360
107B
102
}
102
{ACAD_REACTORS
330
EE5
102
}
330
EE5
100
AcDbMaterial
  1
Global
 72
     0
 43
0.0008202099737533
 43
0.0
 43
0.0
 43
0.0
 43
0.0
 43
0.0008202099737533
 43
0.0
 43
0.0
 43
0.0
 43
0.0
 43
1.0
 43
0.0
 43
0.0
 43
0.0
 43
0.0
 43
1.0
 77
     0
 47
0.0008202099737533
 47
0.0
 47
0.0
 47
0.0
 47
0.0
 47
0.0008202099737533
 47
0.0
 47
0.0
 47
0.0
 47
0.0
 47
1.0
 47
0.0
 47
0.0
 47
0.0
 47
0.0
 47
1.0
171
     0
 49
0.0008202099737533
 49
0.0
 49
0.0
 49
0.0
 49
0.0
 49
0.0008202099737533
 49
0.0
 49
0.0
 49
0.0
 49
0.0
 49
1.0
 49
0.0
 49
0.0
 49
0.0
 49
0.0
 49
1.0
175
     0
142
0.0008202099737533
142
0.0
142
0.0
142
0.0
142
0.0
142
0.0008202099737533
142
0.0
142
0.0
142
0.0
142
0.0
142
1.0
142
0.0
142
0.0
142
0.0
142
0.0
142
1.0
179
     0
144
0.0008202099737533
144
0.0
144
0.0
144
0.0
144
0.0
144
0.0008202099737533
144
0.0
144
0.0
144
0.0
144
0.0
144
1.0
144
0.0
144
0.0
144
0.0
144
0.0
144
1.0
147
0.0008202099737533
147
0.0
147
0.0
147
0.0
147
0.0
147
0.0008202099737533
147
0.0
147
0.0
147
0.0
147
0.0
147
1.0
147
0.0
147
0.0
147
0.0
147
0.0
147
1.0
  0
MLEADERSTYLE
  5
10AE
102
{ACAD_XDICTIONARY
360
1AD9
102
}
102
{ACAD_REACTORS
330
10AD
102
}
330
10AD
100
AcDbMLeaderStyle
170
     2
171
     1
172
     0
 90
        2
 40
0.0
 41
0.0
173
     1
 91
-1056964608
340
14
 92
       -2
290
     1
 42
2.0
291
     1
 43
0.36
  3
Standard
 44
4.0
300

342
11
174
     1
178
     6
175
     1
176
     0
 93
-1056964608
 45
4.0
292
     0
297
     0
 46
4.0
 94
-1056964608
 47
1.0
 49
1.0
140
1.0
293
     1
141
0.0
294
     1
177
     0
142
1.0
295
     0
296
     0
143
0.125
1001
ACAD_MLEADERVER
1070
     2
  0
MLINESTYLE
  5
18
102
{ACAD_REACTORS
330
17
102
}
330
17
100
AcDbMlineStyle
  2
STANDARD
 70
     0
  3

 62
   256
 51
90.0
 52
90.0
 71
     2
 49
0.5
 62
   256
  6
BYLAYER
 49
-0.5
 62
   256
  6
BYLAYER
  0
ACDBPLACEHOLDER
  5
F
102
{ACAD_REACTORS
330
E
102
}
330
E
  0
SCALE
  5
109C
102
{ACAD_REACTORS
330
109B
102
}
330
109B
100
AcDbScale
 70
     0
300
1:1
140
1.0
141
1.0
290
     1
  0
SCALE
  5
109D
102
{ACAD_REACTORS
330
109B
102
}
330
109B
100
AcDbScale
 70
     0
300
1:2
140
1.0
141
2.0
290
     0
  0
SCALE
  5
109E
102
{ACAD_REACTORS
330
109B
102
}
330
109B
100
AcDbScale
 70
     0
300
1:4
140
1.0
141
4.0
290
     0
  0
SCALE
  5
109F
102
{ACAD_REACTORS
330
109B
102
}
330
109B
100
AcDbScale
 70
     0
300
1:5
140
1.0
141
5.0
290
     0
  0
SCALE
  5
10A0
102
{ACAD_REACTORS
330
109B
102
}
330
109B
100
AcDbScale
 70
     0
300
1:8
140
1.0
141
8.0
290
     0
  0
SCALE
  5
10A1
102
{ACAD_REACTORS
330
109B
102
}
330
109B
100
AcDbScale
 70
     0
300
1:10
140
1.0
141
10.0
290
     0
  0
SCALE
  5
10A2
102
{ACAD_REACTORS
330
109B
102
}
330
109B
100
AcDbScale
 70
     0
300
1:16
140
1.0
141
16.0
290
     0
  0
SCALE
  5
10A3
102
{ACAD_REACTORS
330
109B
102
}
330
109B
100
AcDbScale
 70
     0
300
1:20
140
1.0
141
20.0
290
     0
  0
SCALE
  5
10A4
102
{ACAD_REACTORS
330
109B
102
}
330
109B
100
AcDbScale
 70
     0
300
1:30
140
1.0
141
30.0
290
     0
  0
SCALE
  5
10A5
102
{ACAD_REACTORS
330
109B
102
}
330
109B
100
AcDbScale
 70
     0
300
1:40
140
1.0
141
40.0
290
     0
  0
SCALE
  5
10A6
102
{ACAD_REACTORS
330
109B
102
}
330
109B
100
AcDbScale
 70
     0
300
1:50
140
1.0
141
50.0
290
     0
  0
SCALE
  5
10A7
102
{ACAD_REACTORS
330
109B
102
}
330
109B
100
AcDbScale
 70
     0
300
1:100
140
1.0
141
100.0
290
     0
  0
SCALE
  5
10A8
102
{ACAD_REACTORS
330
109B
102
}
330
109B
100
AcDbScale
 70
     0
300
2:1
140
2.0
141
1.0
290
     0
  0
SCALE
  5
10A9
102
{ACAD_REACTORS
330
109B
102
}
330
109B
100
AcDbScale
 70
     0
300
4:1
140
4.0
141
1.0
290
     0
  0
SCALE
  5
10AA
102
{ACAD_REACTORS
330
109B
102
}
330
109B
100
AcDbScale
 70
     0
300
8:1
140
8.0
141
1.0
290
     0
  0
SCALE
  5
10AB
102
{ACAD_REACTORS
330
109B
102
}
330
109B
100
AcDbScale
 70
     0
300
10:1
140
10.0
141
1.0
290
     0
  0
SCALE
  5
10AC
102
{ACAD_REACTORS
330
109B
102
}
330
109B
100
AcDbScale
 70
     0
300
100:1
140
100.0
141
1.0
290
     0
  0
ACDBSECTIONVIEWSTYLE
  5
10B0
102
{ACAD_REACTORS
330
10AF
102
}
330
10AF
100
AcDbModelDocViewStyle
 70
     0
  3
Metric50
290
     0
100
AcDbSectionViewStyle
 70
     0
 71
     0
 90
      102
 71
     1
340
11
 40
5.0
340
0
340
0
 40
5.0
300
I, O, Q, S, X, Z
 40
10.0
 90
        0
 40
2.5
 90
        0
 71
     2
340
16
 90
       25
340
16
 90
       50
 40
5.0
 40
2.5
 40
5.0
 71
     3
340
11
 40
5.0
 90
        0
 40
15.0
 90
        1
300
%<\AcVar ViewSectionStartId>%-%<\AcVar ViewSectionEndId>% (%<\AcVar ViewScale \f "%sn">%)
 71
     4
300
ANSI31
 40
1.0
 90
        0
290
     0
290
     0
 90
        6
 40
0.0
 40
1.570796326794896
 40
0.2617993877991494
 40
1.308996938995747
 40
-0.2617993877991494
 40
1.832595714594046
  0
TABLESTYLE
  5
EE8
102
{ACAD_XDICTIONARY
360
1A98
102
}
102
{ACAD_REACTORS
330
EE7
102
}
330
EE7
100
AcDbTableStyle
  3
Standard
 70
     0
 71
     0
 40
1.5
 41
1.5
280
     0
281
     0
  7
Standard
140
4.5
170
     2
 62
     0
 63
     7
283
     0
274
    -2
284
     1
 64
     0
275
    -2
285
     1
 65
     0
276
    -2
286
     1
 66
     0
277
    -2
287
     1
 67
     0
278
    -2
288
     1
 68
     0
279
    -2
289
     1
 69
     0
  7
Standard
140
6.0
170
     5
 62
     0
 63
     7
283
     0
274
    -2
284
     1
 64
     0
275
    -2
285
     1
 65
     0
276
    -2
286
     1
 66
     0
277
    -2
287
     1
 67
     0
278
    -2
288
     1
 68
     0
279
    -2
289
     1
 69
     0
  7
Standard
140
4.5
170
     5
 62
     0
 63
     7
283
     0
274
    -2
284
     1
 64
     0
275
    -2
285
     1
 65
     0
276
    -2
286
     1
 66
     0
277
    -2
287
     1
 67
     0
278
    -2
288
     1
 68
     0
279
    -2
289
     1
 69
     0
  0
VISUALSTYLE
  5
1088
102
{ACAD_XDICTIONARY
360
1AB2
102
}
102
{ACAD_REACTORS
330
1082
102
}
330
1082
100
AcDbVisualStyle
  2
2dWireframe
 70
     4
 71
     0
 72
     2
 73
     0
 90
        0
 40
-0.6
 41
-30.0
 62
     5
 63
     7
 74
     1
 91
        4
 64
     7
 65
   257
 75
     1
175
     1
 42
1.0
 92
        0
 66
   257
 43
1.0
 76
     1
 77
     6
 78
     2
 67
     7
 79
     5
170
     0
171
     0
290
     0
174
     0
 93
        1
 44
0.0
173
     0
291
     0
 45
0.0
1001
ACAD
1000
AcDbSavedByObjectVersion
1070
     0
  0
VISUALSTYLE
  5
1087
102
{ACAD_XDICTIONARY
360
1AB0
102
}
102
{ACAD_REACTORS
330
1082
102
}
330
1082
100
AcDbVisualStyle
  2
Basic
 70
     7
 71
     1
 72
     0
 73
     1
 90
        0
 40
-0.6
 41
-30.0
 62
     5
 63
     7
 74
     0
 91
        4
 64
     7
 65
   257
 75
     1
175
     1
 42
1.0
 92
        8
 66
     7
 43
1.0
 76
     1
 77
     6
 78
     2
 67
     7
 79
     5
170
     0
171
     0
290
     0
174
     0
 93
        1
 44
0.0
173
     0
291
     1
 45
0.0
1001
ACAD
1000
AcDbSavedByObjectVersion
1070
     0
  0
VISUALSTYLE
  5
108E
102
{ACAD_XDICTIONARY
360
1ABE
102
}
102
{ACAD_REACTORS
330
1082
102
}
330
1082
100
AcDbVisualStyle
  2
Brighten
 70
    12
 71
     2
 72
     2
 73
     0
 90
        0
 40
-0.6
 41
-30.0
 62
     5
 63
     7
 74
     1
 91
        4
 64
     7
 65
   257
 75
     1
175
     1
 42
1.0
 92
        8
 66
     7
 43
1.0
 76
     1
 77
     6
 78
     2
 67
     7
 79
     5
170
     0
171
     0
290
     0
174
     0
 93
        1
 44
50.0
173
     0
291
     1
 45
0.0
1001
ACAD
1000
AcDbSavedByObjectVersion
1070
     0
  0
VISUALSTYLE
  5
1092
102
{ACAD_XDICTIONARY
360
1AC6
102
}
102
{ACAD_REACTORS
330
1082
102
}
330
1082
100
AcDbVisualStyle
  2
ColorChange
 70
    16
 71
     2
 72
     2
 73
     3
 90
        0
 40
-0.6
 41
-30.0
 62
     5
 63
     8
 74
     1
 91
        4
 64
     7
 65
   257
 75
     1
175
     1
 42
1.0
 92
        8
 66
     8
 43
1.0
 76
     1
 77
     6
 78
     2
 67
     7
 79
     5
170
     0
171
     0
290
     0
174
     0
 93
        1
 44
0.0
173
     0
291
     1
 45
0.0
1001
ACAD
1000
AcDbSavedByObjectVersion
1070
     0
  0
VISUALSTYLE
  5
108B
102
{ACAD_XDICTIONARY
360
1AB8
102
}
102
{ACAD_REACTORS
330
1082
102
}
330
1082
100
AcDbVisualStyle
  2
Conceptual
 70
     9
 71
     3
 72
     2
 73
     0
 90
        0
 40
-0.6
 41
-30.0
 62
     5
 63
     7
 74
     2
 91
        2
 64
     7
 65
   257
 75
     1
175
     1
 42
179.0
 92
        8
 66
     7
 43
1.0
 76
     1
 77
     6
 78
     2
 67
     7
 79
     3
170
     0
171
     0
290
     0
174
     0
 93
        1
 44
0.0
173
     0
291
     0
 45
0.0
1001
ACAD
1000
AcDbSavedByObjectVersion
1070
     0
  0
VISUALSTYLE
  5
108D
102
{ACAD_XDICTIONARY
360
1ABC
102
}
102
{ACAD_REACTORS
330
1082
102
}
330
1082
100
AcDbVisualStyle
  2
Dim
 70
    11
 71
     2
 72
     2
 73
     0
 90
        0
 40
-0.6
 41
-30.0
 62
     5
 63
     7
 74
     1
 91
        4
 64
     7
 65
   257
 75
     1
175
     1
 42
1.0
 92
        8
 66
     7
 43
1.0
 76
     1
 77
     6
 78
     2
 67
     7
 79
     5
170
     0
171
     0
290
     0
174
     0
 93
        1
 44
-50.0
173
     0
291
     1
 45
0.0
1001
ACAD
1000
AcDbSavedByObjectVersion
1070
     0
  0
VISUALSTYLE
  5
109A
102
{ACAD_XDICTIONARY
360
1AD6
102
}
102
{ACAD_REACTORS
330
1082
102
}
330
1082
100
AcDbVisualStyle
  2
EdgeColorOff
 70
    22
 71
     2
 72
     2
 73
     0
 90
        0
 40
-0.6
 41
-30.0
 62
     5
 63
     7
 74
     1
 91
        4
 64
     7
 65
   257
 75
     1
175
     1
 42
1.0
 92
        8
 66
     7
 43
1.0
 76
     1
 77
     6
 78
     2
 67
     7
 79
     5
170
     0
171
     0
290
     0
174
     0
 93
        1
 44
0.0
173
     0
291
     1
 45
0.0
1001
ACAD
1000
AcDbSavedByObjectVersion
1070
     0
  0
VISUALSTYLE
  5
1091
102
{ACAD_XDICTIONARY
360
1AC4
102
}
102
{ACAD_REACTORS
330
1082
102
}
330
1082
100
AcDbVisualStyle
  2
Facepattern
 70
    15
 71
     2
 72
     2
 73
     0
 90
        0
 40
-0.6
 41
-30.0
 62
     5
 63
     7
 74
     1
 91
        4
 64
     7
 65
   257
 75
     1
175
     1
 42
1.0
 92
        8
 66
     7
 43
1.0
 76
     1
 77
     6
 78
     2
 67
     7
 79
     5
170
     0
171
     0
290
     0
174
     0
 93
        1
 44
0.0
173
     0
291
     1
 45
0.0
1001
ACAD
1000
AcDbSavedByObjectVersion
1070
     0
  0
VISUALSTYLE
  5
1083
102
{ACAD_XDICTIONARY
360
1AA8
102
}
102
{ACAD_REACTORS
330
1082
102
}
330
1082
100
AcDbVisualStyle
  2
Flat
 70
     0
 71
     2
 72
     1
 73
     1
 90
        2
 40
-0.6
 41
30.0
 62
     5
 63
     7
 74
     0
 91
        0
 64
     7
 65
   257
 75
     1
175
     1
 42
1.0
 92
        8
 66
     7
 43
1.0
 76
     1
 77
     6
 78
     2
 67
     7
 79
     5
170
     0
171
     0
290
     0
174
     0
 93
       13
 44
0.0
173
     0
291
     1
 45
0.0
1001
ACAD
1000
AcDbSavedByObjectVersion
1070
     0
  0
VISUALSTYLE
  5
1084
102
{ACAD_XDICTIONARY
360
1AAA
102
}
102
{ACAD_REACTORS
330
1082
102
}
330
1082
100
AcDbVisualStyle
  2
FlatWithEdges
 70
     1
 71
     2
 72
     1
 73
     1
 90
        2
 40
-0.6
 41
30.0
 62
     5
 63
     7
 74
     1
 91
        0
 64
     7
 65
   257
 75
     1
175
     1
 42
1.0
 92
        0
 66
   257
 43
1.0
 76
     1
 77
     6
 78
     2
 67
     7
 79
     5
170
     0
171
     0
290
     0
174
     0
 93
       13
 44
0.0
173
     0
291
     1
 45
0.0
1001
ACAD
1000
AcDbSavedByObjectVersion
1070
     0
  0
VISUALSTYLE
  5
1085
102
{ACAD_XDICTIONARY
360
1AAC
102
}
102
{ACAD_REACTORS
330
1082
102
}
330
1082
100
AcDbVisualStyle
  2
Gouraud
 70
     2
 71
     2
 72
     2
 73
     1
 90
        2
 40
-0.6
 41
30.0
 62
     5
 63
     7
 74
     0
 91
        0
 64
     7
 65
   257
 75
     1
175
     1
 42
1.0
 92
        0
 66
     7
 43
1.0
 76
     1
 77
     6
 78
     2
 67
     7
 79
     5
170
     0
171
     0
290
     0
174
     0
 93
       13
 44
0.0
173
     0
291
     1
 45
0.0
1001
ACAD
1000
AcDbSavedByObjectVersion
1070
     0
  0
VISUALSTYLE
  5
1086
102
{ACAD_XDICTIONARY
360
1AAE
102
}
102
{ACAD_REACTORS
330
1082
102
}
330
1082
100
AcDbVisualStyle
  2
GouraudWithEdges
 70
     3
 71
     2
 72
     2
 73
     1
 90
        2
 40
-0.6
 41
30.0
 62
     5
 63
     7
 74
     1
 91
        0
 64
     7
 65
   257
 75
     1
175
     1
 42
1.0
 92
        0
 66
   257
 43
1.0
 76
     1
 77
     6
 78
     2
 67
     7
 79
     5
170
     0
171
     0
290
     0
174
     0
 93
       13
 44
0.0
173
     0
291
     1
 45
0.0
1001
ACAD
1000
AcDbSavedByObjectVersion
1070
     0
  0
VISUALSTYLE
  5
108A
102
{ACAD_XDICTIONARY
360
1AB6
102
}
102
{ACAD_REACTORS
330
1082
102
}
330
1082
100
AcDbVisualStyle
  2
Hidden
 70
     6
 71
     1
 72
     2
 73
     2
 90
        0
 40
-0.6
 41
-30.0
 62
     5
 63
     7
 74
     2
 91
        2
 64
     7
 65
   257
 75
     2
175
     1
 42
40.0
 92
        0
 66
   257
 43
1.0
 76
     1
 77
     6
 78
     2
 67
     7
 79
     3
170
     0
171
     0
290
     0
174
     0
 93
        1
 44
0.0
173
     0
291
     0
 45
0.0
1001
ACAD
1000
AcDbSavedByObjectVersion
1070
     0
  0
VISUALSTYLE
  5
1098
102
{ACAD_XDICTIONARY
360
1AD2
102
}
102
{ACAD_REACTORS
330
1082
102
}
330
1082
100
AcDbVisualStyle
  2
JitterOff
 70
    20
 71
     2
 72
     2
 73
     0
 90
        0
 40
-0.6
 41
-30.0
 62
     5
 63
     7
 74
     1
 91
        4
 64
     7
 65
   257
 75
     1
175
     1
 42
1.0
 92
       10
 66
     7
 43
1.0
 76
     1
 77
     6
 78
     2
 67
     7
 79
     5
170
     0
171
     0
290
     0
174
     0
 93
        1
 44
0.0
173
     0
291
     1
 45
0.0
1001
ACAD
1000
AcDbSavedByObjectVersion
1070
     0
  0
VISUALSTYLE
  5
1090
102
{ACAD_XDICTIONARY
360
1AC2
102
}
102
{ACAD_REACTORS
330
1082
102
}
330
1082
100
AcDbVisualStyle
  2
Linepattern
 70
    14
 71
     2
 72
     2
 73
     0
 90
        0
 40
-0.6
 41
-30.0
 62
     5
 63
     7
 74
     1
 91
        4
 64
     7
 65
   257
 75
     7
175
     7
 42
1.0
 92
        8
 66
     7
 43
1.0
 76
     1
 77
     6
 78
     2
 67
     7
 79
     5
170
     0
171
     0
290
     0
174
     0
 93
        1
 44
0.0
173
     0
291
     1
 45
0.0
1001
ACAD
1000
AcDbSavedByObjectVersion
1070
     0
  0
VISUALSTYLE
  5
1099
102
{ACAD_XDICTIONARY
360
1AD4
102
}
102
{ACAD_REACTORS
330
1082
102
}
330
1082
100
AcDbVisualStyle
  2
OverhangOff
 70
    21
 71
     2
 72
     2
 73
     0
 90
        0
 40
-0.6
 41
-30.0
 62
     5
 63
     7
 74
     1
 91
        4
 64
     7
 65
   257
 75
     1
175
     1
 42
1.0
 92
        9
 66
     7
 43
1.0
 76
     1
 77
     6
 78
     2
 67
     7
 79
     5
170
     0
171
     0
290
     0
174
     0
 93
        1
 44
0.0
173
     0
291
     1
 45
0.0
1001
ACAD
1000
AcDbSavedByObjectVersion
1070
     0
  0
VISUALSTYLE
  5
108C
102
{ACAD_XDICTIONARY
360
1ABA
102
}
102
{ACAD_REACTORS
330
1082
102
}
330
1082
100
AcDbVisualStyle
  2
Realistic
 70
     8
 71
     2
 72
     3
 73
     0
 90
        2
 40
-0.6
 41
30.0
 62
     5
 63
     7
 74
     0
 91
        0
 64
     7
 65
   257
 75
     1
175
     1
 42
1.0
 92
        8
 66
   257
 43
1.0
 76
     1
 77
     6
 78
     2
 67
     7
 79
     3
170
     0
171
     0
290
     0
174
     0
 93
       13
 44
0.0
173
     0
291
     0
 45
0.0
1001
ACAD
1000
AcDbSavedByObjectVersion
1070
     0
  0
VISUALSTYLE
  5
1097
102
{ACAD_XDICTIONARY
360
1AD0
102
}
102
{ACAD_REACTORS
330
1082
102
}
330
1082
100
AcDbVisualStyle
  2
Shaded
 70
    27
 71
     2
 72
     2
 73
     1
 90
        2
 40
-0.6
 41
30.0
 62
     5
 63
     7
 74
     0
 91
        4
 64
     7
 65
   257
 75
     1
175
     1
 42
1.0
 92
        8
 66
   257
 43
1.0
 76
     1
 77
     6
 78
     2
 67
     8
 79
     3
170
     0
171
     0
290
     0
174
     0
 93
        5
 44
0.0
173
     0
291
     0
 45
0.0
1001
ACAD
1000
AcDbSavedByObjectVersion
1070
     0
  0
VISUALSTYLE
  5
1096
102
{ACAD_XDICTIONARY
360
1ACE
102
}
102
{ACAD_REACTORS
330
1082
102
}
330
1082
100
AcDbVisualStyle
  2
Shaded with edges
 70
    26
 71
     2
 72
     2
 73
     1
 90
        2
 40
-0.6
 41
30.0
 62
     5
 63
     7
 74
     1
 91
       10
 64
     7
 65
   257
 75
     2
175
     1
 42
1.0
 92
        8
 66
   257
 43
1.0
 76
     1
 77
     6
 78
     2
 67
     7
 79
     3
170
     0
171
     0
290
     0
174
     0
 93
        5
 44
0.0
173
     0
291
     0
 45
0.0
1001
ACAD
1000
AcDbSavedByObjectVersion
1070
     0
  0
VISUALSTYLE
  5
1093
102
{ACAD_XDICTIONARY
360
1AC8
102
}
102
{ACAD_REACTORS
330
1082
102
}
330
1082
100
AcDbVisualStyle
  2
Shades of Gray
 70
    23
 71
     2
 72
     2
 73
     3
 90
        0
 40
-0.6
 41
-30.0
 62
     5
 63
     7
 74
     2
 91
        2
 64
     7
 65
     7
 75
     1
175
     1
 42
40.0
 92
        8
 66
     7
 43
1.0
 76
     1
 77
     6
 78
     2
 67
     7
 79
     3
170
     0
171
     0
290
     0
174
     0
 93
        1
 44
0.0
173
     0
291
     0
 45
0.0
1001
ACAD
1000
AcDbSavedByObjectVersion
1070
     0
  0
VISUALSTYLE
  5
1094
102
{ACAD_XDICTIONARY
360
1ACA
102
}
102
{ACAD_REACTORS
330
1082
102
}
330
1082
100
AcDbVisualStyle
  2
Sketchy
 70
    24
 71
     1
 72
     2
 73
     2
 90
        0
 40
-0.6
 41
-30.0
 62
     5
 63
     7
 74
     2
 91
        2
 64
     7
 65
     7
 75
     1
175
     1
 42
40.0
 92
       11
 66
     7
 43
1.0
 76
     1
 77
     6
 78
     2
 67
     7
 79
     6
170
     0
171
     0
290
     0
174
     0
 93
        1
 44
0.0
173
     0
291
     0
 45
0.0
1001
ACAD
1000
AcDbSavedByObjectVersion
1070
     0
  0
VISUALSTYLE
  5
108F
102
{ACAD_XDICTIONARY
360
1AC0
102
}
102
{ACAD_REACTORS
330
1082
102
}
330
1082
100
AcDbVisualStyle
  2
Thicken
 70
    13
 71
     2
 72
     2
 73
     0
 90
        0
 40
-0.6
 41
-30.0
 62
     5
 63
     7
 74
     1
 91
        4
 64
     7
 65
   257
 75
     1
175
     1
 42
1.0
 92
       12
 66
     7
 43
1.0
 76
     1
 77
     6
 78
     2
 67
     7
 79
     5
170
     0
171
     0
290
     0
174
     0
 93
        1
 44
0.0
173
     0
291
     1
 45
0.0
1001
ACAD
1000
AcDbSavedByObjectVersion
1070
     0
  0
VISUALSTYLE
  5
1089
102
{ACAD_XDICTIONARY
360
1AB4
102
}
102
{ACAD_REACTORS
330
1082
102
}
330
1082
100
AcDbVisualStyle
  2
Wireframe
 70
     5
 71
     0
 72
     2
 73
     0
 90
        0
 40
-0.6
 41
-30.0
 62
     5
 63
     7
 74
     1
 91
        4
 64
     7
 65
   257
 75
     1
175
     1
 42
1.0
 92
        0
 66
   257
 43
1.0
 76
     1
 77
     6
 78
     2
 67
     7
 79
     3
170
     0
171
     0
290
     0
174
     0
 93
        1
 44
0.0
173
     0
291
     0
 45
0.0
1001
ACAD
1000
AcDbSavedByObjectVersion
1070
     0
  0
VISUALSTYLE
  5
1095
102
{ACAD_XDICTIONARY
360
1ACC
102
}
102
{ACAD_REACTORS
330
1082
102
}
330
1082
100
AcDbVisualStyle
  2
X-Ray
 70
    25
 71
     2
 72
     2
 73
     1
 90
        1
 40
0.5
 41
-30.0
 62
     5
 63
     7
 74
     1
 91
        0
 64
     7
 65
   257
 75
     1
175
     1
 42
1.0
 92
        8
 66
     7
 43
1.0
 76
     1
 77
     6
 78
     2
 67
     7
 79
     3
170
     0
171
     0
290
     0
174
     0
 93
       13
 44
0.0
173
     0
291
     0
 45
0.0
1001
ACAD
1000
AcDbSavedByObjectVersion
1070
     0
  0
DICTIONARYVAR
  5
10C1
102
{ACAD_REACTORS
330
3D
102
}
330
3D
100
DictionaryVariables
280
     0
  1
1:1
  0
DICTIONARYVAR
  5
10BD
102
{ACAD_REACTORS
330
3D
102
}
330
3D
100
DictionaryVariables
280
     0
  1
STANDARD
  0
DICTIONARYVAR
  5
1049
102
{ACAD_REACTORS
330
3D
102
}
330
3D
100
DictionaryVariables
280
     0
  1
STANDARD
  0
DICTIONARYVAR
  5
10BE
102
{ACAD_REACTORS
330
3D
102
}
330
3D
100
DictionaryVariables
280
     0
  1
Metric50
  0
DICTIONARYVAR
  5
10BF
102
{ACAD_REACTORS
330
3D
102
}
330
3D
100
DictionaryVariables
280
     0
  1
Metric50
  0
DICTIONARYVAR
  5
3F
102
{ACAD_REACTORS
330
3D
102
}
330
3D
100
DictionaryVariables
280
     0
  1
2
  0
DICTIONARYVAR
  5
3E
102
{ACAD_REACTORS
330
3D
102
}
330
3D
100
DictionaryVariables
280
     0
  1
1
  0
DICTIONARYVAR
  5
1A96
102
{ACAD_REACTORS
330
3D
102
}
330
3D
100
DictionaryVariables
280
     0
  1
0
  0
DICTIONARYVAR
  5
10C3
102
{ACAD_REACTORS
330
3D
102
}
330
3D
100
DictionaryVariables
280
     0
  1
1
  0
DICTIONARYVAR
  5
10C4
102
{ACAD_REACTORS
330
3D
102
}
330
3D
100
DictionaryVariables
280
     0
  1
15
  0
DICTIONARYVAR
  5
10C2
102
{ACAD_REACTORS
330
3D
102
}
330
3D
100
DictionaryVariables
280
     0
  1
0
  0
DICTIONARYVAR
  5
10C0
102
{ACAD_REACTORS
330
3D
102
}
330
3D
100
DictionaryVariables
280
     0
  1
0
  0
DICTIONARYVAR
  5
1A95
102
{ACAD_REACTORS
330
3D
102
}
330
3D
100
DictionaryVariables
280
     0
  1
127
  0
DICTIONARYVAR
  5
1A97
102
{ACAD_REACTORS
330
3D
102
}
330
3D
100
DictionaryVariables
280
     0
  1
0
  0
XRECORD
  5
1067
102
{ACAD_REACTORS
330
1066
102
}
330
1066
100
AcDbXrecord
280
     1
  0
DICTIONARY
  5
1A9E
330
1E
100
AcDbDictionary
280
     1
281
     1
  3
ACAD_XREC_ROUNDTRIP
360
1A9F
  0
DICTIONARY
  5
1AA2
330
26
100
AcDbDictionary
280
     1
281
     1
  3
ACAD_XREC_ROUNDTRIP
360
1AA3
  0
DICTIONARY
  5
1AA0
330
22
100
AcDbDictionary
280
     1
281
     1
  3
ACAD_XREC_ROUNDTRIP
360
1AA1
  0
DICTIONARY
  5
1073
330
1072
100
AcDbDictionary
280
     1
281
     1
  3
ACAD_XREC_ROUNDTRIP
360
1AA6
  3
BUMPTILE
360
1075
  3
DIFFUSETILE
360
1074
  3
OPACITYTILE
360
1078
  3
REFLECTIONTILE
360
1077
  3
REFRACTIONTILE
360
1079
  3
SPECULARTILE
360
1076
  0
DICTIONARY
  5
106B
330
106A
100
AcDbDictionary
280
     1
281
     1
  3
ACAD_XREC_ROUNDTRIP
360
1AA5
  3
BUMPTILE
360
106D
  3
DIFFUSETILE
360
106C
  3
OPACITYTILE
360
1070
  3
REFLECTIONTILE
360
106F
  3
REFRACTIONTILE
360
1071
  3
SPECULARTILE
360
106E
  0
DICTIONARY
  5
107B
330
107A
100
AcDbDictionary
280
     1
281
     1
  3
ACAD_XREC_ROUNDTRIP
360
1AA7
  3
BUMPTILE
360
107D
  3
DIFFUSETILE
360
107C
  3
OPACITYTILE
360
1080
  3
REFLECTIONTILE
360
107F
  3
REFRACTIONTILE
360
1081
  3
SPECULARTILE
360
107E
  0
DICTIONARY
  5
1AD9
330
10AE
100
AcDbDictionary
280
     1
281
     1
  3
ACAD_XREC_ROUNDTRIP
360
1ADA
  0
DICTIONARY
  5
1A98
330
EE8
100
AcDbDictionary
280
     1
281
     1
  3
ACAD_ROUNDTRIP_2008_TABLESTYLE_CELLSTYLEMAP
360
1A99
  3
ACAD_XREC_ROUNDTRIP
360
1AA4
  0
DICTIONARY
  5
1AB2
330
1088
100
AcDbDictionary
280
     1
281
     1
  3
ACAD_XREC_ROUNDTRIP
360
1AB3
  0
DICTIONARY
  5
1AB0
330
1087
100
AcDbDictionary
280
     1
281
     1
  3
ACAD_XREC_ROUNDTRIP
360
1AB1
  0
DICTIONARY
  5
1ABE
330
108E
100
AcDbDictionary
280
     1
281
     1
  3
ACAD_XREC_ROUNDTRIP
360
1ABF
  0
DICTIONARY
  5
1AC6
330
1092
100
AcDbDictionary
280
     1
281
     1
  3
ACAD_XREC_ROUNDTRIP
360
1AC7
  0
DICTIONARY
  5
1AB8
330
108B
100
AcDbDictionary
280
     1
281
     1
  3
ACAD_XREC_ROUNDTRIP
360
1AB9
  0
DICTIONARY
  5
1ABC
330
108D
100
AcDbDictionary
280
     1
281
     1
  3
ACAD_XREC_ROUNDTRIP
360
1ABD
  0
DICTIONARY
  5
1AD6
330
109A
100
AcDbDictionary
280
     1
281
     1
  3
ACAD_XREC_ROUNDTRIP
360
1AD7
  0
DICTIONARY
  5
1AC4
330
1091
100
AcDbDictionary
280
     1
281
     1
  3
ACAD_XREC_ROUNDTRIP
360
1AC5
  0
DICTIONARY
  5
1AA8
330
1083
100
AcDbDictionary
280
     1
281
     1
  3
ACAD_XREC_ROUNDTRIP
360
1AA9
  0
DICTIONARY
  5
1AAA
330
1084
100
AcDbDictionary
280
     1
281
     1
  3
ACAD_XREC_ROUNDTRIP
360
1AAB
  0
DICTIONARY
  5
1AAC
330
1085
100
AcDbDictionary
280
     1
281
     1
  3
ACAD_XREC_ROUNDTRIP
360
1AAD
  0
DICTIONARY
  5
1AAE
330
1086
100
AcDbDictionary
280
     1
281
     1
  3
ACAD_XREC_ROUNDTRIP
360
1AAF
  0
DICTIONARY
  5
1AB6
330
108A
100
AcDbDictionary
280
     1
281
     1
  3
ACAD_XREC_ROUNDTRIP
360
1AB7
  0
DICTIONARY
  5
1AD2
330
1098
100
AcDbDictionary
280
     1
281
     1
  3
ACAD_XREC_ROUNDTRIP
360
1AD3
  0
DICTIONARY
  5
1AC2
330
1090
100
AcDbDictionary
280
     1
281
     1
  3
ACAD_XREC_ROUNDTRIP
360
1AC3
  0
DICTIONARY
  5
1AD4
330
1099
100
AcDbDictionary
280
     1
281
     1
  3
ACAD_XREC_ROUNDTRIP
360
1AD5
  0
DICTIONARY
  5
1ABA
330
108C
100
AcDbDictionary
280
     1
281
     1
  3
ACAD_XREC_ROUNDTRIP
360
1ABB
  0
DICTIONARY
  5
1AD0
330
1097
100
AcDbDictionary
280
     1
281
     1
  3
ACAD_XREC_ROUNDTRIP
360
1AD1
  0
DICTIONARY
  5
1ACE
330
1096
100
AcDbDictionary
280
     1
281
     1
  3
ACAD_XREC_ROUNDTRIP
360
1ACF
  0
DICTIONARY
  5
1AC8
330
1093
100
AcDbDictionary
280
     1
281
     1
  3
ACAD_XREC_ROUNDTRIP
360
1AC9
  0
DICTIONARY
  5
1ACA
330
1094
100
AcDbDictionary
280
     1
281
     1
  3
ACAD_XREC_ROUNDTRIP
360
1ACB
  0
DICTIONARY
  5
1AC0
330
108F
100
AcDbDictionary
280
     1
281
     1
  3
ACAD_XREC_ROUNDTRIP
360
1AC1
  0
DICTIONARY
  5
1AB4
330
1089
100
AcDbDictionary
280
     1
281
     1
  3
ACAD_XREC_ROUNDTRIP
360
1AB5
  0
DICTIONARY
  5
1ACC
330
1095
100
AcDbDictionary
280
     1
281
     1
  3
ACAD_XREC_ROUNDTRIP
360
1ACD
  0
XRECORD
  5
1A9F
102
{ACAD_REACTORS
330
1A9E
102
}
330
1A9E
100
AcDbXrecord
280
     1
102
SHADEPLOT
 70
     0
102
SHADEPLOTRESLEVEL
 70
     2
102
SHADEPLOTCUSTOMDPI
 70
   300
  0
XRECORD
  5
1AA3
102
{ACAD_REACTORS
330
1AA2
102
}
330
1AA2
100
AcDbXrecord
280
     1
102
SHADEPLOT
 70
     0
102
SHADEPLOTRESLEVEL
 70
     2
102
SHADEPLOTCUSTOMDPI
 70
   300
  0
XRECORD
  5
1AA1
102
{ACAD_REACTORS
330
1AA0
102
}
330
1AA0
100
AcDbXrecord
280
     1
102
SHADEPLOT
 70
     0
102
SHADEPLOTRESLEVEL
 70
     2
102
SHADEPLOTCUSTOMDPI
 70
   300
  0
XRECORD
  5
1AA6
102
{ACAD_REACTORS
330
1073
102
}
330
1073
100
AcDbXrecord
280
     1
102
MATERIAL
148
0.0
149
0.0
149
0.0
 93
        0
 94
      127
282
     0
 72
     0
 77
     0
171
     0
175
     0
179
     0
273
     0
  0
XRECORD
  5
1075
102
{ACAD_REACTORS
330
1073
102
}
330
1073
100
AcDbXrecord
280
     1
270
     1
271
     1
  0
XRECORD
  5
1074
102
{ACAD_REACTORS
330
1073
102
}
330
1073
100
AcDbXrecord
280
     1
270
     1
271
     1
  0
XRECORD
  5
1078
102
{ACAD_REACTORS
330
1073
102
}
330
1073
100
AcDbXrecord
280
     1
270
     1
271
     1
  0
XRECORD
  5
1077
102
{ACAD_REACTORS
330
1073
102
}
330
1073
100
AcDbXrecord
280
     1
270
     1
271
     1
  0
XRECORD
  5
1079
102
{ACAD_REACTORS
330
1073
102
}
330
1073
100
AcDbXrecord
280
     1
270
     1
271
     1
  0
XRECORD
  5
1076
102
{ACAD_REACTORS
330
1073
102
}
330
1073
100
AcDbXrecord
280
     1
270
     1
271
     1
  0
XRECORD
  5
1AA5
102
{ACAD_REACTORS
330
106B
102
}
330
106B
100
AcDbXrecord
280
     1
102
MATERIAL
148
0.0
149
0.0
149
0.0
 93
        0
 94
      127
282
     0
 72
     0
 77
     0
171
     0
175
     0
179
     0
273
     0
  0
XRECORD
  5
106D
102
{ACAD_REACTORS
330
106B
102
}
330
106B
100
AcDbXrecord
280
     1
270
     1
271
     1
  0
XRECORD
  5
106C
102
{ACAD_REACTORS
330
106B
102
}
330
106B
100
AcDbXrecord
280
     1
270
     1
271
     1
  0
XRECORD
  5
1070
102
{ACAD_REACTORS
330
106B
102
}
330
106B
100
AcDbXrecord
280
     1
270
     1
271
     1
  0
XRECORD
  5
106F
102
{ACAD_REACTORS
330
106B
102
}
330
106B
100
AcDbXrecord
280
     1
270
     1
271
     1
  0
XRECORD
  5
1071
102
{ACAD_REACTORS
330
106B
102
}
330
106B
100
AcDbXrecord
280
     1
270
     1
271
     1
  0
XRECORD
  5
106E
102
{ACAD_REACTORS
330
106B
102
}
330
106B
100
AcDbXrecord
280
     1
270
     1
271
     1
  0
XRECORD
  5
1AA7
102
{ACAD_REACTORS
330
107B
102
}
330
107B
100
AcDbXrecord
280
     1
102
MATERIAL
148
0.0
149
0.0
149
0.0
 93
        0
 94
      127
282
     0
 72
     0
 77
     0
171
     0
175
     0
179
     0
273
     0
  0
XRECORD
  5
107D
102
{ACAD_REACTORS
330
107B
102
}
330
107B
100
AcDbXrecord
280
     1
270
     1
271
     1
  0
XRECORD
  5
107C
102
{ACAD_REACTORS
330
107B
102
}
330
107B
100
AcDbXrecord
280
     1
270
     1
271
     1
  0
XRECORD
  5
1080
102
{ACAD_REACTORS
330
107B
102
}
330
107B
100
AcDbXrecord
280
     1
270
     1
271
     1
  0
XRECORD
  5
107F
102
{ACAD_REACTORS
330
107B
102
}
330
107B
100
AcDbXrecord
280
     1
270
     1
271
     1
  0
XRECORD
  5
1081
102
{ACAD_REACTORS
330
107B
102
}
330
107B
100
AcDbXrecord
280
     1
270
     1
271
     1
  0
XRECORD
  5
107E
102
{ACAD_REACTORS
330
107B
102
}
330
107B
100
AcDbXrecord
280
     1
270
     1
271
     1
  0
XRECORD
  5
1ADA
102
{ACAD_REACTORS
330
1AD9
102
}
330
1AD9
100
AcDbXrecord
280
     1
102
ACAD_ROUNDTRIP_2012_MLEADER_STYLE
298
     1
  0
CELLSTYLEMAP
  5
1A99
102
{ACAD_REACTORS
330
1A98
102
}
330
1A98
100
AcDbCellStyleMap
 90
        3
300
CELLSTYLE
  1
TABLEFORMAT_BEGIN
 90
        5
170
     1
 91
        0
 92
    32768
 62
   257
 93
        1
300
CONTENTFORMAT
  1
CONTENTFORMAT_BEGIN
 90
        0
 91
        0
 92
        4
 93
        0
300

 40
0.0
140
1.0
 94
        5
 62
     0
340
11
144
6.0
309
CONTENTFORMAT_END
171
     1
301
MARGIN
  1
CELLMARGIN_BEGIN
 40
1.5
 40
1.5
 40
1.5
 40
1.5
 40
0.18
 40
0.18
309
CELLMARGIN_END
 94
        6
 95
        1
302
GRIDFORMAT
  1
GRIDFORMAT_BEGIN
 90
        0
 91
        1
 62
     0
 92
       -2
340
0
 93
        0
 40
0.045
309
GRIDFORMAT_END
 95
        2
302
GRIDFORMAT
  1
GRIDFORMAT_BEGIN
 90
        0
 91
        1
 62
     0
 92
       -2
340
0
 93
        0
 40
0.045
309
GRIDFORMAT_END
 95
        4
302
GRIDFORMAT
  1
GRIDFORMAT_BEGIN
 90
        0
 91
        1
 62
     0
 92
       -2
340
0
 93
        0
 40
0.045
309
GRIDFORMAT_END
 95
        8
302
GRIDFORMAT
  1
GRIDFORMAT_BEGIN
 90
        0
 91
        1
 62
     0
 92
       -2
340
0
 93
        0
 40
0.045
309
GRIDFORMAT_END
 95
       16
302
GRIDFORMAT
  1
GRIDFORMAT_BEGIN
 90
        0
 91
        1
 62
     0
 92
       -2
340
0
 93
        0
 40
0.045
309
GRIDFORMAT_END
 95
       32
302
GRIDFORMAT
  1
GRIDFORMAT_BEGIN
 90
        0
 91
        1
 62
     0
 92
       -2
340
0
 93
        0
 40
0.045
309
GRIDFORMAT_END
309
TABLEFORMAT_END
  1
CELLSTYLE_BEGIN
 90
        1
 91
        1
300
_TITLE
309
CELLSTYLE_END
300
CELLSTYLE
  1
TABLEFORMAT_BEGIN
 90
        5
170
     1
 91
        0
 92
        0
 62
   257
 93
        1
300
CONTENTFORMAT
  1
CONTENTFORMAT_BEGIN
 90
        0
 91
        0
 92
        4
 93
        0
300

 40
0.0
140
1.0
 94
        5
 62
     0
340
11
144
4.5
309
CONTENTFORMAT_END
171
     1
301
MARGIN
  1
CELLMARGIN_BEGIN
 40
1.5
 40
1.5
 40
1.5
 40
1.5
 40
0.18
 40
0.18
309
CELLMARGIN_END
 94
        6
 95
        1
302
GRIDFORMAT
  1
GRIDFORMAT_BEGIN
 90
        0
 91
        1
 62
     0
 92
       -2
340
0
 93
        0
 40
0.045
309
GRIDFORMAT_END
 95
        2
302
GRIDFORMAT
  1
GRIDFORMAT_BEGIN
 90
        0
 91
        1
 62
     0
 92
       -2
340
0
 93
        0
 40
0.045
309
GRIDFORMAT_END
 95
        4
302
GRIDFORMAT
  1
GRIDFORMAT_BEGIN
 90
        0
 91
        1
 62
     0
 92
       -2
340
0
 93
        0
 40
0.045
309
GRIDFORMAT_END
 95
        8
302
GRIDFORMAT
  1
GRIDFORMAT_BEGIN
 90
        0
 91
        1
 62
     0
 92
       -2
340
0
 93
        0
 40
0.045
309
GRIDFORMAT_END
 95
       16
302
GRIDFORMAT
  1
GRIDFORMAT_BEGIN
 90
        0
 91
        1
 62
     0
 92
       -2
340
0
 93
        0
 40
0.045
309
GRIDFORMAT_END
 95
       32
302
GRIDFORMAT
  1
GRIDFORMAT_BEGIN
 90
        0
 91
        1
 62
     0
 92
       -2
340
0
 93
        0
 40
0.045
309
GRIDFORMAT_END
309
TABLEFORMAT_END
  1
CELLSTYLE_BEGIN
 90
        2
 91
        1
300
_HEADER
309
CELLSTYLE_END
300
CELLSTYLE
  1
TABLEFORMAT_BEGIN
 90
        5
170
     1
 91
        0
 92
        0
 62
   257
 93
        1
300
CONTENTFORMAT
  1
CONTENTFORMAT_BEGIN
 90
        0
 91
        0
 92
        4
 93
        0
300

 40
0.0
140
1.0
 94
        2
 62
     0
340
11
144
4.5
309
CONTENTFORMAT_END
171
     1
301
MARGIN
  1
CELLMARGIN_BEGIN
 40
1.5
 40
1.5
 40
1.5
 40
1.5
 40
0.18
 40
0.18
309
CELLMARGIN_END
 94
        6
 95
        1
302
GRIDFORMAT
  1
GRIDFORMAT_BEGIN
 90
        0
 91
        1
 62
     0
 92
       -2
340
0
 93
        0
 40
0.045
309
GRIDFORMAT_END
 95
        2
302
GRIDFORMAT
  1
GRIDFORMAT_BEGIN
 90
        0
 91
        1
 62
     0
 92
       -2
340
0
 93
        0
 40
0.045
309
GRIDFORMAT_END
 95
        4
302
GRIDFORMAT
  1
GRIDFORMAT_BEGIN
 90
        0
 91
        1
 62
     0
 92
       -2
340
0
 93
        0
 40
0.045
309
GRIDFORMAT_END
 95
        8
302
GRIDFORMAT
  1
GRIDFORMAT_BEGIN
 90
        0
 91
        1
 62
     0
 92
       -2
340
0
 93
        0
 40
0.045
309
GRIDFORMAT_END
 95
       16
302
GRIDFORMAT
  1
GRIDFORMAT_BEGIN
 90
        0
 91
        1
 62
     0
 92
       -2
340
0
 93
        0
 40
0.045
309
GRIDFORMAT_END
 95
       32
302
GRIDFORMAT
  1
GRIDFORMAT_BEGIN
 90
        0
 91
        1
 62
     0
 92
       -2
340
0
 93
        0
 40
0.045
309
GRIDFORMAT_END
309
TABLEFORMAT_END
  1
CELLSTYLE_BEGIN
 90
        3
 91
        2
300
_DATA
309
CELLSTYLE_END
  0
XRECORD
  5
1AA4
102
{ACAD_REACTORS
330
1A98
102
}
330
1A98
100
AcDbXrecord
280
     1
102
ACAD_ROUNDTRIP_PRE2007_TABLESTYLE
 90
        4
 91
        0
  1

 92
        4
 93
        0
  2

 94
        4
 95
        0
  3

  0
XRECORD
  5
1AB3
102
{ACAD_REACTORS
330
1AB2
102
}
330
1AB2
100
AcDbXrecord
280
     1
102
RTVSPost2010Prop28
280
     1
102
RTVSPost2010PropOp28
 70
     1
102
RTVSPost2010Prop29
280
     1
102
RTVSPost2010PropOp29
 70
     1
102
RTVSPost2010Prop30
280
     0
102
RTVSPost2010PropOp30
 70
     1
102
RTVSPost2010Prop31
280
     0
102
RTVSPost2010PropOp31
 70
     1
102
RTVSPost2010Prop32
280
     0
102
RTVSPost2010PropOp32
 70
     1
102
RTVSPost2010Prop33
280
     0
102
RTVSPost2010PropOp33
 70
     1
102
RTVSPost2010Prop34
280
     0
102
RTVSPost2010PropOp34
 70
     1
102
RTVSPost2010Prop35
280
     0
102
RTVSPost2010PropOp35
 70
     1
102
RTVSPost2010Prop36
280
     0
102
RTVSPost2010PropOp36
 70
     1
102
RTVSPost2010Prop37
 90
       50
102
RTVSPost2010PropOp37
 70
     1
102
RTVSPost2010Prop38
140
0.0
102
RTVSPost2010PropOp38
 70
     1
102
RTVSPost2010Prop39
140
1.0
102
RTVSPost2010PropOp39
 70
     1
102
RTVSPost2010Prop40
 90
        0
102
RTVSPost2010PropOp40
 70
     1
102
RTVSPost2010Prop41ColorIndex
 90
       18
102
RTVSPost2010Prop41ColorRGB
 90
        0
102
RTVSPost2010PropOp41
 70
     1
102
RTVSPost2010Prop42
 90
       50
102
RTVSPost2010PropOp42
 70
     1
102
RTVSPost2010Prop43
 90
        3
102
RTVSPost2010PropOp43
 70
     1
102
RTVSPost2010Prop44ColorIndex
 90
        5
102
RTVSPost2010Prop44ColorRGB
 90
      255
102
RTVSPost2010PropOp44
 70
     1
102
RTVSPost2010Prop45
280
     0
102
RTVSPost2010PropOp45
 70
     1
102
RTVSPost2010Prop46
 90
       50
102
RTVSPost2010PropOp46
 70
     1
102
RTVSPost2010Prop47
 90
       50
102
RTVSPost2010PropOp47
 70
     1
102
RTVSPost2010Prop48
 90
       50
102
RTVSPost2010PropOp48
 70
     1
102
RTVSPost2010Prop49
280
     0
102
RTVSPost2010PropOp49
 70
     1
102
RTVSPost2010Prop50
 90
       50
102
RTVSPost2010PropOp50
 70
     1
102
RTVSPost2010Prop51ColorIndex
 90
      256
102
RTVSPost2010Prop51ColorRGB
 90
-16777216
102
RTVSPost2010PropOp51
 70
     0
102
RTVSPost2010Prop52
140
1.0
102
RTVSPost2010PropOp52
 70
     0
102
RTVSPost2010Prop53
 90
        2
102
RTVSPost2010PropOp53
 70
     1
102
RTVSPost2010Prop54
  1
strokes_ogs.tif
102
RTVSPost2010PropOp54
 70
     1
102
RTVSPost2010Prop55
280
     0
102
RTVSPost2010PropOp55
 70
     1
102
RTVSPost2010Prop56
140
1.0
102
RTVSPost2010PropOp56
 70
     1
102
RTVSPost2010Prop57
140
1.0
102
RTVSPost2010PropOp57
 70
     1
102
RTVSPropertyOp0
 70
     1
102
RTVSPropertyOp1
 70
     1
102
RTVSPropertyOp2
 70
     1
102
RTVSPropertyOp3
 70
     1
102
RTVSPropertyOp4
 70
     1
102
RTVSPropertyOp5
 70
     1
102
RTVSPropertyOp6
 70
     1
102
RTVSPropertyOp7
 70
     1
102
RTVSPropertyOp8
 70
     1
102
RTVSPropertyOp9
 70
     1
102
RTVSPropertyOp10
 70
     1
102
RTVSPropertyOp11
 70
     1
102
RTVSPropertyOp12
 70
     1
102
RTVSPropertyOp13
 70
     1
102
RTVSPropertyOp14
 70
     1
102
RTVSPropertyOp15
 70
     1
102
RTVSPropertyOp16
 70
     1
102
RTVSPropertyOp17
 70
     1
102
RTVSPropertyOp18
 70
     1
102
RTVSPropertyOp19
 70
     1
102
RTVSPropertyOp20
 70
     1
102
RTVSPropertyOp21
 70
     1
102
RTVSPropertyOp22
 70
     1
102
RTVSPropertyOp23
 70
     1
102
RTVSPropertyOp24
 70
     1
102
RTVSPropertyOp25
 70
     1
102
RTVSPropertyOp26
 70
     1
102
RTVSPropertyOp27
 70
     1
102
RTVSPropertyOp28
 70
     1
102
RTVSPropertyOp29
 70
     1
102
RTVSPropertyOp30
 70
     1
102
RTVSPropertyOp31
 70
     1
102
RTVSPropertyOp32
 70
     1
102
RTVSPropertyOp33
 70
     1
102
RTVSPropertyOp34
 70
     1
102
RTVSPropertyOp35
 70
     1
102
RTVSPropertyOp36
 70
     1
102
RTVSPropertyOp37
 70
     1
102
RTVSPropertyOp38
 70
     1
102
RTVSPropertyOp39
 70
     1
102
RTVSPropertyOp40
 70
     1
102
RTVSPropertyOp41
 70
     1
102
RTVSPropertyOp42
 70
     1
102
RTVSPropertyOp43
 70
     1
102
RTVSPropertyOp44
 70
     1
102
RTVSPropertyOp45
 70
     1
102
RTVSPropertyOp46
 70
     1
102
RTVSPropertyOp47
 70
     1
102
RTVSPropertyOp48
 70
     1
102
RTVSPropertyOp49
 70
     1
102
RTVSPropertyOp50
 70
     1
102
RTVSPropertyOp51
 70
     0
102
RTVSPropertyOp52
 70
     0
102
RTVSPropertyOp53
 70
     1
102
RTVSPropertyOp54
 70
     1
102
RTVSPropertyOp55
 70
     1
102
RTVSPropertyOp56
 70
     1
102
RTVSPropertyOp57
 70
     1
102
RTVSPropertyOp58
 70
     1
102
RTVSPropertyOp59
 70
     1
102
RTVSPropertyOp60
 70
     1
102
RTVSPropertyOp61
 70
     1
102
RTVSPropertyOp62
 70
     1
  0
XRECORD
  5
1AB1
102
{ACAD_REACTORS
330
1AB0
102
}
330
1AB0
100
AcDbXrecord
280
     1
102
RTVSPost2010Prop28
280
     0
102
RTVSPost2010PropOp28
 70
     1
102
RTVSPost2010Prop29
280
     1
102
RTVSPost2010PropOp29
 70
     1
102
RTVSPost2010Prop30
280
     1
102
RTVSPost2010PropOp30
 70
     1
102
RTVSPost2010Prop31
280
     0
102
RTVSPost2010PropOp31
 70
     1
102
RTVSPost2010Prop32
280
     0
102
RTVSPost2010PropOp32
 70
     1
102
RTVSPost2010Prop33
280
     0
102
RTVSPost2010PropOp33
 70
     1
102
RTVSPost2010Prop34
280
     0
102
RTVSPost2010PropOp34
 70
     1
102
RTVSPost2010Prop35
280
     0
102
RTVSPost2010PropOp35
 70
     1
102
RTVSPost2010Prop36
280
     0
102
RTVSPost2010PropOp36
 70
     1
102
RTVSPost2010Prop37
 90
       50
102
RTVSPost2010PropOp37
 70
     1
102
RTVSPost2010Prop38
140
0.0
102
RTVSPost2010PropOp38
 70
     1
102
RTVSPost2010Prop39
140
1.0
102
RTVSPost2010PropOp39
 70
     1
102
RTVSPost2010Prop40
 90
        0
102
RTVSPost2010PropOp40
 70
     1
102
RTVSPost2010Prop41ColorIndex
 90
       18
102
RTVSPost2010Prop41ColorRGB
 90
        0
102
RTVSPost2010PropOp41
 70
     1
102
RTVSPost2010Prop42
 90
       50
102
RTVSPost2010PropOp42
 70
     1
102
RTVSPost2010Prop43
 90
        3
102
RTVSPost2010PropOp43
 70
     1
102
RTVSPost2010Prop44ColorIndex
 90
        5
102
RTVSPost2010Prop44ColorRGB
 90
      255
102
RTVSPost2010PropOp44
 70
     1
102
RTVSPost2010Prop45
280
     0
102
RTVSPost2010PropOp45
 70
     1
102
RTVSPost2010Prop46
 90
       50
102
RTVSPost2010PropOp46
 70
     1
102
RTVSPost2010Prop47
 90
       50
102
RTVSPost2010PropOp47
 70
     1
102
RTVSPost2010Prop48
 90
       50
102
RTVSPost2010PropOp48
 70
     1
102
RTVSPost2010Prop49
280
     0
102
RTVSPost2010PropOp49
 70
     1
102
RTVSPost2010Prop50
 90
       50
102
RTVSPost2010PropOp50
 70
     1
102
RTVSPost2010Prop51ColorIndex
 90
      256
102
RTVSPost2010Prop51ColorRGB
 90
-16777216
102
RTVSPost2010PropOp51
 70
     0
102
RTVSPost2010Prop52
140
1.0
102
RTVSPost2010PropOp52
 70
     0
102
RTVSPost2010Prop53
 90
        2
102
RTVSPost2010PropOp53
 70
     1
102
RTVSPost2010Prop54
  1
strokes_ogs.tif
102
RTVSPost2010PropOp54
 70
     1
102
RTVSPost2010Prop55
280
     0
102
RTVSPost2010PropOp55
 70
     1
102
RTVSPost2010Prop56
140
1.0
102
RTVSPost2010PropOp56
 70
     1
102
RTVSPost2010Prop57
140
1.0
102
RTVSPost2010PropOp57
 70
     1
102
RTVSPropertyOp0
 70
     1
102
RTVSPropertyOp1
 70
     1
102
RTVSPropertyOp2
 70
     1
102
RTVSPropertyOp3
 70
     1
102
RTVSPropertyOp4
 70
     1
102
RTVSPropertyOp5
 70
     1
102
RTVSPropertyOp6
 70
     1
102
RTVSPropertyOp7
 70
     1
102
RTVSPropertyOp8
 70
     1
102
RTVSPropertyOp9
 70
     1
102
RTVSPropertyOp10
 70
     1
102
RTVSPropertyOp11
 70
     1
102
RTVSPropertyOp12
 70
     1
102
RTVSPropertyOp13
 70
     1
102
RTVSPropertyOp14
 70
     1
102
RTVSPropertyOp15
 70
     1
102
RTVSPropertyOp16
 70
     1
102
RTVSPropertyOp17
 70
     1
102
RTVSPropertyOp18
 70
     1
102
RTVSPropertyOp19
 70
     1
102
RTVSPropertyOp20
 70
     1
102
RTVSPropertyOp21
 70
     1
102
RTVSPropertyOp22
 70
     1
102
RTVSPropertyOp23
 70
     1
102
RTVSPropertyOp24
 70
     1
102
RTVSPropertyOp25
 70
     1
102
RTVSPropertyOp26
 70
     1
102
RTVSPropertyOp27
 70
     1
102
RTVSPropertyOp28
 70
     1
102
RTVSPropertyOp29
 70
     1
102
RTVSPropertyOp30
 70
     1
102
RTVSPropertyOp31
 70
     1
102
RTVSPropertyOp32
 70
     1
102
RTVSPropertyOp33
 70
     1
102
RTVSPropertyOp34
 70
     1
102
RTVSPropertyOp35
 70
     1
102
RTVSPropertyOp36
 70
     1
102
RTVSPropertyOp37
 70
     1
102
RTVSPropertyOp38
 70
     1
102
RTVSPropertyOp39
 70
     1
102
RTVSPropertyOp40
 70
     1
102
RTVSPropertyOp41
 70
     1
102
RTVSPropertyOp42
 70
     1
102
RTVSPropertyOp43
 70
     1
102
RTVSPropertyOp44
 70
     1
102
RTVSPropertyOp45
 70
     1
102
RTVSPropertyOp46
 70
     1
102
RTVSPropertyOp47
 70
     1
102
RTVSPropertyOp48
 70
     1
102
RTVSPropertyOp49
 70
     1
102
RTVSPropertyOp50
 70
     1
102
RTVSPropertyOp51
 70
     0
102
RTVSPropertyOp52
 70
     0
102
RTVSPropertyOp53
 70
     1
102
RTVSPropertyOp54
 70
     1
102
RTVSPropertyOp55
 70
     1
102
RTVSPropertyOp56
 70
     1
102
RTVSPropertyOp57
 70
     1
102
RTVSPropertyOp58
 70
     1
102
RTVSPropertyOp59
 70
     1
102
RTVSPropertyOp60
 70
     1
102
RTVSPropertyOp61
 70
     1
102
RTVSPropertyOp62
 70
     1
  0
XRECORD
  5
1ABF
102
{ACAD_REACTORS
330
1ABE
102
}
330
1ABE
100
AcDbXrecord
280
     1
102
RTVSPost2010Prop28
280
     0
102
RTVSPost2010PropOp28
 70
     1
102
RTVSPost2010Prop29
280
     1
102
RTVSPost2010PropOp29
 70
     1
102
RTVSPost2010Prop30
280
     1
102
RTVSPost2010PropOp30
 70
     1
102
RTVSPost2010Prop31
280
     0
102
RTVSPost2010PropOp31
 70
     1
102
RTVSPost2010Prop32
280
     0
102
RTVSPost2010PropOp32
 70
     1
102
RTVSPost2010Prop33
280
     0
102
RTVSPost2010PropOp33
 70
     1
102
RTVSPost2010Prop34
280
     0
102
RTVSPost2010PropOp34
 70
     1
102
RTVSPost2010Prop35
280
     0
102
RTVSPost2010PropOp35
 70
     1
102
RTVSPost2010Prop36
280
     0
102
RTVSPost2010PropOp36
 70
     1
102
RTVSPost2010Prop37
 90
       50
102
RTVSPost2010PropOp37
 70
     1
102
RTVSPost2010Prop38
140
0.0
102
RTVSPost2010PropOp38
 70
     1
102
RTVSPost2010Prop39
140
1.0
102
RTVSPost2010PropOp39
 70
     1
102
RTVSPost2010Prop40
 90
        0
102
RTVSPost2010PropOp40
 70
     1
102
RTVSPost2010Prop41ColorIndex
 90
       18
102
RTVSPost2010Prop41ColorRGB
 90
        0
102
RTVSPost2010PropOp41
 70
     1
102
RTVSPost2010Prop42
 90
       50
102
RTVSPost2010PropOp42
 70
     1
102
RTVSPost2010Prop43
 90
        3
102
RTVSPost2010PropOp43
 70
     1
102
RTVSPost2010Prop44ColorIndex
 90
        5
102
RTVSPost2010Prop44ColorRGB
 90
      255
102
RTVSPost2010PropOp44
 70
     1
102
RTVSPost2010Prop45
280
     0
102
RTVSPost2010PropOp45
 70
     1
102
RTVSPost2010Prop46
 90
       50
102
RTVSPost2010PropOp46
 70
     1
102
RTVSPost2010Prop47
 90
       50
102
RTVSPost2010PropOp47
 70
     1
102
RTVSPost2010Prop48
 90
       50
102
RTVSPost2010PropOp48
 70
     1
102
RTVSPost2010Prop49
280
     0
102
RTVSPost2010PropOp49
 70
     1
102
RTVSPost2010Prop50
 90
       50
102
RTVSPost2010PropOp50
 70
     1
102
RTVSPost2010Prop51ColorIndex
 90
      256
102
RTVSPost2010Prop51ColorRGB
 90
-16777216
102
RTVSPost2010PropOp51
 70
     0
102
RTVSPost2010Prop52
140
1.0
102
RTVSPost2010PropOp52
 70
     0
102
RTVSPost2010Prop53
 90
        2
102
RTVSPost2010PropOp53
 70
     1
102
RTVSPost2010Prop54
  1
strokes_ogs.tif
102
RTVSPost2010PropOp54
 70
     1
102
RTVSPost2010Prop55
280
     0
102
RTVSPost2010PropOp55
 70
     1
102
RTVSPost2010Prop56
140
1.0
102
RTVSPost2010PropOp56
 70
     1
102
RTVSPost2010Prop57
140
1.0
102
RTVSPost2010PropOp57
 70
     1
102
RTVSPropertyOp0
 70
     1
102
RTVSPropertyOp1
 70
     1
102
RTVSPropertyOp2
 70
     1
102
RTVSPropertyOp3
 70
     1
102
RTVSPropertyOp4
 70
     1
102
RTVSPropertyOp5
 70
     1
102
RTVSPropertyOp6
 70
     1
102
RTVSPropertyOp7
 70
     1
102
RTVSPropertyOp8
 70
     1
102
RTVSPropertyOp9
 70
     1
102
RTVSPropertyOp10
 70
     1
102
RTVSPropertyOp11
 70
     1
102
RTVSPropertyOp12
 70
     1
102
RTVSPropertyOp13
 70
     1
102
RTVSPropertyOp14
 70
     1
102
RTVSPropertyOp15
 70
     1
102
RTVSPropertyOp16
 70
     1
102
RTVSPropertyOp17
 70
     1
102
RTVSPropertyOp18
 70
     1
102
RTVSPropertyOp19
 70
     1
102
RTVSPropertyOp20
 70
     1
102
RTVSPropertyOp21
 70
     1
102
RTVSPropertyOp22
 70
     1
102
RTVSPropertyOp23
 70
     1
102
RTVSPropertyOp24
 70
     1
102
RTVSPropertyOp25
 70
     1
102
RTVSPropertyOp26
 70
     1
102
RTVSPropertyOp27
 70
     1
102
RTVSPropertyOp28
 70
     1
102
RTVSPropertyOp29
 70
     1
102
RTVSPropertyOp30
 70
     1
102
RTVSPropertyOp31
 70
     1
102
RTVSPropertyOp32
 70
     1
102
RTVSPropertyOp33
 70
     1
102
RTVSPropertyOp34
 70
     1
102
RTVSPropertyOp35
 70
     1
102
RTVSPropertyOp36
 70
     1
102
RTVSPropertyOp37
 70
     1
102
RTVSPropertyOp38
 70
     1
102
RTVSPropertyOp39
 70
     1
102
RTVSPropertyOp40
 70
     1
102
RTVSPropertyOp41
 70
     1
102
RTVSPropertyOp42
 70
     1
102
RTVSPropertyOp43
 70
     1
102
RTVSPropertyOp44
 70
     1
102
RTVSPropertyOp45
 70
     1
102
RTVSPropertyOp46
 70
     1
102
RTVSPropertyOp47
 70
     1
102
RTVSPropertyOp48
 70
     1
102
RTVSPropertyOp49
 70
     1
102
RTVSPropertyOp50
 70
     1
102
RTVSPropertyOp51
 70
     0
102
RTVSPropertyOp52
 70
     0
102
RTVSPropertyOp53
 70
     1
102
RTVSPropertyOp54
 70
     1
102
RTVSPropertyOp55
 70
     1
102
RTVSPropertyOp56
 70
     1
102
RTVSPropertyOp57
 70
     1
102
RTVSPropertyOp58
 70
     1
102
RTVSPropertyOp59
 70
     1
102
RTVSPropertyOp60
 70
     1
102
RTVSPropertyOp61
 70
     1
102
RTVSPropertyOp62
 70
     1
  0
XRECORD
  5
1AC7
102
{ACAD_REACTORS
330
1AC6
102
}
330
1AC6
100
AcDbXrecord
280
     1
102
RTVSPost2010Prop28
280
     0
102
RTVSPost2010PropOp28
 70
     1
102
RTVSPost2010Prop29
280
     1
102
RTVSPost2010PropOp29
 70
     1
102
RTVSPost2010Prop30
280
     1
102
RTVSPost2010PropOp30
 70
     1
102
RTVSPost2010Prop31
280
     0
102
RTVSPost2010PropOp31
 70
     1
102
RTVSPost2010Prop32
280
     0
102
RTVSPost2010PropOp32
 70
     1
102
RTVSPost2010Prop33
280
     0
102
RTVSPost2010PropOp33
 70
     1
102
RTVSPost2010Prop34
280
     0
102
RTVSPost2010PropOp34
 70
     1
102
RTVSPost2010Prop35
280
     0
102
RTVSPost2010PropOp35
 70
     1
102
RTVSPost2010Prop36
280
     0
102
RTVSPost2010PropOp36
 70
     1
102
RTVSPost2010Prop37
 90
       50
102
RTVSPost2010PropOp37
 70
     1
102
RTVSPost2010Prop38
140
0.0
102
RTVSPost2010PropOp38
 70
     1
102
RTVSPost2010Prop39
140
1.0
102
RTVSPost2010PropOp39
 70
     1
102
RTVSPost2010Prop40
 90
        0
102
RTVSPost2010PropOp40
 70
     1
102
RTVSPost2010Prop41ColorIndex
 90
       18
102
RTVSPost2010Prop41ColorRGB
 90
        0
102
RTVSPost2010PropOp41
 70
     1
102
RTVSPost2010Prop42
 90
       50
102
RTVSPost2010PropOp42
 70
     1
102
RTVSPost2010Prop43
 90
        3
102
RTVSPost2010PropOp43
 70
     1
102
RTVSPost2010Prop44ColorIndex
 90
        5
102
RTVSPost2010Prop44ColorRGB
 90
      255
102
RTVSPost2010PropOp44
 70
     1
102
RTVSPost2010Prop45
280
     0
102
RTVSPost2010PropOp45
 70
     1
102
RTVSPost2010Prop46
 90
       50
102
RTVSPost2010PropOp46
 70
     1
102
RTVSPost2010Prop47
 90
       50
102
RTVSPost2010PropOp47
 70
     1
102
RTVSPost2010Prop48
 90
       50
102
RTVSPost2010PropOp48
 70
     1
102
RTVSPost2010Prop49
280
     0
102
RTVSPost2010PropOp49
 70
     1
102
RTVSPost2010Prop50
 90
       50
102
RTVSPost2010PropOp50
 70
     1
102
RTVSPost2010Prop51ColorIndex
 90
      256
102
RTVSPost2010Prop51ColorRGB
 90
-16777216
102
RTVSPost2010PropOp51
 70
     0
102
RTVSPost2010Prop52
140
1.0
102
RTVSPost2010PropOp52
 70
     0
102
RTVSPost2010Prop53
 90
        2
102
RTVSPost2010PropOp53
 70
     1
102
RTVSPost2010Prop54
  1
strokes_ogs.tif
102
RTVSPost2010PropOp54
 70
     1
102
RTVSPost2010Prop55
280
     0
102
RTVSPost2010PropOp55
 70
     1
102
RTVSPost2010Prop56
140
1.0
102
RTVSPost2010PropOp56
 70
     1
102
RTVSPost2010Prop57
140
1.0
102
RTVSPost2010PropOp57
 70
     1
102
RTVSPropertyOp0
 70
     1
102
RTVSPropertyOp1
 70
     1
102
RTVSPropertyOp2
 70
     1
102
RTVSPropertyOp3
 70
     1
102
RTVSPropertyOp4
 70
     1
102
RTVSPropertyOp5
 70
     1
102
RTVSPropertyOp6
 70
     1
102
RTVSPropertyOp7
 70
     1
102
RTVSPropertyOp8
 70
     1
102
RTVSPropertyOp9
 70
     1
102
RTVSPropertyOp10
 70
     1
102
RTVSPropertyOp11
 70
     1
102
RTVSPropertyOp12
 70
     1
102
RTVSPropertyOp13
 70
     1
102
RTVSPropertyOp14
 70
     1
102
RTVSPropertyOp15
 70
     1
102
RTVSPropertyOp16
 70
     1
102
RTVSPropertyOp17
 70
     1
102
RTVSPropertyOp18
 70
     1
102
RTVSPropertyOp19
 70
     1
102
RTVSPropertyOp20
 70
     1
102
RTVSPropertyOp21
 70
     1
102
RTVSPropertyOp22
 70
     1
102
RTVSPropertyOp23
 70
     1
102
RTVSPropertyOp24
 70
     1
102
RTVSPropertyOp25
 70
     1
102
RTVSPropertyOp26
 70
     1
102
RTVSPropertyOp27
 70
     1
102
RTVSPropertyOp28
 70
     1
102
RTVSPropertyOp29
 70
     1
102
RTVSPropertyOp30
 70
     1
102
RTVSPropertyOp31
 70
     1
102
RTVSPropertyOp32
 70
     1
102
RTVSPropertyOp33
 70
     1
102
RTVSPropertyOp34
 70
     1
102
RTVSPropertyOp35
 70
     1
102
RTVSPropertyOp36
 70
     1
102
RTVSPropertyOp37
 70
     1
102
RTVSPropertyOp38
 70
     1
102
RTVSPropertyOp39
 70
     1
102
RTVSPropertyOp40
 70
     1
102
RTVSPropertyOp41
 70
     1
102
RTVSPropertyOp42
 70
     1
102
RTVSPropertyOp43
 70
     1
102
RTVSPropertyOp44
 70
     1
102
RTVSPropertyOp45
 70
     1
102
RTVSPropertyOp46
 70
     1
102
RTVSPropertyOp47
 70
     1
102
RTVSPropertyOp48
 70
     1
102
RTVSPropertyOp49
 70
     1
102
RTVSPropertyOp50
 70
     1
102
RTVSPropertyOp51
 70
     0
102
RTVSPropertyOp52
 70
     0
102
RTVSPropertyOp53
 70
     1
102
RTVSPropertyOp54
 70
     1
102
RTVSPropertyOp55
 70
     1
102
RTVSPropertyOp56
 70
     1
102
RTVSPropertyOp57
 70
     1
102
RTVSPropertyOp58
 70
     1
102
RTVSPropertyOp59
 70
     1
102
RTVSPropertyOp60
 70
     1
102
RTVSPropertyOp61
 70
     1
102
RTVSPropertyOp62
 70
     1
  0
XRECORD
  5
1AB9
102
{ACAD_REACTORS
330
1AB8
102
}
330
1AB8
100
AcDbXrecord
280
     1
102
RTVSPost2010Prop28
280
     0
102
RTVSPost2010PropOp28
 70
     1
102
RTVSPost2010Prop29
280
     1
102
RTVSPost2010PropOp29
 70
     1
102
RTVSPost2010Prop30
280
     1
102
RTVSPost2010PropOp30
 70
     1
102
RTVSPost2010Prop31
280
     0
102
RTVSPost2010PropOp31
 70
     1
102
RTVSPost2010Prop32
280
     0
102
RTVSPost2010PropOp32
 70
     1
102
RTVSPost2010Prop33
280
     0
102
RTVSPost2010PropOp33
 70
     1
102
RTVSPost2010Prop34
280
     0
102
RTVSPost2010PropOp34
 70
     1
102
RTVSPost2010Prop35
280
     0
102
RTVSPost2010PropOp35
 70
     1
102
RTVSPost2010Prop36
280
     0
102
RTVSPost2010PropOp36
 70
     1
102
RTVSPost2010Prop37
 90
       50
102
RTVSPost2010PropOp37
 70
     1
102
RTVSPost2010Prop38
140
0.0
102
RTVSPost2010PropOp38
 70
     1
102
RTVSPost2010Prop39
140
1.0
102
RTVSPost2010PropOp39
 70
     1
102
RTVSPost2010Prop40
 90
        0
102
RTVSPost2010PropOp40
 70
     1
102
RTVSPost2010Prop41ColorIndex
 90
       18
102
RTVSPost2010Prop41ColorRGB
 90
        0
102
RTVSPost2010PropOp41
 70
     1
102
RTVSPost2010Prop42
 90
       50
102
RTVSPost2010PropOp42
 70
     1
102
RTVSPost2010Prop43
 90
        3
102
RTVSPost2010PropOp43
 70
     1
102
RTVSPost2010Prop44ColorIndex
 90
        5
102
RTVSPost2010Prop44ColorRGB
 90
      255
102
RTVSPost2010PropOp44
 70
     1
102
RTVSPost2010Prop45
280
     0
102
RTVSPost2010PropOp45
 70
     1
102
RTVSPost2010Prop46
 90
       50
102
RTVSPost2010PropOp46
 70
     1
102
RTVSPost2010Prop47
 90
       50
102
RTVSPost2010PropOp47
 70
     1
102
RTVSPost2010Prop48
 90
       50
102
RTVSPost2010PropOp48
 70
     1
102
RTVSPost2010Prop49
280
     0
102
RTVSPost2010PropOp49
 70
     1
102
RTVSPost2010Prop50
 90
       50
102
RTVSPost2010PropOp50
 70
     1
102
RTVSPost2010Prop51ColorIndex
 90
      256
102
RTVSPost2010Prop51ColorRGB
 90
-16777216
102
RTVSPost2010PropOp51
 70
     0
102
RTVSPost2010Prop52
140
1.0
102
RTVSPost2010PropOp52
 70
     0
102
RTVSPost2010Prop53
 90
        2
102
RTVSPost2010PropOp53
 70
     1
102
RTVSPost2010Prop54
  1
strokes_ogs.tif
102
RTVSPost2010PropOp54
 70
     1
102
RTVSPost2010Prop55
280
     0
102
RTVSPost2010PropOp55
 70
     1
102
RTVSPost2010Prop56
140
1.0
102
RTVSPost2010PropOp56
 70
     1
102
RTVSPost2010Prop57
140
1.0
102
RTVSPost2010PropOp57
 70
     1
102
RTVSPropertyOp0
 70
     1
102
RTVSPropertyOp1
 70
     1
102
RTVSPropertyOp2
 70
     1
102
RTVSPropertyOp3
 70
     1
102
RTVSPropertyOp4
 70
     1
102
RTVSPropertyOp5
 70
     1
102
RTVSPropertyOp6
 70
     1
102
RTVSPropertyOp7
 70
     1
102
RTVSPropertyOp8
 70
     1
102
RTVSPropertyOp9
 70
     1
102
RTVSPropertyOp10
 70
     1
102
RTVSPropertyOp11
 70
     1
102
RTVSPropertyOp12
 70
     1
102
RTVSPropertyOp13
 70
     1
102
RTVSPropertyOp14
 70
     1
102
RTVSPropertyOp15
 70
     1
102
RTVSPropertyOp16
 70
     1
102
RTVSPropertyOp17
 70
     1
102
RTVSPropertyOp18
 70
     1
102
RTVSPropertyOp19
 70
     1
102
RTVSPropertyOp20
 70
     1
102
RTVSPropertyOp21
 70
     1
102
RTVSPropertyOp22
 70
     1
102
RTVSPropertyOp23
 70
     1
102
RTVSPropertyOp24
 70
     1
102
RTVSPropertyOp25
 70
     1
102
RTVSPropertyOp26
 70
     1
102
RTVSPropertyOp27
 70
     1
102
RTVSPropertyOp28
 70
     1
102
RTVSPropertyOp29
 70
     1
102
RTVSPropertyOp30
 70
     1
102
RTVSPropertyOp31
 70
     1
102
RTVSPropertyOp32
 70
     1
102
RTVSPropertyOp33
 70
     1
102
RTVSPropertyOp34
 70
     1
102
RTVSPropertyOp35
 70
     1
102
RTVSPropertyOp36
 70
     1
102
RTVSPropertyOp37
 70
     1
102
RTVSPropertyOp38
 70
     1
102
RTVSPropertyOp39
 70
     1
102
RTVSPropertyOp40
 70
     1
102
RTVSPropertyOp41
 70
     1
102
RTVSPropertyOp42
 70
     1
102
RTVSPropertyOp43
 70
     1
102
RTVSPropertyOp44
 70
     1
102
RTVSPropertyOp45
 70
     1
102
RTVSPropertyOp46
 70
     1
102
RTVSPropertyOp47
 70
     1
102
RTVSPropertyOp48
 70
     1
102
RTVSPropertyOp49
 70
     1
102
RTVSPropertyOp50
 70
     1
102
RTVSPropertyOp51
 70
     0
102
RTVSPropertyOp52
 70
     0
102
RTVSPropertyOp53
 70
     1
102
RTVSPropertyOp54
 70
     1
102
RTVSPropertyOp55
 70
     1
102
RTVSPropertyOp56
 70
     1
102
RTVSPropertyOp57
 70
     1
102
RTVSPropertyOp58
 70
     1
102
RTVSPropertyOp59
 70
     1
102
RTVSPropertyOp60
 70
     1
102
RTVSPropertyOp61
 70
     1
102
RTVSPropertyOp62
 70
     1
  0
XRECORD
  5
1ABD
102
{ACAD_REACTORS
330
1ABC
102
}
330
1ABC
100
AcDbXrecord
280
     1
102
RTVSPost2010Prop28
280
     0
102
RTVSPost2010PropOp28
 70
     1
102
RTVSPost2010Prop29
280
     1
102
RTVSPost2010PropOp29
 70
     1
102
RTVSPost2010Prop30
280
     1
102
RTVSPost2010PropOp30
 70
     1
102
RTVSPost2010Prop31
280
     0
102
RTVSPost2010PropOp31
 70
     1
102
RTVSPost2010Prop32
280
     0
102
RTVSPost2010PropOp32
 70
     1
102
RTVSPost2010Prop33
280
     0
102
RTVSPost2010PropOp33
 70
     1
102
RTVSPost2010Prop34
280
     0
102
RTVSPost2010PropOp34
 70
     1
102
RTVSPost2010Prop35
280
     0
102
RTVSPost2010PropOp35
 70
     1
102
RTVSPost2010Prop36
280
     0
102
RTVSPost2010PropOp36
 70
     1
102
RTVSPost2010Prop37
 90
       50
102
RTVSPost2010PropOp37
 70
     1
102
RTVSPost2010Prop38
140
0.0
102
RTVSPost2010PropOp38
 70
     1
102
RTVSPost2010Prop39
140
1.0
102
RTVSPost2010PropOp39
 70
     1
102
RTVSPost2010Prop40
 90
        0
102
RTVSPost2010PropOp40
 70
     1
102
RTVSPost2010Prop41ColorIndex
 90
       18
102
RTVSPost2010Prop41ColorRGB
 90
        0
102
RTVSPost2010PropOp41
 70
     1
102
RTVSPost2010Prop42
 90
       50
102
RTVSPost2010PropOp42
 70
     1
102
RTVSPost2010Prop43
 90
        3
102
RTVSPost2010PropOp43
 70
     1
102
RTVSPost2010Prop44ColorIndex
 90
        5
102
RTVSPost2010Prop44ColorRGB
 90
      255
102
RTVSPost2010PropOp44
 70
     1
102
RTVSPost2010Prop45
280
     0
102
RTVSPost2010PropOp45
 70
     1
102
RTVSPost2010Prop46
 90
       50
102
RTVSPost2010PropOp46
 70
     1
102
RTVSPost2010Prop47
 90
       50
102
RTVSPost2010PropOp47
 70
     1
102
RTVSPost2010Prop48
 90
       50
102
RTVSPost2010PropOp48
 70
     1
102
RTVSPost2010Prop49
280
     0
102
RTVSPost2010PropOp49
 70
     1
102
RTVSPost2010Prop50
 90
       50
102
RTVSPost2010PropOp50
 70
     1
102
RTVSPost2010Prop51ColorIndex
 90
      256
102
RTVSPost2010Prop51ColorRGB
 90
-16777216
102
RTVSPost2010PropOp51
 70
     0
102
RTVSPost2010Prop52
140
1.0
102
RTVSPost2010PropOp52
 70
     0
102
RTVSPost2010Prop53
 90
        2
102
RTVSPost2010PropOp53
 70
     1
102
RTVSPost2010Prop54
  1
strokes_ogs.tif
102
RTVSPost2010PropOp54
 70
     1
102
RTVSPost2010Prop55
280
     0
102
RTVSPost2010PropOp55
 70
     1
102
RTVSPost2010Prop56
140
1.0
102
RTVSPost2010PropOp56
 70
     1
102
RTVSPost2010Prop57
140
1.0
102
RTVSPost2010PropOp57
 70
     1
102
RTVSPropertyOp0
 70
     1
102
RTVSPropertyOp1
 70
     1
102
RTVSPropertyOp2
 70
     1
102
RTVSPropertyOp3
 70
     1
102
RTVSPropertyOp4
 70
     1
102
RTVSPropertyOp5
 70
     1
102
RTVSPropertyOp6
 70
     1
102
RTVSPropertyOp7
 70
     1
102
RTVSPropertyOp8
 70
     1
102
RTVSPropertyOp9
 70
     1
102
RTVSPropertyOp10
 70
     1
102
RTVSPropertyOp11
 70
     1
102
RTVSPropertyOp12
 70
     1
102
RTVSPropertyOp13
 70
     1
102
RTVSPropertyOp14
 70
     1
102
RTVSPropertyOp15
 70
     1
102
RTVSPropertyOp16
 70
     1
102
RTVSPropertyOp17
 70
     1
102
RTVSPropertyOp18
 70
     1
102
RTVSPropertyOp19
 70
     1
102
RTVSPropertyOp20
 70
     1
102
RTVSPropertyOp21
 70
     1
102
RTVSPropertyOp22
 70
     1
102
RTVSPropertyOp23
 70
     1
102
RTVSPropertyOp24
 70
     1
102
RTVSPropertyOp25
 70
     1
102
RTVSPropertyOp26
 70
     1
102
RTVSPropertyOp27
 70
     1
102
RTVSPropertyOp28
 70
     1
102
RTVSPropertyOp29
 70
     1
102
RTVSPropertyOp30
 70
     1
102
RTVSPropertyOp31
 70
     1
102
RTVSPropertyOp32
 70
     1
102
RTVSPropertyOp33
 70
     1
102
RTVSPropertyOp34
 70
     1
102
RTVSPropertyOp35
 70
     1
102
RTVSPropertyOp36
 70
     1
102
RTVSPropertyOp37
 70
     1
102
RTVSPropertyOp38
 70
     1
102
RTVSPropertyOp39
 70
     1
102
RTVSPropertyOp40
 70
     1
102
RTVSPropertyOp41
 70
     1
102
RTVSPropertyOp42
 70
     1
102
RTVSPropertyOp43
 70
     1
102
RTVSPropertyOp44
 70
     1
102
RTVSPropertyOp45
 70
     1
102
RTVSPropertyOp46
 70
     1
102
RTVSPropertyOp47
 70
     1
102
RTVSPropertyOp48
 70
     1
102
RTVSPropertyOp49
 70
     1
102
RTVSPropertyOp50
 70
     1
102
RTVSPropertyOp51
 70
     0
102
RTVSPropertyOp52
 70
     0
102
RTVSPropertyOp53
 70
     1
102
RTVSPropertyOp54
 70
     1
102
RTVSPropertyOp55
 70
     1
102
RTVSPropertyOp56
 70
     1
102
RTVSPropertyOp57
 70
     1
102
RTVSPropertyOp58
 70
     1
102
RTVSPropertyOp59
 70
     1
102
RTVSPropertyOp60
 70
     1
102
RTVSPropertyOp61
 70
     1
102
RTVSPropertyOp62
 70
     1
  0
XRECORD
  5
1AD7
102
{ACAD_REACTORS
330
1AD6
102
}
330
1AD6
100
AcDbXrecord
280
     1
102
RTVSPost2010Prop28
280
     0
102
RTVSPost2010PropOp28
 70
     0
102
RTVSPost2010Prop29
280
     1
102
RTVSPost2010PropOp29
 70
     0
102
RTVSPost2010Prop30
280
     1
102
RTVSPost2010PropOp30
 70
     0
102
RTVSPost2010Prop31
280
     0
102
RTVSPost2010PropOp31
 70
     0
102
RTVSPost2010Prop32
280
     0
102
RTVSPost2010PropOp32
 70
     0
102
RTVSPost2010Prop33
280
     0
102
RTVSPost2010PropOp33
 70
     0
102
RTVSPost2010Prop34
280
     0
102
RTVSPost2010PropOp34
 70
     0
102
RTVSPost2010Prop35
280
     0
102
RTVSPost2010PropOp35
 70
     0
102
RTVSPost2010Prop36
280
     0
102
RTVSPost2010PropOp36
 70
     0
102
RTVSPost2010Prop37
 90
       50
102
RTVSPost2010PropOp37
 70
     0
102
RTVSPost2010Prop38
140
0.0
102
RTVSPost2010PropOp38
 70
     0
102
RTVSPost2010Prop39
140
1.0
102
RTVSPost2010PropOp39
 70
     0
102
RTVSPost2010Prop40
 90
        0
102
RTVSPost2010PropOp40
 70
     0
102
RTVSPost2010Prop41ColorIndex
 90
       18
102
RTVSPost2010Prop41ColorRGB
 90
        0
102
RTVSPost2010PropOp41
 70
     0
102
RTVSPost2010Prop42
 90
       50
102
RTVSPost2010PropOp42
 70
     0
102
RTVSPost2010Prop43
 90
        3
102
RTVSPost2010PropOp43
 70
     0
102
RTVSPost2010Prop44ColorIndex
 90
        5
102
RTVSPost2010Prop44ColorRGB
 90
      255
102
RTVSPost2010PropOp44
 70
     0
102
RTVSPost2010Prop45
280
     0
102
RTVSPost2010PropOp45
 70
     0
102
RTVSPost2010Prop46
 90
       50
102
RTVSPost2010PropOp46
 70
     0
102
RTVSPost2010Prop47
 90
       50
102
RTVSPost2010PropOp47
 70
     0
102
RTVSPost2010Prop48
 90
       50
102
RTVSPost2010PropOp48
 70
     0
102
RTVSPost2010Prop49
280
     0
102
RTVSPost2010PropOp49
 70
     0
102
RTVSPost2010Prop50
 90
       50
102
RTVSPost2010PropOp50
 70
     0
102
RTVSPost2010Prop51ColorIndex
 90
      256
102
RTVSPost2010Prop51ColorRGB
 90
-16777216
102
RTVSPost2010PropOp51
 70
     0
102
RTVSPost2010Prop52
140
1.0
102
RTVSPost2010PropOp52
 70
     0
102
RTVSPost2010Prop53
 90
        2
102
RTVSPost2010PropOp53
 70
     0
102
RTVSPost2010Prop54
  1
strokes_ogs.tif
102
RTVSPost2010PropOp54
 70
     0
102
RTVSPost2010Prop55
280
     0
102
RTVSPost2010PropOp55
 70
     0
102
RTVSPost2010Prop56
140
1.0
102
RTVSPost2010PropOp56
 70
     0
102
RTVSPost2010Prop57
140
1.0
102
RTVSPost2010PropOp57
 70
     0
102
RTVSPropertyOp0
 70
     0
102
RTVSPropertyOp1
 70
     0
102
RTVSPropertyOp2
 70
     0
102
RTVSPropertyOp3
 70
     0
102
RTVSPropertyOp4
 70
     0
102
RTVSPropertyOp5
 70
     0
102
RTVSPropertyOp6
 70
     0
102
RTVSPropertyOp7
 70
     0
102
RTVSPropertyOp8
 70
     0
102
RTVSPropertyOp9
 70
     0
102
RTVSPropertyOp10
 70
     0
102
RTVSPropertyOp11
 70
     0
102
RTVSPropertyOp12
 70
     0
102
RTVSPropertyOp13
 70
     0
102
RTVSPropertyOp14
 70
     2
102
RTVSPropertyOp15
 70
     0
102
RTVSPropertyOp16
 70
     0
102
RTVSPropertyOp17
 70
     0
102
RTVSPropertyOp18
 70
     0
102
RTVSPropertyOp19
 70
     0
102
RTVSPropertyOp20
 70
     0
102
RTVSPropertyOp21
 70
     0
102
RTVSPropertyOp22
 70
     0
102
RTVSPropertyOp23
 70
     0
102
RTVSPropertyOp24
 70
     0
102
RTVSPropertyOp25
 70
     0
102
RTVSPropertyOp26
 70
     0
102
RTVSPropertyOp27
 70
     0
102
RTVSPropertyOp28
 70
     0
102
RTVSPropertyOp29
 70
     0
102
RTVSPropertyOp30
 70
     0
102
RTVSPropertyOp31
 70
     0
102
RTVSPropertyOp32
 70
     0
102
RTVSPropertyOp33
 70
     0
102
RTVSPropertyOp34
 70
     0
102
RTVSPropertyOp35
 70
     0
102
RTVSPropertyOp36
 70
     0
102
RTVSPropertyOp37
 70
     0
102
RTVSPropertyOp38
 70
     0
102
RTVSPropertyOp39
 70
     0
102
RTVSPropertyOp40
 70
     0
102
RTVSPropertyOp41
 70
     0
102
RTVSPropertyOp42
 70
     0
102
RTVSPropertyOp43
 70
     0
102
RTVSPropertyOp44
 70
     0
102
RTVSPropertyOp45
 70
     0
102
RTVSPropertyOp46
 70
     0
102
RTVSPropertyOp47
 70
     0
102
RTVSPropertyOp48
 70
     0
102
RTVSPropertyOp49
 70
     0
102
RTVSPropertyOp50
 70
     0
102
RTVSPropertyOp51
 70
     0
102
RTVSPropertyOp52
 70
     0
102
RTVSPropertyOp53
 70
     0
102
RTVSPropertyOp54
 70
     0
102
RTVSPropertyOp55
 70
     0
102
RTVSPropertyOp56
 70
     0
102
RTVSPropertyOp57
 70
     0
102
RTVSPropertyOp58
 70
     1
102
RTVSPropertyOp59
 70
     1
102
RTVSPropertyOp60
 70
     1
102
RTVSPropertyOp61
 70
     1
102
RTVSPropertyOp62
 70
     1
  0
XRECORD
  5
1AC5
102
{ACAD_REACTORS
330
1AC4
102
}
330
1AC4
100
AcDbXrecord
280
     1
102
RTVSPost2010Prop28
280
     0
102
RTVSPost2010PropOp28
 70
     1
102
RTVSPost2010Prop29
280
     1
102
RTVSPost2010PropOp29
 70
     1
102
RTVSPost2010Prop30
280
     1
102
RTVSPost2010PropOp30
 70
     1
102
RTVSPost2010Prop31
280
     0
102
RTVSPost2010PropOp31
 70
     1
102
RTVSPost2010Prop32
280
     0
102
RTVSPost2010PropOp32
 70
     1
102
RTVSPost2010Prop33
280
     0
102
RTVSPost2010PropOp33
 70
     1
102
RTVSPost2010Prop34
280
     0
102
RTVSPost2010PropOp34
 70
     1
102
RTVSPost2010Prop35
280
     0
102
RTVSPost2010PropOp35
 70
     1
102
RTVSPost2010Prop36
280
     0
102
RTVSPost2010PropOp36
 70
     1
102
RTVSPost2010Prop37
 90
       50
102
RTVSPost2010PropOp37
 70
     1
102
RTVSPost2010Prop38
140
0.0
102
RTVSPost2010PropOp38
 70
     1
102
RTVSPost2010Prop39
140
1.0
102
RTVSPost2010PropOp39
 70
     1
102
RTVSPost2010Prop40
 90
        0
102
RTVSPost2010PropOp40
 70
     1
102
RTVSPost2010Prop41ColorIndex
 90
       18
102
RTVSPost2010Prop41ColorRGB
 90
        0
102
RTVSPost2010PropOp41
 70
     1
102
RTVSPost2010Prop42
 90
       50
102
RTVSPost2010PropOp42
 70
     1
102
RTVSPost2010Prop43
 90
        3
102
RTVSPost2010PropOp43
 70
     1
102
RTVSPost2010Prop44ColorIndex
 90
        5
102
RTVSPost2010Prop44ColorRGB
 90
      255
102
RTVSPost2010PropOp44
 70
     1
102
RTVSPost2010Prop45
280
     0
102
RTVSPost2010PropOp45
 70
     1
102
RTVSPost2010Prop46
 90
       50
102
RTVSPost2010PropOp46
 70
     1
102
RTVSPost2010Prop47
 90
       50
102
RTVSPost2010PropOp47
 70
     1
102
RTVSPost2010Prop48
 90
       50
102
RTVSPost2010PropOp48
 70
     1
102
RTVSPost2010Prop49
280
     0
102
RTVSPost2010PropOp49
 70
     1
102
RTVSPost2010Prop50
 90
       50
102
RTVSPost2010PropOp50
 70
     1
102
RTVSPost2010Prop51ColorIndex
 90
      256
102
RTVSPost2010Prop51ColorRGB
 90
-16777216
102
RTVSPost2010PropOp51
 70
     0
102
RTVSPost2010Prop52
140
1.0
102
RTVSPost2010PropOp52
 70
     0
102
RTVSPost2010Prop53
 90
        2
102
RTVSPost2010PropOp53
 70
     1
102
RTVSPost2010Prop54
  1
strokes_ogs.tif
102
RTVSPost2010PropOp54
 70
     1
102
RTVSPost2010Prop55
280
     0
102
RTVSPost2010PropOp55
 70
     1
102
RTVSPost2010Prop56
140
1.0
102
RTVSPost2010PropOp56
 70
     1
102
RTVSPost2010Prop57
140
1.0
102
RTVSPost2010PropOp57
 70
     1
102
RTVSPropertyOp0
 70
     1
102
RTVSPropertyOp1
 70
     1
102
RTVSPropertyOp2
 70
     1
102
RTVSPropertyOp3
 70
     1
102
RTVSPropertyOp4
 70
     1
102
RTVSPropertyOp5
 70
     1
102
RTVSPropertyOp6
 70
     1
102
RTVSPropertyOp7
 70
     1
102
RTVSPropertyOp8
 70
     1
102
RTVSPropertyOp9
 70
     1
102
RTVSPropertyOp10
 70
     1
102
RTVSPropertyOp11
 70
     1
102
RTVSPropertyOp12
 70
     1
102
RTVSPropertyOp13
 70
     1
102
RTVSPropertyOp14
 70
     1
102
RTVSPropertyOp15
 70
     1
102
RTVSPropertyOp16
 70
     1
102
RTVSPropertyOp17
 70
     1
102
RTVSPropertyOp18
 70
     1
102
RTVSPropertyOp19
 70
     1
102
RTVSPropertyOp20
 70
     1
102
RTVSPropertyOp21
 70
     1
102
RTVSPropertyOp22
 70
     1
102
RTVSPropertyOp23
 70
     1
102
RTVSPropertyOp24
 70
     1
102
RTVSPropertyOp25
 70
     1
102
RTVSPropertyOp26
 70
     1
102
RTVSPropertyOp27
 70
     1
102
RTVSPropertyOp28
 70
     1
102
RTVSPropertyOp29
 70
     1
102
RTVSPropertyOp30
 70
     1
102
RTVSPropertyOp31
 70
     1
102
RTVSPropertyOp32
 70
     1
102
RTVSPropertyOp33
 70
     1
102
RTVSPropertyOp34
 70
     1
102
RTVSPropertyOp35
 70
     1
102
RTVSPropertyOp36
 70
     1
102
RTVSPropertyOp37
 70
     1
102
RTVSPropertyOp38
 70
     1
102
RTVSPropertyOp39
 70
     1
102
RTVSPropertyOp40
 70
     1
102
RTVSPropertyOp41
 70
     1
102
RTVSPropertyOp42
 70
     1
102
RTVSPropertyOp43
 70
     1
102
RTVSPropertyOp44
 70
     1
102
RTVSPropertyOp45
 70
     1
102
RTVSPropertyOp46
 70
     1
102
RTVSPropertyOp47
 70
     1
102
RTVSPropertyOp48
 70
     1
102
RTVSPropertyOp49
 70
     1
102
RTVSPropertyOp50
 70
     1
102
RTVSPropertyOp51
 70
     0
102
RTVSPropertyOp52
 70
     0
102
RTVSPropertyOp53
 70
     1
102
RTVSPropertyOp54
 70
     1
102
RTVSPropertyOp55
 70
     1
102
RTVSPropertyOp56
 70
     1
102
RTVSPropertyOp57
 70
     1
102
RTVSPropertyOp58
 70
     1
102
RTVSPropertyOp59
 70
     1
102
RTVSPropertyOp60
 70
     1
102
RTVSPropertyOp61
 70
     1
102
RTVSPropertyOp62
 70
     1
  0
XRECORD
  5
1AA9
102
{ACAD_REACTORS
330
1AA8
102
}
330
1AA8
100
AcDbXrecord
280
     1
102
RTVSPost2010Prop28
280
     0
102
RTVSPost2010PropOp28
 70
     1
102
RTVSPost2010Prop29
280
     1
102
RTVSPost2010PropOp29
 70
     1
102
RTVSPost2010Prop30
280
     1
102
RTVSPost2010PropOp30
 70
     1
102
RTVSPost2010Prop31
280
     0
102
RTVSPost2010PropOp31
 70
     1
102
RTVSPost2010Prop32
280
     0
102
RTVSPost2010PropOp32
 70
     1
102
RTVSPost2010Prop33
280
     0
102
RTVSPost2010PropOp33
 70
     1
102
RTVSPost2010Prop34
280
     0
102
RTVSPost2010PropOp34
 70
     1
102
RTVSPost2010Prop35
280
     0
102
RTVSPost2010PropOp35
 70
     1
102
RTVSPost2010Prop36
280
     0
102
RTVSPost2010PropOp36
 70
     1
102
RTVSPost2010Prop37
 90
       50
102
RTVSPost2010PropOp37
 70
     1
102
RTVSPost2010Prop38
140
0.0
102
RTVSPost2010PropOp38
 70
     1
102
RTVSPost2010Prop39
140
1.0
102
RTVSPost2010PropOp39
 70
     1
102
RTVSPost2010Prop40
 90
        0
102
RTVSPost2010PropOp40
 70
     1
102
RTVSPost2010Prop41ColorIndex
 90
       18
102
RTVSPost2010Prop41ColorRGB
 90
        0
102
RTVSPost2010PropOp41
 70
     1
102
RTVSPost2010Prop42
 90
       50
102
RTVSPost2010PropOp42
 70
     1
102
RTVSPost2010Prop43
 90
        3
102
RTVSPost2010PropOp43
 70
     1
102
RTVSPost2010Prop44ColorIndex
 90
        5
102
RTVSPost2010Prop44ColorRGB
 90
      255
102
RTVSPost2010PropOp44
 70
     1
102
RTVSPost2010Prop45
280
     0
102
RTVSPost2010PropOp45
 70
     1
102
RTVSPost2010Prop46
 90
       50
102
RTVSPost2010PropOp46
 70
     1
102
RTVSPost2010Prop47
 90
       50
102
RTVSPost2010PropOp47
 70
     1
102
RTVSPost2010Prop48
 90
       50
102
RTVSPost2010PropOp48
 70
     1
102
RTVSPost2010Prop49
280
     0
102
RTVSPost2010PropOp49
 70
     1
102
RTVSPost2010Prop50
 90
       50
102
RTVSPost2010PropOp50
 70
     1
102
RTVSPost2010Prop51ColorIndex
 90
      256
102
RTVSPost2010Prop51ColorRGB
 90
-16777216
102
RTVSPost2010PropOp51
 70
     0
102
RTVSPost2010Prop52
140
1.0
102
RTVSPost2010PropOp52
 70
     0
102
RTVSPost2010Prop53
 90
        2
102
RTVSPost2010PropOp53
 70
     1
102
RTVSPost2010Prop54
  1
strokes_ogs.tif
102
RTVSPost2010PropOp54
 70
     1
102
RTVSPost2010Prop55
280
     0
102
RTVSPost2010PropOp55
 70
     1
102
RTVSPost2010Prop56
140
1.0
102
RTVSPost2010PropOp56
 70
     1
102
RTVSPost2010Prop57
140
1.0
102
RTVSPost2010PropOp57
 70
     1
102
RTVSPropertyOp0
 70
     1
102
RTVSPropertyOp1
 70
     1
102
RTVSPropertyOp2
 70
     1
102
RTVSPropertyOp3
 70
     1
102
RTVSPropertyOp4
 70
     1
102
RTVSPropertyOp5
 70
     1
102
RTVSPropertyOp6
 70
     1
102
RTVSPropertyOp7
 70
     1
102
RTVSPropertyOp8
 70
     1
102
RTVSPropertyOp9
 70
     1
102
RTVSPropertyOp10
 70
     1
102
RTVSPropertyOp11
 70
     1
102
RTVSPropertyOp12
 70
     1
102
RTVSPropertyOp13
 70
     1
102
RTVSPropertyOp14
 70
     1
102
RTVSPropertyOp15
 70
     1
102
RTVSPropertyOp16
 70
     1
102
RTVSPropertyOp17
 70
     1
102
RTVSPropertyOp18
 70
     1
102
RTVSPropertyOp19
 70
     1
102
RTVSPropertyOp20
 70
     1
102
RTVSPropertyOp21
 70
     1
102
RTVSPropertyOp22
 70
     1
102
RTVSPropertyOp23
 70
     1
102
RTVSPropertyOp24
 70
     1
102
RTVSPropertyOp25
 70
     1
102
RTVSPropertyOp26
 70
     1
102
RTVSPropertyOp27
 70
     1
102
RTVSPropertyOp28
 70
     1
102
RTVSPropertyOp29
 70
     1
102
RTVSPropertyOp30
 70
     1
102
RTVSPropertyOp31
 70
     1
102
RTVSPropertyOp32
 70
     1
102
RTVSPropertyOp33
 70
     1
102
RTVSPropertyOp34
 70
     1
102
RTVSPropertyOp35
 70
     1
102
RTVSPropertyOp36
 70
     1
102
RTVSPropertyOp37
 70
     1
102
RTVSPropertyOp38
 70
     1
102
RTVSPropertyOp39
 70
     1
102
RTVSPropertyOp40
 70
     1
102
RTVSPropertyOp41
 70
     1
102
RTVSPropertyOp42
 70
     1
102
RTVSPropertyOp43
 70
     1
102
RTVSPropertyOp44
 70
     1
102
RTVSPropertyOp45
 70
     1
102
RTVSPropertyOp46
 70
     1
102
RTVSPropertyOp47
 70
     1
102
RTVSPropertyOp48
 70
     1
102
RTVSPropertyOp49
 70
     1
102
RTVSPropertyOp50
 70
     1
102
RTVSPropertyOp51
 70
     0
102
RTVSPropertyOp52
 70
     0
102
RTVSPropertyOp53
 70
     1
102
RTVSPropertyOp54
 70
     1
102
RTVSPropertyOp55
 70
     1
102
RTVSPropertyOp56
 70
     1
102
RTVSPropertyOp57
 70
     1
102
RTVSPropertyOp58
 70
     1
102
RTVSPropertyOp59
 70
     1
102
RTVSPropertyOp60
 70
     1
102
RTVSPropertyOp61
 70
     1
102
RTVSPropertyOp62
 70
     1
  0
XRECORD
  5
1AAB
102
{ACAD_REACTORS
330
1AAA
102
}
330
1AAA
100
AcDbXrecord
280
     1
102
RTVSPost2010Prop28
280
     0
102
RTVSPost2010PropOp28
 70
     1
102
RTVSPost2010Prop29
280
     1
102
RTVSPost2010PropOp29
 70
     1
102
RTVSPost2010Prop30
280
     1
102
RTVSPost2010PropOp30
 70
     1
102
RTVSPost2010Prop31
280
     0
102
RTVSPost2010PropOp31
 70
     1
102
RTVSPost2010Prop32
280
     0
102
RTVSPost2010PropOp32
 70
     1
102
RTVSPost2010Prop33
280
     0
102
RTVSPost2010PropOp33
 70
     1
102
RTVSPost2010Prop34
280
     0
102
RTVSPost2010PropOp34
 70
     1
102
RTVSPost2010Prop35
280
     0
102
RTVSPost2010PropOp35
 70
     1
102
RTVSPost2010Prop36
280
     0
102
RTVSPost2010PropOp36
 70
     1
102
RTVSPost2010Prop37
 90
       50
102
RTVSPost2010PropOp37
 70
     1
102
RTVSPost2010Prop38
140
0.0
102
RTVSPost2010PropOp38
 70
     1
102
RTVSPost2010Prop39
140
1.0
102
RTVSPost2010PropOp39
 70
     1
102
RTVSPost2010Prop40
 90
        0
102
RTVSPost2010PropOp40
 70
     1
102
RTVSPost2010Prop41ColorIndex
 90
       18
102
RTVSPost2010Prop41ColorRGB
 90
        0
102
RTVSPost2010PropOp41
 70
     1
102
RTVSPost2010Prop42
 90
       50
102
RTVSPost2010PropOp42
 70
     1
102
RTVSPost2010Prop43
 90
        3
102
RTVSPost2010PropOp43
 70
     1
102
RTVSPost2010Prop44ColorIndex
 90
        5
102
RTVSPost2010Prop44ColorRGB
 90
      255
102
RTVSPost2010PropOp44
 70
     1
102
RTVSPost2010Prop45
280
     0
102
RTVSPost2010PropOp45
 70
     1
102
RTVSPost2010Prop46
 90
       50
102
RTVSPost2010PropOp46
 70
     1
102
RTVSPost2010Prop47
 90
       50
102
RTVSPost2010PropOp47
 70
     1
102
RTVSPost2010Prop48
 90
       50
102
RTVSPost2010PropOp48
 70
     1
102
RTVSPost2010Prop49
280
     0
102
RTVSPost2010PropOp49
 70
     1
102
RTVSPost2010Prop50
 90
       50
102
RTVSPost2010PropOp50
 70
     1
102
RTVSPost2010Prop51ColorIndex
 90
      256
102
RTVSPost2010Prop51ColorRGB
 90
-16777216
102
RTVSPost2010PropOp51
 70
     0
102
RTVSPost2010Prop52
140
1.0
102
RTVSPost2010PropOp52
 70
     0
102
RTVSPost2010Prop53
 90
        2
102
RTVSPost2010PropOp53
 70
     1
102
RTVSPost2010Prop54
  1
strokes_ogs.tif
102
RTVSPost2010PropOp54
 70
     1
102
RTVSPost2010Prop55
280
     0
102
RTVSPost2010PropOp55
 70
     1
102
RTVSPost2010Prop56
140
1.0
102
RTVSPost2010PropOp56
 70
     1
102
RTVSPost2010Prop57
140
1.0
102
RTVSPost2010PropOp57
 70
     1
102
RTVSPropertyOp0
 70
     1
102
RTVSPropertyOp1
 70
     1
102
RTVSPropertyOp2
 70
     1
102
RTVSPropertyOp3
 70
     1
102
RTVSPropertyOp4
 70
     1
102
RTVSPropertyOp5
 70
     1
102
RTVSPropertyOp6
 70
     1
102
RTVSPropertyOp7
 70
     1
102
RTVSPropertyOp8
 70
     1
102
RTVSPropertyOp9
 70
     1
102
RTVSPropertyOp10
 70
     1
102
RTVSPropertyOp11
 70
     1
102
RTVSPropertyOp12
 70
     1
102
RTVSPropertyOp13
 70
     1
102
RTVSPropertyOp14
 70
     1
102
RTVSPropertyOp15
 70
     1
102
RTVSPropertyOp16
 70
     1
102
RTVSPropertyOp17
 70
     1
102
RTVSPropertyOp18
 70
     1
102
RTVSPropertyOp19
 70
     1
102
RTVSPropertyOp20
 70
     1
102
RTVSPropertyOp21
 70
     1
102
RTVSPropertyOp22
 70
     1
102
RTVSPropertyOp23
 70
     1
102
RTVSPropertyOp24
 70
     1
102
RTVSPropertyOp25
 70
     1
102
RTVSPropertyOp26
 70
     1
102
RTVSPropertyOp27
 70
     1
102
RTVSPropertyOp28
 70
     1
102
RTVSPropertyOp29
 70
     1
102
RTVSPropertyOp30
 70
     1
102
RTVSPropertyOp31
 70
     1
102
RTVSPropertyOp32
 70
     1
102
RTVSPropertyOp33
 70
     1
102
RTVSPropertyOp34
 70
     1
102
RTVSPropertyOp35
 70
     1
102
RTVSPropertyOp36
 70
     1
102
RTVSPropertyOp37
 70
     1
102
RTVSPropertyOp38
 70
     1
102
RTVSPropertyOp39
 70
     1
102
RTVSPropertyOp40
 70
     1
102
RTVSPropertyOp41
 70
     1
102
RTVSPropertyOp42
 70
     1
102
RTVSPropertyOp43
 70
     1
102
RTVSPropertyOp44
 70
     1
102
RTVSPropertyOp45
 70
     1
102
RTVSPropertyOp46
 70
     1
102
RTVSPropertyOp47
 70
     1
102
RTVSPropertyOp48
 70
     1
102
RTVSPropertyOp49
 70
     1
102
RTVSPropertyOp50
 70
     1
102
RTVSPropertyOp51
 70
     0
102
RTVSPropertyOp52
 70
     0
102
RTVSPropertyOp53
 70
     1
102
RTVSPropertyOp54
 70
     1
102
RTVSPropertyOp55
 70
     1
102
RTVSPropertyOp56
 70
     1
102
RTVSPropertyOp57
 70
     1
102
RTVSPropertyOp58
 70
     1
102
RTVSPropertyOp59
 70
     1
102
RTVSPropertyOp60
 70
     1
102
RTVSPropertyOp61
 70
     1
102
RTVSPropertyOp62
 70
     1
  0
XRECORD
  5
1AAD
102
{ACAD_REACTORS
330
1AAC
102
}
330
1AAC
100
AcDbXrecord
280
     1
102
RTVSPost2010Prop28
280
     0
102
RTVSPost2010PropOp28
 70
     1
102
RTVSPost2010Prop29
280
     1
102
RTVSPost2010PropOp29
 70
     1
102
RTVSPost2010Prop30
280
     1
102
RTVSPost2010PropOp30
 70
     1
102
RTVSPost2010Prop31
280
     0
102
RTVSPost2010PropOp31
 70
     1
102
RTVSPost2010Prop32
280
     0
102
RTVSPost2010PropOp32
 70
     1
102
RTVSPost2010Prop33
280
     0
102
RTVSPost2010PropOp33
 70
     1
102
RTVSPost2010Prop34
280
     0
102
RTVSPost2010PropOp34
 70
     1
102
RTVSPost2010Prop35
280
     0
102
RTVSPost2010PropOp35
 70
     1
102
RTVSPost2010Prop36
280
     0
102
RTVSPost2010PropOp36
 70
     1
102
RTVSPost2010Prop37
 90
       50
102
RTVSPost2010PropOp37
 70
     1
102
RTVSPost2010Prop38
140
0.0
102
RTVSPost2010PropOp38
 70
     1
102
RTVSPost2010Prop39
140
1.0
102
RTVSPost2010PropOp39
 70
     1
102
RTVSPost2010Prop40
 90
        0
102
RTVSPost2010PropOp40
 70
     1
102
RTVSPost2010Prop41ColorIndex
 90
       18
102
RTVSPost2010Prop41ColorRGB
 90
        0
102
RTVSPost2010PropOp41
 70
     1
102
RTVSPost2010Prop42
 90
       50
102
RTVSPost2010PropOp42
 70
     1
102
RTVSPost2010Prop43
 90
        3
102
RTVSPost2010PropOp43
 70
     1
102
RTVSPost2010Prop44ColorIndex
 90
        5
102
RTVSPost2010Prop44ColorRGB
 90
      255
102
RTVSPost2010PropOp44
 70
     1
102
RTVSPost2010Prop45
280
     0
102
RTVSPost2010PropOp45
 70
     1
102
RTVSPost2010Prop46
 90
       50
102
RTVSPost2010PropOp46
 70
     1
102
RTVSPost2010Prop47
 90
       50
102
RTVSPost2010PropOp47
 70
     1
102
RTVSPost2010Prop48
 90
       50
102
RTVSPost2010PropOp48
 70
     1
102
RTVSPost2010Prop49
280
     0
102
RTVSPost2010PropOp49
 70
     1
102
RTVSPost2010Prop50
 90
       50
102
RTVSPost2010PropOp50
 70
     1
102
RTVSPost2010Prop51ColorIndex
 90
      256
102
RTVSPost2010Prop51ColorRGB
 90
-16777216
102
RTVSPost2010PropOp51
 70
     0
102
RTVSPost2010Prop52
140
1.0
102
RTVSPost2010PropOp52
 70
     0
102
RTVSPost2010Prop53
 90
        2
102
RTVSPost2010PropOp53
 70
     1
102
RTVSPost2010Prop54
  1
strokes_ogs.tif
102
RTVSPost2010PropOp54
 70
     1
102
RTVSPost2010Prop55
280
     0
102
RTVSPost2010PropOp55
 70
     1
102
RTVSPost2010Prop56
140
1.0
102
RTVSPost2010PropOp56
 70
     1
102
RTVSPost2010Prop57
140
1.0
102
RTVSPost2010PropOp57
 70
     1
102
RTVSPropertyOp0
 70
     1
102
RTVSPropertyOp1
 70
     1
102
RTVSPropertyOp2
 70
     1
102
RTVSPropertyOp3
 70
     1
102
RTVSPropertyOp4
 70
     1
102
RTVSPropertyOp5
 70
     1
102
RTVSPropertyOp6
 70
     1
102
RTVSPropertyOp7
 70
     1
102
RTVSPropertyOp8
 70
     1
102
RTVSPropertyOp9
 70
     1
102
RTVSPropertyOp10
 70
     1
102
RTVSPropertyOp11
 70
     1
102
RTVSPropertyOp12
 70
     1
102
RTVSPropertyOp13
 70
     1
102
RTVSPropertyOp14
 70
     1
102
RTVSPropertyOp15
 70
     1
102
RTVSPropertyOp16
 70
     1
102
RTVSPropertyOp17
 70
     1
102
RTVSPropertyOp18
 70
     1
102
RTVSPropertyOp19
 70
     1
102
RTVSPropertyOp20
 70
     1
102
RTVSPropertyOp21
 70
     1
102
RTVSPropertyOp22
 70
     1
102
RTVSPropertyOp23
 70
     1
102
RTVSPropertyOp24
 70
     1
102
RTVSPropertyOp25
 70
     1
102
RTVSPropertyOp26
 70
     1
102
RTVSPropertyOp27
 70
     1
102
RTVSPropertyOp28
 70
     1
102
RTVSPropertyOp29
 70
     1
102
RTVSPropertyOp30
 70
     1
102
RTVSPropertyOp31
 70
     1
102
RTVSPropertyOp32
 70
     1
102
RTVSPropertyOp33
 70
     1
102
RTVSPropertyOp34
 70
     1
102
RTVSPropertyOp35
 70
     1
102
RTVSPropertyOp36
 70
     1
102
RTVSPropertyOp37
 70
     1
102
RTVSPropertyOp38
 70
     1
102
RTVSPropertyOp39
 70
     1
102
RTVSPropertyOp40
 70
     1
102
RTVSPropertyOp41
 70
     1
102
RTVSPropertyOp42
 70
     1
102
RTVSPropertyOp43
 70
     1
102
RTVSPropertyOp44
 70
     1
102
RTVSPropertyOp45
 70
     1
102
RTVSPropertyOp46
 70
     1
102
RTVSPropertyOp47
 70
     1
102
RTVSPropertyOp48
 70
     1
102
RTVSPropertyOp49
 70
     1
102
RTVSPropertyOp50
 70
     1
102
RTVSPropertyOp51
 70
     0
102
RTVSPropertyOp52
 70
     0
102
RTVSPropertyOp53
 70
     1
102
RTVSPropertyOp54
 70
     1
102
RTVSPropertyOp55
 70
     1
102
RTVSPropertyOp56
 70
     1
102
RTVSPropertyOp57
 70
     1
102
RTVSPropertyOp58
 70
     1
102
RTVSPropertyOp59
 70
     1
102
RTVSPropertyOp60
 70
     1
102
RTVSPropertyOp61
 70
     1
102
RTVSPropertyOp62
 70
     1
  0
XRECORD
  5
1AAF
102
{ACAD_REACTORS
330
1AAE
102
}
330
1AAE
100
AcDbXrecord
280
     1
102
RTVSPost2010Prop28
280
     0
102
RTVSPost2010PropOp28
 70
     1
102
RTVSPost2010Prop29
280
     1
102
RTVSPost2010PropOp29
 70
     1
102
RTVSPost2010Prop30
280
     1
102
RTVSPost2010PropOp30
 70
     1
102
RTVSPost2010Prop31
280
     0
102
RTVSPost2010PropOp31
 70
     1
102
RTVSPost2010Prop32
280
     0
102
RTVSPost2010PropOp32
 70
     1
102
RTVSPost2010Prop33
280
     0
102
RTVSPost2010PropOp33
 70
     1
102
RTVSPost2010Prop34
280
     0
102
RTVSPost2010PropOp34
 70
     1
102
RTVSPost2010Prop35
280
     0
102
RTVSPost2010PropOp35
 70
     1
102
RTVSPost2010Prop36
280
     0
102
RTVSPost2010PropOp36
 70
     1
102
RTVSPost2010Prop37
 90
       50
102
RTVSPost2010PropOp37
 70
     1
102
RTVSPost2010Prop38
140
0.0
102
RTVSPost2010PropOp38
 70
     1
102
RTVSPost2010Prop39
140
1.0
102
RTVSPost2010PropOp39
 70
     1
102
RTVSPost2010Prop40
 90
        0
102
RTVSPost2010PropOp40
 70
     1
102
RTVSPost2010Prop41ColorIndex
 90
       18
102
RTVSPost2010Prop41ColorRGB
 90
        0
102
RTVSPost2010PropOp41
 70
     1
102
RTVSPost2010Prop42
 90
       50
102
RTVSPost2010PropOp42
 70
     1
102
RTVSPost2010Prop43
 90
        3
102
RTVSPost2010PropOp43
 70
     1
102
RTVSPost2010Prop44ColorIndex
 90
        5
102
RTVSPost2010Prop44ColorRGB
 90
      255
102
RTVSPost2010PropOp44
 70
     1
102
RTVSPost2010Prop45
280
     0
102
RTVSPost2010PropOp45
 70
     1
102
RTVSPost2010Prop46
 90
       50
102
RTVSPost2010PropOp46
 70
     1
102
RTVSPost2010Prop47
 90
       50
102
RTVSPost2010PropOp47
 70
     1
102
RTVSPost2010Prop48
 90
       50
102
RTVSPost2010PropOp48
 70
     1
102
RTVSPost2010Prop49
280
     0
102
RTVSPost2010PropOp49
 70
     1
102
RTVSPost2010Prop50
 90
       50
102
RTVSPost2010PropOp50
 70
     1
102
RTVSPost2010Prop51ColorIndex
 90
      256
102
RTVSPost2010Prop51ColorRGB
 90
-16777216
102
RTVSPost2010PropOp51
 70
     0
102
RTVSPost2010Prop52
140
1.0
102
RTVSPost2010PropOp52
 70
     0
102
RTVSPost2010Prop53
 90
        2
102
RTVSPost2010PropOp53
 70
     1
102
RTVSPost2010Prop54
  1
strokes_ogs.tif
102
RTVSPost2010PropOp54
 70
     1
102
RTVSPost2010Prop55
280
     0
102
RTVSPost2010PropOp55
 70
     1
102
RTVSPost2010Prop56
140
1.0
102
RTVSPost2010PropOp56
 70
     1
102
RTVSPost2010Prop57
140
1.0
102
RTVSPost2010PropOp57
 70
     1
102
RTVSPropertyOp0
 70
     1
102
RTVSPropertyOp1
 70
     1
102
RTVSPropertyOp2
 70
     1
102
RTVSPropertyOp3
 70
     1
102
RTVSPropertyOp4
 70
     1
102
RTVSPropertyOp5
 70
     1
102
RTVSPropertyOp6
 70
     1
102
RTVSPropertyOp7
 70
     1
102
RTVSPropertyOp8
 70
     1
102
RTVSPropertyOp9
 70
     1
102
RTVSPropertyOp10
 70
     1
102
RTVSPropertyOp11
 70
     1
102
RTVSPropertyOp12
 70
     1
102
RTVSPropertyOp13
 70
     1
102
RTVSPropertyOp14
 70
     1
102
RTVSPropertyOp15
 70
     1
102
RTVSPropertyOp16
 70
     1
102
RTVSPropertyOp17
 70
     1
102
RTVSPropertyOp18
 70
     1
102
RTVSPropertyOp19
 70
     1
102
RTVSPropertyOp20
 70
     1
102
RTVSPropertyOp21
 70
     1
102
RTVSPropertyOp22
 70
     1
102
RTVSPropertyOp23
 70
     1
102
RTVSPropertyOp24
 70
     1
102
RTVSPropertyOp25
 70
     1
102
RTVSPropertyOp26
 70
     1
102
RTVSPropertyOp27
 70
     1
102
RTVSPropertyOp28
 70
     1
102
RTVSPropertyOp29
 70
     1
102
RTVSPropertyOp30
 70
     1
102
RTVSPropertyOp31
 70
     1
102
RTVSPropertyOp32
 70
     1
102
RTVSPropertyOp33
 70
     1
102
RTVSPropertyOp34
 70
     1
102
RTVSPropertyOp35
 70
     1
102
RTVSPropertyOp36
 70
     1
102
RTVSPropertyOp37
 70
     1
102
RTVSPropertyOp38
 70
     1
102
RTVSPropertyOp39
 70
     1
102
RTVSPropertyOp40
 70
     1
102
RTVSPropertyOp41
 70
     1
102
RTVSPropertyOp42
 70
     1
102
RTVSPropertyOp43
 70
     1
102
RTVSPropertyOp44
 70
     1
102
RTVSPropertyOp45
 70
     1
102
RTVSPropertyOp46
 70
     1
102
RTVSPropertyOp47
 70
     1
102
RTVSPropertyOp48
 70
     1
102
RTVSPropertyOp49
 70
     1
102
RTVSPropertyOp50
 70
     1
102
RTVSPropertyOp51
 70
     0
102
RTVSPropertyOp52
 70
     0
102
RTVSPropertyOp53
 70
     1
102
RTVSPropertyOp54
 70
     1
102
RTVSPropertyOp55
 70
     1
102
RTVSPropertyOp56
 70
     1
102
RTVSPropertyOp57
 70
     1
102
RTVSPropertyOp58
 70
     1
102
RTVSPropertyOp59
 70
     1
102
RTVSPropertyOp60
 70
     1
102
RTVSPropertyOp61
 70
     1
102
RTVSPropertyOp62
 70
     1
  0
XRECORD
  5
1AB7
102
{ACAD_REACTORS
330
1AB6
102
}
330
1AB6
100
AcDbXrecord
280
     1
102
RTVSPost2010Prop28
280
     0
102
RTVSPost2010PropOp28
 70
     1
102
RTVSPost2010Prop29
280
     1
102
RTVSPost2010PropOp29
 70
     1
102
RTVSPost2010Prop30
280
     1
102
RTVSPost2010PropOp30
 70
     1
102
RTVSPost2010Prop31
280
     0
102
RTVSPost2010PropOp31
 70
     1
102
RTVSPost2010Prop32
280
     0
102
RTVSPost2010PropOp32
 70
     1
102
RTVSPost2010Prop33
280
     0
102
RTVSPost2010PropOp33
 70
     1
102
RTVSPost2010Prop34
280
     0
102
RTVSPost2010PropOp34
 70
     1
102
RTVSPost2010Prop35
280
     0
102
RTVSPost2010PropOp35
 70
     1
102
RTVSPost2010Prop36
280
     0
102
RTVSPost2010PropOp36
 70
     1
102
RTVSPost2010Prop37
 90
       50
102
RTVSPost2010PropOp37
 70
     1
102
RTVSPost2010Prop38
140
0.0
102
RTVSPost2010PropOp38
 70
     1
102
RTVSPost2010Prop39
140
1.0
102
RTVSPost2010PropOp39
 70
     1
102
RTVSPost2010Prop40
 90
        0
102
RTVSPost2010PropOp40
 70
     1
102
RTVSPost2010Prop41ColorIndex
 90
       18
102
RTVSPost2010Prop41ColorRGB
 90
        0
102
RTVSPost2010PropOp41
 70
     1
102
RTVSPost2010Prop42
 90
       50
102
RTVSPost2010PropOp42
 70
     1
102
RTVSPost2010Prop43
 90
        3
102
RTVSPost2010PropOp43
 70
     1
102
RTVSPost2010Prop44ColorIndex
 90
        5
102
RTVSPost2010Prop44ColorRGB
 90
      255
102
RTVSPost2010PropOp44
 70
     1
102
RTVSPost2010Prop45
280
     0
102
RTVSPost2010PropOp45
 70
     1
102
RTVSPost2010Prop46
 90
       50
102
RTVSPost2010PropOp46
 70
     1
102
RTVSPost2010Prop47
 90
       50
102
RTVSPost2010PropOp47
 70
     1
102
RTVSPost2010Prop48
 90
       50
102
RTVSPost2010PropOp48
 70
     1
102
RTVSPost2010Prop49
280
     0
102
RTVSPost2010PropOp49
 70
     1
102
RTVSPost2010Prop50
 90
       50
102
RTVSPost2010PropOp50
 70
     1
102
RTVSPost2010Prop51ColorIndex
 90
      256
102
RTVSPost2010Prop51ColorRGB
 90
-16777216
102
RTVSPost2010PropOp51
 70
     0
102
RTVSPost2010Prop52
140
1.0
102
RTVSPost2010PropOp52
 70
     0
102
RTVSPost2010Prop53
 90
        2
102
RTVSPost2010PropOp53
 70
     1
102
RTVSPost2010Prop54
  1
strokes_ogs.tif
102
RTVSPost2010PropOp54
 70
     1
102
RTVSPost2010Prop55
280
     0
102
RTVSPost2010PropOp55
 70
     1
102
RTVSPost2010Prop56
140
1.0
102
RTVSPost2010PropOp56
 70
     1
102
RTVSPost2010Prop57
140
1.0
102
RTVSPost2010PropOp57
 70
     1
102
RTVSPropertyOp0
 70
     1
102
RTVSPropertyOp1
 70
     1
102
RTVSPropertyOp2
 70
     1
102
RTVSPropertyOp3
 70
     1
102
RTVSPropertyOp4
 70
     1
102
RTVSPropertyOp5
 70
     1
102
RTVSPropertyOp6
 70
     1
102
RTVSPropertyOp7
 70
     1
102
RTVSPropertyOp8
 70
     1
102
RTVSPropertyOp9
 70
     1
102
RTVSPropertyOp10
 70
     1
102
RTVSPropertyOp11
 70
     1
102
RTVSPropertyOp12
 70
     1
102
RTVSPropertyOp13
 70
     1
102
RTVSPropertyOp14
 70
     1
102
RTVSPropertyOp15
 70
     1
102
RTVSPropertyOp16
 70
     1
102
RTVSPropertyOp17
 70
     1
102
RTVSPropertyOp18
 70
     1
102
RTVSPropertyOp19
 70
     1
102
RTVSPropertyOp20
 70
     1
102
RTVSPropertyOp21
 70
     1
102
RTVSPropertyOp22
 70
     1
102
RTVSPropertyOp23
 70
     1
102
RTVSPropertyOp24
 70
     1
102
RTVSPropertyOp25
 70
     1
102
RTVSPropertyOp26
 70
     1
102
RTVSPropertyOp27
 70
     1
102
RTVSPropertyOp28
 70
     1
102
RTVSPropertyOp29
 70
     1
102
RTVSPropertyOp30
 70
     1
102
RTVSPropertyOp31
 70
     1
102
RTVSPropertyOp32
 70
     1
102
RTVSPropertyOp33
 70
     1
102
RTVSPropertyOp34
 70
     1
102
RTVSPropertyOp35
 70
     1
102
RTVSPropertyOp36
 70
     1
102
RTVSPropertyOp37
 70
     1
102
RTVSPropertyOp38
 70
     1
102
RTVSPropertyOp39
 70
     1
102
RTVSPropertyOp40
 70
     1
102
RTVSPropertyOp41
 70
     1
102
RTVSPropertyOp42
 70
     1
102
RTVSPropertyOp43
 70
     1
102
RTVSPropertyOp44
 70
     1
102
RTVSPropertyOp45
 70
     1
102
RTVSPropertyOp46
 70
     1
102
RTVSPropertyOp47
 70
     1
102
RTVSPropertyOp48
 70
     1
102
RTVSPropertyOp49
 70
     1
102
RTVSPropertyOp50
 70
     1
102
RTVSPropertyOp51
 70
     0
102
RTVSPropertyOp52
 70
     0
102
RTVSPropertyOp53
 70
     1
102
RTVSPropertyOp54
 70
     1
102
RTVSPropertyOp55
 70
     1
102
RTVSPropertyOp56
 70
     1
102
RTVSPropertyOp57
 70
     1
102
RTVSPropertyOp58
 70
     1
102
RTVSPropertyOp59
 70
     1
102
RTVSPropertyOp60
 70
     1
102
RTVSPropertyOp61
 70
     1
102
RTVSPropertyOp62
 70
     1
  0
XRECORD
  5
1AD3
102
{ACAD_REACTORS
330
1AD2
102
}
330
1AD2
100
AcDbXrecord
280
     1
102
RTVSPost2010Prop28
280
     0
102
RTVSPost2010PropOp28
 70
     0
102
RTVSPost2010Prop29
280
     1
102
RTVSPost2010PropOp29
 70
     0
102
RTVSPost2010Prop30
280
     1
102
RTVSPost2010PropOp30
 70
     0
102
RTVSPost2010Prop31
280
     0
102
RTVSPost2010PropOp31
 70
     0
102
RTVSPost2010Prop32
280
     0
102
RTVSPost2010PropOp32
 70
     0
102
RTVSPost2010Prop33
280
     0
102
RTVSPost2010PropOp33
 70
     0
102
RTVSPost2010Prop34
280
     0
102
RTVSPost2010PropOp34
 70
     0
102
RTVSPost2010Prop35
280
     0
102
RTVSPost2010PropOp35
 70
     0
102
RTVSPost2010Prop36
280
     0
102
RTVSPost2010PropOp36
 70
     0
102
RTVSPost2010Prop37
 90
       50
102
RTVSPost2010PropOp37
 70
     0
102
RTVSPost2010Prop38
140
0.0
102
RTVSPost2010PropOp38
 70
     0
102
RTVSPost2010Prop39
140
1.0
102
RTVSPost2010PropOp39
 70
     0
102
RTVSPost2010Prop40
 90
        0
102
RTVSPost2010PropOp40
 70
     0
102
RTVSPost2010Prop41ColorIndex
 90
       18
102
RTVSPost2010Prop41ColorRGB
 90
        0
102
RTVSPost2010PropOp41
 70
     0
102
RTVSPost2010Prop42
 90
       50
102
RTVSPost2010PropOp42
 70
     0
102
RTVSPost2010Prop43
 90
        3
102
RTVSPost2010PropOp43
 70
     0
102
RTVSPost2010Prop44ColorIndex
 90
        5
102
RTVSPost2010Prop44ColorRGB
 90
      255
102
RTVSPost2010PropOp44
 70
     0
102
RTVSPost2010Prop45
280
     0
102
RTVSPost2010PropOp45
 70
     0
102
RTVSPost2010Prop46
 90
       50
102
RTVSPost2010PropOp46
 70
     0
102
RTVSPost2010Prop47
 90
       50
102
RTVSPost2010PropOp47
 70
     0
102
RTVSPost2010Prop48
 90
       50
102
RTVSPost2010PropOp48
 70
     0
102
RTVSPost2010Prop49
280
     0
102
RTVSPost2010PropOp49
 70
     0
102
RTVSPost2010Prop50
 90
       50
102
RTVSPost2010PropOp50
 70
     0
102
RTVSPost2010Prop51ColorIndex
 90
      256
102
RTVSPost2010Prop51ColorRGB
 90
-16777216
102
RTVSPost2010PropOp51
 70
     0
102
RTVSPost2010Prop52
140
1.0
102
RTVSPost2010PropOp52
 70
     0
102
RTVSPost2010Prop53
 90
        2
102
RTVSPost2010PropOp53
 70
     0
102
RTVSPost2010Prop54
  1
strokes_ogs.tif
102
RTVSPost2010PropOp54
 70
     0
102
RTVSPost2010Prop55
280
     0
102
RTVSPost2010PropOp55
 70
     0
102
RTVSPost2010Prop56
140
1.0
102
RTVSPost2010PropOp56
 70
     0
102
RTVSPost2010Prop57
140
1.0
102
RTVSPost2010PropOp57
 70
     0
102
RTVSPropertyOp0
 70
     0
102
RTVSPropertyOp1
 70
     0
102
RTVSPropertyOp2
 70
     0
102
RTVSPropertyOp3
 70
     0
102
RTVSPropertyOp4
 70
     0
102
RTVSPropertyOp5
 70
     0
102
RTVSPropertyOp6
 70
     0
102
RTVSPropertyOp7
 70
     0
102
RTVSPropertyOp8
 70
     0
102
RTVSPropertyOp9
 70
     0
102
RTVSPropertyOp10
 70
     0
102
RTVSPropertyOp11
 70
     0
102
RTVSPropertyOp12
 70
     0
102
RTVSPropertyOp13
 70
     0
102
RTVSPropertyOp14
 70
     2
102
RTVSPropertyOp15
 70
     0
102
RTVSPropertyOp16
 70
     0
102
RTVSPropertyOp17
 70
     0
102
RTVSPropertyOp18
 70
     0
102
RTVSPropertyOp19
 70
     0
102
RTVSPropertyOp20
 70
     0
102
RTVSPropertyOp21
 70
     0
102
RTVSPropertyOp22
 70
     0
102
RTVSPropertyOp23
 70
     0
102
RTVSPropertyOp24
 70
     0
102
RTVSPropertyOp25
 70
     0
102
RTVSPropertyOp26
 70
     0
102
RTVSPropertyOp27
 70
     0
102
RTVSPropertyOp28
 70
     0
102
RTVSPropertyOp29
 70
     0
102
RTVSPropertyOp30
 70
     0
102
RTVSPropertyOp31
 70
     0
102
RTVSPropertyOp32
 70
     0
102
RTVSPropertyOp33
 70
     0
102
RTVSPropertyOp34
 70
     0
102
RTVSPropertyOp35
 70
     0
102
RTVSPropertyOp36
 70
     0
102
RTVSPropertyOp37
 70
     0
102
RTVSPropertyOp38
 70
     0
102
RTVSPropertyOp39
 70
     0
102
RTVSPropertyOp40
 70
     0
102
RTVSPropertyOp41
 70
     0
102
RTVSPropertyOp42
 70
     0
102
RTVSPropertyOp43
 70
     0
102
RTVSPropertyOp44
 70
     0
102
RTVSPropertyOp45
 70
     0
102
RTVSPropertyOp46
 70
     0
102
RTVSPropertyOp47
 70
     0
102
RTVSPropertyOp48
 70
     0
102
RTVSPropertyOp49
 70
     0
102
RTVSPropertyOp50
 70
     0
102
RTVSPropertyOp51
 70
     0
102
RTVSPropertyOp52
 70
     0
102
RTVSPropertyOp53
 70
     0
102
RTVSPropertyOp54
 70
     0
102
RTVSPropertyOp55
 70
     0
102
RTVSPropertyOp56
 70
     0
102
RTVSPropertyOp57
 70
     0
102
RTVSPropertyOp58
 70
     1
102
RTVSPropertyOp59
 70
     1
102
RTVSPropertyOp60
 70
     1
102
RTVSPropertyOp61
 70
     1
102
RTVSPropertyOp62
 70
     1
  0
XRECORD
  5
1AC3
102
{ACAD_REACTORS
330
1AC2
102
}
330
1AC2
100
AcDbXrecord
280
     1
102
RTVSPost2010Prop28
280
     0
102
RTVSPost2010PropOp28
 70
     1
102
RTVSPost2010Prop29
280
     1
102
RTVSPost2010PropOp29
 70
     1
102
RTVSPost2010Prop30
280
     1
102
RTVSPost2010PropOp30
 70
     1
102
RTVSPost2010Prop31
280
     0
102
RTVSPost2010PropOp31
 70
     1
102
RTVSPost2010Prop32
280
     0
102
RTVSPost2010PropOp32
 70
     1
102
RTVSPost2010Prop33
280
     0
102
RTVSPost2010PropOp33
 70
     1
102
RTVSPost2010Prop34
280
     0
102
RTVSPost2010PropOp34
 70
     1
102
RTVSPost2010Prop35
280
     0
102
RTVSPost2010PropOp35
 70
     1
102
RTVSPost2010Prop36
280
     0
102
RTVSPost2010PropOp36
 70
     1
102
RTVSPost2010Prop37
 90
       50
102
RTVSPost2010PropOp37
 70
     1
102
RTVSPost2010Prop38
140
0.0
102
RTVSPost2010PropOp38
 70
     1
102
RTVSPost2010Prop39
140
1.0
102
RTVSPost2010PropOp39
 70
     1
102
RTVSPost2010Prop40
 90
        0
102
RTVSPost2010PropOp40
 70
     1
102
RTVSPost2010Prop41ColorIndex
 90
       18
102
RTVSPost2010Prop41ColorRGB
 90
        0
102
RTVSPost2010PropOp41
 70
     1
102
RTVSPost2010Prop42
 90
       50
102
RTVSPost2010PropOp42
 70
     1
102
RTVSPost2010Prop43
 90
        3
102
RTVSPost2010PropOp43
 70
     1
102
RTVSPost2010Prop44ColorIndex
 90
        5
102
RTVSPost2010Prop44ColorRGB
 90
      255
102
RTVSPost2010PropOp44
 70
     1
102
RTVSPost2010Prop45
280
     0
102
RTVSPost2010PropOp45
 70
     1
102
RTVSPost2010Prop46
 90
       50
102
RTVSPost2010PropOp46
 70
     1
102
RTVSPost2010Prop47
 90
       50
102
RTVSPost2010PropOp47
 70
     1
102
RTVSPost2010Prop48
 90
       50
102
RTVSPost2010PropOp48
 70
     1
102
RTVSPost2010Prop49
280
     0
102
RTVSPost2010PropOp49
 70
     1
102
RTVSPost2010Prop50
 90
       50
102
RTVSPost2010PropOp50
 70
     1
102
RTVSPost2010Prop51ColorIndex
 90
      256
102
RTVSPost2010Prop51ColorRGB
 90
-16777216
102
RTVSPost2010PropOp51
 70
     0
102
RTVSPost2010Prop52
140
1.0
102
RTVSPost2010PropOp52
 70
     0
102
RTVSPost2010Prop53
 90
        2
102
RTVSPost2010PropOp53
 70
     1
102
RTVSPost2010Prop54
  1
strokes_ogs.tif
102
RTVSPost2010PropOp54
 70
     1
102
RTVSPost2010Prop55
280
     0
102
RTVSPost2010PropOp55
 70
     1
102
RTVSPost2010Prop56
140
1.0
102
RTVSPost2010PropOp56
 70
     1
102
RTVSPost2010Prop57
140
1.0
102
RTVSPost2010PropOp57
 70
     1
102
RTVSPropertyOp0
 70
     1
102
RTVSPropertyOp1
 70
     1
102
RTVSPropertyOp2
 70
     1
102
RTVSPropertyOp3
 70
     1
102
RTVSPropertyOp4
 70
     1
102
RTVSPropertyOp5
 70
     1
102
RTVSPropertyOp6
 70
     1
102
RTVSPropertyOp7
 70
     1
102
RTVSPropertyOp8
 70
     1
102
RTVSPropertyOp9
 70
     1
102
RTVSPropertyOp10
 70
     1
102
RTVSPropertyOp11
 70
     1
102
RTVSPropertyOp12
 70
     1
102
RTVSPropertyOp13
 70
     1
102
RTVSPropertyOp14
 70
     1
102
RTVSPropertyOp15
 70
     1
102
RTVSPropertyOp16
 70
     1
102
RTVSPropertyOp17
 70
     1
102
RTVSPropertyOp18
 70
     1
102
RTVSPropertyOp19
 70
     1
102
RTVSPropertyOp20
 70
     1
102
RTVSPropertyOp21
 70
     1
102
RTVSPropertyOp22
 70
     1
102
RTVSPropertyOp23
 70
     1
102
RTVSPropertyOp24
 70
     1
102
RTVSPropertyOp25
 70
     1
102
RTVSPropertyOp26
 70
     1
102
RTVSPropertyOp27
 70
     1
102
RTVSPropertyOp28
 70
     1
102
RTVSPropertyOp29
 70
     1
102
RTVSPropertyOp30
 70
     1
102
RTVSPropertyOp31
 70
     1
102
RTVSPropertyOp32
 70
     1
102
RTVSPropertyOp33
 70
     1
102
RTVSPropertyOp34
 70
     1
102
RTVSPropertyOp35
 70
     1
102
RTVSPropertyOp36
 70
     1
102
RTVSPropertyOp37
 70
     1
102
RTVSPropertyOp38
 70
     1
102
RTVSPropertyOp39
 70
     1
102
RTVSPropertyOp40
 70
     1
102
RTVSPropertyOp41
 70
     1
102
RTVSPropertyOp42
 70
     1
102
RTVSPropertyOp43
 70
     1
102
RTVSPropertyOp44
 70
     1
102
RTVSPropertyOp45
 70
     1
102
RTVSPropertyOp46
 70
     1
102
RTVSPropertyOp47
 70
     1
102
RTVSPropertyOp48
 70
     1
102
RTVSPropertyOp49
 70
     1
102
RTVSPropertyOp50
 70
     1
102
RTVSPropertyOp51
 70
     0
102
RTVSPropertyOp52
 70
     0
102
RTVSPropertyOp53
 70
     1
102
RTVSPropertyOp54
 70
     1
102
RTVSPropertyOp55
 70
     1
102
RTVSPropertyOp56
 70
     1
102
RTVSPropertyOp57
 70
     1
102
RTVSPropertyOp58
 70
     1
102
RTVSPropertyOp59
 70
     1
102
RTVSPropertyOp60
 70
     1
102
RTVSPropertyOp61
 70
     1
102
RTVSPropertyOp62
 70
     1
  0
XRECORD
  5
1AD5
102
{ACAD_REACTORS
330
1AD4
102
}
330
1AD4
100
AcDbXrecord
280
     1
102
RTVSPost2010Prop28
280
     0
102
RTVSPost2010PropOp28
 70
     0
102
RTVSPost2010Prop29
280
     1
102
RTVSPost2010PropOp29
 70
     0
102
RTVSPost2010Prop30
280
     1
102
RTVSPost2010PropOp30
 70
     0
102
RTVSPost2010Prop31
280
     0
102
RTVSPost2010PropOp31
 70
     0
102
RTVSPost2010Prop32
280
     0
102
RTVSPost2010PropOp32
 70
     0
102
RTVSPost2010Prop33
280
     0
102
RTVSPost2010PropOp33
 70
     0
102
RTVSPost2010Prop34
280
     0
102
RTVSPost2010PropOp34
 70
     0
102
RTVSPost2010Prop35
280
     0
102
RTVSPost2010PropOp35
 70
     0
102
RTVSPost2010Prop36
280
     0
102
RTVSPost2010PropOp36
 70
     0
102
RTVSPost2010Prop37
 90
       50
102
RTVSPost2010PropOp37
 70
     0
102
RTVSPost2010Prop38
140
0.0
102
RTVSPost2010PropOp38
 70
     0
102
RTVSPost2010Prop39
140
1.0
102
RTVSPost2010PropOp39
 70
     0
102
RTVSPost2010Prop40
 90
        0
102
RTVSPost2010PropOp40
 70
     0
102
RTVSPost2010Prop41ColorIndex
 90
       18
102
RTVSPost2010Prop41ColorRGB
 90
        0
102
RTVSPost2010PropOp41
 70
     0
102
RTVSPost2010Prop42
 90
       50
102
RTVSPost2010PropOp42
 70
     0
102
RTVSPost2010Prop43
 90
        3
102
RTVSPost2010PropOp43
 70
     0
102
RTVSPost2010Prop44ColorIndex
 90
        5
102
RTVSPost2010Prop44ColorRGB
 90
      255
102
RTVSPost2010PropOp44
 70
     0
102
RTVSPost2010Prop45
280
     0
102
RTVSPost2010PropOp45
 70
     0
102
RTVSPost2010Prop46
 90
       50
102
RTVSPost2010PropOp46
 70
     0
102
RTVSPost2010Prop47
 90
       50
102
RTVSPost2010PropOp47
 70
     0
102
RTVSPost2010Prop48
 90
       50
102
RTVSPost2010PropOp48
 70
     0
102
RTVSPost2010Prop49
280
     0
102
RTVSPost2010PropOp49
 70
     0
102
RTVSPost2010Prop50
 90
       50
102
RTVSPost2010PropOp50
 70
     0
102
RTVSPost2010Prop51ColorIndex
 90
      256
102
RTVSPost2010Prop51ColorRGB
 90
-16777216
102
RTVSPost2010PropOp51
 70
     0
102
RTVSPost2010Prop52
140
1.0
102
RTVSPost2010PropOp52
 70
     0
102
RTVSPost2010Prop53
 90
        2
102
RTVSPost2010PropOp53
 70
     0
102
RTVSPost2010Prop54
  1
strokes_ogs.tif
102
RTVSPost2010PropOp54
 70
     0
102
RTVSPost2010Prop55
280
     0
102
RTVSPost2010PropOp55
 70
     0
102
RTVSPost2010Prop56
140
1.0
102
RTVSPost2010PropOp56
 70
     0
102
RTVSPost2010Prop57
140
1.0
102
RTVSPost2010PropOp57
 70
     0
102
RTVSPropertyOp0
 70
     0
102
RTVSPropertyOp1
 70
     0
102
RTVSPropertyOp2
 70
     0
102
RTVSPropertyOp3
 70
     0
102
RTVSPropertyOp4
 70
     0
102
RTVSPropertyOp5
 70
     0
102
RTVSPropertyOp6
 70
     0
102
RTVSPropertyOp7
 70
     0
102
RTVSPropertyOp8
 70
     0
102
RTVSPropertyOp9
 70
     0
102
RTVSPropertyOp10
 70
     0
102
RTVSPropertyOp11
 70
     0
102
RTVSPropertyOp12
 70
     0
102
RTVSPropertyOp13
 70
     0
102
RTVSPropertyOp14
 70
     2
102
RTVSPropertyOp15
 70
     0
102
RTVSPropertyOp16
 70
     0
102
RTVSPropertyOp17
 70
     0
102
RTVSPropertyOp18
 70
     0
102
RTVSPropertyOp19
 70
     0
102
RTVSPropertyOp20
 70
     0
102
RTVSPropertyOp21
 70
     0
102
RTVSPropertyOp22
 70
     0
102
RTVSPropertyOp23
 70
     0
102
RTVSPropertyOp24
 70
     0
102
RTVSPropertyOp25
 70
     0
102
RTVSPropertyOp26
 70
     0
102
RTVSPropertyOp27
 70
     0
102
RTVSPropertyOp28
 70
     0
102
RTVSPropertyOp29
 70
     0
102
RTVSPropertyOp30
 70
     0
102
RTVSPropertyOp31
 70
     0
102
RTVSPropertyOp32
 70
     0
102
RTVSPropertyOp33
 70
     0
102
RTVSPropertyOp34
 70
     0
102
RTVSPropertyOp35
 70
     0
102
RTVSPropertyOp36
 70
     0
102
RTVSPropertyOp37
 70
     0
102
RTVSPropertyOp38
 70
     0
102
RTVSPropertyOp39
 70
     0
102
RTVSPropertyOp40
 70
     0
102
RTVSPropertyOp41
 70
     0
102
RTVSPropertyOp42
 70
     0
102
RTVSPropertyOp43
 70
     0
102
RTVSPropertyOp44
 70
     0
102
RTVSPropertyOp45
 70
     0
102
RTVSPropertyOp46
 70
     0
102
RTVSPropertyOp47
 70
     0
102
RTVSPropertyOp48
 70
     0
102
RTVSPropertyOp49
 70
     0
102
RTVSPropertyOp50
 70
     0
102
RTVSPropertyOp51
 70
     0
102
RTVSPropertyOp52
 70
     0
102
RTVSPropertyOp53
 70
     0
102
RTVSPropertyOp54
 70
     0
102
RTVSPropertyOp55
 70
     0
102
RTVSPropertyOp56
 70
     0
102
RTVSPropertyOp57
 70
     0
102
RTVSPropertyOp58
 70
     1
102
RTVSPropertyOp59
 70
     1
102
RTVSPropertyOp60
 70
     1
102
RTVSPropertyOp61
 70
     1
102
RTVSPropertyOp62
 70
     1
  0
XRECORD
  5
1ABB
102
{ACAD_REACTORS
330
1ABA
102
}
330
1ABA
100
AcDbXrecord
280
     1
102
RTVSPost2010Prop28
280
     0
102
RTVSPost2010PropOp28
 70
     1
102
RTVSPost2010Prop29
280
     1
102
RTVSPost2010PropOp29
 70
     1
102
RTVSPost2010Prop30
280
     1
102
RTVSPost2010PropOp30
 70
     1
102
RTVSPost2010Prop31
280
     0
102
RTVSPost2010PropOp31
 70
     1
102
RTVSPost2010Prop32
280
     0
102
RTVSPost2010PropOp32
 70
     1
102
RTVSPost2010Prop33
280
     0
102
RTVSPost2010PropOp33
 70
     1
102
RTVSPost2010Prop34
280
     0
102
RTVSPost2010PropOp34
 70
     1
102
RTVSPost2010Prop35
280
     0
102
RTVSPost2010PropOp35
 70
     1
102
RTVSPost2010Prop36
280
     0
102
RTVSPost2010PropOp36
 70
     1
102
RTVSPost2010Prop37
 90
       50
102
RTVSPost2010PropOp37
 70
     1
102
RTVSPost2010Prop38
140
0.0
102
RTVSPost2010PropOp38
 70
     1
102
RTVSPost2010Prop39
140
1.0
102
RTVSPost2010PropOp39
 70
     1
102
RTVSPost2010Prop40
 90
        0
102
RTVSPost2010PropOp40
 70
     1
102
RTVSPost2010Prop41ColorIndex
 90
       18
102
RTVSPost2010Prop41ColorRGB
 90
        0
102
RTVSPost2010PropOp41
 70
     1
102
RTVSPost2010Prop42
 90
       50
102
RTVSPost2010PropOp42
 70
     1
102
RTVSPost2010Prop43
 90
        3
102
RTVSPost2010PropOp43
 70
     1
102
RTVSPost2010Prop44ColorIndex
 90
        5
102
RTVSPost2010Prop44ColorRGB
 90
      255
102
RTVSPost2010PropOp44
 70
     1
102
RTVSPost2010Prop45
280
     0
102
RTVSPost2010PropOp45
 70
     1
102
RTVSPost2010Prop46
 90
       50
102
RTVSPost2010PropOp46
 70
     1
102
RTVSPost2010Prop47
 90
       50
102
RTVSPost2010PropOp47
 70
     1
102
RTVSPost2010Prop48
 90
       50
102
RTVSPost2010PropOp48
 70
     1
102
RTVSPost2010Prop49
280
     0
102
RTVSPost2010PropOp49
 70
     1
102
RTVSPost2010Prop50
 90
       50
102
RTVSPost2010PropOp50
 70
     1
102
RTVSPost2010Prop51ColorIndex
 90
      256
102
RTVSPost2010Prop51ColorRGB
 90
-16777216
102
RTVSPost2010PropOp51
 70
     0
102
RTVSPost2010Prop52
140
1.0
102
RTVSPost2010PropOp52
 70
     0
102
RTVSPost2010Prop53
 90
        2
102
RTVSPost2010PropOp53
 70
     1
102
RTVSPost2010Prop54
  1
strokes_ogs.tif
102
RTVSPost2010PropOp54
 70
     1
102
RTVSPost2010Prop55
280
     0
102
RTVSPost2010PropOp55
 70
     1
102
RTVSPost2010Prop56
140
1.0
102
RTVSPost2010PropOp56
 70
     1
102
RTVSPost2010Prop57
140
1.0
102
RTVSPost2010PropOp57
 70
     1
102
RTVSPropertyOp0
 70
     1
102
RTVSPropertyOp1
 70
     1
102
RTVSPropertyOp2
 70
     1
102
RTVSPropertyOp3
 70
     1
102
RTVSPropertyOp4
 70
     1
102
RTVSPropertyOp5
 70
     1
102
RTVSPropertyOp6
 70
     1
102
RTVSPropertyOp7
 70
     1
102
RTVSPropertyOp8
 70
     1
102
RTVSPropertyOp9
 70
     1
102
RTVSPropertyOp10
 70
     1
102
RTVSPropertyOp11
 70
     1
102
RTVSPropertyOp12
 70
     1
102
RTVSPropertyOp13
 70
     1
102
RTVSPropertyOp14
 70
     1
102
RTVSPropertyOp15
 70
     1
102
RTVSPropertyOp16
 70
     1
102
RTVSPropertyOp17
 70
     1
102
RTVSPropertyOp18
 70
     1
102
RTVSPropertyOp19
 70
     1
102
RTVSPropertyOp20
 70
     1
102
RTVSPropertyOp21
 70
     1
102
RTVSPropertyOp22
 70
     1
102
RTVSPropertyOp23
 70
     1
102
RTVSPropertyOp24
 70
     1
102
RTVSPropertyOp25
 70
     1
102
RTVSPropertyOp26
 70
     1
102
RTVSPropertyOp27
 70
     1
102
RTVSPropertyOp28
 70
     1
102
RTVSPropertyOp29
 70
     1
102
RTVSPropertyOp30
 70
     1
102
RTVSPropertyOp31
 70
     1
102
RTVSPropertyOp32
 70
     1
102
RTVSPropertyOp33
 70
     1
102
RTVSPropertyOp34
 70
     1
102
RTVSPropertyOp35
 70
     1
102
RTVSPropertyOp36
 70
     1
102
RTVSPropertyOp37
 70
     1
102
RTVSPropertyOp38
 70
     1
102
RTVSPropertyOp39
 70
     1
102
RTVSPropertyOp40
 70
     1
102
RTVSPropertyOp41
 70
     1
102
RTVSPropertyOp42
 70
     1
102
RTVSPropertyOp43
 70
     1
102
RTVSPropertyOp44
 70
     1
102
RTVSPropertyOp45
 70
     1
102
RTVSPropertyOp46
 70
     1
102
RTVSPropertyOp47
 70
     1
102
RTVSPropertyOp48
 70
     1
102
RTVSPropertyOp49
 70
     1
102
RTVSPropertyOp50
 70
     1
102
RTVSPropertyOp51
 70
     0
102
RTVSPropertyOp52
 70
     0
102
RTVSPropertyOp53
 70
     1
102
RTVSPropertyOp54
 70
     1
102
RTVSPropertyOp55
 70
     1
102
RTVSPropertyOp56
 70
     1
102
RTVSPropertyOp57
 70
     1
102
RTVSPropertyOp58
 70
     1
102
RTVSPropertyOp59
 70
     1
102
RTVSPropertyOp60
 70
     1
102
RTVSPropertyOp61
 70
     1
102
RTVSPropertyOp62
 70
     1
  0
XRECORD
  5
1AD1
102
{ACAD_REACTORS
330
1AD0
102
}
330
1AD0
100
AcDbXrecord
280
     1
102
RTVSPost2010Prop28
280
     0
102
RTVSPost2010PropOp28
 70
     1
102
RTVSPost2010Prop29
280
     1
102
RTVSPost2010PropOp29
 70
     1
102
RTVSPost2010Prop30
280
     1
102
RTVSPost2010PropOp30
 70
     1
102
RTVSPost2010Prop31
280
     0
102
RTVSPost2010PropOp31
 70
     1
102
RTVSPost2010Prop32
280
     0
102
RTVSPost2010PropOp32
 70
     1
102
RTVSPost2010Prop33
280
     0
102
RTVSPost2010PropOp33
 70
     1
102
RTVSPost2010Prop34
280
     0
102
RTVSPost2010PropOp34
 70
     1
102
RTVSPost2010Prop35
280
     0
102
RTVSPost2010PropOp35
 70
     1
102
RTVSPost2010Prop36
280
     0
102
RTVSPost2010PropOp36
 70
     1
102
RTVSPost2010Prop37
 90
       50
102
RTVSPost2010PropOp37
 70
     1
102
RTVSPost2010Prop38
140
0.0
102
RTVSPost2010PropOp38
 70
     1
102
RTVSPost2010Prop39
140
1.0
102
RTVSPost2010PropOp39
 70
     1
102
RTVSPost2010Prop40
 90
        0
102
RTVSPost2010PropOp40
 70
     1
102
RTVSPost2010Prop41ColorIndex
 90
       18
102
RTVSPost2010Prop41ColorRGB
 90
        0
102
RTVSPost2010PropOp41
 70
     1
102
RTVSPost2010Prop42
 90
       50
102
RTVSPost2010PropOp42
 70
     1
102
RTVSPost2010Prop43
 90
        3
102
RTVSPost2010PropOp43
 70
     1
102
RTVSPost2010Prop44ColorIndex
 90
        5
102
RTVSPost2010Prop44ColorRGB
 90
      255
102
RTVSPost2010PropOp44
 70
     1
102
RTVSPost2010Prop45
280
     0
102
RTVSPost2010PropOp45
 70
     1
102
RTVSPost2010Prop46
 90
       50
102
RTVSPost2010PropOp46
 70
     1
102
RTVSPost2010Prop47
 90
       50
102
RTVSPost2010PropOp47
 70
     1
102
RTVSPost2010Prop48
 90
       50
102
RTVSPost2010PropOp48
 70
     1
102
RTVSPost2010Prop49
280
     0
102
RTVSPost2010PropOp49
 70
     1
102
RTVSPost2010Prop50
 90
       50
102
RTVSPost2010PropOp50
 70
     1
102
RTVSPost2010Prop51ColorIndex
 90
      256
102
RTVSPost2010Prop51ColorRGB
 90
-16777216
102
RTVSPost2010PropOp51
 70
     0
102
RTVSPost2010Prop52
140
1.0
102
RTVSPost2010PropOp52
 70
     0
102
RTVSPost2010Prop53
 90
        2
102
RTVSPost2010PropOp53
 70
     1
102
RTVSPost2010Prop54
  1
strokes_ogs.tif
102
RTVSPost2010PropOp54
 70
     1
102
RTVSPost2010Prop55
280
     0
102
RTVSPost2010PropOp55
 70
     1
102
RTVSPost2010Prop56
140
1.0
102
RTVSPost2010PropOp56
 70
     1
102
RTVSPost2010Prop57
140
1.0
102
RTVSPost2010PropOp57
 70
     1
102
RTVSPropertyOp0
 70
     1
102
RTVSPropertyOp1
 70
     1
102
RTVSPropertyOp2
 70
     1
102
RTVSPropertyOp3
 70
     1
102
RTVSPropertyOp4
 70
     1
102
RTVSPropertyOp5
 70
     1
102
RTVSPropertyOp6
 70
     1
102
RTVSPropertyOp7
 70
     1
102
RTVSPropertyOp8
 70
     1
102
RTVSPropertyOp9
 70
     1
102
RTVSPropertyOp10
 70
     1
102
RTVSPropertyOp11
 70
     1
102
RTVSPropertyOp12
 70
     1
102
RTVSPropertyOp13
 70
     1
102
RTVSPropertyOp14
 70
     1
102
RTVSPropertyOp15
 70
     1
102
RTVSPropertyOp16
 70
     1
102
RTVSPropertyOp17
 70
     1
102
RTVSPropertyOp18
 70
     1
102
RTVSPropertyOp19
 70
     1
102
RTVSPropertyOp20
 70
     1
102
RTVSPropertyOp21
 70
     1
102
RTVSPropertyOp22
 70
     1
102
RTVSPropertyOp23
 70
     1
102
RTVSPropertyOp24
 70
     1
102
RTVSPropertyOp25
 70
     1
102
RTVSPropertyOp26
 70
     1
102
RTVSPropertyOp27
 70
     1
102
RTVSPropertyOp28
 70
     1
102
RTVSPropertyOp29
 70
     1
102
RTVSPropertyOp30
 70
     1
102
RTVSPropertyOp31
 70
     1
102
RTVSPropertyOp32
 70
     1
102
RTVSPropertyOp33
 70
     1
102
RTVSPropertyOp34
 70
     1
102
RTVSPropertyOp35
 70
     1
102
RTVSPropertyOp36
 70
     1
102
RTVSPropertyOp37
 70
     1
102
RTVSPropertyOp38
 70
     1
102
RTVSPropertyOp39
 70
     1
102
RTVSPropertyOp40
 70
     1
102
RTVSPropertyOp41
 70
     1
102
RTVSPropertyOp42
 70
     1
102
RTVSPropertyOp43
 70
     1
102
RTVSPropertyOp44
 70
     1
102
RTVSPropertyOp45
 70
     1
102
RTVSPropertyOp46
 70
     1
102
RTVSPropertyOp47
 70
     1
102
RTVSPropertyOp48
 70
     1
102
RTVSPropertyOp49
 70
     1
102
RTVSPropertyOp50
 70
     1
102
RTVSPropertyOp51
 70
     0
102
RTVSPropertyOp52
 70
     0
102
RTVSPropertyOp53
 70
     1
102
RTVSPropertyOp54
 70
     1
102
RTVSPropertyOp55
 70
     1
102
RTVSPropertyOp56
 70
     1
102
RTVSPropertyOp57
 70
     1
102
RTVSPropertyOp58
 70
     1
102
RTVSPropertyOp59
 70
     1
102
RTVSPropertyOp60
 70
     1
102
RTVSPropertyOp61
 70
     1
102
RTVSPropertyOp62
 70
     1
  0
XRECORD
  5
1ACF
102
{ACAD_REACTORS
330
1ACE
102
}
330
1ACE
100
AcDbXrecord
280
     1
102
RTVSPost2010Prop28
280
     0
102
RTVSPost2010PropOp28
 70
     1
102
RTVSPost2010Prop29
280
     1
102
RTVSPost2010PropOp29
 70
     1
102
RTVSPost2010Prop30
280
     1
102
RTVSPost2010PropOp30
 70
     1
102
RTVSPost2010Prop31
280
     0
102
RTVSPost2010PropOp31
 70
     1
102
RTVSPost2010Prop32
280
     0
102
RTVSPost2010PropOp32
 70
     1
102
RTVSPost2010Prop33
280
     0
102
RTVSPost2010PropOp33
 70
     1
102
RTVSPost2010Prop34
280
     0
102
RTVSPost2010PropOp34
 70
     1
102
RTVSPost2010Prop35
280
     0
102
RTVSPost2010PropOp35
 70
     1
102
RTVSPost2010Prop36
280
     0
102
RTVSPost2010PropOp36
 70
     1
102
RTVSPost2010Prop37
 90
       50
102
RTVSPost2010PropOp37
 70
     1
102
RTVSPost2010Prop38
140
0.0
102
RTVSPost2010PropOp38
 70
     1
102
RTVSPost2010Prop39
140
1.0
102
RTVSPost2010PropOp39
 70
     1
102
RTVSPost2010Prop40
 90
        0
102
RTVSPost2010PropOp40
 70
     1
102
RTVSPost2010Prop41ColorIndex
 90
       18
102
RTVSPost2010Prop41ColorRGB
 90
        0
102
RTVSPost2010PropOp41
 70
     1
102
RTVSPost2010Prop42
 90
       50
102
RTVSPost2010PropOp42
 70
     1
102
RTVSPost2010Prop43
 90
        3
102
RTVSPost2010PropOp43
 70
     1
102
RTVSPost2010Prop44ColorIndex
 90
        5
102
RTVSPost2010Prop44ColorRGB
 90
      255
102
RTVSPost2010PropOp44
 70
     1
102
RTVSPost2010Prop45
280
     0
102
RTVSPost2010PropOp45
 70
     1
102
RTVSPost2010Prop46
 90
       50
102
RTVSPost2010PropOp46
 70
     1
102
RTVSPost2010Prop47
 90
       50
102
RTVSPost2010PropOp47
 70
     1
102
RTVSPost2010Prop48
 90
       50
102
RTVSPost2010PropOp48
 70
     1
102
RTVSPost2010Prop49
280
     0
102
RTVSPost2010PropOp49
 70
     1
102
RTVSPost2010Prop50
 90
       50
102
RTVSPost2010PropOp50
 70
     1
102
RTVSPost2010Prop51ColorIndex
 90
      256
102
RTVSPost2010Prop51ColorRGB
 90
-16777216
102
RTVSPost2010PropOp51
 70
     0
102
RTVSPost2010Prop52
140
1.0
102
RTVSPost2010PropOp52
 70
     0
102
RTVSPost2010Prop53
 90
        2
102
RTVSPost2010PropOp53
 70
     1
102
RTVSPost2010Prop54
  1
strokes_ogs.tif
102
RTVSPost2010PropOp54
 70
     1
102
RTVSPost2010Prop55
280
     0
102
RTVSPost2010PropOp55
 70
     1
102
RTVSPost2010Prop56
140
1.0
102
RTVSPost2010PropOp56
 70
     1
102
RTVSPost2010Prop57
140
1.0
102
RTVSPost2010PropOp57
 70
     1
102
RTVSPropertyOp0
 70
     1
102
RTVSPropertyOp1
 70
     1
102
RTVSPropertyOp2
 70
     1
102
RTVSPropertyOp3
 70
     1
102
RTVSPropertyOp4
 70
     1
102
RTVSPropertyOp5
 70
     1
102
RTVSPropertyOp6
 70
     1
102
RTVSPropertyOp7
 70
     1
102
RTVSPropertyOp8
 70
     1
102
RTVSPropertyOp9
 70
     1
102
RTVSPropertyOp10
 70
     1
102
RTVSPropertyOp11
 70
     1
102
RTVSPropertyOp12
 70
     1
102
RTVSPropertyOp13
 70
     1
102
RTVSPropertyOp14
 70
     1
102
RTVSPropertyOp15
 70
     1
102
RTVSPropertyOp16
 70
     1
102
RTVSPropertyOp17
 70
     1
102
RTVSPropertyOp18
 70
     1
102
RTVSPropertyOp19
 70
     1
102
RTVSPropertyOp20
 70
     1
102
RTVSPropertyOp21
 70
     1
102
RTVSPropertyOp22
 70
     1
102
RTVSPropertyOp23
 70
     1
102
RTVSPropertyOp24
 70
     1
102
RTVSPropertyOp25
 70
     1
102
RTVSPropertyOp26
 70
     1
102
RTVSPropertyOp27
 70
     1
102
RTVSPropertyOp28
 70
     1
102
RTVSPropertyOp29
 70
     1
102
RTVSPropertyOp30
 70
     1
102
RTVSPropertyOp31
 70
     1
102
RTVSPropertyOp32
 70
     1
102
RTVSPropertyOp33
 70
     1
102
RTVSPropertyOp34
 70
     1
102
RTVSPropertyOp35
 70
     1
102
RTVSPropertyOp36
 70
     1
102
RTVSPropertyOp37
 70
     1
102
RTVSPropertyOp38
 70
     1
102
RTVSPropertyOp39
 70
     1
102
RTVSPropertyOp40
 70
     1
102
RTVSPropertyOp41
 70
     1
102
RTVSPropertyOp42
 70
     1
102
RTVSPropertyOp43
 70
     1
102
RTVSPropertyOp44
 70
     1
102
RTVSPropertyOp45
 70
     1
102
RTVSPropertyOp46
 70
     1
102
RTVSPropertyOp47
 70
     1
102
RTVSPropertyOp48
 70
     1
102
RTVSPropertyOp49
 70
     1
102
RTVSPropertyOp50
 70
     1
102
RTVSPropertyOp51
 70
     0
102
RTVSPropertyOp52
 70
     0
102
RTVSPropertyOp53
 70
     1
102
RTVSPropertyOp54
 70
     1
102
RTVSPropertyOp55
 70
     1
102
RTVSPropertyOp56
 70
     1
102
RTVSPropertyOp57
 70
     1
102
RTVSPropertyOp58
 70
     1
102
RTVSPropertyOp59
 70
     1
102
RTVSPropertyOp60
 70
     1
102
RTVSPropertyOp61
 70
     1
102
RTVSPropertyOp62
 70
     1
  0
XRECORD
  5
1AC9
102
{ACAD_REACTORS
330
1AC8
102
}
330
1AC8
100
AcDbXrecord
280
     1
102
RTVSPost2010Prop28
280
     0
102
RTVSPost2010PropOp28
 70
     1
102
RTVSPost2010Prop29
280
     1
102
RTVSPost2010PropOp29
 70
     1
102
RTVSPost2010Prop30
280
     1
102
RTVSPost2010PropOp30
 70
     1
102
RTVSPost2010Prop31
280
     0
102
RTVSPost2010PropOp31
 70
     1
102
RTVSPost2010Prop32
280
     0
102
RTVSPost2010PropOp32
 70
     1
102
RTVSPost2010Prop33
280
     0
102
RTVSPost2010PropOp33
 70
     1
102
RTVSPost2010Prop34
280
     0
102
RTVSPost2010PropOp34
 70
     1
102
RTVSPost2010Prop35
280
     0
102
RTVSPost2010PropOp35
 70
     1
102
RTVSPost2010Prop36
280
     0
102
RTVSPost2010PropOp36
 70
     1
102
RTVSPost2010Prop37
 90
       50
102
RTVSPost2010PropOp37
 70
     1
102
RTVSPost2010Prop38
140
0.0
102
RTVSPost2010PropOp38
 70
     1
102
RTVSPost2010Prop39
140
1.0
102
RTVSPost2010PropOp39
 70
     1
102
RTVSPost2010Prop40
 90
        0
102
RTVSPost2010PropOp40
 70
     1
102
RTVSPost2010Prop41ColorIndex
 90
       18
102
RTVSPost2010Prop41ColorRGB
 90
        0
102
RTVSPost2010PropOp41
 70
     1
102
RTVSPost2010Prop42
 90
       50
102
RTVSPost2010PropOp42
 70
     1
102
RTVSPost2010Prop43
 90
        3
102
RTVSPost2010PropOp43
 70
     1
102
RTVSPost2010Prop44ColorIndex
 90
        5
102
RTVSPost2010Prop44ColorRGB
 90
      255
102
RTVSPost2010PropOp44
 70
     1
102
RTVSPost2010Prop45
280
     0
102
RTVSPost2010PropOp45
 70
     1
102
RTVSPost2010Prop46
 90
       50
102
RTVSPost2010PropOp46
 70
     1
102
RTVSPost2010Prop47
 90
       50
102
RTVSPost2010PropOp47
 70
     1
102
RTVSPost2010Prop48
 90
       50
102
RTVSPost2010PropOp48
 70
     1
102
RTVSPost2010Prop49
280
     0
102
RTVSPost2010PropOp49
 70
     1
102
RTVSPost2010Prop50
 90
       50
102
RTVSPost2010PropOp50
 70
     1
102
RTVSPost2010Prop51ColorIndex
 90
      256
102
RTVSPost2010Prop51ColorRGB
 90
-16777216
102
RTVSPost2010PropOp51
 70
     0
102
RTVSPost2010Prop52
140
1.0
102
RTVSPost2010PropOp52
 70
     0
102
RTVSPost2010Prop53
 90
        2
102
RTVSPost2010PropOp53
 70
     1
102
RTVSPost2010Prop54
  1
strokes_ogs.tif
102
RTVSPost2010PropOp54
 70
     1
102
RTVSPost2010Prop55
280
     0
102
RTVSPost2010PropOp55
 70
     1
102
RTVSPost2010Prop56
140
1.0
102
RTVSPost2010PropOp56
 70
     1
102
RTVSPost2010Prop57
140
1.0
102
RTVSPost2010PropOp57
 70
     1
102
RTVSPropertyOp0
 70
     1
102
RTVSPropertyOp1
 70
     1
102
RTVSPropertyOp2
 70
     1
102
RTVSPropertyOp3
 70
     1
102
RTVSPropertyOp4
 70
     1
102
RTVSPropertyOp5
 70
     1
102
RTVSPropertyOp6
 70
     1
102
RTVSPropertyOp7
 70
     1
102
RTVSPropertyOp8
 70
     1
102
RTVSPropertyOp9
 70
     1
102
RTVSPropertyOp10
 70
     1
102
RTVSPropertyOp11
 70
     1
102
RTVSPropertyOp12
 70
     1
102
RTVSPropertyOp13
 70
     1
102
RTVSPropertyOp14
 70
     1
102
RTVSPropertyOp15
 70
     1
102
RTVSPropertyOp16
 70
     1
102
RTVSPropertyOp17
 70
     1
102
RTVSPropertyOp18
 70
     1
102
RTVSPropertyOp19
 70
     1
102
RTVSPropertyOp20
 70
     1
102
RTVSPropertyOp21
 70
     1
102
RTVSPropertyOp22
 70
     1
102
RTVSPropertyOp23
 70
     1
102
RTVSPropertyOp24
 70
     1
102
RTVSPropertyOp25
 70
     1
102
RTVSPropertyOp26
 70
     1
102
RTVSPropertyOp27
 70
     1
102
RTVSPropertyOp28
 70
     1
102
RTVSPropertyOp29
 70
     1
102
RTVSPropertyOp30
 70
     1
102
RTVSPropertyOp31
 70
     1
102
RTVSPropertyOp32
 70
     1
102
RTVSPropertyOp33
 70
     1
102
RTVSPropertyOp34
 70
     1
102
RTVSPropertyOp35
 70
     1
102
RTVSPropertyOp36
 70
     1
102
RTVSPropertyOp37
 70
     1
102
RTVSPropertyOp38
 70
     1
102
RTVSPropertyOp39
 70
     1
102
RTVSPropertyOp40
 70
     1
102
RTVSPropertyOp41
 70
     1
102
RTVSPropertyOp42
 70
     1
102
RTVSPropertyOp43
 70
     1
102
RTVSPropertyOp44
 70
     1
102
RTVSPropertyOp45
 70
     1
102
RTVSPropertyOp46
 70
     1
102
RTVSPropertyOp47
 70
     1
102
RTVSPropertyOp48
 70
     1
102
RTVSPropertyOp49
 70
     1
102
RTVSPropertyOp50
 70
     1
102
RTVSPropertyOp51
 70
     0
102
RTVSPropertyOp52
 70
     0
102
RTVSPropertyOp53
 70
     1
102
RTVSPropertyOp54
 70
     1
102
RTVSPropertyOp55
 70
     1
102
RTVSPropertyOp56
 70
     1
102
RTVSPropertyOp57
 70
     1
102
RTVSPropertyOp58
 70
     1
102
RTVSPropertyOp59
 70
     1
102
RTVSPropertyOp60
 70
     1
102
RTVSPropertyOp61
 70
     1
102
RTVSPropertyOp62
 70
     1
  0
XRECORD
  5
1ACB
102
{ACAD_REACTORS
330
1ACA
102
}
330
1ACA
100
AcDbXrecord
280
     1
102
RTVSPost2010Prop28
280
     0
102
RTVSPost2010PropOp28
 70
     1
102
RTVSPost2010Prop29
280
     1
102
RTVSPost2010PropOp29
 70
     1
102
RTVSPost2010Prop30
280
     1
102
RTVSPost2010PropOp30
 70
     1
102
RTVSPost2010Prop31
280
     0
102
RTVSPost2010PropOp31
 70
     1
102
RTVSPost2010Prop32
280
     0
102
RTVSPost2010PropOp32
 70
     1
102
RTVSPost2010Prop33
280
     0
102
RTVSPost2010PropOp33
 70
     1
102
RTVSPost2010Prop34
280
     0
102
RTVSPost2010PropOp34
 70
     1
102
RTVSPost2010Prop35
280
     0
102
RTVSPost2010PropOp35
 70
     1
102
RTVSPost2010Prop36
280
     0
102
RTVSPost2010PropOp36
 70
     1
102
RTVSPost2010Prop37
 90
       50
102
RTVSPost2010PropOp37
 70
     1
102
RTVSPost2010Prop38
140
0.0
102
RTVSPost2010PropOp38
 70
     1
102
RTVSPost2010Prop39
140
1.0
102
RTVSPost2010PropOp39
 70
     1
102
RTVSPost2010Prop40
 90
        0
102
RTVSPost2010PropOp40
 70
     1
102
RTVSPost2010Prop41ColorIndex
 90
       18
102
RTVSPost2010Prop41ColorRGB
 90
        0
102
RTVSPost2010PropOp41
 70
     1
102
RTVSPost2010Prop42
 90
       50
102
RTVSPost2010PropOp42
 70
     1
102
RTVSPost2010Prop43
 90
        3
102
RTVSPost2010PropOp43
 70
     1
102
RTVSPost2010Prop44ColorIndex
 90
        5
102
RTVSPost2010Prop44ColorRGB
 90
      255
102
RTVSPost2010PropOp44
 70
     1
102
RTVSPost2010Prop45
280
     0
102
RTVSPost2010PropOp45
 70
     1
102
RTVSPost2010Prop46
 90
       50
102
RTVSPost2010PropOp46
 70
     1
102
RTVSPost2010Prop47
 90
       50
102
RTVSPost2010PropOp47
 70
     1
102
RTVSPost2010Prop48
 90
       50
102
RTVSPost2010PropOp48
 70
     1
102
RTVSPost2010Prop49
280
     0
102
RTVSPost2010PropOp49
 70
     1
102
RTVSPost2010Prop50
 90
       50
102
RTVSPost2010PropOp50
 70
     1
102
RTVSPost2010Prop51ColorIndex
 90
      256
102
RTVSPost2010Prop51ColorRGB
 90
-16777216
102
RTVSPost2010PropOp51
 70
     0
102
RTVSPost2010Prop52
140
1.0
102
RTVSPost2010PropOp52
 70
     0
102
RTVSPost2010Prop53
 90
        2
102
RTVSPost2010PropOp53
 70
     1
102
RTVSPost2010Prop54
  1
strokes_ogs.tif
102
RTVSPost2010PropOp54
 70
     1
102
RTVSPost2010Prop55
280
     0
102
RTVSPost2010PropOp55
 70
     1
102
RTVSPost2010Prop56
140
1.0
102
RTVSPost2010PropOp56
 70
     1
102
RTVSPost2010Prop57
140
1.0
102
RTVSPost2010PropOp57
 70
     1
102
RTVSPropertyOp0
 70
     1
102
RTVSPropertyOp1
 70
     1
102
RTVSPropertyOp2
 70
     1
102
RTVSPropertyOp3
 70
     1
102
RTVSPropertyOp4
 70
     1
102
RTVSPropertyOp5
 70
     1
102
RTVSPropertyOp6
 70
     1
102
RTVSPropertyOp7
 70
     1
102
RTVSPropertyOp8
 70
     1
102
RTVSPropertyOp9
 70
     1
102
RTVSPropertyOp10
 70
     1
102
RTVSPropertyOp11
 70
     1
102
RTVSPropertyOp12
 70
     1
102
RTVSPropertyOp13
 70
     1
102
RTVSPropertyOp14
 70
     1
102
RTVSPropertyOp15
 70
     1
102
RTVSPropertyOp16
 70
     1
102
RTVSPropertyOp17
 70
     1
102
RTVSPropertyOp18
 70
     1
102
RTVSPropertyOp19
 70
     1
102
RTVSPropertyOp20
 70
     1
102
RTVSPropertyOp21
 70
     1
102
RTVSPropertyOp22
 70
     1
102
RTVSPropertyOp23
 70
     1
102
RTVSPropertyOp24
 70
     1
102
RTVSPropertyOp25
 70
     1
102
RTVSPropertyOp26
 70
     1
102
RTVSPropertyOp27
 70
     1
102
RTVSPropertyOp28
 70
     1
102
RTVSPropertyOp29
 70
     1
102
RTVSPropertyOp30
 70
     1
102
RTVSPropertyOp31
 70
     1
102
RTVSPropertyOp32
 70
     1
102
RTVSPropertyOp33
 70
     1
102
RTVSPropertyOp34
 70
     1
102
RTVSPropertyOp35
 70
     1
102
RTVSPropertyOp36
 70
     1
102
RTVSPropertyOp37
 70
     1
102
RTVSPropertyOp38
 70
     1
102
RTVSPropertyOp39
 70
     1
102
RTVSPropertyOp40
 70
     1
102
RTVSPropertyOp41
 70
     1
102
RTVSPropertyOp42
 70
     1
102
RTVSPropertyOp43
 70
     1
102
RTVSPropertyOp44
 70
     1
102
RTVSPropertyOp45
 70
     1
102
RTVSPropertyOp46
 70
     1
102
RTVSPropertyOp47
 70
     1
102
RTVSPropertyOp48
 70
     1
102
RTVSPropertyOp49
 70
     1
102
RTVSPropertyOp50
 70
     1
102
RTVSPropertyOp51
 70
     0
102
RTVSPropertyOp52
 70
     0
102
RTVSPropertyOp53
 70
     1
102
RTVSPropertyOp54
 70
     1
102
RTVSPropertyOp55
 70
     1
102
RTVSPropertyOp56
 70
     1
102
RTVSPropertyOp57
 70
     1
102
RTVSPropertyOp58
 70
     1
102
RTVSPropertyOp59
 70
     1
102
RTVSPropertyOp60
 70
     1
102
RTVSPropertyOp61
 70
     1
102
RTVSPropertyOp62
 70
     1
  0
XRECORD
  5
1AC1
102
{ACAD_REACTORS
330
1AC0
102
}
330
1AC0
100
AcDbXrecord
280
     1
102
RTVSPost2010Prop28
280
     0
102
RTVSPost2010PropOp28
 70
     1
102
RTVSPost2010Prop29
280
     1
102
RTVSPost2010PropOp29
 70
     1
102
RTVSPost2010Prop30
280
     1
102
RTVSPost2010PropOp30
 70
     1
102
RTVSPost2010Prop31
280
     0
102
RTVSPost2010PropOp31
 70
     1
102
RTVSPost2010Prop32
280
     0
102
RTVSPost2010PropOp32
 70
     1
102
RTVSPost2010Prop33
280
     0
102
RTVSPost2010PropOp33
 70
     1
102
RTVSPost2010Prop34
280
     0
102
RTVSPost2010PropOp34
 70
     1
102
RTVSPost2010Prop35
280
     0
102
RTVSPost2010PropOp35
 70
     1
102
RTVSPost2010Prop36
280
     0
102
RTVSPost2010PropOp36
 70
     1
102
RTVSPost2010Prop37
 90
       50
102
RTVSPost2010PropOp37
 70
     1
102
RTVSPost2010Prop38
140
0.0
102
RTVSPost2010PropOp38
 70
     1
102
RTVSPost2010Prop39
140
1.0
102
RTVSPost2010PropOp39
 70
     1
102
RTVSPost2010Prop40
 90
        0
102
RTVSPost2010PropOp40
 70
     1
102
RTVSPost2010Prop41ColorIndex
 90
       18
102
RTVSPost2010Prop41ColorRGB
 90
        0
102
RTVSPost2010PropOp41
 70
     1
102
RTVSPost2010Prop42
 90
       50
102
RTVSPost2010PropOp42
 70
     1
102
RTVSPost2010Prop43
 90
        3
102
RTVSPost2010PropOp43
 70
     1
102
RTVSPost2010Prop44ColorIndex
 90
        5
102
RTVSPost2010Prop44ColorRGB
 90
      255
102
RTVSPost2010PropOp44
 70
     1
102
RTVSPost2010Prop45
280
     0
102
RTVSPost2010PropOp45
 70
     1
102
RTVSPost2010Prop46
 90
       50
102
RTVSPost2010PropOp46
 70
     1
102
RTVSPost2010Prop47
 90
       50
102
RTVSPost2010PropOp47
 70
     1
102
RTVSPost2010Prop48
 90
       50
102
RTVSPost2010PropOp48
 70
     1
102
RTVSPost2010Prop49
280
     0
102
RTVSPost2010PropOp49
 70
     1
102
RTVSPost2010Prop50
 90
       50
102
RTVSPost2010PropOp50
 70
     1
102
RTVSPost2010Prop51ColorIndex
 90
      256
102
RTVSPost2010Prop51ColorRGB
 90
-16777216
102
RTVSPost2010PropOp51
 70
     0
102
RTVSPost2010Prop52
140
1.0
102
RTVSPost2010PropOp52
 70
     0
102
RTVSPost2010Prop53
 90
        2
102
RTVSPost2010PropOp53
 70
     1
102
RTVSPost2010Prop54
  1
strokes_ogs.tif
102
RTVSPost2010PropOp54
 70
     1
102
RTVSPost2010Prop55
280
     0
102
RTVSPost2010PropOp55
 70
     1
102
RTVSPost2010Prop56
140
1.0
102
RTVSPost2010PropOp56
 70
     1
102
RTVSPost2010Prop57
140
1.0
102
RTVSPost2010PropOp57
 70
     1
102
RTVSPropertyOp0
 70
     1
102
RTVSPropertyOp1
 70
     1
102
RTVSPropertyOp2
 70
     1
102
RTVSPropertyOp3
 70
     1
102
RTVSPropertyOp4
 70
     1
102
RTVSPropertyOp5
 70
     1
102
RTVSPropertyOp6
 70
     1
102
RTVSPropertyOp7
 70
     1
102
RTVSPropertyOp8
 70
     1
102
RTVSPropertyOp9
 70
     1
102
RTVSPropertyOp10
 70
     1
102
RTVSPropertyOp11
 70
     1
102
RTVSPropertyOp12
 70
     1
102
RTVSPropertyOp13
 70
     1
102
RTVSPropertyOp14
 70
     1
102
RTVSPropertyOp15
 70
     1
102
RTVSPropertyOp16
 70
     1
102
RTVSPropertyOp17
 70
     1
102
RTVSPropertyOp18
 70
     1
102
RTVSPropertyOp19
 70
     1
102
RTVSPropertyOp20
 70
     1
102
RTVSPropertyOp21
 70
     1
102
RTVSPropertyOp22
 70
     1
102
RTVSPropertyOp23
 70
     1
102
RTVSPropertyOp24
 70
     1
102
RTVSPropertyOp25
 70
     1
102
RTVSPropertyOp26
 70
     1
102
RTVSPropertyOp27
 70
     1
102
RTVSPropertyOp28
 70
     1
102
RTVSPropertyOp29
 70
     1
102
RTVSPropertyOp30
 70
     1
102
RTVSPropertyOp31
 70
     1
102
RTVSPropertyOp32
 70
     1
102
RTVSPropertyOp33
 70
     1
102
RTVSPropertyOp34
 70
     1
102
RTVSPropertyOp35
 70
     1
102
RTVSPropertyOp36
 70
     1
102
RTVSPropertyOp37
 70
     1
102
RTVSPropertyOp38
 70
     1
102
RTVSPropertyOp39
 70
     1
102
RTVSPropertyOp40
 70
     1
102
RTVSPropertyOp41
 70
     1
102
RTVSPropertyOp42
 70
     1
102
RTVSPropertyOp43
 70
     1
102
RTVSPropertyOp44
 70
     1
102
RTVSPropertyOp45
 70
     1
102
RTVSPropertyOp46
 70
     1
102
RTVSPropertyOp47
 70
     1
102
RTVSPropertyOp48
 70
     1
102
RTVSPropertyOp49
 70
     1
102
RTVSPropertyOp50
 70
     1
102
RTVSPropertyOp51
 70
     0
102
RTVSPropertyOp52
 70
     0
102
RTVSPropertyOp53
 70
     1
102
RTVSPropertyOp54
 70
     1
102
RTVSPropertyOp55
 70
     1
102
RTVSPropertyOp56
 70
     1
102
RTVSPropertyOp57
 70
     1
102
RTVSPropertyOp58
 70
     1
102
RTVSPropertyOp59
 70
     1
102
RTVSPropertyOp60
 70
     1
102
RTVSPropertyOp61
 70
     1
102
RTVSPropertyOp62
 70
     1
  0
XRECORD
  5
1AB5
102
{ACAD_REACTORS
330
1AB4
102
}
330
1AB4
100
AcDbXrecord
280
     1
102
RTVSPost2010Prop28
280
     0
102
RTVSPost2010PropOp28
 70
     1
102
RTVSPost2010Prop29
280
     1
102
RTVSPost2010PropOp29
 70
     1
102
RTVSPost2010Prop30
280
     1
102
RTVSPost2010PropOp30
 70
     1
102
RTVSPost2010Prop31
280
     0
102
RTVSPost2010PropOp31
 70
     1
102
RTVSPost2010Prop32
280
     0
102
RTVSPost2010PropOp32
 70
     1
102
RTVSPost2010Prop33
280
     0
102
RTVSPost2010PropOp33
 70
     1
102
RTVSPost2010Prop34
280
     0
102
RTVSPost2010PropOp34
 70
     1
102
RTVSPost2010Prop35
280
     0
102
RTVSPost2010PropOp35
 70
     1
102
RTVSPost2010Prop36
280
     0
102
RTVSPost2010PropOp36
 70
     1
102
RTVSPost2010Prop37
 90
       50
102
RTVSPost2010PropOp37
 70
     1
102
RTVSPost2010Prop38
140
0.0
102
RTVSPost2010PropOp38
 70
     1
102
RTVSPost2010Prop39
140
1.0
102
RTVSPost2010PropOp39
 70
     1
102
RTVSPost2010Prop40
 90
        0
102
RTVSPost2010PropOp40
 70
     1
102
RTVSPost2010Prop41ColorIndex
 90
       18
102
RTVSPost2010Prop41ColorRGB
 90
        0
102
RTVSPost2010PropOp41
 70
     1
102
RTVSPost2010Prop42
 90
       50
102
RTVSPost2010PropOp42
 70
     1
102
RTVSPost2010Prop43
 90
        3
102
RTVSPost2010PropOp43
 70
     1
102
RTVSPost2010Prop44ColorIndex
 90
        5
102
RTVSPost2010Prop44ColorRGB
 90
      255
102
RTVSPost2010PropOp44
 70
     1
102
RTVSPost2010Prop45
280
     0
102
RTVSPost2010PropOp45
 70
     1
102
RTVSPost2010Prop46
 90
       50
102
RTVSPost2010PropOp46
 70
     1
102
RTVSPost2010Prop47
 90
       50
102
RTVSPost2010PropOp47
 70
     1
102
RTVSPost2010Prop48
 90
       50
102
RTVSPost2010PropOp48
 70
     1
102
RTVSPost2010Prop49
280
     0
102
RTVSPost2010PropOp49
 70
     1
102
RTVSPost2010Prop50
 90
       50
102
RTVSPost2010PropOp50
 70
     1
102
RTVSPost2010Prop51ColorIndex
 90
      256
102
RTVSPost2010Prop51ColorRGB
 90
-16777216
102
RTVSPost2010PropOp51
 70
     0
102
RTVSPost2010Prop52
140
1.0
102
RTVSPost2010PropOp52
 70
     0
102
RTVSPost2010Prop53
 90
        2
102
RTVSPost2010PropOp53
 70
     1
102
RTVSPost2010Prop54
  1
strokes_ogs.tif
102
RTVSPost2010PropOp54
 70
     1
102
RTVSPost2010Prop55
280
     0
102
RTVSPost2010PropOp55
 70
     1
102
RTVSPost2010Prop56
140
1.0
102
RTVSPost2010PropOp56
 70
     1
102
RTVSPost2010Prop57
140
1.0
102
RTVSPost2010PropOp57
 70
     1
102
RTVSPropertyOp0
 70
     1
102
RTVSPropertyOp1
 70
     1
102
RTVSPropertyOp2
 70
     1
102
RTVSPropertyOp3
 70
     1
102
RTVSPropertyOp4
 70
     1
102
RTVSPropertyOp5
 70
     1
102
RTVSPropertyOp6
 70
     1
102
RTVSPropertyOp7
 70
     1
102
RTVSPropertyOp8
 70
     1
102
RTVSPropertyOp9
 70
     1
102
RTVSPropertyOp10
 70
     1
102
RTVSPropertyOp11
 70
     1
102
RTVSPropertyOp12
 70
     1
102
RTVSPropertyOp13
 70
     1
102
RTVSPropertyOp14
 70
     1
102
RTVSPropertyOp15
 70
     1
102
RTVSPropertyOp16
 70
     1
102
RTVSPropertyOp17
 70
     1
102
RTVSPropertyOp18
 70
     1
102
RTVSPropertyOp19
 70
     1
102
RTVSPropertyOp20
 70
     1
102
RTVSPropertyOp21
 70
     1
102
RTVSPropertyOp22
 70
     1
102
RTVSPropertyOp23
 70
     1
102
RTVSPropertyOp24
 70
     1
102
RTVSPropertyOp25
 70
     1
102
RTVSPropertyOp26
 70
     1
102
RTVSPropertyOp27
 70
     1
102
RTVSPropertyOp28
 70
     1
102
RTVSPropertyOp29
 70
     1
102
RTVSPropertyOp30
 70
     1
102
RTVSPropertyOp31
 70
     1
102
RTVSPropertyOp32
 70
     1
102
RTVSPropertyOp33
 70
     1
102
RTVSPropertyOp34
 70
     1
102
RTVSPropertyOp35
 70
     1
102
RTVSPropertyOp36
 70
     1
102
RTVSPropertyOp37
 70
     1
102
RTVSPropertyOp38
 70
     1
102
RTVSPropertyOp39
 70
     1
102
RTVSPropertyOp40
 70
     1
102
RTVSPropertyOp41
 70
     1
102
RTVSPropertyOp42
 70
     1
102
RTVSPropertyOp43
 70
     1
102
RTVSPropertyOp44
 70
     1
102
RTVSPropertyOp45
 70
     1
102
RTVSPropertyOp46
 70
     1
102
RTVSPropertyOp47
 70
     1
102
RTVSPropertyOp48
 70
     1
102
RTVSPropertyOp49
 70
     1
102
RTVSPropertyOp50
 70
     1
102
RTVSPropertyOp51
 70
     0
102
RTVSPropertyOp52
 70
     0
102
RTVSPropertyOp53
 70
     1
102
RTVSPropertyOp54
 70
     1
102
RTVSPropertyOp55
 70
     1
102
RTVSPropertyOp56
 70
     1
102
RTVSPropertyOp57
 70
     1
102
RTVSPropertyOp58
 70
     1
102
RTVSPropertyOp59
 70
     1
102
RTVSPropertyOp60
 70
     1
102
RTVSPropertyOp61
 70
     1
102
RTVSPropertyOp62
 70
     1
  0
XRECORD
  5
1ACD
102
{ACAD_REACTORS
330
1ACC
102
}
330
1ACC
100
AcDbXrecord
280
     1
102
RTVSPost2010Prop28
280
     0
102
RTVSPost2010PropOp28
 70
     1
102
RTVSPost2010Prop29
280
     1
102
RTVSPost2010PropOp29
 70
     1
102
RTVSPost2010Prop30
280
     1
102
RTVSPost2010PropOp30
 70
     1
102
RTVSPost2010Prop31
280
     0
102
RTVSPost2010PropOp31
 70
     1
102
RTVSPost2010Prop32
280
     0
102
RTVSPost2010PropOp32
 70
     1
102
RTVSPost2010Prop33
280
     0
102
RTVSPost2010PropOp33
 70
     1
102
RTVSPost2010Prop34
280
     0
102
RTVSPost2010PropOp34
 70
     1
102
RTVSPost2010Prop35
280
     0
102
RTVSPost2010PropOp35
 70
     1
102
RTVSPost2010Prop36
280
     0
102
RTVSPost2010PropOp36
 70
     1
102
RTVSPost2010Prop37
 90
       50
102
RTVSPost2010PropOp37
 70
     1
102
RTVSPost2010Prop38
140
0.0
102
RTVSPost2010PropOp38
 70
     1
102
RTVSPost2010Prop39
140
1.0
102
RTVSPost2010PropOp39
 70
     1
102
RTVSPost2010Prop40
 90
        0
102
RTVSPost2010PropOp40
 70
     1
102
RTVSPost2010Prop41ColorIndex
 90
       18
102
RTVSPost2010Prop41ColorRGB
 90
        0
102
RTVSPost2010PropOp41
 70
     1
102
RTVSPost2010Prop42
 90
       50
102
RTVSPost2010PropOp42
 70
     1
102
RTVSPost2010Prop43
 90
        3
102
RTVSPost2010PropOp43
 70
     1
102
RTVSPost2010Prop44ColorIndex
 90
        5
102
RTVSPost2010Prop44ColorRGB
 90
      255
102
RTVSPost2010PropOp44
 70
     1
102
RTVSPost2010Prop45
280
     0
102
RTVSPost2010PropOp45
 70
     1
102
RTVSPost2010Prop46
 90
       50
102
RTVSPost2010PropOp46
 70
     1
102
RTVSPost2010Prop47
 90
       50
102
RTVSPost2010PropOp47
 70
     1
102
RTVSPost2010Prop48
 90
       50
102
RTVSPost2010PropOp48
 70
     1
102
RTVSPost2010Prop49
280
     0
102
RTVSPost2010PropOp49
 70
     1
102
RTVSPost2010Prop50
 90
       50
102
RTVSPost2010PropOp50
 70
     1
102
RTVSPost2010Prop51ColorIndex
 90
      256
102
RTVSPost2010Prop51ColorRGB
 90
-16777216
102
RTVSPost2010PropOp51
 70
     0
102
RTVSPost2010Prop52
140
1.0
102
RTVSPost2010PropOp52
 70
     0
102
RTVSPost2010Prop53
 90
        2
102
RTVSPost2010PropOp53
 70
     1
102
RTVSPost2010Prop54
  1
strokes_ogs.tif
102
RTVSPost2010PropOp54
 70
     1
102
RTVSPost2010Prop55
280
     0
102
RTVSPost2010PropOp55
 70
     1
102
RTVSPost2010Prop56
140
1.0
102
RTVSPost2010PropOp56
 70
     1
102
RTVSPost2010Prop57
140
1.0
102
RTVSPost2010PropOp57
 70
     1
102
RTVSPropertyOp0
 70
     1
102
RTVSPropertyOp1
 70
     1
102
RTVSPropertyOp2
 70
     1
102
RTVSPropertyOp3
 70
     1
102
RTVSPropertyOp4
 70
     1
102
RTVSPropertyOp5
 70
     1
102
RTVSPropertyOp6
 70
     1
102
RTVSPropertyOp7
 70
     1
102
RTVSPropertyOp8
 70
     1
102
RTVSPropertyOp9
 70
     1
102
RTVSPropertyOp10
 70
     1
102
RTVSPropertyOp11
 70
     1
102
RTVSPropertyOp12
 70
     1
102
RTVSPropertyOp13
 70
     1
102
RTVSPropertyOp14
 70
     1
102
RTVSPropertyOp15
 70
     1
102
RTVSPropertyOp16
 70
     1
102
RTVSPropertyOp17
 70
     1
102
RTVSPropertyOp18
 70
     1
102
RTVSPropertyOp19
 70
     1
102
RTVSPropertyOp20
 70
     1
102
RTVSPropertyOp21
 70
     1
102
RTVSPropertyOp22
 70
     1
102
RTVSPropertyOp23
 70
     1
102
RTVSPropertyOp24
 70
     1
102
RTVSPropertyOp25
 70
     1
102
RTVSPropertyOp26
 70
     1
102
RTVSPropertyOp27
 70
     1
102
RTVSPropertyOp28
 70
     1
102
RTVSPropertyOp29
 70
     1
102
RTVSPropertyOp30
 70
     1
102
RTVSPropertyOp31
 70
     1
102
RTVSPropertyOp32
 70
     1
102
RTVSPropertyOp33
 70
     1
102
RTVSPropertyOp34
 70
     1
102
RTVSPropertyOp35
 70
     1
102
RTVSPropertyOp36
 70
     1
102
RTVSPropertyOp37
 70
     1
102
RTVSPropertyOp38
 70
     1
102
RTVSPropertyOp39
 70
     1
102
RTVSPropertyOp40
 70
     1
102
RTVSPropertyOp41
 70
     1
102
RTVSPropertyOp42
 70
     1
102
RTVSPropertyOp43
 70
     1
102
RTVSPropertyOp44
 70
     1
102
RTVSPropertyOp45
 70
     1
102
RTVSPropertyOp46
 70
     1
102
RTVSPropertyOp47
 70
     1
102
RTVSPropertyOp48
 70
     1
102
RTVSPropertyOp49
 70
     1
102
RTVSPropertyOp50
 70
     1
102
RTVSPropertyOp51
 70
     0
102
RTVSPropertyOp52
 70
     0
102
RTVSPropertyOp53
 70
     1
102
RTVSPropertyOp54
 70
     1
102
RTVSPropertyOp55
 70
     1
102
RTVSPropertyOp56
 70
     1
102
RTVSPropertyOp57
 70
     1
102
RTVSPropertyOp58
 70
     1
102
RTVSPropertyOp59
 70
     1
102
RTVSPropertyOp60
 70
     1
102
RTVSPropertyOp61
 70
     1
102
RTVSPropertyOp62
 70
     1
  0
ENDSEC
  0
EOF
