  0
SECTION
  2
HEADER
  9
$ACADVER
  1
AC1015
  9
$ACADMAINTVER
 70
    20
  9
$DWGCODEPAGE
  3
ANSI_1252
  9
$INSBASE
 10
0.0
 20
0.0
 30
0.0
  9
$EXTMIN
 10
2782.770906694105
 20
2734.91150806599
 30
0.0
  9
$EXTMAX
 10
2784.497413735719
 20
2735.566508067182
 30
0.0
  9
$LIMMIN
 10
0.0
 20
0.0
  9
$LIMMAX
 10
420.0
 20
297.0
  9
$ORTHOMODE
 70
     1
  9
$REGENMODE
 70
     1
  9
$FILLMODE
 70
     1
  9
$QTEXTMODE
 70
     0
  9
$MIRRTEXT
 70
     1
  9
$LTSCALE
 40
1.0
  9
$ATTMODE
 70
     1
  9
$TEXTSIZE
 40
2.5
  9
$TRACEWID
 40
1.0
  9
$TEXTSTYLE
  7
SANINDUSA
  9
$CLAYER
  8
cotas
  9
$CELTYPE
  6
ByLayer
  9
$CECOLOR
 62
   256
  9
$CELTSCALE
 40
1.0
  9
$DISPSILH
 70
     0
  9
$DIMSCALE
 40
1.0
  9
$DIMASZ
 40
2.0
  9
$DIMEXO
 40
1.0
  9
$DIMDLI
 40
1.0
  9
$DIMRND
 40
0.0
  9
$DIMDLE
 40
0.0
  9
$DIMEXE
 40
1.0
  9
$DIMTP
 40
0.0
  9
$DIMTM
 40
0.0
  9
$DIMTXT
 40
2.0
  9
$DIMCEN
 40
0.0
  9
$DIMTSZ
 40
0.0
  9
$DIMTOL
 70
     0
  9
$DIMLIM
 70
     0
  9
$DIMTIH
 70
     0
  9
$DIMTOH
 70
     0
  9
$DIMSE1
 70
     0
  9
$DIMSE2
 70
     0
  9
$DIMTAD
 70
     1
  9
$DIMZIN
 70
     8
  9
$DIMBLK
  1

  9
$DIMASO
 70
     1
  9
$DIMSHO
 70
     1
  9
$DIMPOST
  1

  9
$DIMAPOST
  1

  9
$DIMALT
 70
     0
  9
$DIMALTD
 70
     3
  9
$DIMALTF
 40
0.03937007874016
  9
$DIMLFAC
 40
1.0
  9
$DIMTOFL
 70
     1
  9
$DIMTVP
 40
0.0
  9
$DIMTIX
 70
     0
  9
$DIMSOXD
 70
     0
  9
$DIMSAH
 70
     0
  9
$DIMBLK1
  1

  9
$DIMBLK2
  1

  9
$DIMSTYLE
  2
SANINDUSA
  9
$DIMCLRD
 70
   256
  9
$DIMCLRE
 70
   256
  9
$DIMCLRT
 70
   256
  9
$DIMTFAC
 40
1.0
  9
$DIMGAP
 40
1.0
  9
$DIMJUST
 70
     0
  9
$DIMSD1
 70
     0
  9
$DIMSD2
 70
     0
  9
$DIMTOLJ
 70
     0
  9
$DIMTZIN
 70
     8
  9
$DIMALTZ
 70
     0
  9
$DIMALTTZ
 70
     0
  9
$DIMUPT
 70
     0
  9
$DIMDEC
 70
     1
  9
$DIMTDEC
 70
     1
  9
$DIMALTU
 70
     2
  9
$DIMALTTD
 70
     3
  9
$DIMTXSTY
  7
SANINDUSA
  9
$DIMAUNIT
 70
     0
  9
$DIMADEC
 70
     1
  9
$DIMALTRND
 40
0.0
  9
$DIMAZIN
 70
     0
  9
$DIMDSEP
 70
    44
  9
$DIMATFIT
 70
     3
  9
$DIMFRAC
 70
     0
  9
$DIMLDRBLK
  1

  9
$DIMLUNIT
 70
     2
  9
$DIMLWD
 70
    -1
  9
$DIMLWE
 70
    -1
  9
$DIMTMOVE
 70
     0
  9
$LUNITS
 70
     2
  9
$LUPREC
 70
     4
  9
$SKETCHINC
 40
1.0
  9
$FILLETRAD
 40
0.0
  9
$AUNITS
 70
     0
  9
$AUPREC
 70
     0
  9
$MENU
  1
.
  9
$ELEVATION
 40
0.0
  9
$PELEVATION
 40
0.0
  9
$THICKNESS
 40
0.0
  9
$LIMCHECK
 70
     0
  9
$CHAMFERA
 40
10.0
  9
$CHAMFERB
 40
10.0
  9
$CHAMFERC
 40
20.0
  9
$CHAMFERD
 40
0.0
  9
$SKPOLY
 70
     0
  9
$TDCREATE
 40
2456098.678861401
  9
$TDUCREATE
 40
2456098.637194734
  9
$TDUPDATE
 40
2456098.687906898
  9
$TDUUPDATE
 40
2456098.646240232
  9
$TDINDWG
 40
0.0090460417
  9
$TDUSRTIMER
 40
0.0090458565
  9
$USRTIMER
 70
     1
  9
$ANGBASE
 50
0.0
  9
$ANGDIR
 70
     0
  9
$PDMODE
 70
     0
  9
$PDSIZE
 40
0.0
  9
$PLINEWID
 40
0.0
  9
$SPLFRAME
 70
     0
  9
$SPLINETYPE
 70
     6
  9
$SPLINESEGS
 70
     8
  9
$HANDSEED
  5
1BA1
  9
$SURFTAB1
 70
     6
  9
$SURFTAB2
 70
     6
  9
$SURFTYPE
 70
     6
  9
$SURFU
 70
     6
  9
$SURFV
 70
     6
  9
$UCSBASE
  2

  9
$UCSNAME
  2

  9
$UCSORG
 10
0.0
 20
0.0
 30
0.0
  9
$UCSXDIR
 10
1.0
 20
0.0
 30
0.0
  9
$UCSYDIR
 10
0.0
 20
1.0
 30
0.0
  9
$UCSORTHOREF
  2

  9
$UCSORTHOVIEW
 70
     0
  9
$UCSORGTOP
 10
0.0
 20
0.0
 30
0.0
  9
$UCSORGBOTTOM
 10
0.0
 20
0.0
 30
0.0
  9
$UCSORGLEFT
 10
0.0
 20
0.0
 30
0.0
  9
$UCSORGRIGHT
 10
0.0
 20
0.0
 30
0.0
  9
$UCSORGFRONT
 10
0.0
 20
0.0
 30
0.0
  9
$UCSORGBACK
 10
0.0
 20
0.0
 30
0.0
  9
$PUCSBASE
  2

  9
$PUCSNAME
  2

  9
$PUCSORG
 10
0.0
 20
0.0
 30
0.0
  9
$PUCSXDIR
 10
1.0
 20
0.0
 30
0.0
  9
$PUCSYDIR
 10
0.0
 20
1.0
 30
0.0
  9
$PUCSORTHOREF
  2

  9
$PUCSORTHOVIEW
 70
     0
  9
$PUCSORGTOP
 10
0.0
 20
0.0
 30
0.0
  9
$PUCSORGBOTTOM
 10
0.0
 20
0.0
 30
0.0
  9
$PUCSORGLEFT
 10
0.0
 20
0.0
 30
0.0
  9
$PUCSORGRIGHT
 10
0.0
 20
0.0
 30
0.0
  9
$PUCSORGFRONT
 10
0.0
 20
0.0
 30
0.0
  9
$PUCSORGBACK
 10
0.0
 20
0.0
 30
0.0
  9
$USERI1
 70
     0
  9
$USERI2
 70
     0
  9
$USERI3
 70
     0
  9
$USERI4
 70
     0
  9
$USERI5
 70
     0
  9
$USERR1
 40
0.0
  9
$USERR2
 40
0.0
  9
$USERR3
 40
0.0
  9
$USERR4
 40
0.0
  9
$USERR5
 40
0.0
  9
$WORLDVIEW
 70
     1
  9
$SHADEDGE
 70
     3
  9
$SHADEDIF
 70
    70
  9
$TILEMODE
 70
     1
  9
$MAXACTVP
 70
    64
  9
$PINSBASE
 10
0.0
 20
0.0
 30
0.0
  9
$PLIMCHECK
 70
     0
  9
$PEXTMIN
 10
1.000000000000000E+20
 20
1.000000000000000E+20
 30
1.000000000000000E+20
  9
$PEXTMAX
 10
-1.000000000000000E+20
 20
-1.000000000000000E+20
 30
-1.000000000000000E+20
  9
$PLIMMIN
 10
0.0
 20
0.0
  9
$PLIMMAX
 10
420.0
 20
297.0
  9
$UNITMODE
 70
     0
  9
$VISRETAIN
 70
     1
  9
$PLINEGEN
 70
     0
  9
$PSLTSCALE
 70
     1
  9
$TREEDEPTH
 70
  3020
  9
$CMLSTYLE
  2
Standard
  9
$CMLJUST
 70
     0
  9
$CMLSCALE
 40
20.0
  9
$PROXYGRAPHICS
 70
     1
  9
$MEASUREMENT
 70
     1
  9
$CELWEIGHT
370
    -1
  9
$ENDCAPS
280
     0
  9
$JOINSTYLE
280
     0
  9
$LWDISPLAY
290
     0
  9
$INSUNITS
 70
     4
  9
$HYPERLINKBASE
  1

  9
$STYLESHEET
  1
sanindusa.ctb
  9
$XEDIT
290
     1
  9
$CEPSNTYPE
380
     0
  9
$PSTYLEMODE
290
     1
  9
$FINGERPRINTGUID
  2
{747758F1-27B2-4A6F-B280-5668A69C9A2A}
  9
$VERSIONGUID
  2
{A1630C11-D163-4BE4-A5EC-A41DAA4448E7}
  9
$EXTNAMES
290
     1
  9
$PSVPSCALE
 40
0.0
  9
$OLESTARTUP
290
     0
  0
ENDSEC
  0
SECTION
  2
CLASSES
  0
CLASS
  1
ACDBDICTIONARYWDFLT
  2
AcDbDictionaryWithDefault
  3
ObjectDBX Classes
 90
        0
280
     0
281
     0
  0
CLASS
  1
ACDBPLACEHOLDER
  2
AcDbPlaceHolder
  3
ObjectDBX Classes
 90
        0
280
     0
281
     0
  0
CLASS
  1
LAYOUT
  2
AcDbLayout
  3
ObjectDBX Classes
 90
        0
280
     0
281
     0
  0
CLASS
  1
DICTIONARYVAR
  2
AcDbDictionaryVar
  3
ObjectDBX Classes
 90
        0
280
     0
281
     0
  0
CLASS
  1
DIMASSOC
  2
AcDbDimAssoc
  3
"AcDbDimAssoc|Product Desc:     AcDim ARX App For Dimension|Company:          Autodesk, Inc.|WEB Address:      www.autodesk.com"
 90
        0
280
     0
281
     0
  0
CLASS
  1
TABLESTYLE
  2
AcDbTableStyle
  3
ObjectDBX Classes
 90
     4095
280
     0
281
     0
  0
CLASS
  1
MATERIAL
  2
AcDbMaterial
  3
ObjectDBX Classes
 90
     1153
280
     0
281
     0
  0
CLASS
  1
VISUALSTYLE
  2
AcDbVisualStyle
  3
ObjectDBX Classes
 90
     4095
280
     0
281
     0
  0
CLASS
  1
SCALE
  2
AcDbScale
  3
ObjectDBX Classes
 90
     1153
280
     0
281
     0
  0
CLASS
  1
MLEADERSTYLE
  2
AcDbMLeaderStyle
  3
ACDB_MLEADERSTYLE_CLASS
 90
     4095
280
     0
281
     0
  0
CLASS
  1
AEC_REFEDIT_STATUS_TRACKER
  2
AecDbRefEditStatusTracker
  3
AecArchBase60|Product Desc: Autodesk Architectural Desktop 2007 |Company: Autodesk,Inc. |WEB Address: www.autodesk.com
 90
      129
280
     0
281
     0
  0
CLASS
  1
NPOCOLLECTION
  2
AcDbImpNonPersistentObjectsCollection
  3
ObjectDBX Classes
 90
     1153
280
     0
281
     0
  0
CLASS
  1
EXACXREFPANELOBJECT
  2
ExAcXREFPanelObject
  3
EXAC_ESW
 90
     1025
280
     0
281
     0
  0
CLASS
  1
CELLSTYLEMAP
  2
AcDbCellStyleMap
  3
ObjectDBX Classes
 90
     1152
280
     0
281
     0
  0
ENDSEC
  0
SECTION
  2
TABLES
  0
TABLE
  2
VPORT
  5
8
330
0
100
AcDbSymbolTable
 70
     1
  0
VPORT
  5
1068
330
8
100
AcDbSymbolTableRecord
100
AcDbViewportTableRecord
  2
*Active
 70
     0
 10
0.0
 20
0.0
 11
1.0
 21
1.0
 12
2783.634160214912
 22
2735.239008066586
 13
0.0
 23
0.0
 14
10.0
 24
10.0
 15
10.0
 25
10.0
 16
0.0
 26
0.0
 36
1.0
 17
0.0
 27
0.0
 37
0.0
 40
1.053237775253478
 41
1.645464025026068
 42
50.0
 43
0.0
 44
0.0
 50
0.0
 51
0.0
 71
     0
 72
   100
 73
     1
 74
     2
 75
     0
 76
     0
 77
     0
 78
     0
281
     0
 65
     1
110
0.0
120
0.0
130
0.0
111
1.0
121
0.0
131
0.0
112
0.0
122
1.0
132
0.0
 79
     0
146
0.0
  0
ENDTAB
  0
TABLE
  2
LTYPE
  5
5
330
0
100
AcDbSymbolTable
 70
     5
  0
LTYPE
  5
14
330
5
100
AcDbSymbolTableRecord
100
AcDbLinetypeTableRecord
  2
ByBlock
 70
     0
  3

 72
    65
 73
     0
 40
0.0
  0
LTYPE
  5
15
330
5
100
AcDbSymbolTableRecord
100
AcDbLinetypeTableRecord
  2
ByLayer
 70
     0
  3

 72
    65
 73
     0
 40
0.0
  0
LTYPE
  5
16
330
5
100
AcDbSymbolTableRecord
100
AcDbLinetypeTableRecord
  2
Continuous
 70
     0
  3
Solid line
 72
    65
 73
     0
 40
0.0
  0
LTYPE
  5
2D
330
5
100
AcDbSymbolTableRecord
100
AcDbLinetypeTableRecord
  2
DASHDOT
 70
     0
  3
Dash dot __ . __ . __ . __ . __ . __ . __ . __
 72
    65
 73
     4
 40
25.4
 49
12.7
 74
     0
 49
-6.349999999999999
 74
     0
 49
0.0
 74
     0
 49
-6.349999999999999
 74
     0
  0
LTYPE
  5
2E
330
5
100
AcDbSymbolTableRecord
100
AcDbLinetypeTableRecord
  2
HIDDEN
 70
     0
  3
Hidden __ __ __ __ __ __ __ __ __ __ __ __ __ _
 72
    65
 73
     2
 40
9.524999999999998
 49
6.349999999999999
 74
     0
 49
-3.174999999999999
 74
     0
  0
LTYPE
  5
C75
330
5
100
AcDbSymbolTableRecord
100
AcDbLinetypeTableRecord
  2
AM_ISO02W050
 70
     0
  3
__ __ __ __ __ __ __ __ __ __ __ __ __ __ __
 72
    65
 73
     2
 40
7.5
 49
6.0
 74
     0
 49
-1.5
 74
     0
  0
LTYPE
  5
C76
330
5
100
AcDbSymbolTableRecord
100
AcDbLinetypeTableRecord
  2
AM_ISO08W050
 70
     0
  3
____ . ____ . ____ . ____ . ____ . ____ . ____
 72
    65
 73
     4
 40
18.0
 49
12.0
 74
     0
 49
-1.5
 74
     0
 49
3.0
 74
     0
 49
-1.5
 74
     0
  0
ENDTAB
  0
TABLE
  2
LAYER
  5
2
102
{ACAD_XDICTIONARY
360
1051
102
}
330
0
100
AcDbSymbolTable
 70
    17
  0
LAYER
  5
10
102
{ACAD_XDICTIONARY
360
1B07
102
}
330
2
100
AcDbSymbolTableRecord
100
AcDbLayerTableRecord
  2
0
 70
     0
 62
     7
  6
Continuous
370
    -3
390
F
  0
LAYER
  5
2F
102
{ACAD_XDICTIONARY
360
1B09
102
}
330
2
100
AcDbSymbolTableRecord
100
AcDbLayerTableRecord
  2
1
 70
     0
 62
     1
  6
Continuous
370
    -3
390
F
  0
LAYER
  5
30
102
{ACAD_XDICTIONARY
360
1B0B
102
}
330
2
100
AcDbSymbolTableRecord
100
AcDbLayerTableRecord
  2
2
 70
     0
 62
     2
  6
Continuous
370
    -3
390
F
  0
LAYER
  5
31
102
{ACAD_XDICTIONARY
360
1B0D
102
}
330
2
100
AcDbSymbolTableRecord
100
AcDbLayerTableRecord
  2
3
 70
     0
 62
     3
  6
Continuous
370
    -3
390
F
  0
LAYER
  5
32
102
{ACAD_XDICTIONARY
360
1B0F
102
}
330
2
100
AcDbSymbolTableRecord
100
AcDbLayerTableRecord
  2
4
 70
     0
 62
     4
  6
Continuous
370
    -3
390
F
  0
LAYER
  5
33
102
{ACAD_XDICTIONARY
360
1B11
102
}
330
2
100
AcDbSymbolTableRecord
100
AcDbLayerTableRecord
  2
5
 70
     0
 62
     5
  6
Continuous
370
    -3
390
F
  0
LAYER
  5
34
102
{ACAD_XDICTIONARY
360
1B13
102
}
330
2
100
AcDbSymbolTableRecord
100
AcDbLayerTableRecord
  2
6
 70
     0
 62
     6
  6
Continuous
370
    -3
390
F
  0
LAYER
  5
35
102
{ACAD_XDICTIONARY
360
1B15
102
}
330
2
100
AcDbSymbolTableRecord
100
AcDbLayerTableRecord
  2
7
 70
     0
 62
     7
  6
Continuous
370
    -3
390
F
  0
LAYER
  5
36
102
{ACAD_XDICTIONARY
360
1B17
102
}
330
2
100
AcDbSymbolTableRecord
100
AcDbLayerTableRecord
  2
cen
 70
     0
 62
     7
  6
DASHDOT
370
    -3
390
F
  0
LAYER
  5
37
102
{ACAD_XDICTIONARY
360
1B19
102
}
330
2
100
AcDbSymbolTableRecord
100
AcDbLayerTableRecord
  2
hid
 70
     0
 62
     7
  6
HIDDEN
370
    -3
390
F
  0
LAYER
  5
5D6
102
{ACAD_XDICTIONARY
360
1B1B
102
}
330
2
100
AcDbSymbolTableRecord
100
AcDbLayerTableRecord
  2
hatch
 70
     0
 62
     9
  6
Continuous
370
    -3
390
F
  0
LAYER
  5
8AF
102
{ACAD_XDICTIONARY
360
1B1D
102
}
330
2
100
AcDbSymbolTableRecord
100
AcDbLayerTableRecord
  2
9
 70
     0
 62
     9
  6
Continuous
370
    -3
390
F
  0
LAYER
  5
8F8
102
{ACAD_XDICTIONARY
360
1B1F
102
}
330
2
100
AcDbSymbolTableRecord
100
AcDbLayerTableRecord
  2
leg fin
 70
     0
 62
     9
  6
Continuous
370
    -3
390
F
  0
LAYER
  5
91D
102
{ACAD_XDICTIONARY
360
1B21
102
}
330
2
100
AcDbSymbolTableRecord
100
AcDbLayerTableRecord
  2
cotas
 70
     0
 62
     1
  6
Continuous
370
    -3
390
F
  0
LAYER
  5
92F
330
2
100
AcDbSymbolTableRecord
100
AcDbLayerTableRecord
  2
Defpoints
 70
     0
 62
     7
  6
Continuous
290
     0
370
    -3
390
F
  0
LAYER
  5
C7B
102
{ACAD_XDICTIONARY
360
1B23
102
}
330
2
100
AcDbSymbolTableRecord
100
AcDbLayerTableRecord
  2
SANINDUSA
 70
     0
 62
     3
  6
Continuous
370
    -3
390
F
  0
LAYER
  5
1060
102
{ACAD_XDICTIONARY
360
1B25
102
}
330
2
100
AcDbSymbolTableRecord
100
AcDbLayerTableRecord
  2
hid1
 70
     0
 62
     9
  6
HIDDEN
370
    -3
390
F
1001
AcAecLayerStandard
1000

1000

  0
ENDTAB
  0
TABLE
  2
STYLE
  5
3
330
0
100
AcDbSymbolTable
 70
     4
  0
STYLE
  5
11
330
3
100
AcDbSymbolTableRecord
100
AcDbTextStyleTableRecord
  2
Standard
 70
     0
 40
0.0
 41
1.0
 50
0.0
 71
     0
 42
2.5
  3
Avgardn.ttf
  4

1001
ACAD
1000
AvantGarde Bk BT
1071
       34
  0
STYLE
  5
2C
330
3
100
AcDbSymbolTableRecord
100
AcDbTextStyleTableRecord
  2

 70
     1
 40
0.0
 41
1.0
 50
0.0
 71
     0
 42
2.5
  3
ltypeshp.shx
  4

  0
STYLE
  5
91F
330
3
100
AcDbSymbolTableRecord
100
AcDbTextStyleTableRecord
  2
SANINDUSA
 70
     0
 40
0.0
 41
1.0
 50
0.0
 71
     0
 42
2.5
  3
verdana.TTF
  4

1001
ACAD
1000
Verdana
1071
       34
  0
STYLE
  5
C7C
330
3
100
AcDbSymbolTableRecord
100
AcDbTextStyleTableRecord
  2
futura
 70
     0
 40
0.0
 41
1.0
 50
0.0
 71
     0
 42
2.5
  3
ZURCHN.TTF
  4

1001
ACAD
1000
Zurich BT
1071
       34
  0
ENDTAB
  0
TABLE
  2
VIEW
  5
6
330
0
100
AcDbSymbolTable
 70
     0
  0
ENDTAB
  0
TABLE
  2
UCS
  5
7
330
0
100
AcDbSymbolTable
 70
     0
  0
ENDTAB
  0
TABLE
  2
APPID
  5
9
330
0
100
AcDbSymbolTable
 70
    13
  0
APPID
  5
12
330
9
100
AcDbSymbolTableRecord
100
AcDbRegAppTableRecord
  2
ACAD
 70
     0
  0
APPID
  5
3A
330
9
100
AcDbSymbolTableRecord
100
AcDbRegAppTableRecord
  2
DCO15
 70
     0
  0
APPID
  5
EEE
330
9
100
AcDbSymbolTableRecord
100
AcDbRegAppTableRecord
  2
ACAD_DSTYLE_DIMTEXT_FILL
 70
     0
  0
APPID
  5
EEF
330
9
100
AcDbSymbolTableRecord
100
AcDbRegAppTableRecord
  2
ACAD_DSTYLE_DIMEXT_LENGTH
 70
     0
  0
APPID
  5
EF0
330
9
100
AcDbSymbolTableRecord
100
AcDbRegAppTableRecord
  2
ACAD_DSTYLE_DIMEXT_ENABLED
 70
     0
  0
APPID
  5
EF1
330
9
100
AcDbSymbolTableRecord
100
AcDbRegAppTableRecord
  2
ACAD_DSTYLE_DIM_LINETYPE
 70
     0
  0
APPID
  5
EF2
330
9
100
AcDbSymbolTableRecord
100
AcDbRegAppTableRecord
  2
ACAD_DSTYLE_DIM_EXT1_LINETYPE
 70
     0
  0
APPID
  5
EF3
330
9
100
AcDbSymbolTableRecord
100
AcDbRegAppTableRecord
  2
ACAD_DSTYLE_DIM_EXT2_LINETYPE
 70
     0
  0
APPID
  5
FAF
330
9
100
AcDbSymbolTableRecord
100
AcDbRegAppTableRecord
  2
ACAD_DSTYLE_DIMJOGGED_JOGANGLE_SYMBOL
 70
     0
  0
APPID
  5
1013
330
9
100
AcDbSymbolTableRecord
100
AcDbRegAppTableRecord
  2
ACAD_DSTYLE_DIMARC_LENGTH_SYMBOL
 70
     0
  0
APPID
  5
1061
330
9
100
AcDbSymbolTableRecord
100
AcDbRegAppTableRecord
  2
AcAecLayerStandard
 70
     0
  0
APPID
  5
1AC9
330
9
100
AcDbSymbolTableRecord
100
AcDbRegAppTableRecord
  2
ACAD_DSTYLE_DIMRADIAL_EXTENSION
 70
     0
  0
APPID
  5
1BA0
330
9
100
AcDbSymbolTableRecord
100
AcDbRegAppTableRecord
  2
ACAD_MLEADERVER
 70
     0
  0
ENDTAB
  0
TABLE
  2
DIMSTYLE
  5
A
330
0
100
AcDbSymbolTable
 70
     4
100
AcDbDimStyleTable
 71
     1
340
921
  0
DIMSTYLE
105
45
330
A
100
AcDbSymbolTableRecord
100
AcDbDimStyleTableRecord
  2
STANDARD
 70
     0
289
     0
340
11
  0
DIMSTYLE
105
921
330
A
100
AcDbSymbolTableRecord
100
AcDbDimStyleTableRecord
  2
SANINDUSA
 70
     0
 41
2.0
 42
1.0
 43
1.0
 44
1.0
 73
     0
 74
     0
 77
     1
 78
     8
140
2.0
141
0.0
143
0.03937007874016
147
1.0
171
     3
172
     1
176
   256
177
   256
178
   256
179
     1
271
     1
272
     1
274
     3
278
    44
283
     0
284
     8
340
91F
371
    -1
372
    -1
1001
ACAD_DSTYLE_DIMJOGGED_JOGANGLE_SYMBOL
1070
   384
1040
1.570796326794896
  0
DIMSTYLE
105
C7D
330
A
100
AcDbSymbolTableRecord
100
AcDbDimStyleTableRecord
  2
AM_ISO
 70
     0
  4
"
 41
2.5
 42
1.0
 43
10.0
 44
1.0
 47
0.1
 48
0.1
 73
     0
 74
     0
 77
     1
 78
     8
 79
     2
140
3.5
141
0.0
143
0.0393701
146
0.71
147
1.5
172
     1
176
   256
177
   256
178
     2
271
     2
272
     3
274
     4
283
     0
284
     8
340
11
371
    -1
372
    -1
  0
DIMSTYLE
105
10B3
330
A
100
AcDbSymbolTableRecord
100
AcDbDimStyleTableRecord
  2
ISO-25
 70
     0
 41
2.5
 42
0.625
 43
3.75
 44
1.25
 73
     0
 74
     0
 77
     1
 78
     8
140
2.5
141
2.5
143
0.03937007874016
147
0.625
171
     3
172
     1
271
     2
272
     2
274
     3
278
    44
283
     0
284
     8
340
11
  0
ENDTAB
  0
TABLE
  2
BLOCK_RECORD
  5
1
330
0
100
AcDbSymbolTable
 70
    12
  0
BLOCK_RECORD
  5
1F
330
1
100
AcDbSymbolTableRecord
100
AcDbBlockTableRecord
  2
*Model_Space
340
22
  0
BLOCK_RECORD
  5
1B
330
1
100
AcDbSymbolTableRecord
100
AcDbBlockTableRecord
  2
*Paper_Space
340
1E
  0
BLOCK_RECORD
  5
23
330
1
100
AcDbSymbolTableRecord
100
AcDbBlockTableRecord
  2
*Paper_Space0
340
26
  0
BLOCK_RECORD
  5
919
330
1
100
AcDbSymbolTableRecord
100
AcDbBlockTableRecord
  2
_DotSmall
340
0
  0
BLOCK_RECORD
  5
922
330
1
100
AcDbSymbolTableRecord
100
AcDbBlockTableRecord
  2
base para cotas
340
0
310
2800000020000000200000000100080000000000000400000000000000000000000000000000000000000000000080000080000000808000800000008000800080800000C0C0C000C0DCC000F0CAA6000020400000206000002080000020A0000020C0000020E00000400000004020000040400000406000004080000040A0
310
000040C0000040E00000600000006020000060400000606000006080000060A0000060C0000060E00000800000008020000080400000806000008080000080A0000080C0000080E00000A0000000A0200000A0400000A0600000A0800000A0A00000A0C00000A0E00000C0000000C0200000C0400000C0600000C0800000C0
310
A00000C0C00000C0E00000E0000000E0200000E0400000E0600000E0800000E0A00000E0C00000E0E00040000000400020004000400040006000400080004000A0004000C0004000E00040200000402020004020400040206000402080004020A0004020C0004020E000404000004040200040404000404060004040800040
310
40A0004040C0004040E00040600000406020004060400040606000406080004060A0004060C0004060E00040800000408020004080400040806000408080004080A0004080C0004080E00040A0000040A0200040A0400040A0600040A0800040A0A00040A0C00040A0E00040C0000040C0200040C0400040C0600040C08000
310
40C0A00040C0C00040C0E00040E0000040E0200040E0400040E0600040E0800040E0A00040E0C00040E0E00080000000800020008000400080006000800080008000A0008000C0008000E00080200000802020008020400080206000802080008020A0008020C0008020E00080400000804020008040400080406000804080
310
008040A0008040C0008040E00080600000806020008060400080606000806080008060A0008060C0008060E00080800000808020008080400080806000808080008080A0008080C0008080E00080A0000080A0200080A0400080A0600080A0800080A0A00080A0C00080A0E00080C0000080C0200080C0400080C0600080C0
310
800080C0A00080C0C00080C0E00080E0000080E0200080E0400080E0600080E0800080E0A00080E0C00080E0E000C0000000C0002000C0004000C0006000C0008000C000A000C000C000C000E000C0200000C0202000C0204000C0206000C0208000C020A000C020C000C020E000C0400000C0402000C0404000C0406000C0
310
408000C040A000C040C000C040E000C0600000C0602000C0604000C0606000C0608000C060A000C060C000C060E000C0800000C0802000C0804000C0806000C0808000C080A000C080C000C080E000C0A00000C0A02000C0A04000C0A06000C0A08000C0A0A000C0A0C000C0A0E000C0C00000C0C02000C0C04000C0C06000
310
C0C08000C0C0A000F0FBFF00A4A0A000808080000000FF0000FF000000FFFF00FF000000FF00FF00FFFF0000FFFFFF00A4A4A4A4A4A4A4A4A4A4A4A4A4A4A4A4A4A4A4A4A4A4A4A4A4A4A4A4A4A4A4A4A4A4A4A4A4A4A4A4A4A4A4A4A4A4A4A4A4A4A4A4A4A4A4A4A4A4A4A4A4A4A4A4A4A4A4A4A4A4A4A4A4A4A4A4A4A4A4
310
A4A4A4A4A4A4A4A4A4A4A4A4A4A4A4A4A4A4A4A4A4A4A4A4A4A4A4A4A4A4A4A4A4A4A4A4A4A4A4A4A4A4A4A4A4A4A4A4A4A4A4A4A4A4A4A4A4A4A4A4A4A4A4A4A4A4A4A4A4A4A4A4A4A4A4A4A4A4A4A4A4A4A4A4A4A4A4A4A4A4A4A4A4A4A4A4A4A4A4A4A4A4A4A4A4A4A4A4A4A4A4A4A4A4A4A4A4A4A4A4A4A4A4A4A4A4A4
310
A4A4A4A4A4A4A4A4A4A4A4A4A4A4A4A4A4A4A4A4A4A4A4A4A4A4A4A4A4A4A4A4A4A4A4A4A4A4A4A4A4A4A4A4A4A4A4A4A4A4A4A4A4A4A4A4A4A4A4A4A4A4A4A4A4A4A4A4A4A4A4A4A4A4A4A4A4A4A4A4A4A4A4A4A4A4A4A4A4A4A4A4A4A4A4A4A4A4A4A4A4A4A4A4A4A4A4A4A4A4A4A4A4A4A4A4A4A4A4A4A4A4A4A4A4A4A4
310
A4A4A4A4A4A4A4A4A4A4A4A4A4A4A4A4A4A4A4A4A4A4A4A4A4A4A4A4A4A4A4A4A4A4A4A4A4A4A4A4A4A4A4A4A4A4A4A4A4A4A4A4A4A4A4A4A4A4A4A4A4A4A4A4A4A4A4A4A4A4A4A4A4A4A4A4A4A4A4A4A4A4A4A4A4A4A4A4A4A4A4A4A4A4A4A4A4A4A4A4A4A4A4A4A4A4A4A4A4A4A4A4A4A4A4A4F9F9F9F9F9F9F9F9F9F9F9
310
F9F9F9F9F9F9F9F9F9F9F9F9F9F9F9F9F9F9F9A4A4F9F9F9F9F9F9F9F9F9F9F9F9F9F9F9F9F9F9F9F9F9F9F9F9F9F9F9F9F9F9A4A4F9F9F9F9F9F9F9F9F9F9F9F9F9F9F9F9F9F9F9F9F9F9F9F9F9F9F9F9F9F9A4A4F9A4A4A4A4A4A4A4A4A4A4A4A4A4A4A4A4A4A4A4A4A4A4A4A4A4A4A4A4F9A4A4A4A4A4A4A4A4A4A4A4A4
310
A4A4A4A4A4A4A4A4A4A4A4A4A4A4A4A4A4A4A4A4A4A4A4A4A4A4A4A4A4A4A4A4A4A4A4A4A4A4A4A4A4A4A4A4A4A4A4A4A4A4A4A4A4A4A4A4A4A4A4A4A4A4A4A4A4A4A4A4A4A4A4A4A4A4A4A4A4A4A4A4A4A4A4A4A4A4A4A4A4A4A4A4A4A4A4A4A4A4A4A4A4A4A4A4A4A4A4A4A4A4A4A4A4A4A4A4A4A4A4A4A4A4A4A4A4A4A4
310
A4A4A4A4A4A4A4A4A4A4A4A4A4A4A4A4A4A4A4A4A4A4A4A4A4A4A4A4A4A4A4A4A4A4A4A4A4A4A4A4A4A4A4A4A4A4A4A4A4A4A4A4A4A4A4A4A4A4A4A4A4A4A4A4A4A4A4A4A4A4A4A4A4A4A4A4A4A4A4A4A4A4A4A4A4A4A4A4A4A4A4A4A4A4A4A4A4A4A4A4A4A4A4A4A4A4A4A4A4A4A4A4A4A4A4A4A4A4A4A4A4A4A4A4A4A4A4
310
A4A4A4A4A4A4A4A4A4A4A4A4A4A4A4A4A4A4A4A4A4A4A4A4A4A4A4A4A4A4A4A4A4A4A4A4A4A4A4A4A4A4A4A4A4A4A4A4A4A4A4A4A4A4A4A4A4A4A4A4A4A4A4A4A4A4A4A4A4A4A4A4A4A4A4A4A4A4A4A4A4A4A4A4A4A4A4A4A4A4A4A4A4A4A4A4A4A4A4A4A4A4A4A4A4A4A4A4A4A4A4A4A4A4A4A4A4A4A4A4A4A4A4A4A4A4A4
310
A4A4A4A4A4A4A4A4A4A4A4A4A4A4A4A4A4A4A4A4A4A4A4A4A4A4A4A4A4A4A4A4A4A4A4A4A4A4A4A4A4A4A4A4A4A4A4A4A4A4A4A4A4A4A4A4
1001
ACAD
1000
DesignCenter Data
1002
{
1070
     1
1070
     4
1002
}
  0
BLOCK_RECORD
  5
AA8
330
1
100
AcDbSymbolTableRecord
100
AcDbBlockTableRecord
  2
_CLOSED
340
0
  0
BLOCK_RECORD
  5
B79
330
1
100
AcDbSymbolTableRecord
100
AcDbBlockTableRecord
  2
nota revisoes
340
0
1001
ACAD
1000
DesignCenter Data
1002
{
1070
     1
1070
     4
1002
}
  0
BLOCK_RECORD
  5
B8E
330
1
100
AcDbSymbolTableRecord
100
AcDbBlockTableRecord
  2
a3l
340
0
1001
ACAD
1000
DesignCenter Data
1002
{
1070
     1
1070
     4
1002
}
  0
BLOCK_RECORD
  5
B9E
330
1
100
AcDbSymbolTableRecord
100
AcDbBlockTableRecord
  2
legenda desenvolvimento
340
0
1001
ACAD
1000
DesignCenter Data
1002
{
1070
     1
1070
     4
1002
}
  0
BLOCK_RECORD
  5
1ACB
330
1
100
AcDbSymbolTableRecord
100
AcDbBlockTableRecord
  2
*D9
340
0
  0
BLOCK_RECORD
  5
1ADB
330
1
100
AcDbSymbolTableRecord
100
AcDbBlockTableRecord
  2
*D10
340
0
  0
BLOCK_RECORD
  5
1AEF
330
1
100
AcDbSymbolTableRecord
100
AcDbBlockTableRecord
  2
*D11
340
0
  0
ENDTAB
  0
ENDSEC
  0
SECTION
  2
BLOCKS
  0
BLOCK
  5
20
330
1F
100
AcDbEntity
  8
0
100
AcDbBlockBegin
  2
*Model_Space
 70
     0
 10
0.0
 20
0.0
 30
0.0
  3
*Model_Space
  1

  0
ENDBLK
  5
21
330
1F
100
AcDbEntity
  8
0
100
AcDbBlockEnd
  0
BLOCK
  5
1C
330
1B
100
AcDbEntity
 67
     1
  8
0
100
AcDbBlockBegin
  2
*Paper_Space
 70
     0
 10
0.0
 20
0.0
 30
0.0
  3
*Paper_Space
  1

  0
ENDBLK
  5
1D
330
1B
100
AcDbEntity
 67
     1
  8
0
100
AcDbBlockEnd
  0
BLOCK
  5
24
330
23
100
AcDbEntity
 67
     1
  8
0
100
AcDbBlockBegin
  2
*Paper_Space0
 70
     0
 10
0.0
 20
0.0
 30
0.0
  3
*Paper_Space0
  1

  0
ENDBLK
  5
25
330
23
100
AcDbEntity
 67
     1
  8
0
100
AcDbBlockEnd
  0
BLOCK
  5
91B
330
919
100
AcDbEntity
  8
0
100
AcDbBlockBegin
  2
_DotSmall
 70
     0
 10
0.0
 20
0.0
 30
0.0
  3
_DotSmall
  1

  0
LWPOLYLINE
  5
91A
330
919
100
AcDbEntity
  8
0
  6
ByBlock
 62
     0
100
AcDbPolyline
 90
        2
 70
     1
 43
0.5
 10
-0.0625
 20
0.0
 42
1.0
 10
0.0625
 20
0.0
 42
1.0
  0
ENDBLK
  5
91C
330
919
100
AcDbEntity
  8
0
100
AcDbBlockEnd
  0
BLOCK
  5
92A
330
922
100
AcDbEntity
  8
0
100
AcDbBlockBegin
  2
base para cotas
 70
     0
 10
0.0
 20
0.0
 30
0.0
  3
base para cotas
  1

  0
LINE
  5
B36
330
922
100
AcDbEntity
  8
cotas
100
AcDbLine
 10
0.0
 20
-30.0
 30
0.0
 11
327.1260136525398
 21
-30.0
 31
0.0
  0
LINE
  5
B37
330
922
100
AcDbEntity
  8
cotas
100
AcDbLine
 10
0.0
 20
-25.0
 30
0.0
 11
327.1260136525398
 21
-25.0
 31
0.0
  0
LINE
  5
B38
330
922
100
AcDbEntity
  8
cotas
100
AcDbLine
 10
0.0
 20
-20.0
 30
0.0
 11
327.1260136525398
 21
-20.0
 31
0.0
  0
LINE
  5
B39
330
922
100
AcDbEntity
  8
cotas
100
AcDbLine
 10
0.0
 20
-15.0
 30
0.0
 11
327.1260136525398
 21
-15.0
 31
0.0
  0
LINE
  5
B3A
330
922
100
AcDbEntity
  8
cotas
100
AcDbLine
 10
0.0
 20
-10.0
 30
0.0
 11
327.1260136525398
 21
-10.0
 31
0.0
  0
LINE
  5
B3B
330
922
100
AcDbEntity
  8
cotas
100
AcDbLine
 10
0.0
 20
0.0
 30
0.0
 11
0.0
 21
-30.0
 31
0.0
  0
LINE
  5
B3C
330
922
100
AcDbEntity
  8
cotas
100
AcDbLine
 10
327.1260136525398
 20
-30.0
 30
0.0
 11
327.1260136525398
 21
0.0
 31
0.0
  0
ENDBLK
  5
92B
330
922
100
AcDbEntity
  8
0
100
AcDbBlockEnd
  0
BLOCK
  5
AAD
330
AA8
100
AcDbEntity
  8
0
100
AcDbBlockBegin
  2
_CLOSED
 70
     0
 10
0.0
 20
0.0
 30
0.0
  3
_CLOSED
  1

  0
LINE
  5
AA9
330
AA8
100
AcDbEntity
  8
0
100
AcDbLine
 10
-1.0
 20
0.166667
 30
0.0
 11
0.0
 21
0.0
 31
0.0
  0
LINE
  5
AAA
330
AA8
100
AcDbEntity
  8
0
100
AcDbLine
 10
0.0
 20
0.0
 30
0.0
 11
-1.0
 21
-0.166667
 31
0.0
  0
LINE
  5
AAB
330
AA8
100
AcDbEntity
  8
0
100
AcDbLine
 10
-1.0
 20
0.166667
 30
0.0
 11
-1.0
 21
-0.166667
 31
0.0
  0
LINE
  5
AAC
330
AA8
100
AcDbEntity
  8
0
100
AcDbLine
 10
0.0
 20
0.0
 30
0.0
 11
-1.0
 21
0.0
 31
0.0
  0
ENDBLK
  5
AAE
330
AA8
100
AcDbEntity
  8
0
100
AcDbBlockEnd
  0
BLOCK
  5
B7C
330
B79
100
AcDbEntity
  8
0
100
AcDbBlockBegin
  2
nota revisoes
 70
     0
 10
0.0
 20
0.0
 30
0.0
  3
nota revisoes
  1

  0
CIRCLE
  5
B7A
330
B79
100
AcDbEntity
  8
4
100
AcDbCircle
 10
0.0
 20
0.0
 30
0.0
 40
13.69426055101189
  0
TEXT
  5
B7B
330
B79
100
AcDbEntity
  8
4
100
AcDbText
 10
-5.496248358154345
 20
-5.354545554066362
 30
0.0
 40
12.0
  1
1
  7
SANINDUSA
 72
     1
 11
-0.249774214433728
 21
-5.354545554066362
 31
0.0
100
AcDbText
  0
ENDBLK
  5
B7D
330
B79
100
AcDbEntity
  8
0
100
AcDbBlockEnd
  0
BLOCK
  5
B9C
330
B8E
100
AcDbEntity
  8
0
100
AcDbBlockBegin
  2
a3l
 70
     0
 10
0.0
 20
0.0
 30
0.0
  3
a3l
  1

  0
LINE
  5
B8F
330
B8E
100
AcDbEntity
  8
1
100
AcDbLine
 10
-364.2925296599447
 20
-362.1188951399395
 30
0.0
 11
-364.2925296599447
 21
-65.11889513993946
 31
0.0
  0
LINE
  5
B90
330
B8E
100
AcDbEntity
  8
4
100
AcDbLine
 10
-369.2925296599447
 20
-357.1188951399395
 30
0.0
 11
-369.2925296599447
 21
-70.11889513993946
 31
0.0
  0
LINE
  5
B91
330
B8E
100
AcDbEntity
  8
1
100
AcDbLine
 10
-784.2925296599446
 20
-65.11889513993946
 30
0.0
 11
-784.2925296599446
 21
-362.1188951399395
 31
0.0
  0
LINE
  5
B92
330
B8E
100
AcDbEntity
  8
4
100
AcDbLine
 10
-759.2925296599446
 20
-357.1188951399395
 30
0.0
 11
-759.2925296599446
 21
-70.11889513993946
 31
0.0
  0
LINE
  5
B93
330
B8E
100
AcDbEntity
  8
1
100
AcDbLine
 10
-784.2925296599446
 20
-362.1188951399395
 30
0.0
 11
-364.2925296599447
 21
-362.1188951399395
 31
0.0
  0
LINE
  5
B94
330
B8E
100
AcDbEntity
  8
4
100
AcDbLine
 10
-759.2925296599446
 20
-357.1188951399395
 30
0.0
 11
-369.2925296599447
 21
-357.1188951399395
 31
0.0
  0
LINE
  5
B95
330
B8E
100
AcDbEntity
  8
1
100
AcDbLine
 10
-654.2925296599446
 20
-357.1188951399395
 30
0.0
 11
-654.2925296599446
 21
-362.1188951399395
 31
0.0
  0
LINE
  5
B96
330
B8E
100
AcDbEntity
  8
1
100
AcDbLine
 10
-364.2925296599447
 20
-65.11889513993946
 30
0.0
 11
-784.2925296599446
 21
-65.11889513993946
 31
0.0
  0
LINE
  5
B97
330
B8E
100
AcDbEntity
  8
4
100
AcDbLine
 10
-369.2925296599447
 20
-70.11889513993946
 30
0.0
 11
-759.2925296599446
 21
-70.11889513993946
 31
0.0
  0
LINE
  5
B98
330
B8E
100
AcDbEntity
  8
1
100
AcDbLine
 10
-654.2925296599446
 20
-65.11889513993946
 30
0.0
 11
-654.2925296599446
 21
-70.11889513993946
 31
0.0
  0
LINE
  5
B99
330
B8E
100
AcDbEntity
  8
1
100
AcDbLine
 10
-549.2925296599446
 20
-70.11889513993946
 30
0.0
 11
-549.2925296599446
 21
-65.11889513993946
 31
0.0
  0
LINE
  5
B9A
330
B8E
100
AcDbEntity
  8
1
100
AcDbLine
 10
-369.2925296599447
 20
-65.11889513993946
 30
0.0
 11
-364.2925296599447
 21
-65.11889513993946
 31
0.0
  0
LINE
  5
B9B
330
B8E
100
AcDbEntity
  8
1
100
AcDbLine
 10
-549.2925296599446
 20
-357.1188951399395
 30
0.0
 11
-549.2925296599446
 21
-362.1188951399395
 31
0.0
  0
ENDBLK
  5
B9D
330
B8E
100
AcDbEntity
  8
0
100
AcDbBlockEnd
  0
BLOCK
  5
C13
330
B9E
100
AcDbEntity
  8
0
100
AcDbBlockBegin
  2
legenda desenvolvimento
 70
     2
 10
0.0
 20
0.0
 30
0.0
  3
legenda desenvolvimento
  1

  0
ATTDEF
  5
B9F
330
B9E
100
AcDbEntity
  8
1
100
AcDbText
 10
-108.606245802552
 20
55.5
 30
0.0
 40
4.0
  1
XXXXXXXXXXXXXX
 41
0.8
  7
SANINDUSA
 72
     4
 11
-87.5
 21
57.5
 31
0.0
100
AcDbAttributeDefinition
  3
Nome do Produto:
  2
PRODUTO
 70
     0
  0
ATTDEF
  5
BA0
330
B9E
100
AcDbEntity
  8
1
100
AcDbText
 10
-97.9997966101695
 20
41.25
 30
0.0
 40
3.0
  1
XXXXXXXXX
 41
0.8
  7
futura
 72
     4
 11
-87.5
 21
42.75
 31
0.0
100
AcDbAttributeDefinition
  3
Nome da Peça:
  2
PECA
 70
     0
  0
ATTDEF
  5
BA1
330
B9E
100
AcDbEntity
  8
1
100
AcDbText
 10
-133.4422431161853
 20
21.11745296763252
 30
0.0
 40
2.5
  1
X
 41
0.8
  7
SANINDUSA
 72
     4
 11
-132.5
 21
22.36745296763252
 31
0.0
100
AcDbAttributeDefinition
  3
Cod. TESTE:
  2
TESTE
 70
     0
  0
ATTDEF
  5
BA2
330
B9E
100
AcDbEntity
  8
1
100
AcDbText
 10
-124.3844862323707
 20
21.11745296763252
 30
0.0
 40
2.5
  1
XX
 41
0.8
  7
SANINDUSA
 72
     4
 11
-122.5
 21
22.36745296763252
 31
0.0
100
AcDbAttributeDefinition
  3
Cod. Ano:
  2
ANO
 70
     0
  0
ATTDEF
  5
BA3
330
B9E
100
AcDbEntity
  8
1
100
AcDbText
 10
-112.526889953052
 20
21.11745296763252
 30
0.0
 40
2.5
  1
XXX
 41
0.8
  7
SANINDUSA
 72
     4
 11
-109.700160604496
 21
22.36745296763252
 31
0.0
100
AcDbAttributeDefinition
  3
Cod. Sequência:
  2
SEQUENCIA
 70
     0
  0
ATTDEF
  5
BA4
330
B9E
100
AcDbEntity
  8
1
100
AcDbText
 10
-99.35382430979316
 20
21.11745296763252
 30
0.0
 40
2.5
  1
XX
 41
0.8
  7
SANINDUSA
 72
     4
 11
-97.46933807742244
 21
22.36745296763252
 31
0.0
100
AcDbAttributeDefinition
  3
Cod. Tipo:
  2
TIPO
 70
     0
  0
ATTDEF
  5
BA5
330
B9E
100
AcDbEntity
  8
1
100
AcDbText
 10
-87.42035911468438
 20
21.11745296763252
 30
0.0
 40
2.5
  1
XXX
 41
0.8
  7
SANINDUSA
 72
     4
 11
-84.59362976612828
 21
22.36745296763252
 31
0.0
100
AcDbAttributeDefinition
  3
Cod. Produto:
  2
PRODUTO
 70
     0
  0
ATTDEF
  5
BA6
330
B9E
100
AcDbEntity
  8
1
100
AcDbText
 10
-74.62051971917853
 20
21.11745296763252
 30
0.0
 40
2.5
  1
XXX
 41
0.8
  7
SANINDUSA
 72
     4
 11
-71.79379037062244
 21
22.36745296763252
 31
0.0
100
AcDbAttributeDefinition
  3
Cod. Peça:
  2
PECA
 70
     0
  0
ATTDEF
  5
BA7
330
B9E
100
AcDbEntity
  8
1
100
AcDbText
 10
-61.10603446650329
 20
21.11745296763252
 30
0.0
 40
2.5
  1
XX
 41
0.8
  7
SANINDUSA
 72
     4
 11
-59.22154823413257
 21
22.36745296763252
 31
0.0
100
AcDbAttributeDefinition
  3
Cod. Revisão:
  2
REV
 70
     0
  0
ATTDEF
  5
BA8
330
B9E
100
AcDbEntity
  8
1
100
AcDbText
 10
-48.43615325006194
 20
21.11745296763252
 30
0.0
 40
2.5
  1
XX
 41
0.8
  7
SANINDUSA
 72
     4
 11
-46.55166701769121
 21
22.36745296763252
 31
0.0
100
AcDbAttributeDefinition
  3
Cod. Alteração:
  2
ALT
 70
     0
  0
ATTDEF
  5
BA9
330
B9E
100
AcDbEntity
  8
1
100
AcDbText
 10
-35.19086635325722
 20
23.98875083948959
 30
0.0
 40
3.0
  1
1/XXX
 41
0.8
  7
SANINDUSA
 72
     4
 11
-30.0
 21
25.25
 31
0.0
100
AcDbAttributeDefinition
  3
Escala geral:
  2
ESCALA
 70
     0
  0
ATTDEF
  5
BAA
330
B9E
100
AcDbEntity
  8
1
100
AcDbText
 10
-15.65345869711215
 20
23.75
 30
0.0
 40
3.0
  1
XXXXX
 41
0.8
  7
SANINDUSA
 72
     4
 11
-10.0
 21
25.25
 31
0.0
100
AcDbAttributeDefinition
  3
Folha:
  2
FOLHA
 70
     0
  0
ATTDEF
  5
BAB
330
B9E
100
AcDbEntity
  8
1
100
AcDbText
 10
-178.5146998822042
 20
56.9531347542807
 30
0.0
 40
2.0
  1
xx
 41
0.8
  7
SANINDUSA
 72
     4
 11
-177.2123493113513
 21
57.70330265219877
 31
0.0
100
AcDbAttributeDefinition
  3
revisão
  2
REV.
 70
     0
  0
ATTDEF
  5
BAC
330
B9E
100
AcDbEntity
  8
1
100
AcDbText
 10
-172.7849640077129
 20
56.9531347542807
 30
0.0
 40
2.0
  1
xx
 41
0.8
  7
SANINDUSA
 72
     4
 11
-171.48261343686
 21
57.70330265219877
 31
0.0
100
AcDbAttributeDefinition
  3
alteração
  2
ALT.
 70
     0
  0
ATTDEF
  5
BAD
330
B9E
100
AcDbEntity
  8
1
100
AcDbText
 10
-168.007199951307
 20
56.70330265219877
 30
0.0
 40
2.0
  1
xx/xx/xxxx
 41
0.8
  7
SANINDUSA
 11
-168.007199951307
 21
57.70330265219877
 31
0.0
100
AcDbAttributeDefinition
  3
data
  2
DATA
 70
     0
 74
     2
  0
ATTDEF
  5
BAE
330
B9E
100
AcDbEntity
  8
1
100
AcDbText
 10
-168.5396372253371
 20
13.15916722632639
 30
0.0
 40
2.0
  1
XX/XX/XXXX
 41
0.8
  7
SANINDUSA
 72
     4
 11
-161.5099528734231
 21
14.0
 31
0.0
100
AcDbAttributeDefinition
  3
Data projecto
  2
DATA_PROJ
 70
     0
  0
ATTDEF
  5
BAF
330
B9E
100
AcDbEntity
  8
1
100
AcDbText
 10
-150.8658110728766
 20
13.24983210208193
 30
0.0
 40
2.0
  1
xxxxxxxx
 41
0.8
  7
SANINDUSA
 72
     4
 11
-145.6564087894649
 21
14.0
 31
0.0
100
AcDbAttributeDefinition
  3
nome de quem projectou
  2
NOME
 70
     0
  0
ATTDEF
  5
BB0
330
B9E
100
AcDbEntity
  8
1
100
AcDbText
 10
-168.5396372253371
 20
9.159167226326394
 30
0.0
 40
2.0
  1
XX/XX/XXXX
 41
0.8
  7
SANINDUSA
 72
     4
 11
-161.5099528734231
 21
10.0
 31
0.0
100
AcDbAttributeDefinition
  3
Data desenhou
  2
DATA_DES
 70
     0
  0
ATTDEF
  5
BB1
330
B9E
100
AcDbEntity
  8
1
100
AcDbText
 10
-151.516986358303
 20
9.249832102081933
 30
0.0
 40
2.0
  1
xxxxxxxxx
 41
0.8
  7
SANINDUSA
 72
     4
 11
-145.6564087894649
 21
10.0
 31
0.0
100
AcDbAttributeDefinition
  3
nome
  2
NOME
 70
     0
  0
ATTDEF
  5
BB2
330
B9E
100
AcDbEntity
  8
1
100
AcDbText
 10
-127.2924214135946
 20
14.1979876583216
 30
0.0
 40
2.0
  1
Vitreous China
 41
0.8
  7
SANINDUSA
 72
     4
 11
-119.231709526422
 21
15.22216495852308
 31
0.0
100
AcDbAttributeDefinition
  3
Nome do Material:
  2
MATERIAL
 70
     0
  0
ATTDEF
  5
BB3
330
B9E
100
AcDbEntity
  8
1
100
AcDbText
 10
-103.1563452122093
 20
14.38019043949261
 30
0.0
 40
2.0
  1
Branco
 41
0.8
  7
SANINDUSA
 72
     4
 11
-99.33418268702462
 21
15.35937109765245
 31
0.0
100
AcDbAttributeDefinition
  3
cor da peça
  2
COR
 70
     0
  0
ATTDEF
  5
BB4
330
B9E
100
AcDbEntity
  8
1
100
AcDbText
 10
-116.7235057085292
 20
5.975822699798522
 30
0.0
 40
2.0
  1
Vidrado
 41
0.8
  7
SANINDUSA
 72
     4
 11
-112.5
 21
7.0
 31
0.0
100
AcDbAttributeDefinition
  3
Tipo de acabamento:
  2
ACABAMENTO
 70
     0
  0
ATTDEF
  5
BB5
330
B9E
100
AcDbEntity
  8
1
100
AcDbText
 10
-79.18527869967246
 20
16.65066409850533
 30
0.0
 40
2.0
  1
XXXXXXX
 41
0.8
  7
SANINDUSA
 72
     4
 11
-73.90871724903445
 21
17.65066409850533
 31
0.0
100
AcDbAttributeDefinition
  3
Normas
  2
NORMAS
 70
     0
  0
ATTDEF
  5
BB6
330
B9E
100
AcDbEntity
  8
1
100
AcDbText
 10
-30.55312290127603
 20
14.0
 30
0.0
 40
2.0
  1
XXXXXXXXXXXXXX
 41
0.8
  7
SANINDUSA
 72
     4
 11
-20.0
 21
15.0
 31
0.0
100
AcDbAttributeDefinition
  3
Substitui o desenho:
  2
SUBSTITUI
 70
     0
  0
ATTDEF
  5
BB7
330
B9E
100
AcDbEntity
  8
1
100
AcDbText
 10
-31.30691739422431
 20
6.0
 30
0.0
 40
2.0
  1
XXXXXXXXXXXXXXX
 41
0.8
  7
SANINDUSA
 72
     4
 11
-20.0
 21
7.0
 31
0.0
100
AcDbAttributeDefinition
  3
Substituido por:
  2
SUBSTITUIDO
 70
     0
  0
ATTDEF
  5
BB8
330
B9E
100
AcDbEntity
  8
1
100
AcDbText
 10
-110.0220608548302
 20
1.478208457928303
 30
0.0
 40
2.0
  1
XXXXXXXXXXXXXXXXXXXXXXXXXXXXXXXXXX
 41
0.8
  7
SANINDUSA
 11
-110.0220608548302
 21
2.478208457928303
 31
0.0
100
AcDbAttributeDefinition
  3
Localização do desenho:
  2
LOC-DWG
 70
     0
 74
     2
  0
LINE
  5
BB9
330
B9E
100
AcDbEntity
  8
3
100
AcDbLine
 10
-135.0
 20
4.0
 30
0.0
 11
0.0000000000004547
 21
4.0
 31
0.0
  0
LINE
  5
BBA
330
B9E
100
AcDbEntity
  8
3
100
AcDbLine
 10
-90.00000000000046
 20
12.0
 30
0.0
 11
-135.0
 21
12.0
 31
0.0
  0
LINE
  5
BBB
330
B9E
100
AcDbEntity
  8
3
100
AcDbLine
 10
-135.0
 20
32.5
 30
0.0
 11
-40.0
 21
32.5
 31
0.0
  0
TEXT
  5
BBC
330
B9E
100
AcDbEntity
  8
1
100
AcDbText
 10
-134.0
 20
1.25
 30
0.0
 40
2.0
  1
Localização do des.:
 41
0.8
  7
SANINDUSA
 11
-134.0
 21
2.25
 31
0.0
100
AcDbText
 73
     2
  0
LINE
  5
BBD
330
B9E
100
AcDbEntity
  8
3
100
AcDbLine
 10
-180.0
 20
65.0
 30
0.0
 11
0.0
 21
65.0
 31
0.0
  0
LINE
  5
BBE
330
B9E
100
AcDbEntity
  8
leg fin
100
AcDbLine
 10
-40.0
 20
25.05956924886846
 30
0.0
 11
-135.0
 21
25.05956924886846
 31
0.0
  0
LINE
  5
BBF
330
B9E
100
AcDbEntity
  8
leg fin
100
AcDbLine
 10
-40.0
 20
28.5
 30
0.0
 11
-135.0
 21
28.5
 31
0.0
  0
LINE
  5
BC0
330
B9E
100
AcDbEntity
  8
3
100
AcDbLine
 10
-135.0
 20
50.0
 30
0.0
 11
-40.0
 21
50.0
 31
0.0
  0
TEXT
  5
BC1
330
B9E
100
AcDbEntity
  8
1
100
AcDbText
 10
-134.0
 20
29.75
 30
0.0
 40
2.0
  1
Desenho nº:
 41
0.8
  7
SANINDUSA
 11
-134.0
 21
30.75
 31
0.0
100
AcDbText
 73
     2
  0
TEXT
  5
BC2
330
B9E
100
AcDbEntity
  8
1
100
AcDbText
 10
-134.0
 20
9.25
 30
0.0
 40
2.0
  1
Acabamento:
 41
0.8
  7
SANINDUSA
 11
-134.0
 21
10.25
 31
0.0
100
AcDbText
 73
     2
  0
LINE
  5
BC3
330
B9E
100
AcDbEntity
  8
3
100
AcDbLine
 10
-180.0
 20
20.0
 30
0.0
 11
0.0
 21
20.0
 31
0.0
  0
LINE
  5
BC4
330
B9E
100
AcDbEntity
  8
1
100
AcDbLine
 10
-174.5810776056337
 20
55.5
 30
0.0
 11
-174.5810776056337
 21
65.0
 31
0.0
  0
LINE
  5
BC5
330
B9E
100
AcDbEntity
  8
1
100
AcDbLine
 10
-168.9210461879161
 20
55.5
 30
0.0
 11
-168.9210461879161
 21
65.0
 31
0.0
  0
LINE
  5
BC6
330
B9E
100
AcDbEntity
  8
1
100
AcDbLine
 10
-154.0988595589306
 20
55.5
 30
0.0
 11
-154.0988595589306
 21
65.0
 31
0.0
  0
LINE
  5
BC7
330
B9E
100
AcDbEntity
  8
3
100
AcDbLine
 10
-180.0
 20
65.0
 30
0.0
 11
-180.0
 21
0.0
 31
0.0
  0
LINE
  5
BC8
330
B9E
100
AcDbEntity
  8
3
100
AcDbLine
 10
-135.0
 20
0.0
 30
0.0
 11
-135.0
 21
65.0
 31
0.0
  0
TEXT
  5
BC9
330
B9E
100
AcDbEntity
  8
1
100
AcDbText
 10
-179.0
 20
9.75
 30
0.0
 40
1.5
  1
Des.
 41
0.8
  7
SANINDUSA
 11
-179.0
 21
10.5
 31
0.0
100
AcDbText
 73
     2
  0
LINE
  5
BCA
330
B9E
100
AcDbEntity
  8
1
100
AcDbLine
 10
-168.9210461879161
 20
20.0
 30
0.0
 11
-168.9210461879161
 21
0.0
 31
0.0
  0
LINE
  5
BCB
330
B9E
100
AcDbEntity
  8
1
100
AcDbLine
 10
-154.0988595589306
 20
20.0
 30
0.0
 11
-154.0988595589306
 21
0.0
 31
0.0
  0
LINE
  5
BCC
330
B9E
100
AcDbEntity
  8
1
100
AcDbLine
 10
-180.0
 20
4.0
 30
0.0
 11
-135.0
 21
4.0
 31
0.0
  0
LINE
  5
BCD
330
B9E
100
AcDbEntity
  8
1
100
AcDbLine
 10
-180.0
 20
8.0
 30
0.0
 11
-135.0
 21
8.0
 31
0.0
  0
TEXT
  5
BCE
330
B9E
100
AcDbEntity
  8
1
100
AcDbText
 10
-179.0
 20
1.73257823687436
 30
0.0
 40
1.5
  1
Aprov.
 41
0.8
  7
SANINDUSA
 11
-179.0
 21
2.48257823687436
 31
0.0
100
AcDbText
 73
     2
  0
TEXT
  5
BCF
330
B9E
100
AcDbEntity
  8
1
100
AcDbText
 10
-179.0
 20
5.75
 30
0.0
 40
1.5
  1
Ver.
 41
0.8
  7
SANINDUSA
 11
-179.0
 21
6.5
 31
0.0
100
AcDbText
 73
     2
  0
LINE
  5
BD0
330
B9E
100
AcDbEntity
  8
1
100
AcDbLine
 10
-180.0
 20
16.0
 30
0.0
 11
-135.0
 21
16.0
 31
0.0
  0
LINE
  5
BD1
330
B9E
100
AcDbEntity
  8
1
100
AcDbLine
 10
-180.0
 20
12.0
 30
0.0
 11
-135.0
 21
12.0
 31
0.0
  0
TEXT
  5
BD2
330
B9E
100
AcDbEntity
  8
1
100
AcDbText
 10
-179.0
 20
13.75
 30
0.0
 40
1.5
  1
Proj.
 41
0.8
  7
SANINDUSA
 11
-179.0
 21
14.5
 31
0.0
100
AcDbText
 73
     2
  0
TEXT
  5
BD3
330
B9E
100
AcDbEntity
  8
1
100
AcDbText
 10
-167.9210461879161
 20
17.75
 30
0.0
 40
1.5
  1
Data
 41
0.8
  7
SANINDUSA
 11
-167.9210461879161
 21
18.5
 31
0.0
100
AcDbText
 73
     2
  0
TEXT
  5
BD4
330
B9E
100
AcDbEntity
  8
1
100
AcDbText
 10
-153.0988595589306
 20
17.75
 30
0.0
 40
1.5
  1
Nome
 41
0.8
  7
SANINDUSA
 11
-153.0988595589306
 21
18.5
 31
0.0
100
AcDbText
 73
     2
  0
LINE
  5
BD5
330
B9E
100
AcDbEntity
  8
leg fin
100
AcDbLine
 10
-130.0
 20
20.0
 30
0.0
 11
-130.0
 21
28.5
 31
0.0
  0
TEXT
  5
BD6
330
B9E
100
AcDbEntity
  8
1
100
AcDbText
 10
-134.0
 20
17.25
 30
0.0
 40
2.0
  1
Material:
 41
0.8
  7
SANINDUSA
 11
-134.0
 21
18.25
 31
0.0
100
AcDbText
 73
     2
  0
TEXT
  5
BD7
330
B9E
100
AcDbEntity
  8
1
100
AcDbText
 10
-129.0
 20
26.43288406845113
 30
0.0
 40
1.5
  1
Ano:
 41
0.8
  7
SANINDUSA
 11
-129.0
 21
27.18288406845113
 31
0.0
100
AcDbText
 73
     2
  0
LINE
  5
BD8
330
B9E
100
AcDbEntity
  8
1
100
AcDbLine
 10
-180.0
 20
55.5
 30
0.0
 11
-135.0
 21
55.5
 31
0.0
  0
TEXT
  5
BD9
330
B9E
100
AcDbEntity
  8
1
100
AcDbText
 10
-179.0
 20
52.67772246885193
 30
0.0
 40
1.5
  1
descrição
 41
0.8
  7
SANINDUSA
 11
-179.0
 21
53.42772246885193
 31
0.0
100
AcDbText
 73
     2
  0
TEXT
  5
BDA
330
B9E
100
AcDbEntity
  8
1
100
AcDbText
 10
-134.0
 20
47.25
 30
0.0
 40
2.0
  1
Peça:
 41
0.8
  7
SANINDUSA
 11
-134.0
 21
48.25
 31
0.0
100
AcDbText
 73
     2
  0
LINE
  5
BDB
330
B9E
100
AcDbEntity
  8
1
100
AcDbLine
 10
-180.0
 20
59.5
 30
0.0
 11
-135.0
 21
59.5
 31
0.0
  0
TEXT
  5
BDC
330
B9E
100
AcDbEntity
  8
1
100
AcDbText
 10
-173.5810776056337
 20
62.75
 30
0.0
 40
1.5
  1
Alt.
 41
0.8
  7
SANINDUSA
 11
-173.5810776056337
 21
63.5
 31
0.0
100
AcDbText
 73
     2
  0
TEXT
  5
BDD
330
B9E
100
AcDbEntity
  8
1
100
AcDbText
 10
-179.0
 20
62.75
 30
0.0
 40
1.5
  1
Rev.
 41
0.8
  7
SANINDUSA
 11
-179.0
 21
63.5
 31
0.0
100
AcDbText
 73
     2
  0
TEXT
  5
BDE
330
B9E
100
AcDbEntity
  8
1
100
AcDbText
 10
-167.9210461879161
 20
62.75
 30
0.0
 40
1.5
  1
Data
 41
0.8
  7
SANINDUSA
 11
-167.9210461879161
 21
63.5
 31
0.0
100
AcDbText
 73
     2
  0
TEXT
  5
BDF
330
B9E
100
AcDbEntity
  8
1
100
AcDbText
 10
-153.0988595589306
 20
62.75
 30
0.0
 40
1.5
  1
Nome
 41
0.8
  7
SANINDUSA
 11
-153.0988595589306
 21
63.5
 31
0.0
100
AcDbText
 73
     2
  0
TEXT
  5
BE0
330
B9E
100
AcDbEntity
  8
1
100
AcDbText
 10
-134.0
 20
62.25
 30
0.0
 40
2.0
  1
Produto:
 41
0.8
  7
SANINDUSA
 11
-134.0
 21
63.25
 31
0.0
100
AcDbText
 73
     2
  0
LINE
  5
BE1
330
B9E
100
AcDbEntity
  8
3
100
AcDbLine
 10
-40.0
 20
4.0
 30
0.0
 11
-40.0
 21
65.0
 31
0.0
  0
LWPOLYLINE
  5
BE2
102
{ACAD_REACTORS
330
BEC
102
}
330
B9E
100
AcDbEntity
  8
9
100
AcDbPolyline
 90
       12
 70
     1
 43
0.0
 10
-3.038714600644652
 20
58.90010174665076
 10
-5.726962862472191
 20
58.90010174665076
 10
-5.726962862472191
 20
58.5001017466509
 10
-3.038748516195028
 20
58.5001017466509
 42
-0.4142135623731731
 10
-2.638748516194482
 20
58.1001017466508
 10
-2.638748516194482
 20
57.42799728675596
 10
-5.21497371544865
 20
57.42799728675596
 42
0.4142135623731289
 10
-6.014973715448377
 20
56.627997286756
 10
-6.014973715448377
 20
55.92380871629643
 42
0.4142135623731132
 10
-5.21497371544865
 20
55.12380871629648
 10
-2.23871460064447
 20
55.12380871629648
 10
-2.23871460064447
 20
58.10010174665103
 42
0.4142135623730717
  0
LWPOLYLINE
  5
BE3
102
{ACAD_REACTORS
330
BEC
102
}
330
B9E
100
AcDbEntity
  8
9
100
AcDbPolyline
 90
       20
 70
     1
 43
0.0
 10
-10.01531287095122
 20
57.82799728675581
 10
-10.01531287095122
 20
58.10010174665103
 42
-0.4142135623730744
 10
-9.615312870951584
 20
58.5001017466509
 10
-6.92703069357276
 20
58.5001017466509
 10
-6.92703069357276
 20
58.90010174665076
 10
-9.615346786501959
 20
58.90010174665076
 42
0.4142135623730883
 10
-10.41534678650168
 20
58.1001017466508
 10
-10.41534678650168
 20
57.82796337120567
 42
0.4142135623730717
 10
-9.615346786501959
 20
57.02796337120571
 10
-7.423079531965413
 20
57.02796337120571
 42
-0.4142135623730847
 10
-7.023079531965322
 20
56.62796337120562
 10
-7.023079531965322
 20
55.90786840766487
 42
-0.4142135623730744
 10
-7.423079531965413
 20
55.507868407665
 10
-10.41534678650168
 20
55.507868407665
 10
-10.41534678650168
 20
55.12380871629648
 10
-7.445787917283723
 20
55.12380871629648
 42
0.4114777732064574
 10
-6.645822882998345
 20
55.9163291493976
 10
-6.639238813324936
 20
56.62051771985716
 42
0.4169546541682913
 10
-7.439203847610315
 20
57.42799728675596
 10
-9.615312870951584
 20
57.42799728675596
 42
-0.4142135623731576
  0
LWPOLYLINE
  5
BE4
102
{ACAD_REACTORS
330
BEC
102
}
330
B9E
100
AcDbEntity
  8
9
100
AcDbPolyline
 90
       12
 70
     1
 43
0.0
 10
-14.41561811090378
 20
58.90010174665076
 10
-14.79964388672215
 20
58.90010174665076
 10
-14.79964388672215
 20
55.92380871629643
 42
0.4142135623731133
 10
-13.99964388672242
 20
55.12380871629648
 10
-11.8233508563676
 20
55.12380871629648
 42
0.4142135623730872
 10
-11.02335085636741
 20
55.92380871629643
 10
-11.02335085636741
 20
58.90010174665076
 10
-11.42338477191788
 20
58.90010174665076
 10
-11.42338477191788
 20
55.91567577726095
 42
-0.4131711701795318
 10
-11.82196067063523
 20
55.51567831234956
 10
-14.0141940096214
 20
55.50787335710947
 42
-0.4152567234624407
 10
-14.41561811090378
 20
55.90787082202087
  0
LWPOLYLINE
  5
BE5
102
{ACAD_REACTORS
330
BEC
102
}
330
B9E
100
AcDbEntity
  8
9
100
AcDbPolyline
 90
        6
 70
     1
 43
0.0
 10
-15.80771578768872
 20
55.507868407665
 10
-18.39994912667453
 20
55.507868407665
 42
-0.4142135623731731
 10
-18.79994912667462
 20
55.90786840766487
 10
-18.79994912667462
 20
58.10010174665103
 42
-0.4142135623730744
 10
-18.39994912667453
 20
58.5001017466509
 10
-15.80771578768872
 20
58.5001017466509
  0
LWPOLYLINE
  5
BE6
102
{ACAD_REACTORS
330
BEC
102
}
330
B9E
100
AcDbEntity
  8
9
100
AcDbPolyline
 90
        8
 70
     1
 43
0.0
 10
-15.4236900118708
 20
59.87619128370352
 10
-15.80771578768872
 20
59.87619128370352
 10
-15.80771578768872
 20
58.90010174665076
 10
-18.39176256411201
 20
58.90010174665076
 42
0.4131164467977967
 10
-19.19175694739761
 20
58.1030995310698
 10
-19.1999120763262
 20
55.92680650071542
 42
0.4153115297271718
 10
-18.39991769304061
 20
55.12380871629648
 10
-15.4236900118708
 20
55.12380871629648
  0
LWPOLYLINE
  5
BE7
102
{ACAD_REACTORS
330
BEC
102
}
330
B9E
100
AcDbEntity
  8
9
100
AcDbPolyline
 90
       10
 70
     1
 43
0.0
 10
-20.59201288790928
 20
58.90010174665076
 10
-23.56830591826338
 20
58.90010174665076
 10
-23.56830591826338
 20
55.12380871629648
 10
-23.18424622689509
 20
55.12380871629648
 10
-23.18424622689509
 20
58.5001017466509
 10
-20.59204680345965
 20
58.5001017466509
 42
-0.4142135623730898
 10
-20.19204680345956
 20
58.1001017466508
 10
-20.19204680345956
 20
55.12380871629648
 10
-19.79201288790909
 20
55.12380871629648
 10
-19.79201288790909
 20
58.10010174665103
 42
0.4142135623731132
  0
LWPOLYLINE
  5
BE8
102
{ACAD_REACTORS
330
BEC
102
}
330
B9E
100
AcDbEntity
  8
9
100
AcDbPolyline
 90
        4
 70
     1
 43
0.0
 10
-24.19231812786165
 20
58.90010174665076
 10
-24.57637781922995
 20
58.90010174665076
 10
-24.57637781922995
 20
55.12380871629648
 10
-24.19231812786165
 20
55.12380871629648
  0
LWPOLYLINE
  5
BE9
102
{ACAD_REACTORS
330
BEC
102
}
330
B9E
100
AcDbEntity
  8
9
100
AcDbPolyline
 90
       10
 70
     1
 43
0.0
 10
-28.57661522808212
 20
58.5001017466509
 10
-25.98444972019706
 20
58.5001017466509
 42
-0.4142135623731731
 10
-25.58444972019652
 20
58.1001017466508
 10
-25.58444972019652
 20
55.12380871629648
 10
-25.2004239443786
 20
55.12380871629648
 10
-25.2004239443786
 20
58.10010174665103
 42
0.4142135623730717
 10
-26.00042394437833
 20
58.90010174665076
 10
-28.97664914363259
 20
58.90010174665076
 10
-28.97664914363259
 20
55.12380871629648
 10
-28.57661522808212
 20
55.12380871629648
  0
LWPOLYLINE
  5
BEA
102
{ACAD_REACTORS
330
BEC
102
}
330
B9E
100
AcDbEntity
  8
9
100
AcDbPolyline
 90
       12
 70
     1
 43
0.0
 10
-29.58465321349832
 20
58.10010174665103
 42
0.4142135623730716
 10
-30.3846532134985
 20
58.90010174665076
 10
-33.07296930642724
 20
58.90010174665076
 10
-33.07296930642724
 20
58.5001017466509
 10
-30.38468712904842
 20
58.5001017466509
 42
-0.4142135623730067
 10
-29.98468712904878
 20
58.1001017466508
 10
-29.98468712904878
 20
57.42799728675618
 10
-32.56098015940324
 20
57.42799728675596
 42
0.4142135623731289
 10
-33.36098015940343
 20
56.627997286756
 10
-33.36098015940343
 20
55.92380871629643
 42
0.4142135623731132
 10
-32.56098015940324
 20
55.12380871629648
 10
-29.58465321349832
 20
55.12380871629648
  0
LWPOLYLINE
  5
BEB
102
{ACAD_REACTORS
330
BEC
102
}
330
B9E
100
AcDbEntity
  8
9
100
AcDbPolyline
 90
       20
 70
     1
 43
0.0
 10
-34.7850262845518
 20
57.42799728675596
 10
-36.96125148380543
 20
57.42799728675596
 42
-0.4142135623730898
 10
-37.36125148380552
 20
57.82799728675604
 10
-37.36125148380552
 20
58.10010174665103
 42
-0.4142135623730744
 10
-36.96125148380543
 20
58.5001017466509
 10
-34.27303713752781
 20
58.50010174665067
 10
-34.27303713752781
 20
58.90010174665076
 10
-36.96128539935535
 20
58.90010174665076
 42
0.4142135623731289
 10
-37.76128539935553
 20
58.1001017466508
 10
-37.76128539935553
 20
57.82796337120567
 42
0.4142135623730716
 10
-36.9612853993558
 20
57.02796337120571
 10
-34.76901814481926
 20
57.02796337120571
 42
-0.414213562373168
 10
-34.36901814481962
 20
56.62796337120562
 10
-34.36901814481962
 20
55.90786840766487
 42
-0.4142135623730744
 10
-34.76901814481926
 20
55.507868407665
 10
-37.76128539935553
 20
55.507868407665
 10
-37.76128539935553
 20
55.12380871629648
 10
-34.7850262845518
 20
55.12380871629648
 42
0.4142135623731289
 10
-33.98502628455162
 20
55.92380871629643
 10
-33.98502628455162
 20
56.627997286756
 42
0.4142135623731132
  0
HATCH
  5
BEC
330
B9E
100
AcDbEntity
  8
9
100
AcDbHatch
 10
0.0
 20
0.0
 30
0.0
210
0.0
220
0.0
230
1.0
  2
SOLID
 70
     1
 71
     1
 91
       13
 92
        7
 72
     1
 73
     1
 93
       20
 10
-34.36901814481962
 20
55.90786840766487
 42
-0.414213562372991
 10
-34.76901814481926
 20
55.507868407665
 42
0.0
 10
-37.76128539935553
 20
55.507868407665
 42
0.0
 10
-37.76128539935553
 20
55.12380871629648
 42
0.0
 10
-34.7850262845518
 20
55.12380871629648
 42
0.4142135623731705
 10
-33.98502628455162
 20
55.92380871629666
 42
0.0
 10
-33.98502628455162
 20
56.627997286756
 42
0.4142135623731547
 10
-34.7850262845518
 20
57.42799728675596
 42
0.0
 10
-36.96125148380543
 20
57.42799728675596
 42
-0.4142135623730898
 10
-37.36125148380552
 20
57.82799728675604
 42
0.0
 10
-37.36125148380552
 20
58.1001017466508
 42
-0.4142135623731575
 10
-36.96125148380543
 20
58.5001017466509
 42
0.0
 10
-34.27303713752781
 20
58.50010174665067
 42
0.0
 10
-34.27303713752781
 20
58.90010174665076
 42
0.0
 10
-36.96128539935535
 20
58.90010174665076
 42
0.4142135623731705
 10
-37.76128539935553
 20
58.10010174665058
 42
0.0
 10
-37.76128539935553
 20
57.82796337120544
 42
0.4142135623730299
 10
-36.9612853993558
 20
57.02796337120571
 42
0.0
 10
-34.76901814481926
 20
57.02796337120571
 42
-0.4142135623730015
 10
-34.36901814481962
 20
56.62796337120608
 42
0.0
 97
        1
330
BEB
 92
        7
 72
     1
 73
     1
 93
       12
 10
-33.36098015940343
 20
55.92380871629666
 42
0.4142135623731547
 10
-32.56098015940324
 20
55.12380871629648
 42
0.0
 10
-29.58465321349877
 20
55.12380871629648
 42
0.0
 10
-29.58465321349832
 20
58.10010174665058
 42
0.4142135623731964
 10
-30.3846532134985
 20
58.90010174665076
 42
0.0
 10
-33.07296930642724
 20
58.90010174665076
 42
0.0
 10
-33.07296930642724
 20
58.50010174665067
 42
0.0
 10
-30.38468712904887
 20
58.5001017466509
 42
-0.4142135623732564
 10
-29.98468712904878
 20
58.10010174665103
 42
0.0
 10
-29.98468712904923
 20
57.42799728675596
 42
0.0
 10
-32.56098015940324
 20
57.42799728675596
 42
0.4142135623731705
 10
-33.36098015940343
 20
56.627997286756
 42
0.0
 97
        1
330
BEA
 92
       22
 72
     1
 73
     1
 93
        6
 10
-32.97692046803468
 20
56.62796337120562
 42
-0.4142135623731576
 10
-32.57692046803459
 20
57.02796337120571
 42
0.0
 10
-29.98468712904878
 20
57.02796337120571
 42
0.0
 10
-29.98468712904878
 20
55.507868407665
 42
0.0
 10
-32.57692046803459
 20
55.507868407665
 42
-0.4142135623731731
 10
-32.97692046803468
 20
55.90786840766487
 42
0.0
 97
        1
330
C11
 92
        7
 72
     1
 73
     1
 93
       10
 10
-28.57661522808212
 20
58.5001017466509
 42
0.0
 10
-25.98444972019661
 20
58.5001017466509
 42
-0.4142135623730067
 10
-25.58444972019652
 20
58.10010174665058
 42
0.0
 10
-25.58444972019606
 20
55.12380871629648
 42
0.0
 10
-25.20042394437906
 20
55.12380871629648
 42
0.0
 10
-25.2004239443786
 20
58.1001017466508
 42
0.4142135623731134
 10
-26.00042394437833
 20
58.90010174665076
 42
0.0
 10
-28.97664914363259
 20
58.90010174665076
 42
0.0
 10
-28.97664914363259
 20
55.12380871629648
 42
0.0
 10
-28.57661522808212
 20
55.12380871629648
 42
0.0
 97
        1
330
BE9
 92
        7
 72
     0
 73
     1
 93
        4
 10
-24.57637781922995
 20
55.12380871629648
 10
-24.19231812786165
 20
55.12380871629648
 10
-24.19231812786165
 20
58.90010174665076
 10
-24.57637781922995
 20
58.90010174665076
 97
        1
330
BE8
 92
        7
 72
     0
 73
     1
 93
        4
 10
-24.19231812786165
 20
59.87619128370352
 10
-24.5763778192304
 20
59.87619128370352
 10
-24.5763778192304
 20
59.28412752246913
 10
-24.1923181278612
 20
59.28412752246913
 97
        1
330
C12
 92
        7
 72
     1
 73
     1
 93
       10
 10
-23.18424622689509
 20
58.5001017466509
 42
0.0
 10
-20.59204680345965
 20
58.5001017466509
 42
-0.4142135623730898
 10
-20.19204680345956
 20
58.1001017466508
 42
0.0
 10
-20.19204680345956
 20
55.12380871629648
 42
0.0
 10
-19.79201288790909
 20
55.12380871629648
 42
0.0
 10
-19.79201288790909
 20
58.1001017466508
 42
0.4142135623731547
 10
-20.59201288790928
 20
58.90010174665076
 42
0.0
 10
-23.56830591826338
 20
58.90010174665076
 42
0.0
 10
-23.56830591826338
 20
55.12380871629648
 42
0.0
 10
-23.18424622689463
 20
55.12380871629648
 42
0.0
 97
        1
330
BE7
 92
        7
 72
     1
 73
     1
 93
        8
 10
-19.1999120763262
 20
55.92680650071542
 42
0.4153115297271299
 10
-18.39991769304061
 20
55.12380871629648
 42
0.0
 10
-15.4236900118708
 20
55.12380871629648
 42
0.0
 10
-15.4236900118708
 20
59.87619128370352
 42
0.0
 10
-15.80771578768872
 20
59.87619128370352
 42
0.0
 10
-15.80771578768872
 20
58.90010174665076
 42
0.0
 10
-18.39176256411201
 20
58.90010174665076
 42
0.4131164467977965
 10
-19.19175694739761
 20
58.1030995310698
 42
0.0
 97
        1
330
BE6
 92
       22
 72
     1
 73
     1
 93
        6
 10
-18.79994912667462
 20
58.1001017466508
 42
-0.4142135623731575
 10
-18.39994912667453
 20
58.5001017466509
 42
0.0
 10
-15.80771578768872
 20
58.50010174665067
 42
0.0
 10
-15.80771578768827
 20
55.507868407665
 42
0.0
 10
-18.39994912667453
 20
55.507868407665
 42
-0.4142135623731731
 10
-18.79994912667462
 20
55.90786840766487
 42
0.0
 97
        1
330
BE5
 92
        7
 72
     1
 73
     1
 93
       12
 10
-14.79964388672215
 20
55.92380871629621
 42
0.4142135623729885
 10
-13.99964388672242
 20
55.12380871629648
 42
0.0
 10
-11.8233508563676
 20
55.12380871629648
 42
0.4142135623731289
 10
-11.02335085636741
 20
55.92380871629666
 42
0.0
 10
-11.02335085636741
 20
58.90010174665076
 42
0.0
 10
-11.42338477191788
 20
58.90010174665076
 42
0.0
 10
-11.42338477191788
 20
55.91567577726095
 42
-0.4131711701795319
 10
-11.82196067063523
 20
55.51567831234956
 42
0.0
 10
-14.01419400962095
 20
55.50787335710947
 42
-0.4152567234626918
 10
-14.41561811090378
 20
55.90787082202087
 42
0.0
 10
-14.41561811090378
 20
58.90010174665076
 42
0.0
 10
-14.7996438867226
 20
58.90010174665076
 42
0.0
 97
        1
330
BE4
 92
        7
 72
     1
 73
     1
 93
       20
 10
-7.423079531965413
 20
57.02796337120571
 42
-0.414213562373168
 10
-7.023079531965322
 20
56.62796337120562
 42
0.0
 10
-7.023079531965322
 20
55.90786840766487
 42
-0.4142135623731575
 10
-7.423079531965413
 20
55.507868407665
 42
0.0
 10
-10.41534678650168
 20
55.507868407665
 42
0.0
 10
-10.41534678650168
 20
55.12380871629648
 42
0.0
 10
-7.445787917283723
 20
55.12380871629648
 42
0.4114777732065809
 10
-6.645822882998345
 20
55.91632914939783
 42
0.0
 10
-6.639238813324936
 20
56.62051771985716
 42
0.4169546541682913
 10
-7.439203847610315
 20
57.42799728675596
 42
0.0
 10
-9.615312870951584
 20
57.42799728675596
 42
-0.4142135623729911
 10
-10.01531287095122
 20
57.82799728675581
 42
0.0
 10
-10.01531287095122
 20
58.10010174665103
 42
-0.414213562372991
 10
-9.615312870951584
 20
58.5001017466509
 42
0.0
 10
-6.92703069357276
 20
58.50010174665067
 42
0.0
 10
-6.927030693572305
 20
58.90010174665076
 42
0.0
 10
-9.615346786501959
 20
58.90010174665076
 42
0.4142135623730467
 10
-10.41534678650168
 20
58.10010174665103
 42
0.0
 10
-10.41534678650168
 20
57.82796337120544
 42
0.4142135623730301
 10
-9.615346786501959
 20
57.02796337120571
 42
0.0
 97
        1
330
BE3
 92
        7
 72
     1
 73
     1
 93
       12
 10
-5.21497371544865
 20
57.42799728675596
 42
0.4142135623730871
 10
-6.014973715448377
 20
56.627997286756
 42
0.0
 10
-6.014973715448377
 20
55.92380871629621
 42
0.4142135623730715
 10
-5.21497371544865
 20
55.12380871629648
 42
0.0
 10
-2.23871460064447
 20
55.12380871629648
 42
0.0
 10
-2.23871460064447
 20
58.10010174665058
 42
0.414213562373155
 10
-3.038714600644652
 20
58.90010174665076
 42
0.0
 10
-5.726962862471737
 20
58.90010174665076
 42
0.0
 10
-5.726962862472191
 20
58.5001017466509
 42
0.0
 10
-3.038748516194573
 20
58.5001017466509
 42
-0.4142135623730067
 10
-2.638748516194482
 20
58.10010174665058
 42
0.0
 10
-2.638748516194482
 20
57.42799728675596
 42
0.0
 97
        1
330
BE2
 92
       22
 72
     1
 73
     1
 93
        6
 10
-2.638748516194937
 20
57.02796337120571
 42
0.0
 10
-2.638748516194482
 20
55.50786840766477
 42
0.0
 10
-5.21497371544865
 20
55.507868407665
 42
-0.4142135623731731
 10
-5.614973715448741
 20
55.90786840766509
 42
0.0
 10
-5.614973715448741
 20
56.62796337120562
 42
-0.4142135623731576
 10
-5.21497371544865
 20
57.02796337120571
 42
0.0
 97
        1
330
C0D
 75
     0
 76
     1
 47
0.0407044778999864
 98
       13
 10
-34.18710075113677
 20
56.16907953933765
 10
-33.12851374392494
 20
56.49471602641233
 10
-33.12851374392494
 20
56.49471602641233
 10
-28.77202873835904
 20
57.51232930166111
 10
-24.41554807250941
 20
57.91937341678636
 10
-24.41554807250941
 20
59.384734621186
 10
-23.31624584658039
 20
58.3264175319116
 10
-19.04119127844888
 20
57.75655517324913
 10
-19.04119127844888
 20
57.75655517324913
 10
-14.64399105416578
 20
57.43091868617466
 10
-8.048195057457178
 20
57.22739662861204
 10
-4.017427461911665
 20
57.18669281458665
 10
-4.017427461911665
 20
57.18669281458665
  0
TEXT
  5
BED
330
B9E
100
AcDbEntity
  8
leg fin
100
AcDbText
 10
3.391127401597259
 20
2.107634911895729
 30
0.0
 40
1.5
  1
Este desenho é propriedade da Sanindusa, S.A., e não pode ser copiado nem divulgado sem nossa autorização.
 50
90.0
 41
0.8
  7
SANINDUSA
100
AcDbText
  0
LINE
  5
BEE
330
B9E
100
AcDbEntity
  8
3
100
AcDbLine
 10
-90.0
 20
4.0
 30
0.0
 11
-90.0
 21
12.0
 31
0.0
  0
TEXT
  5
BEF
330
B9E
100
AcDbEntity
  8
1
100
AcDbText
 10
-39.0
 20
9.25
 30
0.0
 40
2.0
  1
Substituido por:
 41
0.8
  7
SANINDUSA
 11
-39.0
 21
10.25
 31
0.0
100
AcDbText
 73
     2
  0
POINT
  5
BF0
330
B9E
100
AcDbEntity
  8
SANINDUSA
100
AcDbPoint
 10
0.0
 20
0.0
 30
0.0
  0
TEXT
  5
BF1
330
B9E
100
AcDbEntity
  8
1
100
AcDbText
 10
-89.0
 20
16.74927010445663
 30
0.0
 40
2.0
  1
Normas:
 41
0.8
  7
SANINDUSA
 11
-89.0
 21
17.74927010445663
 31
0.0
100
AcDbText
 73
     2
  0
LINE
  5
BF2
330
B9E
100
AcDbEntity
  8
3
100
AcDbLine
 10
-90.0
 20
12.0
 30
0.0
 11
-90.0
 21
20.0
 31
0.0
  0
LINE
  5
BF3
330
B9E
100
AcDbEntity
  8
3
100
AcDbLine
 10
-110.546019464768
 20
12.0
 30
0.0
 11
-110.546019464768
 21
20.0
 31
0.0
  0
TEXT
  5
BF4
330
B9E
100
AcDbEntity
  8
1
100
AcDbText
 10
-109.6177520618648
 20
17.25
 30
0.0
 40
2.0
  1
Cor:
 41
0.8
  7
SANINDUSA
 11
-109.6177520618648
 21
18.25
 31
0.0
100
AcDbText
 73
     2
  0
LINE
  5
BF5
330
B9E
100
AcDbEntity
  8
leg fin
100
AcDbLine
 10
-91.42857142857156
 20
20.0
 30
0.0
 11
-91.42857142857156
 21
28.5
 31
0.0
  0
LINE
  5
BF6
330
B9E
100
AcDbEntity
  8
leg fin
100
AcDbLine
 10
-104.2857142857142
 20
20.0
 30
0.0
 11
-104.2857142857142
 21
28.5
 31
0.0
  0
LINE
  5
BF7
330
B9E
100
AcDbEntity
  8
leg fin
100
AcDbLine
 10
-117.1428571428573
 20
20.0
 30
0.0
 11
-117.1428571428573
 21
28.5
 31
0.0
  0
POINT
  5
BF8
330
B9E
100
AcDbEntity
  8
SANINDUSA
100
AcDbPoint
 10
-117.1428571428573
 20
28.5
 30
0.0
  0
POINT
  5
BF9
330
B9E
100
AcDbEntity
  8
SANINDUSA
100
AcDbPoint
 10
-104.2857142857142
 20
28.5
 30
0.0
  0
POINT
  5
BFA
330
B9E
100
AcDbEntity
  8
SANINDUSA
100
AcDbPoint
 10
-91.42857142857156
 20
28.5
 30
0.0
  0
TEXT
  5
BFB
330
B9E
100
AcDbEntity
  8
1
100
AcDbText
 10
-116.200160604496
 20
26.43288406845113
 30
0.0
 40
1.5
  1
Nº Seq.:
 41
0.8
  7
SANINDUSA
 11
-116.200160604496
 21
27.18288406845113
 31
0.0
100
AcDbText
 73
     2
  0
TEXT
  5
BFC
330
B9E
100
AcDbEntity
  8
1
100
AcDbText
 10
-103.2106584078738
 20
26.43288406845113
 30
0.0
 40
1.5
  1
Tipo:
 41
0.8
  7
SANINDUSA
 11
-103.2106584078738
 21
27.18288406845113
 31
0.0
100
AcDbText
 73
     2
  0
TEXT
  5
BFD
330
B9E
100
AcDbEntity
  8
1
100
AcDbText
 10
-90.22114672289353
 20
26.43288406845113
 30
0.0
 40
1.5
  1
Prod.:
 41
0.8
  7
SANINDUSA
 11
-90.22114672289353
 21
27.18288406845113
 31
0.0
100
AcDbText
 73
     2
  0
TEXT
  5
BFE
330
B9E
100
AcDbEntity
  8
1
100
AcDbText
 10
-64.77320576346574
 20
26.43288406845113
 30
0.0
 40
1.5
  1
Rev.:
 41
0.8
  7
SANINDUSA
 11
-64.77320576346574
 21
27.18288406845113
 31
0.0
100
AcDbText
 73
     2
  0
LINE
  5
BFF
330
B9E
100
AcDbEntity
  8
leg fin
100
AcDbLine
 10
-52.85714285714266
 20
20.0
 30
0.0
 11
-52.85714285714266
 21
28.5
 31
0.0
  0
LINE
  5
C00
330
B9E
100
AcDbEntity
  8
leg fin
100
AcDbLine
 10
-65.71428571428578
 20
20.0
 30
0.0
 11
-65.71428571428578
 21
28.5
 31
0.0
  0
LINE
  5
C01
330
B9E
100
AcDbEntity
  8
leg fin
100
AcDbLine
 10
-78.57142857142844
 20
20.0
 30
0.0
 11
-78.57142857142844
 21
28.5
 31
0.0
  0
POINT
  5
C02
330
B9E
100
AcDbEntity
  8
SANINDUSA
100
AcDbPoint
 10
-78.57142857142844
 20
28.5
 30
0.0
  0
POINT
  5
C03
330
B9E
100
AcDbEntity
  8
SANINDUSA
100
AcDbPoint
 10
-65.71428571428578
 20
28.5
 30
0.0
  0
POINT
  5
C04
330
B9E
100
AcDbEntity
  8
SANINDUSA
100
AcDbPoint
 10
-52.85714285714266
 20
28.5
 30
0.0
  0
TEXT
  5
C05
330
B9E
100
AcDbEntity
  8
1
100
AcDbText
 10
-77.61097961686573
 20
26.43288406845113
 30
0.0
 40
1.5
  1
Peça:
 41
0.8
  7
SANINDUSA
 11
-77.61097961686573
 21
27.18288406845113
 31
0.0
100
AcDbText
 73
     2
  0
TEXT
  5
C06
330
B9E
100
AcDbEntity
  8
1
100
AcDbText
 10
-52.06538060077036
 20
26.43288406845113
 30
0.0
 40
1.5
  1
Alt.:
 41
0.8
  7
SANINDUSA
 11
-52.06538060077036
 21
27.18288406845113
 31
0.0
100
AcDbText
 73
     2
  0
LINE
  5
C07
330
B9E
100
AcDbEntity
  8
3
100
AcDbLine
 10
0.0
 20
12.0
 30
0.0
 11
-40.0
 21
12.0
 31
0.0
  0
LINE
  5
C08
330
B9E
100
AcDbEntity
  8
3
100
AcDbLine
 10
-40.0
 20
32.5
 30
0.0
 11
0.0
 21
32.5
 31
0.0
  0
TEXT
  5
C09
330
B9E
100
AcDbEntity
  8
1
100
AcDbText
 10
-19.0
 20
29.75
 30
0.0
 40
2.0
  1
Folha:
 41
0.8
  7
SANINDUSA
 11
-19.0
 21
30.75
 31
0.0
100
AcDbText
 73
     2
  0
LINE
  5
C0A
330
B9E
100
AcDbEntity
  8
3
100
AcDbLine
 10
-20.0
 20
32.5
 30
0.0
 11
-20.0
 21
20.0
 31
0.0
  0
TEXT
  5
C0B
330
B9E
100
AcDbEntity
  8
1
100
AcDbText
 10
-39.0
 20
29.75
 30
0.0
 40
2.0
  1
Escala:
 41
0.8
  7
SANINDUSA
 11
-39.0
 21
30.75
 31
0.0
100
AcDbText
 73
     2
  0
TEXT
  5
C0C
330
B9E
100
AcDbEntity
  8
1
100
AcDbText
 10
-39.0
 20
17.25
 30
0.0
 40
2.0
  1
Substitui:
 41
0.8
  7
SANINDUSA
 11
-39.0
 21
18.25
 31
0.0
100
AcDbText
 73
     2
  0
LWPOLYLINE
  5
C0D
102
{ACAD_REACTORS
330
BEC
102
}
330
B9E
100
AcDbEntity
  8
9
100
AcDbPolyline
 90
        6
 70
     1
 43
0.0
 10
-2.638748516194482
 20
57.02796337120571
 10
-2.638748516194482
 20
55.50786840766477
 10
-5.21497371544865
 20
55.507868407665
 42
-0.4142135623730898
 10
-5.614973715448741
 20
55.90786840766487
 10
-5.614973715448741
 20
56.62796337120562
 42
-0.4142135623731576
 10
-5.21497371544865
 20
57.02796337120571
  0
LINE
  5
C0E
330
B9E
100
AcDbEntity
  8
3
100
AcDbLine
 10
-40.0
 20
50.0
 30
0.0
 11
0.0
 21
50.0
 31
0.0
  0
ATTDEF
  5
C0F
330
B9E
100
AcDbEntity
  8
1
100
AcDbText
 10
-31.30691739422431
 20
40.25
 30
0.0
 40
2.0
  1
XXXXXXXXXXXXXXX
 41
0.8
  7
SANINDUSA
 72
     4
 11
-20.0
 21
41.25
 31
0.0
100
AcDbAttributeDefinition
  3
Observações:
  2
OBS
 70
     0
  0
TEXT
  5
C10
330
B9E
100
AcDbEntity
  8
1
100
AcDbText
 10
-39.0
 20
47.25
 30
0.0
 40
2.0
  1
Observações:
 41
0.8
  7
SANINDUSA
 11
-39.0
 21
48.25
 31
0.0
100
AcDbText
 73
     2
  0
LWPOLYLINE
  5
C11
102
{ACAD_REACTORS
330
BEC
102
}
330
B9E
100
AcDbEntity
  8
9
100
AcDbPolyline
 90
        6
 70
     1
 43
0.0
 10
-29.98468712904878
 20
57.02796337120571
 10
-29.98468712904878
 20
55.507868407665
 10
-32.57692046803459
 20
55.507868407665
 42
-0.4142135623731731
 10
-32.97692046803468
 20
55.90786840766487
 10
-32.97692046803468
 20
56.62796337120562
 42
-0.4142135623731576
 10
-32.57692046803459
 20
57.02796337120571
  0
LWPOLYLINE
  5
C12
102
{ACAD_REACTORS
330
BEC
102
}
330
B9E
100
AcDbEntity
  8
9
100
AcDbPolyline
 90
        4
 70
     1
 43
0.0
 10
-24.19231812786165
 20
59.87619128370352
 10
-24.57637781922995
 20
59.87619128370352
 10
-24.57637781922995
 20
59.28412752246913
 10
-24.19231812786165
 20
59.28412752246913
  0
ENDBLK
  5
C14
330
B9E
100
AcDbEntity
  8
0
100
AcDbBlockEnd
  0
BLOCK
  5
1ACC
330
1ACB
100
AcDbEntity
  8
0
100
AcDbBlockBegin
  2
*D9
 70
     1
 10
0.0
 20
0.0
 30
0.0
  3
*D9
  1

  0
LINE
  5
1AD4
330
1ACB
100
AcDbEntity
  8
cotas
100
AcDbLine
 10
3453.693867832363
 20
2674.488380258054
 30
0.0
 11
3459.778698927505
 21
2681.076829265674
 31
0.0
  0
MTEXT
  5
1AD5
330
1ACB
100
AcDbEntity
  8
cotas
100
AcDbMText
 10
3454.586091909933
 20
2678.40720043241
 30
0.0
 40
2.0
 41
0.0
 71
     5
 72
     1
  1
R17
  7
SANINDUSA
 11
0.6784718811342084
 21
0.7346263720492266
 31
0.0
 73
     1
 44
1.0
1001
ACAD
1000
MTEXTBEGIN
1070
    73
1070
     1
1070
    44
1040
1.0
1070
    74
1070
     0
1000
MTEXTEND
  0
SOLID
  5
1AD6
330
1ACB
100
AcDbEntity
  8
cotas
100
AcDbTrace
 10
3459.533823470155
 20
2681.302986559385
 30
0.0
 11
3460.023574384855
 21
2680.850671971962
 31
0.0
 12
3461.135642689774
 22
2682.546082009772
 32
0.0
 13
3461.135642689774
 23
2682.546082009772
 33
0.0
  0
POINT
  5
1AD7
330
1ACB
100
AcDbEntity
  8
Defpoints
 62
     0
100
AcDbPoint
 10
3461.135642689774
 20
2682.546082009772
 30
0.0
  0
POINT
  5
1AD8
330
1ACB
100
AcDbEntity
  8
Defpoints
 62
     0
100
AcDbPoint
 10
3449.57713398772
 20
2670.030920290919
 30
0.0
  0
ENDBLK
  5
1ACD
330
1ACB
100
AcDbEntity
  8
0
100
AcDbBlockEnd
  0
BLOCK
  5
1ADC
330
1ADB
100
AcDbEntity
  8
0
100
AcDbBlockBegin
  2
*D10
 70
     1
 10
0.0
 20
0.0
 30
0.0
  3
*D10
  1

  0
LINE
  5
1AE6
330
1ADB
100
AcDbEntity
  8
cotas
100
AcDbLine
 10
3477.440057965713
 20
2673.301258466723
 30
0.0
 11
3468.47855297675
 21
2672.166502536983
 31
0.0
  0
MTEXT
  5
1AE7
330
1ADB
100
AcDbEntity
  8
cotas
100
AcDbMText
 10
3473.739820092138
 20
2674.873054271586
 30
0.0
 40
2.0
 41
0.0
 71
     5
 72
     1
  1
R15
  7
SANINDUSA
 11
0.9920781175122995
 21
0.1256224850623968
 31
0.0
 73
     1
 44
1.0
1001
ACAD
1000
MTEXTBEGIN
1070
    73
1070
     1
1070
    44
1040
1.0
1070
    74
1070
     0
1000
MTEXTEND
  0
LINE
  5
1AE8
330
1ADB
100
AcDbEntity
  8
cotas
100
AcDbLine
 10
3451.613224979051
 20
2670.030920290924
 30
0.0
 11
3466.494396741726
 21
2671.915257566858
 31
0.0
  0
SOLID
  5
1AE9
330
1ADB
100
AcDbEntity
  8
cotas
100
AcDbTrace
 10
3468.436678815063
 20
2672.497195242821
 30
0.0
 11
3468.520427138438
 21
2671.835809831146
 31
0.0
 12
3466.494396741726
 22
2671.915257566858
 32
0.0
 13
3466.494396741726
 23
2671.915257566858
 33
0.0
  0
ARC
  5
1AEA
330
1ADB
100
AcDbEntity
  8
cotas
100
AcDbCircle
 10
3451.613224979051
 20
2670.030920290924
 30
0.0
 40
14.99999999999045
100
AcDbArc
 50
3.396986284572046
 51
28.09049453750489
  0
POINT
  5
1AEB
330
1ADB
100
AcDbEntity
  8
Defpoints
 62
     0
100
AcDbPoint
 10
3466.494396741726
 20
2671.915257566858
 30
0.0
  0
POINT
  5
1AEC
330
1ADB
100
AcDbEntity
  8
Defpoints
 62
     0
100
AcDbPoint
 10
3451.613224979051
 20
2670.030920290924
 30
0.0
  0
ENDBLK
  5
1ADD
330
1ADB
100
AcDbEntity
  8
0
100
AcDbBlockEnd
  0
BLOCK
  5
1AF0
330
1AEF
100
AcDbEntity
  8
0
100
AcDbBlockBegin
  2
*D11
 70
     1
 10
0.0
 20
0.0
 30
0.0
  3
*D11
  1

  0
LINE
  5
1AFC
330
1AEF
100
AcDbEntity
  8
cotas
100
AcDbLine
 10
2540.898647087324
 20
2998.5309211119
 30
0.0
 11
2540.898647087324
 21
3051.331334669242
 31
0.0
  0
LINE
  5
1AFD
330
1AEF
100
AcDbEntity
  8
cotas
100
AcDbLine
 10
3147.898640411604
 20
2998.5309211119
 30
0.0
 11
3147.898640411604
 21
3051.331334669242
 31
0.0
  0
LINE
  5
1AFE
330
1AEF
100
AcDbEntity
  8
cotas
100
AcDbLine
 10
2542.898647087324
 20
3050.331334669242
 30
0.0
 11
3145.898640411604
 21
3050.331334669242
 31
0.0
  0
SOLID
  5
1AFF
330
1AEF
100
AcDbEntity
  8
cotas
100
AcDbTrace
 10
2542.898647087324
 20
3050.664668002576
 30
0.0
 11
2542.898647087324
 21
3049.998001335909
 31
0.0
 12
2540.898647087324
 22
3050.331334669242
 32
0.0
 13
2540.898647087324
 23
3050.331334669242
 33
0.0
  0
SOLID
  5
1B00
330
1AEF
100
AcDbEntity
  8
cotas
100
AcDbTrace
 10
3145.898640411604
 20
3050.664668002576
 30
0.0
 11
3145.898640411604
 21
3049.998001335909
 31
0.0
 12
3147.898640411604
 22
3050.331334669242
 32
0.0
 13
3147.898640411604
 23
3050.331334669242
 33
0.0
  0
MTEXT
  5
1B01
330
1AEF
100
AcDbEntity
  8
cotas
100
AcDbMText
 10
2844.398643749464
 20
3052.37230176125
 30
0.0
 40
2.0
 41
0.0
 71
     5
 72
     1
  1
607
  7
SANINDUSA
 73
     1
 44
1.0
1001
ACAD
1000
MTEXTBEGIN
1070
    73
1070
     1
1070
    44
1040
1.0
1070
    74
1070
     0
1000
MTEXTEND
  0
POINT
  5
1B02
330
1AEF
100
AcDbEntity
  8
Defpoints
 62
     0
100
AcDbPoint
 10
2540.898647087324
 20
2997.5309211119
 30
0.0
  0
POINT
  5
1B03
330
1AEF
100
AcDbEntity
  8
Defpoints
 62
     0
100
AcDbPoint
 10
3147.898640411604
 20
2997.5309211119
 30
0.0
  0
POINT
  5
1B04
330
1AEF
100
AcDbEntity
  8
Defpoints
 62
     0
100
AcDbPoint
 10
3147.898640411604
 20
3050.331334669242
 30
0.0
  0
ENDBLK
  5
1AF1
330
1AEF
100
AcDbEntity
  8
0
100
AcDbBlockEnd
  0
ENDSEC
  0
SECTION
  2
ENTITIES
  0
ARC
  5
187E
330
1F
100
AcDbEntity
  8
SANINDUSA
100
AcDbCircle
 10
2783.664279786284
 20
2735.239008066362
 30
0.0
 40
0.1135723076286758
100
AcDbArc
 50
179.9983126714682
 51
187.0808317589122
  0
ARC
  5
187F
330
1F
100
AcDbEntity
  8
SANINDUSA
100
AcDbCircle
 10
2783.664279786284
 20
2735.239008066362
 30
0.0
 40
0.1135723076286758
100
AcDbArc
 50
172.9191682410878
 51
179.9983126714682
  0
ARC
  5
1880
330
1F
100
AcDbEntity
  8
SANINDUSA
100
AcDbCircle
 10
2784.086135171027
 20
2735.239008066362
 30
0.0
 40
0.1135723076286759
100
AcDbArc
 50
352.9191682410878
 51
0.0
  0
ARC
  5
1881
330
1F
100
AcDbEntity
  8
SANINDUSA
100
AcDbCircle
 10
2784.086135171027
 20
2735.239008066362
 30
0.0
 40
0.1135723076286759
100
AcDbArc
 50
0.0
 51
7.080831758912211
  0
LINE
  5
1882
330
1F
100
AcDbEntity
  8
SANINDUSA
100
AcDbLine
 10
2783.571707492771
 20
2735.242008066146
 30
0.0
 11
2783.56870747179
 21
2735.242008066146
 31
0.0
  0
LINE
  5
1883
330
1F
100
AcDbEntity
  8
SANINDUSA
100
AcDbLine
 10
2783.56870747179
 20
2735.23600806656
 30
0.0
 11
2783.571707492771
 21
2735.23600806656
 31
0.0
  0
LINE
  5
1884
330
1F
100
AcDbEntity
  8
SANINDUSA
100
AcDbLine
 10
2784.181207483711
 20
2735.23600806656
 30
0.0
 11
2784.183707481327
 21
2735.23600806656
 31
0.0
  0
LINE
  5
1885
330
1F
100
AcDbEntity
  8
SANINDUSA
100
AcDbLine
 10
2784.183707481327
 20
2735.242008066146
 30
0.0
 11
2784.181207483711
 21
2735.242008066146
 31
0.0
  0
LINE
  5
1886
330
1F
100
AcDbEntity
  8
SANINDUSA
100
AcDbLine
 10
2784.198840176764
 20
2735.225008066387
 30
0.0
 11
2784.19884127945
 21
2735.225008066387
 31
0.0
  0
LINE
  5
1887
330
1F
100
AcDbEntity
  8
SANINDUSA
100
AcDbLine
 10
2783.551573669615
 20
2735.225008066387
 30
0.0
 11
2783.551574772301
 21
2735.225008066387
 31
0.0
  0
LINE
  5
1888
330
1F
100
AcDbEntity
  8
SANINDUSA
100
AcDbLine
 10
2783.551574772301
 20
2735.253008067018
 30
0.0
 11
2783.551573669615
 21
2735.253008067018
 31
0.0
  0
LINE
  5
1889
330
1F
100
AcDbEntity
  8
SANINDUSA
100
AcDbLine
 10
2784.19884127945
 20
2735.253008067018
 30
0.0
 11
2784.198840176764
 21
2735.253008067018
 31
0.0
  0
LINE
  5
188A
330
1F
100
AcDbEntity
  8
SANINDUSA
100
AcDbLine
 10
2784.178707486095
 20
2735.226029888835
 30
0.0
 11
2784.178707486095
 21
2735.251986244104
 31
0.0
  0
LINE
  5
188B
330
1F
100
AcDbEntity
  8
SANINDUSA
100
AcDbLine
 10
2784.181207483711
 20
2735.25583418586
 30
0.0
 11
2784.178707486095
 21
2735.25583418586
 31
0.0
  0
LINE
  5
188C
330
1F
100
AcDbEntity
  8
SANINDUSA
100
AcDbLine
 10
2784.181207483711
 20
2735.25583418586
 30
0.0
 11
2784.181207483711
 21
2735.222181946847
 31
0.0
  0
LINE
  5
188D
330
1F
100
AcDbEntity
  8
SANINDUSA
100
AcDbLine
 10
2784.181207483711
 20
2735.222181946847
 30
0.0
 11
2784.178707486095
 21
2735.222181946847
 31
0.0
  0
LINE
  5
188E
330
1F
100
AcDbEntity
  8
SANINDUSA
100
AcDbLine
 10
2783.56870747179
 20
2735.25583418586
 30
0.0
 11
2783.566207474175
 21
2735.25583418586
 31
0.0
  0
LINE
  5
188F
330
1F
100
AcDbEntity
  8
SANINDUSA
100
AcDbLine
 10
2783.56870747179
 20
2735.222181946847
 30
0.0
 11
2783.566207474175
 21
2735.222181946847
 31
0.0
  0
LINE
  5
1890
330
1F
100
AcDbEntity
  8
SANINDUSA
100
AcDbLine
 10
2783.566207474175
 20
2735.25583418586
 30
0.0
 11
2783.566207474175
 21
2735.222181946847
 31
0.0
  0
LINE
  5
1891
330
1F
100
AcDbEntity
  8
SANINDUSA
100
AcDbLine
 10
2783.56870747179
 20
2735.25583418586
 30
0.0
 11
2783.56870747179
 21
2735.222181946847
 31
0.0
  0
ELLIPSE
  5
1892
330
1F
100
AcDbEntity
  8
SANINDUSA
100
AcDbEllipse
 10
2783.576207478655
 20
2735.21019661015
 30
0.0
 11
0.0075
 21
0.0
 31
0.0
210
0.0
220
0.0
230
1.0
 40
0.1584725051208314
 41
3.141592653589792
 42
4.068887871591392
  0
LINE
  5
1893
330
1F
100
AcDbEntity
  8
SANINDUSA
100
AcDbLine
 10
2783.571707492771
 20
2735.209008067256
 30
0.0
 11
2783.569593107405
 21
2735.209008067256
 31
0.0
  0
ELLIPSE
  5
1894
330
1F
100
AcDbEntity
  8
SANINDUSA
100
AcDbEllipse
 10
2783.576207478655
 20
2735.21019661015
 30
0.0
 11
0.01
 21
0.0
 31
0.0
210
0.0
220
0.0
230
1.0
 40
0.1584725051208267
 41
3.141592653589792
 42
3.989654732571331
  0
LINE
  5
1895
330
1F
100
AcDbEntity
  8
SANINDUSA
100
AcDbLine
 10
2783.566207474175
 20
2735.222181946847
 30
0.0
 11
2783.566207474175
 21
2735.21019660995
 31
0.0
  0
LINE
  5
1896
330
1F
100
AcDbEntity
  8
SANINDUSA
100
AcDbLine
 10
2783.56870747179
 20
2735.222181946847
 30
0.0
 11
2783.56870747179
 21
2735.21019660995
 31
0.0
  0
ELLIPSE
  5
1897
330
1F
100
AcDbEntity
  8
SANINDUSA
100
AcDbEllipse
 10
2784.171207478655
 20
2735.21019661015
 30
0.0
 11
0.01
 21
0.0
 31
0.0
210
0.0
220
0.0
230
1.0
 40
0.1584725051208267
 41
5.560451059366211
 42
6.283185307179586
  0
LINE
  5
1898
330
1F
100
AcDbEntity
  8
SANINDUSA
100
AcDbLine
 10
2784.181207483711
 20
2735.222181946847
 30
0.0
 11
2784.181207483711
 21
2735.21019660995
 31
0.0
  0
ELLIPSE
  5
1899
330
1F
100
AcDbEntity
  8
SANINDUSA
100
AcDbEllipse
 10
2784.171207478655
 20
2735.267819522573
 30
0.0
 11
0.01
 21
0.0
 31
0.0
210
0.0
220
0.0
230
1.0
 40
0.1584725051208267
 41
0.0
 42
0.722734247813434
  0
LINE
  5
189A
330
1F
100
AcDbEntity
  8
SANINDUSA
100
AcDbLine
 10
2784.181207483711
 20
2735.267819521359
 30
0.0
 11
2784.181207483711
 21
2735.25583418586
 31
0.0
  0
ELLIPSE
  5
189B
330
1F
100
AcDbEntity
  8
SANINDUSA
100
AcDbEllipse
 10
2783.576207478655
 20
2735.267819522573
 30
0.0
 11
0.0075
 21
0.0
 31
0.0
210
0.0
220
0.0
230
1.0
 40
0.1584725051208125
 41
2.214297435588096
 42
3.141592653589792
  0
ELLIPSE
  5
189C
330
1F
100
AcDbEntity
  8
SANINDUSA
100
AcDbEllipse
 10
2783.576207478655
 20
2735.267819522573
 30
0.0
 11
0.01
 21
0.0
 31
0.0
210
0.0
220
0.0
230
1.0
 40
0.1584725051208267
 41
2.293530574608294
 42
3.141592653589792
  0
LINE
  5
189D
330
1F
100
AcDbEntity
  8
SANINDUSA
100
AcDbLine
 10
2783.571707492771
 20
2735.269008067778
 30
0.0
 11
2783.569593107405
 21
2735.269008067778
 31
0.0
  0
LINE
  5
189E
330
1F
100
AcDbEntity
  8
SANINDUSA
100
AcDbLine
 10
2783.566207474175
 20
2735.267819521359
 30
0.0
 11
2783.566207474175
 21
2735.25583418586
 31
0.0
  0
LINE
  5
189F
330
1F
100
AcDbEntity
  8
SANINDUSA
100
AcDbLine
 10
2783.56870747179
 20
2735.267819521359
 30
0.0
 11
2783.56870747179
 21
2735.25583418586
 31
0.0
  0
LINE
  5
18A0
330
1F
100
AcDbEntity
  8
SANINDUSA
100
AcDbLine
 10
2783.551573669615
 20
2735.252999135635
 30
0.0
 11
2783.551573669615
 21
2735.253008067018
 31
0.0
  0
ARC
  5
18A1
330
1F
100
AcDbEntity
  8
SANINDUSA
100
AcDbCircle
 10
2783.664279786284
 20
2735.239008066362
 30
0.0
 40
0.1135712070029309
100
AcDbArc
 50
172.4146851368167
 51
172.9236397139079
  0
LINE
  5
18A2
330
1F
100
AcDbEntity
  8
SANINDUSA
100
AcDbLine
 10
2783.551702385845
 20
2735.25361831241
 30
0.0
 11
2783.551702385845
 21
2735.253999729982
 31
0.0
  0
ARC
  5
18A3
330
1F
100
AcDbEntity
  8
SANINDUSA
100
AcDbCircle
 10
2783.657813059349
 20
2735.238994950988
 30
0.0
 40
0.1071135739801876
100
AcDbArc
 50
172.1533598770536
 51
172.674914944095
  0
LINE
  5
18A4
330
1F
100
AcDbEntity
  8
SANINDUSA
100
AcDbLine
 10
2783.551573669615
 20
2735.252392991788
 30
0.0
 11
2783.551573669615
 21
2735.252651810057
 31
0.0
  0
ARC
  5
18A5
330
1F
100
AcDbEntity
  8
SANINDUSA
100
AcDbCircle
 10
2783.657816645634
 20
2735.238735626924
 30
0.0
 40
0.1071171954845158
100
AcDbArc
 50
172.1533547478375
 51
172.6748911713164
  0
LINE
  5
18A6
330
1F
100
AcDbEntity
  8
SANINDUSA
100
AcDbLine
 10
2783.551702385845
 20
2735.252241229049
 30
0.0
 11
2783.551702385845
 21
2735.253359492279
 31
0.0
  0
ARC
  5
18A7
330
1F
100
AcDbEntity
  8
SANINDUSA
100
AcDbCircle
 10
2783.637346713729
 20
2735.239076776625
 30
0.0
 40
0.0866501800707485
100
AcDbArc
 50
171.2614175393856
 51
171.8406908532629
  0
LINE
  5
18A8
330
1F
100
AcDbEntity
  8
SANINDUSA
100
AcDbLine
 10
2783.551573669615
 20
2735.250874686397
 30
0.0
 11
2783.551573669615
 21
2735.25137468741
 31
0.0
  0
ARC
  5
18A9
330
1F
100
AcDbEntity
  8
SANINDUSA
100
AcDbCircle
 10
2783.637346713729
 20
2735.238576775611
 30
0.0
 40
0.0866501800707485
100
AcDbArc
 50
171.2614175393856
 51
171.8406908532629
  0
LINE
  5
18AA
330
1F
100
AcDbEntity
  8
SANINDUSA
100
AcDbLine
 10
2783.551702385845
 20
2735.249962327412
 30
0.0
 11
2783.551702385845
 21
2735.251741228035
 31
0.0
  0
ARC
  5
18AB
330
1F
100
AcDbEntity
  8
SANINDUSA
100
AcDbCircle
 10
2783.609397605977
 20
2735.239100712114
 30
0.0
 40
0.0587087141141424
100
AcDbArc
 50
169.338367897288
 51
170.0402054253753
  0
LINE
  5
18AC
330
1F
100
AcDbEntity
  8
SANINDUSA
100
AcDbLine
 10
2783.551573669615
 20
2735.248547693125
 30
0.0
 11
2783.551573669615
 21
2735.24925479979
 31
0.0
  0
ARC
  5
18AD
330
1F
100
AcDbEntity
  8
SANINDUSA
100
AcDbCircle
 10
2783.609397605977
 20
2735.238393605449
 30
0.0
 40
0.0587087141141423
100
AcDbArc
 50
169.338367897288
 51
170.0402054253753
  0
LINE
  5
18AE
330
1F
100
AcDbEntity
  8
SANINDUSA
100
AcDbLine
 10
2783.551702385845
 20
2735.246936911127
 30
0.0
 11
2783.551702385845
 21
2735.249255220747
 31
0.0
  0
ARC
  5
18AF
330
1F
100
AcDbEntity
  8
SANINDUSA
100
AcDbCircle
 10
2783.581444459021
 20
2735.239018177392
 30
0.0
 40
0.0307781945666436
100
AcDbArc
 50
165.0910411780966
 51
166.0527209988789
  0
LINE
  5
18B0
330
1F
100
AcDbEntity
  8
SANINDUSA
100
AcDbLine
 10
2783.551573669615
 20
2735.245570588267
 30
0.0
 11
2783.551573669615
 21
2735.246436613954
 31
0.0
  0
ARC
  5
18B1
330
1F
100
AcDbEntity
  8
SANINDUSA
100
AcDbCircle
 10
2783.581444459021
 20
2735.238152151706
 30
0.0
 40
0.0307781945666436
100
AcDbArc
 50
165.0910411780966
 51
166.0527209988789
  0
LINE
  5
18B2
330
1F
100
AcDbEntity
  8
SANINDUSA
100
AcDbLine
 10
2783.551702385845
 20
2735.243371157317
 30
0.0
 11
2783.551702385845
 21
2735.246070885441
 31
0.0
  0
ARC
  5
18B3
330
1F
100
AcDbEntity
  8
SANINDUSA
100
AcDbCircle
 10
2783.56097704274
 20
2735.238599938274
 30
0.0
 40
0.010429946868779
100
AcDbArc
 50
152.7770711494265
 51
154.3657934851764
  0
LINE
  5
18B4
330
1F
100
AcDbEntity
  8
SANINDUSA
100
AcDbLine
 10
2783.551573669615
 20
2735.242146258584
 30
0.0
 11
2783.551573669615
 21
2735.243112184449
 31
0.0
  0
ARC
  5
18B5
330
1F
100
AcDbEntity
  8
SANINDUSA
100
AcDbCircle
 10
2783.56097704274
 20
2735.237634012409
 30
0.0
 40
0.010429946868779
100
AcDbArc
 50
152.7770711494265
 51
154.3657934851764
  0
LINE
  5
18B6
330
1F
100
AcDbEntity
  8
SANINDUSA
100
AcDbLine
 10
2783.551702385845
 20
2735.239508066668
 30
0.0
 11
2783.551702385845
 21
2735.242405231452
 31
0.0
  0
LINE
  5
18B7
330
1F
100
AcDbEntity
  8
SANINDUSA
100
AcDbLine
 10
2783.551573669615
 20
2735.239508066668
 30
0.0
 11
2783.551702385845
 21
2735.239508066668
 31
0.0
  0
LINE
  5
18B8
330
1F
100
AcDbEntity
  8
SANINDUSA
100
AcDbLine
 10
2783.551573669615
 20
2735.238508066504
 30
0.0
 11
2783.551573669615
 21
2735.239508066668
 31
0.0
  0
LINE
  5
18B9
330
1F
100
AcDbEntity
  8
SANINDUSA
100
AcDbLine
 10
2783.551702385845
 20
2735.238508066504
 30
0.0
 11
2783.551573669615
 21
2735.238508066504
 31
0.0
  0
LINE
  5
18BA
330
1F
100
AcDbEntity
  8
SANINDUSA
100
AcDbLine
 10
2783.551702385845
 20
2735.235610901254
 30
0.0
 11
2783.551702385845
 21
2735.238508066504
 31
0.0
  0
ARC
  5
18BB
330
1F
100
AcDbEntity
  8
SANINDUSA
100
AcDbCircle
 10
2783.56097794397
 20
2735.240382568231
 30
0.0
 40
0.0104309531810718
100
AcDbArc
 50
205.6342831612733
 51
207.222852209227
  0
LINE
  5
18BC
330
1F
100
AcDbEntity
  8
SANINDUSA
100
AcDbLine
 10
2783.551573669615
 20
2735.234903948258
 30
0.0
 11
2783.551573669615
 21
2735.235869874122
 31
0.0
  0
ARC
  5
18BD
330
1F
100
AcDbEntity
  8
SANINDUSA
100
AcDbCircle
 10
2783.560978568935
 20
2735.239416952991
 30
0.0
 40
0.0104316510171096
100
AcDbArc
 50
205.6343363024756
 51
207.2227990832732
  0
LINE
  5
18BE
330
1F
100
AcDbEntity
  8
SANINDUSA
100
AcDbLine
 10
2783.551702385845
 20
2735.2319452468
 30
0.0
 11
2783.551702385845
 21
2735.234644975389
 31
0.0
  0
ARC
  5
18BF
330
1F
100
AcDbEntity
  8
SANINDUSA
100
AcDbCircle
 10
2783.581443190108
 20
2735.239863643713
 30
0.0
 40
0.0307768817121909
100
AcDbArc
 50
193.9472385639684
 51
194.9089606546701
  0
LINE
  5
18C0
330
1F
100
AcDbEntity
  8
SANINDUSA
100
AcDbLine
 10
2783.551573669615
 20
2735.231579519452
 30
0.0
 11
2783.551573669615
 21
2735.232445544672
 31
0.0
  0
ARC
  5
18C1
330
1F
100
AcDbEntity
  8
SANINDUSA
100
AcDbCircle
 10
2783.581441234705
 20
2735.238997115408
 30
0.0
 40
0.0307748627005484
100
AcDbArc
 50
193.9472070243174
 51
194.9089922044186
  0
LINE
  5
18C2
330
1F
100
AcDbEntity
  8
SANINDUSA
100
AcDbLine
 10
2783.551702385845
 20
2735.228760912221
 30
0.0
 11
2783.551702385845
 21
2735.231079221579
 31
0.0
  0
ARC
  5
18C3
330
1F
100
AcDbEntity
  8
SANINDUSA
100
AcDbCircle
 10
2783.609395851533
 20
2735.239622202079
 30
0.0
 40
0.0587069297480013
100
AcDbArc
 50
189.9597774572967
 51
190.6616367427154
  0
LINE
  5
18C4
330
1F
100
AcDbEntity
  8
SANINDUSA
100
AcDbLine
 10
2783.551573669615
 20
2735.228761333499
 30
0.0
 11
2783.551573669615
 21
2735.22946844028
 31
0.0
  0
ARC
  5
18C5
330
1F
100
AcDbEntity
  8
SANINDUSA
100
AcDbCircle
 10
2783.609395773969
 20
2735.238915081634
 30
0.0
 40
0.0587068509898882
100
AcDbArc
 50
189.9597774316342
 51
190.6616376166132
  0
LINE
  5
18C6
330
1F
100
AcDbEntity
  8
SANINDUSA
100
AcDbLine
 10
2783.551702385845
 20
2735.226274904205
 30
0.0
 11
2783.551702385845
 21
2735.228053805469
 31
0.0
  0
ARC
  5
18C7
330
1F
100
AcDbEntity
  8
SANINDUSA
100
AcDbCircle
 10
2783.637350433735
 20
2735.239439914157
 30
0.0
 40
0.0866539415966877
100
AcDbArc
 50
188.1593251790873
 51
188.738573130419
  0
LINE
  5
18C8
330
1F
100
AcDbEntity
  8
SANINDUSA
100
AcDbLine
 10
2783.551573669615
 20
2735.226641445529
 30
0.0
 11
2783.551573669615
 21
2735.227141445495
 31
0.0
  0
ARC
  5
18C9
330
1F
100
AcDbEntity
  8
SANINDUSA
100
AcDbCircle
 10
2783.637350660357
 20
2735.238939946085
 30
0.0
 40
0.0866541704522727
100
AcDbArc
 50
188.1593247848211
 51
188.7385712841904
  0
LINE
  5
18CA
330
1F
100
AcDbEntity
  8
SANINDUSA
100
AcDbLine
 10
2783.551702385845
 20
2735.224656639962
 30
0.0
 11
2783.551702385845
 21
2735.225774904123
 31
0.0
  0
ARC
  5
18CB
330
1F
100
AcDbEntity
  8
SANINDUSA
100
AcDbCircle
 10
2783.657814338832
 20
2735.239280184943
 30
0.0
 40
0.1071148665429887
100
AcDbArc
 50
187.3250956948454
 51
187.8466439367052
  0
LINE
  5
18CC
330
1F
100
AcDbEntity
  8
SANINDUSA
100
AcDbLine
 10
2783.551573669615
 20
2735.225364322417
 30
0.0
 11
2783.551573669615
 21
2735.225623141384
 31
0.0
  0
ARC
  5
18CD
330
1F
100
AcDbEntity
  8
SANINDUSA
100
AcDbCircle
 10
2783.657811089359
 20
2735.239020936742
 30
0.0
 40
0.10711158886239
100
AcDbArc
 50
187.3250895738921
 51
187.8466536682429
  0
LINE
  5
18CE
330
1F
100
AcDbEntity
  8
SANINDUSA
100
AcDbLine
 10
2783.551702385845
 20
2735.224016401793
 30
0.0
 11
2783.551702385845
 21
2735.224397821228
 31
0.0
  0
ARC
  5
18CF
330
1F
100
AcDbEntity
  8
SANINDUSA
100
AcDbCircle
 10
2783.664279786284
 20
2735.239008066362
 30
0.0
 40
0.1135712070029309
100
AcDbArc
 50
187.076360286092
 51
187.5853148631833
  0
LINE
  5
18D0
330
1F
100
AcDbEntity
  8
SANINDUSA
100
AcDbLine
 10
2783.551573669615
 20
2735.225008066387
 30
0.0
 11
2783.551573669615
 21
2735.22501699777
 31
0.0
  0
LINE
  5
18D1
330
1F
100
AcDbEntity
  8
SANINDUSA
100
AcDbLine
 10
2784.183707481327
 20
2735.238508066504
 30
0.0
 11
2784.183707481327
 21
2735.235610901254
 31
0.0
  0
LINE
  5
18D2
330
1F
100
AcDbEntity
  8
SANINDUSA
100
AcDbLine
 10
2784.183707481327
 20
2735.238508066504
 30
0.0
 11
2784.198712563219
 21
2735.238508066504
 31
0.0
  0
LINE
  5
18D3
330
1F
100
AcDbEntity
  8
SANINDUSA
100
AcDbLine
 10
2784.198712563219
 20
2735.235610901254
 30
0.0
 11
2784.198712563219
 21
2735.238508066504
 31
0.0
  0
LINE
  5
18D4
330
1F
100
AcDbEntity
  8
SANINDUSA
100
AcDbLine
 10
2784.183707481327
 20
2735.235610901254
 30
0.0
 11
2784.198712563219
 21
2735.235610901254
 31
0.0
  0
LINE
  5
18D5
330
1F
100
AcDbEntity
  8
SANINDUSA
100
AcDbLine
 10
2783.566207474175
 20
2735.238508066504
 30
0.0
 11
2783.551702385845
 21
2735.238508066504
 31
0.0
  0
LINE
  5
18D7
330
1F
100
AcDbEntity
  8
SANINDUSA
100
AcDbLine
 10
2783.566207474175
 20
2735.235610901254
 30
0.0
 11
2783.551702385845
 21
2735.235610901254
 31
0.0
  0
LINE
  5
18D8
330
1F
100
AcDbEntity
  8
SANINDUSA
100
AcDbLine
 10
2784.183707481327
 20
2735.242405231452
 30
0.0
 11
2784.183707481327
 21
2735.239508066668
 31
0.0
  0
LINE
  5
18D9
330
1F
100
AcDbEntity
  8
SANINDUSA
100
AcDbLine
 10
2784.183707481327
 20
2735.242405231452
 30
0.0
 11
2784.198712563219
 21
2735.242405231452
 31
0.0
  0
LINE
  5
18DA
330
1F
100
AcDbEntity
  8
SANINDUSA
100
AcDbLine
 10
2784.198712563219
 20
2735.239508066668
 30
0.0
 11
2784.198712563219
 21
2735.242405231452
 31
0.0
  0
LINE
  5
18DB
330
1F
100
AcDbEntity
  8
SANINDUSA
100
AcDbLine
 10
2784.183707481327
 20
2735.239508066668
 30
0.0
 11
2784.198712563219
 21
2735.239508066668
 31
0.0
  0
LINE
  5
18DC
330
1F
100
AcDbEntity
  8
SANINDUSA
100
AcDbLine
 10
2784.19884127945
 20
2735.225008066387
 30
0.0
 11
2784.19884127945
 21
2735.22501699777
 31
0.0
  0
ARC
  5
18DD
330
1F
100
AcDbEntity
  8
SANINDUSA
100
AcDbCircle
 10
2784.086135171027
 20
2735.239008066362
 30
0.0
 40
0.1135712070029308
100
AcDbArc
 50
352.4146851368167
 51
352.923639713908
  0
LINE
  5
18DE
330
1F
100
AcDbEntity
  8
SANINDUSA
100
AcDbLine
 10
2784.198712563219
 20
2735.224016401793
 30
0.0
 11
2784.198712563219
 21
2735.224397821228
 31
0.0
  0
ARC
  5
18DF
330
1F
100
AcDbEntity
  8
SANINDUSA
100
AcDbCircle
 10
2784.09385594571
 20
2735.238854187034
 30
0.0
 40
0.1058484612442825
100
AcDbArc
 50
352.1502343178935
 51
352.6780224597907
  0
LINE
  5
18E0
330
1F
100
AcDbEntity
  8
SANINDUSA
100
AcDbLine
 10
2784.19884127945
 20
2735.225364322417
 30
0.0
 11
2784.19884127945
 21
2735.225623141384
 31
0.0
  0
ARC
  5
18E1
330
1F
100
AcDbEntity
  8
SANINDUSA
100
AcDbCircle
 10
2784.093852859903
 20
2735.239113413479
 30
0.0
 40
0.1058515738189193
100
AcDbArc
 50
352.1502438135741
 51
352.6780165747419
  0
LINE
  5
18E2
330
1F
100
AcDbEntity
  8
SANINDUSA
100
AcDbLine
 10
2784.198712563219
 20
2735.224656639962
 30
0.0
 11
2784.198712563219
 21
2735.225774904123
 31
0.0
  0
ARC
  5
18E3
330
1F
100
AcDbEntity
  8
SANINDUSA
100
AcDbCircle
 10
2784.11407518966
 20
2735.238789786659
 30
0.0
 40
0.0856321912046137
100
AcDbArc
 50
351.2579721523483
 51
351.8441317488476
  0
LINE
  5
18E4
330
1F
100
AcDbEntity
  8
SANINDUSA
100
AcDbLine
 10
2784.19884127945
 20
2735.226641445529
 30
0.0
 11
2784.19884127945
 21
2735.227141445495
 31
0.0
  0
ARC
  5
18E5
330
1F
100
AcDbEntity
  8
SANINDUSA
100
AcDbCircle
 10
2784.1140754265
 20
2735.239289753193
 30
0.0
 40
0.085631952016074
100
AcDbArc
 50
351.2579702546144
 51
351.8441314061643
  0
LINE
  5
18E6
330
1F
100
AcDbEntity
  8
SANINDUSA
100
AcDbLine
 10
2784.198712563219
 20
2735.226274904205
 30
0.0
 11
2784.198712563219
 21
2735.228053805469
 31
0.0
  0
ARC
  5
18E7
330
1F
100
AcDbEntity
  8
SANINDUSA
100
AcDbCircle
 10
2784.141700360619
 20
2735.238791157734
 30
0.0
 40
0.0580144980062207
100
AcDbArc
 50
349.3341742873363
 51
350.0444106755165
  0
LINE
  5
18E8
330
1F
100
AcDbEntity
  8
SANINDUSA
100
AcDbLine
 10
2784.19884127945
 20
2735.228761333499
 30
0.0
 11
2784.19884127945
 21
2735.22946844028
 31
0.0
  0
ARC
  5
18E9
330
1F
100
AcDbEntity
  8
SANINDUSA
100
AcDbCircle
 10
2784.141700289602
 20
2735.239498276993
 30
0.0
 40
0.0580145701109488
100
AcDbArc
 50
349.3341751100238
 51
350.0444106498536
  0
LINE
  5
18EA
330
1F
100
AcDbEntity
  8
SANINDUSA
100
AcDbLine
 10
2784.198712563219
 20
2735.228760912221
 30
0.0
 11
2784.198712563219
 21
2735.231079221579
 31
0.0
  0
ARC
  5
18EB
330
1F
100
AcDbEntity
  8
SANINDUSA
100
AcDbCircle
 10
2784.169325214282
 20
2735.238906681793
 30
0.0
 40
0.0304119287614534
100
AcDbArc
 50
345.0852687230189
 51
346.0585320619677
  0
LINE
  5
18EC
330
1F
100
AcDbEntity
  8
SANINDUSA
100
AcDbLine
 10
2784.19884127945
 20
2735.231579519452
 30
0.0
 11
2784.19884127945
 21
2735.232445544672
 31
0.0
  0
ARC
  5
18ED
330
1F
100
AcDbEntity
  8
SANINDUSA
100
AcDbCircle
 10
2784.169323309415
 20
2735.239773197096
 30
0.0
 40
0.0304138955913506
100
AcDbArc
 50
345.0853001838244
 51
346.0585005981776
  0
LINE
  5
18EE
330
1F
100
AcDbEntity
  8
SANINDUSA
100
AcDbLine
 10
2784.198712563219
 20
2735.2319452468
 30
0.0
 11
2784.198712563219
 21
2735.234644975389
 31
0.0
  0
ARC
  5
18EF
330
1F
100
AcDbEntity
  8
SANINDUSA
100
AcDbCircle
 10
2784.189546541234
 20
2735.239362200065
 30
0.0
 40
0.0103086452883595
100
AcDbArc
 50
332.7677233184739
 51
334.375141319379
  0
LINE
  5
18F0
330
1F
100
AcDbEntity
  8
SANINDUSA
100
AcDbLine
 10
2784.19884127945
 20
2735.234903948258
 30
0.0
 11
2784.19884127945
 21
2735.235869874122
 31
0.0
  0
ARC
  5
18F1
330
1F
100
AcDbEntity
  8
SANINDUSA
100
AcDbCircle
 10
2784.189547166199
 20
2735.240327815307
 30
0.0
 40
0.0103079474539318
100
AcDbArc
 50
332.767668898942
 51
334.3751957308832
  0
LINE
  5
18F2
330
1F
100
AcDbEntity
  8
SANINDUSA
100
AcDbLine
 10
2784.198712563219
 20
2735.238508066504
 30
0.0
 11
2784.19884127945
 21
2735.238508066504
 31
0.0
  0
LINE
  5
18F3
330
1F
100
AcDbEntity
  8
SANINDUSA
100
AcDbLine
 10
2784.19884127945
 20
2735.238508066504
 30
0.0
 11
2784.19884127945
 21
2735.239508066668
 31
0.0
  0
LINE
  5
18F4
330
1F
100
AcDbEntity
  8
SANINDUSA
100
AcDbLine
 10
2784.19884127945
 20
2735.239508066668
 30
0.0
 11
2784.198712563219
 21
2735.239508066668
 31
0.0
  0
ARC
  5
18F5
330
1F
100
AcDbEntity
  8
SANINDUSA
100
AcDbCircle
 10
2784.189548006268
 20
2735.237688734937
 30
0.0
 40
0.0103070094350627
100
AcDbArc
 50
25.62473110658989
 51
27.23240425822283
  0
LINE
  5
18F6
330
1F
100
AcDbEntity
  8
SANINDUSA
100
AcDbLine
 10
2784.19884127945
 20
2735.242146258584
 30
0.0
 11
2784.19884127945
 21
2735.243112184449
 31
0.0
  0
ARC
  5
18F7
330
1F
100
AcDbEntity
  8
SANINDUSA
100
AcDbCircle
 10
2784.189548006268
 20
2735.238654660801
 30
0.0
 40
0.0103070094350627
100
AcDbArc
 50
25.62473110658989
 51
27.23240425822283
  0
LINE
  5
18F8
330
1F
100
AcDbEntity
  8
SANINDUSA
100
AcDbLine
 10
2784.198712563219
 20
2735.243371157317
 30
0.0
 11
2784.198712563219
 21
2735.246070885441
 31
0.0
  0
ARC
  5
18F9
330
1F
100
AcDbEntity
  8
SANINDUSA
100
AcDbCircle
 10
2784.169322077474
 20
2735.238242607961
 30
0.0
 40
0.0304151702383122
100
AcDbArc
 50
13.94153975055471
 51
14.91469809082446
  0
LINE
  5
18FA
330
1F
100
AcDbEntity
  8
SANINDUSA
100
AcDbLine
 10
2784.19884127945
 20
2735.245570588267
 30
0.0
 11
2784.19884127945
 21
2735.246436613954
 31
0.0
  0
ARC
  5
18FB
330
1F
100
AcDbEntity
  8
SANINDUSA
100
AcDbCircle
 10
2784.169322077474
 20
2735.239108633647
 30
0.0
 40
0.0304151702383122
100
AcDbArc
 50
13.94153975055471
 51
14.91469809082446
  0
LINE
  5
18FC
330
1F
100
AcDbEntity
  8
SANINDUSA
100
AcDbLine
 10
2784.198712563219
 20
2735.246936911127
 30
0.0
 11
2784.198712563219
 21
2735.249255220747
 31
0.0
  0
ARC
  5
18FD
330
1F
100
AcDbEntity
  8
SANINDUSA
100
AcDbCircle
 10
2784.141698636047
 20
2735.238517548966
 30
0.0
 40
0.0580162519201447
100
AcDbArc
 50
9.955606069018394
 51
10.66582059730402
  0
LINE
  5
18FE
330
1F
100
AcDbEntity
  8
SANINDUSA
100
AcDbLine
 10
2784.19884127945
 20
2735.248547693125
 30
0.0
 11
2784.19884127945
 21
2735.24925479979
 31
0.0
  0
ARC
  5
18FF
330
1F
100
AcDbEntity
  8
SANINDUSA
100
AcDbCircle
 10
2784.141698636047
 20
2735.239224655631
 30
0.0
 40
0.0580162519201447
100
AcDbArc
 50
9.955606069018394
 51
10.66582059730402
  0
LINE
  5
1900
330
1F
100
AcDbEntity
  8
SANINDUSA
100
AcDbLine
 10
2784.198712563219
 20
2735.249962327412
 30
0.0
 11
2784.198712563219
 21
2735.251741228035
 31
0.0
  0
ARC
  5
1901
330
1F
100
AcDbEntity
  8
SANINDUSA
100
AcDbCircle
 10
2784.114079031954
 20
2735.238726919499
 30
0.0
 40
0.0856283063077072
100
AcDbArc
 50
8.155852642557544
 51
8.742038972570581
  0
LINE
  5
1902
330
1F
100
AcDbEntity
  8
SANINDUSA
100
AcDbLine
 10
2784.19884127945
 20
2735.250874686397
 30
0.0
 11
2784.19884127945
 21
2735.25137468741
 31
0.0
  0
ARC
  5
1903
330
1F
100
AcDbEntity
  8
SANINDUSA
100
AcDbCircle
 10
2784.114079031954
 20
2735.239226920513
 30
0.0
 40
0.0856283063077075
100
AcDbArc
 50
8.155852642557544
 51
8.742038972570581
  0
LINE
  5
1904
330
1F
100
AcDbEntity
  8
SANINDUSA
100
AcDbLine
 10
2784.198712563219
 20
2735.252241229049
 30
0.0
 11
2784.198712563219
 21
2735.253359492279
 31
0.0
  0
ARC
  5
1905
330
1F
100
AcDbEntity
  8
SANINDUSA
100
AcDbCircle
 10
2784.093850830303
 20
2735.238902435466
 30
0.0
 40
0.1058536230932419
100
AcDbArc
 50
7.321996009760016
 51
7.849758054588877
  0
LINE
  5
1906
330
1F
100
AcDbEntity
  8
SANINDUSA
100
AcDbLine
 10
2784.19884127945
 20
2735.252392991788
 30
0.0
 11
2784.19884127945
 21
2735.252651810057
 31
0.0
  0
ARC
  5
1907
330
1F
100
AcDbEntity
  8
SANINDUSA
100
AcDbCircle
 10
2784.093854234992
 20
2735.239161735024
 30
0.0
 40
0.1058501848292346
100
AcDbArc
 50
7.321972498727948
 51
7.849752663704619
  0
LINE
  5
1908
330
1F
100
AcDbEntity
  8
SANINDUSA
100
AcDbLine
 10
2784.198712563219
 20
2735.25361831241
 30
0.0
 11
2784.198712563219
 21
2735.253999729982
 31
0.0
  0
ARC
  5
1909
330
1F
100
AcDbEntity
  8
SANINDUSA
100
AcDbCircle
 10
2784.086135171027
 20
2735.239008066362
 30
0.0
 40
0.1135712070029308
100
AcDbArc
 50
7.07636028609203
 51
7.5853148631833
  0
LINE
  5
190A
330
1F
100
AcDbEntity
  8
SANINDUSA
100
AcDbLine
 10
2784.19884127945
 20
2735.252999135635
 30
0.0
 11
2784.19884127945
 21
2735.253008067018
 31
0.0
  0
LINE
  5
190B
330
1F
100
AcDbEntity
  8
SANINDUSA
100
AcDbLine
 10
2783.566207474175
 20
2735.242405231452
 30
0.0
 11
2783.551702385845
 21
2735.242405231452
 31
0.0
  0
LINE
  5
190D
330
1F
100
AcDbEntity
  8
SANINDUSA
100
AcDbLine
 10
2783.566207474175
 20
2735.239508066668
 30
0.0
 11
2783.551702385845
 21
2735.239508066668
 31
0.0
  0
LINE
  5
190E
330
1F
100
AcDbEntity
  8
SANINDUSA
100
AcDbLine
 10
2783.566207474175
 20
2735.234644975389
 30
0.0
 11
2783.551702385845
 21
2735.234644975389
 31
0.0
  0
LINE
  5
190F
330
1F
100
AcDbEntity
  8
SANINDUSA
100
AcDbLine
 10
2783.566207474175
 20
2735.2319452468
 30
0.0
 11
2783.551702385845
 21
2735.2319452468
 31
0.0
  0
LINE
  5
1910
330
1F
100
AcDbEntity
  8
SANINDUSA
100
AcDbLine
 10
2783.566207474175
 20
2735.234903948258
 30
0.0
 11
2783.551573669615
 21
2735.234903948258
 31
0.0
  0
LINE
  5
1911
330
1F
100
AcDbEntity
  8
SANINDUSA
100
AcDbLine
 10
2784.183707481327
 20
2735.234903948258
 30
0.0
 11
2784.19884127945
 21
2735.234903948258
 31
0.0
  0
LINE
  5
1912
330
1F
100
AcDbEntity
  8
SANINDUSA
100
AcDbLine
 10
2784.183707481327
 20
2735.234644975389
 30
0.0
 11
2784.198712563219
 21
2735.234644975389
 31
0.0
  0
LINE
  5
1913
330
1F
100
AcDbEntity
  8
SANINDUSA
100
AcDbLine
 10
2784.183707481327
 20
2735.234644975389
 30
0.0
 11
2784.183707481327
 21
2735.234903948258
 31
0.0
  0
LINE
  5
1914
330
1F
100
AcDbEntity
  8
SANINDUSA
100
AcDbLine
 10
2784.183707481327
 20
2735.2319452468
 30
0.0
 11
2784.198712563219
 21
2735.2319452468
 31
0.0
  0
LINE
  5
1915
330
1F
100
AcDbEntity
  8
SANINDUSA
100
AcDbLine
 10
2784.183707481327
 20
2735.234644975389
 30
0.0
 11
2784.183707481327
 21
2735.2319452468
 31
0.0
  0
LINE
  5
1916
330
1F
100
AcDbEntity
  8
SANINDUSA
100
AcDbLine
 10
2783.566207474175
 20
2735.243371157317
 30
0.0
 11
2783.551702385845
 21
2735.243371157317
 31
0.0
  0
LINE
  5
1917
330
1F
100
AcDbEntity
  8
SANINDUSA
100
AcDbLine
 10
2783.566207474175
 20
2735.243112184449
 30
0.0
 11
2783.551573669615
 21
2735.243112184449
 31
0.0
  0
LINE
  5
1918
330
1F
100
AcDbEntity
  8
SANINDUSA
100
AcDbLine
 10
2784.183707481327
 20
2735.246070885441
 30
0.0
 11
2784.198712563219
 21
2735.246070885441
 31
0.0
  0
LINE
  5
1919
330
1F
100
AcDbEntity
  8
SANINDUSA
100
AcDbLine
 10
2784.183707481327
 20
2735.243371157317
 30
0.0
 11
2784.198712563219
 21
2735.243371157317
 31
0.0
  0
LINE
  5
191A
330
1F
100
AcDbEntity
  8
SANINDUSA
100
AcDbLine
 10
2784.183707481327
 20
2735.246070885441
 30
0.0
 11
2784.183707481327
 21
2735.243371157317
 31
0.0
  0
LINE
  5
191B
330
1F
100
AcDbEntity
  8
SANINDUSA
100
AcDbLine
 10
2784.183707481327
 20
2735.243112184449
 30
0.0
 11
2784.19884127945
 21
2735.243112184449
 31
0.0
  0
LINE
  5
191C
330
1F
100
AcDbEntity
  8
SANINDUSA
100
AcDbLine
 10
2784.183707481327
 20
2735.243112184449
 30
0.0
 11
2784.183707481327
 21
2735.243371157317
 31
0.0
  0
LINE
  5
191D
330
1F
100
AcDbEntity
  8
SANINDUSA
100
AcDbLine
 10
2783.566207474175
 20
2735.246070885441
 30
0.0
 11
2783.551702385845
 21
2735.246070885441
 31
0.0
  0
LINE
  5
191E
330
1F
100
AcDbEntity
  8
SANINDUSA
100
AcDbLine
 10
2784.183707481327
 20
2735.238508066504
 30
0.0
 11
2784.183707481327
 21
2735.239508066668
 31
0.0
  0
LINE
  5
191F
330
1F
100
AcDbEntity
  8
SANINDUSA
100
AcDbLine
 10
2784.183707481327
 20
2735.234903948258
 30
0.0
 11
2784.183707481327
 21
2735.235610901254
 31
0.0
  0
LINE
  5
1920
330
1F
100
AcDbEntity
  8
SANINDUSA
100
AcDbLine
 10
2784.183707481327
 20
2735.242405231452
 30
0.0
 11
2784.183707481327
 21
2735.243112184449
 31
0.0
  0
LINE
  5
1921
330
1F
100
AcDbEntity
  8
SANINDUSA
100
AcDbLine
 10
2784.183707481327
 20
2735.231079221579
 30
0.0
 11
2784.198712563219
 21
2735.231079221579
 31
0.0
  0
LINE
  5
1922
330
1F
100
AcDbEntity
  8
SANINDUSA
100
AcDbLine
 10
2784.183707481327
 20
2735.228760912221
 30
0.0
 11
2784.198712563219
 21
2735.228760912221
 31
0.0
  0
LINE
  5
1923
330
1F
100
AcDbEntity
  8
SANINDUSA
100
AcDbLine
 10
2784.183707481327
 20
2735.231079221579
 30
0.0
 11
2784.183707481327
 21
2735.228760912221
 31
0.0
  0
LINE
  5
1924
330
1F
100
AcDbEntity
  8
SANINDUSA
100
AcDbLine
 10
2784.183707481327
 20
2735.231579519452
 30
0.0
 11
2784.19884127945
 21
2735.231579519452
 31
0.0
  0
LINE
  5
1925
330
1F
100
AcDbEntity
  8
SANINDUSA
100
AcDbLine
 10
2784.183707481327
 20
2735.231079221579
 30
0.0
 11
2784.183707481327
 21
2735.231579519452
 31
0.0
  0
LINE
  5
1926
330
1F
100
AcDbEntity
  8
SANINDUSA
100
AcDbLine
 10
2783.566207474175
 20
2735.231579519452
 30
0.0
 11
2783.551573669615
 21
2735.231579519452
 31
0.0
  0
LINE
  5
1927
330
1F
100
AcDbEntity
  8
SANINDUSA
100
AcDbLine
 10
2783.566207474175
 20
2735.231079221579
 30
0.0
 11
2783.551702385845
 21
2735.231079221579
 31
0.0
  0
LINE
  5
1928
330
1F
100
AcDbEntity
  8
SANINDUSA
100
AcDbLine
 10
2783.566207474175
 20
2735.228760912221
 30
0.0
 11
2783.551702385845
 21
2735.228760912221
 31
0.0
  0
LINE
  5
1929
330
1F
100
AcDbEntity
  8
SANINDUSA
100
AcDbLine
 10
2783.566207474175
 20
2735.249255220747
 30
0.0
 11
2783.551702385845
 21
2735.249255220747
 31
0.0
  0
LINE
  5
192A
330
1F
100
AcDbEntity
  8
SANINDUSA
100
AcDbLine
 10
2783.566207474175
 20
2735.246936911127
 30
0.0
 11
2783.551702385845
 21
2735.246936911127
 31
0.0
  0
LINE
  5
192B
330
1F
100
AcDbEntity
  8
SANINDUSA
100
AcDbLine
 10
2783.566207474175
 20
2735.246436613954
 30
0.0
 11
2783.551573669615
 21
2735.246436613954
 31
0.0
  0
LINE
  5
192C
330
1F
100
AcDbEntity
  8
SANINDUSA
100
AcDbLine
 10
2784.183707481327
 20
2735.249255220747
 30
0.0
 11
2784.198712563219
 21
2735.249255220747
 31
0.0
  0
LINE
  5
192D
330
1F
100
AcDbEntity
  8
SANINDUSA
100
AcDbLine
 10
2784.183707481327
 20
2735.246936911127
 30
0.0
 11
2784.198712563219
 21
2735.246936911127
 31
0.0
  0
LINE
  5
192E
330
1F
100
AcDbEntity
  8
SANINDUSA
100
AcDbLine
 10
2784.183707481327
 20
2735.249255220747
 30
0.0
 11
2784.183707481327
 21
2735.246936911127
 31
0.0
  0
LINE
  5
192F
330
1F
100
AcDbEntity
  8
SANINDUSA
100
AcDbLine
 10
2784.183707481327
 20
2735.246436613954
 30
0.0
 11
2784.19884127945
 21
2735.246436613954
 31
0.0
  0
LINE
  5
1930
330
1F
100
AcDbEntity
  8
SANINDUSA
100
AcDbLine
 10
2784.183707481327
 20
2735.246436613954
 30
0.0
 11
2784.183707481327
 21
2735.246936911127
 31
0.0
  0
LINE
  5
1931
330
1F
100
AcDbEntity
  8
SANINDUSA
100
AcDbLine
 10
2784.183707481327
 20
2735.231579519452
 30
0.0
 11
2784.183707481327
 21
2735.2319452468
 31
0.0
  0
LINE
  5
1932
330
1F
100
AcDbEntity
  8
SANINDUSA
100
AcDbLine
 10
2784.183707481327
 20
2735.246070885441
 30
0.0
 11
2784.183707481327
 21
2735.246436613954
 31
0.0
  0
LINE
  5
1933
330
1F
100
AcDbEntity
  8
SANINDUSA
100
AcDbLine
 10
2784.198712652626
 20
2735.228761333499
 30
0.0
 11
2784.19884127945
 21
2735.228761333499
 31
0.0
  0
LINE
  5
1934
330
1F
100
AcDbEntity
  8
SANINDUSA
100
AcDbLine
 10
2784.183707481327
 20
2735.228053805469
 30
0.0
 11
2784.198712563219
 21
2735.228053805469
 31
0.0
  0
LINE
  5
1935
330
1F
100
AcDbEntity
  8
SANINDUSA
100
AcDbLine
 10
2784.183707481327
 20
2735.228053805469
 30
0.0
 11
2784.183707481327
 21
2735.228760912221
 31
0.0
  0
LINE
  5
1936
330
1F
100
AcDbEntity
  8
SANINDUSA
100
AcDbLine
 10
2783.566207474175
 20
2735.228053805469
 30
0.0
 11
2783.551702385845
 21
2735.228053805469
 31
0.0
  0
LINE
  5
1937
330
1F
100
AcDbEntity
  8
SANINDUSA
100
AcDbLine
 10
2783.566207474175
 20
2735.226274904205
 30
0.0
 11
2783.551702385845
 21
2735.226274904205
 31
0.0
  0
LINE
  5
1938
330
1F
100
AcDbEntity
  8
SANINDUSA
100
AcDbLine
 10
2783.551702326241
 20
2735.228761333499
 30
0.0
 11
2783.551573669615
 21
2735.228761333499
 31
0.0
  0
LINE
  5
1939
330
1F
100
AcDbEntity
  8
SANINDUSA
100
AcDbLine
 10
2784.183707481327
 20
2735.226274904205
 30
0.0
 11
2784.198712563219
 21
2735.226274904205
 31
0.0
  0
LINE
  5
193A
330
1F
100
AcDbEntity
  8
SANINDUSA
100
AcDbLine
 10
2784.183707481327
 20
2735.228053805469
 30
0.0
 11
2784.183707481327
 21
2735.226274904205
 31
0.0
  0
LINE
  5
193B
330
1F
100
AcDbEntity
  8
SANINDUSA
100
AcDbLine
 10
2784.183707481327
 20
2735.249962327412
 30
0.0
 11
2784.198712563219
 21
2735.249962327412
 31
0.0
  0
LINE
  5
193C
330
1F
100
AcDbEntity
  8
SANINDUSA
100
AcDbLine
 10
2784.198712652626
 20
2735.24925479979
 30
0.0
 11
2784.19884127945
 21
2735.24925479979
 31
0.0
  0
LINE
  5
193D
330
1F
100
AcDbEntity
  8
SANINDUSA
100
AcDbLine
 10
2784.183707481327
 20
2735.249255220747
 30
0.0
 11
2784.183707481327
 21
2735.249962327412
 31
0.0
  0
LINE
  5
193E
330
1F
100
AcDbEntity
  8
SANINDUSA
100
AcDbLine
 10
2783.566207474175
 20
2735.249962327412
 30
0.0
 11
2783.551702385845
 21
2735.249962327412
 31
0.0
  0
LINE
  5
193F
330
1F
100
AcDbEntity
  8
SANINDUSA
100
AcDbLine
 10
2783.551702326241
 20
2735.24925479979
 30
0.0
 11
2783.551573669615
 21
2735.24925479979
 31
0.0
  0
LINE
  5
1940
330
1F
100
AcDbEntity
  8
SANINDUSA
100
AcDbLine
 10
2784.183707481327
 20
2735.251741228035
 30
0.0
 11
2784.198712563219
 21
2735.251741228035
 31
0.0
  0
LINE
  5
1941
330
1F
100
AcDbEntity
  8
SANINDUSA
100
AcDbLine
 10
2784.183707481327
 20
2735.251741228035
 30
0.0
 11
2784.183707481327
 21
2735.249962327412
 31
0.0
  0
LINE
  5
1942
330
1F
100
AcDbEntity
  8
SANINDUSA
100
AcDbLine
 10
2783.566207474175
 20
2735.251741228035
 30
0.0
 11
2783.551702385845
 21
2735.251741228035
 31
0.0
  0
LINE
  5
1943
330
1F
100
AcDbEntity
  8
SANINDUSA
100
AcDbLine
 10
2784.158707475367
 20
2734.931508076719
 30
0.0
 11
2784.158707475367
 21
2735.546508056453
 31
0.0
  0
LINE
  5
1944
330
1F
100
AcDbEntity
  8
SANINDUSA
100
AcDbLine
 10
2784.158707475367
 20
2735.546508056453
 30
0.0
 11
2783.591707473698
 21
2735.546508056453
 31
0.0
  0
LINE
  5
1945
330
1F
100
AcDbEntity
  8
SANINDUSA
100
AcDbLine
 10
2784.178707486095
 20
2735.566508067182
 30
0.0
 11
2783.571707492771
 21
2735.566508067182
 31
0.0
  0
LINE
  5
1946
330
1F
100
AcDbEntity
  8
SANINDUSA
100
AcDbLine
 10
2784.178707486095
 20
2734.91150806599
 30
0.0
 11
2784.178707486095
 21
2735.226029888835
 31
0.0
  0
LINE
  5
1947
330
1F
100
AcDbEntity
  8
SANINDUSA
100
AcDbLine
 10
2784.178707486095
 20
2735.251986244104
 30
0.0
 11
2784.178707486095
 21
2735.566508067182
 31
0.0
  0
LINE
  5
1948
330
1F
100
AcDbEntity
  8
SANINDUSA
100
AcDbLine
 10
2783.591707473698
 20
2734.931508076719
 30
0.0
 11
2784.158707475367
 21
2734.931508076719
 31
0.0
  0
LINE
  5
1949
330
1F
100
AcDbEntity
  8
SANINDUSA
100
AcDbLine
 10
2783.571707492771
 20
2735.566508067182
 30
0.0
 11
2783.571707492771
 21
2734.91150806599
 31
0.0
  0
LINE
  5
194A
330
1F
100
AcDbEntity
  8
SANINDUSA
100
AcDbLine
 10
2783.591707473698
 20
2735.546508056453
 30
0.0
 11
2783.591707473698
 21
2734.931508076719
 31
0.0
  0
LINE
  5
194B
330
1F
100
AcDbEntity
  8
SANINDUSA
100
AcDbLine
 10
2783.571707492771
 20
2734.91150806599
 30
0.0
 11
2784.178707486095
 21
2734.91150806599
 31
0.0
  0
LINE
  5
194C
330
1F
100
AcDbEntity
  8
SANINDUSA
100
AcDbLine
 10
2783.551646834316
 20
2735.226641445529
 30
0.0
 11
2783.551573669615
 21
2735.226641445529
 31
0.0
  0
LINE
  5
194D
330
1F
100
AcDbEntity
  8
SANINDUSA
100
AcDbLine
 10
2784.198768114748
 20
2735.226641445529
 30
0.0
 11
2784.19884127945
 21
2735.226641445529
 31
0.0
  0
LINE
  5
194E
330
1F
100
AcDbEntity
  8
SANINDUSA
100
AcDbLine
 10
2783.551646834316
 20
2735.25137468741
 30
0.0
 11
2783.551573669615
 21
2735.25137468741
 31
0.0
  0
LINE
  5
194F
330
1F
100
AcDbEntity
  8
SANINDUSA
100
AcDbLine
 10
2784.198768114748
 20
2735.25137468741
 30
0.0
 11
2784.19884127945
 21
2735.25137468741
 31
0.0
  0
LINE
  5
1950
330
1F
100
AcDbEntity
  8
SANINDUSA
100
AcDbLine
 10
2783.566207474175
 20
2735.225774904123
 30
0.0
 11
2783.551702385845
 21
2735.225774904123
 31
0.0
  0
LINE
  5
1951
330
1F
100
AcDbEntity
  8
SANINDUSA
100
AcDbLine
 10
2784.183707481327
 20
2735.225774904123
 30
0.0
 11
2784.198712563219
 21
2735.225774904123
 31
0.0
  0
LINE
  5
1952
330
1F
100
AcDbEntity
  8
SANINDUSA
100
AcDbLine
 10
2784.183707481327
 20
2735.224656639962
 30
0.0
 11
2784.198712563219
 21
2735.224656639962
 31
0.0
  0
LINE
  5
1953
330
1F
100
AcDbEntity
  8
SANINDUSA
100
AcDbLine
 10
2784.183707481327
 20
2735.225774904123
 30
0.0
 11
2784.183707481327
 21
2735.224656639962
 31
0.0
  0
LINE
  5
1954
330
1F
100
AcDbEntity
  8
SANINDUSA
100
AcDbLine
 10
2784.183707481327
 20
2735.225774904123
 30
0.0
 11
2784.183707481327
 21
2735.226274904205
 31
0.0
  0
LINE
  5
1955
330
1F
100
AcDbEntity
  8
SANINDUSA
100
AcDbLine
 10
2783.566207474175
 20
2735.224656639962
 30
0.0
 11
2783.551702385845
 21
2735.224656639962
 31
0.0
  0
LINE
  5
1956
330
1F
100
AcDbEntity
  8
SANINDUSA
100
AcDbLine
 10
2783.566207474175
 20
2735.252241229049
 30
0.0
 11
2783.551702385845
 21
2735.252241229049
 31
0.0
  0
LINE
  5
1957
330
1F
100
AcDbEntity
  8
SANINDUSA
100
AcDbLine
 10
2784.183707481327
 20
2735.252241229049
 30
0.0
 11
2784.198712563219
 21
2735.252241229049
 31
0.0
  0
LINE
  5
1958
330
1F
100
AcDbEntity
  8
SANINDUSA
100
AcDbLine
 10
2784.183707481327
 20
2735.251741228035
 30
0.0
 11
2784.183707481327
 21
2735.252241229049
 31
0.0
  0
LINE
  5
1959
330
1F
100
AcDbEntity
  8
SANINDUSA
100
AcDbLine
 10
2783.566207474175
 20
2735.253359492279
 30
0.0
 11
2783.551702385845
 21
2735.253359492279
 31
0.0
  0
LINE
  5
195A
330
1F
100
AcDbEntity
  8
SANINDUSA
100
AcDbLine
 10
2784.183707481327
 20
2735.253359492279
 30
0.0
 11
2784.198712563219
 21
2735.253359492279
 31
0.0
  0
LINE
  5
195B
330
1F
100
AcDbEntity
  8
SANINDUSA
100
AcDbLine
 10
2784.183707481327
 20
2735.253359492279
 30
0.0
 11
2784.183707481327
 21
2735.252241229049
 31
0.0
  0
LINE
  5
195C
330
1F
100
AcDbEntity
  8
SANINDUSA
100
AcDbLine
 10
2783.551607256832
 20
2735.225364322417
 30
0.0
 11
2783.551573669615
 21
2735.225364322417
 31
0.0
  0
LINE
  5
195D
330
1F
100
AcDbEntity
  8
SANINDUSA
100
AcDbLine
 10
2784.198807692232
 20
2735.225364322417
 30
0.0
 11
2784.19884127945
 21
2735.225364322417
 31
0.0
  0
LINE
  5
195E
330
1F
100
AcDbEntity
  8
SANINDUSA
100
AcDbLine
 10
2783.551607256832
 20
2735.252651810057
 30
0.0
 11
2783.551573669615
 21
2735.252651810057
 31
0.0
  0
LINE
  5
195F
330
1F
100
AcDbEntity
  8
SANINDUSA
100
AcDbLine
 10
2784.198807692232
 20
2735.252651810057
 30
0.0
 11
2784.19884127945
 21
2735.252651810057
 31
0.0
  0
LINE
  5
1960
330
1F
100
AcDbEntity
  8
SANINDUSA
100
AcDbLine
 10
2784.183707481327
 20
2735.224397821228
 30
0.0
 11
2784.198712563219
 21
2735.224397821228
 31
0.0
  0
LINE
  5
1961
330
1F
100
AcDbEntity
  8
SANINDUSA
100
AcDbLine
 10
2784.183707481327
 20
2735.224016401793
 30
0.0
 11
2784.198712563219
 21
2735.224016401793
 31
0.0
  0
LINE
  5
1962
330
1F
100
AcDbEntity
  8
SANINDUSA
100
AcDbLine
 10
2784.183707481327
 20
2735.224397821228
 30
0.0
 11
2784.183707481327
 21
2735.224016401793
 31
0.0
  0
LINE
  5
1963
330
1F
100
AcDbEntity
  8
SANINDUSA
100
AcDbLine
 10
2783.566207474175
 20
2735.224397821228
 30
0.0
 11
2783.551702385845
 21
2735.224397821228
 31
0.0
  0
LINE
  5
1964
330
1F
100
AcDbEntity
  8
SANINDUSA
100
AcDbLine
 10
2784.183707481327
 20
2735.224397821228
 30
0.0
 11
2784.183707481327
 21
2735.224656639962
 31
0.0
  0
LINE
  5
1965
330
1F
100
AcDbEntity
  8
SANINDUSA
100
AcDbLine
 10
2783.566207474175
 20
2735.224016401793
 30
0.0
 11
2783.551702385845
 21
2735.224016401793
 31
0.0
  0
LINE
  5
1966
330
1F
100
AcDbEntity
  8
SANINDUSA
100
AcDbLine
 10
2784.183707481327
 20
2735.25361831241
 30
0.0
 11
2784.198712563219
 21
2735.25361831241
 31
0.0
  0
LINE
  5
1967
330
1F
100
AcDbEntity
  8
SANINDUSA
100
AcDbLine
 10
2784.183707481327
 20
2735.253359492279
 30
0.0
 11
2784.183707481327
 21
2735.25361831241
 31
0.0
  0
LINE
  5
1968
330
1F
100
AcDbEntity
  8
SANINDUSA
100
AcDbLine
 10
2783.566207474175
 20
2735.25361831241
 30
0.0
 11
2783.551702385845
 21
2735.25361831241
 31
0.0
  0
LINE
  5
1969
330
1F
100
AcDbEntity
  8
SANINDUSA
100
AcDbLine
 10
2783.566207474175
 20
2735.253999729982
 30
0.0
 11
2783.551702385845
 21
2735.253999729982
 31
0.0
  0
LINE
  5
196A
330
1F
100
AcDbEntity
  8
SANINDUSA
100
AcDbLine
 10
2784.183707481327
 20
2735.253999729982
 30
0.0
 11
2784.198712563219
 21
2735.253999729982
 31
0.0
  0
LINE
  5
196B
330
1F
100
AcDbEntity
  8
SANINDUSA
100
AcDbLine
 10
2784.183707481327
 20
2735.253999729982
 30
0.0
 11
2784.183707481327
 21
2735.25361831241
 31
0.0
  0
LINE
  5
196C
330
1F
100
AcDbEntity
  8
SANINDUSA
100
AcDbLine
 10
2782.786406689619
 20
2735.180972958554
 30
0.0
 11
2782.788906687234
 21
2735.180972958554
 31
0.0
  0
LINE
  5
196D
330
1F
100
AcDbEntity
  8
SANINDUSA
100
AcDbLine
 10
2783.398906701539
 20
2735.180972958554
 30
0.0
 11
2783.401406699155
 21
2735.180972958554
 31
0.0
  0
ARC
  5
196E
330
1F
100
AcDbEntity
  8
SANINDUSA
100
AcDbCircle
 10
2782.884479001728
 20
2735.195972958946
 30
0.0
 40
0.1135723076286758
100
AcDbArc
 50
179.9994030515132
 51
187.0808317589122
  0
ARC
  5
196F
330
1F
100
AcDbEntity
  8
SANINDUSA
100
AcDbCircle
 10
2782.884479001728
 20
2735.195972958946
 30
0.0
 40
0.1135723076286758
100
AcDbArc
 50
172.9191682410878
 51
179.9994030515132
  0
ARC
  5
1970
330
1F
100
AcDbEntity
  8
SANINDUSA
100
AcDbCircle
 10
2783.30633438647
 20
2735.195972958946
 30
0.0
 40
0.1135723076286759
100
AcDbArc
 50
359.9982681172405
 51
7.080831758912211
  0
ARC
  5
1971
330
1F
100
AcDbEntity
  8
SANINDUSA
100
AcDbCircle
 10
2783.30633438647
 20
2735.195972958946
 30
0.0
 40
0.1135723076286759
100
AcDbArc
 50
352.9191682410878
 51
359.9982681172405
  0
LINE
  5
1972
330
1F
100
AcDbEntity
  8
SANINDUSA
100
AcDbLine
 10
2783.401406699155
 20
2735.192972958658
 30
0.0
 11
2783.403906696771
 21
2735.192972958658
 31
0.0
  0
LINE
  5
1973
330
1F
100
AcDbEntity
  8
SANINDUSA
100
AcDbLine
 10
2783.403906696771
 20
2735.198972959176
 30
0.0
 11
2783.401406699155
 21
2735.198972959176
 31
0.0
  0
LINE
  5
1974
330
1F
100
AcDbEntity
  8
SANINDUSA
100
AcDbLine
 10
2782.791906708215
 20
2735.198972959176
 30
0.0
 11
2782.788906687234
 21
2735.198972959176
 31
0.0
  0
LINE
  5
1975
330
1F
100
AcDbEntity
  8
SANINDUSA
100
AcDbLine
 10
2782.788906687234
 20
2735.192972958658
 30
0.0
 11
2782.791906708215
 21
2735.192972958658
 31
0.0
  0
LINE
  5
1976
330
1F
100
AcDbEntity
  8
SANINDUSA
100
AcDbLine
 10
2782.771773987744
 20
2735.209972959116
 30
0.0
 11
2782.771772885059
 21
2735.209972959116
 31
0.0
  0
LINE
  5
1977
330
1F
100
AcDbEntity
  8
SANINDUSA
100
AcDbLine
 10
2783.419039392207
 20
2735.181972958717
 30
0.0
 11
2783.419040494893
 21
2735.181972958717
 31
0.0
  0
LINE
  5
1978
330
1F
100
AcDbEntity
  8
SANINDUSA
100
AcDbLine
 10
2782.771772885059
 20
2735.181972958717
 30
0.0
 11
2782.771773987744
 21
2735.181972958717
 31
0.0
  0
LINE
  5
1979
330
1F
100
AcDbEntity
  8
SANINDUSA
100
AcDbLine
 10
2783.419040494893
 20
2735.209972959116
 30
0.0
 11
2783.419039392207
 21
2735.209972959116
 31
0.0
  0
LINE
  5
197B
330
1F
100
AcDbEntity
  8
SANINDUSA
100
AcDbLine
 10
2782.796406680081
 20
2735.278472958702
 30
0.0
 11
2783.391406708692
 21
2735.278472958702
 31
0.0
  0
ARC
  5
197D
330
1F
100
AcDbEntity
  8
SANINDUSA
100
AcDbCircle
 10
2782.796406694099
 20
2735.270972958947
 30
0.0
 40
0.01
100
AcDbArc
 50
90.0
 51
131.409622096454
  0
LINE
  5
197E
330
1F
100
AcDbEntity
  8
SANINDUSA
100
AcDbLine
 10
2783.391406708692
 20
2735.280972956319
 30
0.0
 11
2782.796406680081
 21
2735.280972956319
 31
0.0
  0
ARC
  5
197F
330
1F
100
AcDbEntity
  8
SANINDUSA
100
AcDbCircle
 10
2783.391406694099
 20
2735.270972958947
 30
0.0
 40
0.01
100
AcDbArc
 50
48.59037790354593
 51
90.0
  0
LINE
  5
1981
330
1F
100
AcDbEntity
  8
SANINDUSA
100
AcDbLine
 10
2783.398906701539
 20
2735.221972959686
 30
0.0
 11
2783.398906701539
 21
2735.270972958405
 31
0.0
  0
LINE
  5
1982
330
1F
100
AcDbEntity
  8
SANINDUSA
100
AcDbLine
 10
2783.401406699155
 20
2735.270972958405
 30
0.0
 11
2783.401406699155
 21
2735.195342572976
 31
0.0
  0
ARC
  5
1983
330
1F
100
AcDbEntity
  8
SANINDUSA
100
AcDbCircle
 10
2783.391406694099
 20
2735.270972958947
 30
0.0
 40
0.0075
100
AcDbArc
 50
0.0
 51
90.0
  0
ARC
  5
1984
330
1F
100
AcDbEntity
  8
SANINDUSA
100
AcDbCircle
 10
2783.391406694099
 20
2735.270972958947
 30
0.0
 40
0.01
100
AcDbArc
 50
0.0
 51
48.59037790354593
  0
LINE
  5
1985
330
1F
100
AcDbEntity
  8
SANINDUSA
100
AcDbLine
 10
2782.788906687234
 20
2735.270972958405
 30
0.0
 11
2782.788906687234
 21
2735.195342572976
 31
0.0
  0
LINE
  5
1987
330
1F
100
AcDbEntity
  8
SANINDUSA
100
AcDbLine
 10
2782.786406689619
 20
2735.270972958405
 30
0.0
 11
2782.786406689619
 21
2735.195342572976
 31
0.0
  0
ARC
  5
1988
330
1F
100
AcDbEntity
  8
SANINDUSA
100
AcDbCircle
 10
2782.796406694099
 20
2735.270972958947
 30
0.0
 40
0.0075
100
AcDbArc
 50
90.0
 51
180.0
  0
ARC
  5
1989
330
1F
100
AcDbEntity
  8
SANINDUSA
100
AcDbCircle
 10
2782.796406694099
 20
2735.270972958947
 30
0.0
 40
0.01
100
AcDbArc
 50
131.409622096454
 51
180.0
  0
LINE
  5
198A
330
1F
100
AcDbEntity
  8
SANINDUSA
100
AcDbLine
 10
2782.786406689619
 20
2735.195342572976
 30
0.0
 11
2782.786406689619
 21
2735.180972958554
 31
0.0
  0
LINE
  5
198B
330
1F
100
AcDbEntity
  8
SANINDUSA
100
AcDbLine
 10
2782.788906687234
 20
2735.195342572976
 30
0.0
 11
2782.788906687234
 21
2735.180972958554
 31
0.0
  0
LINE
  5
198C
330
1F
100
AcDbEntity
  8
SANINDUSA
100
AcDbLine
 10
2783.398906701539
 20
2735.180972958554
 30
0.0
 11
2783.398906701539
 21
2735.186972959537
 31
0.0
  0
LINE
  5
198D
330
1F
100
AcDbEntity
  8
SANINDUSA
100
AcDbLine
 10
2783.401406699155
 20
2735.195342572976
 30
0.0
 11
2783.401406699155
 21
2735.180972958554
 31
0.0
  0
LINE
  5
198E
330
1F
100
AcDbEntity
  8
SANINDUSA
100
AcDbLine
 10
2783.398906701539
 20
2735.186972959537
 30
0.0
 11
2782.791906708215
 21
2735.186972959537
 31
0.0
  0
LINE
  5
198F
330
1F
100
AcDbEntity
  8
SANINDUSA
100
AcDbLine
 10
2782.791906708215
 20
2735.186972959537
 30
0.0
 11
2782.791906708215
 21
2735.221972959686
 31
0.0
  0
LINE
  5
1990
330
1F
100
AcDbEntity
  8
SANINDUSA
100
AcDbLine
 10
2783.398906701539
 20
2735.186972959537
 30
0.0
 11
2783.398906701539
 21
2735.221972959686
 31
0.0
  0
LINE
  5
1991
330
1F
100
AcDbEntity
  8
SANINDUSA
100
AcDbLine
 10
2782.791906708215
 20
2735.221972959686
 30
0.0
 11
2783.398906701539
 21
2735.221972959686
 31
0.0
  0
LINE
  5
1992
330
1F
100
AcDbEntity
  8
SANINDUSA
100
AcDbLine
 10
2782.771901601289
 20
2735.209206121147
 30
0.0
 11
2782.771901601289
 21
2735.210324385308
 31
0.0
  0
ARC
  5
1993
330
1F
100
AcDbEntity
  8
SANINDUSA
100
AcDbCircle
 10
2782.857549875805
 20
2735.196041079185
 30
0.0
 40
0.0866541704558272
100
AcDbArc
 50
171.2614287158096
 51
171.8406752151788
  0
LINE
  5
1994
330
1F
100
AcDbEntity
  8
SANINDUSA
100
AcDbLine
 10
2782.771772885059
 20
2735.207839579659
 30
0.0
 11
2782.771772885059
 21
2735.20833957974
 31
0.0
  0
ARC
  5
1995
330
1F
100
AcDbEntity
  8
SANINDUSA
100
AcDbCircle
 10
2782.85754748624
 20
2735.195541434049
 30
0.0
 40
0.0866517547039493
100
AcDbArc
 50
171.261420623698
 51
171.840683270041
  0
LINE
  5
1996
330
1F
100
AcDbEntity
  8
SANINDUSA
100
AcDbLine
 10
2782.771901601289
 20
2735.206927219859
 30
0.0
 11
2782.771901601289
 21
2735.208706121065
 31
0.0
  0
ARC
  5
1997
330
1F
100
AcDbEntity
  8
SANINDUSA
100
AcDbCircle
 10
2782.829595435076
 20
2735.196065862618
 30
0.0
 40
0.058707303958739
100
AcDbArc
 50
169.3383650867165
 51
170.0402198696817
  0
LINE
  5
1998
330
1F
100
AcDbEntity
  8
SANINDUSA
100
AcDbLine
 10
2782.771772885059
 20
2735.205512585026
 30
0.0
 11
2782.771772885059
 21
2735.206219691829
 31
0.0
  0
ARC
  5
1999
330
1F
100
AcDbEntity
  8
SANINDUSA
100
AcDbCircle
 10
2782.829595226141
 20
2735.195358794161
 30
0.0
 40
0.058707091540282
100
AcDbArc
 50
169.338364105577
 51
170.040221454492
  0
LINE
  5
199A
330
1F
100
AcDbEntity
  8
SANINDUSA
100
AcDbLine
 10
2782.771901601289
 20
2735.203901803807
 30
0.0
 11
2782.771901601289
 21
2735.206220113078
 31
0.0
  0
ARC
  5
199B
330
1F
100
AcDbEntity
  8
SANINDUSA
100
AcDbCircle
 10
2782.801641525039
 20
2735.195983631706
 30
0.0
 40
0.0307759729998949
100
AcDbArc
 50
165.0910220347573
 51
166.052772305248
  0
LINE
  5
199C
330
1F
100
AcDbEntity
  8
SANINDUSA
100
AcDbLine
 10
2782.771772885059
 20
2735.202535480598
 30
0.0
 11
2782.771772885059
 21
2735.203401506052
 31
0.0
  0
ARC
  5
199D
330
1F
100
AcDbEntity
  8
SANINDUSA
100
AcDbCircle
 10
2782.801641660981
 20
2735.19511757312
 30
0.0
 40
0.0307761129195647
100
AcDbArc
 50
165.0910273182267
 51
166.052773461667
  0
LINE
  5
199E
330
1F
100
AcDbEntity
  8
SANINDUSA
100
AcDbLine
 10
2782.771901601289
 20
2735.200336049881
 30
0.0
 11
2782.771901601289
 21
2735.20303577847
 31
0.0
  0
ARC
  5
199F
330
1F
100
AcDbEntity
  8
SANINDUSA
100
AcDbCircle
 10
2782.781177159414
 20
2735.195564382903
 30
0.0
 40
0.010430953181585
100
AcDbArc
 50
152.777147790773
 51
154.3657168387267
  0
LINE
  5
19A0
330
1F
100
AcDbEntity
  8
SANINDUSA
100
AcDbLine
 10
2782.771772885059
 20
2735.199111151147
 30
0.0
 11
2782.771772885059
 21
2735.200077077013
 31
0.0
  0
ARC
  5
19A1
330
1F
100
AcDbEntity
  8
SANINDUSA
100
AcDbCircle
 10
2782.781178385653
 20
2735.194597856147
 30
0.0
 40
0.0104323186874732
100
AcDbArc
 50
152.7772916933967
 51
154.3656550854159
  0
LINE
  5
19A2
330
1F
100
AcDbEntity
  8
SANINDUSA
100
AcDbLine
 10
2782.771901601289
 20
2735.196472959231
 30
0.0
 11
2782.771901601289
 21
2735.199370124482
 31
0.0
  0
LINE
  5
19A3
330
1F
100
AcDbEntity
  8
SANINDUSA
100
AcDbLine
 10
2782.771772885059
 20
2735.196472959231
 30
0.0
 11
2782.771901601289
 21
2735.196472959231
 31
0.0
  0
LINE
  5
19A4
330
1F
100
AcDbEntity
  8
SANINDUSA
100
AcDbLine
 10
2782.771772885059
 20
2735.195472959068
 30
0.0
 11
2782.771772885059
 21
2735.196472959231
 31
0.0
  0
LINE
  5
19A5
330
1F
100
AcDbEntity
  8
SANINDUSA
100
AcDbLine
 10
2782.771901601289
 20
2735.195472959068
 30
0.0
 11
2782.771772885059
 21
2735.195472959068
 31
0.0
  0
LINE
  5
19A6
330
1F
100
AcDbEntity
  8
SANINDUSA
100
AcDbLine
 10
2782.771901601289
 20
2735.192575793352
 30
0.0
 11
2782.771901601289
 21
2735.195472959068
 31
0.0
  0
ARC
  5
19A7
330
1F
100
AcDbEntity
  8
SANINDUSA
100
AcDbCircle
 10
2782.781177028287
 20
2735.197347378928
 30
0.0
 40
0.0104307993419129
100
AcDbArc
 50
205.6341870412721
 51
207.2227840860115
  0
LINE
  5
19A8
330
1F
100
AcDbEntity
  8
SANINDUSA
100
AcDbLine
 10
2782.771772885059
 20
2735.191868841287
 30
0.0
 11
2782.771772885059
 21
2735.192834767151
 31
0.0
  0
ARC
  5
19A9
330
1F
100
AcDbEntity
  8
SANINDUSA
100
AcDbCircle
 10
2782.781177028287
 20
2735.196381453063
 30
0.0
 40
0.0104307993419129
100
AcDbArc
 50
205.6341870412721
 51
207.2227840860115
  0
LINE
  5
19AA
330
1F
100
AcDbEntity
  8
SANINDUSA
100
AcDbLine
 10
2782.771901601289
 20
2735.188910140295
 30
0.0
 11
2782.771901601289
 21
2735.191609867487
 31
0.0
  0
ARC
  5
19AB
330
1F
100
AcDbEntity
  8
SANINDUSA
100
AcDbCircle
 10
2782.80163216389
 20
2735.196825912594
 30
0.0
 40
0.0307663095549292
100
AcDbArc
 50
193.9470932453665
 51
194.9091445673432
  0
LINE
  5
19AC
330
1F
100
AcDbEntity
  8
SANINDUSA
100
AcDbLine
 10
2782.771772885059
 20
2735.188544411782
 30
0.0
 11
2782.771772885059
 21
2735.189410437468
 31
0.0
  0
ARC
  5
19AD
330
1F
100
AcDbEntity
  8
SANINDUSA
100
AcDbCircle
 10
2782.801643674466
 20
2735.195962848344
 30
0.0
 40
0.030778194567684
100
AcDbArc
 50
193.9472790011211
 51
194.9089588219034
  0
LINE
  5
19AE
330
1F
100
AcDbEntity
  8
SANINDUSA
100
AcDbLine
 10
2782.771901601289
 20
2735.185725804988
 30
0.0
 11
2782.771901601289
 21
2735.188044114608
 31
0.0
  0
ARC
  5
19AF
330
1F
100
AcDbEntity
  8
SANINDUSA
100
AcDbCircle
 10
2782.829596821424
 20
2735.196587420287
 30
0.0
 40
0.0587087141167363
100
AcDbArc
 50
189.9597945746247
 51
190.661632102712
  0
LINE
  5
19B0
330
1F
100
AcDbEntity
  8
SANINDUSA
100
AcDbLine
 10
2782.771772885059
 20
2735.185726225946
 30
0.0
 11
2782.771772885059
 21
2735.186433332611
 31
0.0
  0
ARC
  5
19B1
330
1F
100
AcDbEntity
  8
SANINDUSA
100
AcDbCircle
 10
2782.829596821424
 20
2735.195880313622
 30
0.0
 40
0.0587087141167364
100
AcDbArc
 50
189.9597945746247
 51
190.661632102712
  0
LINE
  5
19B2
330
1F
100
AcDbEntity
  8
SANINDUSA
100
AcDbLine
 10
2782.771901601289
 20
2735.1832397977
 30
0.0
 11
2782.771901601289
 21
2735.185018698324
 31
0.0
  0
ARC
  5
19B3
330
1F
100
AcDbEntity
  8
SANINDUSA
100
AcDbCircle
 10
2782.857551531647
 20
2735.196405108753
 30
0.0
 40
0.0866558479585547
100
AcDbArc
 50
188.1593466022064
 51
188.7385808283239
  0
LINE
  5
19B4
330
1F
100
AcDbEntity
  8
SANINDUSA
100
AcDbLine
 10
2782.771772885059
 20
2735.183606338326
 30
0.0
 11
2782.771772885059
 21
2735.184106337476
 31
0.0
  0
ARC
  5
19B5
330
1F
100
AcDbEntity
  8
SANINDUSA
100
AcDbCircle
 10
2782.857545929177
 20
2735.195904249112
 30
0.0
 40
0.0866501800742697
100
AcDbArc
 50
188.159309146737
 51
188.7385824606143
  0
LINE
  5
19B6
330
1F
100
AcDbEntity
  8
SANINDUSA
100
AcDbLine
 10
2782.771901601289
 20
2735.181621533457
 30
0.0
 11
2782.771901601289
 21
2735.182739796687
 31
0.0
  0
ARC
  5
19B7
330
1F
100
AcDbEntity
  8
SANINDUSA
100
AcDbCircle
 10
2782.878004877769
 20
2735.196243936081
 30
0.0
 40
0.1071061153173159
100
AcDbArc
 50
187.3250818499728
 51
187.8466722359537
  0
LINE
  5
19B8
330
1F
100
AcDbEntity
  8
SANINDUSA
100
AcDbLine
 10
2782.771772885059
 20
2735.182329215679
 30
0.0
 11
2782.771772885059
 21
2735.182588033948
 31
0.0
  0
ARC
  5
19B9
330
1F
100
AcDbEntity
  8
SANINDUSA
100
AcDbCircle
 10
2782.878012274798
 20
2735.195986074749
 30
0.0
 40
0.107113573984815
100
AcDbArc
 50
187.3250850559049
 51
187.8466401229464
  0
LINE
  5
19BA
330
1F
100
AcDbEntity
  8
SANINDUSA
100
AcDbLine
 10
2782.771901601289
 20
2735.180981293891
 30
0.0
 11
2782.771901601289
 21
2735.181362713326
 31
0.0
  0
ARC
  5
19BB
330
1F
100
AcDbEntity
  8
SANINDUSA
100
AcDbCircle
 10
2782.884479001728
 20
2735.195972958946
 30
0.0
 40
0.1135712070029309
100
AcDbArc
 50
187.076360286092
 51
187.5853148631833
  0
LINE
  5
19BC
330
1F
100
AcDbEntity
  8
SANINDUSA
100
AcDbLine
 10
2782.771772885059
 20
2735.181972958717
 30
0.0
 11
2782.771772885059
 21
2735.181981890101
 31
0.0
  0
LINE
  5
19BD
330
1F
100
AcDbEntity
  8
SANINDUSA
100
AcDbLine
 10
2782.771772885059
 20
2735.209964027732
 30
0.0
 11
2782.771772885059
 21
2735.209972959116
 31
0.0
  0
ARC
  5
19BE
330
1F
100
AcDbEntity
  8
SANINDUSA
100
AcDbCircle
 10
2782.884479001728
 20
2735.195972958946
 30
0.0
 40
0.1135712070029309
100
AcDbArc
 50
172.4146851368167
 51
172.9236397139079
  0
LINE
  5
19BF
330
1F
100
AcDbEntity
  8
SANINDUSA
100
AcDbLine
 10
2782.771901601289
 20
2735.210583204042
 30
0.0
 11
2782.771901601289
 21
2735.210964623477
 31
0.0
  0
ARC
  5
19C0
330
1F
100
AcDbEntity
  8
SANINDUSA
100
AcDbCircle
 10
2782.87801203402
 20
2735.195959854946
 30
0.0
 40
0.1071133337783861
100
AcDbArc
 50
172.1533488300586
 51
172.6749043051546
  0
LINE
  5
19C1
330
1F
100
AcDbEntity
  8
SANINDUSA
100
AcDbLine
 10
2782.771772885059
 20
2735.209357883885
 30
0.0
 11
2782.771772885059
 21
2735.209616703086
 31
0.0
  0
ARC
  5
19C2
330
1F
100
AcDbEntity
  8
SANINDUSA
100
AcDbCircle
 10
2782.878013225179
 20
2735.195700884156
 30
0.0
 40
0.1071145345432964
100
AcDbArc
 50
172.1533552489207
 51
172.6749051195588
  0
ARC
  5
19C3
330
1F
100
AcDbEntity
  8
SANINDUSA
100
AcDbCircle
 10
2783.314053454631
 20
2735.196126607716
 30
0.0
 40
0.1058501832601015
100
AcDbArc
 50
7.321983716168356
 51
7.849763132183147
  0
LINE
  5
19C4
330
1F
100
AcDbEntity
  8
SANINDUSA
100
AcDbLine
 10
2783.418911778663
 20
2735.210583204042
 30
0.0
 11
2783.418911778663
 21
2735.210964623477
 31
0.0
  0
ARC
  5
19C5
330
1F
100
AcDbEntity
  8
SANINDUSA
100
AcDbCircle
 10
2783.30633438647
 20
2735.195972958946
 30
0.0
 40
0.1135712070029308
100
AcDbArc
 50
7.07636028609203
 51
7.5853148631833
  0
LINE
  5
19C6
330
1F
100
AcDbEntity
  8
SANINDUSA
100
AcDbLine
 10
2783.419040494893
 20
2735.209964027732
 30
0.0
 11
2783.419040494893
 21
2735.209972959116
 31
0.0
  0
LINE
  5
19C7
330
1F
100
AcDbEntity
  8
SANINDUSA
100
AcDbLine
 10
2783.419040494893
 20
2735.181972958717
 30
0.0
 11
2783.419040494893
 21
2735.181981890101
 31
0.0
  0
ARC
  5
19C8
330
1F
100
AcDbEntity
  8
SANINDUSA
100
AcDbCircle
 10
2783.30633438647
 20
2735.195972958946
 30
0.0
 40
0.1135712070029308
100
AcDbArc
 50
352.4146851368167
 51
352.923639713908
  0
LINE
  5
19C9
330
1F
100
AcDbEntity
  8
SANINDUSA
100
AcDbLine
 10
2783.418911778663
 20
2735.180981293891
 30
0.0
 11
2783.418911778663
 21
2735.181362713326
 31
0.0
  0
ARC
  5
19CA
330
1F
100
AcDbEntity
  8
SANINDUSA
100
AcDbCircle
 10
2783.314053450436
 20
2735.195819290713
 30
0.0
 40
0.105850184829232
100
AcDbArc
 50
352.1502473362954
 51
352.6780275012721
  0
LINE
  5
19CB
330
1F
100
AcDbEntity
  8
SANINDUSA
100
AcDbLine
 10
2783.419040494893
 20
2735.182329215679
 30
0.0
 11
2783.419040494893
 21
2735.182588033948
 31
0.0
  0
ARC
  5
19CC
330
1F
100
AcDbEntity
  8
SANINDUSA
100
AcDbCircle
 10
2783.314060283633
 20
2735.196077226814
 30
0.0
 40
0.1058432949246589
100
AcDbArc
 50
352.1502161960864
 51
352.6780297344231
  0
LINE
  5
19CD
330
1F
100
AcDbEntity
  8
SANINDUSA
100
AcDbLine
 10
2783.418911778663
 20
2735.181621533457
 30
0.0
 11
2783.418911778663
 21
2735.182739796687
 31
0.0
  0
ARC
  5
19CE
330
1F
100
AcDbEntity
  8
SANINDUSA
100
AcDbCircle
 10
2783.334278247397
 20
2735.195754105224
 30
0.0
 40
0.0856283063077072
100
AcDbArc
 50
351.2579610274294
 51
351.8441473574425
  0
LINE
  5
19CF
330
1F
100
AcDbEntity
  8
SANINDUSA
100
AcDbLine
 10
2783.419040494893
 20
2735.183606338326
 30
0.0
 11
2783.419040494893
 21
2735.184106337476
 31
0.0
  0
ARC
  5
19D0
330
1F
100
AcDbEntity
  8
SANINDUSA
100
AcDbCircle
 10
2783.33427280841
 20
2735.196254940258
 30
0.0
 40
0.0856338088684762
100
AcDbArc
 50
351.2579625824618
 51
351.8441100051394
  0
LINE
  5
19D1
330
1F
100
AcDbEntity
  8
SANINDUSA
100
AcDbLine
 10
2783.418911778663
 20
2735.1832397977
 30
0.0
 11
2783.418911778663
 21
2735.185018698324
 31
0.0
  0
ARC
  5
19D2
330
1F
100
AcDbEntity
  8
SANINDUSA
100
AcDbCircle
 10
2783.361897851491
 20
2735.195756370105
 30
0.0
 40
0.0580162519201447
100
AcDbArc
 50
349.334179402696
 51
350.0443939309816
  0
LINE
  5
19D3
330
1F
100
AcDbEntity
  8
SANINDUSA
100
AcDbLine
 10
2783.419040494893
 20
2735.185726225946
 30
0.0
 11
2783.419040494893
 21
2735.186433332611
 31
0.0
  0
ARC
  5
19D4
330
1F
100
AcDbEntity
  8
SANINDUSA
100
AcDbCircle
 10
2783.361897851491
 20
2735.19646347677
 30
0.0
 40
0.0580162519201447
100
AcDbArc
 50
349.334179402696
 51
350.0443939309816
  0
LINE
  5
19D5
330
1F
100
AcDbEntity
  8
SANINDUSA
100
AcDbLine
 10
2783.418911778663
 20
2735.185725804988
 30
0.0
 11
2783.418911778663
 21
2735.188044114608
 31
0.0
  0
ARC
  5
19D6
330
1F
100
AcDbEntity
  8
SANINDUSA
100
AcDbCircle
 10
2783.389521292918
 20
2735.195872392088
 30
0.0
 40
0.0304151702383122
100
AcDbArc
 50
345.0853019091756
 51
346.0584602494453
  0
LINE
  5
19D7
330
1F
100
AcDbEntity
  8
SANINDUSA
100
AcDbLine
 10
2783.419040494893
 20
2735.188544411782
 30
0.0
 11
2783.419040494893
 21
2735.189410437468
 31
0.0
  0
ARC
  5
19D8
330
1F
100
AcDbEntity
  8
SANINDUSA
100
AcDbCircle
 10
2783.389532399445
 20
2735.196735560293
 30
0.0
 40
0.0304037024295768
100
AcDbArc
 50
345.0851183691041
 51
346.0586437935112
  0
LINE
  5
19D9
330
1F
100
AcDbEntity
  8
SANINDUSA
100
AcDbLine
 10
2783.418911778663
 20
2735.188910140295
 30
0.0
 11
2783.418911778663
 21
2735.191609867487
 31
0.0
  0
ARC
  5
19DA
330
1F
100
AcDbEntity
  8
SANINDUSA
100
AcDbCircle
 10
2783.409746544017
 20
2735.196326684804
 30
0.0
 40
0.0103077588114325
100
AcDbArc
 50
332.7677339927907
 51
334.3752948810023
  0
LINE
  5
19DB
330
1F
100
AcDbEntity
  8
SANINDUSA
100
AcDbLine
 10
2783.419040494893
 20
2735.191868841287
 30
0.0
 11
2783.419040494893
 21
2735.192834767151
 31
0.0
  0
ARC
  5
19DC
330
1F
100
AcDbEntity
  8
SANINDUSA
100
AcDbCircle
 10
2783.409746544017
 20
2735.197292610669
 30
0.0
 40
0.0103077588114325
100
AcDbArc
 50
332.7677339927907
 51
334.3752948810023
  0
LINE
  5
19DD
330
1F
100
AcDbEntity
  8
SANINDUSA
100
AcDbLine
 10
2783.418911778663
 20
2735.192575793352
 30
0.0
 11
2783.418911778663
 21
2735.195472959068
 31
0.0
  0
LINE
  5
19DE
330
1F
100
AcDbEntity
  8
SANINDUSA
100
AcDbLine
 10
2783.418911778663
 20
2735.195472959068
 30
0.0
 11
2783.419040494893
 21
2735.195472959068
 31
0.0
  0
LINE
  5
19DF
330
1F
100
AcDbEntity
  8
SANINDUSA
100
AcDbLine
 10
2783.419040494893
 20
2735.195472959068
 30
0.0
 11
2783.419040494893
 21
2735.196472959231
 31
0.0
  0
LINE
  5
19E0
330
1F
100
AcDbEntity
  8
SANINDUSA
100
AcDbLine
 10
2783.419040494893
 20
2735.196472959231
 30
0.0
 11
2783.418911778663
 21
2735.196472959231
 31
0.0
  0
LINE
  5
19E1
330
1F
100
AcDbEntity
  8
SANINDUSA
100
AcDbLine
 10
2783.418911778663
 20
2735.196472959231
 30
0.0
 11
2783.418911778663
 21
2735.199370124482
 31
0.0
  0
ARC
  5
19E2
330
1F
100
AcDbEntity
  8
SANINDUSA
100
AcDbCircle
 10
2783.409745201631
 20
2735.19465263195
 30
0.0
 40
0.0103092613829322
100
AcDbArc
 50
25.62486449562269
 51
27.23218873628379
  0
LINE
  5
19E3
330
1F
100
AcDbEntity
  8
SANINDUSA
100
AcDbLine
 10
2783.419040494893
 20
2735.199111151147
 30
0.0
 11
2783.419040494893
 21
2735.200077077013
 31
0.0
  0
ARC
  5
19E4
330
1F
100
AcDbEntity
  8
SANINDUSA
100
AcDbCircle
 10
2783.409746381643
 20
2735.195619135829
 30
0.0
 40
0.0103079474539318
100
AcDbArc
 50
25.6248042691168
 51
27.23233110105802
  0
LINE
  5
19E5
330
1F
100
AcDbEntity
  8
SANINDUSA
100
AcDbLine
 10
2783.418911778663
 20
2735.200336049881
 30
0.0
 11
2783.418911778663
 21
2735.20303577847
 31
0.0
  0
ARC
  5
19E6
330
1F
100
AcDbEntity
  8
SANINDUSA
100
AcDbCircle
 10
2783.389523218895
 20
2735.195208006735
 30
0.0
 40
0.0304131789785098
100
AcDbArc
 50
13.94148793861297
 51
14.9147112994967
  0
LINE
  5
19E7
330
1F
100
AcDbEntity
  8
SANINDUSA
100
AcDbLine
 10
2783.419040494893
 20
2735.202535480598
 30
0.0
 11
2783.419040494893
 21
2735.203401506052
 31
0.0
  0
ARC
  5
19E8
330
1F
100
AcDbEntity
  8
SANINDUSA
100
AcDbCircle
 10
2783.389523360997
 20
2735.196074066927
 30
0.0
 40
0.0304130326928265
100
AcDbArc
 50
13.94148893075074
 51
14.91471674744162
  0
LINE
  5
19E9
330
1F
100
AcDbEntity
  8
SANINDUSA
100
AcDbLine
 10
2783.418911778663
 20
2735.203901803807
 30
0.0
 11
2783.418911778663
 21
2735.206220113078
 31
0.0
  0
ARC
  5
19EA
330
1F
100
AcDbEntity
  8
SANINDUSA
100
AcDbCircle
 10
2783.361899346413
 20
2735.195482719344
 30
0.0
 40
0.058014731364799
100
AcDbArc
 50
9.955590433851499
 51
10.66582399047382
  0
LINE
  5
19EB
330
1F
100
AcDbEntity
  8
SANINDUSA
100
AcDbLine
 10
2783.419040494893
 20
2735.205512585026
 30
0.0
 11
2783.419040494893
 21
2735.206219691829
 31
0.0
  0
ARC
  5
19EC
330
1F
100
AcDbEntity
  8
SANINDUSA
100
AcDbCircle
 10
2783.361899139059
 20
2735.196189788093
 30
0.0
 40
0.0580149421749757
100
AcDbArc
 50
9.955592048830165
 51
10.66582300933428
  0
LINE
  5
19ED
330
1F
100
AcDbEntity
  8
SANINDUSA
100
AcDbLine
 10
2783.418911778663
 20
2735.206927219859
 30
0.0
 11
2783.418911778663
 21
2735.208706121065
 31
0.0
  0
ARC
  5
19EE
330
1F
100
AcDbEntity
  8
SANINDUSA
100
AcDbCircle
 10
2783.334276710768
 20
2735.195691581013
 30
0.0
 40
0.0856298602735421
100
AcDbArc
 50
8.155860277361538
 51
8.742035807040858
  0
LINE
  5
19EF
330
1F
100
AcDbEntity
  8
SANINDUSA
100
AcDbLine
 10
2783.419040494893
 20
2735.207839579659
 30
0.0
 11
2783.419040494893
 21
2735.20833957974
 31
0.0
  0
ARC
  5
19F0
330
1F
100
AcDbEntity
  8
SANINDUSA
100
AcDbCircle
 10
2783.334274405104
 20
2735.196191238611
 30
0.0
 40
0.0856321912040893
100
AcDbArc
 50
8.155868251152389
 51
8.742027847651748
  0
LINE
  5
19F1
330
1F
100
AcDbEntity
  8
SANINDUSA
100
AcDbLine
 10
2783.418911778663
 20
2735.209206121147
 30
0.0
 11
2783.418911778663
 21
2735.210324385308
 31
0.0
  0
ARC
  5
19F2
330
1F
100
AcDbEntity
  8
SANINDUSA
100
AcDbCircle
 10
2783.314052404449
 20
2735.19586765562
 30
0.0
 40
0.1058512418156816
100
AcDbArc
 50
7.321982610853866
 51
7.849757004358084
  0
LINE
  5
19F3
330
1F
100
AcDbEntity
  8
SANINDUSA
100
AcDbLine
 10
2783.419040494893
 20
2735.209357883885
 30
0.0
 11
2783.419040494893
 21
2735.209616703086
 31
0.0
  0
LINE
  5
19F4
330
1F
100
AcDbEntity
  8
SANINDUSA
100
AcDbLine
 10
2782.786406689619
 20
2735.199370124482
 30
0.0
 11
2782.771901601289
 21
2735.199370124482
 31
0.0
  0
LINE
  5
19F5
330
1F
100
AcDbEntity
  8
SANINDUSA
100
AcDbLine
 10
2782.786406689619
 20
2735.196472959231
 30
0.0
 11
2782.771901601289
 21
2735.196472959231
 31
0.0
  0
LINE
  5
19F6
330
1F
100
AcDbEntity
  8
SANINDUSA
100
AcDbLine
 10
2783.403906696771
 20
2735.199370124482
 30
0.0
 11
2783.418911778663
 21
2735.199370124482
 31
0.0
  0
LINE
  5
19F7
330
1F
100
AcDbEntity
  8
SANINDUSA
100
AcDbLine
 10
2783.403906696771
 20
2735.196472959231
 30
0.0
 11
2783.418911778663
 21
2735.196472959231
 31
0.0
  0
LINE
  5
19F8
330
1F
100
AcDbEntity
  8
SANINDUSA
100
AcDbLine
 10
2783.403906696771
 20
2735.199370124482
 30
0.0
 11
2783.403906696771
 21
2735.196472959231
 31
0.0
  0
LINE
  5
19F9
330
1F
100
AcDbEntity
  8
SANINDUSA
100
AcDbLine
 10
2782.786406689619
 20
2735.192575793352
 30
0.0
 11
2782.771901601289
 21
2735.192575793352
 31
0.0
  0
LINE
  5
19FA
330
1F
100
AcDbEntity
  8
SANINDUSA
100
AcDbLine
 10
2782.786406689619
 20
2735.195472959068
 30
0.0
 11
2782.771901601289
 21
2735.195472959068
 31
0.0
  0
LINE
  5
19FB
330
1F
100
AcDbEntity
  8
SANINDUSA
100
AcDbLine
 10
2783.403906696771
 20
2735.192575793352
 30
0.0
 11
2783.418911778663
 21
2735.192575793352
 31
0.0
  0
LINE
  5
19FC
330
1F
100
AcDbEntity
  8
SANINDUSA
100
AcDbLine
 10
2783.403906696771
 20
2735.195472959068
 30
0.0
 11
2783.418911778663
 21
2735.195472959068
 31
0.0
  0
LINE
  5
19FD
330
1F
100
AcDbEntity
  8
SANINDUSA
100
AcDbLine
 10
2783.403906696771
 20
2735.195472959068
 30
0.0
 11
2783.403906696771
 21
2735.192575793352
 31
0.0
  0
LINE
  5
19FE
330
1F
100
AcDbEntity
  8
SANINDUSA
100
AcDbLine
 10
2782.786406689619
 20
2735.20303577847
 30
0.0
 11
2782.771901601289
 21
2735.20303577847
 31
0.0
  0
LINE
  5
19FF
330
1F
100
AcDbEntity
  8
SANINDUSA
100
AcDbLine
 10
2782.786406689619
 20
2735.200336049881
 30
0.0
 11
2782.771901601289
 21
2735.200336049881
 31
0.0
  0
LINE
  5
1A00
330
1F
100
AcDbEntity
  8
SANINDUSA
100
AcDbLine
 10
2783.403906696771
 20
2735.20303577847
 30
0.0
 11
2783.418911778663
 21
2735.20303577847
 31
0.0
  0
LINE
  5
1A01
330
1F
100
AcDbEntity
  8
SANINDUSA
100
AcDbLine
 10
2783.403906696771
 20
2735.200336049881
 30
0.0
 11
2783.418911778663
 21
2735.200336049881
 31
0.0
  0
LINE
  5
1A02
330
1F
100
AcDbEntity
  8
SANINDUSA
100
AcDbLine
 10
2783.403906696771
 20
2735.20303577847
 30
0.0
 11
2783.403906696771
 21
2735.200336049881
 31
0.0
  0
LINE
  5
1A03
330
1F
100
AcDbEntity
  8
SANINDUSA
100
AcDbLine
 10
2782.786406689619
 20
2735.200077077013
 30
0.0
 11
2782.771772885059
 21
2735.200077077013
 31
0.0
  0
LINE
  5
1A04
330
1F
100
AcDbEntity
  8
SANINDUSA
100
AcDbLine
 10
2783.403906696771
 20
2735.191868841287
 30
0.0
 11
2783.419040494893
 21
2735.191868841287
 31
0.0
  0
LINE
  5
1A05
330
1F
100
AcDbEntity
  8
SANINDUSA
100
AcDbLine
 10
2783.403906696771
 20
2735.191609867487
 30
0.0
 11
2783.418911778663
 21
2735.191609867487
 31
0.0
  0
LINE
  5
1A06
330
1F
100
AcDbEntity
  8
SANINDUSA
100
AcDbLine
 10
2783.403906696771
 20
2735.191609867487
 30
0.0
 11
2783.403906696771
 21
2735.191868841287
 31
0.0
  0
LINE
  5
1A07
330
1F
100
AcDbEntity
  8
SANINDUSA
100
AcDbLine
 10
2782.786406689619
 20
2735.191609867487
 30
0.0
 11
2782.771901601289
 21
2735.191609867487
 31
0.0
  0
LINE
  5
1A08
330
1F
100
AcDbEntity
  8
SANINDUSA
100
AcDbLine
 10
2782.786406689619
 20
2735.188910140295
 30
0.0
 11
2782.771901601289
 21
2735.188910140295
 31
0.0
  0
LINE
  5
1A09
330
1F
100
AcDbEntity
  8
SANINDUSA
100
AcDbLine
 10
2783.403906696771
 20
2735.200077077013
 30
0.0
 11
2783.419040494893
 21
2735.200077077013
 31
0.0
  0
LINE
  5
1A0A
330
1F
100
AcDbEntity
  8
SANINDUSA
100
AcDbLine
 10
2783.403906696771
 20
2735.200077077013
 30
0.0
 11
2783.403906696771
 21
2735.200336049881
 31
0.0
  0
LINE
  5
1A0B
330
1F
100
AcDbEntity
  8
SANINDUSA
100
AcDbLine
 10
2783.403906696771
 20
2735.188910140295
 30
0.0
 11
2783.418911778663
 21
2735.188910140295
 31
0.0
  0
LINE
  5
1A0C
330
1F
100
AcDbEntity
  8
SANINDUSA
100
AcDbLine
 10
2783.403906696771
 20
2735.191609867487
 30
0.0
 11
2783.403906696771
 21
2735.188910140295
 31
0.0
  0
LINE
  5
1A0D
330
1F
100
AcDbEntity
  8
SANINDUSA
100
AcDbLine
 10
2782.786406689619
 20
2735.191868841287
 30
0.0
 11
2782.771772885059
 21
2735.191868841287
 31
0.0
  0
LINE
  5
1A0E
330
1F
100
AcDbEntity
  8
SANINDUSA
100
AcDbLine
 10
2783.403906696771
 20
2735.195472959068
 30
0.0
 11
2783.403906696771
 21
2735.196472959231
 31
0.0
  0
LINE
  5
1A0F
330
1F
100
AcDbEntity
  8
SANINDUSA
100
AcDbLine
 10
2783.403906696771
 20
2735.199370124482
 30
0.0
 11
2783.403906696771
 21
2735.200077077013
 31
0.0
  0
LINE
  5
1A10
330
1F
100
AcDbEntity
  8
SANINDUSA
100
AcDbLine
 10
2783.403906696771
 20
2735.191868841287
 30
0.0
 11
2783.403906696771
 21
2735.192575793352
 31
0.0
  0
LINE
  5
1A11
330
1F
100
AcDbEntity
  8
SANINDUSA
100
AcDbLine
 10
2782.786406689619
 20
2735.206220113078
 30
0.0
 11
2782.771901601289
 21
2735.206220113078
 31
0.0
  0
LINE
  5
1A12
330
1F
100
AcDbEntity
  8
SANINDUSA
100
AcDbLine
 10
2782.786406689619
 20
2735.203901803807
 30
0.0
 11
2782.771901601289
 21
2735.203901803807
 31
0.0
  0
LINE
  5
1A13
330
1F
100
AcDbEntity
  8
SANINDUSA
100
AcDbLine
 10
2783.403906696771
 20
2735.206220113078
 30
0.0
 11
2783.418911778663
 21
2735.206220113078
 31
0.0
  0
LINE
  5
1A14
330
1F
100
AcDbEntity
  8
SANINDUSA
100
AcDbLine
 10
2783.403906696771
 20
2735.203901803807
 30
0.0
 11
2783.418911778663
 21
2735.203901803807
 31
0.0
  0
LINE
  5
1A15
330
1F
100
AcDbEntity
  8
SANINDUSA
100
AcDbLine
 10
2783.403906696771
 20
2735.206220113078
 30
0.0
 11
2783.403906696771
 21
2735.203901803807
 31
0.0
  0
LINE
  5
1A16
330
1F
100
AcDbEntity
  8
SANINDUSA
100
AcDbLine
 10
2782.786406689619
 20
2735.188544411782
 30
0.0
 11
2782.771772885059
 21
2735.188544411782
 31
0.0
  0
LINE
  5
1A17
330
1F
100
AcDbEntity
  8
SANINDUSA
100
AcDbLine
 10
2782.786406689619
 20
2735.188044114608
 30
0.0
 11
2782.771901601289
 21
2735.188044114608
 31
0.0
  0
LINE
  5
1A18
330
1F
100
AcDbEntity
  8
SANINDUSA
100
AcDbLine
 10
2783.403906696771
 20
2735.203401506052
 30
0.0
 11
2783.419040494893
 21
2735.203401506052
 31
0.0
  0
LINE
  5
1A19
330
1F
100
AcDbEntity
  8
SANINDUSA
100
AcDbLine
 10
2783.403906696771
 20
2735.203401506052
 30
0.0
 11
2783.403906696771
 21
2735.203901803807
 31
0.0
  0
LINE
  5
1A1A
330
1F
100
AcDbEntity
  8
SANINDUSA
100
AcDbLine
 10
2782.786406689619
 20
2735.203401506052
 30
0.0
 11
2782.771772885059
 21
2735.203401506052
 31
0.0
  0
LINE
  5
1A1B
330
1F
100
AcDbEntity
  8
SANINDUSA
100
AcDbLine
 10
2783.403906696771
 20
2735.188544411782
 30
0.0
 11
2783.419040494893
 21
2735.188544411782
 31
0.0
  0
LINE
  5
1A1C
330
1F
100
AcDbEntity
  8
SANINDUSA
100
AcDbLine
 10
2783.403906696771
 20
2735.188044114608
 30
0.0
 11
2783.418911778663
 21
2735.188044114608
 31
0.0
  0
LINE
  5
1A1D
330
1F
100
AcDbEntity
  8
SANINDUSA
100
AcDbLine
 10
2783.403906696771
 20
2735.188044114608
 30
0.0
 11
2783.403906696771
 21
2735.188544411782
 31
0.0
  0
LINE
  5
1A1E
330
1F
100
AcDbEntity
  8
SANINDUSA
100
AcDbLine
 10
2782.786406689619
 20
2735.185725804988
 30
0.0
 11
2782.771901601289
 21
2735.185725804988
 31
0.0
  0
LINE
  5
1A1F
330
1F
100
AcDbEntity
  8
SANINDUSA
100
AcDbLine
 10
2783.403906696771
 20
2735.185725804988
 30
0.0
 11
2783.418911778663
 21
2735.185725804988
 31
0.0
  0
LINE
  5
1A20
330
1F
100
AcDbEntity
  8
SANINDUSA
100
AcDbLine
 10
2783.403906696771
 20
2735.188044114608
 30
0.0
 11
2783.403906696771
 21
2735.185725804988
 31
0.0
  0
LINE
  5
1A21
330
1F
100
AcDbEntity
  8
SANINDUSA
100
AcDbLine
 10
2783.403906696771
 20
2735.20303577847
 30
0.0
 11
2783.403906696771
 21
2735.203401506052
 31
0.0
  0
LINE
  5
1A22
330
1F
100
AcDbEntity
  8
SANINDUSA
100
AcDbLine
 10
2783.403906696771
 20
2735.188544411782
 30
0.0
 11
2783.403906696771
 21
2735.188910140295
 31
0.0
  0
LINE
  5
1A23
330
1F
100
AcDbEntity
  8
SANINDUSA
100
AcDbLine
 10
2783.41891186807
 20
2735.185726225946
 30
0.0
 11
2783.419040494893
 21
2735.185726225946
 31
0.0
  0
LINE
  5
1A24
330
1F
100
AcDbEntity
  8
SANINDUSA
100
AcDbLine
 10
2783.403906696771
 20
2735.185018698324
 30
0.0
 11
2783.418911778663
 21
2735.185018698324
 31
0.0
  0
LINE
  5
1A25
330
1F
100
AcDbEntity
  8
SANINDUSA
100
AcDbLine
 10
2783.403906696771
 20
2735.185018698324
 30
0.0
 11
2783.403906696771
 21
2735.185725804988
 31
0.0
  0
LINE
  5
1A26
330
1F
100
AcDbEntity
  8
SANINDUSA
100
AcDbLine
 10
2782.771901541684
 20
2735.185726225946
 30
0.0
 11
2782.771772885059
 21
2735.185726225946
 31
0.0
  0
LINE
  5
1A27
330
1F
100
AcDbEntity
  8
SANINDUSA
100
AcDbLine
 10
2782.786406689619
 20
2735.185018698324
 30
0.0
 11
2782.771901601289
 21
2735.185018698324
 31
0.0
  0
LINE
  5
1A28
330
1F
100
AcDbEntity
  8
SANINDUSA
100
AcDbLine
 10
2783.403906696771
 20
2735.1832397977
 30
0.0
 11
2783.418911778663
 21
2735.1832397977
 31
0.0
  0
LINE
  5
1A29
330
1F
100
AcDbEntity
  8
SANINDUSA
100
AcDbLine
 10
2783.403906696771
 20
2735.185018698324
 30
0.0
 11
2783.403906696771
 21
2735.1832397977
 31
0.0
  0
LINE
  5
1A2A
330
1F
100
AcDbEntity
  8
SANINDUSA
100
AcDbLine
 10
2783.403906696771
 20
2735.208706121065
 30
0.0
 11
2783.418911778663
 21
2735.208706121065
 31
0.0
  0
LINE
  5
1A2B
330
1F
100
AcDbEntity
  8
SANINDUSA
100
AcDbLine
 10
2783.403906696771
 20
2735.206927219859
 30
0.0
 11
2783.418911778663
 21
2735.206927219859
 31
0.0
  0
LINE
  5
1A2C
330
1F
100
AcDbEntity
  8
SANINDUSA
100
AcDbLine
 10
2783.403906696771
 20
2735.208706121065
 30
0.0
 11
2783.403906696771
 21
2735.206927219859
 31
0.0
  0
LINE
  5
1A2D
330
1F
100
AcDbEntity
  8
SANINDUSA
100
AcDbLine
 10
2782.786406689619
 20
2735.1832397977
 30
0.0
 11
2782.771901601289
 21
2735.1832397977
 31
0.0
  0
LINE
  5
1A2E
330
1F
100
AcDbEntity
  8
SANINDUSA
100
AcDbLine
 10
2782.786406689619
 20
2735.208706121065
 30
0.0
 11
2782.771901601289
 21
2735.208706121065
 31
0.0
  0
LINE
  5
1A2F
330
1F
100
AcDbEntity
  8
SANINDUSA
100
AcDbLine
 10
2782.786406689619
 20
2735.206927219859
 30
0.0
 11
2782.771901601289
 21
2735.206927219859
 31
0.0
  0
LINE
  5
1A30
330
1F
100
AcDbEntity
  8
SANINDUSA
100
AcDbLine
 10
2783.41891186807
 20
2735.206219691829
 30
0.0
 11
2783.419040494893
 21
2735.206219691829
 31
0.0
  0
LINE
  5
1A31
330
1F
100
AcDbEntity
  8
SANINDUSA
100
AcDbLine
 10
2783.403906696771
 20
2735.206220113078
 30
0.0
 11
2783.403906696771
 21
2735.206927219859
 31
0.0
  0
LINE
  5
1A32
330
1F
100
AcDbEntity
  8
SANINDUSA
100
AcDbLine
 10
2782.771901541684
 20
2735.206219691829
 30
0.0
 11
2782.771772885059
 21
2735.206219691829
 31
0.0
  0
LINE
  5
1A33
330
1F
100
AcDbEntity
  8
SANINDUSA
100
AcDbLine
 10
2783.418967330192
 20
2735.20833957974
 30
0.0
 11
2783.419040494893
 21
2735.20833957974
 31
0.0
  0
LINE
  5
1A34
330
1F
100
AcDbEntity
  8
SANINDUSA
100
AcDbLine
 10
2782.77184604976
 20
2735.20833957974
 30
0.0
 11
2782.771772885059
 21
2735.20833957974
 31
0.0
  0
LINE
  5
1A35
330
1F
100
AcDbEntity
  8
SANINDUSA
100
AcDbLine
 10
2783.418967330192
 20
2735.183606338326
 30
0.0
 11
2783.419040494893
 21
2735.183606338326
 31
0.0
  0
LINE
  5
1A36
330
1F
100
AcDbEntity
  8
SANINDUSA
100
AcDbLine
 10
2782.77184604976
 20
2735.183606338326
 30
0.0
 11
2782.771772885059
 21
2735.183606338326
 31
0.0
  0
LINE
  5
1A37
330
1F
100
AcDbEntity
  8
SANINDUSA
100
AcDbLine
 10
2783.403906696771
 20
2735.210324385308
 30
0.0
 11
2783.418911778663
 21
2735.210324385308
 31
0.0
  0
LINE
  5
1A38
330
1F
100
AcDbEntity
  8
SANINDUSA
100
AcDbLine
 10
2783.403906696771
 20
2735.209206121147
 30
0.0
 11
2783.418911778663
 21
2735.209206121147
 31
0.0
  0
LINE
  5
1A39
330
1F
100
AcDbEntity
  8
SANINDUSA
100
AcDbLine
 10
2783.403906696771
 20
2735.210324385308
 30
0.0
 11
2783.403906696771
 21
2735.209206121147
 31
0.0
  0
LINE
  5
1A3A
330
1F
100
AcDbEntity
  8
SANINDUSA
100
AcDbLine
 10
2782.786406689619
 20
2735.210324385308
 30
0.0
 11
2782.771901601289
 21
2735.210324385308
 31
0.0
  0
LINE
  5
1A3B
330
1F
100
AcDbEntity
  8
SANINDUSA
100
AcDbLine
 10
2782.786406689619
 20
2735.209206121147
 30
0.0
 11
2782.771901601289
 21
2735.209206121147
 31
0.0
  0
LINE
  5
1A3C
330
1F
100
AcDbEntity
  8
SANINDUSA
100
AcDbLine
 10
2783.403906696771
 20
2735.208706121065
 30
0.0
 11
2783.403906696771
 21
2735.209206121147
 31
0.0
  0
LINE
  5
1A3D
330
1F
100
AcDbEntity
  8
SANINDUSA
100
AcDbLine
 10
2782.786406689619
 20
2735.182739796687
 30
0.0
 11
2782.771901601289
 21
2735.182739796687
 31
0.0
  0
LINE
  5
1A3E
330
1F
100
AcDbEntity
  8
SANINDUSA
100
AcDbLine
 10
2783.403906696771
 20
2735.182739796687
 30
0.0
 11
2783.418911778663
 21
2735.182739796687
 31
0.0
  0
LINE
  5
1A3F
330
1F
100
AcDbEntity
  8
SANINDUSA
100
AcDbLine
 10
2783.403906696771
 20
2735.182739796687
 30
0.0
 11
2783.403906696771
 21
2735.1832397977
 31
0.0
  0
LINE
  5
1A40
330
1F
100
AcDbEntity
  8
SANINDUSA
100
AcDbLine
 10
2783.403906696771
 20
2735.181621533457
 30
0.0
 11
2783.418911778663
 21
2735.181621533457
 31
0.0
  0
LINE
  5
1A41
330
1F
100
AcDbEntity
  8
SANINDUSA
100
AcDbLine
 10
2783.403906696771
 20
2735.182739796687
 30
0.0
 11
2783.403906696771
 21
2735.181621533457
 31
0.0
  0
LINE
  5
1A42
330
1F
100
AcDbEntity
  8
SANINDUSA
100
AcDbLine
 10
2782.786406689619
 20
2735.181621533457
 30
0.0
 11
2782.771901601289
 21
2735.181621533457
 31
0.0
  0
LINE
  5
1A43
330
1F
100
AcDbEntity
  8
SANINDUSA
100
AcDbLine
 10
2782.771806472276
 20
2735.209616703086
 30
0.0
 11
2782.771772885059
 21
2735.209616703086
 31
0.0
  0
LINE
  5
1A44
330
1F
100
AcDbEntity
  8
SANINDUSA
100
AcDbLine
 10
2783.419006907676
 20
2735.209616703086
 30
0.0
 11
2783.419040494893
 21
2735.209616703086
 31
0.0
  0
LINE
  5
1A45
330
1F
100
AcDbEntity
  8
SANINDUSA
100
AcDbLine
 10
2783.419006907676
 20
2735.182329215679
 30
0.0
 11
2783.419040494893
 21
2735.182329215679
 31
0.0
  0
LINE
  5
1A46
330
1F
100
AcDbEntity
  8
SANINDUSA
100
AcDbLine
 10
2782.771806472276
 20
2735.182329215679
 30
0.0
 11
2782.771772885059
 21
2735.182329215679
 31
0.0
  0
LINE
  5
1A47
330
1F
100
AcDbEntity
  8
SANINDUSA
100
AcDbLine
 10
2783.403906696771
 20
2735.181362713326
 30
0.0
 11
2783.418911778663
 21
2735.181362713326
 31
0.0
  0
LINE
  5
1A48
330
1F
100
AcDbEntity
  8
SANINDUSA
100
AcDbLine
 10
2783.403906696771
 20
2735.181362713326
 30
0.0
 11
2783.403906696771
 21
2735.181621533457
 31
0.0
  0
LINE
  5
1A49
330
1F
100
AcDbEntity
  8
SANINDUSA
100
AcDbLine
 10
2782.786406689619
 20
2735.181362713326
 30
0.0
 11
2782.771901601289
 21
2735.181362713326
 31
0.0
  0
LINE
  5
1A4A
330
1F
100
AcDbEntity
  8
SANINDUSA
100
AcDbLine
 10
2782.786406689619
 20
2735.180981293891
 30
0.0
 11
2782.771901601289
 21
2735.180981293891
 31
0.0
  0
LINE
  5
1A4C
330
1F
100
AcDbEntity
  8
SANINDUSA
100
AcDbLine
 10
2783.403906696771
 20
2735.180981293891
 30
0.0
 11
2783.418911778663
 21
2735.180981293891
 31
0.0
  0
LINE
  5
1A4D
330
1F
100
AcDbEntity
  8
SANINDUSA
100
AcDbLine
 10
2783.403906696771
 20
2735.181362713326
 30
0.0
 11
2783.403906696771
 21
2735.180981293891
 31
0.0
  0
LINE
  5
1A4E
330
1F
100
AcDbEntity
  8
SANINDUSA
100
AcDbLine
 10
2783.403906696771
 20
2735.210964623477
 30
0.0
 11
2783.418911778663
 21
2735.210964623477
 31
0.0
  0
LINE
  5
1A4F
330
1F
100
AcDbEntity
  8
SANINDUSA
100
AcDbLine
 10
2783.403906696771
 20
2735.210583204042
 30
0.0
 11
2783.418911778663
 21
2735.210583204042
 31
0.0
  0
LINE
  5
1A50
330
1F
100
AcDbEntity
  8
SANINDUSA
100
AcDbLine
 10
2783.403906696771
 20
2735.210964623477
 30
0.0
 11
2783.403906696771
 21
2735.210583204042
 31
0.0
  0
LINE
  5
1A51
330
1F
100
AcDbEntity
  8
SANINDUSA
100
AcDbLine
 10
2782.786406689619
 20
2735.210964623477
 30
0.0
 11
2782.771901601289
 21
2735.210964623477
 31
0.0
  0
LINE
  5
1A52
330
1F
100
AcDbEntity
  8
SANINDUSA
100
AcDbLine
 10
2782.786406689619
 20
2735.210583204042
 30
0.0
 11
2782.771901601289
 21
2735.210583204042
 31
0.0
  0
LINE
  5
1A53
330
1F
100
AcDbEntity
  8
SANINDUSA
100
AcDbLine
 10
2783.403906696771
 20
2735.210324385308
 30
0.0
 11
2783.403906696771
 21
2735.210583204042
 31
0.0
  0
LWPOLYLINE
  5
1A55
330
1F
100
AcDbEntity
  8
SANINDUSA
100
AcDbPolyline
 90
        5
 70
   128
 43
0.0
 10
2784.407422071204
 20
2735.21019660995
 10
2784.405317766474
 20
2735.209863135001
 10
2784.403307689236
 20
2735.209544594741
 10
2784.401481872306
 20
2735.209255251444
 10
2784.399922070907
 20
2735.209008067256
  0
LINE
  5
1A56
330
1F
100
AcDbEntity
  8
SANINDUSA
100
AcDbLine
 10
2784.399922070907
 20
2735.209008067256
 30
0.0
 11
2784.397422073291
 21
2735.209008067256
 31
0.0
  0
LINE
  5
1A57
330
1F
100
AcDbEntity
  8
SANINDUSA
100
AcDbLine
 10
2784.397422073291
 20
2735.209008067256
 30
0.0
 11
2784.397422073291
 21
2735.269008067778
 31
0.0
  0
LINE
  5
1A58
330
1F
100
AcDbEntity
  8
SANINDUSA
100
AcDbLine
 10
2784.397422073291
 20
2735.269008067778
 30
0.0
 11
2784.399922070907
 21
2735.269008067778
 31
0.0
  0
LWPOLYLINE
  5
1A59
330
1F
100
AcDbEntity
  8
SANINDUSA
100
AcDbPolyline
 90
        5
 70
   128
 43
0.0
 10
2784.399922070907
 20
2735.269008067778
 10
2784.401481872306
 20
2735.268760879866
 10
2784.403307689236
 20
2735.268471536568
 10
2784.405317766474
 20
2735.268152998171
 10
2784.407422071204
 20
2735.267819521359
  0
ARC
  5
1A5A
330
1F
100
AcDbEntity
  8
SANINDUSA
100
AcDbCircle
 10
2784.480385979672
 20
2735.239008066362
 30
0.0
 40
0.0170360909913045
100
AcDbArc
 50
279.0049221894849
 51
80.99507781051512
  0
LINE
  5
1A5B
330
1F
100
AcDbEntity
  8
SANINDUSA
100
AcDbLine
 10
2784.483052456633
 20
2735.222181946847
 30
0.0
 11
2784.407422071204
 21
2735.21019660995
 31
0.0
  0
LINE
  5
1A5C
330
1F
100
AcDbEntity
  8
SANINDUSA
100
AcDbLine
 10
2784.407422071204
 20
2735.267819521359
 30
0.0
 11
2784.483052456633
 21
2735.25583418586
 31
0.0
  0
ARC
  5
1A5D
330
1F
100
AcDbEntity
  8
SANINDUSA
100
AcDbCircle
 10
2784.482422070663
 20
2735.239008066362
 30
0.0
 40
0.0150000000000002
100
AcDbArc
 50
151.910213169155
 51
163.0897868351222
  0
LWPOLYLINE
  5
1A5E
330
1F
100
AcDbEntity
  8
SANINDUSA
100
AcDbPolyline
 90
        9
 70
   128
 43
0.0
 10
2784.470055449869
 20
2735.245570588267
 10
2784.46994707838
 20
2735.245633156381
 10
2784.469838722258
 20
2735.24569571518
 10
2784.469730381037
 20
2735.24575826653
 10
2784.469622055417
 20
2735.245820808566
 10
2784.469513745162
 20
2735.245883341289
 10
2784.469405450507
 20
2735.245945864699
 10
2784.469297171452
 20
2735.246008380658
 10
2784.469188908463
 20
2735.246070885441
  0
ARC
  5
1A5F
330
1F
100
AcDbEntity
  8
SANINDUSA
100
AcDbCircle
 10
2784.482422070663
 20
2735.239008066362
 30
0.0
 40
0.0140000000000001
100
AcDbArc
 50
147.9532869033686
 51
152.0467131019024
  0
LWPOLYLINE
  5
1A60
330
1F
100
AcDbEntity
  8
SANINDUSA
100
AcDbPolyline
 90
        9
 70
   128
 43
0.0
 10
2784.469688908544
 20
2735.246936911127
 10
2784.469797171534
 20
2735.246874406344
 10
2784.469905450356
 20
2735.246811890385
 10
2784.470013745011
 20
2735.246749366976
 10
2784.470122055498
 20
2735.246686834252
 10
2784.470230381119
 20
2735.246624292216
 10
2784.470338722107
 20
2735.246561740867
 10
2784.470447078462
 20
2735.246499182067
 10
2784.470555449951
 20
2735.246436613954
  0
ARC
  5
1A61
330
1F
100
AcDbEntity
  8
SANINDUSA
100
AcDbCircle
 10
2784.482422070663
 20
2735.239008066362
 30
0.0
 40
0.0150000000000001
100
AcDbArc
 50
136.9102131643274
 51
148.0897868255562
  0
LWPOLYLINE
  5
1A62
330
1F
100
AcDbEntity
  8
SANINDUSA
100
AcDbPolyline
 90
        9
 70
   128
 43
0.0
 10
2784.47217533778
 20
2735.248547693125
 10
2784.472086852939
 20
2735.248636178083
 10
2784.471998380437
 20
2735.248724650002
 10
2784.471909920334
 20
2735.248813110745
 10
2784.471821472746
 20
2735.24890155845
 10
2784.47173303773
 20
2735.248989993117
 10
2784.47164461552
 20
2735.249078414744
 10
2784.471556206116
 20
2735.249166823334
 10
2784.47146780975
 20
2735.249255220747
  0
ARC
  5
1A63
330
1F
100
AcDbEntity
  8
SANINDUSA
100
AcDbCircle
 10
2784.482422070663
 20
2735.239008066362
 30
0.0
 40
0.014
100
AcDbArc
 50
132.953286918184
 51
137.0467130818159
  0
LWPOLYLINE
  5
1A64
330
1F
100
AcDbEntity
  8
SANINDUSA
100
AcDbPolyline
 90
        9
 70
   128
 43
0.0
 10
2784.472174916531
 20
2735.249962327412
 10
2784.472263312955
 20
2735.249873929999
 10
2784.472351722301
 20
2735.249785521409
 10
2784.472440144511
 20
2735.249697099781
 10
2784.472528579498
 20
2735.249608665115
 10
2784.472617027086
 20
2735.24952021741
 10
2784.472705487218
 20
2735.249431756667
 10
2784.472793959734
 20
2735.249343284748
 10
2784.472882444583
 20
2735.24925479979
  0
ARC
  5
1A65
330
1F
100
AcDbEntity
  8
SANINDUSA
100
AcDbCircle
 10
2784.482422070663
 20
2735.239008066362
 30
0.0
 40
0.0150000000000002
100
AcDbArc
 50
121.9102131744438
 51
133.0897868356726
  0
LWPOLYLINE
  5
1A66
330
1F
100
AcDbEntity
  8
SANINDUSA
100
AcDbPolyline
 90
        9
 70
   128
 43
0.0
 10
2784.474993523558
 20
2735.250874686397
 10
2784.474930955445
 20
2735.250983058817
 10
2784.474868395947
 20
2735.251091414473
 10
2784.474805845179
 20
2735.251199755228
 10
2784.474743303259
 20
2735.251308081082
 10
2784.474680770304
 20
2735.251416392035
 10
2784.474618246312
 20
2735.251524686224
 10
2784.474555731517
 20
2735.251632965511
 10
2784.474493225802
 20
2735.251741228035
  0
ARC
  5
1A67
330
1F
100
AcDbEntity
  8
SANINDUSA
100
AcDbCircle
 10
2784.482422070663
 20
2735.239008066362
 30
0.0
 40
0.0140000000000002
100
AcDbArc
 50
117.9532868980976
 51
122.0467130966314
  0
LWPOLYLINE
  5
1A68
330
1F
100
AcDbEntity
  8
SANINDUSA
100
AcDbPolyline
 90
        9
 70
   128
 43
0.0
 10
2784.475359251139
 20
2735.252241229049
 10
2784.475421756854
 20
2735.252132964662
 10
2784.475484271649
 20
2735.252024687237
 10
2784.475546795757
 20
2735.251916391185
 10
2784.475609328712
 20
2735.251808082095
 10
2784.475671870516
 20
2735.251699756241
 10
2784.4757344214
 20
2735.251591415486
 10
2784.475796980898
 20
2735.251483057967
 10
2784.475859549012
 20
2735.25137468741
  0
ARC
  5
1A69
330
1F
100
AcDbEntity
  8
SANINDUSA
100
AcDbCircle
 10
2784.482422070663
 20
2735.239008066362
 30
0.0
 40
0.0150000000000002
100
AcDbArc
 50
106.9102131648778
 51
118.0897868308449
  0
LWPOLYLINE
  5
1A6A
330
1F
100
AcDbEntity
  8
SANINDUSA
100
AcDbPolyline
 90
        9
 70
   128
 43
0.0
 10
2784.478317952597
 20
2735.252392991788
 10
2784.478285564923
 20
2735.252513864419
 10
2784.478253181906
 20
2735.252634720287
 10
2784.478220803079
 20
2735.252755557529
 10
2784.47818842891
 20
2735.252876379869
 10
2784.478156059862
 20
2735.252997183583
 10
2784.478123695006
 20
2735.253117970533
 10
2784.478091334806
 20
2735.253238740719
 10
2784.478058979729
 20
2735.253359492279
  0
ARC
  5
1A6B
330
1F
100
AcDbEntity
  8
SANINDUSA
100
AcDbCircle
 10
2784.482422070663
 20
2735.239008066362
 30
0.0
 40
0.0140000000000001
100
AcDbArc
 50
102.9532869121517
 51
107.0467131083297
  0
LWPOLYLINE
  5
1A6C
330
1F
100
AcDbEntity
  8
SANINDUSA
100
AcDbPolyline
 90
        9
 70
   128
 43
0.0
 10
2784.479024905128
 20
2735.25361831241
 10
2784.479057260671
 20
2735.25349756085
 10
2784.479089620871
 20
2735.253376790664
 10
2784.479121985727
 20
2735.253256003714
 10
2784.479154354775
 20
2735.2531352
 10
2784.479186728944
 20
2735.25301437766
 10
2784.479219107771
 20
2735.252893538556
 10
2784.479251490788
 20
2735.252772682688
 10
2784.479283878462
 20
2735.252651810057
  0
ARC
  5
1A6D
330
1F
100
AcDbEntity
  8
SANINDUSA
100
AcDbCircle
 10
2784.482422070663
 20
2735.239008066362
 30
0.0
 40
0.0150000000000002
100
AcDbArc
 50
91.91021316725672
 51
103.0897868153594
  0
LINE
  5
1A6E
330
1F
100
AcDbEntity
  8
SANINDUSA
100
AcDbLine
 10
2784.481922070378
 20
2735.252999135635
 30
0.0
 11
2784.481922070378
 21
2735.253999729982
 31
0.0
  0
ARC
  5
1A6F
330
1F
100
AcDbEntity
  8
SANINDUSA
100
AcDbCircle
 10
2784.482422070663
 20
2735.239008066362
 30
0.0
 40
0.014
100
AcDbArc
 50
87.95328689841459
 51
92.04671310158543
  0
LINE
  5
1A70
330
1F
100
AcDbEntity
  8
SANINDUSA
100
AcDbLine
 10
2784.482922070541
 20
2735.253999729982
 30
0.0
 11
2784.482922070541
 21
2735.252999135635
 31
0.0
  0
ARC
  5
1A71
330
1F
100
AcDbEntity
  8
SANINDUSA
100
AcDbCircle
 10
2784.482422070663
 20
2735.239008066362
 30
0.0
 40
0.0150000000000002
100
AcDbArc
 50
76.91021318464059
 51
88.08978683274327
  0
LWPOLYLINE
  5
1A72
330
1F
100
AcDbEntity
  8
SANINDUSA
100
AcDbPolyline
 90
        9
 70
   128
 43
0.0
 10
2784.485560262458
 20
2735.252651810057
 10
2784.485592650132
 20
2735.252772682688
 10
2784.48562503408
 20
2735.252893538556
 10
2784.485657412441
 20
2735.25301437766
 10
2784.485689786145
 20
2735.2531352
 10
2784.485722156123
 20
2735.253256003714
 10
2784.485754520514
 20
2735.253376790664
 10
2784.485786880248
 20
2735.25349756085
 10
2784.485819236258
 20
2735.25361831241
  0
ARC
  5
1A73
330
1F
100
AcDbEntity
  8
SANINDUSA
100
AcDbCircle
 10
2784.482422070663
 20
2735.239008066362
 30
0.0
 40
0.014
100
AcDbArc
 50
72.9532868916703
 51
77.04671308784826
  0
LWPOLYLINE
  5
1A74
330
1F
100
AcDbEntity
  8
SANINDUSA
100
AcDbPolyline
 90
        9
 70
   128
 43
0.0
 10
2784.486785162122
 20
2735.253359492279
 10
2784.486752806114
 20
2735.253238740719
 10
2784.486720446379
 20
2735.253117970533
 10
2784.486688081988
 20
2735.252997183583
 10
2784.48665571201
 20
2735.252876379869
 10
2784.486623338306
 20
2735.252755557529
 10
2784.486590959945
 20
2735.252634720287
 10
2784.486558575996
 20
2735.252513864419
 10
2784.486526188322
 20
2735.252392991788
  0
ARC
  5
1A75
330
1F
100
AcDbEntity
  8
SANINDUSA
100
AcDbCircle
 10
2784.482422070663
 20
2735.239008066362
 30
0.0
 40
0.0150000000000001
100
AcDbArc
 50
61.91021316915507
 51
73.08978683512222
  0
LWPOLYLINE
  5
1A76
330
1F
100
AcDbEntity
  8
SANINDUSA
100
AcDbPolyline
 90
        9
 70
   128
 43
0.0
 10
2784.488984592141
 20
2735.25137468741
 10
2784.489047160254
 20
2735.251483057967
 10
2784.489109720917
 20
2735.251591415486
 10
2784.489172270403
 20
2735.251699756241
 10
2784.48923481244
 20
2735.251808082095
 10
2784.489297345162
 20
2735.251916391185
 10
2784.489359870435
 20
2735.252024687237
 10
2784.489422384532
 20
2735.252132964662
 10
2784.489484889315
 20
2735.252241229049
  0
ARC
  5
1A77
330
1F
100
AcDbEntity
  8
SANINDUSA
100
AcDbCircle
 10
2784.482422070663
 20
2735.239008066362
 30
0.0
 40
0.0140000000000002
100
AcDbArc
 50
57.95328690336859
 51
62.0467131019024
  0
LWPOLYLINE
  5
1A78
330
1F
100
AcDbEntity
  8
SANINDUSA
100
AcDbPolyline
 90
        9
 70
   128
 43
0.0
 10
2784.490350915001
 20
2735.251741228035
 10
2784.490288410218
 20
2735.251632965511
 10
2784.490225894259
 20
2735.251524686224
 10
2784.490163370849
 20
2735.251416392035
 10
2784.490100838126
 20
2735.251308081082
 10
2784.49003829609
 20
2735.251199755228
 10
2784.48997574474
 20
2735.251091414473
 10
2784.48991318594
 20
2735.250983058817
 10
2784.489850617827
 20
2735.250874686397
  0
ARC
  5
1A79
330
1F
100
AcDbEntity
  8
SANINDUSA
100
AcDbCircle
 10
2784.482422070663
 20
2735.239008066362
 30
0.0
 40
0.0150000000000002
100
AcDbArc
 50
46.91021316432741
 51
58.08978682555618
  0
LWPOLYLINE
  5
1A7A
330
1F
100
AcDbEntity
  8
SANINDUSA
100
AcDbPolyline
 90
        9
 70
   128
 43
0.0
 10
2784.491961696998
 20
2735.24925479979
 10
2784.492050181957
 20
2735.249343284748
 10
2784.492138653876
 20
2735.249431756667
 10
2784.492227114619
 20
2735.24952021741
 10
2784.492315562324
 20
2735.249608665115
 10
2784.49240399699
 20
2735.249697099781
 10
2784.492492418618
 20
2735.249785521409
 10
2784.49258082907
 20
2735.249873929999
 10
2784.492669224621
 20
2735.249962327412
  0
ARC
  5
1A7B
330
1F
100
AcDbEntity
  8
SANINDUSA
100
AcDbCircle
 10
2784.482422070663
 20
2735.239008066362
 30
0.0
 40
0.014
100
AcDbArc
 50
42.95328691818407
 51
47.04671308181594
  0
LWPOLYLINE
  5
1A7C
330
1F
100
AcDbEntity
  8
SANINDUSA
100
AcDbPolyline
 90
        9
 70
   128
 43
0.0
 10
2784.493376331286
 20
2735.249255220747
 10
2784.493287935735
 20
2735.249166823334
 10
2784.493199525283
 20
2735.249078414744
 10
2784.493111103655
 20
2735.248989993117
 10
2784.493022668989
 20
2735.24890155845
 10
2784.492934221284
 20
2735.248813110745
 10
2784.49284576054
 20
2735.248724650002
 10
2784.492757288621
 20
2735.248636178083
 10
2784.492668803663
 20
2735.248547693125
  0
ARC
  5
1A7D
330
1F
100
AcDbEntity
  8
SANINDUSA
100
AcDbCircle
 10
2784.482422070663
 20
2735.239008066362
 30
0.0
 40
0.0150000000000001
100
AcDbArc
 50
31.91021317444381
 51
43.08978683567259
  0
LWPOLYLINE
  5
1A7E
330
1F
100
AcDbEntity
  8
SANINDUSA
100
AcDbPolyline
 90
        9
 70
   128
 43
0.0
 10
2784.494288692133
 20
2735.246436613954
 10
2784.49439706269
 20
2735.246499182067
 10
2784.494505418346
 20
2735.246561740867
 10
2784.494613760964
 20
2735.246624292216
 10
2784.494722086818
 20
2735.246686834252
 10
2784.494830395908
 20
2735.246749366976
 10
2784.494938690097
 20
2735.246811890385
 10
2784.495046969385
 20
2735.246874406344
 10
2784.495155231909
 20
2735.246936911127
  0
ARC
  5
1A7F
330
1F
100
AcDbEntity
  8
SANINDUSA
100
AcDbCircle
 10
2784.482422070663
 20
2735.239008066362
 30
0.0
 40
0.0140000000000001
100
AcDbArc
 50
27.9532868980976
 51
32.04671309663141
  0
LWPOLYLINE
  5
1A80
330
1F
100
AcDbEntity
  8
SANINDUSA
100
AcDbPolyline
 90
        9
 70
   128
 43
0.0
 10
2784.495655232922
 20
2735.246070885441
 10
2784.495546970398
 20
2735.246008380658
 10
2784.495438691111
 20
2735.245945864699
 10
2784.495330396922
 20
2735.245883341289
 10
2784.495222085969
 20
2735.245820808566
 10
2784.495113760115
 20
2735.24575826653
 10
2784.49500541936
 20
2735.24569571518
 10
2784.494897063704
 20
2735.245633156381
 10
2784.494788691283
 20
2735.245570588267
  0
ARC
  5
1A81
330
1F
100
AcDbEntity
  8
SANINDUSA
100
AcDbCircle
 10
2784.482422070663
 20
2735.239008066362
 30
0.0
 40
0.015
100
AcDbArc
 50
16.91021316487777
 51
28.08978683084492
  0
LWPOLYLINE
  5
1A82
330
1F
100
AcDbEntity
  8
SANINDUSA
100
AcDbPolyline
 90
        9
 70
   128
 43
0.0
 10
2784.495806995661
 20
2735.243112184449
 10
2784.495927868293
 20
2735.243144572123
 10
2784.496048724161
 20
2735.24317695514
 10
2784.496169563265
 20
2735.243209333501
 10
2784.496290383743
 20
2735.243241708136
 10
2784.496411189319
 20
2735.243274077183
 10
2784.496531976269
 20
2735.243306442506
 10
2784.496652744592
 20
2735.24333880224
 10
2784.496773496152
 20
2735.243371157317
  0
ARC
  5
1A83
330
1F
100
AcDbEntity
  8
SANINDUSA
100
AcDbCircle
 10
2784.482422070663
 20
2735.239008066362
 30
0.0
 40
0.0140000000000001
100
AcDbArc
 50
12.95328691215174
 51
17.0467131083297
  0
LWPOLYLINE
  5
1A84
330
1F
100
AcDbEntity
  8
SANINDUSA
100
AcDbPolyline
 90
        9
 70
   128
 43
0.0
 10
2784.497032316283
 20
2735.242405231452
 10
2784.496911564724
 20
2735.242372876375
 10
2784.496790794538
 20
2735.242340516641
 10
2784.496670007588
 20
2735.242308151319
 10
2784.496549203874
 20
2735.242275782271
 10
2784.496428381534
 20
2735.242243407636
 10
2784.49630754243
 20
2735.242211029275
 10
2784.496186686562
 20
2735.242178646258
 10
2784.49606581393
 20
2735.242146258584
  0
ARC
  5
1A85
330
1F
100
AcDbEntity
  8
SANINDUSA
100
AcDbCircle
 10
2784.482422070663
 20
2735.239008066362
 30
0.0
 40
0.0149999999999999
100
AcDbArc
 50
1.910213167256735
 51
13.08978681535941
  0
LINE
  5
1A86
330
1F
100
AcDbEntity
  8
SANINDUSA
100
AcDbLine
 10
2784.496413139508
 20
2735.239508066668
 30
0.0
 11
2784.497413735719
 21
2735.239508066668
 31
0.0
  0
ARC
  5
1A87
330
1F
100
AcDbEntity
  8
SANINDUSA
100
AcDbCircle
 10
2784.482422070663
 20
2735.239008066362
 30
0.0
 40
0.014
100
AcDbArc
 50
357.9532868984146
 51
2.046713101585405
  0
LINE
  5
1A88
330
1F
100
AcDbEntity
  8
SANINDUSA
100
AcDbLine
 10
2784.497413735719
 20
2735.238508066504
 30
0.0
 11
2784.496413139508
 21
2735.238508066504
 31
0.0
  0
ARC
  5
1A89
330
1F
100
AcDbEntity
  8
SANINDUSA
100
AcDbCircle
 10
2784.482422070663
 20
2735.239008066362
 30
0.0
 40
0.0150000000000001
100
AcDbArc
 50
346.9102131846406
 51
358.0897868327432
  0
LWPOLYLINE
  5
1A8A
330
1F
100
AcDbEntity
  8
SANINDUSA
100
AcDbPolyline
 90
        9
 70
   128
 43
0.0
 10
2784.49606581393
 20
2735.235869874122
 10
2784.496186686562
 20
2735.235837486448
 10
2784.49630754243
 20
2735.235805103431
 10
2784.496428381534
 20
2735.235772724605
 10
2784.496549203874
 20
2735.235740350435
 10
2784.496670007588
 20
2735.235707981388
 10
2784.496790794538
 20
2735.235675616531
 10
2784.496911564724
 20
2735.235643256332
 10
2784.497032316283
 20
2735.235610901254
  0
ARC
  5
1A8B
330
1F
100
AcDbEntity
  8
SANINDUSA
100
AcDbCircle
 10
2784.482422070663
 20
2735.239008066362
 30
0.0
 40
0.014
100
AcDbArc
 50
342.9532868916703
 51
347.0467130878482
  0
LWPOLYLINE
  5
1A8C
330
1F
100
AcDbEntity
  8
SANINDUSA
100
AcDbPolyline
 90
        9
 70
   128
 43
0.0
 10
2784.496773496152
 20
2735.234644975389
 10
2784.496652744592
 20
2735.234677330467
 10
2784.496531976269
 20
2735.234709690667
 10
2784.496411189319
 20
2735.234742055523
 10
2784.496290383743
 20
2735.234774425036
 10
2784.496169563265
 20
2735.23480679874
 10
2784.496048724161
 20
2735.234839177567
 10
2784.495927868293
 20
2735.234871560584
 10
2784.495806995661
 20
2735.234903948258
  0
ARC
  5
1A8D
330
1F
100
AcDbEntity
  8
SANINDUSA
100
AcDbCircle
 10
2784.482422070663
 20
2735.239008066362
 30
0.0
 40
0.0150000000000002
100
AcDbArc
 50
331.9102131691551
 51
343.0897868351222
  0
LWPOLYLINE
  5
1A8E
330
1F
100
AcDbEntity
  8
SANINDUSA
100
AcDbPolyline
 90
        9
 70
   128
 43
0.0
 10
2784.494788691283
 20
2735.232445544672
 10
2784.494897063704
 20
2735.232382976559
 10
2784.49500541936
 20
2735.23232041706
 10
2784.495113760115
 20
2735.232257866177
 10
2784.495222085969
 20
2735.232195324373
 10
2784.495330396922
 20
2735.232132791418
 10
2784.495438691111
 20
2735.232070267542
 10
2784.495546970398
 20
2735.232007752514
 10
2784.495655232922
 20
2735.2319452468
  0
ARC
  5
1A8F
330
1F
100
AcDbEntity
  8
SANINDUSA
100
AcDbCircle
 10
2784.482422070663
 20
2735.239008066362
 30
0.0
 40
0.0140000000000001
100
AcDbArc
 50
327.9532869033686
 51
332.0467131019024
  0
LWPOLYLINE
  5
1A90
330
1F
100
AcDbEntity
  8
SANINDUSA
100
AcDbPolyline
 90
        9
 70
   128
 43
0.0
 10
2784.495155231909
 20
2735.231079221579
 10
2784.495046969385
 20
2735.231141727294
 10
2784.494938690097
 20
2735.231204242089
 10
2784.494830395908
 20
2735.231266765964
 10
2784.494722086818
 20
2735.23132929892
 10
2784.494613760964
 20
2735.231391840956
 10
2784.494505418346
 20
2735.231454391607
 10
2784.49439706269
 20
2735.231516951106
 10
2784.494288692133
 20
2735.231579519452
  0
ARC
  5
1A91
330
1F
100
AcDbEntity
  8
SANINDUSA
100
AcDbCircle
 10
2784.482422070663
 20
2735.239008066362
 30
0.0
 40
0.015
100
AcDbArc
 50
316.9102131643274
 51
328.0897868255562
  0
LWPOLYLINE
  5
1A92
330
1F
100
AcDbEntity
  8
SANINDUSA
100
AcDbPolyline
 90
        9
 70
   128
 43
0.0
 10
2784.492668803663
 20
2735.22946844028
 10
2784.492757288621
 20
2735.229379955439
 10
2784.49284576054
 20
2735.229291482879
 10
2784.492934221284
 20
2735.229203022776
 10
2784.493022668989
 20
2735.229114575187
 10
2784.493111103655
 20
2735.22902614023
 10
2784.493199525283
 20
2735.228937717991
 10
2784.493287935735
 20
2735.22884930863
 10
2784.493376331286
 20
2735.228760912221
  0
ARC
  5
1A93
330
1F
100
AcDbEntity
  8
SANINDUSA
100
AcDbCircle
 10
2784.482422070663
 20
2735.239008066362
 30
0.0
 40
0.0140000000000001
100
AcDbArc
 50
312.953286918184
 51
317.0467130818159
  0
LWPOLYLINE
  5
1A94
330
1F
100
AcDbEntity
  8
SANINDUSA
100
AcDbPolyline
 90
        9
 70
   128
 43
0.0
 10
2784.492669224621
 20
2735.228053805469
 10
2784.49258082907
 20
2735.228142201864
 10
2784.492492418618
 20
2735.22823061121
 10
2784.49240399699
 20
2735.228319033449
 10
2784.492315562324
 20
2735.228407468407
 10
2784.492227114619
 20
2735.228495916002
 10
2784.492138653876
 20
2735.228584376122
 10
2784.492050181957
 20
2735.228672848658
 10
2784.491961696998
 20
2735.228761333499
  0
ARC
  5
1A95
330
1F
100
AcDbEntity
  8
SANINDUSA
100
AcDbCircle
 10
2784.482422070663
 20
2735.239008066362
 30
0.0
 40
0.0150000000000001
100
AcDbArc
 50
301.9102131744438
 51
313.0897868356726
  0
LWPOLYLINE
  5
1A96
330
1F
100
AcDbEntity
  8
SANINDUSA
100
AcDbPolyline
 90
        9
 70
   128
 43
0.0
 10
2784.489850617827
 20
2735.227141445495
 10
2784.48991318594
 20
2735.227033074239
 10
2784.48997574474
 20
2735.226924717884
 10
2784.49003829609
 20
2735.22681637678
 10
2784.490100838126
 20
2735.226708051043
 10
2784.490163370849
 20
2735.226599740905
 10
2784.490225894259
 20
2735.22649144625
 10
2784.490288410218
 20
2735.226383167195
 10
2784.490350915001
 20
2735.226274904205
  0
ARC
  5
1A97
330
1F
100
AcDbEntity
  8
SANINDUSA
100
AcDbCircle
 10
2784.482422070663
 20
2735.239008066362
 30
0.0
 40
0.0140000000000001
100
AcDbArc
 50
297.9532868980976
 51
302.0467130966314
  0
LWPOLYLINE
  5
1A98
330
1F
100
AcDbEntity
  8
SANINDUSA
100
AcDbPolyline
 90
        9
 70
   128
 43
0.0
 10
2784.489484889315
 20
2735.225774904123
 10
2784.489422384532
 20
2735.225883167346
 10
2784.489359870435
 20
2735.225991446168
 10
2784.489297345162
 20
2735.226099740823
 10
2784.48923481244
 20
2735.226208051077
 10
2784.489172270403
 20
2735.226316376931
 10
2784.489109720917
 20
2735.226424717919
 10
2784.489047160254
 20
2735.226533074273
 10
2784.488984592141
 20
2735.226641445529
  0
ARC
  5
1A99
330
1F
100
AcDbEntity
  8
SANINDUSA
100
AcDbCircle
 10
2784.482422070663
 20
2735.239008066362
 30
0.0
 40
0.0150000000000001
100
AcDbArc
 50
286.9102131648778
 51
298.0897868308449
  0
LWPOLYLINE
  5
1A9A
330
1F
100
AcDbEntity
  8
SANINDUSA
100
AcDbPolyline
 90
        9
 70
   128
 43
0.0
 10
2784.486526188322
 20
2735.225623141384
 10
2784.486558575996
 20
2735.225502268753
 10
2784.486590959945
 20
2735.225381413118
 10
2784.486623338306
 20
2735.225260574246
 10
2784.48665571201
 20
2735.225139752605
 10
2784.486688081988
 20
2735.225018948193
 10
2784.486720446379
 20
2735.224898161243
 10
2784.486752806114
 20
2735.224777391755
 10
2784.486785162122
 20
2735.224656639962
  0
ARC
  5
1A9B
330
1F
100
AcDbEntity
  8
SANINDUSA
100
AcDbCircle
 10
2784.482422070663
 20
2735.239008066362
 30
0.0
 40
0.014
100
AcDbArc
 50
282.9532869121517
 51
287.0467131083297
  0
LWPOLYLINE
  5
1A9C
330
1F
100
AcDbEntity
  8
SANINDUSA
100
AcDbPolyline
 90
        9
 70
   128
 43
0.0
 10
2784.485819236258
 20
2735.224397821228
 10
2784.485786880248
 20
2735.224518572787
 10
2784.485754520514
 20
2735.224639342042
 10
2784.485722156123
 20
2735.224760129225
 10
2784.485689786145
 20
2735.224880933638
 10
2784.485657412441
 20
2735.225001755279
 10
2784.48562503408
 20
2735.225122594151
 10
2784.485592650132
 20
2735.225243449786
 10
2784.485560262458
 20
2735.225364322417
  0
ARC
  5
1A9D
330
1F
100
AcDbEntity
  8
SANINDUSA
100
AcDbCircle
 10
2784.482422070663
 20
2735.239008066362
 30
0.0
 40
0.0150000000000001
100
AcDbArc
 50
271.9102131672567
 51
283.0897868153595
  0
LINE
  5
1A9E
330
1F
100
AcDbEntity
  8
SANINDUSA
100
AcDbLine
 10
2784.482922070541
 20
2735.22501699777
 30
0.0
 11
2784.482922070541
 21
2735.224016401793
 31
0.0
  0
ARC
  5
1A9F
330
1F
100
AcDbEntity
  8
SANINDUSA
100
AcDbCircle
 10
2784.482422070663
 20
2735.239008066362
 30
0.0
 40
0.014
100
AcDbArc
 50
267.9532868984146
 51
272.0467131015854
  0
LINE
  5
1AA0
330
1F
100
AcDbEntity
  8
SANINDUSA
100
AcDbLine
 10
2784.481922070378
 20
2735.224016401793
 30
0.0
 11
2784.481922070378
 21
2735.22501699777
 31
0.0
  0
ARC
  5
1AA1
330
1F
100
AcDbEntity
  8
SANINDUSA
100
AcDbCircle
 10
2784.482422070663
 20
2735.239008066362
 30
0.0
 40
0.015
100
AcDbArc
 50
256.9102131846406
 51
268.0897868327433
  0
LWPOLYLINE
  5
1AA2
330
1F
100
AcDbEntity
  8
SANINDUSA
100
AcDbPolyline
 90
        9
 70
   128
 43
0.0
 10
2784.479283878462
 20
2735.225364322417
 10
2784.479251490788
 20
2735.225243449786
 10
2784.479219107771
 20
2735.225122594151
 10
2784.479186728944
 20
2735.225001755279
 10
2784.479154354775
 20
2735.224880933638
 10
2784.479121985727
 20
2735.224760129225
 10
2784.479089620871
 20
2735.224639342042
 10
2784.479057260671
 20
2735.224518572787
 10
2784.479024905128
 20
2735.224397821228
  0
ARC
  5
1AA3
330
1F
100
AcDbEntity
  8
SANINDUSA
100
AcDbCircle
 10
2784.482422070663
 20
2735.239008066362
 30
0.0
 40
0.014
100
AcDbArc
 50
252.9532868916703
 51
257.0467130878482
  0
LWPOLYLINE
  5
1AA4
330
1F
100
AcDbEntity
  8
SANINDUSA
100
AcDbPolyline
 90
        9
 70
   128
 43
0.0
 10
2784.478058979729
 20
2735.224656639962
 10
2784.478091334806
 20
2735.224777391755
 10
2784.478123695006
 20
2735.224898161243
 10
2784.478156059862
 20
2735.225018948193
 10
2784.47818842891
 20
2735.225139752605
 10
2784.478220803079
 20
2735.225260574246
 10
2784.478253181906
 20
2735.225381413118
 10
2784.478285564923
 20
2735.225502268753
 10
2784.478317952597
 20
2735.225623141384
  0
ARC
  5
1AA5
330
1F
100
AcDbEntity
  8
SANINDUSA
100
AcDbCircle
 10
2784.482422070663
 20
2735.239008066362
 30
0.0
 40
0.0150000000000001
100
AcDbArc
 50
241.9102131691551
 51
253.0897868351222
  0
LWPOLYLINE
  5
1AA6
330
1F
100
AcDbEntity
  8
SANINDUSA
100
AcDbPolyline
 90
        9
 70
   128
 43
0.0
 10
2784.475859549012
 20
2735.226641445529
 10
2784.475796980898
 20
2735.226533074273
 10
2784.4757344214
 20
2735.226424717919
 10
2784.475671870516
 20
2735.226316376931
 10
2784.475609328712
 20
2735.226208051077
 10
2784.475546795757
 20
2735.226099740823
 10
2784.475484271649
 20
2735.225991446168
 10
2784.475421756854
 20
2735.225883167346
 10
2784.475359251139
 20
2735.225774904123
  0
ARC
  5
1AA7
330
1F
100
AcDbEntity
  8
SANINDUSA
100
AcDbCircle
 10
2784.482422070663
 20
2735.239008066362
 30
0.0
 40
0.0140000000000001
100
AcDbArc
 50
237.9532869033686
 51
242.0467131019024
  0
LWPOLYLINE
  5
1AA8
330
1F
100
AcDbEntity
  8
SANINDUSA
100
AcDbPolyline
 90
        9
 70
   128
 43
0.0
 10
2784.474493225802
 20
2735.226274904205
 10
2784.474555731517
 20
2735.226383167195
 10
2784.474618246312
 20
2735.22649144625
 10
2784.474680770304
 20
2735.226599740905
 10
2784.474743303259
 20
2735.226708051043
 10
2784.474805845179
 20
2735.22681637678
 10
2784.474868395947
 20
2735.226924717884
 10
2784.474930955445
 20
2735.227033074239
 10
2784.474993523558
 20
2735.227141445495
  0
ARC
  5
1AA9
330
1F
100
AcDbEntity
  8
SANINDUSA
100
AcDbCircle
 10
2784.482422070663
 20
2735.239008066362
 30
0.0
 40
0.015
100
AcDbArc
 50
226.9102131643274
 51
238.0897868255562
  0
LINE
  5
1AAA
330
1F
100
AcDbEntity
  8
SANINDUSA
100
AcDbLine
 10
2784.472882444583
 20
2735.228761333499
 30
0.0
 11
2784.472174916531
 21
2735.228053805469
 31
0.0
  0
ARC
  5
1AAB
330
1F
100
AcDbEntity
  8
SANINDUSA
100
AcDbCircle
 10
2784.482422070663
 20
2735.239008066362
 30
0.0
 40
0.0139999999999999
100
AcDbArc
 50
222.9532869181841
 51
227.0467130818159
  0
LINE
  5
1AAC
330
1F
100
AcDbEntity
  8
SANINDUSA
100
AcDbLine
 10
2784.47146780975
 20
2735.228760912221
 30
0.0
 11
2784.47217533778
 21
2735.22946844028
 31
0.0
  0
ARC
  5
1AAD
330
1F
100
AcDbEntity
  8
SANINDUSA
100
AcDbCircle
 10
2784.482422070663
 20
2735.239008066362
 30
0.0
 40
0.015
100
AcDbArc
 50
211.9102131744438
 51
223.0897868356726
  0
LWPOLYLINE
  5
1AAE
330
1F
100
AcDbEntity
  8
SANINDUSA
100
AcDbPolyline
 90
        9
 70
   128
 43
0.0
 10
2784.470555449951
 20
2735.231579519452
 10
2784.470447078462
 20
2735.231516951106
 10
2784.470338722107
 20
2735.231454391607
 10
2784.470230381119
 20
2735.231391840956
 10
2784.470122055498
 20
2735.23132929892
 10
2784.470013745011
 20
2735.231266765964
 10
2784.469905450356
 20
2735.231204242089
 10
2784.469797171534
 20
2735.231141727294
 10
2784.469688908544
 20
2735.231079221579
  0
ARC
  5
1AAF
330
1F
100
AcDbEntity
  8
SANINDUSA
100
AcDbCircle
 10
2784.482422070663
 20
2735.239008066362
 30
0.0
 40
0.014
100
AcDbArc
 50
207.9532868980976
 51
212.0467130966314
  0
LWPOLYLINE
  5
1AB0
330
1F
100
AcDbEntity
  8
SANINDUSA
100
AcDbPolyline
 90
        9
 70
   128
 43
0.0
 10
2784.469188908463
 20
2735.2319452468
 10
2784.469297171452
 20
2735.232007752514
 10
2784.469405450507
 20
2735.232070267542
 10
2784.469513745162
 20
2735.232132791418
 10
2784.469622055417
 20
2735.232195324373
 10
2784.469730381037
 20
2735.232257866177
 10
2784.469838722258
 20
2735.23232041706
 10
2784.46994707838
 20
2735.232382976559
 10
2784.470055449869
 20
2735.232445544672
  0
ARC
  5
1AB1
330
1F
100
AcDbEntity
  8
SANINDUSA
100
AcDbCircle
 10
2784.482422070663
 20
2735.239008066362
 30
0.0
 40
0.0150000000000002
100
AcDbArc
 50
196.9102131648778
 51
208.0897868308449
  0
LWPOLYLINE
  5
1AB2
330
1F
100
AcDbEntity
  8
SANINDUSA
100
AcDbPolyline
 90
        9
 70
   128
 43
0.0
 10
2784.469037145724
 20
2735.234903948258
 10
2784.468916273092
 20
2735.234871560584
 10
2784.468795417224
 20
2735.234839177567
 10
2784.468674578586
 20
2735.23480679874
 10
2784.468553757177
 20
2735.234774425036
 10
2784.468432952532
 20
2735.234742055523
 10
2784.468312165582
 20
2735.234709690667
 10
2784.468191396327
 20
2735.234677330467
 10
2784.468070644301
 20
2735.234644975389
  0
ARC
  5
1AB3
330
1F
100
AcDbEntity
  8
SANINDUSA
100
AcDbCircle
 10
2784.482422070663
 20
2735.239008066362
 30
0.0
 40
0.0140000000000001
100
AcDbArc
 50
192.9532869121517
 51
197.0467131083297
  0
LWPOLYLINE
  5
1AB4
330
1F
100
AcDbEntity
  8
SANINDUSA
100
AcDbPolyline
 90
        9
 70
   128
 43
0.0
 10
2784.467811825567
 20
2735.235610901254
 10
2784.467932577127
 20
2735.235643256332
 10
2784.468053346382
 20
2735.235675616531
 10
2784.468174133332
 20
2735.235707981388
 10
2784.468294937977
 20
2735.235740350435
 10
2784.468415759386
 20
2735.235772724605
 10
2784.46853659849
 20
2735.235805103431
 10
2784.468657453892
 20
2735.235837486448
 10
2784.468778326524
 20
2735.235869874122
  0
ARC
  5
1AB5
330
1F
100
AcDbEntity
  8
SANINDUSA
100
AcDbCircle
 10
2784.482422070663
 20
2735.239008066362
 30
0.0
 40
0.0150000000000002
100
AcDbArc
 50
181.9102131672567
 51
193.0897868153594
  0
LINE
  5
1AB6
330
1F
100
AcDbEntity
  8
SANINDUSA
100
AcDbLine
 10
2784.468431001877
 20
2735.238508066504
 30
0.0
 11
2784.467430406132
 21
2735.238508066504
 31
0.0
  0
ARC
  5
1AB7
330
1F
100
AcDbEntity
  8
SANINDUSA
100
AcDbCircle
 10
2784.482422070663
 20
2735.239008066362
 30
0.0
 40
0.014
100
AcDbArc
 50
177.9532868984146
 51
182.0467131015854
  0
LINE
  5
1AB8
330
1F
100
AcDbEntity
  8
SANINDUSA
100
AcDbLine
 10
2784.467430406132
 20
2735.239508066668
 30
0.0
 11
2784.468431001877
 21
2735.239508066668
 31
0.0
  0
ARC
  5
1AB9
330
1F
100
AcDbEntity
  8
SANINDUSA
100
AcDbCircle
 10
2784.482422070663
 20
2735.239008066362
 30
0.0
 40
0.0150000000000002
100
AcDbArc
 50
166.9102131846406
 51
178.0897868327433
  0
LWPOLYLINE
  5
1ABA
330
1F
100
AcDbEntity
  8
SANINDUSA
100
AcDbPolyline
 90
        9
 70
   128
 43
0.0
 10
2784.468778326524
 20
2735.242146258584
 10
2784.468657453892
 20
2735.242178646258
 10
2784.46853659849
 20
2735.242211029275
 10
2784.468415759386
 20
2735.242243407636
 10
2784.468294937977
 20
2735.242275782271
 10
2784.468174133332
 20
2735.242308151319
 10
2784.468053346382
 20
2735.242340516641
 10
2784.467932577127
 20
2735.242372876375
 10
2784.467811825567
 20
2735.242405231452
  0
ARC
  5
1ABB
330
1F
100
AcDbEntity
  8
SANINDUSA
100
AcDbCircle
 10
2784.482422070663
 20
2735.239008066362
 30
0.0
 40
0.014
100
AcDbArc
 50
162.9532868916703
 51
167.0467130878483
  0
LWPOLYLINE
  5
1ABC
330
1F
100
AcDbEntity
  8
SANINDUSA
100
AcDbPolyline
 90
        9
 70
   128
 43
0.0
 10
2784.468070644301
 20
2735.243371157317
 10
2784.468191396327
 20
2735.24333880224
 10
2784.468312165582
 20
2735.243306442506
 10
2784.468432952532
 20
2735.243274077183
 10
2784.468553757177
 20
2735.243241708136
 10
2784.468674578586
 20
2735.243209333501
 10
2784.468795417224
 20
2735.24317695514
 10
2784.468916273092
 20
2735.243144572123
 10
2784.469037145724
 20
2735.243112184449
  0
LINE
  5
1ABD
330
1F
100
AcDbEntity
  8
SANINDUSA
100
AcDbLine
 10
2784.491422070072
 20
2735.566508067182
 30
0.0
 11
2784.491422070072
 21
2735.251986244104
 31
0.0
  0
LINE
  5
1ABE
330
1F
100
AcDbEntity
  8
SANINDUSA
100
AcDbLine
 10
2784.491422070072
 20
2735.226029888835
 30
0.0
 11
2784.491422070072
 21
2734.91150806599
 31
0.0
  0
LINE
  5
1ABF
330
1F
100
AcDbEntity
  8
SANINDUSA
100
AcDbLine
 10
2784.491422070072
 20
2734.91150806599
 30
0.0
 11
2784.456422069923
 21
2734.91150806599
 31
0.0
  0
LINE
  5
1AC0
330
1F
100
AcDbEntity
  8
SANINDUSA
100
AcDbLine
 10
2784.456422069923
 20
2734.91150806599
 30
0.0
 11
2784.456422069923
 21
2735.217961762442
 31
0.0
  0
LINE
  5
1AC1
330
1F
100
AcDbEntity
  8
SANINDUSA
100
AcDbLine
 10
2784.456422069923
 20
2735.260054369799
 30
0.0
 11
2784.456422069923
 21
2735.566508067182
 31
0.0
  0
LINE
  5
1AC2
330
1F
100
AcDbEntity
  8
SANINDUSA
100
AcDbLine
 10
2784.491422070072
 20
2735.566508067182
 30
0.0
 11
2784.456422069923
 21
2735.566508067182
 31
0.0
  0
ENDSEC
  0
SECTION
  2
OBJECTS
  0
DICTIONARY
  5
C
330
0
100
AcDbDictionary
281
     1
  3
ACAD_2007HEADERVARS_RT
350
1B6E
  3
ACAD_COLOR
350
EE6
  3
ACAD_GROUP
350
D
  3
ACAD_LAYOUT
350
1A
  3
ACAD_MATERIAL
350
EE5
  3
ACAD_MLEADERSTYLE
350
10A8
  3
ACAD_MLINESTYLE
350
17
  3
ACAD_PLOTSETTINGS
350
19
  3
ACAD_PLOTSTYLENAME
350
E
  3
ACAD_SCALELIST
350
1096
  3
ACAD_TABLESTYLE
350
EE7
  3
ACAD_VISUALSTYLE
350
1082
  3
ACDB_RECOMPOSE_DATA
350
1B6C
  3
AcDbVariableDictionary
350
3D
  3
AEC_PROPERTY_SET_DEFS
350
1374
  3
ASE_INDEX_DICTIONARY
350
1066
  3
Autodesk_PNP
350
10B2
  3
DWGPROPS
350
1B6D
  0
DICTIONARY
  5
1051
330
2
100
AcDbDictionary
280
     1
281
     1
  3
ACAD_LAYERFILTERS
360
1065
  3
ACLYDICTIONARY
360
1064
  0
DICTIONARY
  5
1B07
330
10
100
AcDbDictionary
280
     1
281
     1
  3
ADSK_XREC_LAYER_RECONCILED
360
1B08
  0
DICTIONARY
  5
1B09
330
2F
100
AcDbDictionary
280
     1
281
     1
  3
ADSK_XREC_LAYER_RECONCILED
360
1B0A
  0
DICTIONARY
  5
1B0B
330
30
100
AcDbDictionary
280
     1
281
     1
  3
ADSK_XREC_LAYER_RECONCILED
360
1B0C
  0
DICTIONARY
  5
1B0D
330
31
100
AcDbDictionary
280
     1
281
     1
  3
ADSK_XREC_LAYER_RECONCILED
360
1B0E
  0
DICTIONARY
  5
1B0F
330
32
100
AcDbDictionary
280
     1
281
     1
  3
ADSK_XREC_LAYER_RECONCILED
360
1B10
  0
DICTIONARY
  5
1B11
330
33
100
AcDbDictionary
280
     1
281
     1
  3
ADSK_XREC_LAYER_RECONCILED
360
1B12
  0
DICTIONARY
  5
1B13
330
34
100
AcDbDictionary
280
     1
281
     1
  3
ADSK_XREC_LAYER_RECONCILED
360
1B14
  0
DICTIONARY
  5
1B15
330
35
100
AcDbDictionary
280
     1
281
     1
  3
ADSK_XREC_LAYER_RECONCILED
360
1B16
  0
DICTIONARY
  5
1B17
330
36
100
AcDbDictionary
280
     1
281
     1
  3
ADSK_XREC_LAYER_RECONCILED
360
1B18
  0
DICTIONARY
  5
1B19
330
37
100
AcDbDictionary
280
     1
281
     1
  3
ADSK_XREC_LAYER_RECONCILED
360
1B1A
  0
DICTIONARY
  5
1B1B
330
5D6
100
AcDbDictionary
280
     1
281
     1
  3
ADSK_XREC_LAYER_RECONCILED
360
1B1C
  0
DICTIONARY
  5
1B1D
330
8AF
100
AcDbDictionary
280
     1
281
     1
  3
ADSK_XREC_LAYER_RECONCILED
360
1B1E
  0
DICTIONARY
  5
1B1F
330
8F8
100
AcDbDictionary
280
     1
281
     1
  3
ADSK_XREC_LAYER_RECONCILED
360
1B20
  0
DICTIONARY
  5
1B21
330
91D
100
AcDbDictionary
280
     1
281
     1
  3
ADSK_XREC_LAYER_RECONCILED
360
1B22
  0
DICTIONARY
  5
1B23
330
C7B
100
AcDbDictionary
280
     1
281
     1
  3
ADSK_XREC_LAYER_RECONCILED
360
1B24
  0
DICTIONARY
  5
1B25
330
1060
100
AcDbDictionary
280
     1
281
     1
  3
ADSK_XREC_LAYER_RECONCILED
360
1B26
  0
DICTIONARY
  5
1B6E
102
{ACAD_REACTORS
330
C
102
}
330
C
100
AcDbDictionary
281
     1
  3
DIMJOGANG
350
1B6F
  0
DICTIONARY
  5
EE6
102
{ACAD_REACTORS
330
C
102
}
330
C
100
AcDbDictionary
281
     1
  0
DICTIONARY
  5
D
102
{ACAD_REACTORS
330
C
102
}
330
C
100
AcDbDictionary
281
     1
  0
DICTIONARY
  5
1A
102
{ACAD_REACTORS
330
C
102
}
330
C
100
AcDbDictionary
281
     1
  3
Layout1
350
1E
  3
Layout2
350
26
  3
Model
350
22
  0
DICTIONARY
  5
EE5
102
{ACAD_REACTORS
330
C
102
}
330
C
100
AcDbDictionary
281
     1
  3
ByBlock
350
1072
  3
ByLayer
350
106A
  3
Global
350
107A
  0
DICTIONARY
  5
10A8
102
{ACAD_REACTORS
330
C
102
}
330
C
100
AcDbDictionary
281
     1
  3
Standard
350
10A9
  0
DICTIONARY
  5
17
102
{ACAD_REACTORS
330
C
102
}
330
C
100
AcDbDictionary
281
     1
  3
Standard
350
18
  0
DICTIONARY
  5
19
102
{ACAD_REACTORS
330
C
102
}
330
C
100
AcDbDictionary
281
     1
  0
ACDBDICTIONARYWDFLT
  5
E
102
{ACAD_REACTORS
330
C
102
}
330
C
100
AcDbDictionary
281
     1
  3
Normal
350
F
100
AcDbDictionaryWithDefault
340
F
  0
DICTIONARY
  5
1096
102
{ACAD_REACTORS
330
C
102
}
330
C
100
AcDbDictionary
281
     1
  3
A0
350
1097
  3
A1
350
1098
  3
A2
350
1099
  3
A3
350
109A
  3
A4
350
109B
  3
A5
350
109C
  3
A6
350
109D
  3
A7
350
109E
  3
A8
350
109F
  3
A9
350
10A0
  3
B0
350
10A1
  3
B1
350
10A2
  3
B2
350
10A3
  3
B3
350
10A4
  3
B4
350
10A5
  3
B5
350
10A6
  3
B6
350
10A7
  0
DICTIONARY
  5
EE7
102
{ACAD_REACTORS
330
C
102
}
330
C
100
AcDbDictionary
281
     1
  3
Standard
350
EE8
  0
DICTIONARY
  5
1082
102
{ACAD_REACTORS
330
C
102
}
330
C
100
AcDbDictionary
281
     1
  3
2dWireframe
350
1088
  3
3D Hidden
350
108A
  3
3dWireframe
350
1089
  3
Basic
350
1087
  3
Brighten
350
108E
  3
ColorChange
350
1092
  3
Conceptual
350
108B
  3
Dim
350
108D
  3
EdgeColorOff
350
1095
  3
Facepattern
350
1091
  3
Flat
350
1083
  3
FlatWithEdges
350
1084
  3
Gouraud
350
1085
  3
GouraudWithEdges
350
1086
  3
JitterOff
350
1093
  3
Linepattern
350
1090
  3
OverhangOff
350
1094
  3
Realistic
350
108C
  3
Thicken
350
108F
  0
XRECORD
  5
1B6C
102
{ACAD_REACTORS
330
C
102
}
330
C
100
AcDbXrecord
280
     1
 90
        1
330
EE8
  0
DICTIONARY
  5
3D
102
{ACAD_REACTORS
330
C
102
}
330
C
100
AcDbDictionary
281
     1
  3
CANNOSCALE
350
1B66
  3
CMLEADERSTYLE
350
1B65
  3
CTABLESTYLE
350
1049
  3
DIMASSOC
350
3F
  3
HIDETEXT
350
3E
  3
INDEXCTL
350
1B68
  3
SORTENTS
350
1B67
  3
XCLIPFRAME
350
1B69
  0
DICTIONARY
  5
1374
102
{ACAD_REACTORS
330
C
102
}
330
C
100
AcDbDictionary
281
     1
  0
DICTIONARY
  5
1066
102
{ACAD_REACTORS
330
C
102
}
330
C
100
AcDbDictionary
281
     1
  3
ASEBlockHierarchyIndexRecord
350
1067
1001
DCO15
1040
1602247867.484
  0
DICTIONARY
  5
10B2
102
{ACAD_REACTORS
330
C
102
}
330
C
100
AcDbDictionary
281
     1
  0
XRECORD
  5
1B6D
102
{ACAD_REACTORS
330
C
102
}
330
C
100
AcDbXrecord
280
     1
  1
DWGPROPS COOKIE
  2

  3

  4

  6

  7

  8
Julio
  9

300
=
301
=
302
=
303
=
304
=
305
=
306
=
307
=
308
=
309
=
 40
0.0090456828703704
 41
2456098.678861401
 42
2456098.687906898
  1

 90
        0
  0
DICTIONARY
  5
1065
102
{ACAD_REACTORS
330
1051
102
}
330
1051
100
AcDbDictionary
281
     1
  0
DICTIONARY
  5
1064
102
{ACAD_REACTORS
330
1051
102
}
330
1051
100
AcDbDictionary
281
     1
1001
ACAD
1000
<All
  0
XRECORD
  5
1B08
102
{ACAD_REACTORS
330
1B07
102
}
330
1B07
100
AcDbXrecord
280
     1
290
     1
  0
XRECORD
  5
1B0A
102
{ACAD_REACTORS
330
1B09
102
}
330
1B09
100
AcDbXrecord
280
     1
290
     1
  0
XRECORD
  5
1B0C
102
{ACAD_REACTORS
330
1B0B
102
}
330
1B0B
100
AcDbXrecord
280
     1
290
     1
  0
XRECORD
  5
1B0E
102
{ACAD_REACTORS
330
1B0D
102
}
330
1B0D
100
AcDbXrecord
280
     1
290
     1
  0
XRECORD
  5
1B10
102
{ACAD_REACTORS
330
1B0F
102
}
330
1B0F
100
AcDbXrecord
280
     1
290
     1
  0
XRECORD
  5
1B12
102
{ACAD_REACTORS
330
1B11
102
}
330
1B11
100
AcDbXrecord
280
     1
290
     1
  0
XRECORD
  5
1B14
102
{ACAD_REACTORS
330
1B13
102
}
330
1B13
100
AcDbXrecord
280
     1
290
     1
  0
XRECORD
  5
1B16
102
{ACAD_REACTORS
330
1B15
102
}
330
1B15
100
AcDbXrecord
280
     1
290
     1
  0
XRECORD
  5
1B18
102
{ACAD_REACTORS
330
1B17
102
}
330
1B17
100
AcDbXrecord
280
     1
290
     1
  0
XRECORD
  5
1B1A
102
{ACAD_REACTORS
330
1B19
102
}
330
1B19
100
AcDbXrecord
280
     1
290
     1
  0
XRECORD
  5
1B1C
102
{ACAD_REACTORS
330
1B1B
102
}
330
1B1B
100
AcDbXrecord
280
     1
290
     1
  0
XRECORD
  5
1B1E
102
{ACAD_REACTORS
330
1B1D
102
}
330
1B1D
100
AcDbXrecord
280
     1
290
     1
  0
XRECORD
  5
1B20
102
{ACAD_REACTORS
330
1B1F
102
}
330
1B1F
100
AcDbXrecord
280
     1
290
     1
  0
XRECORD
  5
1B22
102
{ACAD_REACTORS
330
1B21
102
}
330
1B21
100
AcDbXrecord
280
     1
290
     1
  0
XRECORD
  5
1B24
102
{ACAD_REACTORS
330
1B23
102
}
330
1B23
100
AcDbXrecord
280
     1
290
     1
  0
XRECORD
  5
1B26
102
{ACAD_REACTORS
330
1B25
102
}
330
1B25
100
AcDbXrecord
280
     1
290
     1
  0
XRECORD
  5
1B6F
102
{ACAD_REACTORS
330
1B6E
102
}
330
1B6E
100
AcDbXrecord
280
     1
 40
1.570796326794896
  0
LAYOUT
  5
1E
102
{ACAD_XDICTIONARY
360
1B70
102
}
102
{ACAD_REACTORS
330
1A
102
}
330
1A
100
AcDbPlotSettings
  1

  2
Ploter HP500
  4

  6

 40
0.0
 41
0.0
 42
0.0
 43
0.0
 44
0.0
 45
0.0
 46
0.0
 47
0.0
 48
0.0
 49
0.0
140
0.0
141
0.0
142
1.0
143
1.0
 70
   688
 72
     0
 73
     0
 74
     5
  7
sanindusa.ctb
 75
    16
147
1.0
148
0.0
149
0.0
100
AcDbLayout
  1
Layout1
 70
     1
 71
     1
 10
0.0
 20
0.0
 11
420.0
 21
297.0
 12
0.0
 22
0.0
 32
0.0
 14
1.000000000000000E+20
 24
1.000000000000000E+20
 34
1.000000000000000E+20
 15
-1.000000000000000E+20
 25
-1.000000000000000E+20
 35
-1.000000000000000E+20
146
0.0
 13
0.0
 23
0.0
 33
0.0
 16
1.0
 26
0.0
 36
0.0
 17
0.0
 27
1.0
 37
0.0
 76
     0
330
1B
  0
LAYOUT
  5
26
102
{ACAD_XDICTIONARY
360
1B74
102
}
102
{ACAD_REACTORS
330
1A
102
}
330
1A
100
AcDbPlotSettings
  1

  2
Ploter HP500
  4

  6

 40
0.0
 41
0.0
 42
0.0
 43
0.0
 44
0.0
 45
0.0
 46
0.0
 47
0.0
 48
0.0
 49
0.0
140
0.0
141
0.0
142
1.0
143
1.0
 70
   688
 72
     0
 73
     0
 74
     5
  7
sanindusa.ctb
 75
    16
147
1.0
148
0.0
149
0.0
100
AcDbLayout
  1
Layout2
 70
     1
 71
     2
 10
0.0
 20
0.0
 11
12.0
 21
9.0
 12
0.0
 22
0.0
 32
0.0
 14
0.0
 24
0.0
 34
0.0
 15
0.0
 25
0.0
 35
0.0
146
0.0
 13
0.0
 23
0.0
 33
0.0
 16
1.0
 26
0.0
 36
0.0
 17
0.0
 27
1.0
 37
0.0
 76
     0
330
23
  0
LAYOUT
  5
22
102
{ACAD_XDICTIONARY
360
1B72
102
}
102
{ACAD_REACTORS
330
1A
102
}
330
1A
100
AcDbPlotSettings
  1

  2
Ploter HP500
  4
User268
  6

 40
4.995333194732666
 41
16.97565841674804
 42
4.995330810546875
 43
16.97567749023437
 44
209.9733276367187
 45
296.9259948730469
 46
0.0
 47
0.0
 48
0.0
 49
0.0
140
0.0
141
0.0
142
1.0
143
1.0
 70
 11952
 72
     1
 73
     1
 74
     0
  7
sanindusa.ctb
 75
     0
147
1.0
148
-427.5957866592534
149
7.362384574453926
100
AcDbLayout
  1
Model
 70
     1
 71
     0
 10
0.0
 20
0.0
 11
12.0
 21
9.0
 12
0.0
 22
0.0
 32
0.0
 14
0.0
 24
0.0
 34
0.0
 15
0.0
 25
0.0
 35
0.0
146
0.0
 13
0.0
 23
0.0
 33
0.0
 16
1.0
 26
0.0
 36
0.0
 17
0.0
 27
1.0
 37
0.0
 76
     0
330
1F
331
1068
  0
MATERIAL
  5
1072
102
{ACAD_XDICTIONARY
360
1073
102
}
102
{ACAD_REACTORS
330
EE5
102
}
330
EE5
100
AcDbMaterial
  1
ByBlock
 72
     0
 43
0.0008202099737533
 43
0.0
 43
0.0
 43
0.0
 43
0.0
 43
0.0008202099737533
 43
0.0
 43
0.0
 43
0.0
 43
0.0
 43
1.0
 43
0.0
 43
0.0
 43
0.0
 43
0.0
 43
1.0
 77
     0
 47
0.0008202099737533
 47
0.0
 47
0.0
 47
0.0
 47
0.0
 47
0.0008202099737533
 47
0.0
 47
0.0
 47
0.0
 47
0.0
 47
1.0
 47
0.0
 47
0.0
 47
0.0
 47
0.0
 47
1.0
171
     0
 49
0.0008202099737533
 49
0.0
 49
0.0
 49
0.0
 49
0.0
 49
0.0008202099737533
 49
0.0
 49
0.0
 49
0.0
 49
0.0
 49
1.0
 49
0.0
 49
0.0
 49
0.0
 49
0.0
 49
1.0
175
     0
142
0.0008202099737533
142
0.0
142
0.0
142
0.0
142
0.0
142
0.0008202099737533
142
0.0
142
0.0
142
0.0
142
0.0
142
1.0
142
0.0
142
0.0
142
0.0
142
0.0
142
1.0
179
     0
144
0.0008202099737533
144
0.0
144
0.0
144
0.0
144
0.0
144
0.0008202099737533
144
0.0
144
0.0
144
0.0
144
0.0
144
1.0
144
0.0
144
0.0
144
0.0
144
0.0
144
1.0
147
0.0008202099737533
147
0.0
147
0.0
147
0.0
147
0.0
147
0.0008202099737533
147
0.0
147
0.0
147
0.0
147
0.0
147
1.0
147
0.0
147
0.0
147
0.0
147
0.0
147
1.0
  0
MATERIAL
  5
106A
102
{ACAD_XDICTIONARY
360
106B
102
}
102
{ACAD_REACTORS
330
EE5
102
}
330
EE5
100
AcDbMaterial
  1
ByLayer
 72
     0
 43
0.0008202099737533
 43
0.0
 43
0.0
 43
0.0
 43
0.0
 43
0.0008202099737533
 43
0.0
 43
0.0
 43
0.0
 43
0.0
 43
1.0
 43
0.0
 43
0.0
 43
0.0
 43
0.0
 43
1.0
 77
     0
 47
0.0008202099737533
 47
0.0
 47
0.0
 47
0.0
 47
0.0
 47
0.0008202099737533
 47
0.0
 47
0.0
 47
0.0
 47
0.0
 47
1.0
 47
0.0
 47
0.0
 47
0.0
 47
0.0
 47
1.0
171
     0
 49
0.0008202099737533
 49
0.0
 49
0.0
 49
0.0
 49
0.0
 49
0.0008202099737533
 49
0.0
 49
0.0
 49
0.0
 49
0.0
 49
1.0
 49
0.0
 49
0.0
 49
0.0
 49
0.0
 49
1.0
175
     0
142
0.0008202099737533
142
0.0
142
0.0
142
0.0
142
0.0
142
0.0008202099737533
142
0.0
142
0.0
142
0.0
142
0.0
142
1.0
142
0.0
142
0.0
142
0.0
142
0.0
142
1.0
179
     0
144
0.0008202099737533
144
0.0
144
0.0
144
0.0
144
0.0
144
0.0008202099737533
144
0.0
144
0.0
144
0.0
144
0.0
144
1.0
144
0.0
144
0.0
144
0.0
144
0.0
144
1.0
147
0.0008202099737533
147
0.0
147
0.0
147
0.0
147
0.0
147
0.0008202099737533
147
0.0
147
0.0
147
0.0
147
0.0
147
1.0
147
0.0
147
0.0
147
0.0
147
0.0
147
1.0
  0
MATERIAL
  5
107A
102
{ACAD_XDICTIONARY
360
107B
102
}
102
{ACAD_REACTORS
330
EE5
102
}
330
EE5
100
AcDbMaterial
  1
Global
 72
     0
 43
0.0008202099737533
 43
0.0
 43
0.0
 43
0.0
 43
0.0
 43
0.0008202099737533
 43
0.0
 43
0.0
 43
0.0
 43
0.0
 43
1.0
 43
0.0
 43
0.0
 43
0.0
 43
0.0
 43
1.0
 77
     0
 47
0.0008202099737533
 47
0.0
 47
0.0
 47
0.0
 47
0.0
 47
0.0008202099737533
 47
0.0
 47
0.0
 47
0.0
 47
0.0
 47
1.0
 47
0.0
 47
0.0
 47
0.0
 47
0.0
 47
1.0
171
     0
 49
0.0008202099737533
 49
0.0
 49
0.0
 49
0.0
 49
0.0
 49
0.0008202099737533
 49
0.0
 49
0.0
 49
0.0
 49
0.0
 49
1.0
 49
0.0
 49
0.0
 49
0.0
 49
0.0
 49
1.0
175
     0
142
0.0008202099737533
142
0.0
142
0.0
142
0.0
142
0.0
142
0.0008202099737533
142
0.0
142
0.0
142
0.0
142
0.0
142
1.0
142
0.0
142
0.0
142
0.0
142
0.0
142
1.0
179
     0
144
0.0008202099737533
144
0.0
144
0.0
144
0.0
144
0.0
144
0.0008202099737533
144
0.0
144
0.0
144
0.0
144
0.0
144
1.0
144
0.0
144
0.0
144
0.0
144
0.0
144
1.0
147
0.0008202099737533
147
0.0
147
0.0
147
0.0
147
0.0
147
0.0008202099737533
147
0.0
147
0.0
147
0.0
147
0.0
147
1.0
147
0.0
147
0.0
147
0.0
147
0.0
147
1.0
  0
MLEADERSTYLE
  5
10A9
102
{ACAD_REACTORS
330
10A8
102
}
330
10A8
100
AcDbMLeaderStyle
170
     2
171
     1
172
     0
 90
        2
 40
0.0
 41
0.0
173
     1
 91
-1056964608
340
14
 92
       -2
290
     1
 42
2.0
291
     1
 43
0.36
  3
Standard
 44
4.0
300

342
11
174
     1
178
     6
175
     1
176
     0
 93
-1056964608
 45
4.0
292
     0
297
     0
 46
4.0
 94
-1056964608
 47
1.0
 49
1.0
140
1.0
293
     1
141
0.0
294
     1
177
     0
142
1.0
295
     0
296
     0
143
0.125
1001
ACAD_MLEADERVER
1070
     2
  0
MLINESTYLE
  5
18
102
{ACAD_REACTORS
330
17
102
}
330
17
100
AcDbMlineStyle
  2
STANDARD
 70
     0
  3

 62
   256
 51
90.0
 52
90.0
 71
     2
 49
0.5
 62
   256
  6
BYLAYER
 49
-0.5
 62
   256
  6
BYLAYER
  0
ACDBPLACEHOLDER
  5
F
102
{ACAD_REACTORS
330
E
102
}
330
E
  0
SCALE
  5
1097
102
{ACAD_REACTORS
330
1096
102
}
330
1096
100
AcDbScale
 70
     0
300
1:1
140
1.0
141
1.0
290
     1
  0
SCALE
  5
1098
102
{ACAD_REACTORS
330
1096
102
}
330
1096
100
AcDbScale
 70
     0
300
1:2
140
1.0
141
2.0
290
     0
  0
SCALE
  5
1099
102
{ACAD_REACTORS
330
1096
102
}
330
1096
100
AcDbScale
 70
     0
300
1:4
140
1.0
141
4.0
290
     0
  0
SCALE
  5
109A
102
{ACAD_REACTORS
330
1096
102
}
330
1096
100
AcDbScale
 70
     0
300
1:5
140
1.0
141
5.0
290
     0
  0
SCALE
  5
109B
102
{ACAD_REACTORS
330
1096
102
}
330
1096
100
AcDbScale
 70
     0
300
1:8
140
1.0
141
8.0
290
     0
  0
SCALE
  5
109C
102
{ACAD_REACTORS
330
1096
102
}
330
1096
100
AcDbScale
 70
     0
300
1:10
140
1.0
141
10.0
290
     0
  0
SCALE
  5
109D
102
{ACAD_REACTORS
330
1096
102
}
330
1096
100
AcDbScale
 70
     0
300
1:16
140
1.0
141
16.0
290
     0
  0
SCALE
  5
109E
102
{ACAD_REACTORS
330
1096
102
}
330
1096
100
AcDbScale
 70
     0
300
1:20
140
1.0
141
20.0
290
     0
  0
SCALE
  5
109F
102
{ACAD_REACTORS
330
1096
102
}
330
1096
100
AcDbScale
 70
     0
300
1:30
140
1.0
141
30.0
290
     0
  0
SCALE
  5
10A0
102
{ACAD_REACTORS
330
1096
102
}
330
1096
100
AcDbScale
 70
     0
300
1:40
140
1.0
141
40.0
290
     0
  0
SCALE
  5
10A1
102
{ACAD_REACTORS
330
1096
102
}
330
1096
100
AcDbScale
 70
     0
300
1:50
140
1.0
141
50.0
290
     0
  0
SCALE
  5
10A2
102
{ACAD_REACTORS
330
1096
102
}
330
1096
100
AcDbScale
 70
     0
300
1:100
140
1.0
141
100.0
290
     0
  0
SCALE
  5
10A3
102
{ACAD_REACTORS
330
1096
102
}
330
1096
100
AcDbScale
 70
     0
300
2:1
140
2.0
141
1.0
290
     0
  0
SCALE
  5
10A4
102
{ACAD_REACTORS
330
1096
102
}
330
1096
100
AcDbScale
 70
     0
300
4:1
140
4.0
141
1.0
290
     0
  0
SCALE
  5
10A5
102
{ACAD_REACTORS
330
1096
102
}
330
1096
100
AcDbScale
 70
     0
300
8:1
140
8.0
141
1.0
290
     0
  0
SCALE
  5
10A6
102
{ACAD_REACTORS
330
1096
102
}
330
1096
100
AcDbScale
 70
     0
300
10:1
140
10.0
141
1.0
290
     0
  0
SCALE
  5
10A7
102
{ACAD_REACTORS
330
1096
102
}
330
1096
100
AcDbScale
 70
     0
300
100:1
140
100.0
141
1.0
290
     0
  0
TABLESTYLE
  5
EE8
102
{ACAD_XDICTIONARY
360
1B6A
102
}
102
{ACAD_REACTORS
330
EE7
102
}
330
EE7
100
AcDbTableStyle
  3
Standard
 70
     0
 71
     0
 40
1.5
 41
1.5
280
     0
281
     0
  7
Standard
140
4.5
170
     2
 62
     0
 63
     7
283
     0
274
    -2
284
     1
 64
     0
275
    -2
285
     1
 65
     0
276
    -2
286
     1
 66
     0
277
    -2
287
     1
 67
     0
278
    -2
288
     1
 68
     0
279
    -2
289
     1
 69
     0
  7
Standard
140
6.0
170
     5
 62
     0
 63
     7
283
     0
274
    -2
284
     1
 64
     0
275
    -2
285
     1
 65
     0
276
    -2
286
     1
 66
     0
277
    -2
287
     1
 67
     0
278
    -2
288
     1
 68
     0
279
    -2
289
     1
 69
     0
  7
Standard
140
4.5
170
     5
 62
     0
 63
     7
283
     0
274
    -2
284
     1
 64
     0
275
    -2
285
     1
 65
     0
276
    -2
286
     1
 66
     0
277
    -2
287
     1
 67
     0
278
    -2
288
     1
 68
     0
279
    -2
289
     1
 69
     0
  0
VISUALSTYLE
  5
1088
102
{ACAD_XDICTIONARY
360
1B84
102
}
102
{ACAD_REACTORS
330
1082
102
}
330
1082
100
AcDbVisualStyle
  2
2dWireframe
 70
     4
 71
     0
 72
     2
 73
     0
 90
        0
 40
-0.6
 41
-30.0
 62
     5
 63
     7
 74
     1
 91
        4
 64
     7
 65
   257
 75
     1
175
     1
 42
1.0
 92
        0
 66
   257
 43
1.0
 76
     1
 77
     6
 78
     2
 67
     7
 79
     5
170
     0
171
     0
290
     0
174
     0
 93
        1
 44
0.0
173
     0
291
     0
 45
0.0
1001
ACAD
1000
AcDbSavedByObjectVersion
1070
     0
  0
VISUALSTYLE
  5
108A
102
{ACAD_XDICTIONARY
360
1B88
102
}
102
{ACAD_REACTORS
330
1082
102
}
330
1082
100
AcDbVisualStyle
  2
3D Hidden
 70
     6
 71
     1
 72
     2
 73
     2
 90
        0
 40
-0.6
 41
-30.0
 62
     5
 63
     7
 74
     2
 91
        2
 64
     7
 65
   257
 75
     2
175
     1
 42
179.0
 92
        0
 66
   257
 43
1.0
 76
     1
 77
     6
 78
     2
 67
     7
 79
     3
170
     0
171
     0
290
     0
174
     0
 93
        1
 44
0.0
173
     0
291
     0
 45
0.0
1001
ACAD
1000
AcDbSavedByObjectVersion
1070
     0
  0
VISUALSTYLE
  5
1089
102
{ACAD_XDICTIONARY
360
1B86
102
}
102
{ACAD_REACTORS
330
1082
102
}
330
1082
100
AcDbVisualStyle
  2
3dWireframe
 70
     5
 71
     0
 72
     2
 73
     0
 90
        0
 40
-0.6
 41
-30.0
 62
     5
 63
     7
 74
     1
 91
        4
 64
     7
 65
   257
 75
     1
175
     1
 42
1.0
 92
        0
 66
   257
 43
1.0
 76
     1
 77
     6
 78
     2
 67
     7
 79
     5
170
     0
171
     0
290
     0
174
     0
 93
        1
 44
0.0
173
     0
291
     0
 45
0.0
1001
ACAD
1000
AcDbSavedByObjectVersion
1070
     0
  0
VISUALSTYLE
  5
1087
102
{ACAD_XDICTIONARY
360
1B82
102
}
102
{ACAD_REACTORS
330
1082
102
}
330
1082
100
AcDbVisualStyle
  2
Basic
 70
     7
 71
     1
 72
     0
 73
     1
 90
        0
 40
-0.6
 41
-30.0
 62
     5
 63
     7
 74
     0
 91
        4
 64
     7
 65
   257
 75
     1
175
     1
 42
1.0
 92
        8
 66
     7
 43
1.0
 76
     1
 77
     6
 78
     2
 67
     7
 79
     5
170
     0
171
     0
290
     0
174
     0
 93
        1
 44
0.0
173
     0
291
     1
 45
0.0
1001
ACAD
1000
AcDbSavedByObjectVersion
1070
     0
  0
VISUALSTYLE
  5
108E
102
{ACAD_XDICTIONARY
360
1B90
102
}
102
{ACAD_REACTORS
330
1082
102
}
330
1082
100
AcDbVisualStyle
  2
Brighten
 70
    12
 71
     2
 72
     2
 73
     0
 90
        0
 40
-0.6
 41
-30.0
 62
     5
 63
     7
 74
     1
 91
        4
 64
     7
 65
   257
 75
     1
175
     1
 42
1.0
 92
        8
 66
     7
 43
1.0
 76
     1
 77
     6
 78
     2
 67
     7
 79
     5
170
     0
171
     0
290
     0
174
     0
 93
        1
 44
50.0
173
     0
291
     1
 45
0.0
1001
ACAD
1000
AcDbSavedByObjectVersion
1070
     0
  0
VISUALSTYLE
  5
1092
102
{ACAD_XDICTIONARY
360
1B98
102
}
102
{ACAD_REACTORS
330
1082
102
}
330
1082
100
AcDbVisualStyle
  2
ColorChange
 70
    16
 71
     2
 72
     2
 73
     3
 90
        0
 40
-0.6
 41
-30.0
 62
     5
 63
     8
 74
     1
 91
        4
 64
     7
 65
   257
 75
     1
175
     1
 42
1.0
 92
        8
 66
     8
 43
1.0
 76
     1
 77
     6
 78
     2
 67
     7
 79
     5
170
     0
171
     0
290
     0
174
     0
 93
        1
 44
0.0
173
     0
291
     1
 45
0.0
1001
ACAD
1000
AcDbSavedByObjectVersion
1070
     0
  0
VISUALSTYLE
  5
108B
102
{ACAD_XDICTIONARY
360
1B8A
102
}
102
{ACAD_REACTORS
330
1082
102
}
330
1082
100
AcDbVisualStyle
  2
Conceptual
 70
     9
 71
     3
 72
     2
 73
     0
 90
        0
 40
-0.6
 41
-30.0
 62
     5
 63
     7
 74
     2
 91
        2
 64
     7
 65
   257
 75
     1
175
     1
 42
179.0
 92
        8
 66
     7
 43
1.0
 76
     1
 77
     6
 78
     2
 67
     7
 79
     3
170
     0
171
     0
290
     0
174
     0
 93
        1
 44
0.0
173
     0
291
     0
 45
0.0
1001
ACAD
1000
AcDbSavedByObjectVersion
1070
     0
  0
VISUALSTYLE
  5
108D
102
{ACAD_XDICTIONARY
360
1B8E
102
}
102
{ACAD_REACTORS
330
1082
102
}
330
1082
100
AcDbVisualStyle
  2
Dim
 70
    11
 71
     2
 72
     2
 73
     0
 90
        0
 40
-0.6
 41
-30.0
 62
     5
 63
     7
 74
     1
 91
        4
 64
     7
 65
   257
 75
     1
175
     1
 42
1.0
 92
        8
 66
     7
 43
1.0
 76
     1
 77
     6
 78
     2
 67
     7
 79
     5
170
     0
171
     0
290
     0
174
     0
 93
        1
 44
-50.0
173
     0
291
     1
 45
0.0
1001
ACAD
1000
AcDbSavedByObjectVersion
1070
     0
  0
VISUALSTYLE
  5
1095
102
{ACAD_XDICTIONARY
360
1B9E
102
}
102
{ACAD_REACTORS
330
1082
102
}
330
1082
100
AcDbVisualStyle
  2
EdgeColorOff
 70
    22
 71
     2
 72
     2
 73
     0
 90
        0
 40
-0.6
 41
-30.0
 62
     5
 63
     7
 74
     1
 91
        4
 64
     7
 65
   257
 75
     1
175
     1
 42
1.0
 92
        8
 66
     7
 43
1.0
 76
     1
 77
     6
 78
     2
 67
     7
 79
     5
170
     0
171
     0
290
     0
174
     0
 93
        1
 44
0.0
173
     0
291
     1
 45
0.0
1001
ACAD
1000
AcDbSavedByObjectVersion
1070
     0
  0
VISUALSTYLE
  5
1091
102
{ACAD_XDICTIONARY
360
1B96
102
}
102
{ACAD_REACTORS
330
1082
102
}
330
1082
100
AcDbVisualStyle
  2
Facepattern
 70
    15
 71
     2
 72
     2
 73
     0
 90
        0
 40
-0.6
 41
-30.0
 62
     5
 63
     7
 74
     1
 91
        4
 64
     7
 65
   257
 75
     1
175
     1
 42
1.0
 92
        8
 66
     7
 43
1.0
 76
     1
 77
     6
 78
     2
 67
     7
 79
     5
170
     0
171
     0
290
     0
174
     0
 93
        1
 44
0.0
173
     0
291
     1
 45
0.0
1001
ACAD
1000
AcDbSavedByObjectVersion
1070
     0
  0
VISUALSTYLE
  5
1083
102
{ACAD_XDICTIONARY
360
1B7A
102
}
102
{ACAD_REACTORS
330
1082
102
}
330
1082
100
AcDbVisualStyle
  2
Flat
 70
     0
 71
     2
 72
     1
 73
     1
 90
        2
 40
-0.6
 41
30.0
 62
     5
 63
     7
 74
     0
 91
        4
 64
     7
 65
   257
 75
     1
175
     1
 42
1.0
 92
        8
 66
     7
 43
1.0
 76
     1
 77
     6
 78
     2
 67
     7
 79
     5
170
     0
171
     0
290
     0
174
     0
 93
       13
 44
0.0
173
     0
291
     1
 45
0.0
1001
ACAD
1000
AcDbSavedByObjectVersion
1070
     0
  0
VISUALSTYLE
  5
1084
102
{ACAD_XDICTIONARY
360
1B7C
102
}
102
{ACAD_REACTORS
330
1082
102
}
330
1082
100
AcDbVisualStyle
  2
FlatWithEdges
 70
     1
 71
     2
 72
     1
 73
     1
 90
        2
 40
-0.6
 41
30.0
 62
     5
 63
     7
 74
     1
 91
        4
 64
     7
 65
   257
 75
     1
175
     1
 42
1.0
 92
        0
 66
   257
 43
1.0
 76
     1
 77
     6
 78
     2
 67
     7
 79
     5
170
     0
171
     0
290
     0
174
     0
 93
       13
 44
0.0
173
     0
291
     1
 45
0.0
1001
ACAD
1000
AcDbSavedByObjectVersion
1070
     0
  0
VISUALSTYLE
  5
1085
102
{ACAD_XDICTIONARY
360
1B7E
102
}
102
{ACAD_REACTORS
330
1082
102
}
330
1082
100
AcDbVisualStyle
  2
Gouraud
 70
     2
 71
     2
 72
     2
 73
     1
 90
        2
 40
-0.6
 41
30.0
 62
     5
 63
     7
 74
     0
 91
        4
 64
     7
 65
   257
 75
     1
175
     1
 42
1.0
 92
        0
 66
     7
 43
1.0
 76
     1
 77
     6
 78
     2
 67
     7
 79
     5
170
     0
171
     0
290
     0
174
     0
 93
       13
 44
0.0
173
     0
291
     1
 45
0.0
1001
ACAD
1000
AcDbSavedByObjectVersion
1070
     0
  0
VISUALSTYLE
  5
1086
102
{ACAD_XDICTIONARY
360
1B80
102
}
102
{ACAD_REACTORS
330
1082
102
}
330
1082
100
AcDbVisualStyle
  2
GouraudWithEdges
 70
     3
 71
     2
 72
     2
 73
     1
 90
        2
 40
-0.6
 41
30.0
 62
     5
 63
     7
 74
     1
 91
        4
 64
     7
 65
   257
 75
     1
175
     1
 42
1.0
 92
        0
 66
   257
 43
1.0
 76
     1
 77
     6
 78
     2
 67
     7
 79
     5
170
     0
171
     0
290
     0
174
     0
 93
       13
 44
0.0
173
     0
291
     1
 45
0.0
1001
ACAD
1000
AcDbSavedByObjectVersion
1070
     0
  0
VISUALSTYLE
  5
1093
102
{ACAD_XDICTIONARY
360
1B9A
102
}
102
{ACAD_REACTORS
330
1082
102
}
330
1082
100
AcDbVisualStyle
  2
JitterOff
 70
    20
 71
     2
 72
     2
 73
     0
 90
        0
 40
-0.6
 41
-30.0
 62
     5
 63
     7
 74
     1
 91
        4
 64
     7
 65
   257
 75
     1
175
     1
 42
1.0
 92
       10
 66
     7
 43
1.0
 76
     1
 77
     6
 78
     2
 67
     7
 79
     5
170
     0
171
     0
290
     0
174
     0
 93
        1
 44
0.0
173
     0
291
     1
 45
0.0
1001
ACAD
1000
AcDbSavedByObjectVersion
1070
     0
  0
VISUALSTYLE
  5
1090
102
{ACAD_XDICTIONARY
360
1B94
102
}
102
{ACAD_REACTORS
330
1082
102
}
330
1082
100
AcDbVisualStyle
  2
Linepattern
 70
    14
 71
     2
 72
     2
 73
     0
 90
        0
 40
-0.6
 41
-30.0
 62
     5
 63
     7
 74
     1
 91
        4
 64
     7
 65
   257
 75
     7
175
     7
 42
1.0
 92
        8
 66
     7
 43
1.0
 76
     1
 77
     6
 78
     2
 67
     7
 79
     5
170
     0
171
     0
290
     0
174
     0
 93
        1
 44
0.0
173
     0
291
     1
 45
0.0
1001
ACAD
1000
AcDbSavedByObjectVersion
1070
     0
  0
VISUALSTYLE
  5
1094
102
{ACAD_XDICTIONARY
360
1B9C
102
}
102
{ACAD_REACTORS
330
1082
102
}
330
1082
100
AcDbVisualStyle
  2
OverhangOff
 70
    21
 71
     2
 72
     2
 73
     0
 90
        0
 40
-0.6
 41
-30.0
 62
     5
 63
     7
 74
     1
 91
        4
 64
     7
 65
   257
 75
     1
175
     1
 42
1.0
 92
        9
 66
     7
 43
1.0
 76
     1
 77
     6
 78
     2
 67
     7
 79
     5
170
     0
171
     0
290
     0
174
     0
 93
        1
 44
0.0
173
     0
291
     1
 45
0.0
1001
ACAD
1000
AcDbSavedByObjectVersion
1070
     0
  0
VISUALSTYLE
  5
108C
102
{ACAD_XDICTIONARY
360
1B8C
102
}
102
{ACAD_REACTORS
330
1082
102
}
330
1082
100
AcDbVisualStyle
  2
Realistic
 70
     8
 71
     2
 72
     2
 73
     0
 90
        0
 40
-0.6
 41
-30.0
 62
     5
 63
     7
 74
     1
 91
        0
 64
     7
 65
   257
 75
     1
175
     1
 42
1.0
 92
        8
 66
     8
 43
1.0
 76
     1
 77
     6
 78
     2
 67
     7
 79
     5
170
     0
171
     0
290
     0
174
     0
 93
       13
 44
0.0
173
     0
291
     0
 45
0.0
1001
ACAD
1000
AcDbSavedByObjectVersion
1070
     0
  0
VISUALSTYLE
  5
108F
102
{ACAD_XDICTIONARY
360
1B92
102
}
102
{ACAD_REACTORS
330
1082
102
}
330
1082
100
AcDbVisualStyle
  2
Thicken
 70
    13
 71
     2
 72
     2
 73
     0
 90
        0
 40
-0.6
 41
-30.0
 62
     5
 63
     7
 74
     1
 91
        4
 64
     7
 65
   257
 75
     1
175
     1
 42
1.0
 92
       12
 66
     7
 43
1.0
 76
     1
 77
     6
 78
     2
 67
     7
 79
     5
170
     0
171
     0
290
     0
174
     0
 93
        1
 44
0.0
173
     0
291
     1
 45
0.0
1001
ACAD
1000
AcDbSavedByObjectVersion
1070
     0
  0
DICTIONARYVAR
  5
1B66
102
{ACAD_REACTORS
330
3D
102
}
330
3D
100
DictionaryVariables
280
     0
  1
1:1
  0
DICTIONARYVAR
  5
1B65
102
{ACAD_REACTORS
330
3D
102
}
330
3D
100
DictionaryVariables
280
     0
  1
STANDARD
  0
DICTIONARYVAR
  5
1049
102
{ACAD_REACTORS
330
3D
102
}
330
3D
100
DictionaryVariables
280
     0
  1
STANDARD
  0
DICTIONARYVAR
  5
3F
102
{ACAD_REACTORS
330
3D
102
}
330
3D
100
DictionaryVariables
280
     0
  1
2
  0
DICTIONARYVAR
  5
3E
102
{ACAD_REACTORS
330
3D
102
}
330
3D
100
DictionaryVariables
280
     0
  1
1
  0
DICTIONARYVAR
  5
1B68
102
{ACAD_REACTORS
330
3D
102
}
330
3D
100
DictionaryVariables
280
     0
  1
0
  0
DICTIONARYVAR
  5
1B67
102
{ACAD_REACTORS
330
3D
102
}
330
3D
100
DictionaryVariables
280
     0
  1
127
  0
DICTIONARYVAR
  5
1B69
102
{ACAD_REACTORS
330
3D
102
}
330
3D
100
DictionaryVariables
280
     0
  1
0
  0
XRECORD
  5
1067
102
{ACAD_REACTORS
330
1066
102
}
330
1066
100
AcDbXrecord
280
     1
  0
DICTIONARY
  5
1B70
330
1E
100
AcDbDictionary
280
     1
281
     1
  3
ACAD_XREC_ROUNDTRIP
360
1B71
  0
DICTIONARY
  5
1B74
330
26
100
AcDbDictionary
280
     1
281
     1
  3
ACAD_XREC_ROUNDTRIP
360
1B75
  0
DICTIONARY
  5
1B72
330
22
100
AcDbDictionary
280
     1
281
     1
  3
ACAD_XREC_ROUNDTRIP
360
1B73
  0
DICTIONARY
  5
1073
330
1072
100
AcDbDictionary
280
     1
281
     1
  3
ACAD_XREC_ROUNDTRIP
360
1B78
  3
BUMPTILE
360
1075
  3
DIFFUSETILE
360
1074
  3
OPACITYTILE
360
1078
  3
REFLECTIONTILE
360
1077
  3
REFRACTIONTILE
360
1079
  3
SPECULARTILE
360
1076
  0
DICTIONARY
  5
106B
330
106A
100
AcDbDictionary
280
     1
281
     1
  3
ACAD_XREC_ROUNDTRIP
360
1B77
  3
BUMPTILE
360
106D
  3
DIFFUSETILE
360
106C
  3
OPACITYTILE
360
1070
  3
REFLECTIONTILE
360
106F
  3
REFRACTIONTILE
360
1071
  3
SPECULARTILE
360
106E
  0
DICTIONARY
  5
107B
330
107A
100
AcDbDictionary
280
     1
281
     1
  3
ACAD_XREC_ROUNDTRIP
360
1B79
  3
BUMPTILE
360
107D
  3
DIFFUSETILE
360
107C
  3
OPACITYTILE
360
1080
  3
REFLECTIONTILE
360
107F
  3
REFRACTIONTILE
360
1081
  3
SPECULARTILE
360
107E
  0
DICTIONARY
  5
1B6A
330
EE8
100
AcDbDictionary
280
     1
281
     1
  3
ACAD_ROUNDTRIP_2008_TABLESTYLE_CELLSTYLEMAP
360
1B6B
  3
ACAD_XREC_ROUNDTRIP
360
1B76
  0
DICTIONARY
  5
1B84
330
1088
100
AcDbDictionary
280
     1
281
     1
  3
ACAD_XREC_ROUNDTRIP
360
1B85
  0
DICTIONARY
  5
1B88
330
108A
100
AcDbDictionary
280
     1
281
     1
  3
ACAD_XREC_ROUNDTRIP
360
1B89
  0
DICTIONARY
  5
1B86
330
1089
100
AcDbDictionary
280
     1
281
     1
  3
ACAD_XREC_ROUNDTRIP
360
1B87
  0
DICTIONARY
  5
1B82
330
1087
100
AcDbDictionary
280
     1
281
     1
  3
ACAD_XREC_ROUNDTRIP
360
1B83
  0
DICTIONARY
  5
1B90
330
108E
100
AcDbDictionary
280
     1
281
     1
  3
ACAD_XREC_ROUNDTRIP
360
1B91
  0
DICTIONARY
  5
1B98
330
1092
100
AcDbDictionary
280
     1
281
     1
  3
ACAD_XREC_ROUNDTRIP
360
1B99
  0
DICTIONARY
  5
1B8A
330
108B
100
AcDbDictionary
280
     1
281
     1
  3
ACAD_XREC_ROUNDTRIP
360
1B8B
  0
DICTIONARY
  5
1B8E
330
108D
100
AcDbDictionary
280
     1
281
     1
  3
ACAD_XREC_ROUNDTRIP
360
1B8F
  0
DICTIONARY
  5
1B9E
330
1095
100
AcDbDictionary
280
     1
281
     1
  3
ACAD_XREC_ROUNDTRIP
360
1B9F
  0
DICTIONARY
  5
1B96
330
1091
100
AcDbDictionary
280
     1
281
     1
  3
ACAD_XREC_ROUNDTRIP
360
1B97
  0
DICTIONARY
  5
1B7A
330
1083
100
AcDbDictionary
280
     1
281
     1
  3
ACAD_XREC_ROUNDTRIP
360
1B7B
  0
DICTIONARY
  5
1B7C
330
1084
100
AcDbDictionary
280
     1
281
     1
  3
ACAD_XREC_ROUNDTRIP
360
1B7D
  0
DICTIONARY
  5
1B7E
330
1085
100
AcDbDictionary
280
     1
281
     1
  3
ACAD_XREC_ROUNDTRIP
360
1B7F
  0
DICTIONARY
  5
1B80
330
1086
100
AcDbDictionary
280
     1
281
     1
  3
ACAD_XREC_ROUNDTRIP
360
1B81
  0
DICTIONARY
  5
1B9A
330
1093
100
AcDbDictionary
280
     1
281
     1
  3
ACAD_XREC_ROUNDTRIP
360
1B9B
  0
DICTIONARY
  5
1B94
330
1090
100
AcDbDictionary
280
     1
281
     1
  3
ACAD_XREC_ROUNDTRIP
360
1B95
  0
DICTIONARY
  5
1B9C
330
1094
100
AcDbDictionary
280
     1
281
     1
  3
ACAD_XREC_ROUNDTRIP
360
1B9D
  0
DICTIONARY
  5
1B8C
330
108C
100
AcDbDictionary
280
     1
281
     1
  3
ACAD_XREC_ROUNDTRIP
360
1B8D
  0
DICTIONARY
  5
1B92
330
108F
100
AcDbDictionary
280
     1
281
     1
  3
ACAD_XREC_ROUNDTRIP
360
1B93
  0
XRECORD
  5
1B71
102
{ACAD_REACTORS
330
1B70
102
}
330
1B70
100
AcDbXrecord
280
     1
102
SHADEPLOT
 70
     0
102
SHADEPLOTRESLEVEL
 70
     2
102
SHADEPLOTCUSTOMDPI
 70
   300
  0
XRECORD
  5
1B75
102
{ACAD_REACTORS
330
1B74
102
}
330
1B74
100
AcDbXrecord
280
     1
102
SHADEPLOT
 70
     0
102
SHADEPLOTRESLEVEL
 70
     2
102
SHADEPLOTCUSTOMDPI
 70
   300
  0
XRECORD
  5
1B73
102
{ACAD_REACTORS
330
1B72
102
}
330
1B72
100
AcDbXrecord
280
     1
102
SHADEPLOT
 70
     0
102
SHADEPLOTRESLEVEL
 70
     2
102
SHADEPLOTCUSTOMDPI
 70
   300
  0
XRECORD
  5
1B78
102
{ACAD_REACTORS
330
1073
102
}
330
1073
100
AcDbXrecord
280
     1
102
MATERIAL
148
0.0
149
0.0
149
0.0
 93
        0
 94
      127
282
     0
 72
     0
 77
     0
171
     0
175
     0
179
     0
273
     0
  0
XRECORD
  5
1075
102
{ACAD_REACTORS
330
1073
102
}
330
1073
100
AcDbXrecord
280
     1
270
     1
271
     1
  0
XRECORD
  5
1074
102
{ACAD_REACTORS
330
1073
102
}
330
1073
100
AcDbXrecord
280
     1
270
     1
271
     1
  0
XRECORD
  5
1078
102
{ACAD_REACTORS
330
1073
102
}
330
1073
100
AcDbXrecord
280
     1
270
     1
271
     1
  0
XRECORD
  5
1077
102
{ACAD_REACTORS
330
1073
102
}
330
1073
100
AcDbXrecord
280
     1
270
     1
271
     1
  0
XRECORD
  5
1079
102
{ACAD_REACTORS
330
1073
102
}
330
1073
100
AcDbXrecord
280
     1
270
     1
271
     1
  0
XRECORD
  5
1076
102
{ACAD_REACTORS
330
1073
102
}
330
1073
100
AcDbXrecord
280
     1
270
     1
271
     1
  0
XRECORD
  5
1B77
102
{ACAD_REACTORS
330
106B
102
}
330
106B
100
AcDbXrecord
280
     1
102
MATERIAL
148
0.0
149
0.0
149
0.0
 93
        0
 94
      127
282
     0
 72
     0
 77
     0
171
     0
175
     0
179
     0
273
     0
  0
XRECORD
  5
106D
102
{ACAD_REACTORS
330
106B
102
}
330
106B
100
AcDbXrecord
280
     1
270
     1
271
     1
  0
XRECORD
  5
106C
102
{ACAD_REACTORS
330
106B
102
}
330
106B
100
AcDbXrecord
280
     1
270
     1
271
     1
  0
XRECORD
  5
1070
102
{ACAD_REACTORS
330
106B
102
}
330
106B
100
AcDbXrecord
280
     1
270
     1
271
     1
  0
XRECORD
  5
106F
102
{ACAD_REACTORS
330
106B
102
}
330
106B
100
AcDbXrecord
280
     1
270
     1
271
     1
  0
XRECORD
  5
1071
102
{ACAD_REACTORS
330
106B
102
}
330
106B
100
AcDbXrecord
280
     1
270
     1
271
     1
  0
XRECORD
  5
106E
102
{ACAD_REACTORS
330
106B
102
}
330
106B
100
AcDbXrecord
280
     1
270
     1
271
     1
  0
XRECORD
  5
1B79
102
{ACAD_REACTORS
330
107B
102
}
330
107B
100
AcDbXrecord
280
     1
102
MATERIAL
148
0.0
149
0.0
149
0.0
 93
        0
 94
      127
282
     0
 72
     0
 77
     0
171
     0
175
     0
179
     0
273
     0
  0
XRECORD
  5
107D
102
{ACAD_REACTORS
330
107B
102
}
330
107B
100
AcDbXrecord
280
     1
270
     1
271
     1
  0
XRECORD
  5
107C
102
{ACAD_REACTORS
330
107B
102
}
330
107B
100
AcDbXrecord
280
     1
270
     1
271
     1
  0
XRECORD
  5
1080
102
{ACAD_REACTORS
330
107B
102
}
330
107B
100
AcDbXrecord
280
     1
270
     1
271
     1
  0
XRECORD
  5
107F
102
{ACAD_REACTORS
330
107B
102
}
330
107B
100
AcDbXrecord
280
     1
270
     1
271
     1
  0
XRECORD
  5
1081
102
{ACAD_REACTORS
330
107B
102
}
330
107B
100
AcDbXrecord
280
     1
270
     1
271
     1
  0
XRECORD
  5
107E
102
{ACAD_REACTORS
330
107B
102
}
330
107B
100
AcDbXrecord
280
     1
270
     1
271
     1
  0
CELLSTYLEMAP
  5
1B6B
102
{ACAD_REACTORS
330
1B6A
102
}
330
1B6A
100
AcDbCellStyleMap
 90
        3
300
CELLSTYLE
  1
TABLEFORMAT_BEGIN
 90
        5
170
     1
 91
        0
 92
    32768
 62
   257
 93
        1
300
CONTENTFORMAT
  1
CONTENTFORMAT_BEGIN
 90
        0
 91
        0
 92
        4
 93
        0
300

 40
0.0
140
1.0
 94
        5
 62
     0
340
11
144
6.0
309
CONTENTFORMAT_END
171
     1
301
MARGIN
  1
CELLMARGIN_BEGIN
 40
1.5
 40
1.5
 40
1.5
 40
1.5
 40
0.18
 40
0.18
309
CELLMARGIN_END
 94
        6
 95
        1
302
GRIDFORMAT
  1
GRIDFORMAT_BEGIN
 90
        0
 91
        1
 62
     0
 92
       -2
340
0
 93
        0
 40
0.045
309
GRIDFORMAT_END
 95
        2
302
GRIDFORMAT
  1
GRIDFORMAT_BEGIN
 90
        0
 91
        1
 62
     0
 92
       -2
340
0
 93
        0
 40
0.045
309
GRIDFORMAT_END
 95
        4
302
GRIDFORMAT
  1
GRIDFORMAT_BEGIN
 90
        0
 91
        1
 62
     0
 92
       -2
340
0
 93
        0
 40
0.045
309
GRIDFORMAT_END
 95
        8
302
GRIDFORMAT
  1
GRIDFORMAT_BEGIN
 90
        0
 91
        1
 62
     0
 92
       -2
340
0
 93
        0
 40
0.045
309
GRIDFORMAT_END
 95
       16
302
GRIDFORMAT
  1
GRIDFORMAT_BEGIN
 90
        0
 91
        1
 62
     0
 92
       -2
340
0
 93
        0
 40
0.045
309
GRIDFORMAT_END
 95
       32
302
GRIDFORMAT
  1
GRIDFORMAT_BEGIN
 90
        0
 91
        1
 62
     0
 92
       -2
340
0
 93
        0
 40
0.045
309
GRIDFORMAT_END
309
TABLEFORMAT_END
  1
CELLSTYLE_BEGIN
 90
        1
 91
        1
300
_TITLE
309
CELLSTYLE_END
300
CELLSTYLE
  1
TABLEFORMAT_BEGIN
 90
        5
170
     1
 91
        0
 92
        0
 62
   257
 93
        1
300
CONTENTFORMAT
  1
CONTENTFORMAT_BEGIN
 90
        0
 91
        0
 92
        4
 93
        0
300

 40
0.0
140
1.0
 94
        5
 62
     0
340
11
144
4.5
309
CONTENTFORMAT_END
171
     1
301
MARGIN
  1
CELLMARGIN_BEGIN
 40
1.5
 40
1.5
 40
1.5
 40
1.5
 40
0.18
 40
0.18
309
CELLMARGIN_END
 94
        6
 95
        1
302
GRIDFORMAT
  1
GRIDFORMAT_BEGIN
 90
        0
 91
        1
 62
     0
 92
       -2
340
0
 93
        0
 40
0.045
309
GRIDFORMAT_END
 95
        2
302
GRIDFORMAT
  1
GRIDFORMAT_BEGIN
 90
        0
 91
        1
 62
     0
 92
       -2
340
0
 93
        0
 40
0.045
309
GRIDFORMAT_END
 95
        4
302
GRIDFORMAT
  1
GRIDFORMAT_BEGIN
 90
        0
 91
        1
 62
     0
 92
       -2
340
0
 93
        0
 40
0.045
309
GRIDFORMAT_END
 95
        8
302
GRIDFORMAT
  1
GRIDFORMAT_BEGIN
 90
        0
 91
        1
 62
     0
 92
       -2
340
0
 93
        0
 40
0.045
309
GRIDFORMAT_END
 95
       16
302
GRIDFORMAT
  1
GRIDFORMAT_BEGIN
 90
        0
 91
        1
 62
     0
 92
       -2
340
0
 93
        0
 40
0.045
309
GRIDFORMAT_END
 95
       32
302
GRIDFORMAT
  1
GRIDFORMAT_BEGIN
 90
        0
 91
        1
 62
     0
 92
       -2
340
0
 93
        0
 40
0.045
309
GRIDFORMAT_END
309
TABLEFORMAT_END
  1
CELLSTYLE_BEGIN
 90
        2
 91
        1
300
_HEADER
309
CELLSTYLE_END
300
CELLSTYLE
  1
TABLEFORMAT_BEGIN
 90
        5
170
     1
 91
        0
 92
        0
 62
   257
 93
        1
300
CONTENTFORMAT
  1
CONTENTFORMAT_BEGIN
 90
        0
 91
        0
 92
        4
 93
        0
300

 40
0.0
140
1.0
 94
        2
 62
     0
340
11
144
4.5
309
CONTENTFORMAT_END
171
     1
301
MARGIN
  1
CELLMARGIN_BEGIN
 40
1.5
 40
1.5
 40
1.5
 40
1.5
 40
0.18
 40
0.18
309
CELLMARGIN_END
 94
        6
 95
        1
302
GRIDFORMAT
  1
GRIDFORMAT_BEGIN
 90
        0
 91
        1
 62
     0
 92
       -2
340
0
 93
        0
 40
0.045
309
GRIDFORMAT_END
 95
        2
302
GRIDFORMAT
  1
GRIDFORMAT_BEGIN
 90
        0
 91
        1
 62
     0
 92
       -2
340
0
 93
        0
 40
0.045
309
GRIDFORMAT_END
 95
        4
302
GRIDFORMAT
  1
GRIDFORMAT_BEGIN
 90
        0
 91
        1
 62
     0
 92
       -2
340
0
 93
        0
 40
0.045
309
GRIDFORMAT_END
 95
        8
302
GRIDFORMAT
  1
GRIDFORMAT_BEGIN
 90
        0
 91
        1
 62
     0
 92
       -2
340
0
 93
        0
 40
0.045
309
GRIDFORMAT_END
 95
       16
302
GRIDFORMAT
  1
GRIDFORMAT_BEGIN
 90
        0
 91
        1
 62
     0
 92
       -2
340
0
 93
        0
 40
0.045
309
GRIDFORMAT_END
 95
       32
302
GRIDFORMAT
  1
GRIDFORMAT_BEGIN
 90
        0
 91
        1
 62
     0
 92
       -2
340
0
 93
        0
 40
0.045
309
GRIDFORMAT_END
309
TABLEFORMAT_END
  1
CELLSTYLE_BEGIN
 90
        3
 91
        2
300
_DATA
309
CELLSTYLE_END
  0
XRECORD
  5
1B76
102
{ACAD_REACTORS
330
1B6A
102
}
330
1B6A
100
AcDbXrecord
280
     1
102
ACAD_ROUNDTRIP_PRE2007_TABLESTYLE
 90
        4
 91
        0
  1

 92
        4
 93
        0
  2

 94
        4
 95
        0
  3

  0
XRECORD
  5
1B85
102
{ACAD_REACTORS
330
1B84
102
}
330
1B84
100
AcDbXrecord
280
     1
102
RTVSPropertyOp0
 70
     1
102
RTVSPropertyOp1
 70
     1
102
RTVSPropertyOp2
 70
     1
102
RTVSPropertyOp3
 70
     1
102
RTVSPropertyOp4
 70
     1
102
RTVSPropertyOp5
 70
     1
102
RTVSPropertyOp6
 70
     1
102
RTVSPropertyOp7
 70
     1
102
RTVSPropertyOp8
 70
     1
102
RTVSPropertyOp9
 70
     1
102
RTVSPropertyOp10
 70
     1
102
RTVSPropertyOp11
 70
     1
102
RTVSPropertyOp12
 70
     1
102
RTVSPropertyOp13
 70
     1
102
RTVSPropertyOp14
 70
     1
102
RTVSPropertyOp15
 70
     1
102
RTVSPropertyOp16
 70
     1
102
RTVSPropertyOp17
 70
     1
102
RTVSPropertyOp18
 70
     1
102
RTVSPropertyOp19
 70
     1
102
RTVSPropertyOp20
 70
     1
102
RTVSPropertyOp21
 70
     1
102
RTVSPropertyOp22
 70
     1
102
RTVSPropertyOp23
 70
     1
102
RTVSPropertyOp24
 70
     1
102
RTVSPropertyOp25
 70
     1
102
RTVSPropertyOp26
 70
     1
102
RTVSPropertyOp27
 70
     1
  0
XRECORD
  5
1B89
102
{ACAD_REACTORS
330
1B88
102
}
330
1B88
100
AcDbXrecord
280
     1
102
RTVSPropertyOp0
 70
     1
102
RTVSPropertyOp1
 70
     1
102
RTVSPropertyOp2
 70
     1
102
RTVSPropertyOp3
 70
     1
102
RTVSPropertyOp4
 70
     1
102
RTVSPropertyOp5
 70
     1
102
RTVSPropertyOp6
 70
     1
102
RTVSPropertyOp7
 70
     1
102
RTVSPropertyOp8
 70
     1
102
RTVSPropertyOp9
 70
     1
102
RTVSPropertyOp10
 70
     1
102
RTVSPropertyOp11
 70
     1
102
RTVSPropertyOp12
 70
     1
102
RTVSPropertyOp13
 70
     1
102
RTVSPropertyOp14
 70
     1
102
RTVSPropertyOp15
 70
     1
102
RTVSPropertyOp16
 70
     1
102
RTVSPropertyOp17
 70
     1
102
RTVSPropertyOp18
 70
     1
102
RTVSPropertyOp19
 70
     1
102
RTVSPropertyOp20
 70
     1
102
RTVSPropertyOp21
 70
     1
102
RTVSPropertyOp22
 70
     1
102
RTVSPropertyOp23
 70
     1
102
RTVSPropertyOp24
 70
     1
102
RTVSPropertyOp25
 70
     1
102
RTVSPropertyOp26
 70
     1
102
RTVSPropertyOp27
 70
     1
  0
XRECORD
  5
1B87
102
{ACAD_REACTORS
330
1B86
102
}
330
1B86
100
AcDbXrecord
280
     1
102
RTVSPropertyOp0
 70
     1
102
RTVSPropertyOp1
 70
     1
102
RTVSPropertyOp2
 70
     1
102
RTVSPropertyOp3
 70
     1
102
RTVSPropertyOp4
 70
     1
102
RTVSPropertyOp5
 70
     1
102
RTVSPropertyOp6
 70
     1
102
RTVSPropertyOp7
 70
     1
102
RTVSPropertyOp8
 70
     1
102
RTVSPropertyOp9
 70
     1
102
RTVSPropertyOp10
 70
     1
102
RTVSPropertyOp11
 70
     1
102
RTVSPropertyOp12
 70
     1
102
RTVSPropertyOp13
 70
     1
102
RTVSPropertyOp14
 70
     1
102
RTVSPropertyOp15
 70
     1
102
RTVSPropertyOp16
 70
     1
102
RTVSPropertyOp17
 70
     1
102
RTVSPropertyOp18
 70
     1
102
RTVSPropertyOp19
 70
     1
102
RTVSPropertyOp20
 70
     1
102
RTVSPropertyOp21
 70
     1
102
RTVSPropertyOp22
 70
     1
102
RTVSPropertyOp23
 70
     1
102
RTVSPropertyOp24
 70
     1
102
RTVSPropertyOp25
 70
     1
102
RTVSPropertyOp26
 70
     1
102
RTVSPropertyOp27
 70
     1
  0
XRECORD
  5
1B83
102
{ACAD_REACTORS
330
1B82
102
}
330
1B82
100
AcDbXrecord
280
     1
102
RTVSPropertyOp0
 70
     1
102
RTVSPropertyOp1
 70
     1
102
RTVSPropertyOp2
 70
     1
102
RTVSPropertyOp3
 70
     1
102
RTVSPropertyOp4
 70
     1
102
RTVSPropertyOp5
 70
     1
102
RTVSPropertyOp6
 70
     1
102
RTVSPropertyOp7
 70
     1
102
RTVSPropertyOp8
 70
     1
102
RTVSPropertyOp9
 70
     1
102
RTVSPropertyOp10
 70
     1
102
RTVSPropertyOp11
 70
     1
102
RTVSPropertyOp12
 70
     1
102
RTVSPropertyOp13
 70
     1
102
RTVSPropertyOp14
 70
     1
102
RTVSPropertyOp15
 70
     1
102
RTVSPropertyOp16
 70
     1
102
RTVSPropertyOp17
 70
     1
102
RTVSPropertyOp18
 70
     1
102
RTVSPropertyOp19
 70
     1
102
RTVSPropertyOp20
 70
     1
102
RTVSPropertyOp21
 70
     1
102
RTVSPropertyOp22
 70
     1
102
RTVSPropertyOp23
 70
     1
102
RTVSPropertyOp24
 70
     1
102
RTVSPropertyOp25
 70
     1
102
RTVSPropertyOp26
 70
     1
102
RTVSPropertyOp27
 70
     1
  0
XRECORD
  5
1B91
102
{ACAD_REACTORS
330
1B90
102
}
330
1B90
100
AcDbXrecord
280
     1
102
RTVSPropertyOp0
 70
     1
102
RTVSPropertyOp1
 70
     1
102
RTVSPropertyOp2
 70
     1
102
RTVSPropertyOp3
 70
     1
102
RTVSPropertyOp4
 70
     1
102
RTVSPropertyOp5
 70
     1
102
RTVSPropertyOp6
 70
     1
102
RTVSPropertyOp7
 70
     1
102
RTVSPropertyOp8
 70
     1
102
RTVSPropertyOp9
 70
     1
102
RTVSPropertyOp10
 70
     1
102
RTVSPropertyOp11
 70
     1
102
RTVSPropertyOp12
 70
     1
102
RTVSPropertyOp13
 70
     1
102
RTVSPropertyOp14
 70
     1
102
RTVSPropertyOp15
 70
     1
102
RTVSPropertyOp16
 70
     1
102
RTVSPropertyOp17
 70
     1
102
RTVSPropertyOp18
 70
     1
102
RTVSPropertyOp19
 70
     1
102
RTVSPropertyOp20
 70
     1
102
RTVSPropertyOp21
 70
     1
102
RTVSPropertyOp22
 70
     1
102
RTVSPropertyOp23
 70
     1
102
RTVSPropertyOp24
 70
     1
102
RTVSPropertyOp25
 70
     1
102
RTVSPropertyOp26
 70
     1
102
RTVSPropertyOp27
 70
     1
  0
XRECORD
  5
1B99
102
{ACAD_REACTORS
330
1B98
102
}
330
1B98
100
AcDbXrecord
280
     1
102
RTVSPropertyOp0
 70
     1
102
RTVSPropertyOp1
 70
     1
102
RTVSPropertyOp2
 70
     1
102
RTVSPropertyOp3
 70
     1
102
RTVSPropertyOp4
 70
     1
102
RTVSPropertyOp5
 70
     1
102
RTVSPropertyOp6
 70
     1
102
RTVSPropertyOp7
 70
     1
102
RTVSPropertyOp8
 70
     1
102
RTVSPropertyOp9
 70
     1
102
RTVSPropertyOp10
 70
     1
102
RTVSPropertyOp11
 70
     1
102
RTVSPropertyOp12
 70
     1
102
RTVSPropertyOp13
 70
     1
102
RTVSPropertyOp14
 70
     1
102
RTVSPropertyOp15
 70
     1
102
RTVSPropertyOp16
 70
     1
102
RTVSPropertyOp17
 70
     1
102
RTVSPropertyOp18
 70
     1
102
RTVSPropertyOp19
 70
     1
102
RTVSPropertyOp20
 70
     1
102
RTVSPropertyOp21
 70
     1
102
RTVSPropertyOp22
 70
     1
102
RTVSPropertyOp23
 70
     1
102
RTVSPropertyOp24
 70
     1
102
RTVSPropertyOp25
 70
     1
102
RTVSPropertyOp26
 70
     1
102
RTVSPropertyOp27
 70
     1
  0
XRECORD
  5
1B8B
102
{ACAD_REACTORS
330
1B8A
102
}
330
1B8A
100
AcDbXrecord
280
     1
102
RTVSPropertyOp0
 70
     1
102
RTVSPropertyOp1
 70
     1
102
RTVSPropertyOp2
 70
     1
102
RTVSPropertyOp3
 70
     1
102
RTVSPropertyOp4
 70
     1
102
RTVSPropertyOp5
 70
     1
102
RTVSPropertyOp6
 70
     1
102
RTVSPropertyOp7
 70
     1
102
RTVSPropertyOp8
 70
     1
102
RTVSPropertyOp9
 70
     1
102
RTVSPropertyOp10
 70
     1
102
RTVSPropertyOp11
 70
     1
102
RTVSPropertyOp12
 70
     1
102
RTVSPropertyOp13
 70
     1
102
RTVSPropertyOp14
 70
     1
102
RTVSPropertyOp15
 70
     1
102
RTVSPropertyOp16
 70
     1
102
RTVSPropertyOp17
 70
     1
102
RTVSPropertyOp18
 70
     1
102
RTVSPropertyOp19
 70
     1
102
RTVSPropertyOp20
 70
     1
102
RTVSPropertyOp21
 70
     1
102
RTVSPropertyOp22
 70
     1
102
RTVSPropertyOp23
 70
     1
102
RTVSPropertyOp24
 70
     1
102
RTVSPropertyOp25
 70
     1
102
RTVSPropertyOp26
 70
     1
102
RTVSPropertyOp27
 70
     1
  0
XRECORD
  5
1B8F
102
{ACAD_REACTORS
330
1B8E
102
}
330
1B8E
100
AcDbXrecord
280
     1
102
RTVSPropertyOp0
 70
     1
102
RTVSPropertyOp1
 70
     1
102
RTVSPropertyOp2
 70
     1
102
RTVSPropertyOp3
 70
     1
102
RTVSPropertyOp4
 70
     1
102
RTVSPropertyOp5
 70
     1
102
RTVSPropertyOp6
 70
     1
102
RTVSPropertyOp7
 70
     1
102
RTVSPropertyOp8
 70
     1
102
RTVSPropertyOp9
 70
     1
102
RTVSPropertyOp10
 70
     1
102
RTVSPropertyOp11
 70
     1
102
RTVSPropertyOp12
 70
     1
102
RTVSPropertyOp13
 70
     1
102
RTVSPropertyOp14
 70
     1
102
RTVSPropertyOp15
 70
     1
102
RTVSPropertyOp16
 70
     1
102
RTVSPropertyOp17
 70
     1
102
RTVSPropertyOp18
 70
     1
102
RTVSPropertyOp19
 70
     1
102
RTVSPropertyOp20
 70
     1
102
RTVSPropertyOp21
 70
     1
102
RTVSPropertyOp22
 70
     1
102
RTVSPropertyOp23
 70
     1
102
RTVSPropertyOp24
 70
     1
102
RTVSPropertyOp25
 70
     1
102
RTVSPropertyOp26
 70
     1
102
RTVSPropertyOp27
 70
     1
  0
XRECORD
  5
1B9F
102
{ACAD_REACTORS
330
1B9E
102
}
330
1B9E
100
AcDbXrecord
280
     1
102
RTVSPropertyOp0
 70
     0
102
RTVSPropertyOp1
 70
     0
102
RTVSPropertyOp2
 70
     0
102
RTVSPropertyOp3
 70
     0
102
RTVSPropertyOp4
 70
     0
102
RTVSPropertyOp5
 70
     0
102
RTVSPropertyOp6
 70
     0
102
RTVSPropertyOp7
 70
     0
102
RTVSPropertyOp8
 70
     0
102
RTVSPropertyOp9
 70
     0
102
RTVSPropertyOp10
 70
     0
102
RTVSPropertyOp11
 70
     0
102
RTVSPropertyOp12
 70
     0
102
RTVSPropertyOp13
 70
     0
102
RTVSPropertyOp14
 70
     2
102
RTVSPropertyOp15
 70
     0
102
RTVSPropertyOp16
 70
     0
102
RTVSPropertyOp17
 70
     0
102
RTVSPropertyOp18
 70
     0
102
RTVSPropertyOp19
 70
     0
102
RTVSPropertyOp20
 70
     0
102
RTVSPropertyOp21
 70
     0
102
RTVSPropertyOp22
 70
     0
102
RTVSPropertyOp23
 70
     0
102
RTVSPropertyOp24
 70
     0
102
RTVSPropertyOp25
 70
     0
102
RTVSPropertyOp26
 70
     0
102
RTVSPropertyOp27
 70
     0
  0
XRECORD
  5
1B97
102
{ACAD_REACTORS
330
1B96
102
}
330
1B96
100
AcDbXrecord
280
     1
102
RTVSPropertyOp0
 70
     1
102
RTVSPropertyOp1
 70
     1
102
RTVSPropertyOp2
 70
     1
102
RTVSPropertyOp3
 70
     1
102
RTVSPropertyOp4
 70
     1
102
RTVSPropertyOp5
 70
     1
102
RTVSPropertyOp6
 70
     1
102
RTVSPropertyOp7
 70
     1
102
RTVSPropertyOp8
 70
     1
102
RTVSPropertyOp9
 70
     1
102
RTVSPropertyOp10
 70
     1
102
RTVSPropertyOp11
 70
     1
102
RTVSPropertyOp12
 70
     1
102
RTVSPropertyOp13
 70
     1
102
RTVSPropertyOp14
 70
     1
102
RTVSPropertyOp15
 70
     1
102
RTVSPropertyOp16
 70
     1
102
RTVSPropertyOp17
 70
     1
102
RTVSPropertyOp18
 70
     1
102
RTVSPropertyOp19
 70
     1
102
RTVSPropertyOp20
 70
     1
102
RTVSPropertyOp21
 70
     1
102
RTVSPropertyOp22
 70
     1
102
RTVSPropertyOp23
 70
     1
102
RTVSPropertyOp24
 70
     1
102
RTVSPropertyOp25
 70
     1
102
RTVSPropertyOp26
 70
     1
102
RTVSPropertyOp27
 70
     1
  0
XRECORD
  5
1B7B
102
{ACAD_REACTORS
330
1B7A
102
}
330
1B7A
100
AcDbXrecord
280
     1
102
RTVSPropertyOp0
 70
     1
102
RTVSPropertyOp1
 70
     1
102
RTVSPropertyOp2
 70
     1
102
RTVSPropertyOp3
 70
     1
102
RTVSPropertyOp4
 70
     1
102
RTVSPropertyOp5
 70
     1
102
RTVSPropertyOp6
 70
     1
102
RTVSPropertyOp7
 70
     1
102
RTVSPropertyOp8
 70
     1
102
RTVSPropertyOp9
 70
     1
102
RTVSPropertyOp10
 70
     1
102
RTVSPropertyOp11
 70
     1
102
RTVSPropertyOp12
 70
     1
102
RTVSPropertyOp13
 70
     1
102
RTVSPropertyOp14
 70
     1
102
RTVSPropertyOp15
 70
     1
102
RTVSPropertyOp16
 70
     1
102
RTVSPropertyOp17
 70
     1
102
RTVSPropertyOp18
 70
     1
102
RTVSPropertyOp19
 70
     1
102
RTVSPropertyOp20
 70
     1
102
RTVSPropertyOp21
 70
     1
102
RTVSPropertyOp22
 70
     1
102
RTVSPropertyOp23
 70
     1
102
RTVSPropertyOp24
 70
     1
102
RTVSPropertyOp25
 70
     1
102
RTVSPropertyOp26
 70
     1
102
RTVSPropertyOp27
 70
     1
  0
XRECORD
  5
1B7D
102
{ACAD_REACTORS
330
1B7C
102
}
330
1B7C
100
AcDbXrecord
280
     1
102
RTVSPropertyOp0
 70
     1
102
RTVSPropertyOp1
 70
     1
102
RTVSPropertyOp2
 70
     1
102
RTVSPropertyOp3
 70
     1
102
RTVSPropertyOp4
 70
     1
102
RTVSPropertyOp5
 70
     1
102
RTVSPropertyOp6
 70
     1
102
RTVSPropertyOp7
 70
     1
102
RTVSPropertyOp8
 70
     1
102
RTVSPropertyOp9
 70
     1
102
RTVSPropertyOp10
 70
     1
102
RTVSPropertyOp11
 70
     1
102
RTVSPropertyOp12
 70
     1
102
RTVSPropertyOp13
 70
     1
102
RTVSPropertyOp14
 70
     1
102
RTVSPropertyOp15
 70
     1
102
RTVSPropertyOp16
 70
     1
102
RTVSPropertyOp17
 70
     1
102
RTVSPropertyOp18
 70
     1
102
RTVSPropertyOp19
 70
     1
102
RTVSPropertyOp20
 70
     1
102
RTVSPropertyOp21
 70
     1
102
RTVSPropertyOp22
 70
     1
102
RTVSPropertyOp23
 70
     1
102
RTVSPropertyOp24
 70
     1
102
RTVSPropertyOp25
 70
     1
102
RTVSPropertyOp26
 70
     1
102
RTVSPropertyOp27
 70
     1
  0
XRECORD
  5
1B7F
102
{ACAD_REACTORS
330
1B7E
102
}
330
1B7E
100
AcDbXrecord
280
     1
102
RTVSPropertyOp0
 70
     1
102
RTVSPropertyOp1
 70
     1
102
RTVSPropertyOp2
 70
     1
102
RTVSPropertyOp3
 70
     1
102
RTVSPropertyOp4
 70
     1
102
RTVSPropertyOp5
 70
     1
102
RTVSPropertyOp6
 70
     1
102
RTVSPropertyOp7
 70
     1
102
RTVSPropertyOp8
 70
     1
102
RTVSPropertyOp9
 70
     1
102
RTVSPropertyOp10
 70
     1
102
RTVSPropertyOp11
 70
     1
102
RTVSPropertyOp12
 70
     1
102
RTVSPropertyOp13
 70
     1
102
RTVSPropertyOp14
 70
     1
102
RTVSPropertyOp15
 70
     1
102
RTVSPropertyOp16
 70
     1
102
RTVSPropertyOp17
 70
     1
102
RTVSPropertyOp18
 70
     1
102
RTVSPropertyOp19
 70
     1
102
RTVSPropertyOp20
 70
     1
102
RTVSPropertyOp21
 70
     1
102
RTVSPropertyOp22
 70
     1
102
RTVSPropertyOp23
 70
     1
102
RTVSPropertyOp24
 70
     1
102
RTVSPropertyOp25
 70
     1
102
RTVSPropertyOp26
 70
     1
102
RTVSPropertyOp27
 70
     1
  0
XRECORD
  5
1B81
102
{ACAD_REACTORS
330
1B80
102
}
330
1B80
100
AcDbXrecord
280
     1
102
RTVSPropertyOp0
 70
     1
102
RTVSPropertyOp1
 70
     1
102
RTVSPropertyOp2
 70
     1
102
RTVSPropertyOp3
 70
     1
102
RTVSPropertyOp4
 70
     1
102
RTVSPropertyOp5
 70
     1
102
RTVSPropertyOp6
 70
     1
102
RTVSPropertyOp7
 70
     1
102
RTVSPropertyOp8
 70
     1
102
RTVSPropertyOp9
 70
     1
102
RTVSPropertyOp10
 70
     1
102
RTVSPropertyOp11
 70
     1
102
RTVSPropertyOp12
 70
     1
102
RTVSPropertyOp13
 70
     1
102
RTVSPropertyOp14
 70
     1
102
RTVSPropertyOp15
 70
     1
102
RTVSPropertyOp16
 70
     1
102
RTVSPropertyOp17
 70
     1
102
RTVSPropertyOp18
 70
     1
102
RTVSPropertyOp19
 70
     1
102
RTVSPropertyOp20
 70
     1
102
RTVSPropertyOp21
 70
     1
102
RTVSPropertyOp22
 70
     1
102
RTVSPropertyOp23
 70
     1
102
RTVSPropertyOp24
 70
     1
102
RTVSPropertyOp25
 70
     1
102
RTVSPropertyOp26
 70
     1
102
RTVSPropertyOp27
 70
     1
  0
XRECORD
  5
1B9B
102
{ACAD_REACTORS
330
1B9A
102
}
330
1B9A
100
AcDbXrecord
280
     1
102
RTVSPropertyOp0
 70
     0
102
RTVSPropertyOp1
 70
     0
102
RTVSPropertyOp2
 70
     0
102
RTVSPropertyOp3
 70
     0
102
RTVSPropertyOp4
 70
     0
102
RTVSPropertyOp5
 70
     0
102
RTVSPropertyOp6
 70
     0
102
RTVSPropertyOp7
 70
     0
102
RTVSPropertyOp8
 70
     0
102
RTVSPropertyOp9
 70
     0
102
RTVSPropertyOp10
 70
     0
102
RTVSPropertyOp11
 70
     0
102
RTVSPropertyOp12
 70
     0
102
RTVSPropertyOp13
 70
     0
102
RTVSPropertyOp14
 70
     2
102
RTVSPropertyOp15
 70
     0
102
RTVSPropertyOp16
 70
     0
102
RTVSPropertyOp17
 70
     0
102
RTVSPropertyOp18
 70
     0
102
RTVSPropertyOp19
 70
     0
102
RTVSPropertyOp20
 70
     0
102
RTVSPropertyOp21
 70
     0
102
RTVSPropertyOp22
 70
     0
102
RTVSPropertyOp23
 70
     0
102
RTVSPropertyOp24
 70
     0
102
RTVSPropertyOp25
 70
     0
102
RTVSPropertyOp26
 70
     0
102
RTVSPropertyOp27
 70
     0
  0
XRECORD
  5
1B95
102
{ACAD_REACTORS
330
1B94
102
}
330
1B94
100
AcDbXrecord
280
     1
102
RTVSPropertyOp0
 70
     1
102
RTVSPropertyOp1
 70
     1
102
RTVSPropertyOp2
 70
     1
102
RTVSPropertyOp3
 70
     1
102
RTVSPropertyOp4
 70
     1
102
RTVSPropertyOp5
 70
     1
102
RTVSPropertyOp6
 70
     1
102
RTVSPropertyOp7
 70
     1
102
RTVSPropertyOp8
 70
     1
102
RTVSPropertyOp9
 70
     1
102
RTVSPropertyOp10
 70
     1
102
RTVSPropertyOp11
 70
     1
102
RTVSPropertyOp12
 70
     1
102
RTVSPropertyOp13
 70
     1
102
RTVSPropertyOp14
 70
     1
102
RTVSPropertyOp15
 70
     1
102
RTVSPropertyOp16
 70
     1
102
RTVSPropertyOp17
 70
     1
102
RTVSPropertyOp18
 70
     1
102
RTVSPropertyOp19
 70
     1
102
RTVSPropertyOp20
 70
     1
102
RTVSPropertyOp21
 70
     1
102
RTVSPropertyOp22
 70
     1
102
RTVSPropertyOp23
 70
     1
102
RTVSPropertyOp24
 70
     1
102
RTVSPropertyOp25
 70
     1
102
RTVSPropertyOp26
 70
     1
102
RTVSPropertyOp27
 70
     1
  0
XRECORD
  5
1B9D
102
{ACAD_REACTORS
330
1B9C
102
}
330
1B9C
100
AcDbXrecord
280
     1
102
RTVSPropertyOp0
 70
     0
102
RTVSPropertyOp1
 70
     0
102
RTVSPropertyOp2
 70
     0
102
RTVSPropertyOp3
 70
     0
102
RTVSPropertyOp4
 70
     0
102
RTVSPropertyOp5
 70
     0
102
RTVSPropertyOp6
 70
     0
102
RTVSPropertyOp7
 70
     0
102
RTVSPropertyOp8
 70
     0
102
RTVSPropertyOp9
 70
     0
102
RTVSPropertyOp10
 70
     0
102
RTVSPropertyOp11
 70
     0
102
RTVSPropertyOp12
 70
     0
102
RTVSPropertyOp13
 70
     0
102
RTVSPropertyOp14
 70
     2
102
RTVSPropertyOp15
 70
     0
102
RTVSPropertyOp16
 70
     0
102
RTVSPropertyOp17
 70
     0
102
RTVSPropertyOp18
 70
     0
102
RTVSPropertyOp19
 70
     0
102
RTVSPropertyOp20
 70
     0
102
RTVSPropertyOp21
 70
     0
102
RTVSPropertyOp22
 70
     0
102
RTVSPropertyOp23
 70
     0
102
RTVSPropertyOp24
 70
     0
102
RTVSPropertyOp25
 70
     0
102
RTVSPropertyOp26
 70
     0
102
RTVSPropertyOp27
 70
     0
  0
XRECORD
  5
1B8D
102
{ACAD_REACTORS
330
1B8C
102
}
330
1B8C
100
AcDbXrecord
280
     1
102
RTVSPropertyOp0
 70
     1
102
RTVSPropertyOp1
 70
     1
102
RTVSPropertyOp2
 70
     1
102
RTVSPropertyOp3
 70
     1
102
RTVSPropertyOp4
 70
     1
102
RTVSPropertyOp5
 70
     1
102
RTVSPropertyOp6
 70
     1
102
RTVSPropertyOp7
 70
     1
102
RTVSPropertyOp8
 70
     1
102
RTVSPropertyOp9
 70
     1
102
RTVSPropertyOp10
 70
     1
102
RTVSPropertyOp11
 70
     1
102
RTVSPropertyOp12
 70
     1
102
RTVSPropertyOp13
 70
     1
102
RTVSPropertyOp14
 70
     1
102
RTVSPropertyOp15
 70
     1
102
RTVSPropertyOp16
 70
     1
102
RTVSPropertyOp17
 70
     1
102
RTVSPropertyOp18
 70
     1
102
RTVSPropertyOp19
 70
     1
102
RTVSPropertyOp20
 70
     1
102
RTVSPropertyOp21
 70
     1
102
RTVSPropertyOp22
 70
     1
102
RTVSPropertyOp23
 70
     1
102
RTVSPropertyOp24
 70
     1
102
RTVSPropertyOp25
 70
     1
102
RTVSPropertyOp26
 70
     1
102
RTVSPropertyOp27
 70
     1
  0
XRECORD
  5
1B93
102
{ACAD_REACTORS
330
1B92
102
}
330
1B92
100
AcDbXrecord
280
     1
102
RTVSPropertyOp0
 70
     1
102
RTVSPropertyOp1
 70
     1
102
RTVSPropertyOp2
 70
     1
102
RTVSPropertyOp3
 70
     1
102
RTVSPropertyOp4
 70
     1
102
RTVSPropertyOp5
 70
     1
102
RTVSPropertyOp6
 70
     1
102
RTVSPropertyOp7
 70
     1
102
RTVSPropertyOp8
 70
     1
102
RTVSPropertyOp9
 70
     1
102
RTVSPropertyOp10
 70
     1
102
RTVSPropertyOp11
 70
     1
102
RTVSPropertyOp12
 70
     1
102
RTVSPropertyOp13
 70
     1
102
RTVSPropertyOp14
 70
     1
102
RTVSPropertyOp15
 70
     1
102
RTVSPropertyOp16
 70
     1
102
RTVSPropertyOp17
 70
     1
102
RTVSPropertyOp18
 70
     1
102
RTVSPropertyOp19
 70
     1
102
RTVSPropertyOp20
 70
     1
102
RTVSPropertyOp21
 70
     1
102
RTVSPropertyOp22
 70
     1
102
RTVSPropertyOp23
 70
     1
102
RTVSPropertyOp24
 70
     1
102
RTVSPropertyOp25
 70
     1
102
RTVSPropertyOp26
 70
     1
102
RTVSPropertyOp27
 70
     1
  0
ENDSEC
  0
EOF
