  0
SECTION
  2
HEADER
  9
$ACADVER
  1
AC1015
  9
$ACADMAINTVER
 70
    20
  9
$DWGCODEPAGE
  3
ANSI_1252
  9
$INSBASE
 10
0.0
 20
0.0
 30
0.0
  9
$EXTMIN
 10
4581.959782116608
 20
2461.049165945078
 30
0.0
  9
$EXTMAX
 10
4584.085375059114
 20
2461.549894721188
 30
0.0
  9
$LIMMIN
 10
0.0
 20
0.0
  9
$LIMMAX
 10
420.0
 20
297.0
  9
$ORTHOMODE
 70
     1
  9
$REGENMODE
 70
     1
  9
$FILLMODE
 70
     1
  9
$QTEXTMODE
 70
     0
  9
$MIRRTEXT
 70
     1
  9
$LTSCALE
 40
1.0
  9
$ATTMODE
 70
     1
  9
$TEXTSIZE
 40
2.5
  9
$TRACEWID
 40
1.0
  9
$TEXTSTYLE
  7
SANINDUSA
  9
$CLAYER
  8
0
  9
$CELTYPE
  6
ByLayer
  9
$CECOLOR
 62
   256
  9
$CELTSCALE
 40
1.0
  9
$DISPSILH
 70
     0
  9
$DIMSCALE
 40
1.0
  9
$DIMASZ
 40
2.0
  9
$DIMEXO
 40
1.0
  9
$DIMDLI
 40
1.0
  9
$DIMRND
 40
0.0
  9
$DIMDLE
 40
0.0
  9
$DIMEXE
 40
1.0
  9
$DIMTP
 40
0.0
  9
$DIMTM
 40
0.0
  9
$DIMTXT
 40
2.0
  9
$DIMCEN
 40
0.0
  9
$DIMTSZ
 40
0.0
  9
$DIMTOL
 70
     0
  9
$DIMLIM
 70
     0
  9
$DIMTIH
 70
     0
  9
$DIMTOH
 70
     0
  9
$DIMSE1
 70
     0
  9
$DIMSE2
 70
     0
  9
$DIMTAD
 70
     1
  9
$DIMZIN
 70
     8
  9
$DIMBLK
  1

  9
$DIMASO
 70
     1
  9
$DIMSHO
 70
     1
  9
$DIMPOST
  1

  9
$DIMAPOST
  1

  9
$DIMALT
 70
     0
  9
$DIMALTD
 70
     3
  9
$DIMALTF
 40
0.03937007874016
  9
$DIMLFAC
 40
1.0
  9
$DIMTOFL
 70
     1
  9
$DIMTVP
 40
0.0
  9
$DIMTIX
 70
     0
  9
$DIMSOXD
 70
     0
  9
$DIMSAH
 70
     0
  9
$DIMBLK1
  1

  9
$DIMBLK2
  1

  9
$DIMSTYLE
  2
SANINDUSA
  9
$DIMCLRD
 70
   256
  9
$DIMCLRE
 70
   256
  9
$DIMCLRT
 70
   256
  9
$DIMTFAC
 40
1.0
  9
$DIMGAP
 40
1.0
  9
$DIMJUST
 70
     0
  9
$DIMSD1
 70
     0
  9
$DIMSD2
 70
     0
  9
$DIMTOLJ
 70
     0
  9
$DIMTZIN
 70
     8
  9
$DIMALTZ
 70
     0
  9
$DIMALTTZ
 70
     0
  9
$DIMUPT
 70
     0
  9
$DIMDEC
 70
     1
  9
$DIMTDEC
 70
     1
  9
$DIMALTU
 70
     2
  9
$DIMALTTD
 70
     3
  9
$DIMTXSTY
  7
SANINDUSA
  9
$DIMAUNIT
 70
     0
  9
$DIMADEC
 70
     1
  9
$DIMALTRND
 40
0.0
  9
$DIMAZIN
 70
     0
  9
$DIMDSEP
 70
    44
  9
$DIMATFIT
 70
     3
  9
$DIMFRAC
 70
     0
  9
$DIMLDRBLK
  1

  9
$DIMLUNIT
 70
     2
  9
$DIMLWD
 70
    -1
  9
$DIMLWE
 70
    -1
  9
$DIMTMOVE
 70
     0
  9
$LUNITS
 70
     2
  9
$LUPREC
 70
     4
  9
$SKETCHINC
 40
1.0
  9
$FILLETRAD
 40
0.0
  9
$AUNITS
 70
     0
  9
$AUPREC
 70
     0
  9
$MENU
  1
.
  9
$ELEVATION
 40
0.0
  9
$PELEVATION
 40
0.0
  9
$THICKNESS
 40
0.0
  9
$LIMCHECK
 70
     0
  9
$CHAMFERA
 40
10.0
  9
$CHAMFERB
 40
10.0
  9
$CHAMFERC
 40
20.0
  9
$CHAMFERD
 40
0.0
  9
$SKPOLY
 70
     0
  9
$TDCREATE
 40
2455779.467381725
  9
$TDUCREATE
 40
2455779.425715058
  9
$TDUPDATE
 40
2456111.488753252
  9
$TDUUPDATE
 40
2456111.447086586
  9
$TDINDWG
 40
0.0041118750
  9
$TDUSRTIMER
 40
0.0041118750
  9
$USRTIMER
 70
     1
  9
$ANGBASE
 50
0.0
  9
$ANGDIR
 70
     0
  9
$PDMODE
 70
     0
  9
$PDSIZE
 40
0.0
  9
$PLINEWID
 40
0.0
  9
$SPLFRAME
 70
     0
  9
$SPLINETYPE
 70
     6
  9
$SPLINESEGS
 70
     8
  9
$HANDSEED
  5
18B2
  9
$SURFTAB1
 70
     6
  9
$SURFTAB2
 70
     6
  9
$SURFTYPE
 70
     6
  9
$SURFU
 70
     6
  9
$SURFV
 70
     6
  9
$UCSBASE
  2

  9
$UCSNAME
  2

  9
$UCSORG
 10
0.0
 20
0.0
 30
0.0
  9
$UCSXDIR
 10
1.0
 20
0.0
 30
0.0
  9
$UCSYDIR
 10
0.0
 20
1.0
 30
0.0
  9
$UCSORTHOREF
  2

  9
$UCSORTHOVIEW
 70
     0
  9
$UCSORGTOP
 10
0.0
 20
0.0
 30
0.0
  9
$UCSORGBOTTOM
 10
0.0
 20
0.0
 30
0.0
  9
$UCSORGLEFT
 10
0.0
 20
0.0
 30
0.0
  9
$UCSORGRIGHT
 10
0.0
 20
0.0
 30
0.0
  9
$UCSORGFRONT
 10
0.0
 20
0.0
 30
0.0
  9
$UCSORGBACK
 10
0.0
 20
0.0
 30
0.0
  9
$PUCSBASE
  2

  9
$PUCSNAME
  2

  9
$PUCSORG
 10
0.0
 20
0.0
 30
0.0
  9
$PUCSXDIR
 10
1.0
 20
0.0
 30
0.0
  9
$PUCSYDIR
 10
0.0
 20
1.0
 30
0.0
  9
$PUCSORTHOREF
  2

  9
$PUCSORTHOVIEW
 70
     0
  9
$PUCSORGTOP
 10
0.0
 20
0.0
 30
0.0
  9
$PUCSORGBOTTOM
 10
0.0
 20
0.0
 30
0.0
  9
$PUCSORGLEFT
 10
0.0
 20
0.0
 30
0.0
  9
$PUCSORGRIGHT
 10
0.0
 20
0.0
 30
0.0
  9
$PUCSORGFRONT
 10
0.0
 20
0.0
 30
0.0
  9
$PUCSORGBACK
 10
0.0
 20
0.0
 30
0.0
  9
$USERI1
 70
     0
  9
$USERI2
 70
     0
  9
$USERI3
 70
     0
  9
$USERI4
 70
     0
  9
$USERI5
 70
     0
  9
$USERR1
 40
0.0
  9
$USERR2
 40
0.0
  9
$USERR3
 40
0.0
  9
$USERR4
 40
0.0
  9
$USERR5
 40
0.0
  9
$WORLDVIEW
 70
     1
  9
$SHADEDGE
 70
     3
  9
$SHADEDIF
 70
    70
  9
$TILEMODE
 70
     1
  9
$MAXACTVP
 70
    64
  9
$PINSBASE
 10
0.0
 20
0.0
 30
0.0
  9
$PLIMCHECK
 70
     0
  9
$PEXTMIN
 10
1.000000000000000E+20
 20
1.000000000000000E+20
 30
1.000000000000000E+20
  9
$PEXTMAX
 10
-1.000000000000000E+20
 20
-1.000000000000000E+20
 30
-1.000000000000000E+20
  9
$PLIMMIN
 10
0.0
 20
0.0
  9
$PLIMMAX
 10
420.0
 20
297.0
  9
$UNITMODE
 70
     0
  9
$VISRETAIN
 70
     1
  9
$PLINEGEN
 70
     0
  9
$PSLTSCALE
 70
     1
  9
$TREEDEPTH
 70
  3020
  9
$CMLSTYLE
  2
Standard
  9
$CMLJUST
 70
     0
  9
$CMLSCALE
 40
20.0
  9
$PROXYGRAPHICS
 70
     1
  9
$MEASUREMENT
 70
     1
  9
$CELWEIGHT
370
    -1
  9
$ENDCAPS
280
     0
  9
$JOINSTYLE
280
     0
  9
$LWDISPLAY
290
     0
  9
$INSUNITS
 70
     4
  9
$HYPERLINKBASE
  1

  9
$STYLESHEET
  1
sanindusa.ctb
  9
$XEDIT
290
     1
  9
$CEPSNTYPE
380
     0
  9
$PSTYLEMODE
290
     1
  9
$FINGERPRINTGUID
  2
{B4AD07B4-2CF8-4276-9FDA-11A3E6F1FB9C}
  9
$VERSIONGUID
  2
{E5559533-0C7B-4794-A8CF-8B2BBA5853DF}
  9
$EXTNAMES
290
     1
  9
$PSVPSCALE
 40
0.0
  9
$OLESTARTUP
290
     0
  0
ENDSEC
  0
SECTION
  2
CLASSES
  0
CLASS
  1
ACDBDICTIONARYWDFLT
  2
AcDbDictionaryWithDefault
  3
ObjectDBX Classes
 90
        0
280
     0
281
     0
  0
CLASS
  1
ACDBPLACEHOLDER
  2
AcDbPlaceHolder
  3
ObjectDBX Classes
 90
        0
280
     0
281
     0
  0
CLASS
  1
LAYOUT
  2
AcDbLayout
  3
ObjectDBX Classes
 90
        0
280
     0
281
     0
  0
CLASS
  1
DICTIONARYVAR
  2
AcDbDictionaryVar
  3
ObjectDBX Classes
 90
        0
280
     0
281
     0
  0
CLASS
  1
DIMASSOC
  2
AcDbDimAssoc
  3
"AcDbDimAssoc|Product Desc:     AcDim ARX App For Dimension|Company:          Autodesk, Inc.|WEB Address:      www.autodesk.com"
 90
    32768
280
     0
281
     0
  0
CLASS
  1
TABLESTYLE
  2
AcDbTableStyle
  3
ObjectDBX Classes
 90
     4095
280
     0
281
     0
  0
CLASS
  1
MATERIAL
  2
AcDbMaterial
  3
ObjectDBX Classes
 90
     1153
280
     0
281
     0
  0
CLASS
  1
VISUALSTYLE
  2
AcDbVisualStyle
  3
ObjectDBX Classes
 90
     4095
280
     0
281
     0
  0
CLASS
  1
SCALE
  2
AcDbScale
  3
ObjectDBX Classes
 90
     1153
280
     0
281
     0
  0
CLASS
  1
MLEADERSTYLE
  2
AcDbMLeaderStyle
  3
ACDB_MLEADERSTYLE_CLASS
 90
     4095
280
     0
281
     0
  0
CLASS
  1
SORTENTSTABLE
  2
AcDbSortentsTable
  3
ObjectDBX Classes
 90
    32768
280
     0
281
     0
  0
CLASS
  1
AEC_REFEDIT_STATUS_TRACKER
  2
AecDbRefEditStatusTracker
  3
AecArchBase60|Product Desc: Autodesk Architectural Desktop 2007 |Company: Autodesk,Inc. |WEB Address: www.autodesk.com
 90
    32897
280
     0
281
     0
  0
CLASS
  1
NPOCOLLECTION
  2
AcDbImpNonPersistentObjectsCollection
  3
ObjectDBX Classes
 90
    33921
280
     0
281
     0
  0
CLASS
  1
CELLSTYLEMAP
  2
AcDbCellStyleMap
  3
ObjectDBX Classes
 90
     1152
280
     0
281
     0
  0
CLASS
  1
SOLID_BACKGROUND
  2
AcDbSolidBackground
  3
SCENEOE
 90
    36863
280
     0
281
     0
  0
ENDSEC
  0
SECTION
  2
TABLES
  0
TABLE
  2
VPORT
  5
8
102
{ACAD_XDICTIONARY
360
1824
102
}
330
0
100
AcDbSymbolTable
 70
     1
  0
VPORT
  5
1068
330
8
100
AcDbSymbolTableRecord
100
AcDbViewportTableRecord
  2
*Active
 70
     0
 10
0.0
 20
0.0
 11
1.0
 21
1.0
 12
4583.022478148649
 22
2461.299530333133
 13
0.0
 23
0.0
 14
10.0
 24
10.0
 15
10.0
 25
10.0
 16
0.0
 26
0.0
 36
1.0
 17
0.0
 27
0.0
 37
0.0
 40
1.296573460264337
 41
1.645464025026068
 42
50.0
 43
0.0
 44
0.0
 50
0.0
 51
0.0
 71
     0
 72
   100
 73
     1
 74
     2
 75
     0
 76
     0
 77
     0
 78
     0
281
     0
 65
     1
110
0.0
120
0.0
130
0.0
111
1.0
121
0.0
131
0.0
112
0.0
122
1.0
132
0.0
 79
     0
146
0.0
  0
ENDTAB
  0
TABLE
  2
LTYPE
  5
5
330
0
100
AcDbSymbolTable
 70
     5
  0
LTYPE
  5
14
330
5
100
AcDbSymbolTableRecord
100
AcDbLinetypeTableRecord
  2
ByBlock
 70
     0
  3

 72
    65
 73
     0
 40
0.0
  0
LTYPE
  5
15
330
5
100
AcDbSymbolTableRecord
100
AcDbLinetypeTableRecord
  2
ByLayer
 70
     0
  3

 72
    65
 73
     0
 40
0.0
  0
LTYPE
  5
16
330
5
100
AcDbSymbolTableRecord
100
AcDbLinetypeTableRecord
  2
Continuous
 70
     0
  3
Solid line
 72
    65
 73
     0
 40
0.0
  0
LTYPE
  5
2D
330
5
100
AcDbSymbolTableRecord
100
AcDbLinetypeTableRecord
  2
DASHDOT
 70
     0
  3
Dash dot __ . __ . __ . __ . __ . __ . __ . __
 72
    65
 73
     4
 40
25.4
 49
12.7
 74
     0
 49
-6.349999999999999
 74
     0
 49
0.0
 74
     0
 49
-6.349999999999999
 74
     0
  0
LTYPE
  5
2E
330
5
100
AcDbSymbolTableRecord
100
AcDbLinetypeTableRecord
  2
HIDDEN
 70
     0
  3
Hidden __ __ __ __ __ __ __ __ __ __ __ __ __ _
 72
    65
 73
     2
 40
9.524999999999998
 49
6.349999999999999
 74
     0
 49
-3.174999999999999
 74
     0
  0
LTYPE
  5
C75
330
5
100
AcDbSymbolTableRecord
100
AcDbLinetypeTableRecord
  2
AM_ISO02W050
 70
     0
  3
__ __ __ __ __ __ __ __ __ __ __ __ __ __ __
 72
    65
 73
     2
 40
7.5
 49
6.0
 74
     0
 49
-1.5
 74
     0
  0
LTYPE
  5
C76
330
5
100
AcDbSymbolTableRecord
100
AcDbLinetypeTableRecord
  2
AM_ISO08W050
 70
     0
  3
____ . ____ . ____ . ____ . ____ . ____ . ____
 72
    65
 73
     4
 40
18.0
 49
12.0
 74
     0
 49
-1.5
 74
     0
 49
3.0
 74
     0
 49
-1.5
 74
     0
  0
ENDTAB
  0
TABLE
  2
LAYER
  5
2
102
{ACAD_XDICTIONARY
360
1051
102
}
330
0
100
AcDbSymbolTable
 70
    17
  0
LAYER
  5
10
102
{ACAD_XDICTIONARY
360
17B6
102
}
330
2
100
AcDbSymbolTableRecord
100
AcDbLayerTableRecord
  2
0
 70
     0
 62
     7
  6
Continuous
370
    -3
390
F
  0
LAYER
  5
2F
102
{ACAD_XDICTIONARY
360
17B8
102
}
330
2
100
AcDbSymbolTableRecord
100
AcDbLayerTableRecord
  2
1
 70
     0
 62
     1
  6
Continuous
370
    -3
390
F
  0
LAYER
  5
30
102
{ACAD_XDICTIONARY
360
17BA
102
}
330
2
100
AcDbSymbolTableRecord
100
AcDbLayerTableRecord
  2
2
 70
     0
 62
     2
  6
Continuous
370
    -3
390
F
  0
LAYER
  5
31
102
{ACAD_XDICTIONARY
360
17BC
102
}
330
2
100
AcDbSymbolTableRecord
100
AcDbLayerTableRecord
  2
3
 70
     0
 62
     3
  6
Continuous
370
    -3
390
F
  0
LAYER
  5
32
102
{ACAD_XDICTIONARY
360
17BE
102
}
330
2
100
AcDbSymbolTableRecord
100
AcDbLayerTableRecord
  2
4
 70
     0
 62
     4
  6
Continuous
370
    -3
390
F
  0
LAYER
  5
33
102
{ACAD_XDICTIONARY
360
17C0
102
}
330
2
100
AcDbSymbolTableRecord
100
AcDbLayerTableRecord
  2
5
 70
     0
 62
     5
  6
Continuous
370
    -3
390
F
  0
LAYER
  5
34
102
{ACAD_XDICTIONARY
360
17C2
102
}
330
2
100
AcDbSymbolTableRecord
100
AcDbLayerTableRecord
  2
6
 70
     0
 62
     6
  6
Continuous
370
    -3
390
F
  0
LAYER
  5
35
102
{ACAD_XDICTIONARY
360
17C4
102
}
330
2
100
AcDbSymbolTableRecord
100
AcDbLayerTableRecord
  2
7
 70
     0
 62
     7
  6
Continuous
370
    -3
390
F
  0
LAYER
  5
36
102
{ACAD_XDICTIONARY
360
17C6
102
}
330
2
100
AcDbSymbolTableRecord
100
AcDbLayerTableRecord
  2
cen
 70
     0
 62
     7
  6
DASHDOT
370
    -3
390
F
  0
LAYER
  5
37
102
{ACAD_XDICTIONARY
360
17C8
102
}
330
2
100
AcDbSymbolTableRecord
100
AcDbLayerTableRecord
  2
hid
 70
     0
 62
     7
  6
HIDDEN
370
    -3
390
F
  0
LAYER
  5
5D6
102
{ACAD_XDICTIONARY
360
17CA
102
}
330
2
100
AcDbSymbolTableRecord
100
AcDbLayerTableRecord
  2
hatch
 70
     0
 62
     9
  6
Continuous
370
    -3
390
F
  0
LAYER
  5
8AF
102
{ACAD_XDICTIONARY
360
17CC
102
}
330
2
100
AcDbSymbolTableRecord
100
AcDbLayerTableRecord
  2
9
 70
     0
 62
     9
  6
Continuous
370
    -3
390
F
  0
LAYER
  5
8F8
102
{ACAD_XDICTIONARY
360
17CE
102
}
330
2
100
AcDbSymbolTableRecord
100
AcDbLayerTableRecord
  2
leg fin
 70
     0
 62
     9
  6
Continuous
370
    -3
390
F
  0
LAYER
  5
91D
102
{ACAD_XDICTIONARY
360
17D0
102
}
330
2
100
AcDbSymbolTableRecord
100
AcDbLayerTableRecord
  2
cotas
 70
     0
 62
     1
  6
Continuous
370
    -3
390
F
  0
LAYER
  5
92F
330
2
100
AcDbSymbolTableRecord
100
AcDbLayerTableRecord
  2
Defpoints
 70
     0
 62
     7
  6
Continuous
290
     0
370
    -3
390
F
  0
LAYER
  5
C7B
102
{ACAD_XDICTIONARY
360
17D2
102
}
330
2
100
AcDbSymbolTableRecord
100
AcDbLayerTableRecord
  2
SANINDUSA
 70
     0
 62
     3
  6
Continuous
370
    -3
390
F
  0
LAYER
  5
1060
102
{ACAD_XDICTIONARY
360
17D4
102
}
330
2
100
AcDbSymbolTableRecord
100
AcDbLayerTableRecord
  2
hid1
 70
     0
 62
     9
  6
HIDDEN
370
    -3
390
F
1001
AcAecLayerStandard
1000

1000

  0
ENDTAB
  0
TABLE
  2
STYLE
  5
3
330
0
100
AcDbSymbolTable
 70
     4
  0
STYLE
  5
11
330
3
100
AcDbSymbolTableRecord
100
AcDbTextStyleTableRecord
  2
Standard
 70
     0
 40
0.0
 41
1.0
 50
0.0
 71
     0
 42
2.5
  3
Avgardn.ttf
  4

1001
ACAD
1000
AvantGarde Bk BT
1071
       34
  0
STYLE
  5
2C
330
3
100
AcDbSymbolTableRecord
100
AcDbTextStyleTableRecord
  2

 70
     1
 40
0.0
 41
1.0
 50
0.0
 71
     0
 42
2.5
  3
ltypeshp.shx
  4

  0
STYLE
  5
91F
330
3
100
AcDbSymbolTableRecord
100
AcDbTextStyleTableRecord
  2
SANINDUSA
 70
     0
 40
0.0
 41
1.0
 50
0.0
 71
     0
 42
2.5
  3
verdana.TTF
  4

1001
ACAD
1000
Verdana
1071
       34
  0
STYLE
  5
C7C
330
3
100
AcDbSymbolTableRecord
100
AcDbTextStyleTableRecord
  2
futura
 70
     0
 40
0.0
 41
1.0
 50
0.0
 71
     0
 42
2.5
  3
ZURCHN.TTF
  4

1001
ACAD
1000
Zurich BT
1071
       34
  0
ENDTAB
  0
TABLE
  2
VIEW
  5
6
330
0
100
AcDbSymbolTable
 70
     0
  0
ENDTAB
  0
TABLE
  2
UCS
  5
7
330
0
100
AcDbSymbolTable
 70
     0
  0
ENDTAB
  0
TABLE
  2
APPID
  5
9
330
0
100
AcDbSymbolTable
 70
    15
  0
APPID
  5
12
330
9
100
AcDbSymbolTableRecord
100
AcDbRegAppTableRecord
  2
ACAD
 70
     0
  0
APPID
  5
3A
330
9
100
AcDbSymbolTableRecord
100
AcDbRegAppTableRecord
  2
DCO15
 70
     0
  0
APPID
  5
EEE
330
9
100
AcDbSymbolTableRecord
100
AcDbRegAppTableRecord
  2
ACAD_DSTYLE_DIMTEXT_FILL
 70
     0
  0
APPID
  5
EEF
330
9
100
AcDbSymbolTableRecord
100
AcDbRegAppTableRecord
  2
ACAD_DSTYLE_DIMEXT_LENGTH
 70
     0
  0
APPID
  5
EF0
330
9
100
AcDbSymbolTableRecord
100
AcDbRegAppTableRecord
  2
ACAD_DSTYLE_DIMEXT_ENABLED
 70
     0
  0
APPID
  5
EF1
330
9
100
AcDbSymbolTableRecord
100
AcDbRegAppTableRecord
  2
ACAD_DSTYLE_DIM_LINETYPE
 70
     0
  0
APPID
  5
EF2
330
9
100
AcDbSymbolTableRecord
100
AcDbRegAppTableRecord
  2
ACAD_DSTYLE_DIM_EXT1_LINETYPE
 70
     0
  0
APPID
  5
EF3
330
9
100
AcDbSymbolTableRecord
100
AcDbRegAppTableRecord
  2
ACAD_DSTYLE_DIM_EXT2_LINETYPE
 70
     0
  0
APPID
  5
FAF
330
9
100
AcDbSymbolTableRecord
100
AcDbRegAppTableRecord
  2
ACAD_DSTYLE_DIMJOGGED_JOGANGLE_SYMBOL
 70
     0
  0
APPID
  5
1013
330
9
100
AcDbSymbolTableRecord
100
AcDbRegAppTableRecord
  2
ACAD_DSTYLE_DIMARC_LENGTH_SYMBOL
 70
     0
  0
APPID
  5
1061
330
9
100
AcDbSymbolTableRecord
100
AcDbRegAppTableRecord
  2
AcAecLayerStandard
 70
     0
  0
APPID
  5
124C
330
9
100
AcDbSymbolTableRecord
100
AcDbRegAppTableRecord
  2
ACAD_DSTYLE_DIMJAG
 70
     0
  0
APPID
  5
124D
330
9
100
AcDbSymbolTableRecord
100
AcDbRegAppTableRecord
  2
ACAD_DSTYLE_DIMTALN
 70
     0
  0
APPID
  5
124E
330
9
100
AcDbSymbolTableRecord
100
AcDbRegAppTableRecord
  2
ACAD_DSTYLE_DIMRADIAL_EXTENSION
 70
     0
  0
APPID
  5
1856
330
9
100
AcDbSymbolTableRecord
100
AcDbRegAppTableRecord
  2
ACAD_MLEADERVER
 70
     0
  0
ENDTAB
  0
TABLE
  2
DIMSTYLE
  5
A
330
0
100
AcDbSymbolTable
 70
     3
100
AcDbDimStyleTable
 71
     1
340
921
  0
DIMSTYLE
105
45
330
A
100
AcDbSymbolTableRecord
100
AcDbDimStyleTableRecord
  2
STANDARD
 70
     0
289
     0
340
11
  0
DIMSTYLE
105
921
330
A
100
AcDbSymbolTableRecord
100
AcDbDimStyleTableRecord
  2
SANINDUSA
 70
     0
 41
2.0
 42
1.0
 43
1.0
 44
1.0
 73
     0
 74
     0
 77
     1
 78
     8
140
2.0
141
0.0
143
0.03937007874016
147
1.0
171
     3
172
     1
176
   256
177
   256
178
   256
179
     1
271
     1
272
     1
274
     3
278
    44
283
     0
284
     8
340
91F
371
    -1
372
    -1
1001
ACAD_DSTYLE_DIMJOGGED_JOGANGLE_SYMBOL
1070
   384
1040
1.570796326794896
  0
DIMSTYLE
105
C7D
330
A
100
AcDbSymbolTableRecord
100
AcDbDimStyleTableRecord
  2
AM_ISO
 70
     0
  4
"
 41
2.5
 42
1.0
 43
10.0
 44
1.0
 47
0.1
 48
0.1
 73
     0
 74
     0
 77
     1
 78
     8
 79
     2
140
3.5
141
0.0
143
0.0393701
146
0.71
147
1.5
172
     1
176
   256
177
   256
178
     2
271
     2
272
     3
274
     4
283
     0
284
     8
340
11
371
    -1
372
    -1
  0
ENDTAB
  0
TABLE
  2
BLOCK_RECORD
  5
1
330
0
100
AcDbSymbolTable
 70
    79
  0
BLOCK_RECORD
  5
1F
330
1
100
AcDbSymbolTableRecord
100
AcDbBlockTableRecord
  2
*Model_Space
340
22
  0
BLOCK_RECORD
  5
1B
330
1
100
AcDbSymbolTableRecord
100
AcDbBlockTableRecord
  2
*Paper_Space
340
1E
  0
BLOCK_RECORD
  5
23
330
1
100
AcDbSymbolTableRecord
100
AcDbBlockTableRecord
  2
*Paper_Space0
340
26
  0
BLOCK_RECORD
  5
919
330
1
100
AcDbSymbolTableRecord
100
AcDbBlockTableRecord
  2
_DotSmall
340
0
  0
BLOCK_RECORD
  5
922
330
1
100
AcDbSymbolTableRecord
100
AcDbBlockTableRecord
  2
base para cotas
340
0
310
2800000020000000200000000100080000000000000400000000000000000000000000000000000000000000000080000080000000808000800000008000800080800000C0C0C000C0DCC000F0CAA6000020400000206000002080000020A0000020C0000020E00000400000004020000040400000406000004080000040A0
310
000040C0000040E00000600000006020000060400000606000006080000060A0000060C0000060E00000800000008020000080400000806000008080000080A0000080C0000080E00000A0000000A0200000A0400000A0600000A0800000A0A00000A0C00000A0E00000C0000000C0200000C0400000C0600000C0800000C0
310
A00000C0C00000C0E00000E0000000E0200000E0400000E0600000E0800000E0A00000E0C00000E0E00040000000400020004000400040006000400080004000A0004000C0004000E00040200000402020004020400040206000402080004020A0004020C0004020E000404000004040200040404000404060004040800040
310
40A0004040C0004040E00040600000406020004060400040606000406080004060A0004060C0004060E00040800000408020004080400040806000408080004080A0004080C0004080E00040A0000040A0200040A0400040A0600040A0800040A0A00040A0C00040A0E00040C0000040C0200040C0400040C0600040C08000
310
40C0A00040C0C00040C0E00040E0000040E0200040E0400040E0600040E0800040E0A00040E0C00040E0E00080000000800020008000400080006000800080008000A0008000C0008000E00080200000802020008020400080206000802080008020A0008020C0008020E00080400000804020008040400080406000804080
310
008040A0008040C0008040E00080600000806020008060400080606000806080008060A0008060C0008060E00080800000808020008080400080806000808080008080A0008080C0008080E00080A0000080A0200080A0400080A0600080A0800080A0A00080A0C00080A0E00080C0000080C0200080C0400080C0600080C0
310
800080C0A00080C0C00080C0E00080E0000080E0200080E0400080E0600080E0800080E0A00080E0C00080E0E000C0000000C0002000C0004000C0006000C0008000C000A000C000C000C000E000C0200000C0202000C0204000C0206000C0208000C020A000C020C000C020E000C0400000C0402000C0404000C0406000C0
310
408000C040A000C040C000C040E000C0600000C0602000C0604000C0606000C0608000C060A000C060C000C060E000C0800000C0802000C0804000C0806000C0808000C080A000C080C000C080E000C0A00000C0A02000C0A04000C0A06000C0A08000C0A0A000C0A0C000C0A0E000C0C00000C0C02000C0C04000C0C06000
310
C0C08000C0C0A000F0FBFF00A4A0A000808080000000FF0000FF000000FFFF00FF000000FF00FF00FFFF0000FFFFFF00A4A4A4A4A4A4A4A4A4A4A4A4A4A4A4A4A4A4A4A4A4A4A4A4A4A4A4A4A4A4A4A4A4A4A4A4A4A4A4A4A4A4A4A4A4A4A4A4A4A4A4A4A4A4A4A4A4A4A4A4A4A4A4A4A4A4A4A4A4A4A4A4A4A4A4A4A4A4A4
310
A4A4A4A4A4A4A4A4A4A4A4A4A4A4A4A4A4A4A4A4A4A4A4A4A4A4A4A4A4A4A4A4A4A4A4A4A4A4A4A4A4A4A4A4A4A4A4A4A4A4A4A4A4A4A4A4A4A4A4A4A4A4A4A4A4A4A4A4A4A4A4A4A4A4A4A4A4A4A4A4A4A4A4A4A4A4A4A4A4A4A4A4A4A4A4A4A4A4A4A4A4A4A4A4A4A4A4A4A4A4A4A4A4A4A4A4A4A4A4A4A4A4A4A4A4A4A4
310
A4A4A4A4A4A4A4A4A4A4A4A4A4A4A4A4A4A4A4A4A4A4A4A4A4A4A4A4A4A4A4A4A4A4A4A4A4A4A4A4A4A4A4A4A4A4A4A4A4A4A4A4A4A4A4A4A4A4A4A4A4A4A4A4A4A4A4A4A4A4A4A4A4A4A4A4A4A4A4A4A4A4A4A4A4A4A4A4A4A4A4A4A4A4A4A4A4A4A4A4A4A4A4A4A4A4A4A4A4A4A4A4A4A4A4A4A4A4A4A4A4A4A4A4A4A4A4
310
A4A4A4A4A4A4A4A4A4A4A4A4A4A4A4A4A4A4A4A4A4A4A4A4A4A4A4A4A4A4A4A4A4A4A4A4A4A4A4A4A4A4A4A4A4A4A4A4A4A4A4A4A4A4A4A4A4A4A4A4A4A4A4A4A4A4A4A4A4A4A4A4A4A4A4A4A4A4A4A4A4A4A4A4A4A4A4A4A4A4A4A4A4A4A4A4A4A4A4A4A4A4A4A4A4A4A4A4A4A4A4A4A4A4A4A4F9F9F9F9F9F9F9F9F9F9F9
310
F9F9F9F9F9F9F9F9F9F9F9F9F9F9F9F9F9F9F9A4A4F9F9F9F9F9F9F9F9F9F9F9F9F9F9F9F9F9F9F9F9F9F9F9F9F9F9F9F9F9F9A4A4F9F9F9F9F9F9F9F9F9F9F9F9F9F9F9F9F9F9F9F9F9F9F9F9F9F9F9F9F9F9A4A4F9A4A4A4A4A4A4A4A4A4A4A4A4A4A4A4A4A4A4A4A4A4A4A4A4A4A4A4A4F9A4A4A4A4A4A4A4A4A4A4A4A4
310
A4A4A4A4A4A4A4A4A4A4A4A4A4A4A4A4A4A4A4A4A4A4A4A4A4A4A4A4A4A4A4A4A4A4A4A4A4A4A4A4A4A4A4A4A4A4A4A4A4A4A4A4A4A4A4A4A4A4A4A4A4A4A4A4A4A4A4A4A4A4A4A4A4A4A4A4A4A4A4A4A4A4A4A4A4A4A4A4A4A4A4A4A4A4A4A4A4A4A4A4A4A4A4A4A4A4A4A4A4A4A4A4A4A4A4A4A4A4A4A4A4A4A4A4A4A4A4
310
A4A4A4A4A4A4A4A4A4A4A4A4A4A4A4A4A4A4A4A4A4A4A4A4A4A4A4A4A4A4A4A4A4A4A4A4A4A4A4A4A4A4A4A4A4A4A4A4A4A4A4A4A4A4A4A4A4A4A4A4A4A4A4A4A4A4A4A4A4A4A4A4A4A4A4A4A4A4A4A4A4A4A4A4A4A4A4A4A4A4A4A4A4A4A4A4A4A4A4A4A4A4A4A4A4A4A4A4A4A4A4A4A4A4A4A4A4A4A4A4A4A4A4A4A4A4A4
310
A4A4A4A4A4A4A4A4A4A4A4A4A4A4A4A4A4A4A4A4A4A4A4A4A4A4A4A4A4A4A4A4A4A4A4A4A4A4A4A4A4A4A4A4A4A4A4A4A4A4A4A4A4A4A4A4A4A4A4A4A4A4A4A4A4A4A4A4A4A4A4A4A4A4A4A4A4A4A4A4A4A4A4A4A4A4A4A4A4A4A4A4A4A4A4A4A4A4A4A4A4A4A4A4A4A4A4A4A4A4A4A4A4A4A4A4A4A4A4A4A4A4A4A4A4A4A4
310
A4A4A4A4A4A4A4A4A4A4A4A4A4A4A4A4A4A4A4A4A4A4A4A4A4A4A4A4A4A4A4A4A4A4A4A4A4A4A4A4A4A4A4A4A4A4A4A4A4A4A4A4A4A4A4A4
1001
ACAD
1000
DesignCenter Data
1002
{
1070
     1
1070
     4
1002
}
  0
BLOCK_RECORD
  5
AA8
330
1
100
AcDbSymbolTableRecord
100
AcDbBlockTableRecord
  2
_CLOSED
340
0
  0
BLOCK_RECORD
  5
B79
330
1
100
AcDbSymbolTableRecord
100
AcDbBlockTableRecord
  2
nota revisoes
340
0
1001
ACAD
1000
DesignCenter Data
1002
{
1070
     1
1070
     4
1002
}
  0
BLOCK_RECORD
  5
B8E
330
1
100
AcDbSymbolTableRecord
100
AcDbBlockTableRecord
  2
a3l
340
0
1001
ACAD
1000
DesignCenter Data
1002
{
1070
     1
1070
     4
1002
}
  0
BLOCK_RECORD
  5
B9E
330
1
100
AcDbSymbolTableRecord
100
AcDbBlockTableRecord
  2
legenda desenvolvimento
340
0
1001
ACAD
1000
DesignCenter Data
1002
{
1070
     1
1070
     4
1002
}
  0
ENDTAB
  0
ENDSEC
  0
SECTION
  2
BLOCKS
  0
BLOCK
  5
20
330
1F
100
AcDbEntity
  8
0
100
AcDbBlockBegin
  2
*Model_Space
 70
     0
 10
0.0
 20
0.0
 30
0.0
  3
*Model_Space
  1

  0
ENDBLK
  5
21
330
1F
100
AcDbEntity
  8
0
100
AcDbBlockEnd
  0
BLOCK
  5
1C
330
1B
100
AcDbEntity
 67
     1
  8
0
100
AcDbBlockBegin
  2
*Paper_Space
 70
     0
 10
0.0
 20
0.0
 30
0.0
  3
*Paper_Space
  1

  0
ENDBLK
  5
1D
330
1B
100
AcDbEntity
 67
     1
  8
0
100
AcDbBlockEnd
  0
BLOCK
  5
24
330
23
100
AcDbEntity
 67
     1
  8
0
100
AcDbBlockBegin
  2
*Paper_Space0
 70
     0
 10
0.0
 20
0.0
 30
0.0
  3
*Paper_Space0
  1

  0
ENDBLK
  5
25
330
23
100
AcDbEntity
 67
     1
  8
0
100
AcDbBlockEnd
  0
BLOCK
  5
91B
330
919
100
AcDbEntity
  8
0
100
AcDbBlockBegin
  2
_DotSmall
 70
     0
 10
0.0
 20
0.0
 30
0.0
  3
_DotSmall
  1

  0
LWPOLYLINE
  5
91A
330
919
100
AcDbEntity
  8
0
  6
ByBlock
 62
     0
100
AcDbPolyline
 90
        2
 70
     1
 43
0.5
 10
-0.0625
 20
0.0
 42
1.0
 10
0.0625
 20
0.0
 42
1.0
  0
ENDBLK
  5
91C
330
919
100
AcDbEntity
  8
0
100
AcDbBlockEnd
  0
BLOCK
  5
92A
330
922
100
AcDbEntity
  8
0
100
AcDbBlockBegin
  2
base para cotas
 70
     0
 10
0.0
 20
0.0
 30
0.0
  3
base para cotas
  1

  0
LINE
  5
B36
330
922
100
AcDbEntity
  8
cotas
100
AcDbLine
 10
0.0
 20
-30.0
 30
0.0
 11
327.1260136525398
 21
-30.0
 31
0.0
  0
LINE
  5
B37
330
922
100
AcDbEntity
  8
cotas
100
AcDbLine
 10
0.0
 20
-25.0
 30
0.0
 11
327.1260136525398
 21
-25.0
 31
0.0
  0
LINE
  5
B38
330
922
100
AcDbEntity
  8
cotas
100
AcDbLine
 10
0.0
 20
-20.0
 30
0.0
 11
327.1260136525398
 21
-20.0
 31
0.0
  0
LINE
  5
B39
330
922
100
AcDbEntity
  8
cotas
100
AcDbLine
 10
0.0
 20
-15.0
 30
0.0
 11
327.1260136525398
 21
-15.0
 31
0.0
  0
LINE
  5
B3A
330
922
100
AcDbEntity
  8
cotas
100
AcDbLine
 10
0.0
 20
-10.0
 30
0.0
 11
327.1260136525398
 21
-10.0
 31
0.0
  0
LINE
  5
B3B
330
922
100
AcDbEntity
  8
cotas
100
AcDbLine
 10
0.0
 20
0.0
 30
0.0
 11
0.0
 21
-30.0
 31
0.0
  0
LINE
  5
B3C
330
922
100
AcDbEntity
  8
cotas
100
AcDbLine
 10
327.1260136525398
 20
-30.0
 30
0.0
 11
327.1260136525398
 21
0.0
 31
0.0
  0
ENDBLK
  5
92B
330
922
100
AcDbEntity
  8
0
100
AcDbBlockEnd
  0
BLOCK
  5
AAD
330
AA8
100
AcDbEntity
  8
0
100
AcDbBlockBegin
  2
_CLOSED
 70
     0
 10
0.0
 20
0.0
 30
0.0
  3
_CLOSED
  1

  0
LINE
  5
AA9
330
AA8
100
AcDbEntity
  8
0
100
AcDbLine
 10
-1.0
 20
0.166667
 30
0.0
 11
0.0
 21
0.0
 31
0.0
  0
LINE
  5
AAA
330
AA8
100
AcDbEntity
  8
0
100
AcDbLine
 10
0.0
 20
0.0
 30
0.0
 11
-1.0
 21
-0.166667
 31
0.0
  0
LINE
  5
AAB
330
AA8
100
AcDbEntity
  8
0
100
AcDbLine
 10
-1.0
 20
0.166667
 30
0.0
 11
-1.0
 21
-0.166667
 31
0.0
  0
LINE
  5
AAC
330
AA8
100
AcDbEntity
  8
0
100
AcDbLine
 10
0.0
 20
0.0
 30
0.0
 11
-1.0
 21
0.0
 31
0.0
  0
ENDBLK
  5
AAE
330
AA8
100
AcDbEntity
  8
0
100
AcDbBlockEnd
  0
BLOCK
  5
B7C
330
B79
100
AcDbEntity
  8
0
100
AcDbBlockBegin
  2
nota revisoes
 70
     0
 10
0.0
 20
0.0
 30
0.0
  3
nota revisoes
  1

  0
CIRCLE
  5
B7A
330
B79
100
AcDbEntity
  8
4
100
AcDbCircle
 10
0.0
 20
0.0
 30
0.0
 40
13.69426055101189
  0
TEXT
  5
B7B
330
B79
100
AcDbEntity
  8
4
100
AcDbText
 10
-5.496248358154345
 20
-5.354545554066362
 30
0.0
 40
12.0
  1
1
  7
SANINDUSA
 72
     1
 11
-0.249774214433728
 21
-5.354545554066362
 31
0.0
100
AcDbText
  0
ENDBLK
  5
B7D
330
B79
100
AcDbEntity
  8
0
100
AcDbBlockEnd
  0
BLOCK
  5
B9C
330
B8E
100
AcDbEntity
  8
0
100
AcDbBlockBegin
  2
a3l
 70
     0
 10
0.0
 20
0.0
 30
0.0
  3
a3l
  1

  0
LINE
  5
B8F
330
B8E
100
AcDbEntity
  8
1
100
AcDbLine
 10
-364.2925296599447
 20
-362.1188951399395
 30
0.0
 11
-364.2925296599447
 21
-65.11889513993946
 31
0.0
  0
LINE
  5
B90
330
B8E
100
AcDbEntity
  8
4
100
AcDbLine
 10
-369.2925296599447
 20
-357.1188951399395
 30
0.0
 11
-369.2925296599447
 21
-70.11889513993946
 31
0.0
  0
LINE
  5
B91
330
B8E
100
AcDbEntity
  8
1
100
AcDbLine
 10
-784.2925296599446
 20
-65.11889513993946
 30
0.0
 11
-784.2925296599446
 21
-362.1188951399395
 31
0.0
  0
LINE
  5
B92
330
B8E
100
AcDbEntity
  8
4
100
AcDbLine
 10
-759.2925296599446
 20
-357.1188951399395
 30
0.0
 11
-759.2925296599446
 21
-70.11889513993946
 31
0.0
  0
LINE
  5
B93
330
B8E
100
AcDbEntity
  8
1
100
AcDbLine
 10
-784.2925296599446
 20
-362.1188951399395
 30
0.0
 11
-364.2925296599447
 21
-362.1188951399395
 31
0.0
  0
LINE
  5
B94
330
B8E
100
AcDbEntity
  8
4
100
AcDbLine
 10
-759.2925296599446
 20
-357.1188951399395
 30
0.0
 11
-369.2925296599447
 21
-357.1188951399395
 31
0.0
  0
LINE
  5
B95
330
B8E
100
AcDbEntity
  8
1
100
AcDbLine
 10
-654.2925296599446
 20
-357.1188951399395
 30
0.0
 11
-654.2925296599446
 21
-362.1188951399395
 31
0.0
  0
LINE
  5
B96
330
B8E
100
AcDbEntity
  8
1
100
AcDbLine
 10
-364.2925296599447
 20
-65.11889513993946
 30
0.0
 11
-784.2925296599446
 21
-65.11889513993946
 31
0.0
  0
LINE
  5
B97
330
B8E
100
AcDbEntity
  8
4
100
AcDbLine
 10
-369.2925296599447
 20
-70.11889513993946
 30
0.0
 11
-759.2925296599446
 21
-70.11889513993946
 31
0.0
  0
LINE
  5
B98
330
B8E
100
AcDbEntity
  8
1
100
AcDbLine
 10
-654.2925296599446
 20
-65.11889513993946
 30
0.0
 11
-654.2925296599446
 21
-70.11889513993946
 31
0.0
  0
LINE
  5
B99
330
B8E
100
AcDbEntity
  8
1
100
AcDbLine
 10
-549.2925296599446
 20
-70.11889513993946
 30
0.0
 11
-549.2925296599446
 21
-65.11889513993946
 31
0.0
  0
LINE
  5
B9A
330
B8E
100
AcDbEntity
  8
1
100
AcDbLine
 10
-369.2925296599447
 20
-65.11889513993946
 30
0.0
 11
-364.2925296599447
 21
-65.11889513993946
 31
0.0
  0
LINE
  5
B9B
330
B8E
100
AcDbEntity
  8
1
100
AcDbLine
 10
-549.2925296599446
 20
-357.1188951399395
 30
0.0
 11
-549.2925296599446
 21
-362.1188951399395
 31
0.0
  0
ENDBLK
  5
B9D
330
B8E
100
AcDbEntity
  8
0
100
AcDbBlockEnd
  0
BLOCK
  5
C13
330
B9E
100
AcDbEntity
  8
0
100
AcDbBlockBegin
  2
legenda desenvolvimento
 70
     2
 10
0.0
 20
0.0
 30
0.0
  3
legenda desenvolvimento
  1

  0
ATTDEF
  5
B9F
330
B9E
100
AcDbEntity
  8
1
100
AcDbText
 10
-108.606245802552
 20
55.5
 30
0.0
 40
4.0
  1
XXXXXXXXXXXXXX
 41
0.8
  7
SANINDUSA
 72
     4
 11
-87.5
 21
57.5
 31
0.0
100
AcDbAttributeDefinition
  3
Nome do Produto:
  2
PRODUTO
 70
     0
  0
ATTDEF
  5
BA0
330
B9E
100
AcDbEntity
  8
1
100
AcDbText
 10
-97.9997966101695
 20
41.25
 30
0.0
 40
3.0
  1
XXXXXXXXX
 41
0.8
  7
futura
 72
     4
 11
-87.5
 21
42.75
 31
0.0
100
AcDbAttributeDefinition
  3
Nome da Peça:
  2
PECA
 70
     0
  0
ATTDEF
  5
BA1
330
B9E
100
AcDbEntity
  8
1
100
AcDbText
 10
-133.4422431161853
 20
21.11745296763252
 30
0.0
 40
2.5
  1
X
 41
0.8
  7
SANINDUSA
 72
     4
 11
-132.5
 21
22.36745296763252
 31
0.0
100
AcDbAttributeDefinition
  3
Cod. TESTE:
  2
TESTE
 70
     0
  0
ATTDEF
  5
BA2
330
B9E
100
AcDbEntity
  8
1
100
AcDbText
 10
-124.3844862323707
 20
21.11745296763252
 30
0.0
 40
2.5
  1
XX
 41
0.8
  7
SANINDUSA
 72
     4
 11
-122.5
 21
22.36745296763252
 31
0.0
100
AcDbAttributeDefinition
  3
Cod. Ano:
  2
ANO
 70
     0
  0
ATTDEF
  5
BA3
330
B9E
100
AcDbEntity
  8
1
100
AcDbText
 10
-112.526889953052
 20
21.11745296763252
 30
0.0
 40
2.5
  1
XXX
 41
0.8
  7
SANINDUSA
 72
     4
 11
-109.700160604496
 21
22.36745296763252
 31
0.0
100
AcDbAttributeDefinition
  3
Cod. Sequência:
  2
SEQUENCIA
 70
     0
  0
ATTDEF
  5
BA4
330
B9E
100
AcDbEntity
  8
1
100
AcDbText
 10
-99.35382430979316
 20
21.11745296763252
 30
0.0
 40
2.5
  1
XX
 41
0.8
  7
SANINDUSA
 72
     4
 11
-97.46933807742244
 21
22.36745296763252
 31
0.0
100
AcDbAttributeDefinition
  3
Cod. Tipo:
  2
TIPO
 70
     0
  0
ATTDEF
  5
BA5
330
B9E
100
AcDbEntity
  8
1
100
AcDbText
 10
-87.42035911468438
 20
21.11745296763252
 30
0.0
 40
2.5
  1
XXX
 41
0.8
  7
SANINDUSA
 72
     4
 11
-84.59362976612828
 21
22.36745296763252
 31
0.0
100
AcDbAttributeDefinition
  3
Cod. Produto:
  2
PRODUTO
 70
     0
  0
ATTDEF
  5
BA6
330
B9E
100
AcDbEntity
  8
1
100
AcDbText
 10
-74.62051971917853
 20
21.11745296763252
 30
0.0
 40
2.5
  1
XXX
 41
0.8
  7
SANINDUSA
 72
     4
 11
-71.79379037062244
 21
22.36745296763252
 31
0.0
100
AcDbAttributeDefinition
  3
Cod. Peça:
  2
PECA
 70
     0
  0
ATTDEF
  5
BA7
330
B9E
100
AcDbEntity
  8
1
100
AcDbText
 10
-61.10603446650329
 20
21.11745296763252
 30
0.0
 40
2.5
  1
XX
 41
0.8
  7
SANINDUSA
 72
     4
 11
-59.22154823413257
 21
22.36745296763252
 31
0.0
100
AcDbAttributeDefinition
  3
Cod. Revisão:
  2
REV
 70
     0
  0
ATTDEF
  5
BA8
330
B9E
100
AcDbEntity
  8
1
100
AcDbText
 10
-48.43615325006194
 20
21.11745296763252
 30
0.0
 40
2.5
  1
XX
 41
0.8
  7
SANINDUSA
 72
     4
 11
-46.55166701769121
 21
22.36745296763252
 31
0.0
100
AcDbAttributeDefinition
  3
Cod. Alteração:
  2
ALT
 70
     0
  0
ATTDEF
  5
BA9
330
B9E
100
AcDbEntity
  8
1
100
AcDbText
 10
-35.19086635325722
 20
23.98875083948959
 30
0.0
 40
3.0
  1
1/XXX
 41
0.8
  7
SANINDUSA
 72
     4
 11
-30.0
 21
25.25
 31
0.0
100
AcDbAttributeDefinition
  3
Escala geral:
  2
ESCALA
 70
     0
  0
ATTDEF
  5
BAA
330
B9E
100
AcDbEntity
  8
1
100
AcDbText
 10
-15.65345869711215
 20
23.75
 30
0.0
 40
3.0
  1
XXXXX
 41
0.8
  7
SANINDUSA
 72
     4
 11
-10.0
 21
25.25
 31
0.0
100
AcDbAttributeDefinition
  3
Folha:
  2
FOLHA
 70
     0
  0
ATTDEF
  5
BAB
330
B9E
100
AcDbEntity
  8
1
100
AcDbText
 10
-178.5146998822042
 20
56.9531347542807
 30
0.0
 40
2.0
  1
xx
 41
0.8
  7
SANINDUSA
 72
     4
 11
-177.2123493113513
 21
57.70330265219877
 31
0.0
100
AcDbAttributeDefinition
  3
revisão
  2
REV.
 70
     0
  0
ATTDEF
  5
BAC
330
B9E
100
AcDbEntity
  8
1
100
AcDbText
 10
-172.7849640077129
 20
56.9531347542807
 30
0.0
 40
2.0
  1
xx
 41
0.8
  7
SANINDUSA
 72
     4
 11
-171.48261343686
 21
57.70330265219877
 31
0.0
100
AcDbAttributeDefinition
  3
alteração
  2
ALT.
 70
     0
  0
ATTDEF
  5
BAD
330
B9E
100
AcDbEntity
  8
1
100
AcDbText
 10
-168.007199951307
 20
56.70330265219877
 30
0.0
 40
2.0
  1
xx/xx/xxxx
 41
0.8
  7
SANINDUSA
 11
-168.007199951307
 21
57.70330265219877
 31
0.0
100
AcDbAttributeDefinition
  3
data
  2
DATA
 70
     0
 74
     2
  0
ATTDEF
  5
BAE
330
B9E
100
AcDbEntity
  8
1
100
AcDbText
 10
-168.5396372253371
 20
13.15916722632639
 30
0.0
 40
2.0
  1
XX/XX/XXXX
 41
0.8
  7
SANINDUSA
 72
     4
 11
-161.5099528734231
 21
14.0
 31
0.0
100
AcDbAttributeDefinition
  3
Data projecto
  2
DATA_PROJ
 70
     0
  0
ATTDEF
  5
BAF
330
B9E
100
AcDbEntity
  8
1
100
AcDbText
 10
-150.8658110728766
 20
13.24983210208193
 30
0.0
 40
2.0
  1
xxxxxxxx
 41
0.8
  7
SANINDUSA
 72
     4
 11
-145.6564087894649
 21
14.0
 31
0.0
100
AcDbAttributeDefinition
  3
nome de quem projectou
  2
NOME
 70
     0
  0
ATTDEF
  5
BB0
330
B9E
100
AcDbEntity
  8
1
100
AcDbText
 10
-168.5396372253371
 20
9.159167226326394
 30
0.0
 40
2.0
  1
XX/XX/XXXX
 41
0.8
  7
SANINDUSA
 72
     4
 11
-161.5099528734231
 21
10.0
 31
0.0
100
AcDbAttributeDefinition
  3
Data desenhou
  2
DATA_DES
 70
     0
  0
ATTDEF
  5
BB1
330
B9E
100
AcDbEntity
  8
1
100
AcDbText
 10
-151.516986358303
 20
9.249832102081933
 30
0.0
 40
2.0
  1
xxxxxxxxx
 41
0.8
  7
SANINDUSA
 72
     4
 11
-145.6564087894649
 21
10.0
 31
0.0
100
AcDbAttributeDefinition
  3
nome
  2
NOME
 70
     0
  0
ATTDEF
  5
BB2
330
B9E
100
AcDbEntity
  8
1
100
AcDbText
 10
-127.2924214135946
 20
14.1979876583216
 30
0.0
 40
2.0
  1
Vitreous China
 41
0.8
  7
SANINDUSA
 72
     4
 11
-119.231709526422
 21
15.22216495852308
 31
0.0
100
AcDbAttributeDefinition
  3
Nome do Material:
  2
MATERIAL
 70
     0
  0
ATTDEF
  5
BB3
330
B9E
100
AcDbEntity
  8
1
100
AcDbText
 10
-103.1563452122093
 20
14.38019043949261
 30
0.0
 40
2.0
  1
Branco
 41
0.8
  7
SANINDUSA
 72
     4
 11
-99.33418268702462
 21
15.35937109765245
 31
0.0
100
AcDbAttributeDefinition
  3
cor da peça
  2
COR
 70
     0
  0
ATTDEF
  5
BB4
330
B9E
100
AcDbEntity
  8
1
100
AcDbText
 10
-116.7235057085292
 20
5.975822699798522
 30
0.0
 40
2.0
  1
Vidrado
 41
0.8
  7
SANINDUSA
 72
     4
 11
-112.5
 21
7.0
 31
0.0
100
AcDbAttributeDefinition
  3
Tipo de acabamento:
  2
ACABAMENTO
 70
     0
  0
ATTDEF
  5
BB5
330
B9E
100
AcDbEntity
  8
1
100
AcDbText
 10
-79.18527869967246
 20
16.65066409850533
 30
0.0
 40
2.0
  1
XXXXXXX
 41
0.8
  7
SANINDUSA
 72
     4
 11
-73.90871724903445
 21
17.65066409850533
 31
0.0
100
AcDbAttributeDefinition
  3
Normas
  2
NORMAS
 70
     0
  0
ATTDEF
  5
BB6
330
B9E
100
AcDbEntity
  8
1
100
AcDbText
 10
-30.55312290127603
 20
14.0
 30
0.0
 40
2.0
  1
XXXXXXXXXXXXXX
 41
0.8
  7
SANINDUSA
 72
     4
 11
-20.0
 21
15.0
 31
0.0
100
AcDbAttributeDefinition
  3
Substitui o desenho:
  2
SUBSTITUI
 70
     0
  0
ATTDEF
  5
BB7
330
B9E
100
AcDbEntity
  8
1
100
AcDbText
 10
-31.30691739422431
 20
6.0
 30
0.0
 40
2.0
  1
XXXXXXXXXXXXXXX
 41
0.8
  7
SANINDUSA
 72
     4
 11
-20.0
 21
7.0
 31
0.0
100
AcDbAttributeDefinition
  3
Substituido por:
  2
SUBSTITUIDO
 70
     0
  0
ATTDEF
  5
BB8
330
B9E
100
AcDbEntity
  8
1
100
AcDbText
 10
-110.0220608548302
 20
1.478208457928303
 30
0.0
 40
2.0
  1
XXXXXXXXXXXXXXXXXXXXXXXXXXXXXXXXXX
 41
0.8
  7
SANINDUSA
 11
-110.0220608548302
 21
2.478208457928303
 31
0.0
100
AcDbAttributeDefinition
  3
Localização do desenho:
  2
LOC-DWG
 70
     0
 74
     2
  0
LINE
  5
BB9
330
B9E
100
AcDbEntity
  8
3
100
AcDbLine
 10
-135.0
 20
4.0
 30
0.0
 11
0.0000000000004547
 21
4.0
 31
0.0
  0
LINE
  5
BBA
330
B9E
100
AcDbEntity
  8
3
100
AcDbLine
 10
-90.00000000000046
 20
12.0
 30
0.0
 11
-135.0
 21
12.0
 31
0.0
  0
LINE
  5
BBB
330
B9E
100
AcDbEntity
  8
3
100
AcDbLine
 10
-135.0
 20
32.5
 30
0.0
 11
-40.0
 21
32.5
 31
0.0
  0
TEXT
  5
BBC
330
B9E
100
AcDbEntity
  8
1
100
AcDbText
 10
-134.0
 20
1.25
 30
0.0
 40
2.0
  1
Localização do des.:
 41
0.8
  7
SANINDUSA
 11
-134.0
 21
2.25
 31
0.0
100
AcDbText
 73
     2
  0
LINE
  5
BBD
330
B9E
100
AcDbEntity
  8
3
100
AcDbLine
 10
-180.0
 20
65.0
 30
0.0
 11
0.0
 21
65.0
 31
0.0
  0
LINE
  5
BBE
330
B9E
100
AcDbEntity
  8
leg fin
100
AcDbLine
 10
-40.0
 20
25.05956924886846
 30
0.0
 11
-135.0
 21
25.05956924886846
 31
0.0
  0
LINE
  5
BBF
330
B9E
100
AcDbEntity
  8
leg fin
100
AcDbLine
 10
-40.0
 20
28.5
 30
0.0
 11
-135.0
 21
28.5
 31
0.0
  0
LINE
  5
BC0
330
B9E
100
AcDbEntity
  8
3
100
AcDbLine
 10
-135.0
 20
50.0
 30
0.0
 11
-40.0
 21
50.0
 31
0.0
  0
TEXT
  5
BC1
330
B9E
100
AcDbEntity
  8
1
100
AcDbText
 10
-134.0
 20
29.75
 30
0.0
 40
2.0
  1
Desenho nº:
 41
0.8
  7
SANINDUSA
 11
-134.0
 21
30.75
 31
0.0
100
AcDbText
 73
     2
  0
TEXT
  5
BC2
330
B9E
100
AcDbEntity
  8
1
100
AcDbText
 10
-134.0
 20
9.25
 30
0.0
 40
2.0
  1
Acabamento:
 41
0.8
  7
SANINDUSA
 11
-134.0
 21
10.25
 31
0.0
100
AcDbText
 73
     2
  0
LINE
  5
BC3
330
B9E
100
AcDbEntity
  8
3
100
AcDbLine
 10
-180.0
 20
20.0
 30
0.0
 11
0.0
 21
20.0
 31
0.0
  0
LINE
  5
BC4
330
B9E
100
AcDbEntity
  8
1
100
AcDbLine
 10
-174.5810776056337
 20
55.5
 30
0.0
 11
-174.5810776056337
 21
65.0
 31
0.0
  0
LINE
  5
BC5
330
B9E
100
AcDbEntity
  8
1
100
AcDbLine
 10
-168.9210461879161
 20
55.5
 30
0.0
 11
-168.9210461879161
 21
65.0
 31
0.0
  0
LINE
  5
BC6
330
B9E
100
AcDbEntity
  8
1
100
AcDbLine
 10
-154.0988595589306
 20
55.5
 30
0.0
 11
-154.0988595589306
 21
65.0
 31
0.0
  0
LINE
  5
BC7
330
B9E
100
AcDbEntity
  8
3
100
AcDbLine
 10
-180.0
 20
65.0
 30
0.0
 11
-180.0
 21
0.0
 31
0.0
  0
LINE
  5
BC8
330
B9E
100
AcDbEntity
  8
3
100
AcDbLine
 10
-135.0
 20
0.0
 30
0.0
 11
-135.0
 21
65.0
 31
0.0
  0
TEXT
  5
BC9
330
B9E
100
AcDbEntity
  8
1
100
AcDbText
 10
-179.0
 20
9.75
 30
0.0
 40
1.5
  1
Des.
 41
0.8
  7
SANINDUSA
 11
-179.0
 21
10.5
 31
0.0
100
AcDbText
 73
     2
  0
LINE
  5
BCA
330
B9E
100
AcDbEntity
  8
1
100
AcDbLine
 10
-168.9210461879161
 20
20.0
 30
0.0
 11
-168.9210461879161
 21
0.0
 31
0.0
  0
LINE
  5
BCB
330
B9E
100
AcDbEntity
  8
1
100
AcDbLine
 10
-154.0988595589306
 20
20.0
 30
0.0
 11
-154.0988595589306
 21
0.0
 31
0.0
  0
LINE
  5
BCC
330
B9E
100
AcDbEntity
  8
1
100
AcDbLine
 10
-180.0
 20
4.0
 30
0.0
 11
-135.0
 21
4.0
 31
0.0
  0
LINE
  5
BCD
330
B9E
100
AcDbEntity
  8
1
100
AcDbLine
 10
-180.0
 20
8.0
 30
0.0
 11
-135.0
 21
8.0
 31
0.0
  0
TEXT
  5
BCE
330
B9E
100
AcDbEntity
  8
1
100
AcDbText
 10
-179.0
 20
1.73257823687436
 30
0.0
 40
1.5
  1
Aprov.
 41
0.8
  7
SANINDUSA
 11
-179.0
 21
2.48257823687436
 31
0.0
100
AcDbText
 73
     2
  0
TEXT
  5
BCF
330
B9E
100
AcDbEntity
  8
1
100
AcDbText
 10
-179.0
 20
5.75
 30
0.0
 40
1.5
  1
Ver.
 41
0.8
  7
SANINDUSA
 11
-179.0
 21
6.5
 31
0.0
100
AcDbText
 73
     2
  0
LINE
  5
BD0
330
B9E
100
AcDbEntity
  8
1
100
AcDbLine
 10
-180.0
 20
16.0
 30
0.0
 11
-135.0
 21
16.0
 31
0.0
  0
LINE
  5
BD1
330
B9E
100
AcDbEntity
  8
1
100
AcDbLine
 10
-180.0
 20
12.0
 30
0.0
 11
-135.0
 21
12.0
 31
0.0
  0
TEXT
  5
BD2
330
B9E
100
AcDbEntity
  8
1
100
AcDbText
 10
-179.0
 20
13.75
 30
0.0
 40
1.5
  1
Proj.
 41
0.8
  7
SANINDUSA
 11
-179.0
 21
14.5
 31
0.0
100
AcDbText
 73
     2
  0
TEXT
  5
BD3
330
B9E
100
AcDbEntity
  8
1
100
AcDbText
 10
-167.9210461879161
 20
17.75
 30
0.0
 40
1.5
  1
Data
 41
0.8
  7
SANINDUSA
 11
-167.9210461879161
 21
18.5
 31
0.0
100
AcDbText
 73
     2
  0
TEXT
  5
BD4
330
B9E
100
AcDbEntity
  8
1
100
AcDbText
 10
-153.0988595589306
 20
17.75
 30
0.0
 40
1.5
  1
Nome
 41
0.8
  7
SANINDUSA
 11
-153.0988595589306
 21
18.5
 31
0.0
100
AcDbText
 73
     2
  0
LINE
  5
BD5
330
B9E
100
AcDbEntity
  8
leg fin
100
AcDbLine
 10
-130.0
 20
20.0
 30
0.0
 11
-130.0
 21
28.5
 31
0.0
  0
TEXT
  5
BD6
330
B9E
100
AcDbEntity
  8
1
100
AcDbText
 10
-134.0
 20
17.25
 30
0.0
 40
2.0
  1
Material:
 41
0.8
  7
SANINDUSA
 11
-134.0
 21
18.25
 31
0.0
100
AcDbText
 73
     2
  0
TEXT
  5
BD7
330
B9E
100
AcDbEntity
  8
1
100
AcDbText
 10
-129.0
 20
26.43288406845113
 30
0.0
 40
1.5
  1
Ano:
 41
0.8
  7
SANINDUSA
 11
-129.0
 21
27.18288406845113
 31
0.0
100
AcDbText
 73
     2
  0
LINE
  5
BD8
330
B9E
100
AcDbEntity
  8
1
100
AcDbLine
 10
-180.0
 20
55.5
 30
0.0
 11
-135.0
 21
55.5
 31
0.0
  0
TEXT
  5
BD9
330
B9E
100
AcDbEntity
  8
1
100
AcDbText
 10
-179.0
 20
52.67772246885193
 30
0.0
 40
1.5
  1
descrição
 41
0.8
  7
SANINDUSA
 11
-179.0
 21
53.42772246885193
 31
0.0
100
AcDbText
 73
     2
  0
TEXT
  5
BDA
330
B9E
100
AcDbEntity
  8
1
100
AcDbText
 10
-134.0
 20
47.25
 30
0.0
 40
2.0
  1
Peça:
 41
0.8
  7
SANINDUSA
 11
-134.0
 21
48.25
 31
0.0
100
AcDbText
 73
     2
  0
LINE
  5
BDB
330
B9E
100
AcDbEntity
  8
1
100
AcDbLine
 10
-180.0
 20
59.5
 30
0.0
 11
-135.0
 21
59.5
 31
0.0
  0
TEXT
  5
BDC
330
B9E
100
AcDbEntity
  8
1
100
AcDbText
 10
-173.5810776056337
 20
62.75
 30
0.0
 40
1.5
  1
Alt.
 41
0.8
  7
SANINDUSA
 11
-173.5810776056337
 21
63.5
 31
0.0
100
AcDbText
 73
     2
  0
TEXT
  5
BDD
330
B9E
100
AcDbEntity
  8
1
100
AcDbText
 10
-179.0
 20
62.75
 30
0.0
 40
1.5
  1
Rev.
 41
0.8
  7
SANINDUSA
 11
-179.0
 21
63.5
 31
0.0
100
AcDbText
 73
     2
  0
TEXT
  5
BDE
330
B9E
100
AcDbEntity
  8
1
100
AcDbText
 10
-167.9210461879161
 20
62.75
 30
0.0
 40
1.5
  1
Data
 41
0.8
  7
SANINDUSA
 11
-167.9210461879161
 21
63.5
 31
0.0
100
AcDbText
 73
     2
  0
TEXT
  5
BDF
330
B9E
100
AcDbEntity
  8
1
100
AcDbText
 10
-153.0988595589306
 20
62.75
 30
0.0
 40
1.5
  1
Nome
 41
0.8
  7
SANINDUSA
 11
-153.0988595589306
 21
63.5
 31
0.0
100
AcDbText
 73
     2
  0
TEXT
  5
BE0
330
B9E
100
AcDbEntity
  8
1
100
AcDbText
 10
-134.0
 20
62.25
 30
0.0
 40
2.0
  1
Produto:
 41
0.8
  7
SANINDUSA
 11
-134.0
 21
63.25
 31
0.0
100
AcDbText
 73
     2
  0
LINE
  5
BE1
330
B9E
100
AcDbEntity
  8
3
100
AcDbLine
 10
-40.0
 20
4.0
 30
0.0
 11
-40.0
 21
65.0
 31
0.0
  0
LWPOLYLINE
  5
BE2
102
{ACAD_REACTORS
330
BEC
102
}
330
B9E
100
AcDbEntity
  8
9
100
AcDbPolyline
 90
       12
 70
     1
 43
0.0
 10
-3.038714600644652
 20
58.90010174665076
 10
-5.726962862472191
 20
58.90010174665076
 10
-5.726962862472191
 20
58.5001017466509
 10
-3.038748516195028
 20
58.5001017466509
 42
-0.4142135623731731
 10
-2.638748516194482
 20
58.1001017466508
 10
-2.638748516194482
 20
57.42799728675596
 10
-5.21497371544865
 20
57.42799728675596
 42
0.4142135623731289
 10
-6.014973715448377
 20
56.627997286756
 10
-6.014973715448377
 20
55.92380871629643
 42
0.4142135623731132
 10
-5.21497371544865
 20
55.12380871629648
 10
-2.23871460064447
 20
55.12380871629648
 10
-2.23871460064447
 20
58.10010174665103
 42
0.4142135623730717
  0
LWPOLYLINE
  5
BE3
102
{ACAD_REACTORS
330
BEC
102
}
330
B9E
100
AcDbEntity
  8
9
100
AcDbPolyline
 90
       20
 70
     1
 43
0.0
 10
-10.01531287095122
 20
57.82799728675581
 10
-10.01531287095122
 20
58.10010174665103
 42
-0.4142135623730744
 10
-9.615312870951584
 20
58.5001017466509
 10
-6.92703069357276
 20
58.5001017466509
 10
-6.92703069357276
 20
58.90010174665076
 10
-9.615346786501959
 20
58.90010174665076
 42
0.4142135623730883
 10
-10.41534678650168
 20
58.1001017466508
 10
-10.41534678650168
 20
57.82796337120567
 42
0.4142135623730717
 10
-9.615346786501959
 20
57.02796337120571
 10
-7.423079531965413
 20
57.02796337120571
 42
-0.4142135623730847
 10
-7.023079531965322
 20
56.62796337120562
 10
-7.023079531965322
 20
55.90786840766487
 42
-0.4142135623730744
 10
-7.423079531965413
 20
55.507868407665
 10
-10.41534678650168
 20
55.507868407665
 10
-10.41534678650168
 20
55.12380871629648
 10
-7.445787917283723
 20
55.12380871629648
 42
0.4114777732064574
 10
-6.645822882998345
 20
55.9163291493976
 10
-6.639238813324936
 20
56.62051771985716
 42
0.4169546541682913
 10
-7.439203847610315
 20
57.42799728675596
 10
-9.615312870951584
 20
57.42799728675596
 42
-0.4142135623731576
  0
LWPOLYLINE
  5
BE4
102
{ACAD_REACTORS
330
BEC
102
}
330
B9E
100
AcDbEntity
  8
9
100
AcDbPolyline
 90
       12
 70
     1
 43
0.0
 10
-14.41561811090378
 20
58.90010174665076
 10
-14.79964388672215
 20
58.90010174665076
 10
-14.79964388672215
 20
55.92380871629643
 42
0.4142135623731133
 10
-13.99964388672242
 20
55.12380871629648
 10
-11.8233508563676
 20
55.12380871629648
 42
0.4142135623730872
 10
-11.02335085636741
 20
55.92380871629643
 10
-11.02335085636741
 20
58.90010174665076
 10
-11.42338477191788
 20
58.90010174665076
 10
-11.42338477191788
 20
55.91567577726095
 42
-0.4131711701795318
 10
-11.82196067063523
 20
55.51567831234956
 10
-14.0141940096214
 20
55.50787335710947
 42
-0.4152567234624407
 10
-14.41561811090378
 20
55.90787082202087
  0
LWPOLYLINE
  5
BE5
102
{ACAD_REACTORS
330
BEC
102
}
330
B9E
100
AcDbEntity
  8
9
100
AcDbPolyline
 90
        6
 70
     1
 43
0.0
 10
-15.80771578768872
 20
55.507868407665
 10
-18.39994912667453
 20
55.507868407665
 42
-0.4142135623731731
 10
-18.79994912667462
 20
55.90786840766487
 10
-18.79994912667462
 20
58.10010174665103
 42
-0.4142135623730744
 10
-18.39994912667453
 20
58.5001017466509
 10
-15.80771578768872
 20
58.5001017466509
  0
LWPOLYLINE
  5
BE6
102
{ACAD_REACTORS
330
BEC
102
}
330
B9E
100
AcDbEntity
  8
9
100
AcDbPolyline
 90
        8
 70
     1
 43
0.0
 10
-15.4236900118708
 20
59.87619128370352
 10
-15.80771578768872
 20
59.87619128370352
 10
-15.80771578768872
 20
58.90010174665076
 10
-18.39176256411201
 20
58.90010174665076
 42
0.4131164467977967
 10
-19.19175694739761
 20
58.1030995310698
 10
-19.1999120763262
 20
55.92680650071542
 42
0.4153115297271718
 10
-18.39991769304061
 20
55.12380871629648
 10
-15.4236900118708
 20
55.12380871629648
  0
LWPOLYLINE
  5
BE7
102
{ACAD_REACTORS
330
BEC
102
}
330
B9E
100
AcDbEntity
  8
9
100
AcDbPolyline
 90
       10
 70
     1
 43
0.0
 10
-20.59201288790928
 20
58.90010174665076
 10
-23.56830591826338
 20
58.90010174665076
 10
-23.56830591826338
 20
55.12380871629648
 10
-23.18424622689509
 20
55.12380871629648
 10
-23.18424622689509
 20
58.5001017466509
 10
-20.59204680345965
 20
58.5001017466509
 42
-0.4142135623730898
 10
-20.19204680345956
 20
58.1001017466508
 10
-20.19204680345956
 20
55.12380871629648
 10
-19.79201288790909
 20
55.12380871629648
 10
-19.79201288790909
 20
58.10010174665103
 42
0.4142135623731132
  0
LWPOLYLINE
  5
BE8
102
{ACAD_REACTORS
330
BEC
102
}
330
B9E
100
AcDbEntity
  8
9
100
AcDbPolyline
 90
        4
 70
     1
 43
0.0
 10
-24.19231812786165
 20
58.90010174665076
 10
-24.57637781922995
 20
58.90010174665076
 10
-24.57637781922995
 20
55.12380871629648
 10
-24.19231812786165
 20
55.12380871629648
  0
LWPOLYLINE
  5
BE9
102
{ACAD_REACTORS
330
BEC
102
}
330
B9E
100
AcDbEntity
  8
9
100
AcDbPolyline
 90
       10
 70
     1
 43
0.0
 10
-28.57661522808212
 20
58.5001017466509
 10
-25.98444972019706
 20
58.5001017466509
 42
-0.4142135623731731
 10
-25.58444972019652
 20
58.1001017466508
 10
-25.58444972019652
 20
55.12380871629648
 10
-25.2004239443786
 20
55.12380871629648
 10
-25.2004239443786
 20
58.10010174665103
 42
0.4142135623730717
 10
-26.00042394437833
 20
58.90010174665076
 10
-28.97664914363259
 20
58.90010174665076
 10
-28.97664914363259
 20
55.12380871629648
 10
-28.57661522808212
 20
55.12380871629648
  0
LWPOLYLINE
  5
BEA
102
{ACAD_REACTORS
330
BEC
102
}
330
B9E
100
AcDbEntity
  8
9
100
AcDbPolyline
 90
       12
 70
     1
 43
0.0
 10
-29.58465321349832
 20
58.10010174665103
 42
0.4142135623730716
 10
-30.3846532134985
 20
58.90010174665076
 10
-33.07296930642724
 20
58.90010174665076
 10
-33.07296930642724
 20
58.5001017466509
 10
-30.38468712904842
 20
58.5001017466509
 42
-0.4142135623730067
 10
-29.98468712904878
 20
58.1001017466508
 10
-29.98468712904878
 20
57.42799728675618
 10
-32.56098015940324
 20
57.42799728675596
 42
0.4142135623731289
 10
-33.36098015940343
 20
56.627997286756
 10
-33.36098015940343
 20
55.92380871629643
 42
0.4142135623731132
 10
-32.56098015940324
 20
55.12380871629648
 10
-29.58465321349832
 20
55.12380871629648
  0
LWPOLYLINE
  5
BEB
102
{ACAD_REACTORS
330
BEC
102
}
330
B9E
100
AcDbEntity
  8
9
100
AcDbPolyline
 90
       20
 70
     1
 43
0.0
 10
-34.7850262845518
 20
57.42799728675596
 10
-36.96125148380543
 20
57.42799728675596
 42
-0.4142135623730898
 10
-37.36125148380552
 20
57.82799728675604
 10
-37.36125148380552
 20
58.10010174665103
 42
-0.4142135623730744
 10
-36.96125148380543
 20
58.5001017466509
 10
-34.27303713752781
 20
58.50010174665067
 10
-34.27303713752781
 20
58.90010174665076
 10
-36.96128539935535
 20
58.90010174665076
 42
0.4142135623731289
 10
-37.76128539935553
 20
58.1001017466508
 10
-37.76128539935553
 20
57.82796337120567
 42
0.4142135623730716
 10
-36.9612853993558
 20
57.02796337120571
 10
-34.76901814481926
 20
57.02796337120571
 42
-0.414213562373168
 10
-34.36901814481962
 20
56.62796337120562
 10
-34.36901814481962
 20
55.90786840766487
 42
-0.4142135623730744
 10
-34.76901814481926
 20
55.507868407665
 10
-37.76128539935553
 20
55.507868407665
 10
-37.76128539935553
 20
55.12380871629648
 10
-34.7850262845518
 20
55.12380871629648
 42
0.4142135623731289
 10
-33.98502628455162
 20
55.92380871629643
 10
-33.98502628455162
 20
56.627997286756
 42
0.4142135623731132
  0
HATCH
  5
BEC
330
B9E
100
AcDbEntity
  8
9
100
AcDbHatch
 10
0.0
 20
0.0
 30
0.0
210
0.0
220
0.0
230
1.0
  2
SOLID
 70
     1
 71
     1
 91
       13
 92
        7
 72
     1
 73
     1
 93
       20
 10
-34.36901814481962
 20
55.90786840766487
 42
-0.414213562372991
 10
-34.76901814481926
 20
55.507868407665
 42
0.0
 10
-37.76128539935553
 20
55.507868407665
 42
0.0
 10
-37.76128539935553
 20
55.12380871629648
 42
0.0
 10
-34.7850262845518
 20
55.12380871629648
 42
0.4142135623731705
 10
-33.98502628455162
 20
55.92380871629666
 42
0.0
 10
-33.98502628455162
 20
56.627997286756
 42
0.4142135623731547
 10
-34.7850262845518
 20
57.42799728675596
 42
0.0
 10
-36.96125148380543
 20
57.42799728675596
 42
-0.4142135623730898
 10
-37.36125148380552
 20
57.82799728675604
 42
0.0
 10
-37.36125148380552
 20
58.1001017466508
 42
-0.4142135623731575
 10
-36.96125148380543
 20
58.5001017466509
 42
0.0
 10
-34.27303713752781
 20
58.50010174665067
 42
0.0
 10
-34.27303713752781
 20
58.90010174665076
 42
0.0
 10
-36.96128539935535
 20
58.90010174665076
 42
0.4142135623731705
 10
-37.76128539935553
 20
58.10010174665058
 42
0.0
 10
-37.76128539935553
 20
57.82796337120544
 42
0.4142135623730299
 10
-36.9612853993558
 20
57.02796337120571
 42
0.0
 10
-34.76901814481926
 20
57.02796337120571
 42
-0.4142135623730015
 10
-34.36901814481962
 20
56.62796337120608
 42
0.0
 97
        1
330
BEB
 92
        7
 72
     1
 73
     1
 93
       12
 10
-33.36098015940343
 20
55.92380871629666
 42
0.4142135623731547
 10
-32.56098015940324
 20
55.12380871629648
 42
0.0
 10
-29.58465321349877
 20
55.12380871629648
 42
0.0
 10
-29.58465321349832
 20
58.10010174665058
 42
0.4142135623731964
 10
-30.3846532134985
 20
58.90010174665076
 42
0.0
 10
-33.07296930642724
 20
58.90010174665076
 42
0.0
 10
-33.07296930642724
 20
58.50010174665067
 42
0.0
 10
-30.38468712904887
 20
58.5001017466509
 42
-0.4142135623732564
 10
-29.98468712904878
 20
58.10010174665103
 42
0.0
 10
-29.98468712904923
 20
57.42799728675596
 42
0.0
 10
-32.56098015940324
 20
57.42799728675596
 42
0.4142135623731705
 10
-33.36098015940343
 20
56.627997286756
 42
0.0
 97
        1
330
BEA
 92
       22
 72
     1
 73
     1
 93
        6
 10
-32.97692046803468
 20
56.62796337120562
 42
-0.4142135623731576
 10
-32.57692046803459
 20
57.02796337120571
 42
0.0
 10
-29.98468712904878
 20
57.02796337120571
 42
0.0
 10
-29.98468712904878
 20
55.507868407665
 42
0.0
 10
-32.57692046803459
 20
55.507868407665
 42
-0.4142135623731731
 10
-32.97692046803468
 20
55.90786840766487
 42
0.0
 97
        1
330
C11
 92
        7
 72
     1
 73
     1
 93
       10
 10
-28.57661522808212
 20
58.5001017466509
 42
0.0
 10
-25.98444972019661
 20
58.5001017466509
 42
-0.4142135623730067
 10
-25.58444972019652
 20
58.10010174665058
 42
0.0
 10
-25.58444972019606
 20
55.12380871629648
 42
0.0
 10
-25.20042394437906
 20
55.12380871629648
 42
0.0
 10
-25.2004239443786
 20
58.1001017466508
 42
0.4142135623731134
 10
-26.00042394437833
 20
58.90010174665076
 42
0.0
 10
-28.97664914363259
 20
58.90010174665076
 42
0.0
 10
-28.97664914363259
 20
55.12380871629648
 42
0.0
 10
-28.57661522808212
 20
55.12380871629648
 42
0.0
 97
        1
330
BE9
 92
        7
 72
     0
 73
     1
 93
        4
 10
-24.57637781922995
 20
55.12380871629648
 10
-24.19231812786165
 20
55.12380871629648
 10
-24.19231812786165
 20
58.90010174665076
 10
-24.57637781922995
 20
58.90010174665076
 97
        1
330
BE8
 92
        7
 72
     0
 73
     1
 93
        4
 10
-24.19231812786165
 20
59.87619128370352
 10
-24.5763778192304
 20
59.87619128370352
 10
-24.5763778192304
 20
59.28412752246913
 10
-24.1923181278612
 20
59.28412752246913
 97
        1
330
C12
 92
        7
 72
     1
 73
     1
 93
       10
 10
-23.18424622689509
 20
58.5001017466509
 42
0.0
 10
-20.59204680345965
 20
58.5001017466509
 42
-0.4142135623730898
 10
-20.19204680345956
 20
58.1001017466508
 42
0.0
 10
-20.19204680345956
 20
55.12380871629648
 42
0.0
 10
-19.79201288790909
 20
55.12380871629648
 42
0.0
 10
-19.79201288790909
 20
58.1001017466508
 42
0.4142135623731547
 10
-20.59201288790928
 20
58.90010174665076
 42
0.0
 10
-23.56830591826338
 20
58.90010174665076
 42
0.0
 10
-23.56830591826338
 20
55.12380871629648
 42
0.0
 10
-23.18424622689463
 20
55.12380871629648
 42
0.0
 97
        1
330
BE7
 92
        7
 72
     1
 73
     1
 93
        8
 10
-19.1999120763262
 20
55.92680650071542
 42
0.4153115297271299
 10
-18.39991769304061
 20
55.12380871629648
 42
0.0
 10
-15.4236900118708
 20
55.12380871629648
 42
0.0
 10
-15.4236900118708
 20
59.87619128370352
 42
0.0
 10
-15.80771578768872
 20
59.87619128370352
 42
0.0
 10
-15.80771578768872
 20
58.90010174665076
 42
0.0
 10
-18.39176256411201
 20
58.90010174665076
 42
0.4131164467977965
 10
-19.19175694739761
 20
58.1030995310698
 42
0.0
 97
        1
330
BE6
 92
       22
 72
     1
 73
     1
 93
        6
 10
-18.79994912667462
 20
58.1001017466508
 42
-0.4142135623731575
 10
-18.39994912667453
 20
58.5001017466509
 42
0.0
 10
-15.80771578768872
 20
58.50010174665067
 42
0.0
 10
-15.80771578768827
 20
55.507868407665
 42
0.0
 10
-18.39994912667453
 20
55.507868407665
 42
-0.4142135623731731
 10
-18.79994912667462
 20
55.90786840766487
 42
0.0
 97
        1
330
BE5
 92
        7
 72
     1
 73
     1
 93
       12
 10
-14.79964388672215
 20
55.92380871629621
 42
0.4142135623729885
 10
-13.99964388672242
 20
55.12380871629648
 42
0.0
 10
-11.8233508563676
 20
55.12380871629648
 42
0.4142135623731289
 10
-11.02335085636741
 20
55.92380871629666
 42
0.0
 10
-11.02335085636741
 20
58.90010174665076
 42
0.0
 10
-11.42338477191788
 20
58.90010174665076
 42
0.0
 10
-11.42338477191788
 20
55.91567577726095
 42
-0.4131711701795319
 10
-11.82196067063523
 20
55.51567831234956
 42
0.0
 10
-14.01419400962095
 20
55.50787335710947
 42
-0.4152567234626918
 10
-14.41561811090378
 20
55.90787082202087
 42
0.0
 10
-14.41561811090378
 20
58.90010174665076
 42
0.0
 10
-14.7996438867226
 20
58.90010174665076
 42
0.0
 97
        1
330
BE4
 92
        7
 72
     1
 73
     1
 93
       20
 10
-7.423079531965413
 20
57.02796337120571
 42
-0.414213562373168
 10
-7.023079531965322
 20
56.62796337120562
 42
0.0
 10
-7.023079531965322
 20
55.90786840766487
 42
-0.4142135623731575
 10
-7.423079531965413
 20
55.507868407665
 42
0.0
 10
-10.41534678650168
 20
55.507868407665
 42
0.0
 10
-10.41534678650168
 20
55.12380871629648
 42
0.0
 10
-7.445787917283723
 20
55.12380871629648
 42
0.4114777732065809
 10
-6.645822882998345
 20
55.91632914939783
 42
0.0
 10
-6.639238813324936
 20
56.62051771985716
 42
0.4169546541682913
 10
-7.439203847610315
 20
57.42799728675596
 42
0.0
 10
-9.615312870951584
 20
57.42799728675596
 42
-0.4142135623729911
 10
-10.01531287095122
 20
57.82799728675581
 42
0.0
 10
-10.01531287095122
 20
58.10010174665103
 42
-0.414213562372991
 10
-9.615312870951584
 20
58.5001017466509
 42
0.0
 10
-6.92703069357276
 20
58.50010174665067
 42
0.0
 10
-6.927030693572305
 20
58.90010174665076
 42
0.0
 10
-9.615346786501959
 20
58.90010174665076
 42
0.4142135623730467
 10
-10.41534678650168
 20
58.10010174665103
 42
0.0
 10
-10.41534678650168
 20
57.82796337120544
 42
0.4142135623730301
 10
-9.615346786501959
 20
57.02796337120571
 42
0.0
 97
        1
330
BE3
 92
        7
 72
     1
 73
     1
 93
       12
 10
-5.21497371544865
 20
57.42799728675596
 42
0.4142135623730871
 10
-6.014973715448377
 20
56.627997286756
 42
0.0
 10
-6.014973715448377
 20
55.92380871629621
 42
0.4142135623730715
 10
-5.21497371544865
 20
55.12380871629648
 42
0.0
 10
-2.23871460064447
 20
55.12380871629648
 42
0.0
 10
-2.23871460064447
 20
58.10010174665058
 42
0.414213562373155
 10
-3.038714600644652
 20
58.90010174665076
 42
0.0
 10
-5.726962862471737
 20
58.90010174665076
 42
0.0
 10
-5.726962862472191
 20
58.5001017466509
 42
0.0
 10
-3.038748516194573
 20
58.5001017466509
 42
-0.4142135623730067
 10
-2.638748516194482
 20
58.10010174665058
 42
0.0
 10
-2.638748516194482
 20
57.42799728675596
 42
0.0
 97
        1
330
BE2
 92
       22
 72
     1
 73
     1
 93
        6
 10
-2.638748516194937
 20
57.02796337120571
 42
0.0
 10
-2.638748516194482
 20
55.50786840766477
 42
0.0
 10
-5.21497371544865
 20
55.507868407665
 42
-0.4142135623731731
 10
-5.614973715448741
 20
55.90786840766509
 42
0.0
 10
-5.614973715448741
 20
56.62796337120562
 42
-0.4142135623731576
 10
-5.21497371544865
 20
57.02796337120571
 42
0.0
 97
        1
330
C0D
 75
     0
 76
     1
 47
0.0407044778999864
 98
       13
 10
-34.18710075113677
 20
56.16907953933765
 10
-33.12851374392494
 20
56.49471602641233
 10
-33.12851374392494
 20
56.49471602641233
 10
-28.77202873835904
 20
57.51232930166111
 10
-24.41554807250941
 20
57.91937341678636
 10
-24.41554807250941
 20
59.384734621186
 10
-23.31624584658039
 20
58.3264175319116
 10
-19.04119127844888
 20
57.75655517324913
 10
-19.04119127844888
 20
57.75655517324913
 10
-14.64399105416578
 20
57.43091868617466
 10
-8.048195057457178
 20
57.22739662861204
 10
-4.017427461911665
 20
57.18669281458665
 10
-4.017427461911665
 20
57.18669281458665
  0
TEXT
  5
BED
330
B9E
100
AcDbEntity
  8
leg fin
100
AcDbText
 10
3.391127401597259
 20
2.107634911895729
 30
0.0
 40
1.5
  1
Este desenho é propriedade da Sanindusa, S.A., e não pode ser copiado nem divulgado sem nossa autorização.
 50
90.0
 41
0.8
  7
SANINDUSA
100
AcDbText
  0
LINE
  5
BEE
330
B9E
100
AcDbEntity
  8
3
100
AcDbLine
 10
-90.0
 20
4.0
 30
0.0
 11
-90.0
 21
12.0
 31
0.0
  0
TEXT
  5
BEF
330
B9E
100
AcDbEntity
  8
1
100
AcDbText
 10
-39.0
 20
9.25
 30
0.0
 40
2.0
  1
Substituido por:
 41
0.8
  7
SANINDUSA
 11
-39.0
 21
10.25
 31
0.0
100
AcDbText
 73
     2
  0
POINT
  5
BF0
330
B9E
100
AcDbEntity
  8
SANINDUSA
100
AcDbPoint
 10
0.0
 20
0.0
 30
0.0
  0
TEXT
  5
BF1
330
B9E
100
AcDbEntity
  8
1
100
AcDbText
 10
-89.0
 20
16.74927010445663
 30
0.0
 40
2.0
  1
Normas:
 41
0.8
  7
SANINDUSA
 11
-89.0
 21
17.74927010445663
 31
0.0
100
AcDbText
 73
     2
  0
LINE
  5
BF2
330
B9E
100
AcDbEntity
  8
3
100
AcDbLine
 10
-90.0
 20
12.0
 30
0.0
 11
-90.0
 21
20.0
 31
0.0
  0
LINE
  5
BF3
330
B9E
100
AcDbEntity
  8
3
100
AcDbLine
 10
-110.546019464768
 20
12.0
 30
0.0
 11
-110.546019464768
 21
20.0
 31
0.0
  0
TEXT
  5
BF4
330
B9E
100
AcDbEntity
  8
1
100
AcDbText
 10
-109.6177520618648
 20
17.25
 30
0.0
 40
2.0
  1
Cor:
 41
0.8
  7
SANINDUSA
 11
-109.6177520618648
 21
18.25
 31
0.0
100
AcDbText
 73
     2
  0
LINE
  5
BF5
330
B9E
100
AcDbEntity
  8
leg fin
100
AcDbLine
 10
-91.42857142857156
 20
20.0
 30
0.0
 11
-91.42857142857156
 21
28.5
 31
0.0
  0
LINE
  5
BF6
330
B9E
100
AcDbEntity
  8
leg fin
100
AcDbLine
 10
-104.2857142857142
 20
20.0
 30
0.0
 11
-104.2857142857142
 21
28.5
 31
0.0
  0
LINE
  5
BF7
330
B9E
100
AcDbEntity
  8
leg fin
100
AcDbLine
 10
-117.1428571428573
 20
20.0
 30
0.0
 11
-117.1428571428573
 21
28.5
 31
0.0
  0
POINT
  5
BF8
330
B9E
100
AcDbEntity
  8
SANINDUSA
100
AcDbPoint
 10
-117.1428571428573
 20
28.5
 30
0.0
  0
POINT
  5
BF9
330
B9E
100
AcDbEntity
  8
SANINDUSA
100
AcDbPoint
 10
-104.2857142857142
 20
28.5
 30
0.0
  0
POINT
  5
BFA
330
B9E
100
AcDbEntity
  8
SANINDUSA
100
AcDbPoint
 10
-91.42857142857156
 20
28.5
 30
0.0
  0
TEXT
  5
BFB
330
B9E
100
AcDbEntity
  8
1
100
AcDbText
 10
-116.200160604496
 20
26.43288406845113
 30
0.0
 40
1.5
  1
Nº Seq.:
 41
0.8
  7
SANINDUSA
 11
-116.200160604496
 21
27.18288406845113
 31
0.0
100
AcDbText
 73
     2
  0
TEXT
  5
BFC
330
B9E
100
AcDbEntity
  8
1
100
AcDbText
 10
-103.2106584078738
 20
26.43288406845113
 30
0.0
 40
1.5
  1
Tipo:
 41
0.8
  7
SANINDUSA
 11
-103.2106584078738
 21
27.18288406845113
 31
0.0
100
AcDbText
 73
     2
  0
TEXT
  5
BFD
330
B9E
100
AcDbEntity
  8
1
100
AcDbText
 10
-90.22114672289353
 20
26.43288406845113
 30
0.0
 40
1.5
  1
Prod.:
 41
0.8
  7
SANINDUSA
 11
-90.22114672289353
 21
27.18288406845113
 31
0.0
100
AcDbText
 73
     2
  0
TEXT
  5
BFE
330
B9E
100
AcDbEntity
  8
1
100
AcDbText
 10
-64.77320576346574
 20
26.43288406845113
 30
0.0
 40
1.5
  1
Rev.:
 41
0.8
  7
SANINDUSA
 11
-64.77320576346574
 21
27.18288406845113
 31
0.0
100
AcDbText
 73
     2
  0
LINE
  5
BFF
330
B9E
100
AcDbEntity
  8
leg fin
100
AcDbLine
 10
-52.85714285714266
 20
20.0
 30
0.0
 11
-52.85714285714266
 21
28.5
 31
0.0
  0
LINE
  5
C00
330
B9E
100
AcDbEntity
  8
leg fin
100
AcDbLine
 10
-65.71428571428578
 20
20.0
 30
0.0
 11
-65.71428571428578
 21
28.5
 31
0.0
  0
LINE
  5
C01
330
B9E
100
AcDbEntity
  8
leg fin
100
AcDbLine
 10
-78.57142857142844
 20
20.0
 30
0.0
 11
-78.57142857142844
 21
28.5
 31
0.0
  0
POINT
  5
C02
330
B9E
100
AcDbEntity
  8
SANINDUSA
100
AcDbPoint
 10
-78.57142857142844
 20
28.5
 30
0.0
  0
POINT
  5
C03
330
B9E
100
AcDbEntity
  8
SANINDUSA
100
AcDbPoint
 10
-65.71428571428578
 20
28.5
 30
0.0
  0
POINT
  5
C04
330
B9E
100
AcDbEntity
  8
SANINDUSA
100
AcDbPoint
 10
-52.85714285714266
 20
28.5
 30
0.0
  0
TEXT
  5
C05
330
B9E
100
AcDbEntity
  8
1
100
AcDbText
 10
-77.61097961686573
 20
26.43288406845113
 30
0.0
 40
1.5
  1
Peça:
 41
0.8
  7
SANINDUSA
 11
-77.61097961686573
 21
27.18288406845113
 31
0.0
100
AcDbText
 73
     2
  0
TEXT
  5
C06
330
B9E
100
AcDbEntity
  8
1
100
AcDbText
 10
-52.06538060077036
 20
26.43288406845113
 30
0.0
 40
1.5
  1
Alt.:
 41
0.8
  7
SANINDUSA
 11
-52.06538060077036
 21
27.18288406845113
 31
0.0
100
AcDbText
 73
     2
  0
LINE
  5
C07
330
B9E
100
AcDbEntity
  8
3
100
AcDbLine
 10
0.0
 20
12.0
 30
0.0
 11
-40.0
 21
12.0
 31
0.0
  0
LINE
  5
C08
330
B9E
100
AcDbEntity
  8
3
100
AcDbLine
 10
-40.0
 20
32.5
 30
0.0
 11
0.0
 21
32.5
 31
0.0
  0
TEXT
  5
C09
330
B9E
100
AcDbEntity
  8
1
100
AcDbText
 10
-19.0
 20
29.75
 30
0.0
 40
2.0
  1
Folha:
 41
0.8
  7
SANINDUSA
 11
-19.0
 21
30.75
 31
0.0
100
AcDbText
 73
     2
  0
LINE
  5
C0A
330
B9E
100
AcDbEntity
  8
3
100
AcDbLine
 10
-20.0
 20
32.5
 30
0.0
 11
-20.0
 21
20.0
 31
0.0
  0
TEXT
  5
C0B
330
B9E
100
AcDbEntity
  8
1
100
AcDbText
 10
-39.0
 20
29.75
 30
0.0
 40
2.0
  1
Escala:
 41
0.8
  7
SANINDUSA
 11
-39.0
 21
30.75
 31
0.0
100
AcDbText
 73
     2
  0
TEXT
  5
C0C
330
B9E
100
AcDbEntity
  8
1
100
AcDbText
 10
-39.0
 20
17.25
 30
0.0
 40
2.0
  1
Substitui:
 41
0.8
  7
SANINDUSA
 11
-39.0
 21
18.25
 31
0.0
100
AcDbText
 73
     2
  0
LWPOLYLINE
  5
C0D
102
{ACAD_REACTORS
330
BEC
102
}
330
B9E
100
AcDbEntity
  8
9
100
AcDbPolyline
 90
        6
 70
     1
 43
0.0
 10
-2.638748516194482
 20
57.02796337120571
 10
-2.638748516194482
 20
55.50786840766477
 10
-5.21497371544865
 20
55.507868407665
 42
-0.4142135623730898
 10
-5.614973715448741
 20
55.90786840766487
 10
-5.614973715448741
 20
56.62796337120562
 42
-0.4142135623731576
 10
-5.21497371544865
 20
57.02796337120571
  0
LINE
  5
C0E
330
B9E
100
AcDbEntity
  8
3
100
AcDbLine
 10
-40.0
 20
50.0
 30
0.0
 11
0.0
 21
50.0
 31
0.0
  0
ATTDEF
  5
C0F
330
B9E
100
AcDbEntity
  8
1
100
AcDbText
 10
-31.30691739422431
 20
40.25
 30
0.0
 40
2.0
  1
XXXXXXXXXXXXXXX
 41
0.8
  7
SANINDUSA
 72
     4
 11
-20.0
 21
41.25
 31
0.0
100
AcDbAttributeDefinition
  3
Observações:
  2
OBS
 70
     0
  0
TEXT
  5
C10
330
B9E
100
AcDbEntity
  8
1
100
AcDbText
 10
-39.0
 20
47.25
 30
0.0
 40
2.0
  1
Observações:
 41
0.8
  7
SANINDUSA
 11
-39.0
 21
48.25
 31
0.0
100
AcDbText
 73
     2
  0
LWPOLYLINE
  5
C11
102
{ACAD_REACTORS
330
BEC
102
}
330
B9E
100
AcDbEntity
  8
9
100
AcDbPolyline
 90
        6
 70
     1
 43
0.0
 10
-29.98468712904878
 20
57.02796337120571
 10
-29.98468712904878
 20
55.507868407665
 10
-32.57692046803459
 20
55.507868407665
 42
-0.4142135623731731
 10
-32.97692046803468
 20
55.90786840766487
 10
-32.97692046803468
 20
56.62796337120562
 42
-0.4142135623731576
 10
-32.57692046803459
 20
57.02796337120571
  0
LWPOLYLINE
  5
C12
102
{ACAD_REACTORS
330
BEC
102
}
330
B9E
100
AcDbEntity
  8
9
100
AcDbPolyline
 90
        4
 70
     1
 43
0.0
 10
-24.19231812786165
 20
59.87619128370352
 10
-24.57637781922995
 20
59.87619128370352
 10
-24.57637781922995
 20
59.28412752246913
 10
-24.19231812786165
 20
59.28412752246913
  0
ENDBLK
  5
C14
330
B9E
100
AcDbEntity
  8
0
100
AcDbBlockEnd
  0
ENDSEC
  0
SECTION
  2
ENTITIES
  0
ARC
  5
141B
330
1F
100
AcDbEntity
  8
SANINDUSA
100
AcDbCircle
 10
4583.372582320918
 20
2461.103725629426
 30
0.0
 40
0.003
100
AcDbArc
 50
270.0
 51
1.600000002568872
  0
SPLINE
  5
141E
330
1F
100
AcDbEntity
  8
SANINDUSA
100
AcDbSpline
210
0.0
220
0.0
230
1.0
 70
    24
 71
     3
 72
    26
 73
    22
 74
     0
 42
0.0000000001
 43
0.0000000001
 40
0.0
 40
0.0
 40
0.0
 40
0.0
 40
0.1249999999999994
 40
0.1249999999999994
 40
0.2499999999999989
 40
0.2499999999999989
 40
0.3749999999999984
 40
0.3749999999999984
 40
0.4999999999999981
 40
0.4999999999999981
 40
0.5624999999999981
 40
0.5624999999999981
 40
0.5937499999999981
 40
0.5937499999999981
 40
0.6249999999999981
 40
0.6249999999999981
 40
0.7499999999999987
 40
0.7499999999999987
 40
0.8749999999999992
 40
0.8749999999999992
 40
1.0
 40
1.0
 40
1.0
 40
1.0
 10
4582.948965071448
 20
2461.490725629426
 30
0.0
 10
4582.959456356262
 20
2461.490725629426
 30
0.0
 10
4582.970051939443
 20
2461.490725629426
 30
0.0
 10
4582.991443466986
 20
2461.490725629426
 30
0.0
 10
4583.002240573801
 20
2461.490725629426
 30
0.0
 10
4583.024033211382
 20
2461.490725629426
 30
0.0
 10
4583.035029329304
 20
2461.490725629426
 30
0.0
 10
4583.057218397447
 20
2461.490725629426
 30
0.0
 10
4583.068411783781
 20
2461.490725629426
 30
0.0
 10
4583.085350231973
 20
2461.490725629426
 30
0.0
 10
4583.091021142542
 20
2461.490725629426
 30
0.0
 10
4583.099564949494
 20
2461.490725629426
 30
0.0
 10
4583.102420521892
 20
2461.490725629426
 30
0.0
 10
4583.108136768263
 20
2461.490725629426
 30
0.0
 10
4583.110996727473
 20
2461.490725629426
 30
0.0
 10
4583.125305646372
 20
2461.490725629426
 30
0.0
 10
4583.136782068384
 20
2461.490725629426
 30
0.0
 10
4583.159792755233
 20
2461.490725629426
 30
0.0
 10
4583.171327094155
 20
2461.490725629426
 30
0.0
 10
4583.194453677154
 20
2461.490725629426
 30
0.0
 10
4583.206046001522
 20
2461.490725629426
 30
0.0
 10
4583.21766775899
 20
2461.490725629426
 30
0.0
  0
ARC
  5
1420
330
1F
100
AcDbEntity
  8
SANINDUSA
100
AcDbCircle
 10
4583.434034784136
 20
2461.485725629426
 30
0.0
 40
0.0050000000000001
100
AcDbArc
 50
343.7038839043232
 51
90.0
  0
SPLINE
  5
1421
330
1F
100
AcDbEntity
  8
SANINDUSA
100
AcDbSpline
210
0.0
220
0.0
230
1.0
 70
    24
 71
     3
 72
    58
 73
    54
 74
     0
 42
0.0000000001
 43
0.0000000001
 40
0.0
 40
0.0
 40
0.0
 40
0.0
 40
0.0625000000000006
 40
0.0625000000000006
 40
0.1250000000000011
 40
0.1250000000000011
 40
0.1406250000000009
 40
0.1406250000000009
 40
0.1562500000000008
 40
0.1562500000000008
 40
0.187500000000001
 40
0.187500000000001
 40
0.2500000000000009
 40
0.2500000000000009
 40
0.3125000000000008
 40
0.3125000000000008
 40
0.3750000000000007
 40
0.3750000000000007
 40
0.4062500000000004
 40
0.4062500000000004
 40
0.4218750000000001
 40
0.4218750000000001
 40
0.4374999999999999
 40
0.4374999999999999
 40
0.4687499999999997
 40
0.4687499999999997
 40
0.4843749999999997
 40
0.4843749999999997
 40
0.4999999999999996
 40
0.4999999999999996
 40
0.562500000000002
 40
0.562500000000002
 40
0.6250000000000046
 40
0.6250000000000046
 40
0.6875000000000071
 40
0.6875000000000071
 40
0.7031250000000072
 40
0.7031250000000072
 40
0.7187500000000073
 40
0.7187500000000073
 40
0.7500000000000071
 40
0.7500000000000071
 40
0.8125000000000055
 40
0.8125000000000055
 40
0.8437500000000049
 40
0.8437500000000049
 40
0.8593750000000046
 40
0.8593750000000046
 40
0.8750000000000042
 40
0.8750000000000042
 40
0.9375000000000021
 40
0.9375000000000021
 40
1.0
 40
1.0
 40
1.0
 40
1.0
 10
4583.21766775899
 20
2461.490725629426
 30
0.0
 10
4583.224021008501
 20
2461.490725629426
 30
0.0
 10
4583.230358030927
 20
2461.490725629426
 30
0.0
 10
4583.243000208839
 20
2461.490725629426
 30
0.0
 10
4583.24930526721
 20
2461.490725629426
 30
0.0
 10
4583.257165670624
 20
2461.490725629426
 30
0.0
 10
4583.258736706781
 20
2461.490725629426
 30
0.0
 10
4583.261876627777
 20
2461.490725629426
 30
0.0
 10
4583.263445785513
 20
2461.490725629426
 30
0.0
 10
4583.268136937916
 20
2461.490725629426
 30
0.0
 10
4583.271246750534
 20
2461.490725629426
 30
0.0
 10
4583.280521031144
 20
2461.490725629426
 30
0.0
 10
4583.286630406749
 20
2461.490725629426
 30
0.0
 10
4583.298701950837
 20
2461.490725629426
 30
0.0
 10
4583.304664169403
 20
2461.490725629426
 30
0.0
 10
4583.316437176573
 20
2461.490725629426
 30
0.0
 10
4583.322247949498
 20
2461.490725629426
 30
0.0
 10
4583.330843718999
 20
2461.490725629426
 30
0.0
 10
4583.333688881095
 20
2461.490725629426
 30
0.0
 10
4583.337925218526
 20
2461.490725629426
 30
0.0
 10
4583.339333041398
 20
2461.490725629426
 30
0.0
 10
4583.342130604624
 20
2461.490725629426
 30
0.0
 10
4583.343520891161
 20
2461.490725629426
 30
0.0
 10
4583.347665948267
 20
2461.490725629426
 30
0.0
 10
4583.350394934291
 20
2461.490725629426
 30
0.0
 10
4583.354435249545
 20
2461.490725629426
 30
0.0
 10
4583.355773505808
 20
2461.490725629426
 30
0.0
 10
4583.358423648279
 20
2461.490725629426
 30
0.0
 10
4583.359736572933
 20
2461.490725629426
 30
0.0
 10
4583.366240148394
 20
2461.490725629426
 30
0.0
 10
4583.371248216983
 20
2461.490725629426
 30
0.0
 10
4583.380857694286
 20
2461.490725629426
 30
0.0
 10
4583.385459011364
 20
2461.490725629426
 30
0.0
 10
4583.394224273862
 20
2461.490725629426
 30
0.0
 10
4583.39838866676
 20
2461.490725629426
 30
0.0
 10
4583.403287220174
 20
2461.490725629426
 30
0.0
 10
4583.40425306647
 20
2461.490725629426
 30
0.0
 10
4583.406143435964
 20
2461.490725629426
 30
0.0
 10
4583.407068035067
 20
2461.490725629426
 30
0.0
 10
4583.409779806195
 20
2461.490725629426
 30
0.0
 10
4583.411505032439
 20
2461.490725629426
 30
0.0
 10
4583.41642779419
 20
2461.490725629426
 30
0.0
 10
4583.419373041073
 20
2461.490725629426
 30
0.0
 10
4583.423245616154
 20
2461.490725629426
 30
0.0
 10
4583.424445796957
 20
2461.490725629426
 30
0.0
 10
4583.426103228858
 20
2461.490725629426
 30
0.0
 10
4583.426631849749
 20
2461.490725629426
 30
0.0
 10
4583.427640035662
 20
2461.490725629426
 30
0.0
 10
4583.428118271197
 20
2461.490725629426
 30
0.0
 10
4583.430368854403
 20
2461.490725629426
 30
0.0
 10
4583.431730597407
 20
2461.490725629426
 30
0.0
 10
4583.433563665524
 20
2461.490725629426
 30
0.0
 10
4583.434034784078
 20
2461.490725629426
 30
0.0
 10
4583.434034784136
 20
2461.490725629426
 30
0.0
  0
SPLINE
  5
142A
330
1F
100
AcDbEntity
  8
SANINDUSA
100
AcDbSpline
210
0.0
220
0.0
230
1.0
 70
     8
 71
     3
 72
    24
 73
    20
 74
     0
 42
0.0000000001
 43
0.0000000001
 40
0.0
 40
0.0
 40
0.0
 40
0.0
 40
0.1249999999999917
 40
0.1249999999999917
 40
0.2499999999999834
 40
0.2499999999999834
 40
0.3749999999999751
 40
0.3749999999999751
 40
0.4374999999999736
 40
0.4374999999999736
 40
0.4999999999999721
 40
0.4999999999999721
 40
0.6249999999999791
 40
0.6249999999999791
 40
0.749999999999986
 40
0.749999999999986
 40
0.874999999999993
 40
0.874999999999993
 40
1.0
 40
1.0
 40
1.0
 40
1.0
 10
4583.056464584775
 20
2461.454593870314
 30
0.0
 10
4583.05641575335
 20
2461.454870807086
 30
0.0
 10
4583.056343691941
 20
2461.455143928104
 30
0.0
 10
4583.056150659091
 20
2461.455682320347
 30
0.0
 10
4583.056028541721
 20
2461.455949684467
 30
0.0
 10
4583.055733110828
 20
2461.456466236398
 30
0.0
 10
4583.055563454033
 20
2461.456709809842
 30
0.0
 10
4583.055275705563
 20
2461.457052920148
 30
0.0
 10
4583.055174213728
 20
2461.457163560457
 30
0.0
 10
4583.054959599692
 20
2461.457377065141
 30
0.0
 10
4583.054846066893
 20
2461.457480127926
 30
0.0
 10
4583.054497761141
 20
2461.457768621864
 30
0.0
 10
4583.054252381618
 20
2461.45793674875
 30
0.0
 10
4583.053736698974
 20
2461.458227239191
 30
0.0
 10
4583.053463832168
 20
2461.458349933038
 30
0.0
 10
4583.052919256661
 20
2461.458540436846
 30
0.0
 10
4583.0526448662
 20
2461.458610198964
 30
0.0
 10
4583.052092094677
 20
2461.458703011944
 30
0.0
 10
4583.051813864179
 20
2461.458725629427
 30
0.0
 10
4583.05154054601
 20
2461.458725629427
 30
0.0
  0
SPLINE
  5
142D
330
1F
100
AcDbEntity
  8
SANINDUSA
100
AcDbSpline
210
0.0
220
0.0
230
1.0
 70
    24
 71
     3
 72
    16
 73
    12
 74
     0
 42
0.0000000001
 43
0.0000000001
 40
0.0
 40
0.0
 40
0.0
 40
0.0
 40
0.125
 40
0.125
 40
0.2499999999999999
 40
0.2499999999999999
 40
0.5
 40
0.5
 40
0.75
 40
0.75
 40
1.0
 40
1.0
 40
1.0
 40
1.0
 10
4583.076713829961
 20
2461.339754694231
 30
0.0
 10
4583.075894249648
 20
2461.34440276516
 30
0.0
 10
4583.07507110948
 20
2461.349071025026
 30
0.0
 10
4583.073417803909
 20
2461.358447386854
 30
0.0
 10
4583.072587481827
 20
2461.363156377384
 30
0.0
 10
4583.070087830456
 20
2461.377332604756
 30
0.0
 10
4583.068409529132
 20
2461.386850724544
 30
0.0
 10
4583.065029899282
 20
2461.406017557873
 30
0.0
 10
4583.063328285133
 20
2461.415667891259
 30
0.0
 10
4583.059909300879
 20
2461.435057914501
 30
0.0
 10
4583.058191125402
 20
2461.444802171846
 30
0.0
 10
4583.056464584775
 20
2461.454593870314
 30
0.0
  0
SPLINE
  5
142E
330
1F
100
AcDbEntity
  8
SANINDUSA
100
AcDbSpline
210
0.0
220
0.0
230
1.0
 70
    24
 71
     3
 72
    12
 73
     8
 74
     0
 42
0.0000000001
 43
0.0000000001
 40
0.0
 40
0.0
 40
0.0
 40
0.0
 40
0.4999999999999997
 40
0.4999999999999997
 40
0.7499999999999999
 40
0.7499999999999999
 40
1.0
 40
1.0
 40
1.0
 40
1.0
 10
4583.05154054601
 20
2461.458725629427
 30
0.0
 10
4583.034021785152
 20
2461.458725629427
 30
0.0
 10
4583.016733896726
 20
2461.458725629427
 30
0.0
 10
4582.991163958172
 20
2461.458725629427
 30
0.0
 10
4582.982701264973
 20
2461.458725629427
 30
0.0
 10
4582.965900303778
 20
2461.458725629427
 30
0.0
 10
4582.957561484728
 20
2461.458725629427
 30
0.0
 10
4582.949287886328
 20
2461.458725629427
 30
0.0
  0
SPLINE
  5
1431
330
1F
100
AcDbEntity
  8
SANINDUSA
100
AcDbSpline
210
0.0
220
0.0
230
1.0
 70
     8
 71
     3
 72
    24
 73
    20
 74
     0
 42
0.0000000001
 43
0.0000000001
 40
0.0
 40
0.0
 40
0.0
 40
0.0
 40
0.0156250000000007
 40
0.0156250000000007
 40
0.0312500000000013
 40
0.0312500000000013
 40
0.0625000000000019
 40
0.0625000000000019
 40
0.1250000000000021
 40
0.1250000000000021
 40
0.2500000000000018
 40
0.2500000000000018
 40
0.3750000000000015
 40
0.3750000000000015
 40
0.5000000000000014
 40
0.5000000000000014
 40
0.7500000000000008
 40
0.7500000000000008
 40
1.0
 40
1.0
 40
1.0
 40
1.0
 10
4583.272329641612
 20
2461.325192721613
 30
0.0
 10
4583.271235274458
 20
2461.325182336881
 30
0.0
 10
4583.270140889083
 20
2461.325175991684
 30
0.0
 10
4583.26795205576
 20
2461.325162506696
 30
0.0
 10
4583.266857611802
 20
2461.325156721796
 30
0.0
 10
4583.263574195858
 20
2461.325141494045
 30
0.0
 10
4583.261385139899
 20
2461.325134211675
 30
0.0
 10
4583.254817626762
 20
2461.325117798141
 30
0.0
 10
4583.250438823042
 20
2461.325113662927
 30
0.0
 10
4583.237301007272
 20
2461.325114799894
 30
0.0
 10
4583.228540579616
 20
2461.325129869451
 30
0.0
 10
4583.21101600397
 20
2461.325204082983
 30
0.0
 10
4583.202251828257
 20
2461.325253826482
 30
0.0
 10
4583.184719658423
 20
2461.325364131146
 30
0.0
 10
4583.175951671432
 20
2461.325427109515
 30
0.0
 10
4583.149641999264
 20
2461.325638636038
 30
0.0
 10
4583.132092093698
 20
2461.325809388374
 30
0.0
 10
4583.097008414168
 20
2461.32621787716
 30
0.0
 10
4583.079471185571
 20
2461.326456396525
 30
0.0
 10
4583.061938726713
 20
2461.3267395351
 30
0.0
  0
SPLINE
  5
1432
330
1F
100
AcDbEntity
  8
SANINDUSA
100
AcDbSpline
210
0.0
220
0.0
230
1.0
 70
    24
 71
     3
 72
     8
 73
     4
 74
     0
 42
0.0000000001
 43
0.0000000001
 40
0.0
 40
0.0
 40
0.0
 40
0.0
 40
1.0
 40
1.0
 40
1.0
 40
1.0
 10
4583.074032741053
 20
2461.326663478187
 30
0.0
 10
4583.070001159103
 20
2461.326689483627
 30
0.0
 10
4583.06596982166
 20
2461.326714876873
 30
0.0
 10
4583.061938726713
 20
2461.3267395351
 30
0.0
  0
LINE
  5
1437
330
1F
100
AcDbEntity
  8
SANINDUSA
100
AcDbLine
 10
4583.272541183016
 20
2461.100725629427
 30
0.0
 11
4583.016545069565
 21
2461.100725629427
 31
0.0
  0
SPLINE
  5
1439
330
1F
100
AcDbEntity
  8
SANINDUSA
100
AcDbSpline
210
0.0
220
0.0
230
1.0
 70
    24
 71
     3
 72
    10
 73
     6
 74
     0
 42
0.0000000001
 43
0.0000000001
 40
0.0
 40
0.0
 40
0.0
 40
0.0
 40
0.5
 40
0.5
 40
1.0
 40
1.0
 40
1.0
 40
1.0
 10
4583.061938726713
 20
2461.3267395351
 30
0.0
 10
4583.055648273563
 20
2461.326746467642
 30
0.0
 10
4583.049358764707
 20
2461.326749324098
 30
0.0
 10
4583.036781657084
 20
2461.326758140805
 30
0.0
 10
4583.030494059179
 20
2461.32676454844
 30
0.0
 10
4583.024207416253
 20
2461.32677243855
 30
0.0
  0
ARC
  5
143C
330
1F
100
AcDbEntity
  8
SANINDUSA
100
AcDbCircle
 10
4583.021492284569
 20
2461.282228290554
 30
0.0
 40
0.044626819971204
100
AcDbArc
 50
86.51192445398651
 51
92.65163472911311
  0
LINE
  5
143E
330
1F
100
AcDbEntity
  8
SANINDUSA
100
AcDbLine
 10
4583.011641174978
 20
2461.103830327917
 30
0.0
 11
4583.019427703395
 21
2461.326807327847
 31
0.0
  0
SPLINE
  5
143F
330
1F
100
AcDbEntity
  8
SANINDUSA
100
AcDbSpline
210
0.0
220
0.0
230
1.0
 70
    24
 71
     3
 72
    20
 73
    16
 74
     0
 42
0.0000000001
 43
0.0000000001
 40
0.0
 40
0.0
 40
0.0
 40
0.0
 40
0.250000000000023
 40
0.250000000000023
 40
0.3750000000000191
 40
0.3750000000000191
 40
0.5000000000000153
 40
0.5000000000000153
 40
0.6250000000000116
 40
0.6250000000000116
 40
0.7500000000000077
 40
0.7500000000000077
 40
0.8750000000000039
 40
0.8750000000000039
 40
1.0
 40
1.0
 40
1.0
 40
1.0
 10
4583.016545069565
 20
2461.100725629427
 30
0.0
 10
4583.016289234928
 20
2461.100725629427
 30
0.0
 10
4583.016037688128
 20
2461.100725629427
 30
0.0
 10
4583.015692916612
 20
2461.100725629427
 30
0.0
 10
4583.015581406477
 20
2461.100725629427
 30
0.0
 10
4583.015374581289
 20
2461.100725629427
 30
0.0
 10
4583.01527918945
 20
2461.100725629427
 30
0.0
 10
4583.015104329874
 20
2461.100725629427
 30
0.0
 10
4583.015024574933
 20
2461.100725629427
 30
0.0
 10
4583.014887864747
 20
2461.100725629427
 30
0.0
 10
4583.014829945033
 20
2461.100725629427
 30
0.0
 10
4583.014735335559
 20
2461.100725629427
 30
0.0
 10
4583.014699274612
 20
2461.100725629427
 30
0.0
 10
4583.014651531875
 20
2461.100725629427
 30
0.0
 10
4583.014639347459
 20
2461.100725629427
 30
0.0
 10
4583.014639347459
 20
2461.100725629427
 30
0.0
  0
ARC
  5
1440
330
1F
100
AcDbEntity
  8
SANINDUSA
100
AcDbCircle
 10
4583.014639347459
 20
2461.103725629426
 30
0.0
 40
0.0030000000000002
100
AcDbArc
 50
177.9999999962464
 51
270.0
  0
ARC
  5
1442
330
1F
100
AcDbEntity
  8
SANINDUSA
100
AcDbCircle
 10
4582.943267288617
 20
2461.485725629426
 30
0.0
 40
0.005
100
AcDbArc
 50
90.0
 51
180.0
  0
SPLINE
  5
1443
330
1F
100
AcDbEntity
  8
SANINDUSA
100
AcDbSpline
210
0.0
220
0.0
230
1.0
 70
    24
 71
     3
 72
    21
 73
    17
 74
     0
 42
0.0000000001
 43
0.0000000001
 40
0.0
 40
0.0
 40
0.0
 40
0.0
 40
0.1250000000000002
 40
0.1250000000000002
 40
0.2500000000000004
 40
0.3750000000000005
 40
0.3750000000000005
 40
0.4374999999999991
 40
0.4374999999999991
 40
0.4999999999999975
 40
0.4999999999999975
 40
0.6249999999999975
 40
0.6249999999999975
 40
0.7499999999999974
 40
0.7499999999999974
 40
1.0
 40
1.0
 40
1.0
 40
1.0
 10
4582.943267288617
 20
2461.490725629426
 30
0.0
 10
4582.943267288617
 20
2461.490725629426
 30
0.0
 10
4582.943301030055
 20
2461.490725629426
 30
0.0
 10
4582.943434131132
 20
2461.490725629426
 30
0.0
 10
4582.943631484285
 20
2461.490725629426
 30
0.0
 10
4582.943953582255
 20
2461.490725629426
 30
0.0
 10
4582.944243342226
 20
2461.490725629426
 30
0.0
 10
4582.944348235659
 20
2461.490725629426
 30
0.0
 10
4582.94457094098
 20
2461.490725629426
 30
0.0
 10
4582.944689093719
 20
2461.490725629426
 30
0.0
 10
4582.945063565011
 20
2461.490725629426
 30
0.0
 10
4582.945339799954
 20
2461.490725629426
 30
0.0
 10
4582.945945773007
 20
2461.490725629426
 30
0.0
 10
4582.946278435081
 20
2461.490725629426
 30
0.0
 10
4582.947332271659
 20
2461.490725629426
 30
0.0
 10
4582.94811009439
 20
2461.490725629426
 30
0.0
 10
4582.948965071448
 20
2461.490725629426
 30
0.0
  0
SPLINE
  5
1446
330
1F
100
AcDbEntity
  8
SANINDUSA
100
AcDbSpline
210
0.0
220
0.0
230
1.0
 70
    24
 71
     3
 72
     8
 73
     4
 74
     0
 42
0.0000000001
 43
0.0000000001
 40
0.0
 40
0.0
 40
0.0
 40
0.0
 40
1.0
 40
1.0
 40
1.0
 40
1.0
 10
4582.938267288617
 20
2461.463877768491
 30
0.0
 10
4582.938267288617
 20
2461.471159252628
 30
0.0
 10
4582.938267288617
 20
2461.478441968378
 30
0.0
 10
4582.938267288617
 20
2461.485725629426
 30
0.0
  0
SPLINE
  5
1447
330
1F
100
AcDbEntity
  8
SANINDUSA
100
AcDbSpline
210
0.0
220
0.0
230
1.0
 70
     8
 71
     3
 72
    48
 73
    44
 74
     0
 42
0.0000000001
 43
0.0000000001
 40
0.0
 40
0.0
 40
0.0
 40
0.0
 40
0.0625000000000016
 40
0.0625000000000016
 40
0.0937500000000022
 40
0.0937500000000022
 40
0.1250000000000029
 40
0.1250000000000029
 40
0.1875000000000042
 40
0.1875000000000042
 40
0.2500000000000055
 40
0.2500000000000055
 40
0.3125000000000067
 40
0.3125000000000067
 40
0.3437500000000078
 40
0.3437500000000078
 40
0.3750000000000088
 40
0.3750000000000088
 40
0.4375000000000099
 40
0.4375000000000099
 40
0.5000000000000108
 40
0.5000000000000108
 40
0.5312500000000111
 40
0.5312500000000111
 40
0.5625000000000111
 40
0.5625000000000111
 40
0.6250000000000112
 40
0.6250000000000112
 40
0.6875000000000114
 40
0.6875000000000114
 40
0.7500000000000114
 40
0.7500000000000114
 40
0.7656250000000112
 40
0.7656250000000112
 40
0.7812500000000111
 40
0.7812500000000111
 40
0.8125000000000094
 40
0.8125000000000094
 40
0.8750000000000063
 40
0.8750000000000063
 40
0.9375000000000031
 40
0.9375000000000031
 40
1.0
 40
1.0
 40
1.0
 40
1.0
 10
4583.369412284118
 20
2461.324658251326
 30
0.0
 10
4583.369412284118
 20
2461.324658251326
 30
0.0
 10
4583.369256449817
 20
2461.324668775427
 30
0.0
 10
4583.368791040314
 20
2461.324697006238
 30
0.0
 10
4583.368597228363
 20
2461.324708506736
 30
0.0
 10
4583.368131815755
 20
2461.324735222929
 30
0.0
 10
4583.367860251362
 20
2461.324750433945
 30
0.0
 10
4583.366936071387
 20
2461.324800741913
 30
0.0
 10
4583.366172587572
 20
2461.324840490883
 30
0.0
 10
4583.364358207506
 20
2461.324927363411
 30
0.0
 10
4583.363307296216
 20
2461.324974473502
 30
0.0
 10
4583.360917575818
 20
2461.325073068011
 30
0.0
 10
4583.359578787582
 20
2461.325124491015
 30
0.0
 10
4583.357348574015
 20
2461.325200614689
 30
0.0
 10
4583.356566668464
 20
2461.32522587061
 30
0.0
 10
4583.354944571015
 20
2461.325275059526
 30
0.0
 10
4583.354102725698
 20
2461.325299057393
 30
0.0
 10
4583.351486353026
 20
2461.325368799958
 30
0.0
 10
4583.349621188212
 20
2461.325412139713
 30
0.0
 10
4583.345652343563
 20
2461.325489579382
 30
0.0
 10
4583.343548662332
 20
2461.325523707951
 30
0.0
 10
4583.340211969588
 20
2461.325567628336
 30
0.0
 10
4583.339069495105
 20
2461.325581015676
 30
0.0
 10
4583.336723067616
 20
2461.325604723149
 30
0.0
 10
4583.335515775313
 20
2461.325615062067
 30
0.0
 10
4583.331831577558
 20
2461.325640672536
 30
0.0
 10
4583.329290771991
 20
2461.325650526273
 30
0.0
 10
4583.324044744569
 20
2461.325655931717
 30
0.0
 10
4583.32133951026
 20
2461.325651520049
 30
0.0
 10
4583.315765054551
 20
2461.325630605727
 30
0.0
 10
4583.312895839822
 20
2461.325614158033
 30
0.0
 10
4583.309204374152
 20
2461.325587997889
 30
0.0
 10
4583.308460822684
 20
2461.325582474094
 30
0.0
 10
4583.30696309641
 20
2461.325570831315
 30
0.0
 10
4583.306207906935
 20
2461.325564703514
 30
0.0
 10
4583.303935996357
 20
2461.325545512943
 30
0.0
 10
4583.302412228303
 20
2461.325531636274
 30
0.0
 10
4583.297813965754
 20
2461.325487123844
 30
0.0
 10
4583.294712572368
 20
2461.325453569341
 30
0.0
 10
4583.288439287746
 20
2461.325382019456
 30
0.0
 10
4583.285267394104
 20
2461.325344071968
 30
0.0
 10
4583.278852487829
 20
2461.325267794602
 30
0.0
 10
4583.275609481337
 20
2461.325229503745
 30
0.0
 10
4583.272329641612
 20
2461.325192721613
 30
0.0
  0
ARC
  5
1448
330
1F
100
AcDbEntity
  8
SANINDUSA
100
AcDbCircle
 10
4583.389404486419
 20
2461.3252166841
 30
0.0
 40
0.0200000000000003
100
AcDbArc
 50
148.1180326273171
 51
181.6000000025688
  0
ARC
  5
1449
330
1F
100
AcDbEntity
  8
SANINDUSA
100
AcDbCircle
 10
4582.943371853303
 20
2461.463830072107
 30
0.0
 40
0.0051047875156821
100
AcDbArc
 50
179.46465132985
 51
269.3340261876758
  0
SPLINE
  5
144A
330
1F
100
AcDbEntity
  8
SANINDUSA
100
AcDbSpline
210
0.0
220
0.0
230
1.0
 70
    24
 71
     3
 72
    20
 73
    16
 74
     0
 42
0.0000000001
 43
0.0000000001
 40
0.0
 40
0.0
 40
0.0
 40
0.0
 40
0.1250000000000002
 40
0.1250000000000002
 40
0.2500000000000003
 40
0.2500000000000003
 40
0.3750000000000005
 40
0.3750000000000005
 40
0.5000000000000007
 40
0.5000000000000007
 40
0.6250000000000009
 40
0.6250000000000009
 40
0.750000000000001
 40
0.750000000000001
 40
1.0
 40
1.0
 40
1.0
 40
1.0
 10
4582.949287886328
 20
2461.458725629427
 30
0.0
 10
4582.948876247065
 20
2461.458725629427
 30
0.0
 10
4582.948476923464
 20
2461.458725629427
 30
0.0
 10
4582.947716909514
 20
2461.458725629427
 30
0.0
 10
4582.947354375646
 20
2461.458725629427
 30
0.0
 10
4582.946663936753
 20
2461.458725629427
 30
0.0
 10
4582.946335127283
 20
2461.458725629427
 30
0.0
 10
4582.945717512243
 20
2461.458725629427
 30
0.0
 10
4582.945433723927
 20
2461.458725629427
 30
0.0
 10
4582.944914331153
 20
2461.458725629427
 30
0.0
 10
4582.944678731486
 20
2461.458725629427
 30
0.0
 10
4582.944256481884
 20
2461.458725629427
 30
0.0
 10
4582.944069403889
 20
2461.458725629427
 30
0.0
 10
4582.943598743081
 20
2461.458725629427
 30
0.0
 10
4582.943397669938
 20
2461.458725629427
 30
0.0
 10
4582.94331251947
 20
2461.458725629427
 30
0.0
  0
SPLINE
  5
144C
330
1F
100
AcDbEntity
  8
SANINDUSA
100
AcDbSpline
210
0.0
220
0.0
230
1.0
 70
     8
 71
     3
 72
    10
 73
     6
 74
     0
 42
0.0000000001
 43
0.0000000001
 40
0.0
 40
0.0
 40
0.0
 40
0.0
 40
0.5
 40
0.5
 40
1.0
 40
1.0
 40
1.0
 40
1.0
 10
4583.076750512265
 20
2461.337141103641
 30
0.0
 10
4583.076820967415
 20
2461.337576655501
 30
0.0
 10
4583.076848849083
 20
2461.338012193297
 30
0.0
 10
4583.07683378895
 20
2461.338883356099
 30
0.0
 10
4583.076790658102
 20
2461.339318980192
 30
0.0
 10
4583.076713829961
 20
2461.339754694231
 30
0.0
  0
SPLINE
  5
144E
330
1F
100
AcDbEntity
  8
SANINDUSA
100
AcDbSpline
210
0.0
220
0.0
230
1.0
 70
     8
 71
     3
 72
    16
 73
    12
 74
     0
 42
0.0000000001
 43
0.0000000001
 40
0.0
 40
0.0
 40
0.0
 40
0.0
 40
0.25
 40
0.25
 40
0.5
 40
0.5
 40
0.75
 40
0.75
 40
0.875
 40
0.875
 40
1.0
 40
1.0
 40
1.0
 40
1.0
 10
4583.076367147135
 20
2461.335626652122
 30
0.0
 10
4583.07615872332
 20
2461.334874981704
 30
0.0
 10
4583.075930292996
 20
2461.334143530045
 30
0.0
 10
4583.075497803746
 20
2461.332681544671
 30
0.0
 10
4583.075291419828
 20
2461.331950716687
 30
0.0
 10
4583.074903630605
 20
2461.330470473144
 30
0.0
 10
4583.074721454759
 20
2461.329721259025
 30
0.0
 10
4583.074457738702
 20
2461.32858072291
 30
0.0
 10
4583.07437160247
 20
2461.328198862811
 30
0.0
 10
4583.07420111606
 20
2461.327432283485
 30
0.0
 10
4583.07411656926
 20
2461.327046684041
 30
0.0
 10
4583.074032741053
 20
2461.326663478187
 30
0.0
  0
LINE
  5
144F
330
1F
100
AcDbEntity
  8
SANINDUSA
100
AcDbLine
 10
4583.372582320918
 20
2461.100725629427
 30
0.0
 11
4583.272541183016
 21
2461.100725629427
 31
0.0
  0
SPLINE
  5
1450
330
1F
100
AcDbEntity
  8
SANINDUSA
100
AcDbSpline
210
0.0
220
0.0
230
1.0
 70
     8
 71
     3
 72
     8
 73
     4
 74
     0
 42
0.0000000001
 43
0.0000000001
 40
0.0
 40
0.0
 40
0.0
 40
0.0
 40
1.0
 40
1.0
 40
1.0
 40
1.0
 10
4583.076367147135
 20
2461.335626652122
 30
0.0
 10
4583.076539062584
 20
2461.336122112939
 30
0.0
 10
4583.076667352822
 20
2461.336627014189
 30
0.0
 10
4583.076750512265
 20
2461.337141103641
 30
0.0
  0
SPLINE
  5
145B
330
1F
100
AcDbEntity
  8
SANINDUSA
100
AcDbSpline
210
0.0
220
0.0
230
1.0
 70
    24
 71
     3
 72
     8
 73
     4
 74
     0
 42
0.0000000001
 43
0.0000000001
 40
0.0
 40
0.0
 40
0.0
 40
0.0
 40
1.0
 40
1.0
 40
1.0
 40
1.0
 10
4583.019427703395
 20
2461.32680732784
 30
0.0
 10
4583.019442624501
 20
2461.327234612435
 30
0.0
 10
4583.01945725412
 20
2461.327653549863
 30
0.0
 10
4583.019471591961
 20
2461.328064131919
 30
0.0
  0
SPLINE
  5
145C
330
1F
100
AcDbEntity
  8
SANINDUSA
100
AcDbSpline
210
0.0
220
0.0
230
1.0
 70
     8
 71
     3
 72
    10
 73
     6
 74
     0
 42
0.0000000001
 43
0.0000000001
 40
0.0
 40
0.0
 40
0.0
 40
0.0
 40
0.5
 40
0.5
 40
1.0
 40
1.0
 40
1.0
 40
1.0
 10
4583.019471591961
 20
2461.328064131919
 30
0.0
 10
4583.019489324653
 20
2461.328571929815
 30
0.0
 10
4583.019526420236
 20
2461.329069369489
 30
0.0
 10
4583.01962957941
 20
2461.330012438134
 30
0.0
 10
4583.019695425329
 20
2461.330458621019
 30
0.0
 10
4583.019769529516
 20
2461.330874512771
 30
0.0
  0
SPLINE
  5
1462
330
1F
100
AcDbEntity
  8
SANINDUSA
100
AcDbSpline
210
0.0
220
0.0
230
1.0
 70
     8
 71
     3
 72
     8
 73
     4
 74
     0
 42
0.0000000001
 43
0.0000000001
 40
0.0
 40
0.0
 40
0.0
 40
0.0
 40
1.0
 40
1.0
 40
1.0
 40
1.0
 10
4583.019769529516
 20
2461.330874512771
 30
0.0
 10
4583.019883791961
 20
2461.331515782989
 30
0.0
 10
4583.02002953951
 20
2461.33215280246
 30
0.0
 10
4583.020207620474
 20
2461.332785427706
 30
0.0
  0
SPLINE
  5
1464
330
1F
100
AcDbEntity
  8
SANINDUSA
100
AcDbSpline
210
0.0
220
0.0
230
1.0
 70
    24
 71
     3
 72
     8
 73
     4
 74
     0
 42
0.0000000001
 43
0.0000000001
 40
0.0
 40
0.0
 40
0.0
 40
0.0
 40
1.0
 40
1.0
 40
1.0
 40
1.0
 10
4583.020207620474
 20
2461.332785427706
 30
0.0
 10
4583.027252188982
 20
2461.357810965512
 30
0.0
 10
4583.03425450549
 20
2461.382686404837
 30
0.0
 10
4583.041222592299
 20
2461.407440244569
 30
0.0
  0
ARC
  5
1466
330
1F
100
AcDbEntity
  8
SANINDUSA
100
AcDbCircle
 10
4583.063432828187
 20
2461.393625026734
 30
0.0
 40
0.0220008266185041
100
AcDbArc
 50
90.25285544306139
 51
103.1925737718371
  0
LINE
  5
1468
330
1F
100
AcDbEntity
  8
SANINDUSA
100
AcDbLine
 10
4583.042751828252
 20
2461.41287279194
 30
0.0
 11
4583.035219404432
 21
2461.458725629427
 31
0.0
  0
SPLINE
  5
1469
330
1F
100
AcDbEntity
  8
SANINDUSA
100
AcDbSpline
210
0.0
220
0.0
230
1.0
 70
    24
 71
     3
 72
     8
 73
     4
 74
     0
 42
0.0000000001
 43
0.0000000001
 40
0.0
 40
0.0
 40
0.0
 40
0.0
 40
1.0
 40
1.0
 40
1.0
 40
1.0
 10
4583.04740761308
 20
2461.41508829261
 30
0.0
 10
4583.051075653688
 20
2461.415077688966
 30
0.0
 10
4583.05474368643
 20
2461.41506355475
 30
0.0
 10
4583.058411696561
 20
2461.415045218356
 30
0.0
  0
LINE
  5
146A
330
1F
100
AcDbEntity
  8
SANINDUSA
100
AcDbLine
 10
4583.041641770464
 20
2461.408929357633
 30
0.0
 11
4583.041222592299
 21
2461.407440244569
 31
0.0
  0
LINE
  5
146C
330
1F
100
AcDbEntity
  8
SANINDUSA
100
AcDbLine
 10
4583.043378368234
 20
2461.415098549274
 30
0.0
 11
4583.041641770464
 21
2461.408929357633
 31
0.0
  0
SPLINE
  5
146E
330
1F
100
AcDbEntity
  8
SANINDUSA
100
AcDbSpline
210
0.0
220
0.0
230
1.0
 70
    24
 71
     3
 72
     8
 73
     4
 74
     0
 42
0.0000000001
 43
0.0000000001
 40
0.0
 40
0.0
 40
0.0
 40
0.0
 40
1.0
 40
1.0
 40
1.0
 40
1.0
 10
4583.043378368248
 20
2461.415098553608
 30
0.0
 10
4583.044721451265
 20
2461.415095584503
 30
0.0
 10
4583.04606453291
 20
2461.415092175213
 30
0.0
 10
4583.04740761308
 20
2461.41508829261
 30
0.0
  0
SPLINE
  5
1472
330
1F
100
AcDbEntity
  8
SANINDUSA
100
AcDbSpline
210
0.0
220
0.0
230
1.0
 70
     8
 71
     3
 72
    38
 73
    34
 74
     0
 42
0.0000000001
 43
0.0000000001
 40
0.0
 40
0.0
 40
0.0
 40
0.0
 40
0.0340228553316918
 40
0.078163191078631
 40
0.1158791860135281
 40
0.1484516189972455
 40
0.1801334516928211
 40
0.2113443495925244
 40
0.2573694291384503
 40
0.3025843651768649
 40
0.3474893301233648
 40
0.3934317215066682
 40
0.4122518711428188
 40
0.4313729004885835
 40
0.4508269480606428
 40
0.4705022100650088
 40
0.4875591116447578
 40
0.503631087304516
 40
0.5139043635013114
 40
0.518616390241046
 40
0.5254336623465658
 40
0.5343647399788539
 40
0.5454137770298935
 40
0.5675041936469097
 40
0.5950325448442162
 40
0.6280069058724829
 40
0.6664353614505174
 40
0.7103262495852539
 40
0.7596882069397524
 40
0.8145301561332068
 40
0.8748612989837113
 40
0.9406911564991437
 40
1.0
 40
1.0
 40
1.0
 40
1.0
 10
4582.723898178115
 20
2461.335058503815
 30
0.0
 10
4582.724316381494
 20
2461.335918825476
 30
0.0
 10
4582.725277150667
 20
2461.337895305279
 30
0.0
 10
4582.72682877939
 20
2461.341051634293
 30
0.0
 10
4582.728466367897
 20
2461.34437348725
 30
0.0
 10
4582.73007469118
 20
2461.347630064375
 30
0.0
 10
4582.731650128757
 20
2461.350820725959
 30
0.0
 10
4582.733533957932
 20
2461.354642459267
 30
0.0
 10
4582.735767693255
 20
2461.359191842642
 30
0.0
 10
4582.738388245398
 20
2461.364571381239
 30
0.0
 10
4582.741161028063
 20
2461.370324561241
 30
0.0
 10
4582.743620652013
 20
2461.375500367637
 30
0.0
 10
4582.745570031764
 20
2461.379655819267
 30
0.0
 10
4582.746929685461
 20
2461.382577186473
 30
0.0
 10
4582.748329601873
 20
2461.38561107183
 30
0.0
 10
4582.749697800267
 20
2461.388603875433
 30
0.0
 10
4582.750984658565
 20
2461.391444753725
 30
0.0
 10
4582.752047279505
 20
2461.393810743695
 30
0.0
 10
4582.752820429003
 20
2461.395544321863
 30
0.0
 10
4582.753385766587
 20
2461.396817251781
 30
0.0
 10
4582.753917605994
 20
2461.398018942213
 30
0.0
 10
4582.754613823884
 20
2461.399599691258
 30
0.0
 10
4582.755702968737
 20
2461.402088118207
 30
0.0
 10
4582.757262152595
 20
2461.405688182559
 30
0.0
 10
4582.759358190608
 20
2461.41060618639
 30
0.0
 10
4582.761828223627
 20
2461.416518559514
 30
0.0
 10
4582.764649366409
 20
2461.423435901142
 30
0.0
 10
4582.76779462859
 20
2461.431370203266
 30
0.0
 10
4582.771232199524
 20
2461.440334717395
 30
0.0
 10
4582.774927449031
 20
2461.450343120333
 30
0.0
 10
4582.77883324207
 20
2461.461412269914
 30
0.0
 10
4582.782680790971
 20
2461.47280984784
 30
0.0
 10
4582.785108407516
 20
2461.48055507899
 30
0.0
 10
4582.786258963888
 20
2461.484225891444
 30
0.0
  0
ARC
  5
1475
330
1F
100
AcDbEntity
  8
SANINDUSA
100
AcDbCircle
 10
4582.501314880775
 20
2461.103725629426
 30
0.0
 40
0.0029999999999998
100
AcDbArc
 50
178.3999999974311
 51
270.0
  0
ARC
  5
1476
330
1F
100
AcDbEntity
  8
SANINDUSA
100
AcDbCircle
 10
4582.725144945377
 20
2461.103725629426
 30
0.0
 40
0.0029999999999998
100
AcDbArc
 50
270.0
 51
1.600000002568872
  0
SPLINE
  5
1477
330
1F
100
AcDbEntity
  8
SANINDUSA
100
AcDbSpline
210
0.0
220
0.0
230
1.0
 70
    24
 71
     1
 72
     4
 73
     2
 74
     0
 42
0.0000000001
 43
0.0000000001
 40
0.0
 40
0.0
 40
1.0
 40
1.0
 10
4582.728143775722
 20
2461.103809394343
 30
0.0
 10
4582.721939245339
 20
2461.325935014957
 30
0.0
  0
SPLINE
  5
1478
330
1F
100
AcDbEntity
  8
SANINDUSA
100
AcDbSpline
210
0.0
220
0.0
230
1.0
 70
    24
 71
     1
 72
     4
 73
     2
 74
     0
 42
0.0000000001
 43
0.0000000001
 40
0.0
 40
0.0
 40
1.0
 40
1.0
 10
4582.504520580811
 20
2461.325935014957
 30
0.0
 10
4582.498316050428
 20
2461.103809394343
 30
0.0
  0
SPLINE
  5
1479
330
1F
100
AcDbEntity
  8
SANINDUSA
100
AcDbSpline
210
0.0
220
0.0
230
1.0
 70
     8
 71
     3
 72
    12
 73
     8
 74
     0
 42
0.0000000001
 43
0.0000000001
 40
0.0
 40
0.0
 40
0.0
 40
0.0
 40
0.1015233246441911
 40
0.3657525378785356
 40
0.6267178965081641
 40
0.8844282267277241
 40
1.0
 40
1.0
 40
1.0
 40
1.0
 10
4582.721976471023
 20
2461.325937232597
 30
0.0
 10
4582.721958118389
 20
2461.326252064748
 30
0.0
 10
4582.721892000358
 20
2461.327386293349
 30
0.0
 10
4582.72210474035
 20
2461.329400622199
 30
0.0
 10
4582.72262663596
 20
2461.331837010626
 30
0.0
 10
4582.723263975835
 20
2461.333747834271
 30
0.0
 10
4582.72377137432
 20
2461.334741418563
 30
0.0
 10
4582.723928469831
 20
2461.335049041933
 30
0.0
  0
SPLINE
  5
147A
330
1F
100
AcDbEntity
  8
SANINDUSA
100
AcDbSpline
210
0.0
220
0.0
230
1.0
 70
     8
 71
     3
 72
    12
 73
     8
 74
     0
 42
0.0000000001
 43
0.0000000001
 40
0.0
 40
0.0
 40
0.0
 40
0.0
 40
0.1876631994792136
 40
0.4540224023532144
 40
0.7172251268978526
 40
0.9771419405588359
 40
1.0
 40
1.0
 40
1.0
 40
1.0
 10
4582.502530878509
 20
2461.335052123537
 30
0.0
 10
4582.502776525106
 20
2461.334541739756
 30
0.0
 10
4582.50337082947
 20
2461.333306944279
 30
0.0
 10
4582.50402936817
 20
2461.331115012491
 30
0.0
 10
4582.504446015694
 20
2461.328636190686
 30
0.0
 10
4582.504585544763
 20
2461.326876526058
 30
0.0
 10
4582.50451478564
 20
2461.326008424205
 30
0.0
 10
4582.504509065838
 20
2461.325938251338
 30
0.0
  0
ARC
  5
147C
330
1F
100
AcDbEntity
  8
SANINDUSA
100
AcDbCircle
 10
4582.444935074883
 20
2461.485725629426
 30
0.0
 40
0.0050000020784447
100
AcDbArc
 50
90.0
 51
197.2337367363299
  0
SPLINE
  5
147D
330
1F
100
AcDbEntity
  8
SANINDUSA
100
AcDbSpline
210
0.0
220
0.0
230
1.0
 70
    24
 71
     3
 72
    58
 73
    54
 74
     0
 42
0.0000000001
 43
0.0000000001
 40
0.0
 40
0.0
 40
0.0
 40
0.0
 40
0.0625000000000006
 40
0.0625000000000006
 40
0.1250000000000011
 40
0.1250000000000011
 40
0.1406250000000009
 40
0.1406250000000009
 40
0.1562500000000008
 40
0.1562500000000008
 40
0.187500000000001
 40
0.187500000000001
 40
0.2500000000000009
 40
0.2500000000000009
 40
0.3125000000000008
 40
0.3125000000000008
 40
0.3750000000000007
 40
0.3750000000000007
 40
0.4062500000000004
 40
0.4062500000000004
 40
0.4218750000000001
 40
0.4218750000000001
 40
0.4374999999999999
 40
0.4374999999999999
 40
0.4687499999999997
 40
0.4687499999999997
 40
0.4843749999999997
 40
0.4843749999999997
 40
0.4999999999999996
 40
0.4999999999999996
 40
0.562500000000002
 40
0.562500000000002
 40
0.6250000000000046
 40
0.6250000000000046
 40
0.6875000000000071
 40
0.6875000000000071
 40
0.7031250000000072
 40
0.7031250000000072
 40
0.7187500000000073
 40
0.7187500000000073
 40
0.7500000000000071
 40
0.7500000000000071
 40
0.8125000000000055
 40
0.8125000000000055
 40
0.8437500000000049
 40
0.8437500000000049
 40
0.8593750000000046
 40
0.8593750000000046
 40
0.8750000000000042
 40
0.8750000000000042
 40
0.9375000000000021
 40
0.9375000000000021
 40
1.0
 40
1.0
 40
1.0
 40
1.0
 10
4582.444935074883
 20
2461.490725629426
 30
0.0
 10
4582.444934465308
 20
2461.490725629426
 30
0.0
 10
4582.445143390965
 20
2461.490725629426
 30
0.0
 10
4582.445972729985
 20
2461.490725629426
 30
0.0
 10
4582.446594397385
 20
2461.490725629426
 30
0.0
 10
4582.447641609166
 20
2461.490725629426
 30
0.0
 10
4582.447864539147
 20
2461.490725629426
 30
0.0
 10
4582.44833817842
 20
2461.490725629426
 30
0.0
 10
4582.448588867424
 20
2461.490725629426
 30
0.0
 10
4582.449380243786
 20
2461.490725629426
 30
0.0
 10
4582.449961516925
 20
2461.490725629426
 30
0.0
 10
4582.451873380736
 20
2461.490725629426
 30
0.0
 10
4582.453371818203
 20
2461.490725629426
 30
0.0
 10
4582.456817180578
 20
2461.490725629426
 30
0.0
 10
4582.458763952894
 20
2461.490725629426
 30
0.0
 10
4582.463118850458
 20
2461.490725629426
 30
0.0
 10
4582.465527023472
 20
2461.490725629426
 30
0.0
 10
4582.469506067905
 20
2461.490725629426
 30
0.0
 10
4582.470893636513
 20
2461.490725629426
 30
0.0
 10
4582.473070671397
 20
2461.490725629426
 30
0.0
 10
4582.473812836233
 20
2461.490725629426
 30
0.0
 10
4582.475325810333
 20
2461.490725629426
 30
0.0
 10
4582.47609687358
 20
2461.490725629426
 30
0.0
 10
4582.478454336293
 20
2461.490725629426
 30
0.0
 10
4582.480084977929
 20
2461.490725629426
 30
0.0
 10
4582.482622160948
 20
2461.490725629426
 30
0.0
 10
4582.483483367533
 20
2461.490725629426
 30
0.0
 10
4582.485231113627
 20
2461.490725629426
 30
0.0
 10
4582.486118287508
 20
2461.490725629426
 30
0.0
 10
4582.490621005885
 20
2461.490725629426
 30
0.0
 10
4582.494436482799
 20
2461.490725629426
 30
0.0
 10
4582.502512740072
 20
2461.490725629426
 30
0.0
 10
4582.506773620774
 20
2461.490725629426
 30
0.0
 10
4582.515774315847
 20
2461.490725629426
 30
0.0
 10
4582.520513640218
 20
2461.490725629426
 30
0.0
 10
4582.526773900687
 20
2461.490725629426
 30
0.0
 10
4582.528045029569
 20
2461.490725629426
 30
0.0
 10
4582.530609161595
 20
2461.490725629426
 30
0.0
 10
4582.531902085861
 20
2461.490725629426
 30
0.0
 10
4582.535813575441
 20
2461.490725629426
 30
0.0
 10
4582.538464815126
 20
2461.490725629426
 30
0.0
 10
4582.546551939618
 20
2461.490725629426
 30
0.0
 10
4582.552120898418
 20
2461.490725629426
 30
0.0
 10
4582.560761962016
 20
2461.490725629426
 30
0.0
 10
4582.563690145993
 20
2461.490725629426
 30
0.0
 10
4582.568157765019
 20
2461.490725629426
 30
0.0
 10
4582.569659554835
 20
2461.490725629426
 30
0.0
 10
4582.572689009835
 20
2461.490725629426
 30
0.0
 10
4582.574212934924
 20
2461.490725629426
 30
0.0
 10
4582.581844338024
 20
2461.490725629426
 30
0.0
 10
4582.588020160911
 20
2461.490725629426
 30
0.0
 10
4582.600515297746
 20
2461.490725629426
 30
0.0
 10
4582.60683464498
 20
2461.490725629426
 30
0.0
 10
4582.613229913076
 20
2461.490725629426
 30
0.0
  0
SPLINE
  5
147E
330
1F
100
AcDbEntity
  8
SANINDUSA
100
AcDbSpline
210
0.0
220
0.0
230
1.0
 70
    24
 71
     3
 72
    58
 73
    54
 74
     0
 42
0.0000000001
 43
0.0000000001
 40
0.0
 40
0.0
 40
0.0
 40
0.0
 40
0.0625000000000006
 40
0.0625000000000006
 40
0.1250000000000011
 40
0.1250000000000011
 40
0.1406250000000009
 40
0.1406250000000009
 40
0.1562500000000008
 40
0.1562500000000008
 40
0.187500000000001
 40
0.187500000000001
 40
0.2500000000000009
 40
0.2500000000000009
 40
0.3125000000000008
 40
0.3125000000000008
 40
0.3750000000000007
 40
0.3750000000000007
 40
0.4062500000000004
 40
0.4062500000000004
 40
0.4218750000000001
 40
0.4218750000000001
 40
0.4374999999999999
 40
0.4374999999999999
 40
0.4687499999999997
 40
0.4687499999999997
 40
0.4843749999999997
 40
0.4843749999999997
 40
0.4999999999999996
 40
0.4999999999999996
 40
0.562500000000002
 40
0.562500000000002
 40
0.6250000000000046
 40
0.6250000000000046
 40
0.6875000000000071
 40
0.6875000000000071
 40
0.7031250000000072
 40
0.7031250000000072
 40
0.7187500000000073
 40
0.7187500000000073
 40
0.7500000000000071
 40
0.7500000000000071
 40
0.8125000000000055
 40
0.8125000000000055
 40
0.8437500000000049
 40
0.8437500000000049
 40
0.8593750000000046
 40
0.8593750000000046
 40
0.8750000000000042
 40
0.8750000000000042
 40
0.9375000000000021
 40
0.9375000000000021
 40
1.0
 40
1.0
 40
1.0
 40
1.0
 10
4582.781524751267
 20
2461.490725629426
 30
0.0
 10
4582.781525360842
 20
2461.490725629426
 30
0.0
 10
4582.781316435187
 20
2461.490725629426
 30
0.0
 10
4582.780487096165
 20
2461.490725629426
 30
0.0
 10
4582.779865428765
 20
2461.490725629426
 30
0.0
 10
4582.778818216985
 20
2461.490725629426
 30
0.0
 10
4582.778595287004
 20
2461.490725629426
 30
0.0
 10
4582.778121647731
 20
2461.490725629426
 30
0.0
 10
4582.777870958728
 20
2461.490725629426
 30
0.0
 10
4582.777079582364
 20
2461.490725629426
 30
0.0
 10
4582.776498309225
 20
2461.490725629426
 30
0.0
 10
4582.774586445416
 20
2461.490725629426
 30
0.0
 10
4582.773088007949
 20
2461.490725629426
 30
0.0
 10
4582.769642645573
 20
2461.490725629426
 30
0.0
 10
4582.767695873257
 20
2461.490725629426
 30
0.0
 10
4582.763340975692
 20
2461.490725629426
 30
0.0
 10
4582.760932802678
 20
2461.490725629426
 30
0.0
 10
4582.756953758247
 20
2461.490725629426
 30
0.0
 10
4582.755566189639
 20
2461.490725629426
 30
0.0
 10
4582.753389154753
 20
2461.490725629426
 30
0.0
 10
4582.752646989919
 20
2461.490725629426
 30
0.0
 10
4582.751134015818
 20
2461.490725629426
 30
0.0
 10
4582.750362952572
 20
2461.490725629426
 30
0.0
 10
4582.748005489857
 20
2461.490725629426
 30
0.0
 10
4582.746374848222
 20
2461.490725629426
 30
0.0
 10
4582.743837665202
 20
2461.490725629426
 30
0.0
 10
4582.742976458617
 20
2461.490725629426
 30
0.0
 10
4582.741228712523
 20
2461.490725629426
 30
0.0
 10
4582.740341538644
 20
2461.490725629426
 30
0.0
 10
4582.735838820265
 20
2461.490725629426
 30
0.0
 10
4582.732023343352
 20
2461.490725629426
 30
0.0
 10
4582.723947086079
 20
2461.490725629426
 30
0.0
 10
4582.719686205376
 20
2461.490725629426
 30
0.0
 10
4582.710685510303
 20
2461.490725629426
 30
0.0
 10
4582.705946185932
 20
2461.490725629426
 30
0.0
 10
4582.699685925464
 20
2461.490725629426
 30
0.0
 10
4582.698414796582
 20
2461.490725629426
 30
0.0
 10
4582.695850664555
 20
2461.490725629426
 30
0.0
 10
4582.69455774029
 20
2461.490725629426
 30
0.0
 10
4582.69064625071
 20
2461.490725629426
 30
0.0
 10
4582.687995011024
 20
2461.490725629426
 30
0.0
 10
4582.679907886533
 20
2461.490725629426
 30
0.0
 10
4582.674338927733
 20
2461.490725629426
 30
0.0
 10
4582.665697864135
 20
2461.490725629426
 30
0.0
 10
4582.662769680157
 20
2461.490725629426
 30
0.0
 10
4582.658302061132
 20
2461.490725629426
 30
0.0
 10
4582.656800271315
 20
2461.490725629426
 30
0.0
 10
4582.653770816316
 20
2461.490725629426
 30
0.0
 10
4582.652246891226
 20
2461.490725629426
 30
0.0
 10
4582.644615488127
 20
2461.490725629426
 30
0.0
 10
4582.638439665239
 20
2461.490725629426
 30
0.0
 10
4582.625944528404
 20
2461.490725629426
 30
0.0
 10
4582.61962518117
 20
2461.490725629426
 30
0.0
 10
4582.613229913076
 20
2461.490725629426
 30
0.0
  0
ARC
  5
147F
330
1F
100
AcDbEntity
  8
SANINDUSA
100
AcDbCircle
 10
4582.781524751267
 20
2461.485725629426
 30
0.0
 40
0.0050000020784447
100
AcDbArc
 50
342.7662632636701
 51
90.0
  0
SPLINE
  5
1482
330
1F
100
AcDbEntity
  8
SANINDUSA
100
AcDbSpline
210
0.0
220
0.0
230
1.0
 70
     8
 71
     3
 72
    48
 73
    44
 74
     0
 42
0.0000000001
 43
0.0000000001
 40
0.0
 40
0.0
 40
0.0
 40
0.0
 40
0.0624999999999982
 40
0.0624999999999982
 40
0.1249999999999964
 40
0.1249999999999964
 40
0.1874999999999947
 40
0.1874999999999947
 40
0.2187499999999938
 40
0.2187499999999938
 40
0.2343749999999938
 40
0.2343749999999938
 40
0.2499999999999938
 40
0.2499999999999938
 40
0.3124999999999942
 40
0.3124999999999942
 40
0.3749999999999945
 40
0.3749999999999945
 40
0.4374999999999949
 40
0.4374999999999949
 40
0.4687499999999951
 40
0.4687499999999951
 40
0.4999999999999952
 40
0.4999999999999952
 40
0.5624999999999958
 40
0.5624999999999958
 40
0.6249999999999969
 40
0.6249999999999969
 40
0.6562499999999976
 40
0.6562499999999976
 40
0.6874999999999983
 40
0.6874999999999983
 40
0.7499999999999986
 40
0.7499999999999986
 40
0.8124999999999989
 40
0.8124999999999989
 40
0.8749999999999992
 40
0.8749999999999992
 40
0.9062499999999992
 40
0.9062499999999992
 40
0.9374999999999994
 40
0.9374999999999994
 40
1.0
 40
1.0
 40
1.0
 40
1.0
 10
4582.71949320384
 20
2461.33548064761
 30
0.0
 10
4582.719238129638
 20
2461.335457139655
 30
0.0
 10
4582.718825126747
 20
2461.33543278107
 30
0.0
 10
4582.717697160966
 20
2461.335384873493
 30
0.0
 10
4582.716982156322
 20
2461.335361279282
 30
0.0
 10
4582.715255195386
 20
2461.335316363232
 30
0.0
 10
4582.714243239314
 20
2461.335294997998
 30
0.0
 10
4582.712500259695
 20
2461.335266009674
 30
0.0
 10
4582.711881695495
 20
2461.335256863663
 30
0.0
 10
4582.710896607187
 20
2461.335244210589
 30
0.0
 10
4582.71055860707
 20
2461.335240171602
 30
0.0
 10
4582.709866986252
 20
2461.335232551218
 30
0.0
 10
4582.709512954242
 20
2461.335228964206
 30
0.0
 10
4582.70770213086
 20
2461.335212304055
 30
0.0
 10
4582.706123662642
 20
2461.335203364212
 30
0.0
 10
4582.702713911106
 20
2461.335193912581
 30
0.0
 10
4582.700882602628
 20
2461.335193321272
 30
0.0
 10
4582.696966934341
 20
2461.335199626241
 30
0.0
 10
4582.694882596264
 20
2461.335206497951
 30
0.0
 10
4582.69156096286
 20
2461.335222384483
 30
0.0
 10
4582.690420565401
 20
2461.335228626977
 30
0.0
 10
4582.688097308706
 20
2461.335242951892
 30
0.0
 10
4582.686911713071
 20
2461.335251045774
 30
0.0
 10
4582.683284010664
 20
2461.335278339457
 30
0.0
 10
4582.680771166262
 20
2461.335300795608
 30
0.0
 10
4582.675558031233
 20
2461.335350546127
 30
0.0
 10
4582.672857742895
 20
2461.3353777948
 30
0.0
 10
4582.668663687048
 20
2461.335420418863
 30
0.0
 10
4582.667241687587
 20
2461.335434945026
 30
0.0
 10
4582.664348718259
 20
2461.335464275677
 30
0.0
 10
4582.662874261703
 20
2461.335479111185
 30
0.0
 10
4582.658418366385
 20
2461.335523173
 30
0.0
 10
4582.655395664457
 20
2461.335552004274
 30
0.0
 10
4582.649247648759
 20
2461.335607433333
 30
0.0
 10
4582.646122327703
 20
2461.335634075578
 30
0.0
 10
4582.639767918696
 20
2461.335682196348
 30
0.0
 10
4582.6365388396
 20
2461.335703689947
 30
0.0
 10
4582.63161424939
 20
2461.335730929404
 30
0.0
 10
4582.629955844267
 20
2461.335739197517
 30
0.0
 10
4582.626628917938
 20
2461.335753638605
 30
0.0
 10
4582.62496208178
 20
2461.335759809714
 30
0.0
 10
4582.619951450541
 20
2461.335774802665
 30
0.0
 10
4582.61659755907
 20
2461.335780106358
 30
0.0
 10
4582.613229913076
 20
2461.335780106358
 30
0.0
  0
SPLINE
  5
1483
330
1F
100
AcDbEntity
  8
SANINDUSA
100
AcDbSpline
210
0.0
220
0.0
230
1.0
 70
     8
 71
     3
 72
    48
 73
    44
 74
     0
 42
0.0000000001
 43
0.0000000001
 40
0.0
 40
0.0
 40
0.0
 40
0.0
 40
0.0624999999999998
 40
0.0624999999999998
 40
0.1249999999999995
 40
0.1249999999999995
 40
0.1874999999999992
 40
0.1874999999999992
 40
0.2187499999999992
 40
0.2187499999999992
 40
0.2343749999999996
 40
0.2343749999999996
 40
0.25
 40
0.25
 40
0.3125000000000008
 40
0.3125000000000008
 40
0.3750000000000018
 40
0.3750000000000018
 40
0.4375000000000027
 40
0.4375000000000027
 40
0.4687500000000031
 40
0.4687500000000031
 40
0.5000000000000035
 40
0.5000000000000035
 40
0.5625000000000037
 40
0.5625000000000037
 40
0.6250000000000039
 40
0.6250000000000039
 40
0.6562500000000035
 40
0.6562500000000035
 40
0.6875000000000031
 40
0.6875000000000031
 40
0.7500000000000023
 40
0.7500000000000023
 40
0.8125000000000014
 40
0.8125000000000014
 40
0.8750000000000005
 40
0.8750000000000005
 40
0.9062500000000003
 40
0.9062500000000003
 40
0.9375000000000001
 40
0.9375000000000001
 40
1.0
 40
1.0
 40
1.0
 40
1.0
 10
4582.506966622311
 20
2461.33548064761
 30
0.0
 10
4582.507221696514
 20
2461.335457139655
 30
0.0
 10
4582.507634699404
 20
2461.33543278107
 30
0.0
 10
4582.508762665185
 20
2461.335384873493
 30
0.0
 10
4582.509477669828
 20
2461.335361279282
 30
0.0
 10
4582.511204630765
 20
2461.335316363232
 30
0.0
 10
4582.512216586837
 20
2461.335294997998
 30
0.0
 10
4582.513959566456
 20
2461.335266009674
 30
0.0
 10
4582.514578130656
 20
2461.335256863663
 30
0.0
 10
4582.515563218965
 20
2461.335244210589
 30
0.0
 10
4582.515901219081
 20
2461.335240171602
 30
0.0
 10
4582.516592839899
 20
2461.335232551218
 30
0.0
 10
4582.516946871909
 20
2461.335228964206
 30
0.0
 10
4582.518757695291
 20
2461.335212304055
 30
0.0
 10
4582.52033616351
 20
2461.335203364212
 30
0.0
 10
4582.523745915045
 20
2461.335193912581
 30
0.0
 10
4582.525577223523
 20
2461.335193321272
 30
0.0
 10
4582.52949289181
 20
2461.335199626241
 30
0.0
 10
4582.531577229886
 20
2461.335206497951
 30
0.0
 10
4582.53489886329
 20
2461.335222384483
 30
0.0
 10
4582.53603926075
 20
2461.335228626977
 30
0.0
 10
4582.538362517446
 20
2461.335242951892
 30
0.0
 10
4582.539548113079
 20
2461.335251045774
 30
0.0
 10
4582.543175815486
 20
2461.335278339457
 30
0.0
 10
4582.545688659889
 20
2461.335300795608
 30
0.0
 10
4582.550901794917
 20
2461.335350546127
 30
0.0
 10
4582.553602083255
 20
2461.3353777948
 30
0.0
 10
4582.557796139102
 20
2461.335420418863
 30
0.0
 10
4582.559218138565
 20
2461.335434945026
 30
0.0
 10
4582.562111107891
 20
2461.335464275677
 30
0.0
 10
4582.563585564447
 20
2461.335479111185
 30
0.0
 10
4582.568041459765
 20
2461.335523173
 30
0.0
 10
4582.571064161693
 20
2461.335552004274
 30
0.0
 10
4582.577212177391
 20
2461.335607433333
 30
0.0
 10
4582.580337498447
 20
2461.335634075578
 30
0.0
 10
4582.586691907454
 20
2461.335682196348
 30
0.0
 10
4582.589920986552
 20
2461.335703689947
 30
0.0
 10
4582.59484557676
 20
2461.335730929404
 30
0.0
 10
4582.596503981884
 20
2461.335739197517
 30
0.0
 10
4582.599830908213
 20
2461.335753638605
 30
0.0
 10
4582.60149774437
 20
2461.335759809714
 30
0.0
 10
4582.606508375609
 20
2461.335774802665
 30
0.0
 10
4582.60986226708
 20
2461.335780106358
 30
0.0
 10
4582.613229913076
 20
2461.335780106358
 30
0.0
  0
LINE
  5
148C
330
1F
100
AcDbEntity
  8
SANINDUSA
100
AcDbLine
 10
4582.720151757485
 20
2461.100725629427
 30
0.0
 11
4582.506308068666
 21
2461.100725629427
 31
0.0
  0
LINE
  5
148F
330
1F
100
AcDbEntity
  8
SANINDUSA
100
AcDbLine
 10
4582.506308068666
 20
2461.100725629427
 30
0.0
 11
4582.501314880775
 21
2461.100725629427
 31
0.0
  0
LINE
  5
1490
330
1F
100
AcDbEntity
  8
SANINDUSA
100
AcDbLine
 10
4582.720151757485
 20
2461.100725629427
 30
0.0
 11
4582.725144945377
 21
2461.100725629427
 31
0.0
  0
SPLINE
  5
1491
330
1F
100
AcDbEntity
  8
SANINDUSA
100
AcDbSpline
210
0.0
220
0.0
230
1.0
 70
     8
 71
     3
 72
    12
 73
     8
 74
     0
 42
0.0000000001
 43
0.0000000001
 40
0.0
 40
0.0
 40
0.0
 40
0.0
 40
0.0638171172498362
 40
0.2976923917845986
 40
0.5316278562803627
 40
0.7657693919631475
 40
1.0
 40
1.0
 40
1.0
 40
1.0
 10
4582.723838554931
 20
2461.335092256337
 30
0.0
 10
4582.723874000929
 20
2461.335116158664
 30
0.0
 10
4582.724039348476
 20
2461.335227657602
 30
0.0
 10
4582.723693547746
 20
2461.335345930859
 30
0.0
 10
4582.722929967046
 20
2461.335478648726
 30
0.0
 10
4582.721620594871
 20
2461.335559575198
 30
0.0
 10
4582.720202424083
 20
2461.335506960142
 30
0.0
 10
4582.71949320384
 20
2461.33548064761
 30
0.0
  0
SPLINE
  5
1492
330
1F
100
AcDbEntity
  8
SANINDUSA
100
AcDbSpline
210
0.0
220
0.0
230
1.0
 70
     8
 71
     3
 72
    12
 73
     8
 74
     0
 42
0.0000000001
 43
0.0000000001
 40
0.0
 40
0.0
 40
0.0
 40
0.0
 40
0.0638162284193136
 40
0.2976917249998816
 40
0.531627411598597
 40
0.7657691695799811
 40
1.0
 40
1.0
 40
1.0
 40
1.0
 10
4582.502621269883
 20
2461.335092257373
 30
0.0
 10
4582.502585824475
 20
2461.335116159336
 30
0.0
 10
4582.502420477746
 20
2461.335227657882
 30
0.0
 10
4582.502766278616
 20
2461.335345930832
 30
0.0
 10
4582.503529859049
 20
2461.335478648733
 30
0.0
 10
4582.504839231293
 20
2461.335559575196
 30
0.0
 10
4582.506257402072
 20
2461.335506960141
 30
0.0
 10
4582.506966622311
 20
2461.33548064761
 30
0.0
  0
SPLINE
  5
1497
330
1F
100
AcDbEntity
  8
SANINDUSA
100
AcDbSpline
210
0.0
220
0.0
230
1.0
 70
     8
 71
     3
 72
    27
 73
    23
 74
     0
 42
0.0000000001
 43
0.0000000001
 40
0.0
 40
0.0
 40
0.0
 40
0.0
 40
0.0237470048498197
 40
0.0660062424823655
 40
0.1114145736180357
 40
0.1609723588673367
 40
0.216597808017034
 40
0.2722688749692841
 40
0.32624172186867
 40
0.3802937411728983
 40
0.4343770619913235
 40
0.4884354907920123
 40
0.5424173588348755
 40
0.5962770256658949
 40
0.6499697738528618
 40
0.703454534615231
 40
0.7568739317004415
 40
0.8103633837855644
 40
0.8637441742739349
 40
0.9170581889134201
 40
0.9634027465104654
 40
1.0
 40
1.0
 40
1.0
 40
1.0
 10
4582.306449900196
 20
2461.27049429704
 30
0.0
 10
4582.306472855729
 20
2461.272572170279
 30
0.0
 10
4582.306536662028
 20
2461.27834774517
 30
0.0
 10
4582.306320276106
 20
2461.288096283702
 30
0.0
 10
4582.305834338256
 20
2461.300094372619
 30
0.0
 10
4582.305017861857
 20
2461.313247012197
 30
0.0
 10
4582.30392939818
 20
2461.327280825351
 30
0.0
 10
4582.302469027382
 20
2461.341669803627
 30
0.0
 10
4582.300703499891
 20
2461.355885476252
 30
0.0
 10
4582.298642053808
 20
2461.369920925422
 30
0.0
 10
4582.29626809456
 20
2461.383914480041
 30
0.0
 10
4582.29358443932
 20
2461.397845716069
 30
0.0
 10
4582.290595019587
 20
2461.411694537978
 30
0.0
 10
4582.287304165507
 20
2461.425441943569
 30
0.0
 10
4582.283717001168
 20
2461.439070066004
 30
0.0
 10
4582.279833667813
 20
2461.45257667286
 30
0.0
 10
4582.275654233328
 20
2461.46597598994
 30
0.0
 10
4582.271176383749
 20
2461.479268904892
 30
0.0
 10
4582.26640410237
 20
2461.492449393821
 30
0.0
 10
4582.261553431918
 20
2461.504932085833
 30
0.0
 10
4582.257022520752
 20
2461.515962139213
 30
0.0
 10
4582.254062553228
 20
2461.522589045028
 30
0.0
 10
4582.252756496845
 20
2461.525513101651
 30
0.0
  0
SPLINE
  5
1498
330
1F
100
AcDbEntity
  8
SANINDUSA
100
AcDbSpline
210
0.0
220
0.0
230
1.0
 70
     8
 71
     3
 72
    48
 73
    44
 74
     0
 42
0.0000000001
 43
0.0000000001
 40
0.0
 40
0.0
 40
0.0
 40
0.0
 40
0.0095443882298009
 40
0.0303708515262986
 40
0.0512577977490302
 40
0.072278383206584
 40
0.0934380280249413
 40
0.1147390507107993
 40
0.1361804221017073
 40
0.1577578887037845
 40
0.1794582481258979
 40
0.2012425385218472
 40
0.2233047946483422
 40
0.2456703643939943
 40
0.2683430332675948
 40
0.2913198751023077
 40
0.3145905667257021
 40
0.3381369285220411
 40
0.3618973018017386
 40
0.3860987343029747
 40
0.4106737642518059
 40
0.4354989874423452
 40
0.4606479141232758
 40
0.4861942132059323
 40
0.5122133006794734
 40
0.53874751598159
 40
0.5653858863708077
 40
0.5923380171414325
 40
0.619634647282104
 40
0.6472260597300941
 40
0.6750525338090773
 40
0.7030627664468972
 40
0.731355686998559
 40
0.7599223091227218
 40
0.7886869463449187
 40
0.8177012346241465
 40
0.8470163937980473
 40
0.8766269572282055
 40
0.9058028876168203
 40
0.9355166839848488
 40
0.9663313358139655
 40
0.9984939134431925
 40
1.0
 40
1.0
 40
1.0
 40
1.0
 10
4582.133121948021
 20
2461.049166836879
 30
0.0
 10
4582.134112181527
 20
2461.049158148916
 30
0.0
 10
4582.137263167643
 20
2461.049130503264
 30
0.0
 10
4582.142577103848
 20
2461.049421488651
 30
0.0
 10
4582.149058645637
 20
2461.050021963831
 30
0.0
 10
4582.155537777288
 20
2461.050953407744
 30
0.0
 10
4582.162007893072
 20
2461.052193782635
 30
0.0
 10
4582.168454827916
 20
2461.053748903862
 30
0.0
 10
4582.174863492723
 20
2461.055615939495
 30
0.0
 10
4582.181217479478
 20
2461.057792830409
 30
0.0
 10
4582.187496576188
 20
2461.060275503914
 30
0.0
 10
4582.193701503214
 20
2461.063062981545
 30
0.0
 10
4582.199837004691
 20
2461.066156489752
 30
0.0
 10
4582.205910235418
 20
2461.06956305307
 30
0.0
 10
4582.211909873604
 20
2461.073281001857
 30
0.0
 10
4582.21782154936
 20
2461.077306527776
 30
0.0
 10
4582.223629436962
 20
2461.081633843915
 30
0.0
 10
4582.229312893678
 20
2461.086253313985
 30
0.0
 10
4582.23487230547
 20
2461.091168185303
 30
0.0
 10
4582.24030758319
 20
2461.096375472096
 30
0.0
 10
4582.24560448424
 20
2461.101877931912
 30
0.0
 10
4582.250742256439
 20
2461.107661345512
 30
0.0
 10
4582.255711946707
 20
2461.113720670099
 30
0.0
 10
4582.260517880295
 20
2461.120066684521
 30
0.0
 10
4582.265162700198
 20
2461.12670764823
 30
0.0
 10
4582.269617164359
 20
2461.133613054695
 30
0.0
 10
4582.273858121171
 20
2461.140764321572
 30
0.0
 10
4582.27787218269
 20
2461.148135488666
 30
0.0
 10
4582.281660693658
 20
2461.155735711491
 30
0.0
 10
4582.285211541304
 20
2461.163549559382
 30
0.0
 10
4582.288509696965
 20
2461.171553517102
 30
0.0
 10
4582.29154644778
 20
2461.179737902857
 30
0.0
 10
4582.294318391596
 20
2461.188096657441
 30
0.0
 10
4582.296816853863
 20
2461.19662279654
 30
0.0
 10
4582.299034623765
 20
2461.205303454935
 30
0.0
 10
4582.300967256726
 20
2461.214131509112
 30
0.0
 10
4582.302613297655
 20
2461.223106625018
 30
0.0
 10
4582.303955891934
 20
2461.232149280239
 30
0.0
 10
4582.304986636626
 20
2461.241273997708
 30
0.0
 10
4582.305742430791
 20
2461.250551343694
 30
0.0
 10
4582.306202594746
 20
2461.260156610642
 30
0.0
 10
4582.30640448294
 20
2461.266845648217
 30
0.0
 10
4582.306385761385
 20
2461.270338474239
 30
0.0
 10
4582.306384923922
 20
2461.270494717394
 30
0.0
  0
SPLINE
  5
1499
330
1F
100
AcDbEntity
  8
SANINDUSA
100
AcDbSpline
210
0.0
220
0.0
230
1.0
 70
     8
 71
     3
 72
    47
 73
    43
 74
     0
 42
0.0000000001
 43
0.0000000001
 40
0.0
 40
0.0
 40
0.0
 40
0.0
 40
0.001740468149329
 40
0.0336876058344244
 40
0.0641297968036851
 40
0.096490170318637
 40
0.1274920792902282
 40
0.1573421535281823
 40
0.1865454978258763
 40
0.2159337276613988
 40
0.2450362215892428
 40
0.2739053219270191
 40
0.3025942545911846
 40
0.331178293549844
 40
0.3595697507675833
 40
0.3877578022195678
 40
0.4156928192929012
 40
0.4433113893490589
 40
0.4705618030482421
 40
0.4973841652069365
 40
0.5239244222532521
 40
0.5500939864607651
 40
0.5758025429442379
 40
0.601132507816331
 40
0.6261644869782334
 40
0.6509768491517553
 40
0.6756370287206504
 40
0.6996419961698157
 40
0.7233567933960102
 40
0.7467829197993911
 40
0.7699047538497178
 40
0.7927152223091475
 40
0.8152153695579066
 40
0.8374101018005005
 40
0.8592580834702749
 40
0.8809524084950519
 40
0.9025328510063387
 40
0.9239934453049244
 40
0.9453314317760028
 40
0.9665475329409936
 40
0.9876460712900506
 40
1.0
 40
1.0
 40
1.0
 40
1.0
 10
4581.959859774064
 20
2461.270494714058
 30
0.0
 10
4581.959858830014
 20
2461.270314156247
 30
0.0
 10
4581.95984055747
 20
2461.266819372192
 30
0.0
 10
4581.96004121298
 20
2461.260167057057
 30
0.0
 10
4581.960510786154
 20
2461.250348481642
 30
0.0
 10
4581.961310645296
 20
2461.240647557572
 30
0.0
 10
4581.962430959463
 20
2461.231040760765
 30
0.0
 10
4581.9638499081
 20
2461.221804628823
 30
0.0
 10
4581.965549826801
 20
2461.212786642771
 30
0.0
 10
4581.967542690045
 20
2461.20390812921
 30
0.0
 10
4581.969837327225
 20
2461.195138620873
 30
0.0
 10
4581.972420215696
 20
2461.186525330094
 30
0.0
 10
4581.975291170282
 20
2461.178060507181
 30
0.0
 10
4581.978445753492
 20
2461.169750174648
 30
0.0
 10
4581.981880667986
 20
2461.161608076084
 30
0.0
 10
4581.985582185782
 20
2461.153657873012
 30
0.0
 10
4581.989537960978
 20
2461.145920979028
 30
0.0
 10
4581.993732443488
 20
2461.138422095257
 30
0.0
 10
4581.998147607694
 20
2461.131185788375
 30
0.0
 10
4582.002776671867
 20
2461.124218381568
 30
0.0
 10
4582.00760233699
 20
2461.117523394833
 30
0.0
 10
4582.012616913623
 20
2461.11111465903
 30
0.0
 10
4582.017803733585
 20
2461.105008315014
 30
0.0
 10
4582.023155254756
 20
2461.099205289567
 30
0.0
 10
4582.028675904711
 20
2461.093693720953
 30
0.0
 10
4582.034369549545
 20
2461.088463241716
 30
0.0
 10
4582.040196832143
 20
2461.083545474773
 30
0.0
 10
4582.046142898774
 20
2461.078956101037
 30
0.0
 10
4582.052177911593
 20
2461.074702915564
 30
0.0
 10
4582.058317297971
 20
2461.070769068559
 30
0.0
 10
4582.064545012757
 20
2461.067160205371
 30
0.0
 10
4582.070844590218
 20
2461.063881402471
 30
0.0
 10
4582.077200882521
 20
2461.060935826879
 30
0.0
 10
4582.0835951192
 20
2461.058327346817
 30
0.0
 10
4582.090026375904
 20
2461.05605107353
 30
0.0
 10
4582.096496514167
 20
2461.054098173749
 30
0.0
 10
4582.103012812734
 20
2461.052462922234
 30
0.0
 10
4582.109563335906
 20
2461.051148077835
 30
0.0
 10
4582.116132038102
 20
2461.050150446685
 30
0.0
 10
4582.122703767393
 20
2461.049489455267
 30
0.0
 10
4582.128369281975
 20
2461.049149926038
 30
0.0
 10
4582.13184017323
 20
2461.049161624762
 30
0.0
 10
4582.133121966379
 20
2461.049165945078
 30
0.0
  0
SPLINE
  5
149A
330
1F
100
AcDbEntity
  8
SANINDUSA
100
AcDbSpline
210
0.0
220
0.0
230
1.0
 70
     8
 71
     3
 72
    28
 73
    24
 74
     0
 42
0.0000000001
 43
0.0000000001
 40
0.0
 40
0.0
 40
0.0
 40
0.0
 40
0.0127084333074971
 40
0.0585168616491496
 40
0.1071205265413802
 40
0.1579760341012483
 40
0.2111564969626466
 40
0.2644291271742439
 40
0.3178381131902503
 40
0.3714540575774333
 40
0.4249605686019506
 40
0.4786736868895886
 40
0.5325495443515106
 40
0.5865437196937151
 40
0.6406107979760717
 40
0.6947047388633704
 40
0.7487677920116976
 40
0.8027499384802093
 40
0.8565896764013697
 40
0.9061867338391856
 40
0.9510168957831696
 40
0.9924637341660538
 40
1.0
 40
1.0
 40
1.0
 40
1.0
 10
4582.013484949336
 20
2461.525508422701
 30
0.0
 10
4582.013023200839
 20
2461.524496807154
 30
0.0
 10
4582.010897047894
 20
2461.51983875328
 30
0.0
 10
4582.007245447658
 20
2461.511204192711
 30
0.0
 10
4582.002505423263
 20
2461.499409619237
 30
0.0
 10
4581.997796846738
 20
2461.486909688293
 30
0.0
 10
4581.993227073595
 20
2461.4739245748
 30
0.0
 10
4581.988882021648
 20
2461.460627189117
 30
0.0
 10
4581.984824560798
 20
2461.447199464587
 30
0.0
 10
4581.981064870374
 20
2461.4336640735
 30
0.0
 10
4581.977603791749
 20
2461.420021833149
 30
0.0
 10
4581.974442639924
 20
2461.406283657723
 30
0.0
 10
4581.97157943023
 20
2461.392436733192
 30
0.0
 10
4581.969019171508
 20
2461.378499117435
 30
0.0
 10
4581.966766115104
 20
2461.364489219724
 30
0.0
 10
4581.964824695534
 20
2461.35042667755
 30
0.0
 10
4581.963196014195
 20
2461.336331948686
 30
0.0
 10
4581.961890191001
 20
2461.322225932057
 30
0.0
 10
4581.960905547021
 20
2461.308486315306
 30
0.0
 10
4581.960184509392
 20
2461.295531595697
 30
0.0
 10
4581.959815997037
 20
2461.283648174566
 30
0.0
 10
4581.959685649794
 20
2461.275438084275
 30
0.0
 10
4581.95976925377
 20
2461.271152760582
 30
0.0
 10
4581.959782116609
 20
2461.2704934447
 30
0.0
  0
SPLINE
  5
149E
330
1F
100
AcDbEntity
  8
SANINDUSA
100
AcDbSpline
210
0.0
220
0.0
230
1.0
 70
     8
 71
     3
 72
    76
 73
    72
 74
     0
 42
0.0000000001
 43
0.0000000001
 40
0.0
 40
0.0
 40
0.0
 40
0.0
 40
0.0625000000000008
 40
0.0625000000000008
 40
0.1250000000000017
 40
0.1250000000000017
 40
0.1875000000000025
 40
0.1875000000000025
 40
0.2500000000000033
 40
0.2500000000000033
 40
0.281250000000004
 40
0.281250000000004
 40
0.3125000000000046
 40
0.3125000000000046
 40
0.3750000000000058
 40
0.3750000000000058
 40
0.3906250000000062
 40
0.3906250000000062
 40
0.4062500000000065
 40
0.4062500000000065
 40
0.4218750000000068
 40
0.4218750000000068
 40
0.4375000000000071
 40
0.4375000000000071
 40
0.5000000000000088
 40
0.5000000000000088
 40
0.5156250000000091
 40
0.5156250000000091
 40
0.5234375000000093
 40
0.5234375000000093
 40
0.5312500000000094
 40
0.5312500000000094
 40
0.5625000000000097
 40
0.5625000000000097
 40
0.6250000000000102
 40
0.6250000000000102
 40
0.6562500000000105
 40
0.6562500000000105
 40
0.6718750000000108
 40
0.6718750000000108
 40
0.6796875000000111
 40
0.6796875000000111
 40
0.6875000000000112
 40
0.6875000000000112
 40
0.7500000000000106
 40
0.7500000000000106
 40
0.7812500000000106
 40
0.7812500000000106
 40
0.8125000000000104
 40
0.8125000000000104
 40
0.8203125000000103
 40
0.8203125000000103
 40
0.8281250000000099
 40
0.8281250000000099
 40
0.843750000000009
 40
0.843750000000009
 40
0.8750000000000078
 40
0.8750000000000078
 40
0.9062500000000063
 40
0.9062500000000063
 40
0.914062500000006
 40
0.914062500000006
 40
0.9218750000000055
 40
0.9218750000000055
 40
0.9375000000000042
 40
0.9375000000000042
 40
0.9531250000000031
 40
0.9531250000000031
 40
0.9687500000000021
 40
0.9687500000000021
 40
1.0
 40
1.0
 40
1.0
 40
1.0
 10
4582.243350432402
 20
2461.417204513944
 30
0.0
 10
4582.245962879018
 20
2461.409261227351
 30
0.0
 10
4582.248306745227
 20
2461.401266382889
 30
0.0
 10
4582.252529729101
 20
2461.385187478092
 30
0.0
 10
4582.254407859418
 20
2461.377103228035
 30
0.0
 10
4582.257746833199
 20
2461.360854622356
 30
0.0
 10
4582.259207585844
 20
2461.35269024942
 30
0.0
 10
4582.261741079938
 20
2461.336287018204
 30
0.0
 10
4582.262814084959
 20
2461.328048210571
 30
0.0
 10
4582.264147407904
 20
2461.315636980929
 30
0.0
 10
4582.264545703854
 20
2461.311491046069
 30
0.0
 10
4582.265251208534
 20
2461.303181690718
 30
0.0
 10
4582.26555828338
 20
2461.299018333206
 30
0.0
 10
4582.266342526057
 20
2461.286544298298
 30
0.0
 10
4582.266683756613
 20
2461.278235541451
 30
0.0
 10
4582.266893969285
 20
2461.267858251741
 30
0.0
 10
4582.266925170681
 20
2461.265783227621
 30
0.0
 10
4582.266966298775
 20
2461.261634030611
 30
0.0
 10
4582.266978705797
 20
2461.259559758358
 30
0.0
 10
4582.266966254486
 20
2461.255412704616
 30
0.0
 10
4582.266934782336
 20
2461.253340188188
 30
0.0
 10
4582.266809473067
 20
2461.249197651014
 30
0.0
 10
4582.266717106146
 20
2461.247127571402
 30
0.0
 10
4582.266106525444
 20
2461.236783125456
 30
0.0
 10
4582.265145180968
 20
2461.228526491153
 30
0.0
 10
4582.263315324585
 20
2461.218230834639
 30
0.0
 10
4582.262917808513
 20
2461.216172965596
 30
0.0
 10
4582.262273097622
 20
2461.213088100212
 30
0.0
 10
4582.262050118141
 20
2461.212060134903
 30
0.0
 10
4582.261587779256
 20
2461.210004859721
 30
0.0
 10
4582.261348265056
 20
2461.20897695906
 30
0.0
 10
4582.260113416054
 20
2461.203856536294
 30
0.0
 10
4582.259003887602
 20
2461.199809039938
 30
0.0
 10
4582.255304145697
 20
2461.187815562597
 30
0.0
 10
4582.252344274181
 20
2461.180017987012
 30
0.0
 10
4582.247108355073
 20
2461.168641231278
 30
0.0
 10
4582.245229606213
 20
2461.164902551538
 30
0.0
 10
4582.242202854154
 20
2461.159378301392
 30
0.0
 10
4582.241159127464
 20
2461.157550861253
 30
0.0
 10
4582.239539212774
 20
2461.154831512505
 30
0.0
 10
4582.238989964936
 20
2461.153928407119
 30
0.0
 10
4582.237877844483
 20
2461.152137417757
 30
0.0
 10
4582.237314408097
 20
2461.151248570924
 30
0.0
 10
4582.232176877774
 20
2461.143308976638
 30
0.0
 10
4582.227140346103
 20
2461.136675019072
 30
0.0
 10
4582.218827674624
 20
2461.127407150094
 30
0.0
 10
4582.215930132419
 20
2461.124432010308
 30
0.0
 10
4582.209862671054
 20
2461.118727215966
 30
0.0
 10
4582.206692814998
 20
2461.115997505425
 30
0.0
 10
4582.202541330821
 20
2461.112755846994
 30
0.0
 10
4582.201701556914
 20
2461.112116056202
 30
0.0
 10
4582.200002471451
 20
2461.110854081954
 30
0.0
 10
4582.199142698449
 20
2461.110231628433
 30
0.0
 10
4582.196549138358
 20
2461.108402552572
 30
0.0
 10
4582.194796130094
 20
2461.107230458377
 30
0.0
 10
4582.189464394367
 20
2461.103857634481
 30
0.0
 10
4582.185813117462
 20
2461.101800045012
 30
0.0
 10
4582.178307681542
 20
2461.098085157376
 30
0.0
 10
4582.174453600295
 20
2461.096427705968
 30
0.0
 10
4582.169500670642
 20
2461.094622900525
 30
0.0
 10
4582.168503302479
 20
2461.094275321073
 30
0.0
 10
4582.166494700421
 20
2461.093607519754
 30
0.0
 10
4582.165482334871
 20
2461.093286966502
 30
0.0
 10
4582.16243306879
 20
2461.092370051396
 30
0.0
 10
4582.160385905204
 20
2461.091818829869
 30
0.0
 10
4582.156262639208
 20
2461.090837742368
 30
0.0
 10
4582.15418653626
 20
2461.090407879083
 30
0.0
 10
4582.150005039877
 20
2461.089670961057
 30
0.0
 10
4582.147905348792
 20
2461.089364347208
 30
0.0
 10
4582.141596248532
 20
2461.088638560498
 30
0.0
 10
4582.137369313473
 20
2461.088416535011
 30
0.0
 10
4582.133121927461
 20
2461.088447727932
 30
0.0
  0
SPLINE
  5
149F
330
1F
100
AcDbEntity
  8
SANINDUSA
100
AcDbSpline
210
0.0
220
0.0
230
1.0
 70
     8
 71
     3
 72
    74
 73
    70
 74
     0
 42
0.0000000001
 43
0.0000000001
 40
0.0
 40
0.0
 40
0.0
 40
0.0
 40
0.0624999999999989
 40
0.0624999999999989
 40
0.0781249999999986
 40
0.0781249999999986
 40
0.0937499999999982
 40
0.0937499999999982
 40
0.1249999999999975
 40
0.1249999999999975
 40
0.187499999999996
 40
0.187499999999996
 40
0.2031249999999958
 40
0.2031249999999958
 40
0.2187499999999956
 40
0.2187499999999956
 40
0.2499999999999951
 40
0.2499999999999951
 40
0.2812499999999947
 40
0.2812499999999947
 40
0.2968749999999938
 40
0.2968749999999938
 40
0.312499999999993
 40
0.312499999999993
 40
0.374999999999991
 40
0.374999999999991
 40
0.4062499999999894
 40
0.4062499999999894
 40
0.4218749999999886
 40
0.4218749999999886
 40
0.4374999999999877
 40
0.4374999999999877
 40
0.4999999999999859
 40
0.4999999999999859
 40
0.5156249999999858
 40
0.5156249999999858
 40
0.5312499999999857
 40
0.5312499999999857
 40
0.5624999999999855
 40
0.5624999999999855
 40
0.6249999999999865
 40
0.6249999999999865
 40
0.6406249999999878
 40
0.6406249999999878
 40
0.656249999999989
 40
0.656249999999989
 40
0.6874999999999915
 40
0.6874999999999915
 40
0.7187499999999939
 40
0.7187499999999939
 40
0.7343749999999947
 40
0.7343749999999947
 40
0.7499999999999952
 40
0.7499999999999952
 40
0.812499999999996
 40
0.812499999999996
 40
0.8281249999999962
 40
0.8281249999999962
 40
0.8437499999999968
 40
0.8437499999999968
 40
0.8749999999999975
 40
0.8749999999999975
 40
0.9374999999999989
 40
0.9374999999999989
 40
0.9531249999999991
 40
0.9531249999999991
 40
0.9687499999999994
 40
0.9687499999999994
 40
1.0
 40
1.0
 40
1.0
 40
1.0
 10
4582.133121927461
 20
2461.298095167928
 30
0.0
 10
4582.135509676959
 20
2461.29809066761
 30
0.0
 10
4582.137865100422
 20
2461.298317334173
 30
0.0
 10
4582.140769880275
 20
2461.298883158619
 30
0.0
 10
4582.141348844389
 20
2461.299010568632
 30
0.0
 10
4582.142502748346
 20
2461.299294167816
 30
0.0
 10
4582.143078928496
 20
2461.29945073751
 30
0.0
 10
4582.144792199163
 20
2461.299961476584
 30
0.0
 10
4582.145909050037
 20
2461.300354747848
 30
0.0
 10
4582.149186235791
 20
2461.301687420566
 30
0.0
 10
4582.151273888377
 20
2461.302778253532
 30
0.0
 10
4582.153759037974
 20
2461.304401045139
 30
0.0
 10
4582.154251038592
 20
2461.304739605295
 30
0.0
 10
4582.155215681667
 20
2461.305438737567
 30
0.0
 10
4582.155687626787
 20
2461.305798692214
 30
0.0
 10
4582.157072893956
 20
2461.306909161427
 30
0.0
 10
4582.157955700663
 20
2461.307690228937
 30
0.0
 10
4582.159641164705
 20
2461.309332617381
 30
0.0
 10
4582.160443832957
 20
2461.310193926974
 30
0.0
 10
4582.161587192813
 20
2461.311546609396
 30
0.0
 10
4582.161958189232
 20
2461.312007639642
 30
0.0
 10
4582.162679611844
 20
2461.31295029592
 30
0.0
 10
4582.163030914998
 20
2461.313433216919
 30
0.0
 10
4582.164723321578
 20
2461.315883779584
 30
0.0
 10
4582.165866699616
 20
2461.317945048215
 30
0.0
 10
4582.167273229091
 20
2461.32118477549
 30
0.0
 10
4582.167690274117
 20
2461.322289501847
 30
0.0
 10
4582.168235616566
 20
2461.323985039621
 30
0.0
 10
4582.168404419537
 20
2461.324558281824
 30
0.0
 10
4582.16871215069
 20
2461.325708960915
 30
0.0
 10
4582.168851039951
 20
2461.326285845382
 30
0.0
 10
4582.169471760825
 20
2461.329177877167
 30
0.0
 10
4582.169734895293
 20
2461.331515593581
 30
0.0
 10
4582.169765260469
 20
2461.334468650091
 30
0.0
 10
4582.169756251611
 20
2461.335060823051
 30
0.0
 10
4582.169707275169
 20
2461.33624837737
 30
0.0
 10
4582.169667096074
 20
2461.336845560386
 30
0.0
 10
4582.169500487325
 20
2461.338623900088
 30
0.0
 10
4582.169328438033
 20
2461.3397939989
 30
0.0
 10
4582.168633455888
 20
2461.343258944224
 30
0.0
 10
4582.167933228106
 20
2461.345508828318
 30
0.0
 10
4582.166751704805
 20
2461.348243521884
 30
0.0
 10
4582.166500034784
 20
2461.348786093439
 30
0.0
 10
4582.165972027545
 20
2461.349850492224
 30
0.0
 10
4582.165695001382
 20
2461.350373975464
 30
0.0
 10
4582.164825767662
 20
2461.351918895432
 30
0.0
 10
4582.164195489986
 20
2461.352914858945
 30
0.0
 10
4582.162836086098
 20
2461.354840700866
 30
0.0
 10
4582.162106963977
 20
2461.355770582224
 30
0.0
 10
4582.160939100069
 20
2461.357115860628
 30
0.0
 10
4582.160536322067
 20
2461.357557136258
 30
0.0
 10
4582.159711854583
 20
2461.358416660554
 30
0.0
 10
4582.159290496896
 20
2461.35883470752
 30
0.0
 10
4582.15713933758
 20
2461.36086799816
 30
0.0
 10
4582.155277796155
 20
2461.362314180879
 30
0.0
 10
4582.152780318685
 20
2461.363903387879
 30
0.0
 10
4582.152272212596
 20
2461.364210196111
 30
0.0
 10
4582.151238582702
 20
2461.364801501168
 30
0.0
 10
4582.150713239213
 20
2461.365085791181
 30
0.0
 10
4582.149127023067
 20
2461.365896852762
 30
0.0
 10
4582.148050808122
 20
2461.366384983662
 30
0.0
 10
4582.144767605268
 20
2461.367696325994
 30
0.0
 10
4582.142506702237
 20
2461.36836830855
 30
0.0
 10
4582.139586775085
 20
2461.368945094174
 30
0.0
 10
4582.138997788223
 20
2461.369047090192
 30
0.0
 10
4582.137822852351
 20
2461.369222070445
 30
0.0
 10
4582.137235340852
 20
2461.369295392179
 30
0.0
 10
4582.135472675764
 20
2461.369473199289
 30
0.0
 10
4582.134297392337
 20
2461.369535703257
 30
0.0
 10
4582.133121927461
 20
2461.369541098799
 30
0.0
  0
SPLINE
  5
14A1
330
1F
100
AcDbEntity
  8
SANINDUSA
100
AcDbSpline
210
0.0
220
0.0
230
1.0
 70
     8
 71
     3
 72
    74
 73
    70
 74
     0
 42
0.0000000001
 43
0.0000000001
 40
0.0
 40
0.0
 40
0.0
 40
0.0
 40
0.0624999999999978
 40
0.0624999999999978
 40
0.0781249999999972
 40
0.0781249999999972
 40
0.0937499999999966
 40
0.0937499999999966
 40
0.1249999999999954
 40
0.1249999999999954
 40
0.1874999999999928
 40
0.1874999999999928
 40
0.2031249999999922
 40
0.2031249999999922
 40
0.2187499999999915
 40
0.2187499999999915
 40
0.2499999999999912
 40
0.2499999999999912
 40
0.2812499999999907
 40
0.2812499999999907
 40
0.29687499999999
 40
0.29687499999999
 40
0.3124999999999893
 40
0.3124999999999893
 40
0.3749999999999874
 40
0.3749999999999874
 40
0.4062499999999859
 40
0.4062499999999859
 40
0.4218749999999851
 40
0.4218749999999851
 40
0.4374999999999843
 40
0.4374999999999843
 40
0.4999999999999825
 40
0.4999999999999825
 40
0.5156249999999824
 40
0.5156249999999824
 40
0.5312499999999823
 40
0.5312499999999823
 40
0.5624999999999821
 40
0.5624999999999821
 40
0.6249999999999832
 40
0.6249999999999832
 40
0.6406249999999845
 40
0.6406249999999845
 40
0.6562499999999857
 40
0.6562499999999857
 40
0.6874999999999881
 40
0.6874999999999881
 40
0.7187499999999907
 40
0.7187499999999907
 40
0.7343749999999913
 40
0.7343749999999913
 40
0.749999999999992
 40
0.749999999999992
 40
0.8124999999999928
 40
0.8124999999999928
 40
0.8281249999999936
 40
0.8281249999999936
 40
0.8437499999999941
 40
0.8437499999999941
 40
0.8749999999999953
 40
0.8749999999999953
 40
0.9374999999999978
 40
0.9374999999999978
 40
0.9531249999999984
 40
0.9531249999999984
 40
0.9687499999999989
 40
0.9687499999999989
 40
1.0
 40
1.0
 40
1.0
 40
1.0
 10
4582.133121927461
 20
2461.298095167928
 30
0.0
 10
4582.130734177964
 20
2461.29809066761
 30
0.0
 10
4582.128378754502
 20
2461.298317334173
 30
0.0
 10
4582.125473974647
 20
2461.298883158619
 30
0.0
 10
4582.124895010535
 20
2461.299010568632
 30
0.0
 10
4582.123741106578
 20
2461.299294167816
 30
0.0
 10
4582.123164926428
 20
2461.29945073751
 30
0.0
 10
4582.121451655761
 20
2461.299961476584
 30
0.0
 10
4582.120334804886
 20
2461.300354747848
 30
0.0
 10
4582.117057619133
 20
2461.301687420566
 30
0.0
 10
4582.114969966546
 20
2461.302778253532
 30
0.0
 10
4582.112484816949
 20
2461.304401045139
 30
0.0
 10
4582.111992816332
 20
2461.304739605295
 30
0.0
 10
4582.111028173257
 20
2461.305438737567
 30
0.0
 10
4582.110556228136
 20
2461.305798692214
 30
0.0
 10
4582.109170960968
 20
2461.306909161427
 30
0.0
 10
4582.108288154261
 20
2461.307690228937
 30
0.0
 10
4582.106602690219
 20
2461.309332617381
 30
0.0
 10
4582.105800021966
 20
2461.310193926974
 30
0.0
 10
4582.10465666211
 20
2461.311546609396
 30
0.0
 10
4582.104285665692
 20
2461.312007639642
 30
0.0
 10
4582.103564243078
 20
2461.31295029592
 30
0.0
 10
4582.103212939926
 20
2461.313433216919
 30
0.0
 10
4582.101520533345
 20
2461.315883779584
 30
0.0
 10
4582.100377155308
 20
2461.317945048215
 30
0.0
 10
4582.098970625832
 20
2461.32118477549
 30
0.0
 10
4582.098553580807
 20
2461.322289501847
 30
0.0
 10
4582.098008238357
 20
2461.323985039621
 30
0.0
 10
4582.097839435387
 20
2461.324558281824
 30
0.0
 10
4582.097531704233
 20
2461.325708960915
 30
0.0
 10
4582.097392814972
 20
2461.326285845382
 30
0.0
 10
4582.096772094099
 20
2461.329177877167
 30
0.0
 10
4582.096508959631
 20
2461.331515593581
 30
0.0
 10
4582.096478594455
 20
2461.334468650091
 30
0.0
 10
4582.096487603313
 20
2461.335060823051
 30
0.0
 10
4582.096536579753
 20
2461.33624837737
 30
0.0
 10
4582.096576758849
 20
2461.336845560386
 30
0.0
 10
4582.096743367599
 20
2461.338623900088
 30
0.0
 10
4582.09691541689
 20
2461.3397939989
 30
0.0
 10
4582.097610399036
 20
2461.343258944224
 30
0.0
 10
4582.098310626817
 20
2461.345508828318
 30
0.0
 10
4582.09949215012
 20
2461.348243521884
 30
0.0
 10
4582.09974382014
 20
2461.348786093439
 30
0.0
 10
4582.100271827378
 20
2461.349850492224
 30
0.0
 10
4582.100548853541
 20
2461.350373975464
 30
0.0
 10
4582.101418087261
 20
2461.351918895432
 30
0.0
 10
4582.102048364936
 20
2461.352914858945
 30
0.0
 10
4582.103407768825
 20
2461.354840700866
 30
0.0
 10
4582.104136890946
 20
2461.355770582224
 30
0.0
 10
4582.105304754853
 20
2461.357115860628
 30
0.0
 10
4582.105707532856
 20
2461.357557136258
 30
0.0
 10
4582.106532000341
 20
2461.358416660554
 30
0.0
 10
4582.106953358027
 20
2461.35883470752
 30
0.0
 10
4582.109104517344
 20
2461.36086799816
 30
0.0
 10
4582.110966058769
 20
2461.362314180879
 30
0.0
 10
4582.113463536239
 20
2461.363903387879
 30
0.0
 10
4582.113971642327
 20
2461.364210196111
 30
0.0
 10
4582.115005272222
 20
2461.364801501168
 30
0.0
 10
4582.115530615711
 20
2461.365085791181
 30
0.0
 10
4582.117116831856
 20
2461.365896852762
 30
0.0
 10
4582.118193046802
 20
2461.366384983662
 30
0.0
 10
4582.121476249656
 20
2461.367696325994
 30
0.0
 10
4582.123737152687
 20
2461.36836830855
 30
0.0
 10
4582.126657079839
 20
2461.368945094174
 30
0.0
 10
4582.127246066701
 20
2461.369047090192
 30
0.0
 10
4582.128421002572
 20
2461.369222070445
 30
0.0
 10
4582.129008514071
 20
2461.369295392179
 30
0.0
 10
4582.130771179159
 20
2461.369473199289
 30
0.0
 10
4582.131946462586
 20
2461.369535703257
 30
0.0
 10
4582.133121927461
 20
2461.369541098799
 30
0.0
  0
SPLINE
  5
14A2
330
1F
100
AcDbEntity
  8
SANINDUSA
100
AcDbSpline
210
0.0
220
0.0
230
1.0
 70
     8
 71
     3
 72
    76
 73
    72
 74
     0
 42
0.0000000001
 43
0.0000000001
 40
0.0
 40
0.0
 40
0.0
 40
0.0
 40
0.0624999999999997
 40
0.0624999999999997
 40
0.1249999999999995
 40
0.1249999999999995
 40
0.1874999999999992
 40
0.1874999999999992
 40
0.2499999999999989
 40
0.2499999999999989
 40
0.2812499999999991
 40
0.2812499999999991
 40
0.3124999999999991
 40
0.3124999999999991
 40
0.3749999999999992
 40
0.3749999999999992
 40
0.3906249999999996
 40
0.3906249999999996
 40
0.40625
 40
0.40625
 40
0.4218750000000002
 40
0.4218750000000002
 40
0.4375000000000006
 40
0.4375000000000006
 40
0.5000000000000023
 40
0.5000000000000023
 40
0.5156250000000027
 40
0.5156250000000027
 40
0.5234375000000029
 40
0.5234375000000029
 40
0.5312500000000031
 40
0.5312500000000031
 40
0.5625000000000035
 40
0.5625000000000035
 40
0.6250000000000045
 40
0.6250000000000045
 40
0.6562500000000052
 40
0.6562500000000052
 40
0.6718750000000053
 40
0.6718750000000053
 40
0.6796875000000054
 40
0.6796875000000054
 40
0.6875000000000055
 40
0.6875000000000055
 40
0.7500000000000061
 40
0.7500000000000061
 40
0.7812500000000063
 40
0.7812500000000063
 40
0.8125000000000067
 40
0.8125000000000067
 40
0.8203125000000067
 40
0.8203125000000067
 40
0.8281250000000067
 40
0.8281250000000067
 40
0.8437500000000062
 40
0.8437500000000062
 40
0.8750000000000049
 40
0.8750000000000049
 40
0.9062500000000037
 40
0.9062500000000037
 40
0.9140625000000033
 40
0.9140625000000033
 40
0.9218750000000031
 40
0.9218750000000031
 40
0.9375000000000024
 40
0.9375000000000024
 40
0.9531250000000019
 40
0.9531250000000019
 40
0.9687500000000014
 40
0.9687500000000014
 40
1.0
 40
1.0
 40
1.0
 40
1.0
 10
4582.022893422522
 20
2461.417204513944
 30
0.0
 10
4582.020280975906
 20
2461.409261227351
 30
0.0
 10
4582.017937109696
 20
2461.401266382889
 30
0.0
 10
4582.013714125823
 20
2461.385187478092
 30
0.0
 10
4582.011835995504
 20
2461.377103228035
 30
0.0
 10
4582.008497021724
 20
2461.360854622356
 30
0.0
 10
4582.007036269081
 20
2461.35269024942
 30
0.0
 10
4582.004502774984
 20
2461.336287018204
 30
0.0
 10
4582.003429769964
 20
2461.328048210571
 30
0.0
 10
4582.002096447019
 20
2461.315636980929
 30
0.0
 10
4582.001698151069
 20
2461.311491046069
 30
0.0
 10
4582.00099264639
 20
2461.303181690718
 30
0.0
 10
4582.000685571545
 20
2461.299018333206
 30
0.0
 10
4581.999901328868
 20
2461.286544298298
 30
0.0
 10
4581.99956009831
 20
2461.278235541451
 30
0.0
 10
4581.999349885638
 20
2461.267858251741
 30
0.0
 10
4581.999318684244
 20
2461.265783227621
 30
0.0
 10
4581.999277556149
 20
2461.261634030611
 30
0.0
 10
4581.999265149128
 20
2461.259559758358
 30
0.0
 10
4581.999277600437
 20
2461.255412704616
 30
0.0
 10
4581.999309072587
 20
2461.253340188188
 30
0.0
 10
4581.999434381857
 20
2461.249197651014
 30
0.0
 10
4581.999526748778
 20
2461.247127571402
 30
0.0
 10
4582.00013732948
 20
2461.236783125456
 30
0.0
 10
4582.001098673956
 20
2461.228526491153
 30
0.0
 10
4582.002928530338
 20
2461.218230834639
 30
0.0
 10
4582.00332604641
 20
2461.216172965596
 30
0.0
 10
4582.003970757301
 20
2461.213088100212
 30
0.0
 10
4582.004193736782
 20
2461.212060134903
 30
0.0
 10
4582.004656075667
 20
2461.210004859721
 30
0.0
 10
4582.004895589866
 20
2461.20897695906
 30
0.0
 10
4582.006130438871
 20
2461.203856536294
 30
0.0
 10
4582.007239967321
 20
2461.199809039938
 30
0.0
 10
4582.010939709227
 20
2461.187815562597
 30
0.0
 10
4582.013899580743
 20
2461.180017987012
 30
0.0
 10
4582.019135499851
 20
2461.168641231278
 30
0.0
 10
4582.021014248711
 20
2461.164902551538
 30
0.0
 10
4582.024041000769
 20
2461.159378301392
 30
0.0
 10
4582.02508472746
 20
2461.157550861253
 30
0.0
 10
4582.02670464215
 20
2461.154831512505
 30
0.0
 10
4582.027253889987
 20
2461.153928407119
 30
0.0
 10
4582.02836601044
 20
2461.152137417757
 30
0.0
 10
4582.028929446827
 20
2461.151248570924
 30
0.0
 10
4582.03406697715
 20
2461.143308976638
 30
0.0
 10
4582.039103508821
 20
2461.136675019072
 30
0.0
 10
4582.0474161803
 20
2461.127407150094
 30
0.0
 10
4582.050313722503
 20
2461.124432010308
 30
0.0
 10
4582.05638118387
 20
2461.118727215966
 30
0.0
 10
4582.059551039926
 20
2461.115997505425
 30
0.0
 10
4582.063702524103
 20
2461.112755846994
 30
0.0
 10
4582.064542298009
 20
2461.112116056202
 30
0.0
 10
4582.066241383471
 20
2461.110854081954
 30
0.0
 10
4582.067101156474
 20
2461.110231628433
 30
0.0
 10
4582.069694716564
 20
2461.108402552572
 30
0.0
 10
4582.07144772483
 20
2461.107230458377
 30
0.0
 10
4582.076779460557
 20
2461.103857634481
 30
0.0
 10
4582.080430737462
 20
2461.101800045012
 30
0.0
 10
4582.087936173382
 20
2461.098085157376
 30
0.0
 10
4582.091790254628
 20
2461.096427705968
 30
0.0
 10
4582.096743184282
 20
2461.094622900525
 30
0.0
 10
4582.097740552444
 20
2461.094275321073
 30
0.0
 10
4582.099749154502
 20
2461.093607519754
 30
0.0
 10
4582.100761520051
 20
2461.093286966502
 30
0.0
 10
4582.103810786133
 20
2461.092370051396
 30
0.0
 10
4582.105857949719
 20
2461.091818829869
 30
0.0
 10
4582.109981215715
 20
2461.090837742368
 30
0.0
 10
4582.112057318664
 20
2461.090407879083
 30
0.0
 10
4582.116238815046
 20
2461.089670961057
 30
0.0
 10
4582.118338506132
 20
2461.089364347208
 30
0.0
 10
4582.124647606391
 20
2461.088638560498
 30
0.0
 10
4582.128874541451
 20
2461.088416535011
 30
0.0
 10
4582.133121927461
 20
2461.088447727932
 30
0.0
  0
SPLINE
  5
14A8
330
1F
100
AcDbEntity
  8
SANINDUSA
100
AcDbSpline
210
0.0
220
0.0
230
1.0
 70
     8
 71
     3
 72
    28
 73
    24
 74
     0
 42
0.0000000001
 43
0.0000000001
 40
0.0
 40
0.0
 40
0.0
 40
0.0
 40
0.1250000000000026
 40
0.1250000000000026
 40
0.1875000000000039
 40
0.1875000000000039
 40
0.2500000000000052
 40
0.2500000000000052
 40
0.3750000000000057
 40
0.3750000000000057
 40
0.437500000000007
 40
0.437500000000007
 40
0.5000000000000081
 40
0.5000000000000081
 40
0.6250000000000062
 40
0.6250000000000062
 40
0.6875000000000044
 40
0.6875000000000044
 40
0.7500000000000026
 40
0.7500000000000026
 40
0.8750000000000012
 40
0.8750000000000012
 40
1.0
 40
1.0
 40
1.0
 40
1.0
 10
4582.229248644504
 20
2461.427185622293
 30
0.0
 10
4582.230025496938
 20
2461.427194206703
 30
0.0
 10
4582.230796081876
 20
2461.427145083859
 30
0.0
 10
4582.231942497291
 20
2461.426984299141
 30
0.0
 10
4582.2323230523
 20
2461.426916128023
 30
0.0
 10
4582.233080902346
 20
2461.426749780555
 30
0.0
 10
4582.233457430702
 20
2461.426651637156
 30
0.0
 10
4582.23456522264
 20
2461.426316304948
 30
0.0
 10
4582.235280309519
 20
2461.426037332912
 30
0.0
 10
4582.236317485864
 20
2461.42553506211
 30
0.0
 10
4582.236657277602
 20
2461.425353611291
 30
0.0
 10
4582.237324625838
 20
2461.424961786412
 30
0.0
 10
4582.237653290841
 20
2461.424750505395
 30
0.0
 10
4582.23860353295
 20
2461.424083462559
 30
0.0
 10
4582.23919437647
 20
2461.423592393557
 30
0.0
 10
4582.24001770814
 20
2461.422787364188
 30
0.0
 10
4582.240281616692
 20
2461.422507566301
 30
0.0
 10
4582.240787970628
 20
2461.421924634328
 30
0.0
 10
4582.241031433029
 20
2461.421620070789
 30
0.0
 10
4582.241720490144
 20
2461.420681159685
 30
0.0
 10
4582.242122996681
 20
2461.420025636918
 30
0.0
 10
4582.242819141982
 20
2461.418657956019
 30
0.0
 10
4582.24311277024
 20
2461.417945792425
 30
0.0
 10
4582.243350432402
 20
2461.417204513944
 30
0.0
  0
SPLINE
  5
14A9
330
1F
100
AcDbEntity
  8
SANINDUSA
100
AcDbSpline
210
0.0
220
0.0
230
1.0
 70
     8
 71
     3
 72
    48
 73
    44
 74
     0
 42
0.0000000001
 43
0.0000000001
 40
0.0
 40
0.0
 40
0.0
 40
0.0
 40
0.1250000000000003
 40
0.1250000000000003
 40
0.2500000000000007
 40
0.2500000000000007
 40
0.3125000000000008
 40
0.3125000000000008
 40
0.3750000000000008
 40
0.3750000000000008
 40
0.437500000000001
 40
0.437500000000001
 40
0.468750000000001
 40
0.468750000000001
 40
0.5000000000000011
 40
0.5000000000000011
 40
0.5625000000000013
 40
0.5625000000000013
 40
0.5937500000000013
 40
0.5937500000000013
 40
0.6250000000000014
 40
0.6250000000000014
 40
0.6875000000000017
 40
0.6875000000000017
 40
0.7187500000000019
 40
0.7187500000000019
 40
0.7343750000000018
 40
0.7343750000000018
 40
0.7500000000000017
 40
0.7500000000000017
 40
0.8125000000000014
 40
0.8125000000000014
 40
0.8437500000000014
 40
0.8437500000000014
 40
0.859375000000001
 40
0.859375000000001
 40
0.875000000000001
 40
0.875000000000001
 40
0.9062500000000007
 40
0.9062500000000007
 40
0.9375000000000003
 40
0.9375000000000003
 40
1.0
 40
1.0
 40
1.0
 40
1.0
 10
4582.229248644504
 20
2461.427185622293
 30
0.0
 10
4582.227746506117
 20
2461.425889267263
 30
0.0
 10
4582.226182737181
 20
2461.424595762352
 30
0.0
 10
4582.222851769162
 20
2461.422018160208
 30
0.0
 10
4582.221086396667
 20
2461.420733978504
 30
0.0
 10
4582.218186829995
 20
2461.418819336994
 30
0.0
 10
4582.217177830396
 20
2461.418183087535
 30
0.0
 10
4582.215048659495
 20
2461.416915729778
 30
0.0
 10
4582.213928624686
 20
2461.416284615169
 30
0.0
 10
4582.211541815092
 20
2461.415029171977
 30
0.0
 10
4582.21027522598
 20
2461.414404834808
 30
0.0
 10
4582.208227072903
 20
2461.41347518581
 30
0.0
 10
4582.207518688337
 20
2461.413166116595
 30
0.0
 10
4582.206048108935
 20
2461.412552487357
 30
0.0
 10
4582.205286318347
 20
2461.412248064236
 30
0.0
 10
4582.202909193839
 20
2461.411343074841
 30
0.0
 10
4582.201203351732
 20
2461.410750676224
 30
0.0
 10
4582.19839496935
 20
2461.409884604482
 30
0.0
 10
4582.19741699074
 20
2461.40959969064
 30
0.0
 10
4582.195361914006
 20
2461.409038807718
 30
0.0
 10
4582.194281492594
 20
2461.408762111866
 30
0.0
 10
4582.190903162742
 20
2461.407957271987
 30
0.0
 10
4582.188462576032
 20
2461.407452211501
 30
0.0
 10
4582.184441785495
 20
2461.406754806406
 30
0.0
 10
4582.183041402511
 20
2461.406532391454
 30
0.0
 10
4582.180839903233
 20
2461.406215646065
 30
0.0
 10
4582.18008919413
 20
2461.406112886341
 30
0.0
 10
4582.178551760252
 20
2461.405913389575
 30
0.0
 10
4582.177762098864
 20
2461.405816324704
 30
0.0
 10
4582.173761941764
 20
2461.405351888681
 30
0.0
 10
4582.170398015547
 20
2461.405047355828
 30
0.0
 10
4582.165131322745
 20
2461.404680894212
 30
0.0
 10
4582.163339232423
 20
2461.404573684301
 30
0.0
 10
4582.160601200355
 20
2461.404433283701
 30
0.0
 10
4582.159680215569
 20
2461.404389882333
 30
0.0
 10
4582.157822526902
 20
2461.404309510773
 30
0.0
 10
4582.156883924539
 20
2461.40427247532
 30
0.0
 10
4582.154061485743
 20
2461.4041709854
 30
0.0
 10
4582.152173541373
 20
2461.404116135728
 30
0.0
 10
4582.14838734086
 20
2461.4040273427
 30
0.0
 10
4582.146489066018
 20
2461.403993437254
 30
0.0
 10
4582.140780260327
 20
2461.40392006663
 30
0.0
 10
4582.136955923085
 20
2461.403908592833
 30
0.0
 10
4582.133121927461
 20
2461.403916700652
 30
0.0
  0
LWPOLYLINE
  5
14AA
330
1F
100
AcDbEntity
  8
SANINDUSA
100
AcDbPolyline
 90
       16
 70
   128
 43
0.0
 10
4582.121473962306
 20
2461.423492378275
 10
4582.121960354235
 20
2461.423681930821
 10
4582.123071963332
 20
2461.423995429666
 10
4582.124472691599
 20
2461.424271797073
 10
4582.126122242636
 20
2461.424503082457
 10
4582.127973161859
 20
2461.424682632157
 10
4582.129972201694
 20
2461.424805280856
 10
4582.132061853406
 20
2461.424867500174
 10
4582.134182001517
 20
2461.424867500174
 10
4582.136271653229
 20
2461.424805280856
 10
4582.138270693065
 20
2461.424682632157
 10
4582.140121612289
 20
2461.424503082457
 10
4582.141771163324
 20
2461.424271797073
 10
4582.143171891591
 20
2461.423995429666
 10
4582.144283500689
 20
2461.423681930821
 10
4582.144590190456
 20
2461.423568238793
  0
SPLINE
  5
14AB
330
1F
100
AcDbEntity
  8
SANINDUSA
100
AcDbSpline
210
0.0
220
0.0
230
1.0
 70
     8
 71
     3
 72
    48
 73
    44
 74
     0
 42
0.0000000001
 43
0.0000000001
 40
0.0
 40
0.0
 40
0.0
 40
0.0
 40
0.1250000000000003
 40
0.1250000000000003
 40
0.2500000000000007
 40
0.2500000000000007
 40
0.3125000000000008
 40
0.3125000000000008
 40
0.3750000000000008
 40
0.3750000000000008
 40
0.437500000000001
 40
0.437500000000001
 40
0.468750000000001
 40
0.468750000000001
 40
0.5000000000000011
 40
0.5000000000000011
 40
0.5625000000000013
 40
0.5625000000000013
 40
0.5937500000000013
 40
0.5937500000000013
 40
0.6250000000000014
 40
0.6250000000000014
 40
0.6875000000000017
 40
0.6875000000000017
 40
0.7187500000000019
 40
0.7187500000000019
 40
0.7343750000000018
 40
0.7343750000000018
 40
0.7500000000000017
 40
0.7500000000000017
 40
0.8125000000000014
 40
0.8125000000000014
 40
0.8437500000000014
 40
0.8437500000000014
 40
0.859375000000001
 40
0.859375000000001
 40
0.875000000000001
 40
0.875000000000001
 40
0.9062500000000007
 40
0.9062500000000007
 40
0.9375000000000003
 40
0.9375000000000003
 40
1.0
 40
1.0
 40
1.0
 40
1.0
 10
4582.03699521042
 20
2461.427185622293
 30
0.0
 10
4582.038497348805
 20
2461.425889267263
 30
0.0
 10
4582.040061117742
 20
2461.424595762352
 30
0.0
 10
4582.043392085761
 20
2461.422018160208
 30
0.0
 10
4582.045157458257
 20
2461.420733978504
 30
0.0
 10
4582.04805702493
 20
2461.418819336994
 30
0.0
 10
4582.049066024527
 20
2461.418183087535
 30
0.0
 10
4582.051195195428
 20
2461.416915729778
 30
0.0
 10
4582.052315230238
 20
2461.416284615169
 30
0.0
 10
4582.054702039831
 20
2461.415029171977
 30
0.0
 10
4582.055968628944
 20
2461.414404834808
 30
0.0
 10
4582.058016782021
 20
2461.41347518581
 30
0.0
 10
4582.058725166586
 20
2461.413166116595
 30
0.0
 10
4582.060195745988
 20
2461.412552487357
 30
0.0
 10
4582.060957536577
 20
2461.412248064236
 30
0.0
 10
4582.063334661085
 20
2461.411343074841
 30
0.0
 10
4582.065040503191
 20
2461.410750676224
 30
0.0
 10
4582.067848885574
 20
2461.409884604482
 30
0.0
 10
4582.068826864183
 20
2461.40959969064
 30
0.0
 10
4582.070881940916
 20
2461.409038807718
 30
0.0
 10
4582.07196236233
 20
2461.408762111866
 30
0.0
 10
4582.075340692182
 20
2461.407957271987
 30
0.0
 10
4582.077781278891
 20
2461.407452211501
 30
0.0
 10
4582.08180206943
 20
2461.406754806406
 30
0.0
 10
4582.083202452413
 20
2461.406532391454
 30
0.0
 10
4582.085403951691
 20
2461.406215646065
 30
0.0
 10
4582.086154660793
 20
2461.406112886341
 30
0.0
 10
4582.087692094672
 20
2461.405913389575
 30
0.0
 10
4582.088481756058
 20
2461.405816324704
 30
0.0
 10
4582.09248191316
 20
2461.405351888681
 30
0.0
 10
4582.095845839377
 20
2461.405047355828
 30
0.0
 10
4582.101112532177
 20
2461.404680894212
 30
0.0
 10
4582.102904622499
 20
2461.404573684301
 30
0.0
 10
4582.105642654569
 20
2461.404433283701
 30
0.0
 10
4582.106563639355
 20
2461.404389882333
 30
0.0
 10
4582.108421328022
 20
2461.404309510773
 30
0.0
 10
4582.109359930385
 20
2461.40427247532
 30
0.0
 10
4582.112182369181
 20
2461.4041709854
 30
0.0
 10
4582.11407031355
 20
2461.404116135728
 30
0.0
 10
4582.117856514063
 20
2461.4040273427
 30
0.0
 10
4582.119754788906
 20
2461.403993437254
 30
0.0
 10
4582.125463594596
 20
2461.40392006663
 30
0.0
 10
4582.129287931837
 20
2461.403908592833
 30
0.0
 10
4582.133121927461
 20
2461.403916700652
 30
0.0
  0
LINE
  5
14AC
330
1F
100
AcDbEntity
  8
SANINDUSA
100
AcDbLine
 10
4582.229248644504
 20
2461.427185622293
 30
0.0
 11
4582.03699521042
 21
2461.427185622293
 31
0.0
  0
SPLINE
  5
14AD
330
1F
100
AcDbEntity
  8
SANINDUSA
100
AcDbSpline
210
0.0
220
0.0
230
1.0
 70
     8
 71
     3
 72
    28
 73
    24
 74
     0
 42
0.0000000001
 43
0.0000000001
 40
0.0
 40
0.0
 40
0.0
 40
0.0
 40
0.1249999999999998
 40
0.1249999999999998
 40
0.1874999999999998
 40
0.1874999999999998
 40
0.2499999999999996
 40
0.2499999999999996
 40
0.3749999999999973
 40
0.3749999999999973
 40
0.4374999999999973
 40
0.4374999999999973
 40
0.4999999999999971
 40
0.4999999999999971
 40
0.624999999999996
 40
0.624999999999996
 40
0.6874999999999955
 40
0.6874999999999955
 40
0.7499999999999949
 40
0.7499999999999949
 40
0.8749999999999975
 40
0.8749999999999975
 40
1.0
 40
1.0
 40
1.0
 40
1.0
 10
4582.03699521042
 20
2461.427185622293
 30
0.0
 10
4582.036218357985
 20
2461.427194206703
 30
0.0
 10
4582.035447773048
 20
2461.427145083859
 30
0.0
 10
4582.034301357633
 20
2461.426984299141
 30
0.0
 10
4582.033920802623
 20
2461.426916128023
 30
0.0
 10
4582.033162952578
 20
2461.426749780555
 30
0.0
 10
4582.032786424221
 20
2461.426651637156
 30
0.0
 10
4582.031678632284
 20
2461.426316304948
 30
0.0
 10
4582.030963545405
 20
2461.426037332912
 30
0.0
 10
4582.02992636906
 20
2461.42553506211
 30
0.0
 10
4582.029586577323
 20
2461.425353611291
 30
0.0
 10
4582.028919229086
 20
2461.424961786412
 30
0.0
 10
4582.028590564083
 20
2461.424750505395
 30
0.0
 10
4582.027640321974
 20
2461.424083462559
 30
0.0
 10
4582.027049478454
 20
2461.423592393557
 30
0.0
 10
4582.026226146783
 20
2461.422787364188
 30
0.0
 10
4582.025962238231
 20
2461.422507566301
 30
0.0
 10
4582.025455884295
 20
2461.421924634328
 30
0.0
 10
4582.025212421895
 20
2461.421620070789
 30
0.0
 10
4582.024523364779
 20
2461.420681159685
 30
0.0
 10
4582.024120858243
 20
2461.420025636918
 30
0.0
 10
4582.023424712942
 20
2461.418657956019
 30
0.0
 10
4582.023131084684
 20
2461.417945792425
 30
0.0
 10
4582.022893422522
 20
2461.417204513944
 30
0.0
  0
SPLINE
  5
14BB
330
1F
100
AcDbEntity
  8
SANINDUSA
100
AcDbSpline
210
0.0
220
0.0
230
1.0
 70
     8
 71
     3
 72
    25
 73
    21
 74
     0
 42
0.0000000001
 43
0.0000000001
 40
0.0
 40
0.0
 40
0.0
 40
0.0
 40
0.2500000000000066
 40
0.2500000000000066
 40
0.3125000000000066
 40
0.3125000000000066
 40
0.3750000000000064
 40
0.3750000000000064
 40
0.5000000000000047
 40
0.5000000000000047
 40
0.5625000000000043
 40
0.5625000000000043
 40
0.6250000000000038
 40
0.6250000000000038
 40
0.7500000000000018
 40
0.8749999999999998
 40
0.8749999999999998
 40
0.9374999999999998
 40
0.9374999999999998
 40
1.0
 40
1.0
 40
1.0
 40
1.0
 10
4582.245556844707
 20
2461.541348046941
 30
0.0
 10
4582.244945603601
 20
2461.542630109489
 30
0.0
 10
4582.244170333237
 20
2461.543796621061
 30
0.0
 10
4582.243001133172
 20
2461.545113790778
 30
0.0
 10
4582.242756223912
 20
2461.545370884163
 30
0.0
 10
4582.242249637324
 20
2461.545866147686
 30
0.0
 10
4582.241988978886
 20
2461.546103458681
 30
0.0
 10
4582.24118546204
 20
2461.54678520554
 30
0.0
 10
4582.240621164824
 20
2461.547199599228
 30
0.0
 10
4582.239732044169
 20
2461.547761389537
 30
0.0
 10
4582.23942853229
 20
2461.547938650038
 30
0.0
 10
4582.238806954074
 20
2461.54827277588
 30
0.0
 10
4582.23848762678
 20
2461.5484301542
 30
0.0
 10
4582.237520483992
 20
2461.548864913448
 30
0.0
 10
4582.236202968816
 20
2461.549348210829
 30
0.0
 10
4582.234831099614
 20
2461.549644353527
 30
0.0
 10
4582.233781197915
 20
2461.549794152903
 30
0.0
 10
4582.233427399258
 20
2461.549831937595
 30
0.0
 10
4582.232720188737
 20
2461.549882141438
 30
0.0
 10
4582.232365868601
 20
2461.549894721188
 30
0.0
 10
4582.232010830301
 20
2461.549894721188
 30
0.0
  0
LINE
  5
14BE
330
1F
100
AcDbEntity
  8
SANINDUSA
100
AcDbLine
 10
4582.034233024623
 20
2461.549894721188
 30
0.0
 11
4582.232010830301
 21
2461.549894721188
 31
0.0
  0
CIRCLE
  5
14C0
330
1F
100
AcDbEntity
  8
SANINDUSA
100
AcDbCircle
 10
4582.133121927461
 20
2461.488775764647
 30
0.0
 40
0.0175000000000037
  0
SPLINE
  5
14C2
330
1F
100
AcDbEntity
  8
SANINDUSA
100
AcDbSpline
210
0.0
220
0.0
230
1.0
 70
     8
 71
     3
 72
    25
 73
    21
 74
     0
 42
0.0000000001
 43
0.0000000001
 40
0.0
 40
0.0
 40
0.0
 40
0.0
 40
0.2500000000000066
 40
0.2500000000000066
 40
0.3125000000000066
 40
0.3125000000000066
 40
0.3750000000000064
 40
0.3750000000000064
 40
0.5000000000000047
 40
0.5000000000000047
 40
0.5625000000000043
 40
0.5625000000000043
 40
0.6250000000000038
 40
0.6250000000000038
 40
0.7500000000000018
 40
0.8749999999999998
 40
0.8749999999999998
 40
0.9374999999999998
 40
0.9374999999999998
 40
1.0
 40
1.0
 40
1.0
 40
1.0
 10
4582.020687010216
 20
2461.541348046941
 30
0.0
 10
4582.021298251322
 20
2461.542630109489
 30
0.0
 10
4582.022073521686
 20
2461.543796621061
 30
0.0
 10
4582.023242721752
 20
2461.545113790778
 30
0.0
 10
4582.023487631011
 20
2461.545370884163
 30
0.0
 10
4582.023994217599
 20
2461.545866147686
 30
0.0
 10
4582.024254876038
 20
2461.546103458681
 30
0.0
 10
4582.025058392884
 20
2461.54678520554
 30
0.0
 10
4582.0256226901
 20
2461.547199599228
 30
0.0
 10
4582.026511810755
 20
2461.547761389537
 30
0.0
 10
4582.026815322634
 20
2461.547938650038
 30
0.0
 10
4582.02743690085
 20
2461.54827277588
 30
0.0
 10
4582.027756228143
 20
2461.5484301542
 30
0.0
 10
4582.028723370932
 20
2461.548864913448
 30
0.0
 10
4582.030040886108
 20
2461.549348210829
 30
0.0
 10
4582.03141275531
 20
2461.549644353527
 30
0.0
 10
4582.032462657009
 20
2461.549794152903
 30
0.0
 10
4582.032816455664
 20
2461.549831937595
 30
0.0
 10
4582.033523666186
 20
2461.549882141438
 30
0.0
 10
4582.033877986323
 20
2461.549894721188
 30
0.0
 10
4582.034233024623
 20
2461.549894721188
 30
0.0
  0
CIRCLE
  5
14C3
330
1F
100
AcDbEntity
  8
SANINDUSA
100
AcDbCircle
 10
4582.133121927461
 20
2461.333775764647
 30
0.0
 40
0.0235
  0
LWPOLYLINE
  5
14C5
330
1F
100
AcDbEntity
  8
SANINDUSA
100
AcDbPolyline
 90
       13
 70
   128
 43
0.0
 10
4582.133121927461
 20
2461.420534115351
 10
4582.131009417207
 20
2461.420565337489
 10
4582.128957680027
 20
2461.420658105695
 10
4582.127025740663
 20
2461.4208097512
 10
4582.125269177496
 20
2461.421015911437
 10
4582.123738523646
 20
2461.421270655551
 10
4582.12247781324
 20
2461.421566655018
 10
4582.12152331462
 20
2461.421895394474
 10
4582.120902486975
 20
2461.422247416681
 10
4582.120633190384
 20
2461.422612594603
 10
4582.12072317202
 20
2461.422980422734
 10
4582.121169843278
 20
2461.42334031933
 10
4582.121473962306
 20
2461.423492378275
  0
LWPOLYLINE
  5
14C6
330
1F
100
AcDbEntity
  8
SANINDUSA
100
AcDbPolyline
 90
       13
 70
   128
 43
0.0
 10
4582.144590190456
 20
2461.423568238793
 10
4582.145074011646
 20
2461.42334031933
 10
4582.145520682902
 20
2461.422980422734
 10
4582.145610664539
 20
2461.422612594603
 10
4582.145341367949
 20
2461.422247416681
 10
4582.144720540303
 20
2461.421895394474
 10
4582.143766041684
 20
2461.421566655018
 10
4582.142505331278
 20
2461.421270655551
 10
4582.140974677428
 20
2461.421015911437
 10
4582.139218114259
 20
2461.4208097512
 10
4582.137286174896
 20
2461.420658105695
 10
4582.135234437717
 20
2461.420565337489
 10
4582.133121927461
 20
2461.420534115351
  0
SPLINE
  5
14CE
330
1F
100
AcDbEntity
  8
SANINDUSA
100
AcDbSpline
210
0.0
220
0.0
230
1.0
 70
     8
 71
     3
 72
    16
 73
    12
 74
     0
 42
0.0000000001
 43
0.0000000001
 40
0.0
 40
0.0
 40
0.0
 40
0.0
 40
0.0544448843917652
 40
0.1546025519250614
 40
0.2700731792965454
 40
0.3937276856513385
 40
0.5308467048366287
 40
0.675300002879906
 40
0.8229914112298207
 40
0.9793267670371729
 40
1.0
 40
1.0
 40
1.0
 40
1.0
 10
4583.58461906846
 20
2461.462925044774
 30
0.0
 10
4583.584617712524
 20
2461.462795741535
 30
0.0
 10
4583.584613862191
 20
2461.462428570016
 30
0.0
 10
4583.584726428005
 20
2461.461716447971
 30
0.0
 10
4583.58499857514
 20
2461.460855340545
 30
0.0
 10
4583.585484313036
 20
2461.459962761825
 30
0.0
 10
4583.586195505318
 20
2461.459130048333
 30
0.0
 10
4583.587130330608
 20
2461.458431149853
 30
0.0
 10
4583.588247973153
 20
2461.457973216724
 30
0.0
 10
4583.589122055565
 20
2461.457777592249
 30
0.0
 10
4583.589596050908
 20
2461.45782034464
 30
0.0
 10
4583.589651409894
 20
2461.457825337787
 30
0.0
  0
SPLINE
  5
14D0
330
1F
100
AcDbEntity
  8
SANINDUSA
100
AcDbSpline
210
0.0
220
0.0
230
1.0
 70
     8
 71
     3
 72
    52
 73
    48
 74
     0
 42
0.0000000001
 43
0.0000000001
 40
0.0
 40
0.0
 40
0.0
 40
0.0
 40
0.0625000000000018
 40
0.0625000000000018
 40
0.093750000000003
 40
0.093750000000003
 40
0.1250000000000042
 40
0.1250000000000042
 40
0.1875000000000066
 40
0.1875000000000066
 40
0.250000000000009
 40
0.250000000000009
 40
0.3125000000000114
 40
0.3125000000000114
 40
0.3437500000000125
 40
0.3437500000000125
 40
0.3593750000000129
 40
0.3593750000000129
 40
0.3750000000000132
 40
0.3750000000000132
 40
0.5000000000000138
 40
0.5000000000000138
 40
0.5312500000000139
 40
0.5312500000000139
 40
0.5468750000000141
 40
0.5468750000000141
 40
0.5625000000000142
 40
0.5625000000000142
 40
0.6250000000000128
 40
0.6250000000000128
 40
0.6875000000000116
 40
0.6875000000000116
 40
0.7187500000000109
 40
0.7187500000000109
 40
0.7343750000000103
 40
0.7343750000000103
 40
0.7500000000000096
 40
0.7500000000000096
 40
0.8125000000000067
 40
0.8125000000000067
 40
0.8437500000000056
 40
0.8437500000000056
 40
0.8750000000000046
 40
0.8750000000000046
 40
0.9375000000000023
 40
0.9375000000000023
 40
1.0
 40
1.0
 40
1.0
 40
1.0
 10
4583.836407116855
 20
2461.339943741822
 30
0.0
 10
4583.842248170719
 20
2461.340069667658
 30
0.0
 10
4583.848090511323
 20
2461.340287489504
 30
0.0
 10
4583.856856303373
 20
2461.340777136455
 30
0.0
 10
4583.859780509402
 20
2461.340967768592
 30
0.0
 10
4583.865618565719
 20
2461.341407604097
 30
0.0
 10
4583.868532279551
 20
2461.341656777563
 30
0.0
 10
4583.877256156472
 20
2461.342499340568
 30
0.0
 10
4583.883049113318
 20
2461.34318745159
 30
0.0
 10
4583.894580783204
 20
2461.344862289328
 30
0.0
 10
4583.900319515291
 20
2461.345848911183
 30
0.0
 10
4583.911732283603
 20
2461.348178309817
 30
0.0
 10
4583.917406343773
 20
2461.349520954778
 30
0.0
 10
4583.925858872324
 20
2461.351857308208
 30
0.0
 10
4583.928666595917
 20
2461.352689964835
 30
0.0
 10
4583.932861971554
 20
2461.354028185516
 30
0.0
 10
4583.934259179417
 20
2461.354489650393
 30
0.0
 10
4583.937039348472
 20
2461.355440931284
 30
0.0
 10
4583.938422216438
 20
2461.355930672233
 30
0.0
 10
4583.950800950982
 20
2461.360469403397
 30
0.0
 10
4583.961329190223
 20
2461.365432094775
 30
0.0
 10
4583.973727199063
 20
2461.373124904533
 30
0.0
 10
4583.976168583834
 20
2461.37473813901
 30
0.0
 10
4583.979769910843
 20
2461.377276690972
 30
0.0
 10
4583.980960730579
 20
2461.378143039431
 30
0.0
 10
4583.98331946275
 20
2461.379914863413
 30
0.0
 10
4583.984481940124
 20
2461.380816234223
 30
0.0
 10
4583.99021037589
 20
2461.385399931618
 30
0.0
 10
4583.994524104524
 20
2461.389313132802
 30
0.0
 10
4584.002632325567
 20
2461.397614809993
 30
0.0
 10
4584.006426860752
 20
2461.402003246849
 30
0.0
 10
4584.011750044689
 20
2461.408923311672
 30
0.0
 10
4584.013463067861
 20
2461.411286175374
 30
0.0
 10
4584.015943666002
 20
2461.414911877677
 30
0.0
 10
4584.016755712592
 20
2461.416134009873
 30
0.0
 10
4584.018350724281
 20
2461.418604893554
 30
0.0
 10
4584.01913373967
 20
2461.419853824708
 30
0.0
 10
4584.022961635338
 20
2461.426136584031
 30
0.0
 10
4584.025759411516
 20
2461.431305796493
 30
0.0
 10
4584.029618479784
 20
2461.439242112549
 30
0.0
 10
4584.03084944052
 20
2461.441920525013
 30
0.0
 10
4584.033195744953
 20
2461.447304891498
 30
0.0
 10
4584.034312751112
 20
2461.450013985304
 30
0.0
 10
4584.037512290966
 20
2461.458186890386
 30
0.0
 10
4584.039443909477
 20
2461.463696155624
 30
0.0
 10
4584.042979843304
 20
2461.474813266156
 30
0.0
 10
4584.044584063416
 20
2461.480421140124
 30
0.0
 10
4584.04605455685
 20
2461.486069291069
 30
0.0
  0
SPLINE
  5
14D1
330
1F
100
AcDbEntity
  8
SANINDUSA
100
AcDbSpline
210
0.0
220
0.0
230
1.0
 70
     8
 71
     3
 72
    44
 73
    40
 74
     0
 42
0.0000000001
 43
0.0000000001
 40
0.2905192094124671
 40
0.2905192094124671
 40
0.2905192094124671
 40
0.2905192094124671
 40
0.3349724911926733
 40
0.3349724911926733
 40
0.3706887909249357
 40
0.3706887909249357
 40
0.4064050906571982
 40
0.4064050906571982
 40
0.4421213903894607
 40
0.4421213903894607
 40
0.5135539898539854
 40
0.5135539898539854
 40
0.536137277255842
 40
0.536137277255842
 40
0.5562845689691604
 40
0.5562845689691604
 40
0.5764318606824788
 40
0.5764318606824788
 40
0.6167264441091157
 40
0.6167264441091157
 40
0.6973156109623896
 40
0.6973156109623896
 40
0.7270454373306576
 40
0.7270454373306576
 40
0.7579689818977843
 40
0.7579689818977843
 40
0.788892526464911
 40
0.788892526464911
 40
0.828417092223963
 40
0.828417092223963
 40
0.8679416579830149
 40
0.8679416579830149
 40
0.9074662237420671
 40
0.9074662237420671
 40
0.9469907895011191
 40
0.9469907895011191
 40
0.9865153552601711
 40
0.9865153552601711
 40
0.9865589142317155
 40
0.9865589142317155
 40
0.9865589142317155
 40
0.9865589142317155
 10
4583.919499585577
 20
2461.339809604538
 30
0.0
 10
4583.923687825111
 20
2461.340853195877
 30
0.0
 10
4583.927866941415
 20
2461.342005805878
 30
0.0
 10
4583.935383627593
 20
2461.344309884437
 30
0.0
 10
4583.938732034887
 20
2461.345420217246
 30
0.0
 10
4583.945353340809
 20
2461.34780234672
 30
0.0
 10
4583.948630211881
 20
2461.349074714809
 30
0.0
 10
4583.95511227809
 20
2461.35179713605
 30
0.0
 10
4583.958316904638
 20
2461.353247077604
 30
0.0
 10
4583.967808379933
 20
2461.357883973971
 30
0.0
 10
4583.973972417084
 20
2461.361357365752
 30
0.0
 10
4583.981821867972
 20
2461.366505278998
 30
0.0
 10
4583.9836870917
 20
2461.367785540705
 30
0.0
 10
4583.98717616629
 20
2461.370294414345
 30
0.0
 10
4583.988806343812
 20
2461.371515459693
 30
0.0
 10
4583.992002797699
 20
2461.374009882331
 30
0.0
 10
4583.993571869545
 20
2461.375285123734
 30
0.0
 10
4583.998190337841
 20
2461.379192735211
 30
0.0
 10
4584.001151336
 20
2461.381907161549
 30
0.0
 10
4584.00968289694
 20
2461.390365806542
 30
0.0
 10
4584.014898279117
 20
2461.396424395057
 30
0.0
 10
4584.021420535357
 20
2461.405222404686
 30
0.0
 10
4584.023117135991
 20
2461.407643449466
 30
0.0
 10
4584.026457648056
 20
2461.412679276075
 30
0.0
 10
4584.028097781093
 20
2461.415300417966
 30
0.0
 10
4584.031230343978
 20
2461.420594381586
 30
0.0
 10
4584.032726551614
 20
2461.423272694716
 30
0.0
 10
4584.035987479922
 20
2461.429437640351
 30
0.0
 10
4584.037712222188
 20
2461.432943980306
 30
0.0
 10
4584.040968143794
 20
2461.440026460962
 30
0.0
 10
4584.042494565408
 20
2461.443592047507
 30
0.0
 10
4584.045366267234
 20
2461.450753689723
 30
0.0
 10
4584.046712566747
 20
2461.45435136385
 30
0.0
 10
4584.049249366015
 20
2461.461576977074
 30
0.0
 10
4584.050439440992
 20
2461.465203751818
 30
0.0
 10
4584.052684352862
 20
2461.472482486525
 30
0.0
 10
4584.053738974965
 20
2461.476134832844
 30
0.0
 10
4584.054735105577
 20
2461.479801531456
 30
0.0
 10
4584.054736202104
 20
2461.47980556799
 30
0.0
 10
4584.05473729856
 20
2461.479809604538
 30
0.0
  0
SPLINE
  5
14D2
330
1F
100
AcDbEntity
  8
SANINDUSA
100
AcDbSpline
210
0.0
220
0.0
230
1.0
 70
     8
 71
     3
 72
    74
 73
    70
 74
     0
 42
0.0000000001
 43
0.0000000001
 40
0.0
 40
0.0
 40
0.0
 40
0.0
 40
0.0625000000000052
 40
0.0625000000000052
 40
0.0781250000000065
 40
0.0781250000000065
 40
0.0937500000000079
 40
0.0937500000000079
 40
0.1250000000000105
 40
0.1250000000000105
 40
0.1875000000000153
 40
0.1875000000000153
 40
0.2031250000000163
 40
0.2031250000000163
 40
0.2187500000000173
 40
0.2187500000000173
 40
0.2500000000000184
 40
0.2500000000000184
 40
0.2812500000000195
 40
0.2812500000000195
 40
0.2968750000000195
 40
0.2968750000000195
 40
0.3125000000000194
 40
0.3125000000000194
 40
0.3750000000000182
 40
0.3750000000000182
 40
0.4062500000000176
 40
0.4062500000000176
 40
0.4218750000000173
 40
0.4218750000000173
 40
0.437500000000017
 40
0.437500000000017
 40
0.5000000000000143
 40
0.5000000000000143
 40
0.515625000000013
 40
0.515625000000013
 40
0.5312500000000116
 40
0.5312500000000116
 40
0.5625000000000088
 40
0.5625000000000088
 40
0.6250000000000048
 40
0.6250000000000048
 40
0.6406250000000034
 40
0.6406250000000034
 40
0.656250000000002
 40
0.656250000000002
 40
0.6875000000000006
 40
0.6875000000000006
 40
0.7187499999999992
 40
0.7187499999999992
 40
0.7343749999999991
 40
0.7343749999999991
 40
0.7499999999999988
 40
0.7499999999999988
 40
0.8124999999999971
 40
0.8124999999999971
 40
0.8281249999999971
 40
0.8281249999999971
 40
0.8437499999999975
 40
0.8437499999999975
 40
0.8749999999999976
 40
0.8749999999999976
 40
0.9374999999999987
 40
0.9374999999999987
 40
0.9531249999999989
 40
0.9531249999999989
 40
0.9687499999999992
 40
0.9687499999999992
 40
1.0
 40
1.0
 40
1.0
 40
1.0
 10
4583.836407116855
 20
2461.339943741822
 30
0.0
 10
4583.836411617152
 20
2461.339947653871
 30
0.0
 10
4583.836184950575
 20
2461.339956994895
 30
0.0
 10
4583.835619126115
 20
2461.339974543925
 30
0.0
 10
4583.8354917161
 20
2461.339978355396
 30
0.0
 10
4583.835208116911
 20
2461.339986620015
 30
0.0
 10
4583.835051547214
 20
2461.339991082889
 30
0.0
 10
4583.834540808132
 20
2461.340005512916
 30
0.0
 10
4583.834147536864
 20
2461.340016494848
 30
0.0
 10
4583.832814864136
 20
2461.340053874291
 30
0.0
 10
4583.831724031167
 20
2461.340084703453
 30
0.0
 10
4583.830101239558
 20
2461.340129649567
 30
0.0
 10
4583.829762679402
 20
2461.340138983803
 30
0.0
 10
4583.829063547129
 20
2461.340158142932
 30
0.0
 10
4583.82870359248
 20
2461.340167951523
 30
0.0
 10
4583.827593123266
 20
2461.34019799681
 30
0.0
 10
4583.826812055755
 20
2461.340218829218
 30
0.0
 10
4583.825169667312
 20
2461.340261856115
 30
0.0
 10
4583.824308357718
 20
2461.340284066096
 30
0.0
 10
4583.822955675297
 20
2461.340318535072
 30
0.0
 10
4583.82249464505
 20
2461.340330218608
 30
0.0
 10
4583.821551988773
 20
2461.34035397915
 30
0.0
 10
4583.821069067774
 20
2461.340366088549
 30
0.0
 10
4583.818618505107
 20
2461.340427148677
 30
0.0
 10
4583.816557236475
 20
2461.34047740057
 30
0.0
 10
4583.813317509206
 20
2461.34055118341
 30
0.0
 10
4583.812212782851
 20
2461.340575505012
 30
0.0
 10
4583.810517245084
 20
2461.340611079077
 30
0.0
 10
4583.809944002882
 20
2461.340622817551
 30
0.0
 10
4583.808793323795
 20
2461.340645709489
 30
0.0
 10
4583.80821643933
 20
2461.340656854259
 30
0.0
 10
4583.805324407556
 20
2461.340710814819
 30
0.0
 10
4583.802986691152
 20
2461.340748630669
 30
0.0
 10
4583.800033634658
 20
2461.340782192597
 30
0.0
 10
4583.799441461703
 20
2461.34078820313
 30
0.0
 10
4583.79825390739
 20
2461.340798594346
 30
0.0
 10
4583.797656724378
 20
2461.340802982597
 30
0.0
 10
4583.795878384685
 20
2461.34081326556
 30
0.0
 10
4583.794708285878
 20
2461.340816307088
 30
0.0
 10
4583.791243340572
 20
2461.340812821792
 30
0.0
 10
4583.788993456486
 20
2461.340793439362
 30
0.0
 10
4583.786258762928
 20
2461.340747277781
 30
0.0
 10
4583.785716191371
 20
2461.340736971905
 30
0.0
 10
4583.784651792585
 20
2461.340714609241
 30
0.0
 10
4583.784128309345
 20
2461.340702526439
 30
0.0
 10
4583.782583389375
 20
2461.340663907729
 30
0.0
 10
4583.78158742586
 20
2461.340634992912
 30
0.0
 10
4583.779661583937
 20
2461.340572868414
 30
0.0
 10
4583.778731702579
 20
2461.340539666128
 30
0.0
 10
4583.777386424174
 20
2461.340488321761
 30
0.0
 10
4583.776945148543
 20
2461.340470904769
 30
0.0
 10
4583.776085624243
 20
2461.340436093387
 30
0.0
 10
4583.775667577274
 20
2461.34041871128
 30
0.0
 10
4583.773634286624
 20
2461.340332560999
 30
0.0
 10
4583.772188103904
 20
2461.340266273041
 30
0.0
 10
4583.770598896905
 20
2461.34019452932
 30
0.0
 10
4583.770292088674
 20
2461.340180726337
 30
0.0
 10
4583.769700783618
 20
2461.340154378864
 30
0.0
 10
4583.769416493604
 20
2461.340141844962
 30
0.0
 10
4583.768605432022
 20
2461.340106698246
 30
0.0
 10
4583.768117301121
 20
2461.340086415442
 30
0.0
 10
4583.76680595879
 20
2461.340035791068
 30
0.0
 10
4583.766133976237
 20
2461.340016059921
 30
0.0
 10
4583.765557190615
 20
2461.340007223738
 30
0.0
 10
4583.765455194595
 20
2461.340006223481
 30
0.0
 10
4583.765280214342
 20
2461.340005580907
 30
0.0
 10
4583.765206892607
 20
2461.34000593177
 30
0.0
 10
4583.765029085497
 20
2461.340008637223
 30
0.0
 10
4583.764966581527
 20
2461.340012712674
 30
0.0
 10
4583.764961185983
 20
2461.340017402949
 30
0.0
  0
SPLINE
  5
14D4
330
1F
100
AcDbEntity
  8
SANINDUSA
100
AcDbSpline
210
0.0
220
0.0
230
1.0
 70
     8
 71
     3
 72
     8
 73
     4
 74
     0
 42
0.0000000001
 43
0.0000000001
 40
0.0
 40
0.0
 40
0.0
 40
0.0
 40
1.0
 40
1.0
 40
1.0
 40
1.0
 10
4583.743870380615
 20
2461.341390911186
 30
0.0
 10
4583.750897252683
 20
2461.340690512673
 30
0.0
 10
4583.757927784897
 20
2461.340251513533
 30
0.0
 10
4583.764961185983
 20
2461.340017402949
 30
0.0
  0
SPLINE
  5
14D6
330
1F
100
AcDbEntity
  8
SANINDUSA
100
AcDbSpline
210
0.0
220
0.0
230
1.0
 70
     8
 71
     3
 72
    18
 73
    14
 74
     0
 42
0.0000000001
 43
0.0000000001
 40
0.0
 40
0.0
 40
0.0
 40
0.0
 40
0.2499999999999802
 40
0.2499999999999802
 40
0.4999999999999605
 40
0.4999999999999605
 40
0.6249999999999704
 40
0.6249999999999704
 40
0.7499999999999803
 40
0.7499999999999803
 40
0.87499999999999
 40
0.87499999999999
 40
1.0
 40
1.0
 40
1.0
 40
1.0
 10
4584.04605455685
 20
2461.486069291069
 30
0.0
 10
4584.046193993841
 20
2461.486604867189
 30
0.0
 10
4584.046416136364
 20
2461.487103173142
 30
0.0
 10
4584.047025123919
 20
2461.488025564013
 30
0.0
 10
4584.047397344443
 20
2461.488426581913
 30
0.0
 10
4584.048052140863
 20
2461.488933131195
 30
0.0
 10
4584.048283371518
 20
2461.489083034003
 30
0.0
 10
4584.048763888937
 20
2461.489341659072
 30
0.0
 10
4584.0490142478
 20
2461.489451220075
 30
0.0
 10
4584.049535783837
 20
2461.48962963047
 30
0.0
 10
4584.049803913199
 20
2461.489697105295
 30
0.0
 10
4584.050343602457
 20
2461.489786794798
 30
0.0
 10
4584.050616822663
 20
2461.489809604538
 30
0.0
 10
4584.050893537129
 20
2461.489809604538
 30
0.0
  0
ARC
  5
14D7
330
1F
100
AcDbEntity
  8
SANINDUSA
100
AcDbCircle
 10
4584.080375059114
 20
2461.484809604538
 30
0.0
 40
0.0050000000000142
100
AcDbArc
 50
343.7038839043232
 51
90.0
  0
SPLINE
  5
14D9
330
1F
100
AcDbEntity
  8
SANINDUSA
100
AcDbSpline
210
0.0
220
0.0
230
1.0
 70
     8
 71
     3
 72
    28
 73
    24
 74
     0
 42
0.0000000001
 43
0.0000000001
 40
0.0
 40
0.0
 40
0.0
 40
0.0
 40
0.1250000000000016
 40
0.1250000000000016
 40
0.2500000000000031
 40
0.2500000000000031
 40
0.3125000000000049
 40
0.3125000000000049
 40
0.3750000000000067
 40
0.3750000000000067
 40
0.5000000000000044
 40
0.5000000000000044
 40
0.5625000000000047
 40
0.5625000000000047
 40
0.625000000000005
 40
0.625000000000005
 40
0.7500000000000034
 40
0.7500000000000034
 40
0.8125000000000015
 40
0.8125000000000015
 40
0.8749999999999996
 40
0.8749999999999996
 40
1.0
 40
1.0
 40
1.0
 40
1.0
 10
4583.730585584131
 20
2461.353713233157
 30
0.0
 10
4583.730727610883
 20
2461.352907759413
 30
0.0
 10
4583.730933095075
 20
2461.352124962664
 30
0.0
 10
4583.731465659444
 20
2461.350602822415
 30
0.0
 10
4583.731792744948
 20
2461.349863480818
 30
0.0
 10
4583.732377944087
 20
2461.348788264044
 30
0.0
 10
4583.732587816862
 20
2461.348437684819
 30
0.0
 10
4583.733031834269
 20
2461.347759750992
 30
0.0
 10
4583.733266645994
 20
2461.347431149826
 30
0.0
 10
4583.734008932162
 20
2461.346475991735
 30
0.0
 10
4583.734554005537
 20
2461.345879876141
 30
0.0
 10
4583.735449209341
 20
2461.345048525194
 30
0.0
 10
4583.735760716207
 20
2461.344782106718
 30
0.0
 10
4583.736398384341
 20
2461.344280088898
 30
0.0
 10
4583.736725906226
 20
2461.344043160848
 30
0.0
 10
4583.737734072941
 20
2461.34337386985
 30
0.0
 10
4583.738440150902
 20
2461.342982727888
 30
0.0
 10
4583.739551411927
 20
2461.342480527944
 30
0.0
 10
4583.73993182123
 20
2461.342326947788
 30
0.0
 10
4583.74069823076
 20
2461.342053341371
 30
0.0
 10
4583.741085412637
 20
2461.341932668727
 30
0.0
 10
4583.742258714762
 20
2461.34161833335
 30
0.0
 10
4583.743056512537
 20
2461.341472032911
 30
0.0
 10
4583.743870380615
 20
2461.341390911186
 30
0.0
  0
ARC
  5
14DA
330
1F
100
AcDbEntity
  8
SANINDUSA
100
AcDbCircle
 10
4584.035744761396
 20
2461.324300659212
 30
0.0
 40
0.0200000000000004
100
AcDbArc
 50
148.1180326273171
 51
181.6000000025688
  0
ARC
  5
14DB
330
1F
100
AcDbEntity
  8
SANINDUSA
100
AcDbCircle
 10
4584.035744761396
 20
2461.324300659212
 30
0.0
 40
0.0300000000000004
100
AcDbArc
 50
148.1180326273171
 51
169.0008606571116
  0
LINE
  5
14DC
330
1F
100
AcDbEntity
  8
SANINDUSA
100
AcDbLine
 10
4584.015752559095
 20
2461.323742226437
 30
0.0
 11
4584.021921426241
 21
2461.102893369454
 31
0.0
  0
LINE
  5
14DD
330
1F
100
AcDbEntity
  8
SANINDUSA
100
AcDbLine
 10
4583.764961185983
 20
2461.340017402949
 30
0.0
 11
4583.777226520136
 21
2461.329355310635
 31
0.0
  0
LINE
  5
14DE
330
1F
100
AcDbEntity
  8
SANINDUSA
100
AcDbLine
 10
4583.824226520135
 20
2461.329355310635
 30
0.0
 11
4583.836407116855
 21
2461.339943741822
 31
0.0
  0
LINE
  5
14DF
330
1F
100
AcDbEntity
  8
SANINDUSA
100
AcDbLine
 10
4583.777226520136
 20
2461.329355310635
 30
0.0
 11
4583.824226520135
 21
2461.329355310635
 31
0.0
  0
ARC
  5
14E0
330
1F
100
AcDbEntity
  8
SANINDUSA
100
AcDbCircle
 10
4584.018922595896
 20
2461.102809604538
 30
0.0
 40
0.0029999999999999
100
AcDbArc
 50
270.0
 51
1.600000002568872
  0
LINE
  5
14E1
330
1F
100
AcDbEntity
  8
SANINDUSA
100
AcDbLine
 10
4584.010002883151
 20
2461.099809604538
 30
0.0
 11
4584.018922595896
 21
2461.099809604538
 31
0.0
  0
LINE
  5
14E2
330
1F
100
AcDbEntity
  8
SANINDUSA
100
AcDbLine
 10
4584.004121453579
 20
2461.310368037313
 30
0.0
 11
4584.010002883151
 21
2461.099809604538
 31
0.0
  0
ARC
  5
14E3
330
1F
100
AcDbEntity
  8
SANINDUSA
100
AcDbCircle
 10
4583.984129251279
 20
2461.309809604538
 30
0.0
 40
0.02
100
AcDbArc
 50
1.600000002568872
 51
90.0
  0
ARC
  5
14E4
330
1F
100
AcDbEntity
  8
SANINDUSA
100
AcDbCircle
 10
4583.984129251279
 20
2461.309809604538
 30
0.0
 40
0.03
100
AcDbArc
 50
42.3633127069534
 51
90.0
  0
LINE
  5
14E5
330
1F
100
AcDbEntity
  8
SANINDUSA
100
AcDbLine
 10
4583.841622311255
 20
2461.329809604538
 30
0.0
 11
4583.984129251279
 21
2461.329809604538
 31
0.0
  0
LINE
  5
14E6
330
1F
100
AcDbEntity
  8
SANINDUSA
100
AcDbLine
 10
4583.919499585577
 20
2461.339809604538
 30
0.0
 11
4583.984129251279
 21
2461.339809604538
 31
0.0
  0
ARC
  5
14E7
330
1F
100
AcDbEntity
  8
SANINDUSA
100
AcDbCircle
 10
4583.841622311255
 20
2461.324809604538
 30
0.0
 40
0.005
100
AcDbArc
 50
90.0
 51
178.3999999974311
  0
LINE
  5
14E8
330
1F
100
AcDbEntity
  8
SANINDUSA
100
AcDbLine
 10
4583.83662426068
 20
2461.324949212732
 30
0.0
 11
4583.835726520136
 21
2461.292809604538
 31
0.0
  0
LINE
  5
14E9
330
1F
100
AcDbEntity
  8
SANINDUSA
100
AcDbLine
 10
4583.835726520136
 20
2461.292809604538
 30
0.0
 11
4583.824226520135
 21
2461.292809604538
 31
0.0
  0
LINE
  5
14EA
330
1F
100
AcDbEntity
  8
SANINDUSA
100
AcDbLine
 10
4583.824226520135
 20
2461.329355310635
 30
0.0
 11
4583.824226520135
 21
2461.292809604538
 31
0.0
  0
SPLINE
  5
14EB
330
1F
100
AcDbEntity
  8
SANINDUSA
100
AcDbSpline
210
0.0
220
0.0
230
1.0
 70
     8
 71
     3
 72
     8
 73
     4
 74
     0
 42
0.0000000001
 43
0.0000000001
 40
0.0378164515526692
 40
0.0378164515526692
 40
0.0378164515526692
 40
0.0378164515526692
 40
0.9660979017182578
 40
0.9660979017182578
 40
0.9660979017182578
 40
0.9660979017182578
 10
4584.018762002193
 20
2461.334864081469
 30
0.0
 10
4584.047541488561
 20
2461.381132712516
 30
0.0
 10
4584.069885084876
 20
2461.431108806377
 30
0.0
 10
4584.085174180691
 20
2461.483406596309
 30
0.0
  0
SPLINE
  5
14EC
330
1F
100
AcDbEntity
  8
SANINDUSA
100
AcDbSpline
210
0.0
220
0.0
230
1.0
 70
     8
 71
     3
 72
    12
 73
     8
 74
     0
 42
0.0000000001
 43
0.0000000001
 40
0.0378164515526692
 40
0.0378164515526692
 40
0.0378164515526692
 40
0.0378164515526692
 40
0.2530356498020168
 40
0.2530356498020168
 40
0.6834740463007123
 40
0.6834740463007123
 40
0.9274996264583942
 40
0.9274996264583942
 40
0.9274996264583942
 40
0.9274996264583942
 10
4584.01027062259
 20
2461.340145792599
 30
0.0
 10
4584.016831842904
 20
2461.350694232485
 30
0.0
 10
4584.023052884247
 20
2461.361438642946
 30
0.0
 10
4584.040672731875
 20
2461.394208850876
 30
0.0
 10
4584.051028259438
 20
2461.4167716257
 30
0.0
 10
4584.064979852511
 20
2461.453034659642
 30
0.0
 10
4584.069561048134
 20
2461.466341295121
 30
0.0
 10
4584.073664611081
 20
2461.479809604538
 30
0.0
  0
LINE
  5
14ED
330
1F
100
AcDbEntity
  8
SANINDUSA
100
AcDbLine
 10
4584.080375059114
 20
2461.489809604538
 30
0.0
 11
4584.050893537129
 21
2461.489809604538
 31
0.0
  0
LINE
  5
14EE
330
1F
100
AcDbEntity
  8
SANINDUSA
100
AcDbLine
 10
4584.073664611081
 20
2461.479809604538
 30
0.0
 11
4584.05473729856
 21
2461.479809604538
 31
0.0
  0
LINE
  5
14EF
330
1F
100
AcDbEntity
  8
SANINDUSA
100
AcDbLine
 10
4584.010002883151
 20
2461.099809604538
 30
0.0
 11
4583.918289021965
 21
2461.099809604538
 31
0.0
  0
LINE
  5
14F3
330
1F
100
AcDbEntity
  8
SANINDUSA
100
AcDbLine
 10
4583.660979622437
 20
2461.099809604538
 30
0.0
 11
4583.675337626791
 21
2461.099809604538
 31
0.0
  0
ARC
  5
14F4
330
1F
100
AcDbEntity
  8
SANINDUSA
100
AcDbCircle
 10
4583.660979622437
 20
2461.102809604538
 30
0.0
 40
0.0030000000000001
100
AcDbArc
 50
177.9999999962464
 51
270.0
  0
LINE
  5
14F5
330
1F
100
AcDbEntity
  8
SANINDUSA
100
AcDbLine
 10
4583.659269862276
 20
2461.139809604538
 30
0.0
 11
4583.657981449956
 21
2461.102914303028
 31
0.0
  0
LINE
  5
14F6
330
1F
100
AcDbEntity
  8
SANINDUSA
100
AcDbLine
 10
4583.675337626791
 20
2461.099809604538
 30
0.0
 11
4583.676734457571
 21
2461.139809604538
 31
0.0
  0
LINE
  5
14F7
330
1F
100
AcDbEntity
  8
SANINDUSA
100
AcDbLine
 10
4583.676734457571
 20
2461.139809604538
 30
0.0
 11
4583.659269862276
 21
2461.139809604538
 31
0.0
  0
LINE
  5
14FB
330
1F
100
AcDbEntity
  8
SANINDUSA
100
AcDbLine
 10
4583.777226520136
 20
2461.326642864373
 30
0.0
 11
4583.777226520136
 21
2461.329355310635
 31
0.0
  0
LINE
  5
14FC
330
1F
100
AcDbEntity
  8
SANINDUSA
100
AcDbLine
 10
4583.777226520136
 20
2461.292809604538
 30
0.0
 11
4583.824226520135
 21
2461.292809604538
 31
0.0
  0
LINE
  5
14FE
330
1F
100
AcDbEntity
  8
SANINDUSA
100
AcDbLine
 10
4583.777226520136
 20
2461.292809604538
 30
0.0
 11
4583.777226520136
 21
2461.308304148845
 31
0.0
  0
ARC
  5
14FF
330
1F
100
AcDbEntity
  8
SANINDUSA
100
AcDbCircle
 10
4583.674028555448
 20
2461.472809604538
 30
0.0
 40
0.0049999999999999
100
AcDbArc
 50
9.328879751574135
 51
90.0
  0
LINE
  5
1500
330
1F
100
AcDbEntity
  8
SANINDUSA
100
AcDbLine
 10
4583.663226520136
 20
2461.477809604538
 30
0.0
 11
4583.674028555448
 21
2461.477809604538
 31
0.0
  0
LINE
  5
1501
330
1F
100
AcDbEntity
  8
SANINDUSA
100
AcDbLine
 10
4583.663226520136
 20
2461.488309604538
 30
0.0
 11
4583.663226520136
 21
2461.477809604538
 31
0.0
  0
ARC
  5
1502
330
1F
100
AcDbEntity
  8
SANINDUSA
100
AcDbCircle
 10
4583.664726520136
 20
2461.488309604538
 30
0.0
 40
0.0014999999999999
100
AcDbArc
 50
90.0
 51
180.0
  0
ARC
  5
1503
330
1F
100
AcDbEntity
  8
SANINDUSA
100
AcDbCircle
 10
4583.702392623724
 20
2461.484809604538
 30
0.0
 40
0.005
100
AcDbArc
 50
9.999999996698591
 51
90.0
  0
ARC
  5
1504
330
1F
100
AcDbEntity
  8
SANINDUSA
100
AcDbCircle
 10
4583.708294860882
 20
2461.474371436189
 30
0.0
 40
0.0010000000000001
100
AcDbArc
 50
279.9999999755637
 51
9.999999996698591
  0
LINE
  5
1505
330
1F
100
AcDbEntity
  8
SANINDUSA
100
AcDbLine
 10
4583.699605239281
 20
2461.471823794836
 30
0.0
 11
4583.708468509058
 21
2461.473386628436
 31
0.0
  0
LINE
  5
1506
330
1F
100
AcDbEntity
  8
SANINDUSA
100
AcDbLine
 10
4583.698549779529
 20
2461.477809604538
 30
0.0
 11
4583.699605239281
 21
2461.471823794836
 31
0.0
  0
LINE
  5
1507
330
1F
100
AcDbEntity
  8
SANINDUSA
100
AcDbLine
 10
4583.68840823301
 20
2461.477809604538
 30
0.0
 11
4583.698549779529
 21
2461.477809604538
 31
0.0
  0
LINE
  5
1508
330
1F
100
AcDbEntity
  8
SANINDUSA
100
AcDbLine
 10
4583.710950953574
 20
2461.340583164914
 30
0.0
 11
4583.68840823301
 21
2461.477809604538
 31
0.0
  0
ARC
  5
1509
330
1F
100
AcDbEntity
  8
SANINDUSA
100
AcDbCircle
 10
4583.745488048303
 20
2461.346256707694
 30
0.0
 40
0.0350000000000001
100
AcDbArc
 50
189.3288797515741
 51
264.5361293302726
  0
LINE
  5
150A
330
1F
100
AcDbEntity
  8
SANINDUSA
100
AcDbLine
 10
4583.777226520136
 20
2461.308304148845
 30
0.0
 11
4583.742155416172
 21
2461.311415732347
 31
0.0
  0
LINE
  5
150B
330
1F
100
AcDbEntity
  8
SANINDUSA
100
AcDbLine
 10
4583.777226520136
 20
2461.292809604538
 30
0.0
 11
4583.765726520136
 21
2461.292809604538
 31
0.0
  0
LINE
  5
150C
330
1F
100
AcDbEntity
  8
SANINDUSA
100
AcDbLine
 10
4583.765726520136
 20
2461.292809604538
 30
0.0
 11
4583.765657372617
 21
2461.295285123968
 31
0.0
  0
ARC
  5
150D
330
1F
100
AcDbEntity
  8
SANINDUSA
100
AcDbCircle
 10
4583.760659322041
 20
2461.295145515775
 30
0.0
 40
0.0050000000000003
100
AcDbArc
 50
1.600000002568872
 51
87.69100838253967
  0
SPLINE
  5
150E
330
1F
100
AcDbEntity
  8
SANINDUSA
100
AcDbSpline
210
0.0
220
0.0
230
1.0
 70
     8
 71
     3
 72
    12
 73
     8
 74
     0
 42
0.0000000001
 43
0.0000000001
 40
7.182185738621956
 40
7.182185738621956
 40
7.182185738621956
 40
7.182185738621956
 40
7.240027344486307
 40
7.240027344486307
 40
7.490027344486307
 40
7.490027344486307
 40
7.705779694723758
 40
7.705779694723758
 40
7.705779694723758
 40
7.705779694723758
 10
4583.760860765037
 20
2461.300141456198
 30
0.0
 10
4583.760144035262
 20
2461.300170355701
 30
0.0
 10
4583.759426613109
 20
2461.30020126416
 30
0.0
 10
4583.755604720889
 20
2461.300376704568
 30
0.0
 10
4583.752488246687
 20
2461.300557338498
 30
0.0
 10
4583.746648701408
 20
2461.300974644527
 30
0.0
 10
4583.74393167997
 20
2461.301200184984
 30
0.0
 10
4583.741203235564
 20
2461.301461167962
 30
0.0
  0
ARC
  5
150F
330
1F
100
AcDbEntity
  8
SANINDUSA
100
AcDbCircle
 10
4583.745488048303
 20
2461.346256707694
 30
0.0
 40
0.0450000000000002
100
AcDbArc
 50
189.3288797515741
 51
264.5361293302726
  0
LINE
  5
1510
330
1F
100
AcDbEntity
  8
SANINDUSA
100
AcDbLine
 10
4583.701083212223
 20
2461.338962152692
 30
0.0
 11
4583.678962426123
 21
2461.473620110649
 31
0.0
  0
LINE
  5
1511
330
1F
100
AcDbEntity
  8
SANINDUSA
100
AcDbLine
 10
4583.709279668634
 20
2461.474545084366
 30
0.0
 11
4583.707316662489
 21
2461.485677845426
 31
0.0
  0
LINE
  5
1512
330
1F
100
AcDbEntity
  8
SANINDUSA
100
AcDbLine
 10
4583.702392623724
 20
2461.489809604538
 30
0.0
 11
4583.664726520136
 21
2461.489809604538
 31
0.0
  0
LINE
  5
1513
330
1F
100
AcDbEntity
  8
SANINDUSA
100
AcDbLine
 10
4583.752529983511
 20
2461.33063253219
 30
0.0
 11
4583.777226520136
 21
2461.326642864373
 31
0.0
  0
SPLINE
  5
1514
330
1F
100
AcDbEntity
  8
SANINDUSA
100
AcDbSpline
210
0.0
220
0.0
230
1.0
 70
     8
 71
     3
 72
     8
 73
     4
 74
     0
 42
0.0000000001
 43
0.0000000001
 40
0.0
 40
0.0
 40
0.0
 40
0.0
 40
0.2801629259314724
 40
0.2801629259314724
 40
0.2801629259314724
 40
0.2801629259314724
 10
4583.742878552387
 20
2461.33144021891
 30
0.0
 10
4583.746100054155
 20
2461.331119117995
 30
0.0
 10
4583.749317297017
 20
2461.330851758039
 30
0.0
 10
4583.752529983511
 20
2461.33063253219
 30
0.0
  0
SPLINE
  5
1515
330
1F
100
AcDbEntity
  8
SANINDUSA
100
AcDbSpline
210
0.0
220
0.0
230
1.0
 70
     8
 71
     3
 72
    48
 73
    44
 74
     0
 42
0.0000000001
 43
0.0000000001
 40
0.0
 40
0.0
 40
0.0
 40
0.0
 40
0.125000000000001
 40
0.125000000000001
 40
0.250000000000002
 40
0.250000000000002
 40
0.2812500000000014
 40
0.2812500000000014
 40
0.3125000000000009
 40
0.3125000000000009
 40
0.3749999999999976
 40
0.3749999999999976
 40
0.4374999999999943
 40
0.4374999999999943
 40
0.4999999999999911
 40
0.4999999999999911
 40
0.5156249999999907
 40
0.5156249999999907
 40
0.5312499999999903
 40
0.5312499999999903
 40
0.5624999999999912
 40
0.5624999999999912
 40
0.593749999999992
 40
0.593749999999992
 40
0.6249999999999928
 40
0.6249999999999928
 40
0.6874999999999967
 40
0.6874999999999967
 40
0.7500000000000007
 40
0.7500000000000007
 40
0.7656250000000006
 40
0.7656250000000006
 40
0.7812500000000005
 40
0.7812500000000005
 40
0.8125000000000001
 40
0.8125000000000001
 40
0.8437499999999998
 40
0.8437499999999998
 40
0.8749999999999996
 40
0.8749999999999996
 40
0.9374999999999998
 40
0.9374999999999998
 40
1.0
 40
1.0
 40
1.0
 40
1.0
 10
4583.720737506601
 20
2461.351976751381
 30
0.0
 10
4583.720973560034
 20
2461.350638025832
 30
0.0
 10
4583.721317865367
 20
2461.349326336562
 30
0.0
 10
4583.722203007822
 20
2461.346796480955
 30
0.0
 10
4583.722751076207
 20
2461.345557646922
 30
0.0
 10
4583.723561631807
 20
2461.344068371017
 30
0.0
 10
4583.723730980174
 20
2461.343771822562
 30
0.0
 10
4583.724079229413
 20
2461.343189813322
 30
0.0
 10
4583.724258947898
 20
2461.342902849997
 30
0.0
 10
4583.724815267458
 20
2461.34205345121
 30
0.0
 10
4583.725205998542
 20
2461.34150679564
 30
0.0
 10
4583.726030183696
 20
2461.340446251674
 30
0.0
 10
4583.726463176556
 20
2461.339932917631
 30
0.0
 10
4583.727373450215
 20
2461.338938604969
 30
0.0
 10
4583.727849898176
 20
2461.338458699136
 30
0.0
 10
4583.72846990084
 20
2461.337882919855
 30
0.0
 10
4583.728596586444
 20
2461.337767660739
 30
0.0
 10
4583.728850274835
 20
2461.337541556921
 30
0.0
 10
4583.728978132437
 20
2461.337429918422
 30
0.0
 10
4583.729364888049
 20
2461.337099070898
 30
0.0
 10
4583.729626955114
 20
2461.336883919746
 30
0.0
 10
4583.730160591873
 20
2461.336463802843
 30
0.0
 10
4583.730428685865
 20
2461.336261455441
 30
0.0
 10
4583.730974667698
 20
2461.335866343727
 30
0.0
 10
4583.731251248998
 20
2461.335674607886
 30
0.0
 10
4583.732090815458
 20
2461.335117245432
 30
0.0
 10
4583.732664675228
 20
2461.334768589163
 30
0.0
 10
4583.73384335807
 20
2461.334116363129
 30
0.0
 10
4583.734447066361
 20
2461.333813533713
 30
0.0
 10
4583.735216743217
 20
2461.333465702136
 30
0.0
 10
4583.735373391811
 20
2461.333396826326
 30
0.0
 10
4583.735685690654
 20
2461.33326331223
 30
0.0
 10
4583.735842433816
 20
2461.33319818008
 30
0.0
 10
4583.736314655794
 20
2461.333007549501
 30
0.0
 10
4583.73663211737
 20
2461.332886802073
 30
0.0
 10
4583.737273632063
 20
2461.332657782822
 30
0.0
 10
4583.737593105028
 20
2461.332551043225
 30
0.0
 10
4583.738238606932
 20
2461.332349754103
 30
0.0
 10
4583.738563003804
 20
2461.332255787126
 30
0.0
 10
4583.739540112794
 20
2461.331994013185
 30
0.0
 10
4583.740197999771
 20
2461.331845839549
 30
0.0
 10
4583.741529674482
 20
2461.331602474855
 30
0.0
 10
4583.742202133508
 20
2461.331507640484
 30
0.0
 10
4583.742878552387
 20
2461.33144021891
 30
0.0
  0
LINE
  5
1516
330
1F
100
AcDbEntity
  8
SANINDUSA
100
AcDbLine
 10
4583.704293740078
 20
2461.445233985505
 30
0.0
 11
4583.720737506601
 21
2461.351976751381
 31
0.0
  0
LINE
  5
1517
330
1F
100
AcDbEntity
  8
SANINDUSA
100
AcDbLine
 10
4583.713157009856
 20
2461.446796819104
 30
0.0
 11
4583.704293740078
 21
2461.445233985505
 31
0.0
  0
ARC
  5
1518
330
1F
100
AcDbEntity
  8
SANINDUSA
100
AcDbCircle
 10
4583.713330658033
 20
2461.445812011351
 30
0.0
 40
0.001
100
AcDbArc
 50
9.999999996698591
 51
99.99999997556374
  0
LINE
  5
1519
330
1F
100
AcDbEntity
  8
SANINDUSA
100
AcDbLine
 10
4583.730585584131
 20
2461.353713233157
 30
0.0
 11
4583.714315465786
 21
2461.445985659528
 31
0.0
  0
LINE
  5
151C
330
1F
100
AcDbEntity
  8
SANINDUSA
100
AcDbLine
 10
4583.709279668634
 20
2461.474545084366
 30
0.0
 11
4583.714315465786
 21
2461.445985659528
 31
0.0
  0
LINE
  5
151D
330
1F
100
AcDbEntity
  8
SANINDUSA
100
AcDbLine
 10
4583.663226520136
 20
2461.477809604538
 30
0.0
 11
4583.628226520136
 21
2461.477809604538
 31
0.0
  0
LINE
  5
151F
330
1F
100
AcDbEntity
  8
SANINDUSA
100
AcDbLine
 10
4583.628226520136
 20
2461.477809604538
 30
0.0
 11
4583.628226520136
 21
2461.488309604538
 31
0.0
  0
LINE
  5
1521
330
1F
100
AcDbEntity
  8
SANINDUSA
100
AcDbLine
 10
4583.589607563595
 20
2461.477809604538
 30
0.0
 11
4583.628226520136
 21
2461.477809604538
 31
0.0
  0
ARC
  5
1522
330
1F
100
AcDbEntity
  8
SANINDUSA
100
AcDbCircle
 10
4583.589607563595
 20
2461.482809604538
 30
0.0
 40
0.005
100
AcDbArc
 50
180.0
 51
270.0
  0
LINE
  5
1523
330
1F
100
AcDbEntity
  8
SANINDUSA
100
AcDbLine
 10
4583.584607563595
 20
2461.482809604538
 30
0.0
 11
4583.584607563595
 21
2461.484809604538
 31
0.0
  0
ARC
  5
1524
330
1F
100
AcDbEntity
  8
SANINDUSA
100
AcDbCircle
 10
4583.589607563595
 20
2461.484809604538
 30
0.0
 40
0.005
100
AcDbArc
 50
90.0
 51
180.0
  0
ARC
  5
1525
330
1F
100
AcDbEntity
  8
SANINDUSA
100
AcDbCircle
 10
4583.626726520136
 20
2461.488309604538
 30
0.0
 40
0.0015000000000001
100
AcDbArc
 50
0.0
 51
90.0
  0
LINE
  5
1526
330
1F
100
AcDbEntity
  8
SANINDUSA
100
AcDbLine
 10
4583.626726520136
 20
2461.489809604538
 30
0.0
 11
4583.589607563595
 21
2461.489809604538
 31
0.0
  0
LINE
  5
1527
330
1F
100
AcDbEntity
  8
SANINDUSA
100
AcDbLine
 10
4583.626726520136
 20
2461.489809604538
 30
0.0
 11
4583.664726520136
 21
2461.489809604538
 31
0.0
  0
LINE
  5
1528
330
1F
100
AcDbEntity
  8
SANINDUSA
100
AcDbLine
 10
4583.704293740078
 20
2461.445233985505
 30
0.0
 11
4583.699605239281
 21
2461.471823794836
 31
0.0
  0
LINE
  5
152A
330
1F
100
AcDbEntity
  8
SANINDUSA
100
AcDbLine
 10
4583.687562867278
 20
2461.40652421968
 30
0.0
 11
4583.682161780051
 21
2461.387337081049
 31
0.0
  0
LINE
  5
152B
330
1F
100
AcDbEntity
  8
SANINDUSA
100
AcDbLine
 10
4583.687982045441
 20
2461.408013332744
 30
0.0
 11
4583.687562867278
 21
2461.40652421968
 31
0.0
  0
LINE
  5
152C
330
1F
100
AcDbEntity
  8
SANINDUSA
100
AcDbLine
 10
4583.68909210323
 20
2461.411956767051
 30
0.0
 11
4583.687982045441
 21
2461.408013332744
 31
0.0
  0
SPLINE
  5
152D
330
1F
100
AcDbEntity
  8
SANINDUSA
100
AcDbSpline
210
0.0
220
0.0
230
1.0
 70
     8
 71
     3
 72
     8
 73
     4
 74
     0
 42
0.0000000001
 43
0.0000000001
 40
0.0
 40
0.0
 40
0.0
 40
0.0
 40
1.0
 40
1.0
 40
1.0
 40
1.0
 10
4583.665983736721
 20
2461.329157191921
 30
0.0
 10
4583.666108040836
 20
2461.33006710535
 30
0.0
 10
4583.666295073349
 20
2461.330971262776
 30
0.0
 10
4583.66654789545
 20
2461.331869402817
 30
0.0
  0
SPLINE
  5
152E
330
1F
100
AcDbEntity
  8
SANINDUSA
100
AcDbSpline
210
0.0
220
0.0
230
1.0
 70
    24
 71
     3
 72
    11
 73
     7
 74
     0
 42
0.0000000001
 43
0.0000000001
 40
0.0
 40
0.0
 40
0.0
 40
0.0
 40
0.1059390240358061
 40
0.4178465046027283
 40
0.7297607387289334
 40
1.0
 40
1.0
 40
1.0
 40
1.0
 10
4583.682122887673
 20
2461.38719891749
 30
0.0
 10
4583.681575128113
 20
2461.38525302434
 30
0.0
 10
4583.679414645513
 20
2461.377577999404
 30
0.0
 10
4583.675632630926
 20
2461.364142549256
 30
0.0
 10
4583.670989216684
 20
2461.347647012513
 30
0.0
 10
4583.667955954541
 20
2461.336871474404
 30
0.0
 10
4583.66654789545
 20
2461.331869402817
 30
0.0
  0
SPLINE
  5
1530
330
1F
100
AcDbEntity
  8
SANINDUSA
100
AcDbSpline
210
0.0
220
0.0
230
1.0
 70
    24
 71
     3
 72
    36
 73
    32
 74
     0
 42
0.0000000001
 43
0.0000000001
 40
0.0
 40
0.0
 40
0.0
 40
0.0
 40
0.1249999999999959
 40
0.1249999999999959
 40
0.1874999999999955
 40
0.1874999999999955
 40
0.2187499999999955
 40
0.2187499999999955
 40
0.2499999999999955
 40
0.2499999999999955
 40
0.3749999999999952
 40
0.3749999999999952
 40
0.4062499999999945
 40
0.4062499999999945
 40
0.4374999999999936
 40
0.4374999999999936
 40
0.4999999999999943
 40
0.4999999999999943
 40
0.6249999999999961
 40
0.6249999999999961
 40
0.6562499999999975
 40
0.6562499999999975
 40
0.687499999999999
 40
0.687499999999999
 40
0.7499999999999992
 40
0.7499999999999992
 40
0.8124999999999996
 40
0.8124999999999996
 40
0.875
 40
0.875
 40
1.0
 40
1.0
 40
1.0
 40
1.0
 10
4583.660346736714
 20
2461.1706472537
 30
0.0
 10
4583.660276294669
 20
2461.168630057479
 30
0.0
 10
4583.660206867543
 20
2461.16664192468
 30
0.0
 10
4583.660104185816
 20
2461.163701504729
 30
0.0
 10
4583.660070203605
 20
2461.162728381579
 30
0.0
 10
4583.660019606674
 20
2461.161279475045
 30
0.0
 10
4583.660002759687
 20
2461.160797040419
 30
0.0
 10
4583.659969422309
 20
2461.159842382815
 30
0.0
 10
4583.659952960046
 20
2461.159370965294
 30
0.0
 10
4583.659871660342
 20
2461.15704284637
 30
0.0
 10
4583.659809827937
 20
2461.155272197971
 30
0.0
 10
4583.659736527201
 20
2461.153173139553
 30
0.0
 10
4583.659722068399
 20
2461.15275909362
 30
0.0
 10
4583.659693560618
 20
2461.151942737588
 30
0.0
 10
4583.659679481891
 20
2461.151539575561
 30
0.0
 10
4583.659638307954
 20
2461.15036050829
 30
0.0
 10
4583.659612150976
 20
2461.149611470471
 30
0.0
 10
4583.659537448032
 20
2461.147472258035
 30
0.0
 10
4583.659492632545
 20
2461.14618891038
 30
0.0
 10
4583.659443054722
 20
2461.144769187294
 30
0.0
 10
4583.659433477483
 20
2461.144494931029
 30
0.0
 10
4583.65941518673
 20
2461.143971152403
 30
0.0
 10
4583.659406445252
 20
2461.143720829236
 30
0.0
 10
4583.659381413173
 20
2461.143004004311
 30
0.0
 10
4583.659366312029
 20
2461.142571564091
 30
0.0
 10
4583.659339253161
 20
2461.141796699509
 30
0.0
 10
4583.659327295356
 20
2461.141454272779
 30
0.0
 10
4583.659306587028
 20
2461.140861263847
 30
0.0
 10
4583.659297819078
 20
2461.140610182622
 30
0.0
 10
4583.659276891659
 20
2461.140010899746
 30
0.0
 10
4583.659269862276
 20
2461.139809604538
 30
0.0
 10
4583.659269862276
 20
2461.139809604538
 30
0.0
  0
LINE
  5
1534
330
1F
100
AcDbEntity
  8
SANINDUSA
100
AcDbLine
 10
4583.584607563595
 20
2461.482809604538
 30
0.0
 11
4583.584607563595
 21
2461.470368431555
 31
0.0
  0
LINE
  5
1537
330
1F
100
AcDbEntity
  8
SANINDUSA
100
AcDbLine
 10
4583.584607563595
 20
2461.470368431555
 30
0.0
 11
4583.584607563595
 21
2461.465680644457
 31
0.0
  0
LINE
  5
1539
330
1F
100
AcDbEntity
  8
SANINDUSA
100
AcDbLine
 10
4583.584607563595
 20
2461.465680644457
 30
0.0
 11
4583.584607563595
 21
2461.462961743602
 31
0.0
  0
LINE
  5
153A
330
1F
100
AcDbEntity
  8
SANINDUSA
100
AcDbLine
 10
4583.589652794447
 20
2461.457809604537
 30
0.0
 11
4583.68155967941
 21
2461.457809604537
 31
0.0
  0
LINE
  5
153C
330
1F
100
AcDbEntity
  8
SANINDUSA
100
AcDbLine
 10
4583.675337626791
 20
2461.099809604538
 30
0.0
 11
4583.918289021965
 21
2461.099809604538
 31
0.0
  0
LINE
  5
153D
330
1F
100
AcDbEntity
  8
SANINDUSA
100
AcDbLine
 10
4583.660346736714
 20
2461.1706472537
 30
0.0
 11
4583.665765306085
 21
2461.325814778653
 31
0.0
  0
SPLINE
  5
153E
330
1F
100
AcDbEntity
  8
SANINDUSA
100
AcDbSpline
210
0.0
220
0.0
230
1.0
 70
     8
 71
     3
 72
    10
 73
     6
 74
     0
 42
0.0000000001
 43
0.0000000001
 40
0.0
 40
0.0
 40
0.0
 40
0.0
 40
0.5
 40
0.5
 40
1.0
 40
1.0
 40
1.0
 40
1.0
 10
4583.665983736721
 20
2461.329157191921
 30
0.0
 10
4583.665944960692
 20
2461.328873349112
 30
0.0
 10
4583.66590877412
 20
2461.328563205127
 30
0.0
 10
4583.665848907719
 20
2461.327892324686
 30
0.0
 10
4583.665825126984
 20
2461.327527825074
 30
0.0
 10
4583.665811866938
 20
2461.32714810703
 30
0.0
  0
SPLINE
  5
153F
330
1F
100
AcDbEntity
  8
SANINDUSA
100
AcDbSpline
210
0.0
220
0.0
230
1.0
 70
    24
 71
     3
 72
     8
 73
     4
 74
     0
 42
0.0000000001
 43
0.0000000001
 40
0.0
 40
0.0
 40
0.0
 40
0.0
 40
1.0
 40
1.0
 40
1.0
 40
1.0
 10
4583.665811866938
 20
2461.32714810703
 30
0.0
 10
4583.665796692925
 20
2461.326713580139
 30
0.0
 10
4583.665781172729
 20
2461.326269139885
 30
0.0
 10
4583.665765306085
 20
2461.325814778653
 30
0.0
  0
SPLINE
  5
1540
330
1F
100
AcDbEntity
  8
SANINDUSA
100
AcDbSpline
210
0.0
220
0.0
230
1.0
 70
    24
 71
     3
 72
    28
 73
    24
 74
     0
 42
0.0000000001
 43
0.0000000001
 40
0.0
 40
0.0
 40
0.0
 40
0.0
 40
0.1250000000000002
 40
0.1250000000000002
 40
0.2500000000000004
 40
0.2500000000000004
 40
0.3125000000000005
 40
0.3125000000000005
 40
0.3750000000000007
 40
0.3750000000000007
 40
0.4999999999999985
 40
0.4999999999999985
 40
0.5624999999999984
 40
0.5624999999999984
 40
0.6249999999999984
 40
0.6249999999999984
 40
0.7499999999999983
 40
0.7499999999999983
 40
0.812499999999998
 40
0.812499999999998
 40
0.874999999999998
 40
0.874999999999998
 40
1.0
 40
1.0
 40
1.0
 40
1.0
 10
4583.715779822529
 20
2461.489809604538
 30
0.0
 10
4583.714797990942
 20
2461.489809604538
 30
0.0
 10
4583.713854661983
 20
2461.489809604538
 30
0.0
 10
4583.712042511023
 20
2461.489809604538
 30
0.0
 10
4583.711173686894
 20
2461.489809604538
 30
0.0
 10
4583.709928480062
 20
2461.489809604538
 30
0.0
 10
4583.709524194764
 20
2461.489809604538
 30
0.0
 10
4583.708749373932
 20
2461.489809604538
 30
0.0
 10
4583.708377010693
 20
2461.489809604538
 30
0.0
 10
4583.707304284322
 20
2461.489809604538
 30
0.0
 10
4583.706648024932
 20
2461.489809604538
 30
0.0
 10
4583.705753591639
 20
2461.489809604538
 30
0.0
 10
4583.705469650405
 20
2461.489809604538
 30
0.0
 10
4583.704941373915
 20
2461.489809604538
 30
0.0
 10
4583.704695981867
 20
2461.489809604538
 30
0.0
 10
4583.704014587079
 20
2461.489809604538
 30
0.0
 10
4583.703633058014
 20
2461.489809604538
 30
0.0
 10
4583.703169878567
 20
2461.489809604538
 30
0.0
 10
4583.7030333711
 20
2461.489809604538
 30
0.0
 10
4583.702799795286
 20
2461.489809604538
 30
0.0
 10
4583.702702875063
 20
2461.489809604538
 30
0.0
 10
4583.702470339858
 20
2461.489809604538
 30
0.0
 10
4583.702392623724
 20
2461.489809604538
 30
0.0
 10
4583.702392623724
 20
2461.489809604538
 30
0.0
  0
SPLINE
  5
1543
330
1F
100
AcDbEntity
  8
SANINDUSA
100
AcDbSpline
210
0.0
220
0.0
230
1.0
 70
     8
 71
     3
 72
    10
 73
     6
 74
     0
 42
0.0000000001
 43
0.0000000001
 40
0.0
 40
0.0
 40
0.0
 40
0.0
 40
0.2291343678346972
 40
0.614548682596634
 40
1.0
 40
1.0
 40
1.0
 40
1.0
 10
4583.704544130608
 20
2461.327670873418
 30
0.0
 10
4583.70159653876
 20
2461.327748494838
 30
0.0
 10
4583.693690964822
 20
2461.327956678977
 30
0.0
 10
4583.680837539434
 20
2461.328470158637
 30
0.0
 10
4583.670935162735
 20
2461.328928173498
 30
0.0
 10
4583.665983736721
 20
2461.329157191921
 30
0.0
  0
ARC
  5
1554
330
1F
100
AcDbEntity
  8
SANINDUSA
100
AcDbCircle
 10
4582.862939180187
 20
2461.652683142436
 30
0.0
 40
0.6
100
AcDbArc
 50
328.1179911997024
 51
343.7039302990985
  0
ARC
  5
1555
330
1F
100
AcDbEntity
  8
SANINDUSA
100
AcDbCircle
 10
4583.317042531514
 20
2461.763188010756
 30
0.0
 40
0.9201491645524587
100
AcDbArc
 50
197.6481594079737
 51
207.728686953236
  0
LINE
  5
1559
330
1F
100
AcDbEntity
  8
SANINDUSA
100
AcDbLine
 10
4583.375581151264
 20
2461.103809394343
 30
0.0
 11
4583.369412284118
 21
2461.324658251326
 31
0.0
  0
LINE
  5
158C
330
1F
100
AcDbEntity
  8
SANINDUSA
100
AcDbLine
 10
4582.013484949336
 20
2461.525508422701
 30
0.0
 11
4582.020687010216
 21
2461.541348046941
 31
0.0
  0
LINE
  5
158F
330
1F
100
AcDbEntity
  8
SANINDUSA
100
AcDbLine
 10
4582.252756496845
 20
2461.525513101651
 30
0.0
 11
4582.245556844707
 21
2461.541348046941
 31
0.0
  0
LINE
  5
1597
330
1F
100
AcDbEntity
  8
SANINDUSA
100
AcDbLine
 10
4583.715779822529
 20
2461.489809604538
 30
0.0
 11
4584.050893537129
 21
2461.489809604538
 31
0.0
  0
ENDSEC
  0
SECTION
  2
OBJECTS
  0
DICTIONARY
  5
C
330
0
100
AcDbDictionary
281
     1
  3
ACAD_2007HEADERVARS_RT
350
1870
  3
ACAD_BACKGROUND
350
181C
  3
ACAD_COLOR
350
EE6
  3
ACAD_GROUP
350
D
  3
ACAD_LAYOUT
350
1A
  3
ACAD_MATERIAL
350
EE5
  3
ACAD_MLEADERSTYLE
350
10A8
  3
ACAD_MLINESTYLE
350
17
  3
ACAD_PLOTSETTINGS
350
19
  3
ACAD_PLOTSTYLENAME
350
E
  3
ACAD_SCALELIST
350
1096
  3
ACAD_TABLESTYLE
350
EE7
  3
ACAD_VISUALSTYLE
350
1082
  3
ACDB_RECOMPOSE_DATA
350
186E
  3
AcDbVariableDictionary
350
3D
  3
AEC_PROPERTY_SET_DEFS
350
1417
  3
ASE_INDEX_DICTIONARY
350
1066
  3
Autodesk_PNP
350
10B2
  3
DWGPROPS
350
186F
  0
DICTIONARY
  5
1824
330
8
100
AcDbDictionary
280
     1
281
     1
  0
DICTIONARY
  5
1051
330
2
100
AcDbDictionary
280
     1
281
     1
  3
ACAD_LAYERFILTERS
360
1065
  3
ACAD_LAYERSTATES
360
124F
  3
ACLYDICTIONARY
360
1064
  0
DICTIONARY
  5
17B6
330
10
100
AcDbDictionary
280
     1
281
     1
  3
ADSK_XREC_LAYER_RECONCILED
360
17B7
  0
DICTIONARY
  5
17B8
330
2F
100
AcDbDictionary
280
     1
281
     1
  3
ADSK_XREC_LAYER_RECONCILED
360
17B9
  0
DICTIONARY
  5
17BA
330
30
100
AcDbDictionary
280
     1
281
     1
  3
ADSK_XREC_LAYER_RECONCILED
360
17BB
  0
DICTIONARY
  5
17BC
330
31
100
AcDbDictionary
280
     1
281
     1
  3
ADSK_XREC_LAYER_RECONCILED
360
17BD
  0
DICTIONARY
  5
17BE
330
32
100
AcDbDictionary
280
     1
281
     1
  3
ADSK_XREC_LAYER_RECONCILED
360
17BF
  0
DICTIONARY
  5
17C0
330
33
100
AcDbDictionary
280
     1
281
     1
  3
ADSK_XREC_LAYER_RECONCILED
360
17C1
  0
DICTIONARY
  5
17C2
330
34
100
AcDbDictionary
280
     1
281
     1
  3
ADSK_XREC_LAYER_RECONCILED
360
17C3
  0
DICTIONARY
  5
17C4
330
35
100
AcDbDictionary
280
     1
281
     1
  3
ADSK_XREC_LAYER_RECONCILED
360
17C5
  0
DICTIONARY
  5
17C6
330
36
100
AcDbDictionary
280
     1
281
     1
  3
ADSK_XREC_LAYER_RECONCILED
360
17C7
  0
DICTIONARY
  5
17C8
330
37
100
AcDbDictionary
280
     1
281
     1
  3
ADSK_XREC_LAYER_RECONCILED
360
17C9
  0
DICTIONARY
  5
17CA
330
5D6
100
AcDbDictionary
280
     1
281
     1
  3
ADSK_XREC_LAYER_RECONCILED
360
17CB
  0
DICTIONARY
  5
17CC
330
8AF
100
AcDbDictionary
280
     1
281
     1
  3
ADSK_XREC_LAYER_RECONCILED
360
17CD
  0
DICTIONARY
  5
17CE
330
8F8
100
AcDbDictionary
280
     1
281
     1
  3
ADSK_XREC_LAYER_RECONCILED
360
17CF
  0
DICTIONARY
  5
17D0
330
91D
100
AcDbDictionary
280
     1
281
     1
  3
ADSK_XREC_LAYER_RECONCILED
360
17D1
  0
DICTIONARY
  5
17D2
330
C7B
100
AcDbDictionary
280
     1
281
     1
  3
ADSK_XREC_LAYER_RECONCILED
360
17D3
  0
DICTIONARY
  5
17D4
330
1060
100
AcDbDictionary
280
     1
281
     1
  3
ADSK_XREC_LAYER_RECONCILED
360
17D5
  0
DICTIONARY
  5
1870
102
{ACAD_REACTORS
330
C
102
}
330
C
100
AcDbDictionary
281
     1
  3
DIMJOGANG
350
1871
  0
DICTIONARY
  5
181C
102
{ACAD_REACTORS
330
C
102
}
330
C
100
AcDbDictionary
281
     1
  0
DICTIONARY
  5
EE6
102
{ACAD_REACTORS
330
C
102
}
330
C
100
AcDbDictionary
281
     1
  0
DICTIONARY
  5
D
102
{ACAD_REACTORS
330
C
102
}
330
C
100
AcDbDictionary
281
     1
  0
DICTIONARY
  5
1A
102
{ACAD_REACTORS
330
C
102
}
330
C
100
AcDbDictionary
281
     1
  3
Layout1
350
1E
  3
Layout2
350
26
  3
Model
350
22
  0
DICTIONARY
  5
EE5
102
{ACAD_REACTORS
330
C
102
}
330
C
100
AcDbDictionary
281
     1
  3
ByBlock
350
1072
  3
ByLayer
350
106A
  3
Global
350
107A
  0
DICTIONARY
  5
10A8
102
{ACAD_REACTORS
330
C
102
}
330
C
100
AcDbDictionary
281
     1
  3
Standard
350
10A9
  0
DICTIONARY
  5
17
102
{ACAD_REACTORS
330
C
102
}
330
C
100
AcDbDictionary
281
     1
  3
Standard
350
18
  0
DICTIONARY
  5
19
102
{ACAD_REACTORS
330
C
102
}
330
C
100
AcDbDictionary
281
     1
  0
ACDBDICTIONARYWDFLT
  5
E
102
{ACAD_REACTORS
330
C
102
}
330
C
100
AcDbDictionary
281
     1
  3
Normal
350
F
100
AcDbDictionaryWithDefault
340
F
  0
DICTIONARY
  5
1096
102
{ACAD_REACTORS
330
C
102
}
330
C
100
AcDbDictionary
281
     1
  3
A0
350
1097
  3
A1
350
1098
  3
A2
350
1099
  3
A3
350
109A
  3
A4
350
109B
  3
A5
350
109C
  3
A6
350
109D
  3
A7
350
109E
  3
A8
350
109F
  3
A9
350
10A0
  3
B0
350
10A1
  3
B1
350
10A2
  3
B2
350
10A3
  3
B3
350
10A4
  3
B4
350
10A5
  3
B5
350
10A6
  3
B6
350
10A7
  0
DICTIONARY
  5
EE7
102
{ACAD_REACTORS
330
C
102
}
330
C
100
AcDbDictionary
281
     1
  3
Standard
350
EE8
  0
DICTIONARY
  5
1082
102
{ACAD_REACTORS
330
C
102
}
330
C
100
AcDbDictionary
281
     1
  3
2dWireframe
350
1088
  3
3D Hidden
350
108A
  3
3dWireframe
350
1089
  3
Basic
350
1087
  3
Brighten
350
108E
  3
ColorChange
350
1092
  3
Conceptual
350
108B
  3
Dim
350
108D
  3
EdgeColorOff
350
1095
  3
Facepattern
350
1091
  3
Flat
350
1083
  3
FlatWithEdges
350
1084
  3
Gouraud
350
1085
  3
GouraudWithEdges
350
1086
  3
JitterOff
350
1093
  3
Linepattern
350
1090
  3
OverhangOff
350
1094
  3
Realistic
350
108C
  3
Thicken
350
108F
  0
XRECORD
  5
186E
102
{ACAD_REACTORS
330
C
102
}
330
C
100
AcDbXrecord
280
     1
 90
        1
330
EE8
  0
DICTIONARY
  5
3D
102
{ACAD_REACTORS
330
C
102
}
330
C
100
AcDbDictionary
281
     1
  3
CANNOSCALE
350
1860
  3
CMLEADERSTYLE
350
185F
  3
CTABLESTYLE
350
1049
  3
DIMASSOC
350
3F
  3
HIDETEXT
350
3E
  3
INDEXCTL
350
1862
  3
SORTENTS
350
1861
  3
XCLIPFRAME
350
186C
  0
DICTIONARY
  5
1417
102
{ACAD_REACTORS
330
C
102
}
330
C
100
AcDbDictionary
281
     1
  0
DICTIONARY
  5
1066
102
{ACAD_REACTORS
330
C
102
}
330
C
100
AcDbDictionary
281
     1
  3
ASEBlockHierarchyIndexRecord
350
1067
1001
DCO15
1040
1602247867.484
  0
DICTIONARY
  5
10B2
102
{ACAD_REACTORS
330
C
102
}
330
C
100
AcDbDictionary
281
     1
  0
XRECORD
  5
186F
102
{ACAD_REACTORS
330
C
102
}
330
C
100
AcDbXrecord
280
     1
  1
DWGPROPS COOKIE
  2

  3

  4

  6

  7

  8
Julio
  9

300
=
301
=
302
=
303
=
304
=
305
=
306
=
307
=
308
=
309
=
 40
0.0041115046296296
 41
2455779.467381725
 42
2456111.488753252
  1

 90
        0
  0
DICTIONARY
  5
1065
102
{ACAD_REACTORS
330
1051
102
}
330
1051
100
AcDbDictionary
281
     1
  0
DICTIONARY
  5
124F
102
{ACAD_REACTORS
330
1051
102
}
330
1051
100
AcDbDictionary
281
     1
  0
DICTIONARY
  5
1064
102
{ACAD_REACTORS
330
1051
102
}
330
1051
100
AcDbDictionary
281
     1
1001
ACAD
1000
<All
  0
XRECORD
  5
17B7
102
{ACAD_REACTORS
330
17B6
102
}
330
17B6
100
AcDbXrecord
280
     1
290
     1
  0
XRECORD
  5
17B9
102
{ACAD_REACTORS
330
17B8
102
}
330
17B8
100
AcDbXrecord
280
     1
290
     1
  0
XRECORD
  5
17BB
102
{ACAD_REACTORS
330
17BA
102
}
330
17BA
100
AcDbXrecord
280
     1
290
     1
  0
XRECORD
  5
17BD
102
{ACAD_REACTORS
330
17BC
102
}
330
17BC
100
AcDbXrecord
280
     1
290
     1
  0
XRECORD
  5
17BF
102
{ACAD_REACTORS
330
17BE
102
}
330
17BE
100
AcDbXrecord
280
     1
290
     1
  0
XRECORD
  5
17C1
102
{ACAD_REACTORS
330
17C0
102
}
330
17C0
100
AcDbXrecord
280
     1
290
     1
  0
XRECORD
  5
17C3
102
{ACAD_REACTORS
330
17C2
102
}
330
17C2
100
AcDbXrecord
280
     1
290
     1
  0
XRECORD
  5
17C5
102
{ACAD_REACTORS
330
17C4
102
}
330
17C4
100
AcDbXrecord
280
     1
290
     1
  0
XRECORD
  5
17C7
102
{ACAD_REACTORS
330
17C6
102
}
330
17C6
100
AcDbXrecord
280
     1
290
     1
  0
XRECORD
  5
17C9
102
{ACAD_REACTORS
330
17C8
102
}
330
17C8
100
AcDbXrecord
280
     1
290
     1
  0
XRECORD
  5
17CB
102
{ACAD_REACTORS
330
17CA
102
}
330
17CA
100
AcDbXrecord
280
     1
290
     1
  0
XRECORD
  5
17CD
102
{ACAD_REACTORS
330
17CC
102
}
330
17CC
100
AcDbXrecord
280
     1
290
     1
  0
XRECORD
  5
17CF
102
{ACAD_REACTORS
330
17CE
102
}
330
17CE
100
AcDbXrecord
280
     1
290
     1
  0
XRECORD
  5
17D1
102
{ACAD_REACTORS
330
17D0
102
}
330
17D0
100
AcDbXrecord
280
     1
290
     1
  0
XRECORD
  5
17D3
102
{ACAD_REACTORS
330
17D2
102
}
330
17D2
100
AcDbXrecord
280
     1
290
     1
  0
XRECORD
  5
17D5
102
{ACAD_REACTORS
330
17D4
102
}
330
17D4
100
AcDbXrecord
280
     1
290
     1
  0
XRECORD
  5
1871
102
{ACAD_REACTORS
330
1870
102
}
330
1870
100
AcDbXrecord
280
     1
 40
1.570796326794896
  0
LAYOUT
  5
1E
102
{ACAD_XDICTIONARY
360
1872
102
}
102
{ACAD_REACTORS
330
1A
102
}
330
1A
100
AcDbPlotSettings
  1

  2
Ploter HP500
  4

  6

 40
0.0
 41
0.0
 42
0.0
 43
0.0
 44
0.0
 45
0.0
 46
0.0
 47
0.0
 48
0.0
 49
0.0
140
0.0
141
0.0
142
1.0
143
1.0
 70
   688
 72
     0
 73
     0
 74
     5
  7
sanindusa.ctb
 75
    16
147
1.0
148
0.0
149
0.0
100
AcDbLayout
  1
Layout1
 70
     1
 71
     1
 10
0.0
 20
0.0
 11
420.0
 21
297.0
 12
0.0
 22
0.0
 32
0.0
 14
1.000000000000000E+20
 24
1.000000000000000E+20
 34
1.000000000000000E+20
 15
-1.000000000000000E+20
 25
-1.000000000000000E+20
 35
-1.000000000000000E+20
146
0.0
 13
0.0
 23
0.0
 33
0.0
 16
1.0
 26
0.0
 36
0.0
 17
0.0
 27
1.0
 37
0.0
 76
     0
330
1B
  0
LAYOUT
  5
26
102
{ACAD_XDICTIONARY
360
1876
102
}
102
{ACAD_REACTORS
330
1A
102
}
330
1A
100
AcDbPlotSettings
  1

  2
Ploter HP500
  4

  6

 40
0.0
 41
0.0
 42
0.0
 43
0.0
 44
0.0
 45
0.0
 46
0.0
 47
0.0
 48
0.0
 49
0.0
140
0.0
141
0.0
142
1.0
143
1.0
 70
   688
 72
     0
 73
     0
 74
     5
  7
sanindusa.ctb
 75
    16
147
1.0
148
0.0
149
0.0
100
AcDbLayout
  1
Layout2
 70
     1
 71
     2
 10
0.0
 20
0.0
 11
12.0
 21
9.0
 12
0.0
 22
0.0
 32
0.0
 14
0.0
 24
0.0
 34
0.0
 15
0.0
 25
0.0
 35
0.0
146
0.0
 13
0.0
 23
0.0
 33
0.0
 16
1.0
 26
0.0
 36
0.0
 17
0.0
 27
1.0
 37
0.0
 76
     0
330
23
  0
LAYOUT
  5
22
102
{ACAD_XDICTIONARY
360
1874
102
}
102
{ACAD_REACTORS
330
1A
102
}
330
1A
100
AcDbPlotSettings
  1

  2
Ploter HP500
  4
User268
  6

 40
4.995333194732666
 41
16.97565841674804
 42
4.995330810546875
 43
16.97567749023437
 44
209.9733276367187
 45
296.9259948730469
 46
0.0
 47
0.0
 48
0.0
 49
0.0
140
0.0
141
0.0
142
1.0
143
1.0
 70
 11952
 72
     1
 73
     1
 74
     0
  7
sanindusa.ctb
 75
     0
147
1.0
148
-427.5957866592534
149
7.362384574453926
100
AcDbLayout
  1
Model
 70
     1
 71
     0
 10
0.0
 20
0.0
 11
12.0
 21
9.0
 12
0.0
 22
0.0
 32
0.0
 14
0.0
 24
0.0
 34
0.0
 15
0.0
 25
0.0
 35
0.0
146
0.0
 13
0.0
 23
0.0
 33
0.0
 16
1.0
 26
0.0
 36
0.0
 17
0.0
 27
1.0
 37
0.0
 76
     0
330
1F
331
1068
  0
MATERIAL
  5
1072
102
{ACAD_XDICTIONARY
360
1073
102
}
102
{ACAD_REACTORS
330
EE5
102
}
330
EE5
100
AcDbMaterial
  1
ByBlock
 72
     0
 43
0.0008202099737533
 43
0.0
 43
0.0
 43
0.0
 43
0.0
 43
0.0008202099737533
 43
0.0
 43
0.0
 43
0.0
 43
0.0
 43
1.0
 43
0.0
 43
0.0
 43
0.0
 43
0.0
 43
1.0
 77
     0
 47
0.0008202099737533
 47
0.0
 47
0.0
 47
0.0
 47
0.0
 47
0.0008202099737533
 47
0.0
 47
0.0
 47
0.0
 47
0.0
 47
1.0
 47
0.0
 47
0.0
 47
0.0
 47
0.0
 47
1.0
171
     0
 49
0.0008202099737533
 49
0.0
 49
0.0
 49
0.0
 49
0.0
 49
0.0008202099737533
 49
0.0
 49
0.0
 49
0.0
 49
0.0
 49
1.0
 49
0.0
 49
0.0
 49
0.0
 49
0.0
 49
1.0
175
     0
142
0.0008202099737533
142
0.0
142
0.0
142
0.0
142
0.0
142
0.0008202099737533
142
0.0
142
0.0
142
0.0
142
0.0
142
1.0
142
0.0
142
0.0
142
0.0
142
0.0
142
1.0
179
     0
144
0.0008202099737533
144
0.0
144
0.0
144
0.0
144
0.0
144
0.0008202099737533
144
0.0
144
0.0
144
0.0
144
0.0
144
1.0
144
0.0
144
0.0
144
0.0
144
0.0
144
1.0
147
0.0008202099737533
147
0.0
147
0.0
147
0.0
147
0.0
147
0.0008202099737533
147
0.0
147
0.0
147
0.0
147
0.0
147
1.0
147
0.0
147
0.0
147
0.0
147
0.0
147
1.0
  0
MATERIAL
  5
106A
102
{ACAD_XDICTIONARY
360
106B
102
}
102
{ACAD_REACTORS
330
EE5
102
}
330
EE5
100
AcDbMaterial
  1
ByLayer
 72
     0
 43
0.0008202099737533
 43
0.0
 43
0.0
 43
0.0
 43
0.0
 43
0.0008202099737533
 43
0.0
 43
0.0
 43
0.0
 43
0.0
 43
1.0
 43
0.0
 43
0.0
 43
0.0
 43
0.0
 43
1.0
 77
     0
 47
0.0008202099737533
 47
0.0
 47
0.0
 47
0.0
 47
0.0
 47
0.0008202099737533
 47
0.0
 47
0.0
 47
0.0
 47
0.0
 47
1.0
 47
0.0
 47
0.0
 47
0.0
 47
0.0
 47
1.0
171
     0
 49
0.0008202099737533
 49
0.0
 49
0.0
 49
0.0
 49
0.0
 49
0.0008202099737533
 49
0.0
 49
0.0
 49
0.0
 49
0.0
 49
1.0
 49
0.0
 49
0.0
 49
0.0
 49
0.0
 49
1.0
175
     0
142
0.0008202099737533
142
0.0
142
0.0
142
0.0
142
0.0
142
0.0008202099737533
142
0.0
142
0.0
142
0.0
142
0.0
142
1.0
142
0.0
142
0.0
142
0.0
142
0.0
142
1.0
179
     0
144
0.0008202099737533
144
0.0
144
0.0
144
0.0
144
0.0
144
0.0008202099737533
144
0.0
144
0.0
144
0.0
144
0.0
144
1.0
144
0.0
144
0.0
144
0.0
144
0.0
144
1.0
147
0.0008202099737533
147
0.0
147
0.0
147
0.0
147
0.0
147
0.0008202099737533
147
0.0
147
0.0
147
0.0
147
0.0
147
1.0
147
0.0
147
0.0
147
0.0
147
0.0
147
1.0
  0
MATERIAL
  5
107A
102
{ACAD_XDICTIONARY
360
107B
102
}
102
{ACAD_REACTORS
330
EE5
102
}
330
EE5
100
AcDbMaterial
  1
Global
 72
     0
 43
0.0008202099737533
 43
0.0
 43
0.0
 43
0.0
 43
0.0
 43
0.0008202099737533
 43
0.0
 43
0.0
 43
0.0
 43
0.0
 43
1.0
 43
0.0
 43
0.0
 43
0.0
 43
0.0
 43
1.0
 77
     0
 47
0.0008202099737533
 47
0.0
 47
0.0
 47
0.0
 47
0.0
 47
0.0008202099737533
 47
0.0
 47
0.0
 47
0.0
 47
0.0
 47
1.0
 47
0.0
 47
0.0
 47
0.0
 47
0.0
 47
1.0
171
     0
 49
0.0008202099737533
 49
0.0
 49
0.0
 49
0.0
 49
0.0
 49
0.0008202099737533
 49
0.0
 49
0.0
 49
0.0
 49
0.0
 49
1.0
 49
0.0
 49
0.0
 49
0.0
 49
0.0
 49
1.0
175
     0
142
0.0008202099737533
142
0.0
142
0.0
142
0.0
142
0.0
142
0.0008202099737533
142
0.0
142
0.0
142
0.0
142
0.0
142
1.0
142
0.0
142
0.0
142
0.0
142
0.0
142
1.0
179
     0
144
0.0008202099737533
144
0.0
144
0.0
144
0.0
144
0.0
144
0.0008202099737533
144
0.0
144
0.0
144
0.0
144
0.0
144
1.0
144
0.0
144
0.0
144
0.0
144
0.0
144
1.0
147
0.0008202099737533
147
0.0
147
0.0
147
0.0
147
0.0
147
0.0008202099737533
147
0.0
147
0.0
147
0.0
147
0.0
147
1.0
147
0.0
147
0.0
147
0.0
147
0.0
147
1.0
  0
MLEADERSTYLE
  5
10A9
102
{ACAD_REACTORS
330
10A8
102
}
330
10A8
100
AcDbMLeaderStyle
170
     2
171
     1
172
     0
 90
        2
 40
0.0
 41
0.0
173
     1
 91
-1056964608
340
14
 92
       -2
290
     1
 42
2.0
291
     1
 43
0.36
  3
Standard
 44
4.0
300

342
11
174
     1
178
     6
175
     1
176
     0
 93
-1056964608
 45
4.0
292
     0
297
     0
 46
4.0
 94
-1056964608
 47
1.0
 49
1.0
140
1.0
293
     1
141
0.0
294
     1
177
     0
142
1.0
295
     0
296
     0
143
0.125
1001
ACAD_MLEADERVER
1070
     2
  0
MLINESTYLE
  5
18
102
{ACAD_REACTORS
330
17
102
}
330
17
100
AcDbMlineStyle
  2
STANDARD
 70
     0
  3

 62
   256
 51
90.0
 52
90.0
 71
     2
 49
0.5
 62
   256
  6
BYLAYER
 49
-0.5
 62
   256
  6
BYLAYER
  0
ACDBPLACEHOLDER
  5
F
102
{ACAD_REACTORS
330
E
102
}
330
E
  0
SCALE
  5
1097
102
{ACAD_REACTORS
330
1096
102
}
330
1096
100
AcDbScale
 70
     0
300
1:1
140
1.0
141
1.0
290
     1
  0
SCALE
  5
1098
102
{ACAD_REACTORS
330
1096
102
}
330
1096
100
AcDbScale
 70
     0
300
1:2
140
1.0
141
2.0
290
     0
  0
SCALE
  5
1099
102
{ACAD_REACTORS
330
1096
102
}
330
1096
100
AcDbScale
 70
     0
300
1:4
140
1.0
141
4.0
290
     0
  0
SCALE
  5
109A
102
{ACAD_REACTORS
330
1096
102
}
330
1096
100
AcDbScale
 70
     0
300
1:5
140
1.0
141
5.0
290
     0
  0
SCALE
  5
109B
102
{ACAD_REACTORS
330
1096
102
}
330
1096
100
AcDbScale
 70
     0
300
1:8
140
1.0
141
8.0
290
     0
  0
SCALE
  5
109C
102
{ACAD_REACTORS
330
1096
102
}
330
1096
100
AcDbScale
 70
     0
300
1:10
140
1.0
141
10.0
290
     0
  0
SCALE
  5
109D
102
{ACAD_REACTORS
330
1096
102
}
330
1096
100
AcDbScale
 70
     0
300
1:16
140
1.0
141
16.0
290
     0
  0
SCALE
  5
109E
102
{ACAD_REACTORS
330
1096
102
}
330
1096
100
AcDbScale
 70
     0
300
1:20
140
1.0
141
20.0
290
     0
  0
SCALE
  5
109F
102
{ACAD_REACTORS
330
1096
102
}
330
1096
100
AcDbScale
 70
     0
300
1:30
140
1.0
141
30.0
290
     0
  0
SCALE
  5
10A0
102
{ACAD_REACTORS
330
1096
102
}
330
1096
100
AcDbScale
 70
     0
300
1:40
140
1.0
141
40.0
290
     0
  0
SCALE
  5
10A1
102
{ACAD_REACTORS
330
1096
102
}
330
1096
100
AcDbScale
 70
     0
300
1:50
140
1.0
141
50.0
290
     0
  0
SCALE
  5
10A2
102
{ACAD_REACTORS
330
1096
102
}
330
1096
100
AcDbScale
 70
     0
300
1:100
140
1.0
141
100.0
290
     0
  0
SCALE
  5
10A3
102
{ACAD_REACTORS
330
1096
102
}
330
1096
100
AcDbScale
 70
     0
300
2:1
140
2.0
141
1.0
290
     0
  0
SCALE
  5
10A4
102
{ACAD_REACTORS
330
1096
102
}
330
1096
100
AcDbScale
 70
     0
300
4:1
140
4.0
141
1.0
290
     0
  0
SCALE
  5
10A5
102
{ACAD_REACTORS
330
1096
102
}
330
1096
100
AcDbScale
 70
     0
300
8:1
140
8.0
141
1.0
290
     0
  0
SCALE
  5
10A6
102
{ACAD_REACTORS
330
1096
102
}
330
1096
100
AcDbScale
 70
     0
300
10:1
140
10.0
141
1.0
290
     0
  0
SCALE
  5
10A7
102
{ACAD_REACTORS
330
1096
102
}
330
1096
100
AcDbScale
 70
     0
300
100:1
140
100.0
141
1.0
290
     0
  0
TABLESTYLE
  5
EE8
102
{ACAD_XDICTIONARY
360
181E
102
}
102
{ACAD_REACTORS
330
EE7
102
}
330
EE7
100
AcDbTableStyle
  3
Standard
 70
     0
 71
     0
 40
1.5
 41
1.5
280
     0
281
     0
  7
Standard
140
4.5
170
     2
 62
     0
 63
     7
283
     0
274
    -2
284
     1
 64
     0
275
    -2
285
     1
 65
     0
276
    -2
286
     1
 66
     0
277
    -2
287
     1
 67
     0
278
    -2
288
     1
 68
     0
279
    -2
289
     1
 69
     0
  7
Standard
140
6.0
170
     5
 62
     0
 63
     7
283
     0
274
    -2
284
     1
 64
     0
275
    -2
285
     1
 65
     0
276
    -2
286
     1
 66
     0
277
    -2
287
     1
 67
     0
278
    -2
288
     1
 68
     0
279
    -2
289
     1
 69
     0
  7
Standard
140
4.5
170
     5
 62
     0
 63
     7
283
     0
274
    -2
284
     1
 64
     0
275
    -2
285
     1
 65
     0
276
    -2
286
     1
 66
     0
277
    -2
287
     1
 67
     0
278
    -2
288
     1
 68
     0
279
    -2
289
     1
 69
     0
  0
VISUALSTYLE
  5
1088
102
{ACAD_XDICTIONARY
360
1886
102
}
102
{ACAD_REACTORS
330
1082
102
}
330
1082
100
AcDbVisualStyle
  2
2dWireframe
 70
     4
 71
     0
 72
     2
 73
     0
 90
        0
 40
-0.6
 41
-30.0
 62
     5
 63
     7
 74
     1
 91
        4
 64
     7
 65
   257
 75
     1
175
     1
 42
1.0
 92
        0
 66
   257
 43
1.0
 76
     1
 77
     6
 78
     2
 67
     7
 79
     5
170
     0
171
     0
290
     0
174
     0
 93
        1
 44
0.0
173
     0
291
     0
 45
0.0
1001
ACAD
1000
AcDbSavedByObjectVersion
1070
     0
  0
VISUALSTYLE
  5
108A
102
{ACAD_XDICTIONARY
360
188A
102
}
102
{ACAD_REACTORS
330
1082
102
}
330
1082
100
AcDbVisualStyle
  2
3D Hidden
 70
     6
 71
     1
 72
     2
 73
     2
 90
        0
 40
-0.6
 41
-30.0
 62
     5
 63
     7
 74
     2
 91
        2
 64
     7
 65
   257
 75
     2
175
     1
 42
179.0
 92
        0
 66
   257
 43
1.0
 76
     1
 77
     6
 78
     2
 67
     7
 79
     3
170
     0
171
     0
290
     0
174
     0
 93
        1
 44
0.0
173
     0
291
     0
 45
0.0
1001
ACAD
1000
AcDbSavedByObjectVersion
1070
     0
  0
VISUALSTYLE
  5
1089
102
{ACAD_XDICTIONARY
360
1888
102
}
102
{ACAD_REACTORS
330
1082
102
}
330
1082
100
AcDbVisualStyle
  2
3dWireframe
 70
     5
 71
     0
 72
     2
 73
     0
 90
        0
 40
-0.6
 41
-30.0
 62
     5
 63
     7
 74
     1
 91
        4
 64
     7
 65
   257
 75
     1
175
     1
 42
1.0
 92
        0
 66
   257
 43
1.0
 76
     1
 77
     6
 78
     2
 67
     7
 79
     5
170
     0
171
     0
290
     0
174
     0
 93
        1
 44
0.0
173
     0
291
     0
 45
0.0
1001
ACAD
1000
AcDbSavedByObjectVersion
1070
     0
  0
VISUALSTYLE
  5
1087
102
{ACAD_XDICTIONARY
360
1884
102
}
102
{ACAD_REACTORS
330
1082
102
}
330
1082
100
AcDbVisualStyle
  2
Basic
 70
     7
 71
     1
 72
     0
 73
     1
 90
        0
 40
-0.6
 41
-30.0
 62
     5
 63
     7
 74
     0
 91
        4
 64
     7
 65
   257
 75
     1
175
     1
 42
1.0
 92
        8
 66
     7
 43
1.0
 76
     1
 77
     6
 78
     2
 67
     7
 79
     5
170
     0
171
     0
290
     0
174
     0
 93
        1
 44
0.0
173
     0
291
     1
 45
0.0
1001
ACAD
1000
AcDbSavedByObjectVersion
1070
     0
  0
VISUALSTYLE
  5
108E
102
{ACAD_XDICTIONARY
360
1892
102
}
102
{ACAD_REACTORS
330
1082
102
}
330
1082
100
AcDbVisualStyle
  2
Brighten
 70
    12
 71
     2
 72
     2
 73
     0
 90
        0
 40
-0.6
 41
-30.0
 62
     5
 63
     7
 74
     1
 91
        4
 64
     7
 65
   257
 75
     1
175
     1
 42
1.0
 92
        8
 66
     7
 43
1.0
 76
     1
 77
     6
 78
     2
 67
     7
 79
     5
170
     0
171
     0
290
     0
174
     0
 93
        1
 44
50.0
173
     0
291
     1
 45
0.0
1001
ACAD
1000
AcDbSavedByObjectVersion
1070
     0
  0
VISUALSTYLE
  5
1092
102
{ACAD_XDICTIONARY
360
189A
102
}
102
{ACAD_REACTORS
330
1082
102
}
330
1082
100
AcDbVisualStyle
  2
ColorChange
 70
    16
 71
     2
 72
     2
 73
     3
 90
        0
 40
-0.6
 41
-30.0
 62
     5
 63
     8
 74
     1
 91
        4
 64
     7
 65
   257
 75
     1
175
     1
 42
1.0
 92
        8
 66
     8
 43
1.0
 76
     1
 77
     6
 78
     2
 67
     7
 79
     5
170
     0
171
     0
290
     0
174
     0
 93
        1
 44
0.0
173
     0
291
     1
 45
0.0
1001
ACAD
1000
AcDbSavedByObjectVersion
1070
     0
  0
VISUALSTYLE
  5
108B
102
{ACAD_XDICTIONARY
360
188C
102
}
102
{ACAD_REACTORS
330
1082
102
}
330
1082
100
AcDbVisualStyle
  2
Conceptual
 70
     9
 71
     3
 72
     2
 73
     0
 90
        0
 40
-0.6
 41
-30.0
 62
     5
 63
     7
 74
     2
 91
        2
 64
     7
 65
   257
 75
     1
175
     1
 42
179.0
 92
        8
 66
     7
 43
1.0
 76
     1
 77
     6
 78
     2
 67
     7
 79
     3
170
     0
171
     0
290
     0
174
     0
 93
        1
 44
0.0
173
     0
291
     0
 45
0.0
1001
ACAD
1000
AcDbSavedByObjectVersion
1070
     0
  0
VISUALSTYLE
  5
108D
102
{ACAD_XDICTIONARY
360
1890
102
}
102
{ACAD_REACTORS
330
1082
102
}
330
1082
100
AcDbVisualStyle
  2
Dim
 70
    11
 71
     2
 72
     2
 73
     0
 90
        0
 40
-0.6
 41
-30.0
 62
     5
 63
     7
 74
     1
 91
        4
 64
     7
 65
   257
 75
     1
175
     1
 42
1.0
 92
        8
 66
     7
 43
1.0
 76
     1
 77
     6
 78
     2
 67
     7
 79
     5
170
     0
171
     0
290
     0
174
     0
 93
        1
 44
-50.0
173
     0
291
     1
 45
0.0
1001
ACAD
1000
AcDbSavedByObjectVersion
1070
     0
  0
VISUALSTYLE
  5
1095
102
{ACAD_XDICTIONARY
360
18A0
102
}
102
{ACAD_REACTORS
330
1082
102
}
330
1082
100
AcDbVisualStyle
  2
EdgeColorOff
 70
    22
 71
     2
 72
     2
 73
     0
 90
        0
 40
-0.6
 41
-30.0
 62
     5
 63
     7
 74
     1
 91
        4
 64
     7
 65
   257
 75
     1
175
     1
 42
1.0
 92
        8
 66
     7
 43
1.0
 76
     1
 77
     6
 78
     2
 67
     7
 79
     5
170
     0
171
     0
290
     0
174
     0
 93
        1
 44
0.0
173
     0
291
     1
 45
0.0
1001
ACAD
1000
AcDbSavedByObjectVersion
1070
     0
  0
VISUALSTYLE
  5
1091
102
{ACAD_XDICTIONARY
360
1898
102
}
102
{ACAD_REACTORS
330
1082
102
}
330
1082
100
AcDbVisualStyle
  2
Facepattern
 70
    15
 71
     2
 72
     2
 73
     0
 90
        0
 40
-0.6
 41
-30.0
 62
     5
 63
     7
 74
     1
 91
        4
 64
     7
 65
   257
 75
     1
175
     1
 42
1.0
 92
        8
 66
     7
 43
1.0
 76
     1
 77
     6
 78
     2
 67
     7
 79
     5
170
     0
171
     0
290
     0
174
     0
 93
        1
 44
0.0
173
     0
291
     1
 45
0.0
1001
ACAD
1000
AcDbSavedByObjectVersion
1070
     0
  0
VISUALSTYLE
  5
1083
102
{ACAD_XDICTIONARY
360
187C
102
}
102
{ACAD_REACTORS
330
1082
102
}
330
1082
100
AcDbVisualStyle
  2
Flat
 70
     0
 71
     2
 72
     1
 73
     1
 90
        2
 40
-0.6
 41
30.0
 62
     5
 63
     7
 74
     0
 91
        4
 64
     7
 65
   257
 75
     1
175
     1
 42
1.0
 92
        8
 66
     7
 43
1.0
 76
     1
 77
     6
 78
     2
 67
     7
 79
     5
170
     0
171
     0
290
     0
174
     0
 93
       13
 44
0.0
173
     0
291
     1
 45
0.0
1001
ACAD
1000
AcDbSavedByObjectVersion
1070
     0
  0
VISUALSTYLE
  5
1084
102
{ACAD_XDICTIONARY
360
187E
102
}
102
{ACAD_REACTORS
330
1082
102
}
330
1082
100
AcDbVisualStyle
  2
FlatWithEdges
 70
     1
 71
     2
 72
     1
 73
     1
 90
        2
 40
-0.6
 41
30.0
 62
     5
 63
     7
 74
     1
 91
        4
 64
     7
 65
   257
 75
     1
175
     1
 42
1.0
 92
        0
 66
   257
 43
1.0
 76
     1
 77
     6
 78
     2
 67
     7
 79
     5
170
     0
171
     0
290
     0
174
     0
 93
       13
 44
0.0
173
     0
291
     1
 45
0.0
1001
ACAD
1000
AcDbSavedByObjectVersion
1070
     0
  0
VISUALSTYLE
  5
1085
102
{ACAD_XDICTIONARY
360
1880
102
}
102
{ACAD_REACTORS
330
1082
102
}
330
1082
100
AcDbVisualStyle
  2
Gouraud
 70
     2
 71
     2
 72
     2
 73
     1
 90
        2
 40
-0.6
 41
30.0
 62
     5
 63
     7
 74
     0
 91
        4
 64
     7
 65
   257
 75
     1
175
     1
 42
1.0
 92
        0
 66
     7
 43
1.0
 76
     1
 77
     6
 78
     2
 67
     7
 79
     5
170
     0
171
     0
290
     0
174
     0
 93
       13
 44
0.0
173
     0
291
     1
 45
0.0
1001
ACAD
1000
AcDbSavedByObjectVersion
1070
     0
  0
VISUALSTYLE
  5
1086
102
{ACAD_XDICTIONARY
360
1882
102
}
102
{ACAD_REACTORS
330
1082
102
}
330
1082
100
AcDbVisualStyle
  2
GouraudWithEdges
 70
     3
 71
     2
 72
     2
 73
     1
 90
        2
 40
-0.6
 41
30.0
 62
     5
 63
     7
 74
     1
 91
        4
 64
     7
 65
   257
 75
     1
175
     1
 42
1.0
 92
        0
 66
   257
 43
1.0
 76
     1
 77
     6
 78
     2
 67
     7
 79
     5
170
     0
171
     0
290
     0
174
     0
 93
       13
 44
0.0
173
     0
291
     1
 45
0.0
1001
ACAD
1000
AcDbSavedByObjectVersion
1070
     0
  0
VISUALSTYLE
  5
1093
102
{ACAD_XDICTIONARY
360
189C
102
}
102
{ACAD_REACTORS
330
1082
102
}
330
1082
100
AcDbVisualStyle
  2
JitterOff
 70
    20
 71
     2
 72
     2
 73
     0
 90
        0
 40
-0.6
 41
-30.0
 62
     5
 63
     7
 74
     1
 91
        4
 64
     7
 65
   257
 75
     1
175
     1
 42
1.0
 92
       10
 66
     7
 43
1.0
 76
     1
 77
     6
 78
     2
 67
     7
 79
     5
170
     0
171
     0
290
     0
174
     0
 93
        1
 44
0.0
173
     0
291
     1
 45
0.0
1001
ACAD
1000
AcDbSavedByObjectVersion
1070
     0
  0
VISUALSTYLE
  5
1090
102
{ACAD_XDICTIONARY
360
1896
102
}
102
{ACAD_REACTORS
330
1082
102
}
330
1082
100
AcDbVisualStyle
  2
Linepattern
 70
    14
 71
     2
 72
     2
 73
     0
 90
        0
 40
-0.6
 41
-30.0
 62
     5
 63
     7
 74
     1
 91
        4
 64
     7
 65
   257
 75
     7
175
     7
 42
1.0
 92
        8
 66
     7
 43
1.0
 76
     1
 77
     6
 78
     2
 67
     7
 79
     5
170
     0
171
     0
290
     0
174
     0
 93
        1
 44
0.0
173
     0
291
     1
 45
0.0
1001
ACAD
1000
AcDbSavedByObjectVersion
1070
     0
  0
VISUALSTYLE
  5
1094
102
{ACAD_XDICTIONARY
360
189E
102
}
102
{ACAD_REACTORS
330
1082
102
}
330
1082
100
AcDbVisualStyle
  2
OverhangOff
 70
    21
 71
     2
 72
     2
 73
     0
 90
        0
 40
-0.6
 41
-30.0
 62
     5
 63
     7
 74
     1
 91
        4
 64
     7
 65
   257
 75
     1
175
     1
 42
1.0
 92
        9
 66
     7
 43
1.0
 76
     1
 77
     6
 78
     2
 67
     7
 79
     5
170
     0
171
     0
290
     0
174
     0
 93
        1
 44
0.0
173
     0
291
     1
 45
0.0
1001
ACAD
1000
AcDbSavedByObjectVersion
1070
     0
  0
VISUALSTYLE
  5
108C
102
{ACAD_XDICTIONARY
360
188E
102
}
102
{ACAD_REACTORS
330
1082
102
}
330
1082
100
AcDbVisualStyle
  2
Realistic
 70
     8
 71
     2
 72
     2
 73
     0
 90
        0
 40
-0.6
 41
-30.0
 62
     5
 63
     7
 74
     1
 91
        0
 64
     7
 65
   257
 75
     1
175
     1
 42
1.0
 92
        8
 66
     8
 43
1.0
 76
     1
 77
     6
 78
     2
 67
     7
 79
     5
170
     0
171
     0
290
     0
174
     0
 93
       13
 44
0.0
173
     0
291
     0
 45
0.0
1001
ACAD
1000
AcDbSavedByObjectVersion
1070
     0
  0
VISUALSTYLE
  5
108F
102
{ACAD_XDICTIONARY
360
1894
102
}
102
{ACAD_REACTORS
330
1082
102
}
330
1082
100
AcDbVisualStyle
  2
Thicken
 70
    13
 71
     2
 72
     2
 73
     0
 90
        0
 40
-0.6
 41
-30.0
 62
     5
 63
     7
 74
     1
 91
        4
 64
     7
 65
   257
 75
     1
175
     1
 42
1.0
 92
       12
 66
     7
 43
1.0
 76
     1
 77
     6
 78
     2
 67
     7
 79
     5
170
     0
171
     0
290
     0
174
     0
 93
        1
 44
0.0
173
     0
291
     1
 45
0.0
1001
ACAD
1000
AcDbSavedByObjectVersion
1070
     0
  0
DICTIONARYVAR
  5
1860
102
{ACAD_REACTORS
330
3D
102
}
330
3D
100
DictionaryVariables
280
     0
  1
1:1
  0
DICTIONARYVAR
  5
185F
102
{ACAD_REACTORS
330
3D
102
}
330
3D
100
DictionaryVariables
280
     0
  1
STANDARD
  0
DICTIONARYVAR
  5
1049
102
{ACAD_REACTORS
330
3D
102
}
330
3D
100
DictionaryVariables
280
     0
  1
STANDARD
  0
DICTIONARYVAR
  5
3F
102
{ACAD_REACTORS
330
3D
102
}
330
3D
100
DictionaryVariables
280
     0
  1
2
  0
DICTIONARYVAR
  5
3E
102
{ACAD_REACTORS
330
3D
102
}
330
3D
100
DictionaryVariables
280
     0
  1
1
  0
DICTIONARYVAR
  5
1862
102
{ACAD_REACTORS
330
3D
102
}
330
3D
100
DictionaryVariables
280
     0
  1
0
  0
DICTIONARYVAR
  5
1861
102
{ACAD_REACTORS
330
3D
102
}
330
3D
100
DictionaryVariables
280
     0
  1
127
  0
DICTIONARYVAR
  5
186C
102
{ACAD_REACTORS
330
3D
102
}
330
3D
100
DictionaryVariables
280
     0
  1
2
  0
XRECORD
  5
1067
102
{ACAD_REACTORS
330
1066
102
}
330
1066
100
AcDbXrecord
280
     1
  0
DICTIONARY
  5
1872
330
1E
100
AcDbDictionary
280
     1
281
     1
  3
ACAD_XREC_ROUNDTRIP
360
1873
  0
DICTIONARY
  5
1876
330
26
100
AcDbDictionary
280
     1
281
     1
  3
ACAD_XREC_ROUNDTRIP
360
1877
  0
DICTIONARY
  5
1874
330
22
100
AcDbDictionary
280
     1
281
     1
  3
ACAD_XREC_ROUNDTRIP
360
1875
  0
DICTIONARY
  5
1073
330
1072
100
AcDbDictionary
280
     1
281
     1
  3
ACAD_XREC_ROUNDTRIP
360
187A
  3
BUMPTILE
360
1075
  3
DIFFUSETILE
360
1074
  3
OPACITYTILE
360
1078
  3
REFLECTIONTILE
360
1077
  3
REFRACTIONTILE
360
1079
  3
SPECULARTILE
360
1076
  0
DICTIONARY
  5
106B
330
106A
100
AcDbDictionary
280
     1
281
     1
  3
ACAD_XREC_ROUNDTRIP
360
1879
  3
BUMPTILE
360
106D
  3
DIFFUSETILE
360
106C
  3
OPACITYTILE
360
1070
  3
REFLECTIONTILE
360
106F
  3
REFRACTIONTILE
360
1071
  3
SPECULARTILE
360
106E
  0
DICTIONARY
  5
107B
330
107A
100
AcDbDictionary
280
     1
281
     1
  3
ACAD_XREC_ROUNDTRIP
360
187B
  3
BUMPTILE
360
107D
  3
DIFFUSETILE
360
107C
  3
OPACITYTILE
360
1080
  3
REFLECTIONTILE
360
107F
  3
REFRACTIONTILE
360
1081
  3
SPECULARTILE
360
107E
  0
DICTIONARY
  5
181E
330
EE8
100
AcDbDictionary
280
     1
281
     1
  3
ACAD_ROUNDTRIP_2008_TABLESTYLE_CELLSTYLEMAP
360
186D
  3
ACAD_XREC_ROUNDTRIP
360
1878
  0
DICTIONARY
  5
1886
330
1088
100
AcDbDictionary
280
     1
281
     1
  3
ACAD_XREC_ROUNDTRIP
360
1887
  0
DICTIONARY
  5
188A
330
108A
100
AcDbDictionary
280
     1
281
     1
  3
ACAD_XREC_ROUNDTRIP
360
188B
  0
DICTIONARY
  5
1888
330
1089
100
AcDbDictionary
280
     1
281
     1
  3
ACAD_XREC_ROUNDTRIP
360
1889
  0
DICTIONARY
  5
1884
330
1087
100
AcDbDictionary
280
     1
281
     1
  3
ACAD_XREC_ROUNDTRIP
360
1885
  0
DICTIONARY
  5
1892
330
108E
100
AcDbDictionary
280
     1
281
     1
  3
ACAD_XREC_ROUNDTRIP
360
1893
  0
DICTIONARY
  5
189A
330
1092
100
AcDbDictionary
280
     1
281
     1
  3
ACAD_XREC_ROUNDTRIP
360
189B
  0
DICTIONARY
  5
188C
330
108B
100
AcDbDictionary
280
     1
281
     1
  3
ACAD_XREC_ROUNDTRIP
360
188D
  0
DICTIONARY
  5
1890
330
108D
100
AcDbDictionary
280
     1
281
     1
  3
ACAD_XREC_ROUNDTRIP
360
1891
  0
DICTIONARY
  5
18A0
330
1095
100
AcDbDictionary
280
     1
281
     1
  3
ACAD_XREC_ROUNDTRIP
360
18A1
  0
DICTIONARY
  5
1898
330
1091
100
AcDbDictionary
280
     1
281
     1
  3
ACAD_XREC_ROUNDTRIP
360
1899
  0
DICTIONARY
  5
187C
330
1083
100
AcDbDictionary
280
     1
281
     1
  3
ACAD_XREC_ROUNDTRIP
360
187D
  0
DICTIONARY
  5
187E
330
1084
100
AcDbDictionary
280
     1
281
     1
  3
ACAD_XREC_ROUNDTRIP
360
187F
  0
DICTIONARY
  5
1880
330
1085
100
AcDbDictionary
280
     1
281
     1
  3
ACAD_XREC_ROUNDTRIP
360
1881
  0
DICTIONARY
  5
1882
330
1086
100
AcDbDictionary
280
     1
281
     1
  3
ACAD_XREC_ROUNDTRIP
360
1883
  0
DICTIONARY
  5
189C
330
1093
100
AcDbDictionary
280
     1
281
     1
  3
ACAD_XREC_ROUNDTRIP
360
189D
  0
DICTIONARY
  5
1896
330
1090
100
AcDbDictionary
280
     1
281
     1
  3
ACAD_XREC_ROUNDTRIP
360
1897
  0
DICTIONARY
  5
189E
330
1094
100
AcDbDictionary
280
     1
281
     1
  3
ACAD_XREC_ROUNDTRIP
360
189F
  0
DICTIONARY
  5
188E
330
108C
100
AcDbDictionary
280
     1
281
     1
  3
ACAD_XREC_ROUNDTRIP
360
188F
  0
DICTIONARY
  5
1894
330
108F
100
AcDbDictionary
280
     1
281
     1
  3
ACAD_XREC_ROUNDTRIP
360
1895
  0
XRECORD
  5
1873
102
{ACAD_REACTORS
330
1872
102
}
330
1872
100
AcDbXrecord
280
     1
102
SHADEPLOT
 70
     0
102
SHADEPLOTRESLEVEL
 70
     2
102
SHADEPLOTCUSTOMDPI
 70
   300
  0
XRECORD
  5
1877
102
{ACAD_REACTORS
330
1876
102
}
330
1876
100
AcDbXrecord
280
     1
102
SHADEPLOT
 70
     0
102
SHADEPLOTRESLEVEL
 70
     2
102
SHADEPLOTCUSTOMDPI
 70
   300
  0
XRECORD
  5
1875
102
{ACAD_REACTORS
330
1874
102
}
330
1874
100
AcDbXrecord
280
     1
102
SHADEPLOT
 70
     0
102
SHADEPLOTRESLEVEL
 70
     2
102
SHADEPLOTCUSTOMDPI
 70
   300
  0
XRECORD
  5
187A
102
{ACAD_REACTORS
330
1073
102
}
330
1073
100
AcDbXrecord
280
     1
102
MATERIAL
148
0.0
149
0.0
149
0.0
 93
        0
 94
      127
282
     0
 72
     0
 77
     0
171
     0
175
     0
179
     0
273
     0
  0
XRECORD
  5
1075
102
{ACAD_REACTORS
330
1073
102
}
330
1073
100
AcDbXrecord
280
     1
270
     1
271
     1
  0
XRECORD
  5
1074
102
{ACAD_REACTORS
330
1073
102
}
330
1073
100
AcDbXrecord
280
     1
270
     1
271
     1
  0
XRECORD
  5
1078
102
{ACAD_REACTORS
330
1073
102
}
330
1073
100
AcDbXrecord
280
     1
270
     1
271
     1
  0
XRECORD
  5
1077
102
{ACAD_REACTORS
330
1073
102
}
330
1073
100
AcDbXrecord
280
     1
270
     1
271
     1
  0
XRECORD
  5
1079
102
{ACAD_REACTORS
330
1073
102
}
330
1073
100
AcDbXrecord
280
     1
270
     1
271
     1
  0
XRECORD
  5
1076
102
{ACAD_REACTORS
330
1073
102
}
330
1073
100
AcDbXrecord
280
     1
270
     1
271
     1
  0
XRECORD
  5
1879
102
{ACAD_REACTORS
330
106B
102
}
330
106B
100
AcDbXrecord
280
     1
102
MATERIAL
148
0.0
149
0.0
149
0.0
 93
        0
 94
      127
282
     0
 72
     0
 77
     0
171
     0
175
     0
179
     0
273
     0
  0
XRECORD
  5
106D
102
{ACAD_REACTORS
330
106B
102
}
330
106B
100
AcDbXrecord
280
     1
270
     1
271
     1
  0
XRECORD
  5
106C
102
{ACAD_REACTORS
330
106B
102
}
330
106B
100
AcDbXrecord
280
     1
270
     1
271
     1
  0
XRECORD
  5
1070
102
{ACAD_REACTORS
330
106B
102
}
330
106B
100
AcDbXrecord
280
     1
270
     1
271
     1
  0
XRECORD
  5
106F
102
{ACAD_REACTORS
330
106B
102
}
330
106B
100
AcDbXrecord
280
     1
270
     1
271
     1
  0
XRECORD
  5
1071
102
{ACAD_REACTORS
330
106B
102
}
330
106B
100
AcDbXrecord
280
     1
270
     1
271
     1
  0
XRECORD
  5
106E
102
{ACAD_REACTORS
330
106B
102
}
330
106B
100
AcDbXrecord
280
     1
270
     1
271
     1
  0
XRECORD
  5
187B
102
{ACAD_REACTORS
330
107B
102
}
330
107B
100
AcDbXrecord
280
     1
102
MATERIAL
148
0.0
149
0.0
149
0.0
 93
        0
 94
      127
282
     0
 72
     0
 77
     0
171
     0
175
     0
179
     0
273
     0
  0
XRECORD
  5
107D
102
{ACAD_REACTORS
330
107B
102
}
330
107B
100
AcDbXrecord
280
     1
270
     1
271
     1
  0
XRECORD
  5
107C
102
{ACAD_REACTORS
330
107B
102
}
330
107B
100
AcDbXrecord
280
     1
270
     1
271
     1
  0
XRECORD
  5
1080
102
{ACAD_REACTORS
330
107B
102
}
330
107B
100
AcDbXrecord
280
     1
270
     1
271
     1
  0
XRECORD
  5
107F
102
{ACAD_REACTORS
330
107B
102
}
330
107B
100
AcDbXrecord
280
     1
270
     1
271
     1
  0
XRECORD
  5
1081
102
{ACAD_REACTORS
330
107B
102
}
330
107B
100
AcDbXrecord
280
     1
270
     1
271
     1
  0
XRECORD
  5
107E
102
{ACAD_REACTORS
330
107B
102
}
330
107B
100
AcDbXrecord
280
     1
270
     1
271
     1
  0
CELLSTYLEMAP
  5
186D
102
{ACAD_REACTORS
330
181E
102
}
330
181E
100
AcDbCellStyleMap
 90
        3
300
CELLSTYLE
  1
TABLEFORMAT_BEGIN
 90
        5
170
     1
 91
        0
 92
    32768
 62
   257
 93
        1
300
CONTENTFORMAT
  1
CONTENTFORMAT_BEGIN
 90
        0
 91
        0
 92
        4
 93
        0
300

 40
0.0
140
1.0
 94
        5
 62
     0
340
11
144
6.0
309
CONTENTFORMAT_END
171
     1
301
MARGIN
  1
CELLMARGIN_BEGIN
 40
1.5
 40
1.5
 40
1.5
 40
1.5
 40
0.18
 40
0.18
309
CELLMARGIN_END
 94
        6
 95
        1
302
GRIDFORMAT
  1
GRIDFORMAT_BEGIN
 90
        0
 91
        1
 62
     0
 92
       -2
340
0
 93
        0
 40
0.045
309
GRIDFORMAT_END
 95
        2
302
GRIDFORMAT
  1
GRIDFORMAT_BEGIN
 90
        0
 91
        1
 62
     0
 92
       -2
340
0
 93
        0
 40
0.045
309
GRIDFORMAT_END
 95
        4
302
GRIDFORMAT
  1
GRIDFORMAT_BEGIN
 90
        0
 91
        1
 62
     0
 92
       -2
340
0
 93
        0
 40
0.045
309
GRIDFORMAT_END
 95
        8
302
GRIDFORMAT
  1
GRIDFORMAT_BEGIN
 90
        0
 91
        1
 62
     0
 92
       -2
340
0
 93
        0
 40
0.045
309
GRIDFORMAT_END
 95
       16
302
GRIDFORMAT
  1
GRIDFORMAT_BEGIN
 90
        0
 91
        1
 62
     0
 92
       -2
340
0
 93
        0
 40
0.045
309
GRIDFORMAT_END
 95
       32
302
GRIDFORMAT
  1
GRIDFORMAT_BEGIN
 90
        0
 91
        1
 62
     0
 92
       -2
340
0
 93
        0
 40
0.045
309
GRIDFORMAT_END
309
TABLEFORMAT_END
  1
CELLSTYLE_BEGIN
 90
        1
 91
        1
300
_TITLE
309
CELLSTYLE_END
300
CELLSTYLE
  1
TABLEFORMAT_BEGIN
 90
        5
170
     1
 91
        0
 92
        0
 62
   257
 93
        1
300
CONTENTFORMAT
  1
CONTENTFORMAT_BEGIN
 90
        0
 91
        0
 92
        4
 93
        0
300

 40
0.0
140
1.0
 94
        5
 62
     0
340
11
144
4.5
309
CONTENTFORMAT_END
171
     1
301
MARGIN
  1
CELLMARGIN_BEGIN
 40
1.5
 40
1.5
 40
1.5
 40
1.5
 40
0.18
 40
0.18
309
CELLMARGIN_END
 94
        6
 95
        1
302
GRIDFORMAT
  1
GRIDFORMAT_BEGIN
 90
        0
 91
        1
 62
     0
 92
       -2
340
0
 93
        0
 40
0.045
309
GRIDFORMAT_END
 95
        2
302
GRIDFORMAT
  1
GRIDFORMAT_BEGIN
 90
        0
 91
        1
 62
     0
 92
       -2
340
0
 93
        0
 40
0.045
309
GRIDFORMAT_END
 95
        4
302
GRIDFORMAT
  1
GRIDFORMAT_BEGIN
 90
        0
 91
        1
 62
     0
 92
       -2
340
0
 93
        0
 40
0.045
309
GRIDFORMAT_END
 95
        8
302
GRIDFORMAT
  1
GRIDFORMAT_BEGIN
 90
        0
 91
        1
 62
     0
 92
       -2
340
0
 93
        0
 40
0.045
309
GRIDFORMAT_END
 95
       16
302
GRIDFORMAT
  1
GRIDFORMAT_BEGIN
 90
        0
 91
        1
 62
     0
 92
       -2
340
0
 93
        0
 40
0.045
309
GRIDFORMAT_END
 95
       32
302
GRIDFORMAT
  1
GRIDFORMAT_BEGIN
 90
        0
 91
        1
 62
     0
 92
       -2
340
0
 93
        0
 40
0.045
309
GRIDFORMAT_END
309
TABLEFORMAT_END
  1
CELLSTYLE_BEGIN
 90
        2
 91
        1
300
_HEADER
309
CELLSTYLE_END
300
CELLSTYLE
  1
TABLEFORMAT_BEGIN
 90
        5
170
     1
 91
        0
 92
        0
 62
   257
 93
        1
300
CONTENTFORMAT
  1
CONTENTFORMAT_BEGIN
 90
        0
 91
        0
 92
        4
 93
        0
300

 40
0.0
140
1.0
 94
        2
 62
     0
340
11
144
4.5
309
CONTENTFORMAT_END
171
     1
301
MARGIN
  1
CELLMARGIN_BEGIN
 40
1.5
 40
1.5
 40
1.5
 40
1.5
 40
0.18
 40
0.18
309
CELLMARGIN_END
 94
        6
 95
        1
302
GRIDFORMAT
  1
GRIDFORMAT_BEGIN
 90
        0
 91
        1
 62
     0
 92
       -2
340
0
 93
        0
 40
0.045
309
GRIDFORMAT_END
 95
        2
302
GRIDFORMAT
  1
GRIDFORMAT_BEGIN
 90
        0
 91
        1
 62
     0
 92
       -2
340
0
 93
        0
 40
0.045
309
GRIDFORMAT_END
 95
        4
302
GRIDFORMAT
  1
GRIDFORMAT_BEGIN
 90
        0
 91
        1
 62
     0
 92
       -2
340
0
 93
        0
 40
0.045
309
GRIDFORMAT_END
 95
        8
302
GRIDFORMAT
  1
GRIDFORMAT_BEGIN
 90
        0
 91
        1
 62
     0
 92
       -2
340
0
 93
        0
 40
0.045
309
GRIDFORMAT_END
 95
       16
302
GRIDFORMAT
  1
GRIDFORMAT_BEGIN
 90
        0
 91
        1
 62
     0
 92
       -2
340
0
 93
        0
 40
0.045
309
GRIDFORMAT_END
 95
       32
302
GRIDFORMAT
  1
GRIDFORMAT_BEGIN
 90
        0
 91
        1
 62
     0
 92
       -2
340
0
 93
        0
 40
0.045
309
GRIDFORMAT_END
309
TABLEFORMAT_END
  1
CELLSTYLE_BEGIN
 90
        3
 91
        2
300
_DATA
309
CELLSTYLE_END
  0
XRECORD
  5
1878
102
{ACAD_REACTORS
330
181E
102
}
330
181E
100
AcDbXrecord
280
     1
102
ACAD_ROUNDTRIP_PRE2007_TABLESTYLE
 90
        4
 91
        0
  1

 92
        4
 93
        0
  2

 94
        4
 95
        0
  3

  0
XRECORD
  5
1887
102
{ACAD_REACTORS
330
1886
102
}
330
1886
100
AcDbXrecord
280
     1
102
RTVSPropertyOp0
 70
     1
102
RTVSPropertyOp1
 70
     1
102
RTVSPropertyOp2
 70
     1
102
RTVSPropertyOp3
 70
     1
102
RTVSPropertyOp4
 70
     1
102
RTVSPropertyOp5
 70
     1
102
RTVSPropertyOp6
 70
     1
102
RTVSPropertyOp7
 70
     1
102
RTVSPropertyOp8
 70
     1
102
RTVSPropertyOp9
 70
     1
102
RTVSPropertyOp10
 70
     1
102
RTVSPropertyOp11
 70
     1
102
RTVSPropertyOp12
 70
     1
102
RTVSPropertyOp13
 70
     1
102
RTVSPropertyOp14
 70
     1
102
RTVSPropertyOp15
 70
     1
102
RTVSPropertyOp16
 70
     1
102
RTVSPropertyOp17
 70
     1
102
RTVSPropertyOp18
 70
     1
102
RTVSPropertyOp19
 70
     1
102
RTVSPropertyOp20
 70
     1
102
RTVSPropertyOp21
 70
     1
102
RTVSPropertyOp22
 70
     1
102
RTVSPropertyOp23
 70
     1
102
RTVSPropertyOp24
 70
     1
102
RTVSPropertyOp25
 70
     1
102
RTVSPropertyOp26
 70
     1
102
RTVSPropertyOp27
 70
     1
  0
XRECORD
  5
188B
102
{ACAD_REACTORS
330
188A
102
}
330
188A
100
AcDbXrecord
280
     1
102
RTVSPropertyOp0
 70
     1
102
RTVSPropertyOp1
 70
     1
102
RTVSPropertyOp2
 70
     1
102
RTVSPropertyOp3
 70
     1
102
RTVSPropertyOp4
 70
     1
102
RTVSPropertyOp5
 70
     1
102
RTVSPropertyOp6
 70
     1
102
RTVSPropertyOp7
 70
     1
102
RTVSPropertyOp8
 70
     1
102
RTVSPropertyOp9
 70
     1
102
RTVSPropertyOp10
 70
     1
102
RTVSPropertyOp11
 70
     1
102
RTVSPropertyOp12
 70
     1
102
RTVSPropertyOp13
 70
     1
102
RTVSPropertyOp14
 70
     1
102
RTVSPropertyOp15
 70
     1
102
RTVSPropertyOp16
 70
     1
102
RTVSPropertyOp17
 70
     1
102
RTVSPropertyOp18
 70
     1
102
RTVSPropertyOp19
 70
     1
102
RTVSPropertyOp20
 70
     1
102
RTVSPropertyOp21
 70
     1
102
RTVSPropertyOp22
 70
     1
102
RTVSPropertyOp23
 70
     1
102
RTVSPropertyOp24
 70
     1
102
RTVSPropertyOp25
 70
     1
102
RTVSPropertyOp26
 70
     1
102
RTVSPropertyOp27
 70
     1
  0
XRECORD
  5
1889
102
{ACAD_REACTORS
330
1888
102
}
330
1888
100
AcDbXrecord
280
     1
102
RTVSPropertyOp0
 70
     1
102
RTVSPropertyOp1
 70
     1
102
RTVSPropertyOp2
 70
     1
102
RTVSPropertyOp3
 70
     1
102
RTVSPropertyOp4
 70
     1
102
RTVSPropertyOp5
 70
     1
102
RTVSPropertyOp6
 70
     1
102
RTVSPropertyOp7
 70
     1
102
RTVSPropertyOp8
 70
     1
102
RTVSPropertyOp9
 70
     1
102
RTVSPropertyOp10
 70
     1
102
RTVSPropertyOp11
 70
     1
102
RTVSPropertyOp12
 70
     1
102
RTVSPropertyOp13
 70
     1
102
RTVSPropertyOp14
 70
     1
102
RTVSPropertyOp15
 70
     1
102
RTVSPropertyOp16
 70
     1
102
RTVSPropertyOp17
 70
     1
102
RTVSPropertyOp18
 70
     1
102
RTVSPropertyOp19
 70
     1
102
RTVSPropertyOp20
 70
     1
102
RTVSPropertyOp21
 70
     1
102
RTVSPropertyOp22
 70
     1
102
RTVSPropertyOp23
 70
     1
102
RTVSPropertyOp24
 70
     1
102
RTVSPropertyOp25
 70
     1
102
RTVSPropertyOp26
 70
     1
102
RTVSPropertyOp27
 70
     1
  0
XRECORD
  5
1885
102
{ACAD_REACTORS
330
1884
102
}
330
1884
100
AcDbXrecord
280
     1
102
RTVSPropertyOp0
 70
     1
102
RTVSPropertyOp1
 70
     1
102
RTVSPropertyOp2
 70
     1
102
RTVSPropertyOp3
 70
     1
102
RTVSPropertyOp4
 70
     1
102
RTVSPropertyOp5
 70
     1
102
RTVSPropertyOp6
 70
     1
102
RTVSPropertyOp7
 70
     1
102
RTVSPropertyOp8
 70
     1
102
RTVSPropertyOp9
 70
     1
102
RTVSPropertyOp10
 70
     1
102
RTVSPropertyOp11
 70
     1
102
RTVSPropertyOp12
 70
     1
102
RTVSPropertyOp13
 70
     1
102
RTVSPropertyOp14
 70
     1
102
RTVSPropertyOp15
 70
     1
102
RTVSPropertyOp16
 70
     1
102
RTVSPropertyOp17
 70
     1
102
RTVSPropertyOp18
 70
     1
102
RTVSPropertyOp19
 70
     1
102
RTVSPropertyOp20
 70
     1
102
RTVSPropertyOp21
 70
     1
102
RTVSPropertyOp22
 70
     1
102
RTVSPropertyOp23
 70
     1
102
RTVSPropertyOp24
 70
     1
102
RTVSPropertyOp25
 70
     1
102
RTVSPropertyOp26
 70
     1
102
RTVSPropertyOp27
 70
     1
  0
XRECORD
  5
1893
102
{ACAD_REACTORS
330
1892
102
}
330
1892
100
AcDbXrecord
280
     1
102
RTVSPropertyOp0
 70
     1
102
RTVSPropertyOp1
 70
     1
102
RTVSPropertyOp2
 70
     1
102
RTVSPropertyOp3
 70
     1
102
RTVSPropertyOp4
 70
     1
102
RTVSPropertyOp5
 70
     1
102
RTVSPropertyOp6
 70
     1
102
RTVSPropertyOp7
 70
     1
102
RTVSPropertyOp8
 70
     1
102
RTVSPropertyOp9
 70
     1
102
RTVSPropertyOp10
 70
     1
102
RTVSPropertyOp11
 70
     1
102
RTVSPropertyOp12
 70
     1
102
RTVSPropertyOp13
 70
     1
102
RTVSPropertyOp14
 70
     1
102
RTVSPropertyOp15
 70
     1
102
RTVSPropertyOp16
 70
     1
102
RTVSPropertyOp17
 70
     1
102
RTVSPropertyOp18
 70
     1
102
RTVSPropertyOp19
 70
     1
102
RTVSPropertyOp20
 70
     1
102
RTVSPropertyOp21
 70
     1
102
RTVSPropertyOp22
 70
     1
102
RTVSPropertyOp23
 70
     1
102
RTVSPropertyOp24
 70
     1
102
RTVSPropertyOp25
 70
     1
102
RTVSPropertyOp26
 70
     1
102
RTVSPropertyOp27
 70
     1
  0
XRECORD
  5
189B
102
{ACAD_REACTORS
330
189A
102
}
330
189A
100
AcDbXrecord
280
     1
102
RTVSPropertyOp0
 70
     1
102
RTVSPropertyOp1
 70
     1
102
RTVSPropertyOp2
 70
     1
102
RTVSPropertyOp3
 70
     1
102
RTVSPropertyOp4
 70
     1
102
RTVSPropertyOp5
 70
     1
102
RTVSPropertyOp6
 70
     1
102
RTVSPropertyOp7
 70
     1
102
RTVSPropertyOp8
 70
     1
102
RTVSPropertyOp9
 70
     1
102
RTVSPropertyOp10
 70
     1
102
RTVSPropertyOp11
 70
     1
102
RTVSPropertyOp12
 70
     1
102
RTVSPropertyOp13
 70
     1
102
RTVSPropertyOp14
 70
     1
102
RTVSPropertyOp15
 70
     1
102
RTVSPropertyOp16
 70
     1
102
RTVSPropertyOp17
 70
     1
102
RTVSPropertyOp18
 70
     1
102
RTVSPropertyOp19
 70
     1
102
RTVSPropertyOp20
 70
     1
102
RTVSPropertyOp21
 70
     1
102
RTVSPropertyOp22
 70
     1
102
RTVSPropertyOp23
 70
     1
102
RTVSPropertyOp24
 70
     1
102
RTVSPropertyOp25
 70
     1
102
RTVSPropertyOp26
 70
     1
102
RTVSPropertyOp27
 70
     1
  0
XRECORD
  5
188D
102
{ACAD_REACTORS
330
188C
102
}
330
188C
100
AcDbXrecord
280
     1
102
RTVSPropertyOp0
 70
     1
102
RTVSPropertyOp1
 70
     1
102
RTVSPropertyOp2
 70
     1
102
RTVSPropertyOp3
 70
     1
102
RTVSPropertyOp4
 70
     1
102
RTVSPropertyOp5
 70
     1
102
RTVSPropertyOp6
 70
     1
102
RTVSPropertyOp7
 70
     1
102
RTVSPropertyOp8
 70
     1
102
RTVSPropertyOp9
 70
     1
102
RTVSPropertyOp10
 70
     1
102
RTVSPropertyOp11
 70
     1
102
RTVSPropertyOp12
 70
     1
102
RTVSPropertyOp13
 70
     1
102
RTVSPropertyOp14
 70
     1
102
RTVSPropertyOp15
 70
     1
102
RTVSPropertyOp16
 70
     1
102
RTVSPropertyOp17
 70
     1
102
RTVSPropertyOp18
 70
     1
102
RTVSPropertyOp19
 70
     1
102
RTVSPropertyOp20
 70
     1
102
RTVSPropertyOp21
 70
     1
102
RTVSPropertyOp22
 70
     1
102
RTVSPropertyOp23
 70
     1
102
RTVSPropertyOp24
 70
     1
102
RTVSPropertyOp25
 70
     1
102
RTVSPropertyOp26
 70
     1
102
RTVSPropertyOp27
 70
     1
  0
XRECORD
  5
1891
102
{ACAD_REACTORS
330
1890
102
}
330
1890
100
AcDbXrecord
280
     1
102
RTVSPropertyOp0
 70
     1
102
RTVSPropertyOp1
 70
     1
102
RTVSPropertyOp2
 70
     1
102
RTVSPropertyOp3
 70
     1
102
RTVSPropertyOp4
 70
     1
102
RTVSPropertyOp5
 70
     1
102
RTVSPropertyOp6
 70
     1
102
RTVSPropertyOp7
 70
     1
102
RTVSPropertyOp8
 70
     1
102
RTVSPropertyOp9
 70
     1
102
RTVSPropertyOp10
 70
     1
102
RTVSPropertyOp11
 70
     1
102
RTVSPropertyOp12
 70
     1
102
RTVSPropertyOp13
 70
     1
102
RTVSPropertyOp14
 70
     1
102
RTVSPropertyOp15
 70
     1
102
RTVSPropertyOp16
 70
     1
102
RTVSPropertyOp17
 70
     1
102
RTVSPropertyOp18
 70
     1
102
RTVSPropertyOp19
 70
     1
102
RTVSPropertyOp20
 70
     1
102
RTVSPropertyOp21
 70
     1
102
RTVSPropertyOp22
 70
     1
102
RTVSPropertyOp23
 70
     1
102
RTVSPropertyOp24
 70
     1
102
RTVSPropertyOp25
 70
     1
102
RTVSPropertyOp26
 70
     1
102
RTVSPropertyOp27
 70
     1
  0
XRECORD
  5
18A1
102
{ACAD_REACTORS
330
18A0
102
}
330
18A0
100
AcDbXrecord
280
     1
102
RTVSPropertyOp0
 70
     0
102
RTVSPropertyOp1
 70
     0
102
RTVSPropertyOp2
 70
     0
102
RTVSPropertyOp3
 70
     0
102
RTVSPropertyOp4
 70
     0
102
RTVSPropertyOp5
 70
     0
102
RTVSPropertyOp6
 70
     0
102
RTVSPropertyOp7
 70
     0
102
RTVSPropertyOp8
 70
     0
102
RTVSPropertyOp9
 70
     0
102
RTVSPropertyOp10
 70
     0
102
RTVSPropertyOp11
 70
     0
102
RTVSPropertyOp12
 70
     0
102
RTVSPropertyOp13
 70
     0
102
RTVSPropertyOp14
 70
     2
102
RTVSPropertyOp15
 70
     0
102
RTVSPropertyOp16
 70
     0
102
RTVSPropertyOp17
 70
     0
102
RTVSPropertyOp18
 70
     0
102
RTVSPropertyOp19
 70
     0
102
RTVSPropertyOp20
 70
     0
102
RTVSPropertyOp21
 70
     0
102
RTVSPropertyOp22
 70
     0
102
RTVSPropertyOp23
 70
     0
102
RTVSPropertyOp24
 70
     0
102
RTVSPropertyOp25
 70
     0
102
RTVSPropertyOp26
 70
     0
102
RTVSPropertyOp27
 70
     0
  0
XRECORD
  5
1899
102
{ACAD_REACTORS
330
1898
102
}
330
1898
100
AcDbXrecord
280
     1
102
RTVSPropertyOp0
 70
     1
102
RTVSPropertyOp1
 70
     1
102
RTVSPropertyOp2
 70
     1
102
RTVSPropertyOp3
 70
     1
102
RTVSPropertyOp4
 70
     1
102
RTVSPropertyOp5
 70
     1
102
RTVSPropertyOp6
 70
     1
102
RTVSPropertyOp7
 70
     1
102
RTVSPropertyOp8
 70
     1
102
RTVSPropertyOp9
 70
     1
102
RTVSPropertyOp10
 70
     1
102
RTVSPropertyOp11
 70
     1
102
RTVSPropertyOp12
 70
     1
102
RTVSPropertyOp13
 70
     1
102
RTVSPropertyOp14
 70
     1
102
RTVSPropertyOp15
 70
     1
102
RTVSPropertyOp16
 70
     1
102
RTVSPropertyOp17
 70
     1
102
RTVSPropertyOp18
 70
     1
102
RTVSPropertyOp19
 70
     1
102
RTVSPropertyOp20
 70
     1
102
RTVSPropertyOp21
 70
     1
102
RTVSPropertyOp22
 70
     1
102
RTVSPropertyOp23
 70
     1
102
RTVSPropertyOp24
 70
     1
102
RTVSPropertyOp25
 70
     1
102
RTVSPropertyOp26
 70
     1
102
RTVSPropertyOp27
 70
     1
  0
XRECORD
  5
187D
102
{ACAD_REACTORS
330
187C
102
}
330
187C
100
AcDbXrecord
280
     1
102
RTVSPropertyOp0
 70
     1
102
RTVSPropertyOp1
 70
     1
102
RTVSPropertyOp2
 70
     1
102
RTVSPropertyOp3
 70
     1
102
RTVSPropertyOp4
 70
     1
102
RTVSPropertyOp5
 70
     1
102
RTVSPropertyOp6
 70
     1
102
RTVSPropertyOp7
 70
     1
102
RTVSPropertyOp8
 70
     1
102
RTVSPropertyOp9
 70
     1
102
RTVSPropertyOp10
 70
     1
102
RTVSPropertyOp11
 70
     1
102
RTVSPropertyOp12
 70
     1
102
RTVSPropertyOp13
 70
     1
102
RTVSPropertyOp14
 70
     1
102
RTVSPropertyOp15
 70
     1
102
RTVSPropertyOp16
 70
     1
102
RTVSPropertyOp17
 70
     1
102
RTVSPropertyOp18
 70
     1
102
RTVSPropertyOp19
 70
     1
102
RTVSPropertyOp20
 70
     1
102
RTVSPropertyOp21
 70
     1
102
RTVSPropertyOp22
 70
     1
102
RTVSPropertyOp23
 70
     1
102
RTVSPropertyOp24
 70
     1
102
RTVSPropertyOp25
 70
     1
102
RTVSPropertyOp26
 70
     1
102
RTVSPropertyOp27
 70
     1
  0
XRECORD
  5
187F
102
{ACAD_REACTORS
330
187E
102
}
330
187E
100
AcDbXrecord
280
     1
102
RTVSPropertyOp0
 70
     1
102
RTVSPropertyOp1
 70
     1
102
RTVSPropertyOp2
 70
     1
102
RTVSPropertyOp3
 70
     1
102
RTVSPropertyOp4
 70
     1
102
RTVSPropertyOp5
 70
     1
102
RTVSPropertyOp6
 70
     1
102
RTVSPropertyOp7
 70
     1
102
RTVSPropertyOp8
 70
     1
102
RTVSPropertyOp9
 70
     1
102
RTVSPropertyOp10
 70
     1
102
RTVSPropertyOp11
 70
     1
102
RTVSPropertyOp12
 70
     1
102
RTVSPropertyOp13
 70
     1
102
RTVSPropertyOp14
 70
     1
102
RTVSPropertyOp15
 70
     1
102
RTVSPropertyOp16
 70
     1
102
RTVSPropertyOp17
 70
     1
102
RTVSPropertyOp18
 70
     1
102
RTVSPropertyOp19
 70
     1
102
RTVSPropertyOp20
 70
     1
102
RTVSPropertyOp21
 70
     1
102
RTVSPropertyOp22
 70
     1
102
RTVSPropertyOp23
 70
     1
102
RTVSPropertyOp24
 70
     1
102
RTVSPropertyOp25
 70
     1
102
RTVSPropertyOp26
 70
     1
102
RTVSPropertyOp27
 70
     1
  0
XRECORD
  5
1881
102
{ACAD_REACTORS
330
1880
102
}
330
1880
100
AcDbXrecord
280
     1
102
RTVSPropertyOp0
 70
     1
102
RTVSPropertyOp1
 70
     1
102
RTVSPropertyOp2
 70
     1
102
RTVSPropertyOp3
 70
     1
102
RTVSPropertyOp4
 70
     1
102
RTVSPropertyOp5
 70
     1
102
RTVSPropertyOp6
 70
     1
102
RTVSPropertyOp7
 70
     1
102
RTVSPropertyOp8
 70
     1
102
RTVSPropertyOp9
 70
     1
102
RTVSPropertyOp10
 70
     1
102
RTVSPropertyOp11
 70
     1
102
RTVSPropertyOp12
 70
     1
102
RTVSPropertyOp13
 70
     1
102
RTVSPropertyOp14
 70
     1
102
RTVSPropertyOp15
 70
     1
102
RTVSPropertyOp16
 70
     1
102
RTVSPropertyOp17
 70
     1
102
RTVSPropertyOp18
 70
     1
102
RTVSPropertyOp19
 70
     1
102
RTVSPropertyOp20
 70
     1
102
RTVSPropertyOp21
 70
     1
102
RTVSPropertyOp22
 70
     1
102
RTVSPropertyOp23
 70
     1
102
RTVSPropertyOp24
 70
     1
102
RTVSPropertyOp25
 70
     1
102
RTVSPropertyOp26
 70
     1
102
RTVSPropertyOp27
 70
     1
  0
XRECORD
  5
1883
102
{ACAD_REACTORS
330
1882
102
}
330
1882
100
AcDbXrecord
280
     1
102
RTVSPropertyOp0
 70
     1
102
RTVSPropertyOp1
 70
     1
102
RTVSPropertyOp2
 70
     1
102
RTVSPropertyOp3
 70
     1
102
RTVSPropertyOp4
 70
     1
102
RTVSPropertyOp5
 70
     1
102
RTVSPropertyOp6
 70
     1
102
RTVSPropertyOp7
 70
     1
102
RTVSPropertyOp8
 70
     1
102
RTVSPropertyOp9
 70
     1
102
RTVSPropertyOp10
 70
     1
102
RTVSPropertyOp11
 70
     1
102
RTVSPropertyOp12
 70
     1
102
RTVSPropertyOp13
 70
     1
102
RTVSPropertyOp14
 70
     1
102
RTVSPropertyOp15
 70
     1
102
RTVSPropertyOp16
 70
     1
102
RTVSPropertyOp17
 70
     1
102
RTVSPropertyOp18
 70
     1
102
RTVSPropertyOp19
 70
     1
102
RTVSPropertyOp20
 70
     1
102
RTVSPropertyOp21
 70
     1
102
RTVSPropertyOp22
 70
     1
102
RTVSPropertyOp23
 70
     1
102
RTVSPropertyOp24
 70
     1
102
RTVSPropertyOp25
 70
     1
102
RTVSPropertyOp26
 70
     1
102
RTVSPropertyOp27
 70
     1
  0
XRECORD
  5
189D
102
{ACAD_REACTORS
330
189C
102
}
330
189C
100
AcDbXrecord
280
     1
102
RTVSPropertyOp0
 70
     0
102
RTVSPropertyOp1
 70
     0
102
RTVSPropertyOp2
 70
     0
102
RTVSPropertyOp3
 70
     0
102
RTVSPropertyOp4
 70
     0
102
RTVSPropertyOp5
 70
     0
102
RTVSPropertyOp6
 70
     0
102
RTVSPropertyOp7
 70
     0
102
RTVSPropertyOp8
 70
     0
102
RTVSPropertyOp9
 70
     0
102
RTVSPropertyOp10
 70
     0
102
RTVSPropertyOp11
 70
     0
102
RTVSPropertyOp12
 70
     0
102
RTVSPropertyOp13
 70
     0
102
RTVSPropertyOp14
 70
     2
102
RTVSPropertyOp15
 70
     0
102
RTVSPropertyOp16
 70
     0
102
RTVSPropertyOp17
 70
     0
102
RTVSPropertyOp18
 70
     0
102
RTVSPropertyOp19
 70
     0
102
RTVSPropertyOp20
 70
     0
102
RTVSPropertyOp21
 70
     0
102
RTVSPropertyOp22
 70
     0
102
RTVSPropertyOp23
 70
     0
102
RTVSPropertyOp24
 70
     0
102
RTVSPropertyOp25
 70
     0
102
RTVSPropertyOp26
 70
     0
102
RTVSPropertyOp27
 70
     0
  0
XRECORD
  5
1897
102
{ACAD_REACTORS
330
1896
102
}
330
1896
100
AcDbXrecord
280
     1
102
RTVSPropertyOp0
 70
     1
102
RTVSPropertyOp1
 70
     1
102
RTVSPropertyOp2
 70
     1
102
RTVSPropertyOp3
 70
     1
102
RTVSPropertyOp4
 70
     1
102
RTVSPropertyOp5
 70
     1
102
RTVSPropertyOp6
 70
     1
102
RTVSPropertyOp7
 70
     1
102
RTVSPropertyOp8
 70
     1
102
RTVSPropertyOp9
 70
     1
102
RTVSPropertyOp10
 70
     1
102
RTVSPropertyOp11
 70
     1
102
RTVSPropertyOp12
 70
     1
102
RTVSPropertyOp13
 70
     1
102
RTVSPropertyOp14
 70
     1
102
RTVSPropertyOp15
 70
     1
102
RTVSPropertyOp16
 70
     1
102
RTVSPropertyOp17
 70
     1
102
RTVSPropertyOp18
 70
     1
102
RTVSPropertyOp19
 70
     1
102
RTVSPropertyOp20
 70
     1
102
RTVSPropertyOp21
 70
     1
102
RTVSPropertyOp22
 70
     1
102
RTVSPropertyOp23
 70
     1
102
RTVSPropertyOp24
 70
     1
102
RTVSPropertyOp25
 70
     1
102
RTVSPropertyOp26
 70
     1
102
RTVSPropertyOp27
 70
     1
  0
XRECORD
  5
189F
102
{ACAD_REACTORS
330
189E
102
}
330
189E
100
AcDbXrecord
280
     1
102
RTVSPropertyOp0
 70
     0
102
RTVSPropertyOp1
 70
     0
102
RTVSPropertyOp2
 70
     0
102
RTVSPropertyOp3
 70
     0
102
RTVSPropertyOp4
 70
     0
102
RTVSPropertyOp5
 70
     0
102
RTVSPropertyOp6
 70
     0
102
RTVSPropertyOp7
 70
     0
102
RTVSPropertyOp8
 70
     0
102
RTVSPropertyOp9
 70
     0
102
RTVSPropertyOp10
 70
     0
102
RTVSPropertyOp11
 70
     0
102
RTVSPropertyOp12
 70
     0
102
RTVSPropertyOp13
 70
     0
102
RTVSPropertyOp14
 70
     2
102
RTVSPropertyOp15
 70
     0
102
RTVSPropertyOp16
 70
     0
102
RTVSPropertyOp17
 70
     0
102
RTVSPropertyOp18
 70
     0
102
RTVSPropertyOp19
 70
     0
102
RTVSPropertyOp20
 70
     0
102
RTVSPropertyOp21
 70
     0
102
RTVSPropertyOp22
 70
     0
102
RTVSPropertyOp23
 70
     0
102
RTVSPropertyOp24
 70
     0
102
RTVSPropertyOp25
 70
     0
102
RTVSPropertyOp26
 70
     0
102
RTVSPropertyOp27
 70
     0
  0
XRECORD
  5
188F
102
{ACAD_REACTORS
330
188E
102
}
330
188E
100
AcDbXrecord
280
     1
102
RTVSPropertyOp0
 70
     1
102
RTVSPropertyOp1
 70
     1
102
RTVSPropertyOp2
 70
     1
102
RTVSPropertyOp3
 70
     1
102
RTVSPropertyOp4
 70
     1
102
RTVSPropertyOp5
 70
     1
102
RTVSPropertyOp6
 70
     1
102
RTVSPropertyOp7
 70
     1
102
RTVSPropertyOp8
 70
     1
102
RTVSPropertyOp9
 70
     1
102
RTVSPropertyOp10
 70
     1
102
RTVSPropertyOp11
 70
     1
102
RTVSPropertyOp12
 70
     1
102
RTVSPropertyOp13
 70
     1
102
RTVSPropertyOp14
 70
     1
102
RTVSPropertyOp15
 70
     1
102
RTVSPropertyOp16
 70
     1
102
RTVSPropertyOp17
 70
     1
102
RTVSPropertyOp18
 70
     1
102
RTVSPropertyOp19
 70
     1
102
RTVSPropertyOp20
 70
     1
102
RTVSPropertyOp21
 70
     1
102
RTVSPropertyOp22
 70
     1
102
RTVSPropertyOp23
 70
     1
102
RTVSPropertyOp24
 70
     1
102
RTVSPropertyOp25
 70
     1
102
RTVSPropertyOp26
 70
     1
102
RTVSPropertyOp27
 70
     1
  0
XRECORD
  5
1895
102
{ACAD_REACTORS
330
1894
102
}
330
1894
100
AcDbXrecord
280
     1
102
RTVSPropertyOp0
 70
     1
102
RTVSPropertyOp1
 70
     1
102
RTVSPropertyOp2
 70
     1
102
RTVSPropertyOp3
 70
     1
102
RTVSPropertyOp4
 70
     1
102
RTVSPropertyOp5
 70
     1
102
RTVSPropertyOp6
 70
     1
102
RTVSPropertyOp7
 70
     1
102
RTVSPropertyOp8
 70
     1
102
RTVSPropertyOp9
 70
     1
102
RTVSPropertyOp10
 70
     1
102
RTVSPropertyOp11
 70
     1
102
RTVSPropertyOp12
 70
     1
102
RTVSPropertyOp13
 70
     1
102
RTVSPropertyOp14
 70
     1
102
RTVSPropertyOp15
 70
     1
102
RTVSPropertyOp16
 70
     1
102
RTVSPropertyOp17
 70
     1
102
RTVSPropertyOp18
 70
     1
102
RTVSPropertyOp19
 70
     1
102
RTVSPropertyOp20
 70
     1
102
RTVSPropertyOp21
 70
     1
102
RTVSPropertyOp22
 70
     1
102
RTVSPropertyOp23
 70
     1
102
RTVSPropertyOp24
 70
     1
102
RTVSPropertyOp25
 70
     1
102
RTVSPropertyOp26
 70
     1
102
RTVSPropertyOp27
 70
     1
  0
ENDSEC
  0
EOF
