  0
SECTION
  2
HEADER
  9
$ACADVER
  1
AC1015
  9
$ACADMAINTVER
 70
    20
  9
$DWGCODEPAGE
  3
ANSI_1252
  9
$INSBASE
 10
0.0
 20
0.0
 30
0.0
  9
$EXTMIN
 10
4849.691402729032
 20
2500.706992642005
 30
0.0
  9
$EXTMAX
 10
4852.180982853025
 20
2501.469994298898
 30
0.0
  9
$LIMMIN
 10
0.0
 20
0.0
  9
$LIMMAX
 10
420.0
 20
297.0
  9
$ORTHOMODE
 70
     1
  9
$REGENMODE
 70
     1
  9
$FILLMODE
 70
     1
  9
$QTEXTMODE
 70
     0
  9
$MIRRTEXT
 70
     1
  9
$LTSCALE
 40
1.0
  9
$ATTMODE
 70
     1
  9
$TEXTSIZE
 40
2.5
  9
$TRACEWID
 40
1.0
  9
$TEXTSTYLE
  7
SANINDUSA
  9
$CLAYER
  8
0
  9
$CELTYPE
  6
ByLayer
  9
$CECOLOR
 62
   256
  9
$CELTSCALE
 40
1.0
  9
$DISPSILH
 70
     0
  9
$DIMSCALE
 40
1.0
  9
$DIMASZ
 40
2.0
  9
$DIMEXO
 40
1.0
  9
$DIMDLI
 40
1.0
  9
$DIMRND
 40
0.0
  9
$DIMDLE
 40
0.0
  9
$DIMEXE
 40
1.0
  9
$DIMTP
 40
0.0
  9
$DIMTM
 40
0.0
  9
$DIMTXT
 40
2.0
  9
$DIMCEN
 40
0.0
  9
$DIMTSZ
 40
0.0
  9
$DIMTOL
 70
     0
  9
$DIMLIM
 70
     0
  9
$DIMTIH
 70
     0
  9
$DIMTOH
 70
     0
  9
$DIMSE1
 70
     0
  9
$DIMSE2
 70
     0
  9
$DIMTAD
 70
     1
  9
$DIMZIN
 70
     8
  9
$DIMBLK
  1

  9
$DIMASO
 70
     1
  9
$DIMSHO
 70
     1
  9
$DIMPOST
  1

  9
$DIMAPOST
  1

  9
$DIMALT
 70
     0
  9
$DIMALTD
 70
     3
  9
$DIMALTF
 40
0.03937007874016
  9
$DIMLFAC
 40
1.0
  9
$DIMTOFL
 70
     1
  9
$DIMTVP
 40
0.0
  9
$DIMTIX
 70
     0
  9
$DIMSOXD
 70
     0
  9
$DIMSAH
 70
     0
  9
$DIMBLK1
  1

  9
$DIMBLK2
  1

  9
$DIMSTYLE
  2
SANINDUSA
  9
$DIMCLRD
 70
   256
  9
$DIMCLRE
 70
   256
  9
$DIMCLRT
 70
   256
  9
$DIMTFAC
 40
1.0
  9
$DIMGAP
 40
1.0
  9
$DIMJUST
 70
     0
  9
$DIMSD1
 70
     0
  9
$DIMSD2
 70
     0
  9
$DIMTOLJ
 70
     0
  9
$DIMTZIN
 70
     8
  9
$DIMALTZ
 70
     0
  9
$DIMALTTZ
 70
     0
  9
$DIMUPT
 70
     0
  9
$DIMDEC
 70
     1
  9
$DIMTDEC
 70
     1
  9
$DIMALTU
 70
     2
  9
$DIMALTTD
 70
     3
  9
$DIMTXSTY
  7
SANINDUSA
  9
$DIMAUNIT
 70
     0
  9
$DIMADEC
 70
     1
  9
$DIMALTRND
 40
0.0
  9
$DIMAZIN
 70
     0
  9
$DIMDSEP
 70
    44
  9
$DIMATFIT
 70
     3
  9
$DIMFRAC
 70
     0
  9
$DIMLDRBLK
  1

  9
$DIMLUNIT
 70
     2
  9
$DIMLWD
 70
    -1
  9
$DIMLWE
 70
    -1
  9
$DIMTMOVE
 70
     0
  9
$LUNITS
 70
     2
  9
$LUPREC
 70
     4
  9
$SKETCHINC
 40
1.0
  9
$FILLETRAD
 40
0.0
  9
$AUNITS
 70
     0
  9
$AUPREC
 70
     0
  9
$MENU
  1
.
  9
$ELEVATION
 40
0.0
  9
$PELEVATION
 40
0.0
  9
$THICKNESS
 40
0.0
  9
$LIMCHECK
 70
     0
  9
$CHAMFERA
 40
10.0
  9
$CHAMFERB
 40
10.0
  9
$CHAMFERC
 40
20.0
  9
$CHAMFERD
 40
0.0
  9
$SKPOLY
 70
     0
  9
$TDCREATE
 40
2455776.606340775
  9
$TDUCREATE
 40
2455776.564674109
  9
$TDUPDATE
 40
2456111.463639317
  9
$TDUUPDATE
 40
2456111.421972651
  9
$TDINDWG
 40
0.0209429282
  9
$TDUSRTIMER
 40
0.0209427546
  9
$USRTIMER
 70
     1
  9
$ANGBASE
 50
0.0
  9
$ANGDIR
 70
     0
  9
$PDMODE
 70
     0
  9
$PDSIZE
 40
0.0
  9
$PLINEWID
 40
0.0
  9
$SPLFRAME
 70
     0
  9
$SPLINETYPE
 70
     6
  9
$SPLINESEGS
 70
     8
  9
$HANDSEED
  5
1FE8
  9
$SURFTAB1
 70
     6
  9
$SURFTAB2
 70
     6
  9
$SURFTYPE
 70
     6
  9
$SURFU
 70
     6
  9
$SURFV
 70
     6
  9
$UCSBASE
  2

  9
$UCSNAME
  2

  9
$UCSORG
 10
0.0
 20
0.0
 30
0.0
  9
$UCSXDIR
 10
1.0
 20
0.0
 30
0.0
  9
$UCSYDIR
 10
0.0
 20
1.0
 30
0.0
  9
$UCSORTHOREF
  2

  9
$UCSORTHOVIEW
 70
     0
  9
$UCSORGTOP
 10
0.0
 20
0.0
 30
0.0
  9
$UCSORGBOTTOM
 10
0.0
 20
0.0
 30
0.0
  9
$UCSORGLEFT
 10
0.0
 20
0.0
 30
0.0
  9
$UCSORGRIGHT
 10
0.0
 20
0.0
 30
0.0
  9
$UCSORGFRONT
 10
0.0
 20
0.0
 30
0.0
  9
$UCSORGBACK
 10
0.0
 20
0.0
 30
0.0
  9
$PUCSBASE
  2

  9
$PUCSNAME
  2

  9
$PUCSORG
 10
0.0
 20
0.0
 30
0.0
  9
$PUCSXDIR
 10
1.0
 20
0.0
 30
0.0
  9
$PUCSYDIR
 10
0.0
 20
1.0
 30
0.0
  9
$PUCSORTHOREF
  2

  9
$PUCSORTHOVIEW
 70
     0
  9
$PUCSORGTOP
 10
0.0
 20
0.0
 30
0.0
  9
$PUCSORGBOTTOM
 10
0.0
 20
0.0
 30
0.0
  9
$PUCSORGLEFT
 10
0.0
 20
0.0
 30
0.0
  9
$PUCSORGRIGHT
 10
0.0
 20
0.0
 30
0.0
  9
$PUCSORGFRONT
 10
0.0
 20
0.0
 30
0.0
  9
$PUCSORGBACK
 10
0.0
 20
0.0
 30
0.0
  9
$USERI1
 70
     0
  9
$USERI2
 70
     0
  9
$USERI3
 70
     0
  9
$USERI4
 70
     0
  9
$USERI5
 70
     0
  9
$USERR1
 40
0.0
  9
$USERR2
 40
0.0
  9
$USERR3
 40
0.0
  9
$USERR4
 40
0.0
  9
$USERR5
 40
0.0
  9
$WORLDVIEW
 70
     1
  9
$SHADEDGE
 70
     3
  9
$SHADEDIF
 70
    70
  9
$TILEMODE
 70
     1
  9
$MAXACTVP
 70
    64
  9
$PINSBASE
 10
0.0
 20
0.0
 30
0.0
  9
$PLIMCHECK
 70
     0
  9
$PEXTMIN
 10
1.000000000000000E+20
 20
1.000000000000000E+20
 30
1.000000000000000E+20
  9
$PEXTMAX
 10
-1.000000000000000E+20
 20
-1.000000000000000E+20
 30
-1.000000000000000E+20
  9
$PLIMMIN
 10
0.0
 20
0.0
  9
$PLIMMAX
 10
420.0
 20
297.0
  9
$UNITMODE
 70
     0
  9
$VISRETAIN
 70
     1
  9
$PLINEGEN
 70
     0
  9
$PSLTSCALE
 70
     1
  9
$TREEDEPTH
 70
  3020
  9
$CMLSTYLE
  2
Standard
  9
$CMLJUST
 70
     0
  9
$CMLSCALE
 40
20.0
  9
$PROXYGRAPHICS
 70
     1
  9
$MEASUREMENT
 70
     1
  9
$CELWEIGHT
370
    -1
  9
$ENDCAPS
280
     0
  9
$JOINSTYLE
280
     0
  9
$LWDISPLAY
290
     0
  9
$INSUNITS
 70
     4
  9
$HYPERLINKBASE
  1

  9
$STYLESHEET
  1
sanindusa.ctb
  9
$XEDIT
290
     1
  9
$CEPSNTYPE
380
     0
  9
$PSTYLEMODE
290
     1
  9
$FINGERPRINTGUID
  2
{FE76B53E-3564-4023-886C-DBA25E7E3304}
  9
$VERSIONGUID
  2
{2B863DD2-8F8F-4556-97D4-907A2F75822F}
  9
$EXTNAMES
290
     1
  9
$PSVPSCALE
 40
0.0
  9
$OLESTARTUP
290
     0
  0
ENDSEC
  0
SECTION
  2
CLASSES
  0
CLASS
  1
ACDBDICTIONARYWDFLT
  2
AcDbDictionaryWithDefault
  3
ObjectDBX Classes
 90
        0
280
     0
281
     0
  0
CLASS
  1
ACDBPLACEHOLDER
  2
AcDbPlaceHolder
  3
ObjectDBX Classes
 90
        0
280
     0
281
     0
  0
CLASS
  1
LAYOUT
  2
AcDbLayout
  3
ObjectDBX Classes
 90
        0
280
     0
281
     0
  0
CLASS
  1
DICTIONARYVAR
  2
AcDbDictionaryVar
  3
ObjectDBX Classes
 90
        0
280
     0
281
     0
  0
CLASS
  1
DIMASSOC
  2
AcDbDimAssoc
  3
"AcDbDimAssoc|Product Desc:     AcDim ARX App For Dimension|Company:          Autodesk, Inc.|WEB Address:      www.autodesk.com"
 90
    32768
280
     0
281
     0
  0
CLASS
  1
TABLESTYLE
  2
AcDbTableStyle
  3
ObjectDBX Classes
 90
     4095
280
     0
281
     0
  0
CLASS
  1
MATERIAL
  2
AcDbMaterial
  3
ObjectDBX Classes
 90
     1153
280
     0
281
     0
  0
CLASS
  1
VISUALSTYLE
  2
AcDbVisualStyle
  3
ObjectDBX Classes
 90
     4095
280
     0
281
     0
  0
CLASS
  1
SCALE
  2
AcDbScale
  3
ObjectDBX Classes
 90
     1153
280
     0
281
     0
  0
CLASS
  1
MLEADERSTYLE
  2
AcDbMLeaderStyle
  3
ACDB_MLEADERSTYLE_CLASS
 90
     4095
280
     0
281
     0
  0
CLASS
  1
EXACXREFPANELOBJECT
  2
ExAcXREFPanelObject
  3
EXAC_ESW
 90
    33793
280
     0
281
     0
  0
CLASS
  1
NPOCOLLECTION
  2
AcDbImpNonPersistentObjectsCollection
  3
ObjectDBX Classes
 90
     1153
280
     0
281
     0
  0
CLASS
  1
SORTENTSTABLE
  2
AcDbSortentsTable
  3
ObjectDBX Classes
 90
    32768
280
     0
281
     0
  0
CLASS
  1
AEC_REFEDIT_STATUS_TRACKER
  2
AecDbRefEditStatusTracker
  3
AecArchBase60|Product Desc: Autodesk Architectural Desktop 2007 |Company: Autodesk,Inc. |WEB Address: www.autodesk.com
 90
      129
280
     0
281
     0
  0
CLASS
  1
CELLSTYLEMAP
  2
AcDbCellStyleMap
  3
ObjectDBX Classes
 90
     1152
280
     0
281
     0
  0
CLASS
  1
SOLID_BACKGROUND
  2
AcDbSolidBackground
  3
SCENEOE
 90
     4095
280
     0
281
     0
  0
ENDSEC
  0
SECTION
  2
TABLES
  0
TABLE
  2
VPORT
  5
8
102
{ACAD_XDICTIONARY
360
1CE4
102
}
330
0
100
AcDbSymbolTable
 70
     1
  0
VPORT
  5
1068
330
8
100
AcDbSymbolTableRecord
100
AcDbViewportTableRecord
  2
*Active
 70
     0
 10
0.0
 20
0.0
 11
1.0
 21
1.0
 12
4850.936192791028
 22
2501.088493470451
 13
0.0
 23
0.0
 14
10.0
 24
10.0
 15
10.0
 25
10.0
 16
0.0
 26
0.0
 36
1.0
 17
0.0
 27
0.0
 37
0.0
 40
1.518805228211646
 41
1.645464025026068
 42
50.0
 43
0.0
 44
0.0
 50
0.0
 51
0.0
 71
     0
 72
   100
 73
     1
 74
     2
 75
     0
 76
     0
 77
     0
 78
     0
281
     0
 65
     1
110
0.0
120
0.0
130
0.0
111
1.0
121
0.0
131
0.0
112
0.0
122
1.0
132
0.0
 79
     0
146
0.0
  0
ENDTAB
  0
TABLE
  2
LTYPE
  5
5
330
0
100
AcDbSymbolTable
 70
     7
  0
LTYPE
  5
14
330
5
100
AcDbSymbolTableRecord
100
AcDbLinetypeTableRecord
  2
ByBlock
 70
     0
  3

 72
    65
 73
     0
 40
0.0
  0
LTYPE
  5
15
330
5
100
AcDbSymbolTableRecord
100
AcDbLinetypeTableRecord
  2
ByLayer
 70
     0
  3

 72
    65
 73
     0
 40
0.0
  0
LTYPE
  5
16
330
5
100
AcDbSymbolTableRecord
100
AcDbLinetypeTableRecord
  2
Continuous
 70
     0
  3
Solid line
 72
    65
 73
     0
 40
0.0
  0
LTYPE
  5
2D
330
5
100
AcDbSymbolTableRecord
100
AcDbLinetypeTableRecord
  2
DASHDOT
 70
     0
  3
Dash dot __ . __ . __ . __ . __ . __ . __ . __
 72
    65
 73
     4
 40
25.4
 49
12.7
 74
     0
 49
-6.349999999999999
 74
     0
 49
0.0
 74
     0
 49
-6.349999999999999
 74
     0
  0
LTYPE
  5
2E
330
5
100
AcDbSymbolTableRecord
100
AcDbLinetypeTableRecord
  2
HIDDEN
 70
     0
  3
Hidden __ __ __ __ __ __ __ __ __ __ __ __ __ _
 72
    65
 73
     2
 40
9.524999999999998
 49
6.349999999999999
 74
     0
 49
-3.174999999999999
 74
     0
  0
LTYPE
  5
C75
330
5
100
AcDbSymbolTableRecord
100
AcDbLinetypeTableRecord
  2
AM_ISO02W050
 70
     0
  3
__ __ __ __ __ __ __ __ __ __ __ __ __ __ __
 72
    65
 73
     2
 40
7.5
 49
6.0
 74
     0
 49
-1.5
 74
     0
  0
LTYPE
  5
C76
330
5
100
AcDbSymbolTableRecord
100
AcDbLinetypeTableRecord
  2
AM_ISO08W050
 70
     0
  3
____ . ____ . ____ . ____ . ____ . ____ . ____
 72
    65
 73
     4
 40
18.0
 49
12.0
 74
     0
 49
-1.5
 74
     0
 49
3.0
 74
     0
 49
-1.5
 74
     0
  0
LTYPE
  5
1D2E
330
5
100
AcDbSymbolTableRecord
100
AcDbLinetypeTableRecord
  2
CENTER
 70
     0
  3
Center ____ _ ____ _ ____ _ ____ _ ____ _ ____
 72
    65
 73
     4
 40
10.16
 49
6.349999999999999
 74
     0
 49
-1.27
 74
     0
 49
1.27
 74
     0
 49
-1.27
 74
     0
  0
ENDTAB
  0
TABLE
  2
LAYER
  5
2
102
{ACAD_XDICTIONARY
360
1051
102
}
330
0
100
AcDbSymbolTable
 70
    17
  0
LAYER
  5
10
102
{ACAD_XDICTIONARY
360
1CBE
102
}
330
2
100
AcDbSymbolTableRecord
100
AcDbLayerTableRecord
  2
0
 70
     0
 62
     7
  6
Continuous
370
    -3
390
F
  0
LAYER
  5
2F
102
{ACAD_XDICTIONARY
360
1CC0
102
}
330
2
100
AcDbSymbolTableRecord
100
AcDbLayerTableRecord
  2
1
 70
     0
 62
     1
  6
Continuous
370
    -3
390
F
  0
LAYER
  5
30
102
{ACAD_XDICTIONARY
360
1CC2
102
}
330
2
100
AcDbSymbolTableRecord
100
AcDbLayerTableRecord
  2
2
 70
     0
 62
     2
  6
Continuous
370
    -3
390
F
  0
LAYER
  5
31
102
{ACAD_XDICTIONARY
360
1CC4
102
}
330
2
100
AcDbSymbolTableRecord
100
AcDbLayerTableRecord
  2
3
 70
     0
 62
     3
  6
Continuous
370
    -3
390
F
  0
LAYER
  5
32
102
{ACAD_XDICTIONARY
360
1CC6
102
}
330
2
100
AcDbSymbolTableRecord
100
AcDbLayerTableRecord
  2
4
 70
     0
 62
     4
  6
Continuous
370
    -3
390
F
  0
LAYER
  5
33
102
{ACAD_XDICTIONARY
360
1CC8
102
}
330
2
100
AcDbSymbolTableRecord
100
AcDbLayerTableRecord
  2
5
 70
     0
 62
     5
  6
Continuous
370
    -3
390
F
  0
LAYER
  5
34
102
{ACAD_XDICTIONARY
360
1CCA
102
}
330
2
100
AcDbSymbolTableRecord
100
AcDbLayerTableRecord
  2
6
 70
     0
 62
     6
  6
Continuous
370
    -3
390
F
  0
LAYER
  5
35
102
{ACAD_XDICTIONARY
360
1CCC
102
}
330
2
100
AcDbSymbolTableRecord
100
AcDbLayerTableRecord
  2
7
 70
     0
 62
     7
  6
Continuous
370
    -3
390
F
  0
LAYER
  5
36
102
{ACAD_XDICTIONARY
360
1CCE
102
}
330
2
100
AcDbSymbolTableRecord
100
AcDbLayerTableRecord
  2
cen
 70
     0
 62
     7
  6
DASHDOT
370
    -3
390
F
  0
LAYER
  5
37
102
{ACAD_XDICTIONARY
360
1CD0
102
}
330
2
100
AcDbSymbolTableRecord
100
AcDbLayerTableRecord
  2
hid
 70
     0
 62
     7
  6
HIDDEN
370
    -3
390
F
  0
LAYER
  5
5D6
102
{ACAD_XDICTIONARY
360
1CD2
102
}
330
2
100
AcDbSymbolTableRecord
100
AcDbLayerTableRecord
  2
hatch
 70
     0
 62
     9
  6
Continuous
370
    -3
390
F
  0
LAYER
  5
8AF
102
{ACAD_XDICTIONARY
360
1CD4
102
}
330
2
100
AcDbSymbolTableRecord
100
AcDbLayerTableRecord
  2
9
 70
     0
 62
     9
  6
Continuous
370
    -3
390
F
  0
LAYER
  5
8F8
102
{ACAD_XDICTIONARY
360
1CD6
102
}
330
2
100
AcDbSymbolTableRecord
100
AcDbLayerTableRecord
  2
leg fin
 70
     0
 62
     9
  6
Continuous
370
    -3
390
F
  0
LAYER
  5
91D
102
{ACAD_XDICTIONARY
360
1CD8
102
}
330
2
100
AcDbSymbolTableRecord
100
AcDbLayerTableRecord
  2
cotas
 70
     0
 62
     1
  6
Continuous
370
    -3
390
F
  0
LAYER
  5
92F
330
2
100
AcDbSymbolTableRecord
100
AcDbLayerTableRecord
  2
Defpoints
 70
     0
 62
     7
  6
Continuous
290
     0
370
    -3
390
F
  0
LAYER
  5
C7B
102
{ACAD_XDICTIONARY
360
1CDA
102
}
330
2
100
AcDbSymbolTableRecord
100
AcDbLayerTableRecord
  2
SANINDUSA
 70
     0
 62
     3
  6
Continuous
370
    -3
390
F
  0
LAYER
  5
1060
102
{ACAD_XDICTIONARY
360
1CDC
102
}
330
2
100
AcDbSymbolTableRecord
100
AcDbLayerTableRecord
  2
hid1
 70
     0
 62
     9
  6
HIDDEN
370
    -3
390
F
1001
AcAecLayerStandard
1000

1000

  0
ENDTAB
  0
TABLE
  2
STYLE
  5
3
330
0
100
AcDbSymbolTable
 70
     5
  0
STYLE
  5
11
330
3
100
AcDbSymbolTableRecord
100
AcDbTextStyleTableRecord
  2
Standard
 70
     0
 40
0.0
 41
1.0
 50
0.0
 71
     0
 42
2.5
  3
Avgardn.ttf
  4

1001
ACAD
1000
AvantGarde Bk BT
1071
       34
  0
STYLE
  5
2C
330
3
100
AcDbSymbolTableRecord
100
AcDbTextStyleTableRecord
  2

 70
     1
 40
0.0
 41
1.0
 50
0.0
 71
     0
 42
2.5
  3
ltypeshp.shx
  4

  0
STYLE
  5
91F
330
3
100
AcDbSymbolTableRecord
100
AcDbTextStyleTableRecord
  2
SANINDUSA
 70
     0
 40
0.0
 41
1.0
 50
0.0
 71
     0
 42
2.5
  3
verdana.TTF
  4

1001
ACAD
1000
Verdana
1071
       34
  0
STYLE
  5
C7C
330
3
100
AcDbSymbolTableRecord
100
AcDbTextStyleTableRecord
  2
futura
 70
     0
 40
0.0
 41
1.0
 50
0.0
 71
     0
 42
2.5
  3
ZURCHN.TTF
  4

1001
ACAD
1000
Zurich BT
1071
       34
  0
STYLE
  5
1D2F
330
3
100
AcDbSymbolTableRecord
100
AcDbTextStyleTableRecord
  2
SLDTEXTSTYLE0
 70
     0
 40
0.0
 41
0.75
 50
0.0
 71
     0
 42
0.2
  3
TXT
  4

  0
ENDTAB
  0
TABLE
  2
VIEW
  5
6
330
0
100
AcDbSymbolTable
 70
     0
  0
ENDTAB
  0
TABLE
  2
UCS
  5
7
330
0
100
AcDbSymbolTable
 70
     0
  0
ENDTAB
  0
TABLE
  2
APPID
  5
9
330
0
100
AcDbSymbolTable
 70
    16
  0
APPID
  5
12
330
9
100
AcDbSymbolTableRecord
100
AcDbRegAppTableRecord
  2
ACAD
 70
     0
  0
APPID
  5
3A
330
9
100
AcDbSymbolTableRecord
100
AcDbRegAppTableRecord
  2
DCO15
 70
     0
  0
APPID
  5
EEE
330
9
100
AcDbSymbolTableRecord
100
AcDbRegAppTableRecord
  2
ACAD_DSTYLE_DIMTEXT_FILL
 70
     0
  0
APPID
  5
EEF
330
9
100
AcDbSymbolTableRecord
100
AcDbRegAppTableRecord
  2
ACAD_DSTYLE_DIMEXT_LENGTH
 70
     0
  0
APPID
  5
EF0
330
9
100
AcDbSymbolTableRecord
100
AcDbRegAppTableRecord
  2
ACAD_DSTYLE_DIMEXT_ENABLED
 70
     0
  0
APPID
  5
EF1
330
9
100
AcDbSymbolTableRecord
100
AcDbRegAppTableRecord
  2
ACAD_DSTYLE_DIM_LINETYPE
 70
     0
  0
APPID
  5
EF2
330
9
100
AcDbSymbolTableRecord
100
AcDbRegAppTableRecord
  2
ACAD_DSTYLE_DIM_EXT1_LINETYPE
 70
     0
  0
APPID
  5
EF3
330
9
100
AcDbSymbolTableRecord
100
AcDbRegAppTableRecord
  2
ACAD_DSTYLE_DIM_EXT2_LINETYPE
 70
     0
  0
APPID
  5
FAF
330
9
100
AcDbSymbolTableRecord
100
AcDbRegAppTableRecord
  2
ACAD_DSTYLE_DIMJOGGED_JOGANGLE_SYMBOL
 70
     0
  0
APPID
  5
1013
330
9
100
AcDbSymbolTableRecord
100
AcDbRegAppTableRecord
  2
ACAD_DSTYLE_DIMARC_LENGTH_SYMBOL
 70
     0
  0
APPID
  5
1061
330
9
100
AcDbSymbolTableRecord
100
AcDbRegAppTableRecord
  2
AcAecLayerStandard
 70
     0
  0
APPID
  5
132E
330
9
100
AcDbSymbolTableRecord
100
AcDbRegAppTableRecord
  2
ACAD_DSTYLE_DIMJAG
 70
     0
  0
APPID
  5
132F
330
9
100
AcDbSymbolTableRecord
100
AcDbRegAppTableRecord
  2
ACAD_DSTYLE_DIMTALN
 70
     0
  0
APPID
  5
1330
330
9
100
AcDbSymbolTableRecord
100
AcDbRegAppTableRecord
  2
ACAD_DSTYLE_DIMRADIAL_EXTENSION
 70
     0
  0
APPID
  5
1D16
330
9
100
AcDbSymbolTableRecord
100
AcDbRegAppTableRecord
  2
ACAD_MLEADERVER
 70
     0
  0
APPID
  5
1EF1
330
9
100
AcDbSymbolTableRecord
100
AcDbRegAppTableRecord
  2
ACAD_EXEMPT_FROM_CAD_STANDARDS
 70
     0
  0
ENDTAB
  0
TABLE
  2
DIMSTYLE
  5
A
330
0
100
AcDbSymbolTable
 70
     5
100
AcDbDimStyleTable
 71
     1
340
921
  0
DIMSTYLE
105
45
330
A
100
AcDbSymbolTableRecord
100
AcDbDimStyleTableRecord
  2
STANDARD
 70
     0
289
     0
340
11
  0
DIMSTYLE
105
921
330
A
100
AcDbSymbolTableRecord
100
AcDbDimStyleTableRecord
  2
SANINDUSA
 70
     0
 41
2.0
 42
1.0
 43
1.0
 44
1.0
 73
     0
 74
     0
 77
     1
 78
     8
140
2.0
141
0.0
143
0.03937007874016
147
1.0
171
     3
172
     1
176
   256
177
   256
178
   256
179
     1
271
     1
272
     1
274
     3
278
    44
283
     0
284
     8
340
91F
371
    -1
372
    -1
1001
ACAD_DSTYLE_DIMJOGGED_JOGANGLE_SYMBOL
1070
   384
1040
1.570796326794896
  0
DIMSTYLE
105
C7D
330
A
100
AcDbSymbolTableRecord
100
AcDbDimStyleTableRecord
  2
AM_ISO
 70
     0
  4
"
 41
2.5
 42
1.0
 43
10.0
 44
1.0
 47
0.1
 48
0.1
 73
     0
 74
     0
 77
     1
 78
     8
 79
     2
140
3.5
141
0.0
143
0.0393701
146
0.71
147
1.5
172
     1
176
   256
177
   256
178
     2
271
     2
272
     3
274
     4
283
     0
284
     8
340
11
371
    -1
372
    -1
  0
DIMSTYLE
105
1D30
330
A
100
AcDbSymbolTableRecord
100
AcDbDimStyleTableRecord
  2
ISO-25
 70
     0
 41
2.5
 42
0.625
 43
3.75
 44
1.25
 73
     0
 74
     0
 77
     1
 78
     8
140
2.5
141
2.5
143
0.03937007874016
147
0.625
171
     3
172
     1
271
     2
272
     2
274
     3
278
    44
283
     0
284
     8
340
11
  0
ENDTAB
  0
TABLE
  2
BLOCK_RECORD
  5
1
330
0
100
AcDbSymbolTable
 70
   117
  0
BLOCK_RECORD
  5
1F
330
1
100
AcDbSymbolTableRecord
100
AcDbBlockTableRecord
  2
*Model_Space
340
22
  0
BLOCK_RECORD
  5
1B
330
1
100
AcDbSymbolTableRecord
100
AcDbBlockTableRecord
  2
*Paper_Space
340
1E
  0
BLOCK_RECORD
  5
23
330
1
100
AcDbSymbolTableRecord
100
AcDbBlockTableRecord
  2
*Paper_Space0
340
26
  0
BLOCK_RECORD
  5
919
330
1
100
AcDbSymbolTableRecord
100
AcDbBlockTableRecord
  2
_DotSmall
340
0
  0
BLOCK_RECORD
  5
922
330
1
100
AcDbSymbolTableRecord
100
AcDbBlockTableRecord
  2
base para cotas
340
0
310
2800000020000000200000000100080000000000000400000000000000000000000000000000000000000000000080000080000000808000800000008000800080800000C0C0C000C0DCC000F0CAA6000020400000206000002080000020A0000020C0000020E00000400000004020000040400000406000004080000040A0
310
000040C0000040E00000600000006020000060400000606000006080000060A0000060C0000060E00000800000008020000080400000806000008080000080A0000080C0000080E00000A0000000A0200000A0400000A0600000A0800000A0A00000A0C00000A0E00000C0000000C0200000C0400000C0600000C0800000C0
310
A00000C0C00000C0E00000E0000000E0200000E0400000E0600000E0800000E0A00000E0C00000E0E00040000000400020004000400040006000400080004000A0004000C0004000E00040200000402020004020400040206000402080004020A0004020C0004020E000404000004040200040404000404060004040800040
310
40A0004040C0004040E00040600000406020004060400040606000406080004060A0004060C0004060E00040800000408020004080400040806000408080004080A0004080C0004080E00040A0000040A0200040A0400040A0600040A0800040A0A00040A0C00040A0E00040C0000040C0200040C0400040C0600040C08000
310
40C0A00040C0C00040C0E00040E0000040E0200040E0400040E0600040E0800040E0A00040E0C00040E0E00080000000800020008000400080006000800080008000A0008000C0008000E00080200000802020008020400080206000802080008020A0008020C0008020E00080400000804020008040400080406000804080
310
008040A0008040C0008040E00080600000806020008060400080606000806080008060A0008060C0008060E00080800000808020008080400080806000808080008080A0008080C0008080E00080A0000080A0200080A0400080A0600080A0800080A0A00080A0C00080A0E00080C0000080C0200080C0400080C0600080C0
310
800080C0A00080C0C00080C0E00080E0000080E0200080E0400080E0600080E0800080E0A00080E0C00080E0E000C0000000C0002000C0004000C0006000C0008000C000A000C000C000C000E000C0200000C0202000C0204000C0206000C0208000C020A000C020C000C020E000C0400000C0402000C0404000C0406000C0
310
408000C040A000C040C000C040E000C0600000C0602000C0604000C0606000C0608000C060A000C060C000C060E000C0800000C0802000C0804000C0806000C0808000C080A000C080C000C080E000C0A00000C0A02000C0A04000C0A06000C0A08000C0A0A000C0A0C000C0A0E000C0C00000C0C02000C0C04000C0C06000
310
C0C08000C0C0A000F0FBFF00A4A0A000808080000000FF0000FF000000FFFF00FF000000FF00FF00FFFF0000FFFFFF00A4A4A4A4A4A4A4A4A4A4A4A4A4A4A4A4A4A4A4A4A4A4A4A4A4A4A4A4A4A4A4A4A4A4A4A4A4A4A4A4A4A4A4A4A4A4A4A4A4A4A4A4A4A4A4A4A4A4A4A4A4A4A4A4A4A4A4A4A4A4A4A4A4A4A4A4A4A4A4
310
A4A4A4A4A4A4A4A4A4A4A4A4A4A4A4A4A4A4A4A4A4A4A4A4A4A4A4A4A4A4A4A4A4A4A4A4A4A4A4A4A4A4A4A4A4A4A4A4A4A4A4A4A4A4A4A4A4A4A4A4A4A4A4A4A4A4A4A4A4A4A4A4A4A4A4A4A4A4A4A4A4A4A4A4A4A4A4A4A4A4A4A4A4A4A4A4A4A4A4A4A4A4A4A4A4A4A4A4A4A4A4A4A4A4A4A4A4A4A4A4A4A4A4A4A4A4A4
310
A4A4A4A4A4A4A4A4A4A4A4A4A4A4A4A4A4A4A4A4A4A4A4A4A4A4A4A4A4A4A4A4A4A4A4A4A4A4A4A4A4A4A4A4A4A4A4A4A4A4A4A4A4A4A4A4A4A4A4A4A4A4A4A4A4A4A4A4A4A4A4A4A4A4A4A4A4A4A4A4A4A4A4A4A4A4A4A4A4A4A4A4A4A4A4A4A4A4A4A4A4A4A4A4A4A4A4A4A4A4A4A4A4A4A4A4A4A4A4A4A4A4A4A4A4A4A4
310
A4A4A4A4A4A4A4A4A4A4A4A4A4A4A4A4A4A4A4A4A4A4A4A4A4A4A4A4A4A4A4A4A4A4A4A4A4A4A4A4A4A4A4A4A4A4A4A4A4A4A4A4A4A4A4A4A4A4A4A4A4A4A4A4A4A4A4A4A4A4A4A4A4A4A4A4A4A4A4A4A4A4A4A4A4A4A4A4A4A4A4A4A4A4A4A4A4A4A4A4A4A4A4A4A4A4A4A4A4A4A4A4A4A4A4A4F9F9F9F9F9F9F9F9F9F9F9
310
F9F9F9F9F9F9F9F9F9F9F9F9F9F9F9F9F9F9F9A4A4F9F9F9F9F9F9F9F9F9F9F9F9F9F9F9F9F9F9F9F9F9F9F9F9F9F9F9F9F9F9A4A4F9F9F9F9F9F9F9F9F9F9F9F9F9F9F9F9F9F9F9F9F9F9F9F9F9F9F9F9F9F9A4A4F9A4A4A4A4A4A4A4A4A4A4A4A4A4A4A4A4A4A4A4A4A4A4A4A4A4A4A4A4F9A4A4A4A4A4A4A4A4A4A4A4A4
310
A4A4A4A4A4A4A4A4A4A4A4A4A4A4A4A4A4A4A4A4A4A4A4A4A4A4A4A4A4A4A4A4A4A4A4A4A4A4A4A4A4A4A4A4A4A4A4A4A4A4A4A4A4A4A4A4A4A4A4A4A4A4A4A4A4A4A4A4A4A4A4A4A4A4A4A4A4A4A4A4A4A4A4A4A4A4A4A4A4A4A4A4A4A4A4A4A4A4A4A4A4A4A4A4A4A4A4A4A4A4A4A4A4A4A4A4A4A4A4A4A4A4A4A4A4A4A4
310
A4A4A4A4A4A4A4A4A4A4A4A4A4A4A4A4A4A4A4A4A4A4A4A4A4A4A4A4A4A4A4A4A4A4A4A4A4A4A4A4A4A4A4A4A4A4A4A4A4A4A4A4A4A4A4A4A4A4A4A4A4A4A4A4A4A4A4A4A4A4A4A4A4A4A4A4A4A4A4A4A4A4A4A4A4A4A4A4A4A4A4A4A4A4A4A4A4A4A4A4A4A4A4A4A4A4A4A4A4A4A4A4A4A4A4A4A4A4A4A4A4A4A4A4A4A4A4
310
A4A4A4A4A4A4A4A4A4A4A4A4A4A4A4A4A4A4A4A4A4A4A4A4A4A4A4A4A4A4A4A4A4A4A4A4A4A4A4A4A4A4A4A4A4A4A4A4A4A4A4A4A4A4A4A4A4A4A4A4A4A4A4A4A4A4A4A4A4A4A4A4A4A4A4A4A4A4A4A4A4A4A4A4A4A4A4A4A4A4A4A4A4A4A4A4A4A4A4A4A4A4A4A4A4A4A4A4A4A4A4A4A4A4A4A4A4A4A4A4A4A4A4A4A4A4A4
310
A4A4A4A4A4A4A4A4A4A4A4A4A4A4A4A4A4A4A4A4A4A4A4A4A4A4A4A4A4A4A4A4A4A4A4A4A4A4A4A4A4A4A4A4A4A4A4A4A4A4A4A4A4A4A4A4
1001
ACAD
1000
DesignCenter Data
1002
{
1070
     1
1070
     4
1002
}
  0
BLOCK_RECORD
  5
AA8
330
1
100
AcDbSymbolTableRecord
100
AcDbBlockTableRecord
  2
_CLOSED
340
0
  0
BLOCK_RECORD
  5
B79
330
1
100
AcDbSymbolTableRecord
100
AcDbBlockTableRecord
  2
nota revisoes
340
0
1001
ACAD
1000
DesignCenter Data
1002
{
1070
     1
1070
     4
1002
}
  0
BLOCK_RECORD
  5
B8E
330
1
100
AcDbSymbolTableRecord
100
AcDbBlockTableRecord
  2
a3l
340
0
1001
ACAD
1000
DesignCenter Data
1002
{
1070
     1
1070
     4
1002
}
  0
BLOCK_RECORD
  5
B9E
330
1
100
AcDbSymbolTableRecord
100
AcDbBlockTableRecord
  2
legenda desenvolvimento
340
0
1001
ACAD
1000
DesignCenter Data
1002
{
1070
     1
1070
     4
1002
}
  0
ENDTAB
  0
ENDSEC
  0
SECTION
  2
BLOCKS
  0
BLOCK
  5
20
330
1F
100
AcDbEntity
  8
0
100
AcDbBlockBegin
  2
*Model_Space
 70
     0
 10
0.0
 20
0.0
 30
0.0
  3
*Model_Space
  1

  0
ENDBLK
  5
21
330
1F
100
AcDbEntity
  8
0
100
AcDbBlockEnd
  0
BLOCK
  5
1C
330
1B
100
AcDbEntity
 67
     1
  8
0
100
AcDbBlockBegin
  2
*Paper_Space
 70
     0
 10
0.0
 20
0.0
 30
0.0
  3
*Paper_Space
  1

  0
ENDBLK
  5
1D
330
1B
100
AcDbEntity
 67
     1
  8
0
100
AcDbBlockEnd
  0
BLOCK
  5
24
330
23
100
AcDbEntity
 67
     1
  8
0
100
AcDbBlockBegin
  2
*Paper_Space0
 70
     0
 10
0.0
 20
0.0
 30
0.0
  3
*Paper_Space0
  1

  0
ENDBLK
  5
25
330
23
100
AcDbEntity
 67
     1
  8
0
100
AcDbBlockEnd
  0
BLOCK
  5
91B
330
919
100
AcDbEntity
  8
0
100
AcDbBlockBegin
  2
_DotSmall
 70
     0
 10
0.0
 20
0.0
 30
0.0
  3
_DotSmall
  1

  0
LWPOLYLINE
  5
91A
330
919
100
AcDbEntity
  8
0
  6
ByBlock
 62
     0
100
AcDbPolyline
 90
        2
 70
     1
 43
0.5
 10
-0.0625
 20
0.0
 42
1.0
 10
0.0625
 20
0.0
 42
1.0
  0
ENDBLK
  5
91C
330
919
100
AcDbEntity
  8
0
100
AcDbBlockEnd
  0
BLOCK
  5
92A
330
922
100
AcDbEntity
  8
0
100
AcDbBlockBegin
  2
base para cotas
 70
     0
 10
0.0
 20
0.0
 30
0.0
  3
base para cotas
  1

  0
LINE
  5
B36
330
922
100
AcDbEntity
  8
cotas
100
AcDbLine
 10
0.0
 20
-30.0
 30
0.0
 11
327.1260136525398
 21
-30.0
 31
0.0
  0
LINE
  5
B37
330
922
100
AcDbEntity
  8
cotas
100
AcDbLine
 10
0.0
 20
-25.0
 30
0.0
 11
327.1260136525398
 21
-25.0
 31
0.0
  0
LINE
  5
B38
330
922
100
AcDbEntity
  8
cotas
100
AcDbLine
 10
0.0
 20
-20.0
 30
0.0
 11
327.1260136525398
 21
-20.0
 31
0.0
  0
LINE
  5
B39
330
922
100
AcDbEntity
  8
cotas
100
AcDbLine
 10
0.0
 20
-15.0
 30
0.0
 11
327.1260136525398
 21
-15.0
 31
0.0
  0
LINE
  5
B3A
330
922
100
AcDbEntity
  8
cotas
100
AcDbLine
 10
0.0
 20
-10.0
 30
0.0
 11
327.1260136525398
 21
-10.0
 31
0.0
  0
LINE
  5
B3B
330
922
100
AcDbEntity
  8
cotas
100
AcDbLine
 10
0.0
 20
0.0
 30
0.0
 11
0.0
 21
-30.0
 31
0.0
  0
LINE
  5
B3C
330
922
100
AcDbEntity
  8
cotas
100
AcDbLine
 10
327.1260136525398
 20
-30.0
 30
0.0
 11
327.1260136525398
 21
0.0
 31
0.0
  0
ENDBLK
  5
92B
330
922
100
AcDbEntity
  8
0
100
AcDbBlockEnd
  0
BLOCK
  5
AAD
330
AA8
100
AcDbEntity
  8
0
100
AcDbBlockBegin
  2
_CLOSED
 70
     0
 10
0.0
 20
0.0
 30
0.0
  3
_CLOSED
  1

  0
LINE
  5
AA9
330
AA8
100
AcDbEntity
  8
0
100
AcDbLine
 10
-1.0
 20
0.166667
 30
0.0
 11
0.0
 21
0.0
 31
0.0
  0
LINE
  5
AAA
330
AA8
100
AcDbEntity
  8
0
100
AcDbLine
 10
0.0
 20
0.0
 30
0.0
 11
-1.0
 21
-0.166667
 31
0.0
  0
LINE
  5
AAB
330
AA8
100
AcDbEntity
  8
0
100
AcDbLine
 10
-1.0
 20
0.166667
 30
0.0
 11
-1.0
 21
-0.166667
 31
0.0
  0
LINE
  5
AAC
330
AA8
100
AcDbEntity
  8
0
100
AcDbLine
 10
0.0
 20
0.0
 30
0.0
 11
-1.0
 21
0.0
 31
0.0
  0
ENDBLK
  5
AAE
330
AA8
100
AcDbEntity
  8
0
100
AcDbBlockEnd
  0
BLOCK
  5
B7C
330
B79
100
AcDbEntity
  8
0
100
AcDbBlockBegin
  2
nota revisoes
 70
     0
 10
0.0
 20
0.0
 30
0.0
  3
nota revisoes
  1

  0
CIRCLE
  5
B7A
330
B79
100
AcDbEntity
  8
4
100
AcDbCircle
 10
0.0
 20
0.0
 30
0.0
 40
13.69426055101189
  0
TEXT
  5
B7B
330
B79
100
AcDbEntity
  8
4
100
AcDbText
 10
-5.496248358154345
 20
-5.354545554066362
 30
0.0
 40
12.0
  1
1
  7
SANINDUSA
 72
     1
 11
-0.249774214433728
 21
-5.354545554066362
 31
0.0
100
AcDbText
  0
ENDBLK
  5
B7D
330
B79
100
AcDbEntity
  8
0
100
AcDbBlockEnd
  0
BLOCK
  5
B9C
330
B8E
100
AcDbEntity
  8
0
100
AcDbBlockBegin
  2
a3l
 70
     0
 10
0.0
 20
0.0
 30
0.0
  3
a3l
  1

  0
LINE
  5
B8F
330
B8E
100
AcDbEntity
  8
1
100
AcDbLine
 10
-364.2925296599447
 20
-362.1188951399395
 30
0.0
 11
-364.2925296599447
 21
-65.11889513993946
 31
0.0
  0
LINE
  5
B90
330
B8E
100
AcDbEntity
  8
4
100
AcDbLine
 10
-369.2925296599447
 20
-357.1188951399395
 30
0.0
 11
-369.2925296599447
 21
-70.11889513993946
 31
0.0
  0
LINE
  5
B91
330
B8E
100
AcDbEntity
  8
1
100
AcDbLine
 10
-784.2925296599446
 20
-65.11889513993946
 30
0.0
 11
-784.2925296599446
 21
-362.1188951399395
 31
0.0
  0
LINE
  5
B92
330
B8E
100
AcDbEntity
  8
4
100
AcDbLine
 10
-759.2925296599446
 20
-357.1188951399395
 30
0.0
 11
-759.2925296599446
 21
-70.11889513993946
 31
0.0
  0
LINE
  5
B93
330
B8E
100
AcDbEntity
  8
1
100
AcDbLine
 10
-784.2925296599446
 20
-362.1188951399395
 30
0.0
 11
-364.2925296599447
 21
-362.1188951399395
 31
0.0
  0
LINE
  5
B94
330
B8E
100
AcDbEntity
  8
4
100
AcDbLine
 10
-759.2925296599446
 20
-357.1188951399395
 30
0.0
 11
-369.2925296599447
 21
-357.1188951399395
 31
0.0
  0
LINE
  5
B95
330
B8E
100
AcDbEntity
  8
1
100
AcDbLine
 10
-654.2925296599446
 20
-357.1188951399395
 30
0.0
 11
-654.2925296599446
 21
-362.1188951399395
 31
0.0
  0
LINE
  5
B96
330
B8E
100
AcDbEntity
  8
1
100
AcDbLine
 10
-364.2925296599447
 20
-65.11889513993946
 30
0.0
 11
-784.2925296599446
 21
-65.11889513993946
 31
0.0
  0
LINE
  5
B97
330
B8E
100
AcDbEntity
  8
4
100
AcDbLine
 10
-369.2925296599447
 20
-70.11889513993946
 30
0.0
 11
-759.2925296599446
 21
-70.11889513993946
 31
0.0
  0
LINE
  5
B98
330
B8E
100
AcDbEntity
  8
1
100
AcDbLine
 10
-654.2925296599446
 20
-65.11889513993946
 30
0.0
 11
-654.2925296599446
 21
-70.11889513993946
 31
0.0
  0
LINE
  5
B99
330
B8E
100
AcDbEntity
  8
1
100
AcDbLine
 10
-549.2925296599446
 20
-70.11889513993946
 30
0.0
 11
-549.2925296599446
 21
-65.11889513993946
 31
0.0
  0
LINE
  5
B9A
330
B8E
100
AcDbEntity
  8
1
100
AcDbLine
 10
-369.2925296599447
 20
-65.11889513993946
 30
0.0
 11
-364.2925296599447
 21
-65.11889513993946
 31
0.0
  0
LINE
  5
B9B
330
B8E
100
AcDbEntity
  8
1
100
AcDbLine
 10
-549.2925296599446
 20
-357.1188951399395
 30
0.0
 11
-549.2925296599446
 21
-362.1188951399395
 31
0.0
  0
ENDBLK
  5
B9D
330
B8E
100
AcDbEntity
  8
0
100
AcDbBlockEnd
  0
BLOCK
  5
C13
330
B9E
100
AcDbEntity
  8
0
100
AcDbBlockBegin
  2
legenda desenvolvimento
 70
     2
 10
0.0
 20
0.0
 30
0.0
  3
legenda desenvolvimento
  1

  0
ATTDEF
  5
B9F
330
B9E
100
AcDbEntity
  8
1
100
AcDbText
 10
-108.606245802552
 20
55.5
 30
0.0
 40
4.0
  1
XXXXXXXXXXXXXX
 41
0.8
  7
SANINDUSA
 72
     4
 11
-87.5
 21
57.5
 31
0.0
100
AcDbAttributeDefinition
  3
Nome do Produto:
  2
PRODUTO
 70
     0
  0
ATTDEF
  5
BA0
330
B9E
100
AcDbEntity
  8
1
100
AcDbText
 10
-97.9997966101695
 20
41.25
 30
0.0
 40
3.0
  1
XXXXXXXXX
 41
0.8
  7
futura
 72
     4
 11
-87.5
 21
42.75
 31
0.0
100
AcDbAttributeDefinition
  3
Nome da Peça:
  2
PECA
 70
     0
  0
ATTDEF
  5
BA1
330
B9E
100
AcDbEntity
  8
1
100
AcDbText
 10
-133.4422431161853
 20
21.11745296763252
 30
0.0
 40
2.5
  1
X
 41
0.8
  7
SANINDUSA
 72
     4
 11
-132.5
 21
22.36745296763252
 31
0.0
100
AcDbAttributeDefinition
  3
Cod. TESTE:
  2
TESTE
 70
     0
  0
ATTDEF
  5
BA2
330
B9E
100
AcDbEntity
  8
1
100
AcDbText
 10
-124.3844862323707
 20
21.11745296763252
 30
0.0
 40
2.5
  1
XX
 41
0.8
  7
SANINDUSA
 72
     4
 11
-122.5
 21
22.36745296763252
 31
0.0
100
AcDbAttributeDefinition
  3
Cod. Ano:
  2
ANO
 70
     0
  0
ATTDEF
  5
BA3
330
B9E
100
AcDbEntity
  8
1
100
AcDbText
 10
-112.526889953052
 20
21.11745296763252
 30
0.0
 40
2.5
  1
XXX
 41
0.8
  7
SANINDUSA
 72
     4
 11
-109.700160604496
 21
22.36745296763252
 31
0.0
100
AcDbAttributeDefinition
  3
Cod. Sequência:
  2
SEQUENCIA
 70
     0
  0
ATTDEF
  5
BA4
330
B9E
100
AcDbEntity
  8
1
100
AcDbText
 10
-99.35382430979316
 20
21.11745296763252
 30
0.0
 40
2.5
  1
XX
 41
0.8
  7
SANINDUSA
 72
     4
 11
-97.46933807742244
 21
22.36745296763252
 31
0.0
100
AcDbAttributeDefinition
  3
Cod. Tipo:
  2
TIPO
 70
     0
  0
ATTDEF
  5
BA5
330
B9E
100
AcDbEntity
  8
1
100
AcDbText
 10
-87.42035911468438
 20
21.11745296763252
 30
0.0
 40
2.5
  1
XXX
 41
0.8
  7
SANINDUSA
 72
     4
 11
-84.59362976612828
 21
22.36745296763252
 31
0.0
100
AcDbAttributeDefinition
  3
Cod. Produto:
  2
PRODUTO
 70
     0
  0
ATTDEF
  5
BA6
330
B9E
100
AcDbEntity
  8
1
100
AcDbText
 10
-74.62051971917853
 20
21.11745296763252
 30
0.0
 40
2.5
  1
XXX
 41
0.8
  7
SANINDUSA
 72
     4
 11
-71.79379037062244
 21
22.36745296763252
 31
0.0
100
AcDbAttributeDefinition
  3
Cod. Peça:
  2
PECA
 70
     0
  0
ATTDEF
  5
BA7
330
B9E
100
AcDbEntity
  8
1
100
AcDbText
 10
-61.10603446650329
 20
21.11745296763252
 30
0.0
 40
2.5
  1
XX
 41
0.8
  7
SANINDUSA
 72
     4
 11
-59.22154823413257
 21
22.36745296763252
 31
0.0
100
AcDbAttributeDefinition
  3
Cod. Revisão:
  2
REV
 70
     0
  0
ATTDEF
  5
BA8
330
B9E
100
AcDbEntity
  8
1
100
AcDbText
 10
-48.43615325006194
 20
21.11745296763252
 30
0.0
 40
2.5
  1
XX
 41
0.8
  7
SANINDUSA
 72
     4
 11
-46.55166701769121
 21
22.36745296763252
 31
0.0
100
AcDbAttributeDefinition
  3
Cod. Alteração:
  2
ALT
 70
     0
  0
ATTDEF
  5
BA9
330
B9E
100
AcDbEntity
  8
1
100
AcDbText
 10
-35.19086635325722
 20
23.98875083948959
 30
0.0
 40
3.0
  1
1/XXX
 41
0.8
  7
SANINDUSA
 72
     4
 11
-30.0
 21
25.25
 31
0.0
100
AcDbAttributeDefinition
  3
Escala geral:
  2
ESCALA
 70
     0
  0
ATTDEF
  5
BAA
330
B9E
100
AcDbEntity
  8
1
100
AcDbText
 10
-15.65345869711215
 20
23.75
 30
0.0
 40
3.0
  1
XXXXX
 41
0.8
  7
SANINDUSA
 72
     4
 11
-10.0
 21
25.25
 31
0.0
100
AcDbAttributeDefinition
  3
Folha:
  2
FOLHA
 70
     0
  0
ATTDEF
  5
BAB
330
B9E
100
AcDbEntity
  8
1
100
AcDbText
 10
-178.5146998822042
 20
56.9531347542807
 30
0.0
 40
2.0
  1
xx
 41
0.8
  7
SANINDUSA
 72
     4
 11
-177.2123493113513
 21
57.70330265219877
 31
0.0
100
AcDbAttributeDefinition
  3
revisão
  2
REV.
 70
     0
  0
ATTDEF
  5
BAC
330
B9E
100
AcDbEntity
  8
1
100
AcDbText
 10
-172.7849640077129
 20
56.9531347542807
 30
0.0
 40
2.0
  1
xx
 41
0.8
  7
SANINDUSA
 72
     4
 11
-171.48261343686
 21
57.70330265219877
 31
0.0
100
AcDbAttributeDefinition
  3
alteração
  2
ALT.
 70
     0
  0
ATTDEF
  5
BAD
330
B9E
100
AcDbEntity
  8
1
100
AcDbText
 10
-168.007199951307
 20
56.70330265219877
 30
0.0
 40
2.0
  1
xx/xx/xxxx
 41
0.8
  7
SANINDUSA
 11
-168.007199951307
 21
57.70330265219877
 31
0.0
100
AcDbAttributeDefinition
  3
data
  2
DATA
 70
     0
 74
     2
  0
ATTDEF
  5
BAE
330
B9E
100
AcDbEntity
  8
1
100
AcDbText
 10
-168.5396372253371
 20
13.15916722632639
 30
0.0
 40
2.0
  1
XX/XX/XXXX
 41
0.8
  7
SANINDUSA
 72
     4
 11
-161.5099528734231
 21
14.0
 31
0.0
100
AcDbAttributeDefinition
  3
Data projecto
  2
DATA_PROJ
 70
     0
  0
ATTDEF
  5
BAF
330
B9E
100
AcDbEntity
  8
1
100
AcDbText
 10
-150.8658110728766
 20
13.24983210208193
 30
0.0
 40
2.0
  1
xxxxxxxx
 41
0.8
  7
SANINDUSA
 72
     4
 11
-145.6564087894649
 21
14.0
 31
0.0
100
AcDbAttributeDefinition
  3
nome de quem projectou
  2
NOME
 70
     0
  0
ATTDEF
  5
BB0
330
B9E
100
AcDbEntity
  8
1
100
AcDbText
 10
-168.5396372253371
 20
9.159167226326394
 30
0.0
 40
2.0
  1
XX/XX/XXXX
 41
0.8
  7
SANINDUSA
 72
     4
 11
-161.5099528734231
 21
10.0
 31
0.0
100
AcDbAttributeDefinition
  3
Data desenhou
  2
DATA_DES
 70
     0
  0
ATTDEF
  5
BB1
330
B9E
100
AcDbEntity
  8
1
100
AcDbText
 10
-151.516986358303
 20
9.249832102081933
 30
0.0
 40
2.0
  1
xxxxxxxxx
 41
0.8
  7
SANINDUSA
 72
     4
 11
-145.6564087894649
 21
10.0
 31
0.0
100
AcDbAttributeDefinition
  3
nome
  2
NOME
 70
     0
  0
ATTDEF
  5
BB2
330
B9E
100
AcDbEntity
  8
1
100
AcDbText
 10
-127.2924214135946
 20
14.1979876583216
 30
0.0
 40
2.0
  1
Vitreous China
 41
0.8
  7
SANINDUSA
 72
     4
 11
-119.231709526422
 21
15.22216495852308
 31
0.0
100
AcDbAttributeDefinition
  3
Nome do Material:
  2
MATERIAL
 70
     0
  0
ATTDEF
  5
BB3
330
B9E
100
AcDbEntity
  8
1
100
AcDbText
 10
-103.1563452122093
 20
14.38019043949261
 30
0.0
 40
2.0
  1
Branco
 41
0.8
  7
SANINDUSA
 72
     4
 11
-99.33418268702462
 21
15.35937109765245
 31
0.0
100
AcDbAttributeDefinition
  3
cor da peça
  2
COR
 70
     0
  0
ATTDEF
  5
BB4
330
B9E
100
AcDbEntity
  8
1
100
AcDbText
 10
-116.7235057085292
 20
5.975822699798522
 30
0.0
 40
2.0
  1
Vidrado
 41
0.8
  7
SANINDUSA
 72
     4
 11
-112.5
 21
7.0
 31
0.0
100
AcDbAttributeDefinition
  3
Tipo de acabamento:
  2
ACABAMENTO
 70
     0
  0
ATTDEF
  5
BB5
330
B9E
100
AcDbEntity
  8
1
100
AcDbText
 10
-79.18527869967246
 20
16.65066409850533
 30
0.0
 40
2.0
  1
XXXXXXX
 41
0.8
  7
SANINDUSA
 72
     4
 11
-73.90871724903445
 21
17.65066409850533
 31
0.0
100
AcDbAttributeDefinition
  3
Normas
  2
NORMAS
 70
     0
  0
ATTDEF
  5
BB6
330
B9E
100
AcDbEntity
  8
1
100
AcDbText
 10
-30.55312290127603
 20
14.0
 30
0.0
 40
2.0
  1
XXXXXXXXXXXXXX
 41
0.8
  7
SANINDUSA
 72
     4
 11
-20.0
 21
15.0
 31
0.0
100
AcDbAttributeDefinition
  3
Substitui o desenho:
  2
SUBSTITUI
 70
     0
  0
ATTDEF
  5
BB7
330
B9E
100
AcDbEntity
  8
1
100
AcDbText
 10
-31.30691739422431
 20
6.0
 30
0.0
 40
2.0
  1
XXXXXXXXXXXXXXX
 41
0.8
  7
SANINDUSA
 72
     4
 11
-20.0
 21
7.0
 31
0.0
100
AcDbAttributeDefinition
  3
Substituido por:
  2
SUBSTITUIDO
 70
     0
  0
ATTDEF
  5
BB8
330
B9E
100
AcDbEntity
  8
1
100
AcDbText
 10
-110.0220608548302
 20
1.478208457928303
 30
0.0
 40
2.0
  1
XXXXXXXXXXXXXXXXXXXXXXXXXXXXXXXXXX
 41
0.8
  7
SANINDUSA
 11
-110.0220608548302
 21
2.478208457928303
 31
0.0
100
AcDbAttributeDefinition
  3
Localização do desenho:
  2
LOC-DWG
 70
     0
 74
     2
  0
LINE
  5
BB9
330
B9E
100
AcDbEntity
  8
3
100
AcDbLine
 10
-135.0
 20
4.0
 30
0.0
 11
0.0000000000004547
 21
4.0
 31
0.0
  0
LINE
  5
BBA
330
B9E
100
AcDbEntity
  8
3
100
AcDbLine
 10
-90.00000000000046
 20
12.0
 30
0.0
 11
-135.0
 21
12.0
 31
0.0
  0
LINE
  5
BBB
330
B9E
100
AcDbEntity
  8
3
100
AcDbLine
 10
-135.0
 20
32.5
 30
0.0
 11
-40.0
 21
32.5
 31
0.0
  0
TEXT
  5
BBC
330
B9E
100
AcDbEntity
  8
1
100
AcDbText
 10
-134.0
 20
1.25
 30
0.0
 40
2.0
  1
Localização do des.:
 41
0.8
  7
SANINDUSA
 11
-134.0
 21
2.25
 31
0.0
100
AcDbText
 73
     2
  0
LINE
  5
BBD
330
B9E
100
AcDbEntity
  8
3
100
AcDbLine
 10
-180.0
 20
65.0
 30
0.0
 11
0.0
 21
65.0
 31
0.0
  0
LINE
  5
BBE
330
B9E
100
AcDbEntity
  8
leg fin
100
AcDbLine
 10
-40.0
 20
25.05956924886846
 30
0.0
 11
-135.0
 21
25.05956924886846
 31
0.0
  0
LINE
  5
BBF
330
B9E
100
AcDbEntity
  8
leg fin
100
AcDbLine
 10
-40.0
 20
28.5
 30
0.0
 11
-135.0
 21
28.5
 31
0.0
  0
LINE
  5
BC0
330
B9E
100
AcDbEntity
  8
3
100
AcDbLine
 10
-135.0
 20
50.0
 30
0.0
 11
-40.0
 21
50.0
 31
0.0
  0
TEXT
  5
BC1
330
B9E
100
AcDbEntity
  8
1
100
AcDbText
 10
-134.0
 20
29.75
 30
0.0
 40
2.0
  1
Desenho nº:
 41
0.8
  7
SANINDUSA
 11
-134.0
 21
30.75
 31
0.0
100
AcDbText
 73
     2
  0
TEXT
  5
BC2
330
B9E
100
AcDbEntity
  8
1
100
AcDbText
 10
-134.0
 20
9.25
 30
0.0
 40
2.0
  1
Acabamento:
 41
0.8
  7
SANINDUSA
 11
-134.0
 21
10.25
 31
0.0
100
AcDbText
 73
     2
  0
LINE
  5
BC3
330
B9E
100
AcDbEntity
  8
3
100
AcDbLine
 10
-180.0
 20
20.0
 30
0.0
 11
0.0
 21
20.0
 31
0.0
  0
LINE
  5
BC4
330
B9E
100
AcDbEntity
  8
1
100
AcDbLine
 10
-174.5810776056337
 20
55.5
 30
0.0
 11
-174.5810776056337
 21
65.0
 31
0.0
  0
LINE
  5
BC5
330
B9E
100
AcDbEntity
  8
1
100
AcDbLine
 10
-168.9210461879161
 20
55.5
 30
0.0
 11
-168.9210461879161
 21
65.0
 31
0.0
  0
LINE
  5
BC6
330
B9E
100
AcDbEntity
  8
1
100
AcDbLine
 10
-154.0988595589306
 20
55.5
 30
0.0
 11
-154.0988595589306
 21
65.0
 31
0.0
  0
LINE
  5
BC7
330
B9E
100
AcDbEntity
  8
3
100
AcDbLine
 10
-180.0
 20
65.0
 30
0.0
 11
-180.0
 21
0.0
 31
0.0
  0
LINE
  5
BC8
330
B9E
100
AcDbEntity
  8
3
100
AcDbLine
 10
-135.0
 20
0.0
 30
0.0
 11
-135.0
 21
65.0
 31
0.0
  0
TEXT
  5
BC9
330
B9E
100
AcDbEntity
  8
1
100
AcDbText
 10
-179.0
 20
9.75
 30
0.0
 40
1.5
  1
Des.
 41
0.8
  7
SANINDUSA
 11
-179.0
 21
10.5
 31
0.0
100
AcDbText
 73
     2
  0
LINE
  5
BCA
330
B9E
100
AcDbEntity
  8
1
100
AcDbLine
 10
-168.9210461879161
 20
20.0
 30
0.0
 11
-168.9210461879161
 21
0.0
 31
0.0
  0
LINE
  5
BCB
330
B9E
100
AcDbEntity
  8
1
100
AcDbLine
 10
-154.0988595589306
 20
20.0
 30
0.0
 11
-154.0988595589306
 21
0.0
 31
0.0
  0
LINE
  5
BCC
330
B9E
100
AcDbEntity
  8
1
100
AcDbLine
 10
-180.0
 20
4.0
 30
0.0
 11
-135.0
 21
4.0
 31
0.0
  0
LINE
  5
BCD
330
B9E
100
AcDbEntity
  8
1
100
AcDbLine
 10
-180.0
 20
8.0
 30
0.0
 11
-135.0
 21
8.0
 31
0.0
  0
TEXT
  5
BCE
330
B9E
100
AcDbEntity
  8
1
100
AcDbText
 10
-179.0
 20
1.73257823687436
 30
0.0
 40
1.5
  1
Aprov.
 41
0.8
  7
SANINDUSA
 11
-179.0
 21
2.48257823687436
 31
0.0
100
AcDbText
 73
     2
  0
TEXT
  5
BCF
330
B9E
100
AcDbEntity
  8
1
100
AcDbText
 10
-179.0
 20
5.75
 30
0.0
 40
1.5
  1
Ver.
 41
0.8
  7
SANINDUSA
 11
-179.0
 21
6.5
 31
0.0
100
AcDbText
 73
     2
  0
LINE
  5
BD0
330
B9E
100
AcDbEntity
  8
1
100
AcDbLine
 10
-180.0
 20
16.0
 30
0.0
 11
-135.0
 21
16.0
 31
0.0
  0
LINE
  5
BD1
330
B9E
100
AcDbEntity
  8
1
100
AcDbLine
 10
-180.0
 20
12.0
 30
0.0
 11
-135.0
 21
12.0
 31
0.0
  0
TEXT
  5
BD2
330
B9E
100
AcDbEntity
  8
1
100
AcDbText
 10
-179.0
 20
13.75
 30
0.0
 40
1.5
  1
Proj.
 41
0.8
  7
SANINDUSA
 11
-179.0
 21
14.5
 31
0.0
100
AcDbText
 73
     2
  0
TEXT
  5
BD3
330
B9E
100
AcDbEntity
  8
1
100
AcDbText
 10
-167.9210461879161
 20
17.75
 30
0.0
 40
1.5
  1
Data
 41
0.8
  7
SANINDUSA
 11
-167.9210461879161
 21
18.5
 31
0.0
100
AcDbText
 73
     2
  0
TEXT
  5
BD4
330
B9E
100
AcDbEntity
  8
1
100
AcDbText
 10
-153.0988595589306
 20
17.75
 30
0.0
 40
1.5
  1
Nome
 41
0.8
  7
SANINDUSA
 11
-153.0988595589306
 21
18.5
 31
0.0
100
AcDbText
 73
     2
  0
LINE
  5
BD5
330
B9E
100
AcDbEntity
  8
leg fin
100
AcDbLine
 10
-130.0
 20
20.0
 30
0.0
 11
-130.0
 21
28.5
 31
0.0
  0
TEXT
  5
BD6
330
B9E
100
AcDbEntity
  8
1
100
AcDbText
 10
-134.0
 20
17.25
 30
0.0
 40
2.0
  1
Material:
 41
0.8
  7
SANINDUSA
 11
-134.0
 21
18.25
 31
0.0
100
AcDbText
 73
     2
  0
TEXT
  5
BD7
330
B9E
100
AcDbEntity
  8
1
100
AcDbText
 10
-129.0
 20
26.43288406845113
 30
0.0
 40
1.5
  1
Ano:
 41
0.8
  7
SANINDUSA
 11
-129.0
 21
27.18288406845113
 31
0.0
100
AcDbText
 73
     2
  0
LINE
  5
BD8
330
B9E
100
AcDbEntity
  8
1
100
AcDbLine
 10
-180.0
 20
55.5
 30
0.0
 11
-135.0
 21
55.5
 31
0.0
  0
TEXT
  5
BD9
330
B9E
100
AcDbEntity
  8
1
100
AcDbText
 10
-179.0
 20
52.67772246885193
 30
0.0
 40
1.5
  1
descrição
 41
0.8
  7
SANINDUSA
 11
-179.0
 21
53.42772246885193
 31
0.0
100
AcDbText
 73
     2
  0
TEXT
  5
BDA
330
B9E
100
AcDbEntity
  8
1
100
AcDbText
 10
-134.0
 20
47.25
 30
0.0
 40
2.0
  1
Peça:
 41
0.8
  7
SANINDUSA
 11
-134.0
 21
48.25
 31
0.0
100
AcDbText
 73
     2
  0
LINE
  5
BDB
330
B9E
100
AcDbEntity
  8
1
100
AcDbLine
 10
-180.0
 20
59.5
 30
0.0
 11
-135.0
 21
59.5
 31
0.0
  0
TEXT
  5
BDC
330
B9E
100
AcDbEntity
  8
1
100
AcDbText
 10
-173.5810776056337
 20
62.75
 30
0.0
 40
1.5
  1
Alt.
 41
0.8
  7
SANINDUSA
 11
-173.5810776056337
 21
63.5
 31
0.0
100
AcDbText
 73
     2
  0
TEXT
  5
BDD
330
B9E
100
AcDbEntity
  8
1
100
AcDbText
 10
-179.0
 20
62.75
 30
0.0
 40
1.5
  1
Rev.
 41
0.8
  7
SANINDUSA
 11
-179.0
 21
63.5
 31
0.0
100
AcDbText
 73
     2
  0
TEXT
  5
BDE
330
B9E
100
AcDbEntity
  8
1
100
AcDbText
 10
-167.9210461879161
 20
62.75
 30
0.0
 40
1.5
  1
Data
 41
0.8
  7
SANINDUSA
 11
-167.9210461879161
 21
63.5
 31
0.0
100
AcDbText
 73
     2
  0
TEXT
  5
BDF
330
B9E
100
AcDbEntity
  8
1
100
AcDbText
 10
-153.0988595589306
 20
62.75
 30
0.0
 40
1.5
  1
Nome
 41
0.8
  7
SANINDUSA
 11
-153.0988595589306
 21
63.5
 31
0.0
100
AcDbText
 73
     2
  0
TEXT
  5
BE0
330
B9E
100
AcDbEntity
  8
1
100
AcDbText
 10
-134.0
 20
62.25
 30
0.0
 40
2.0
  1
Produto:
 41
0.8
  7
SANINDUSA
 11
-134.0
 21
63.25
 31
0.0
100
AcDbText
 73
     2
  0
LINE
  5
BE1
330
B9E
100
AcDbEntity
  8
3
100
AcDbLine
 10
-40.0
 20
4.0
 30
0.0
 11
-40.0
 21
65.0
 31
0.0
  0
LWPOLYLINE
  5
BE2
102
{ACAD_REACTORS
330
BEC
102
}
330
B9E
100
AcDbEntity
  8
9
100
AcDbPolyline
 90
       12
 70
     1
 43
0.0
 10
-3.038714600644652
 20
58.90010174665076
 10
-5.726962862472191
 20
58.90010174665076
 10
-5.726962862472191
 20
58.5001017466509
 10
-3.038748516195028
 20
58.5001017466509
 42
-0.4142135623731731
 10
-2.638748516194482
 20
58.1001017466508
 10
-2.638748516194482
 20
57.42799728675596
 10
-5.21497371544865
 20
57.42799728675596
 42
0.4142135623731289
 10
-6.014973715448377
 20
56.627997286756
 10
-6.014973715448377
 20
55.92380871629643
 42
0.4142135623731132
 10
-5.21497371544865
 20
55.12380871629648
 10
-2.23871460064447
 20
55.12380871629648
 10
-2.23871460064447
 20
58.10010174665103
 42
0.4142135623730717
  0
LWPOLYLINE
  5
BE3
102
{ACAD_REACTORS
330
BEC
102
}
330
B9E
100
AcDbEntity
  8
9
100
AcDbPolyline
 90
       20
 70
     1
 43
0.0
 10
-10.01531287095122
 20
57.82799728675581
 10
-10.01531287095122
 20
58.10010174665103
 42
-0.4142135623730744
 10
-9.615312870951584
 20
58.5001017466509
 10
-6.92703069357276
 20
58.5001017466509
 10
-6.92703069357276
 20
58.90010174665076
 10
-9.615346786501959
 20
58.90010174665076
 42
0.4142135623730883
 10
-10.41534678650168
 20
58.1001017466508
 10
-10.41534678650168
 20
57.82796337120567
 42
0.4142135623730717
 10
-9.615346786501959
 20
57.02796337120571
 10
-7.423079531965413
 20
57.02796337120571
 42
-0.4142135623730847
 10
-7.023079531965322
 20
56.62796337120562
 10
-7.023079531965322
 20
55.90786840766487
 42
-0.4142135623730744
 10
-7.423079531965413
 20
55.507868407665
 10
-10.41534678650168
 20
55.507868407665
 10
-10.41534678650168
 20
55.12380871629648
 10
-7.445787917283723
 20
55.12380871629648
 42
0.4114777732064574
 10
-6.645822882998345
 20
55.9163291493976
 10
-6.639238813324936
 20
56.62051771985716
 42
0.4169546541682913
 10
-7.439203847610315
 20
57.42799728675596
 10
-9.615312870951584
 20
57.42799728675596
 42
-0.4142135623731576
  0
LWPOLYLINE
  5
BE4
102
{ACAD_REACTORS
330
BEC
102
}
330
B9E
100
AcDbEntity
  8
9
100
AcDbPolyline
 90
       12
 70
     1
 43
0.0
 10
-14.41561811090378
 20
58.90010174665076
 10
-14.79964388672215
 20
58.90010174665076
 10
-14.79964388672215
 20
55.92380871629643
 42
0.4142135623731133
 10
-13.99964388672242
 20
55.12380871629648
 10
-11.8233508563676
 20
55.12380871629648
 42
0.4142135623730872
 10
-11.02335085636741
 20
55.92380871629643
 10
-11.02335085636741
 20
58.90010174665076
 10
-11.42338477191788
 20
58.90010174665076
 10
-11.42338477191788
 20
55.91567577726095
 42
-0.4131711701795318
 10
-11.82196067063523
 20
55.51567831234956
 10
-14.0141940096214
 20
55.50787335710947
 42
-0.4152567234624407
 10
-14.41561811090378
 20
55.90787082202087
  0
LWPOLYLINE
  5
BE5
102
{ACAD_REACTORS
330
BEC
102
}
330
B9E
100
AcDbEntity
  8
9
100
AcDbPolyline
 90
        6
 70
     1
 43
0.0
 10
-15.80771578768872
 20
55.507868407665
 10
-18.39994912667453
 20
55.507868407665
 42
-0.4142135623731731
 10
-18.79994912667462
 20
55.90786840766487
 10
-18.79994912667462
 20
58.10010174665103
 42
-0.4142135623730744
 10
-18.39994912667453
 20
58.5001017466509
 10
-15.80771578768872
 20
58.5001017466509
  0
LWPOLYLINE
  5
BE6
102
{ACAD_REACTORS
330
BEC
102
}
330
B9E
100
AcDbEntity
  8
9
100
AcDbPolyline
 90
        8
 70
     1
 43
0.0
 10
-15.4236900118708
 20
59.87619128370352
 10
-15.80771578768872
 20
59.87619128370352
 10
-15.80771578768872
 20
58.90010174665076
 10
-18.39176256411201
 20
58.90010174665076
 42
0.4131164467977967
 10
-19.19175694739761
 20
58.1030995310698
 10
-19.1999120763262
 20
55.92680650071542
 42
0.4153115297271718
 10
-18.39991769304061
 20
55.12380871629648
 10
-15.4236900118708
 20
55.12380871629648
  0
LWPOLYLINE
  5
BE7
102
{ACAD_REACTORS
330
BEC
102
}
330
B9E
100
AcDbEntity
  8
9
100
AcDbPolyline
 90
       10
 70
     1
 43
0.0
 10
-20.59201288790928
 20
58.90010174665076
 10
-23.56830591826338
 20
58.90010174665076
 10
-23.56830591826338
 20
55.12380871629648
 10
-23.18424622689509
 20
55.12380871629648
 10
-23.18424622689509
 20
58.5001017466509
 10
-20.59204680345965
 20
58.5001017466509
 42
-0.4142135623730898
 10
-20.19204680345956
 20
58.1001017466508
 10
-20.19204680345956
 20
55.12380871629648
 10
-19.79201288790909
 20
55.12380871629648
 10
-19.79201288790909
 20
58.10010174665103
 42
0.4142135623731132
  0
LWPOLYLINE
  5
BE8
102
{ACAD_REACTORS
330
BEC
102
}
330
B9E
100
AcDbEntity
  8
9
100
AcDbPolyline
 90
        4
 70
     1
 43
0.0
 10
-24.19231812786165
 20
58.90010174665076
 10
-24.57637781922995
 20
58.90010174665076
 10
-24.57637781922995
 20
55.12380871629648
 10
-24.19231812786165
 20
55.12380871629648
  0
LWPOLYLINE
  5
BE9
102
{ACAD_REACTORS
330
BEC
102
}
330
B9E
100
AcDbEntity
  8
9
100
AcDbPolyline
 90
       10
 70
     1
 43
0.0
 10
-28.57661522808212
 20
58.5001017466509
 10
-25.98444972019706
 20
58.5001017466509
 42
-0.4142135623731731
 10
-25.58444972019652
 20
58.1001017466508
 10
-25.58444972019652
 20
55.12380871629648
 10
-25.2004239443786
 20
55.12380871629648
 10
-25.2004239443786
 20
58.10010174665103
 42
0.4142135623730717
 10
-26.00042394437833
 20
58.90010174665076
 10
-28.97664914363259
 20
58.90010174665076
 10
-28.97664914363259
 20
55.12380871629648
 10
-28.57661522808212
 20
55.12380871629648
  0
LWPOLYLINE
  5
BEA
102
{ACAD_REACTORS
330
BEC
102
}
330
B9E
100
AcDbEntity
  8
9
100
AcDbPolyline
 90
       12
 70
     1
 43
0.0
 10
-29.58465321349832
 20
58.10010174665103
 42
0.4142135623730716
 10
-30.3846532134985
 20
58.90010174665076
 10
-33.07296930642724
 20
58.90010174665076
 10
-33.07296930642724
 20
58.5001017466509
 10
-30.38468712904842
 20
58.5001017466509
 42
-0.4142135623730067
 10
-29.98468712904878
 20
58.1001017466508
 10
-29.98468712904878
 20
57.42799728675618
 10
-32.56098015940324
 20
57.42799728675596
 42
0.4142135623731289
 10
-33.36098015940343
 20
56.627997286756
 10
-33.36098015940343
 20
55.92380871629643
 42
0.4142135623731132
 10
-32.56098015940324
 20
55.12380871629648
 10
-29.58465321349832
 20
55.12380871629648
  0
LWPOLYLINE
  5
BEB
102
{ACAD_REACTORS
330
BEC
102
}
330
B9E
100
AcDbEntity
  8
9
100
AcDbPolyline
 90
       20
 70
     1
 43
0.0
 10
-34.7850262845518
 20
57.42799728675596
 10
-36.96125148380543
 20
57.42799728675596
 42
-0.4142135623730898
 10
-37.36125148380552
 20
57.82799728675604
 10
-37.36125148380552
 20
58.10010174665103
 42
-0.4142135623730744
 10
-36.96125148380543
 20
58.5001017466509
 10
-34.27303713752781
 20
58.50010174665067
 10
-34.27303713752781
 20
58.90010174665076
 10
-36.96128539935535
 20
58.90010174665076
 42
0.4142135623731289
 10
-37.76128539935553
 20
58.1001017466508
 10
-37.76128539935553
 20
57.82796337120567
 42
0.4142135623730716
 10
-36.9612853993558
 20
57.02796337120571
 10
-34.76901814481926
 20
57.02796337120571
 42
-0.414213562373168
 10
-34.36901814481962
 20
56.62796337120562
 10
-34.36901814481962
 20
55.90786840766487
 42
-0.4142135623730744
 10
-34.76901814481926
 20
55.507868407665
 10
-37.76128539935553
 20
55.507868407665
 10
-37.76128539935553
 20
55.12380871629648
 10
-34.7850262845518
 20
55.12380871629648
 42
0.4142135623731289
 10
-33.98502628455162
 20
55.92380871629643
 10
-33.98502628455162
 20
56.627997286756
 42
0.4142135623731132
  0
HATCH
  5
BEC
330
B9E
100
AcDbEntity
  8
9
100
AcDbHatch
 10
0.0
 20
0.0
 30
0.0
210
0.0
220
0.0
230
1.0
  2
SOLID
 70
     1
 71
     1
 91
       13
 92
        7
 72
     1
 73
     1
 93
       20
 10
-34.36901814481962
 20
55.90786840766487
 42
-0.414213562372991
 10
-34.76901814481926
 20
55.507868407665
 42
0.0
 10
-37.76128539935553
 20
55.507868407665
 42
0.0
 10
-37.76128539935553
 20
55.12380871629648
 42
0.0
 10
-34.7850262845518
 20
55.12380871629648
 42
0.4142135623731705
 10
-33.98502628455162
 20
55.92380871629666
 42
0.0
 10
-33.98502628455162
 20
56.627997286756
 42
0.4142135623731547
 10
-34.7850262845518
 20
57.42799728675596
 42
0.0
 10
-36.96125148380543
 20
57.42799728675596
 42
-0.4142135623730898
 10
-37.36125148380552
 20
57.82799728675604
 42
0.0
 10
-37.36125148380552
 20
58.1001017466508
 42
-0.4142135623731575
 10
-36.96125148380543
 20
58.5001017466509
 42
0.0
 10
-34.27303713752781
 20
58.50010174665067
 42
0.0
 10
-34.27303713752781
 20
58.90010174665076
 42
0.0
 10
-36.96128539935535
 20
58.90010174665076
 42
0.4142135623731705
 10
-37.76128539935553
 20
58.10010174665058
 42
0.0
 10
-37.76128539935553
 20
57.82796337120544
 42
0.4142135623730299
 10
-36.9612853993558
 20
57.02796337120571
 42
0.0
 10
-34.76901814481926
 20
57.02796337120571
 42
-0.4142135623730015
 10
-34.36901814481962
 20
56.62796337120608
 42
0.0
 97
        1
330
BEB
 92
        7
 72
     1
 73
     1
 93
       12
 10
-33.36098015940343
 20
55.92380871629666
 42
0.4142135623731547
 10
-32.56098015940324
 20
55.12380871629648
 42
0.0
 10
-29.58465321349877
 20
55.12380871629648
 42
0.0
 10
-29.58465321349832
 20
58.10010174665058
 42
0.4142135623731964
 10
-30.3846532134985
 20
58.90010174665076
 42
0.0
 10
-33.07296930642724
 20
58.90010174665076
 42
0.0
 10
-33.07296930642724
 20
58.50010174665067
 42
0.0
 10
-30.38468712904887
 20
58.5001017466509
 42
-0.4142135623732564
 10
-29.98468712904878
 20
58.10010174665103
 42
0.0
 10
-29.98468712904923
 20
57.42799728675596
 42
0.0
 10
-32.56098015940324
 20
57.42799728675596
 42
0.4142135623731705
 10
-33.36098015940343
 20
56.627997286756
 42
0.0
 97
        1
330
BEA
 92
       22
 72
     1
 73
     1
 93
        6
 10
-32.97692046803468
 20
56.62796337120562
 42
-0.4142135623731576
 10
-32.57692046803459
 20
57.02796337120571
 42
0.0
 10
-29.98468712904878
 20
57.02796337120571
 42
0.0
 10
-29.98468712904878
 20
55.507868407665
 42
0.0
 10
-32.57692046803459
 20
55.507868407665
 42
-0.4142135623731731
 10
-32.97692046803468
 20
55.90786840766487
 42
0.0
 97
        1
330
C11
 92
        7
 72
     1
 73
     1
 93
       10
 10
-28.57661522808212
 20
58.5001017466509
 42
0.0
 10
-25.98444972019661
 20
58.5001017466509
 42
-0.4142135623730067
 10
-25.58444972019652
 20
58.10010174665058
 42
0.0
 10
-25.58444972019606
 20
55.12380871629648
 42
0.0
 10
-25.20042394437906
 20
55.12380871629648
 42
0.0
 10
-25.2004239443786
 20
58.1001017466508
 42
0.4142135623731134
 10
-26.00042394437833
 20
58.90010174665076
 42
0.0
 10
-28.97664914363259
 20
58.90010174665076
 42
0.0
 10
-28.97664914363259
 20
55.12380871629648
 42
0.0
 10
-28.57661522808212
 20
55.12380871629648
 42
0.0
 97
        1
330
BE9
 92
        7
 72
     0
 73
     1
 93
        4
 10
-24.57637781922995
 20
55.12380871629648
 10
-24.19231812786165
 20
55.12380871629648
 10
-24.19231812786165
 20
58.90010174665076
 10
-24.57637781922995
 20
58.90010174665076
 97
        1
330
BE8
 92
        7
 72
     0
 73
     1
 93
        4
 10
-24.19231812786165
 20
59.87619128370352
 10
-24.5763778192304
 20
59.87619128370352
 10
-24.5763778192304
 20
59.28412752246913
 10
-24.1923181278612
 20
59.28412752246913
 97
        1
330
C12
 92
        7
 72
     1
 73
     1
 93
       10
 10
-23.18424622689509
 20
58.5001017466509
 42
0.0
 10
-20.59204680345965
 20
58.5001017466509
 42
-0.4142135623730898
 10
-20.19204680345956
 20
58.1001017466508
 42
0.0
 10
-20.19204680345956
 20
55.12380871629648
 42
0.0
 10
-19.79201288790909
 20
55.12380871629648
 42
0.0
 10
-19.79201288790909
 20
58.1001017466508
 42
0.4142135623731547
 10
-20.59201288790928
 20
58.90010174665076
 42
0.0
 10
-23.56830591826338
 20
58.90010174665076
 42
0.0
 10
-23.56830591826338
 20
55.12380871629648
 42
0.0
 10
-23.18424622689463
 20
55.12380871629648
 42
0.0
 97
        1
330
BE7
 92
        7
 72
     1
 73
     1
 93
        8
 10
-19.1999120763262
 20
55.92680650071542
 42
0.4153115297271299
 10
-18.39991769304061
 20
55.12380871629648
 42
0.0
 10
-15.4236900118708
 20
55.12380871629648
 42
0.0
 10
-15.4236900118708
 20
59.87619128370352
 42
0.0
 10
-15.80771578768872
 20
59.87619128370352
 42
0.0
 10
-15.80771578768872
 20
58.90010174665076
 42
0.0
 10
-18.39176256411201
 20
58.90010174665076
 42
0.4131164467977965
 10
-19.19175694739761
 20
58.1030995310698
 42
0.0
 97
        1
330
BE6
 92
       22
 72
     1
 73
     1
 93
        6
 10
-18.79994912667462
 20
58.1001017466508
 42
-0.4142135623731575
 10
-18.39994912667453
 20
58.5001017466509
 42
0.0
 10
-15.80771578768872
 20
58.50010174665067
 42
0.0
 10
-15.80771578768827
 20
55.507868407665
 42
0.0
 10
-18.39994912667453
 20
55.507868407665
 42
-0.4142135623731731
 10
-18.79994912667462
 20
55.90786840766487
 42
0.0
 97
        1
330
BE5
 92
        7
 72
     1
 73
     1
 93
       12
 10
-14.79964388672215
 20
55.92380871629621
 42
0.4142135623729885
 10
-13.99964388672242
 20
55.12380871629648
 42
0.0
 10
-11.8233508563676
 20
55.12380871629648
 42
0.4142135623731289
 10
-11.02335085636741
 20
55.92380871629666
 42
0.0
 10
-11.02335085636741
 20
58.90010174665076
 42
0.0
 10
-11.42338477191788
 20
58.90010174665076
 42
0.0
 10
-11.42338477191788
 20
55.91567577726095
 42
-0.4131711701795319
 10
-11.82196067063523
 20
55.51567831234956
 42
0.0
 10
-14.01419400962095
 20
55.50787335710947
 42
-0.4152567234626918
 10
-14.41561811090378
 20
55.90787082202087
 42
0.0
 10
-14.41561811090378
 20
58.90010174665076
 42
0.0
 10
-14.7996438867226
 20
58.90010174665076
 42
0.0
 97
        1
330
BE4
 92
        7
 72
     1
 73
     1
 93
       20
 10
-7.423079531965413
 20
57.02796337120571
 42
-0.414213562373168
 10
-7.023079531965322
 20
56.62796337120562
 42
0.0
 10
-7.023079531965322
 20
55.90786840766487
 42
-0.4142135623731575
 10
-7.423079531965413
 20
55.507868407665
 42
0.0
 10
-10.41534678650168
 20
55.507868407665
 42
0.0
 10
-10.41534678650168
 20
55.12380871629648
 42
0.0
 10
-7.445787917283723
 20
55.12380871629648
 42
0.4114777732065809
 10
-6.645822882998345
 20
55.91632914939783
 42
0.0
 10
-6.639238813324936
 20
56.62051771985716
 42
0.4169546541682913
 10
-7.439203847610315
 20
57.42799728675596
 42
0.0
 10
-9.615312870951584
 20
57.42799728675596
 42
-0.4142135623729911
 10
-10.01531287095122
 20
57.82799728675581
 42
0.0
 10
-10.01531287095122
 20
58.10010174665103
 42
-0.414213562372991
 10
-9.615312870951584
 20
58.5001017466509
 42
0.0
 10
-6.92703069357276
 20
58.50010174665067
 42
0.0
 10
-6.927030693572305
 20
58.90010174665076
 42
0.0
 10
-9.615346786501959
 20
58.90010174665076
 42
0.4142135623730467
 10
-10.41534678650168
 20
58.10010174665103
 42
0.0
 10
-10.41534678650168
 20
57.82796337120544
 42
0.4142135623730301
 10
-9.615346786501959
 20
57.02796337120571
 42
0.0
 97
        1
330
BE3
 92
        7
 72
     1
 73
     1
 93
       12
 10
-5.21497371544865
 20
57.42799728675596
 42
0.4142135623730871
 10
-6.014973715448377
 20
56.627997286756
 42
0.0
 10
-6.014973715448377
 20
55.92380871629621
 42
0.4142135623730715
 10
-5.21497371544865
 20
55.12380871629648
 42
0.0
 10
-2.23871460064447
 20
55.12380871629648
 42
0.0
 10
-2.23871460064447
 20
58.10010174665058
 42
0.414213562373155
 10
-3.038714600644652
 20
58.90010174665076
 42
0.0
 10
-5.726962862471737
 20
58.90010174665076
 42
0.0
 10
-5.726962862472191
 20
58.5001017466509
 42
0.0
 10
-3.038748516194573
 20
58.5001017466509
 42
-0.4142135623730067
 10
-2.638748516194482
 20
58.10010174665058
 42
0.0
 10
-2.638748516194482
 20
57.42799728675596
 42
0.0
 97
        1
330
BE2
 92
       22
 72
     1
 73
     1
 93
        6
 10
-2.638748516194937
 20
57.02796337120571
 42
0.0
 10
-2.638748516194482
 20
55.50786840766477
 42
0.0
 10
-5.21497371544865
 20
55.507868407665
 42
-0.4142135623731731
 10
-5.614973715448741
 20
55.90786840766509
 42
0.0
 10
-5.614973715448741
 20
56.62796337120562
 42
-0.4142135623731576
 10
-5.21497371544865
 20
57.02796337120571
 42
0.0
 97
        1
330
C0D
 75
     0
 76
     1
 47
0.0407044778999864
 98
       13
 10
-34.18710075113677
 20
56.16907953933765
 10
-33.12851374392494
 20
56.49471602641233
 10
-33.12851374392494
 20
56.49471602641233
 10
-28.77202873835904
 20
57.51232930166111
 10
-24.41554807250941
 20
57.91937341678636
 10
-24.41554807250941
 20
59.384734621186
 10
-23.31624584658039
 20
58.3264175319116
 10
-19.04119127844888
 20
57.75655517324913
 10
-19.04119127844888
 20
57.75655517324913
 10
-14.64399105416578
 20
57.43091868617466
 10
-8.048195057457178
 20
57.22739662861204
 10
-4.017427461911665
 20
57.18669281458665
 10
-4.017427461911665
 20
57.18669281458665
  0
TEXT
  5
BED
330
B9E
100
AcDbEntity
  8
leg fin
100
AcDbText
 10
3.391127401597259
 20
2.107634911895729
 30
0.0
 40
1.5
  1
Este desenho é propriedade da Sanindusa, S.A., e não pode ser copiado nem divulgado sem nossa autorização.
 50
90.0
 41
0.8
  7
SANINDUSA
100
AcDbText
  0
LINE
  5
BEE
330
B9E
100
AcDbEntity
  8
3
100
AcDbLine
 10
-90.0
 20
4.0
 30
0.0
 11
-90.0
 21
12.0
 31
0.0
  0
TEXT
  5
BEF
330
B9E
100
AcDbEntity
  8
1
100
AcDbText
 10
-39.0
 20
9.25
 30
0.0
 40
2.0
  1
Substituido por:
 41
0.8
  7
SANINDUSA
 11
-39.0
 21
10.25
 31
0.0
100
AcDbText
 73
     2
  0
POINT
  5
BF0
330
B9E
100
AcDbEntity
  8
SANINDUSA
100
AcDbPoint
 10
0.0
 20
0.0
 30
0.0
  0
TEXT
  5
BF1
330
B9E
100
AcDbEntity
  8
1
100
AcDbText
 10
-89.0
 20
16.74927010445663
 30
0.0
 40
2.0
  1
Normas:
 41
0.8
  7
SANINDUSA
 11
-89.0
 21
17.74927010445663
 31
0.0
100
AcDbText
 73
     2
  0
LINE
  5
BF2
330
B9E
100
AcDbEntity
  8
3
100
AcDbLine
 10
-90.0
 20
12.0
 30
0.0
 11
-90.0
 21
20.0
 31
0.0
  0
LINE
  5
BF3
330
B9E
100
AcDbEntity
  8
3
100
AcDbLine
 10
-110.546019464768
 20
12.0
 30
0.0
 11
-110.546019464768
 21
20.0
 31
0.0
  0
TEXT
  5
BF4
330
B9E
100
AcDbEntity
  8
1
100
AcDbText
 10
-109.6177520618648
 20
17.25
 30
0.0
 40
2.0
  1
Cor:
 41
0.8
  7
SANINDUSA
 11
-109.6177520618648
 21
18.25
 31
0.0
100
AcDbText
 73
     2
  0
LINE
  5
BF5
330
B9E
100
AcDbEntity
  8
leg fin
100
AcDbLine
 10
-91.42857142857156
 20
20.0
 30
0.0
 11
-91.42857142857156
 21
28.5
 31
0.0
  0
LINE
  5
BF6
330
B9E
100
AcDbEntity
  8
leg fin
100
AcDbLine
 10
-104.2857142857142
 20
20.0
 30
0.0
 11
-104.2857142857142
 21
28.5
 31
0.0
  0
LINE
  5
BF7
330
B9E
100
AcDbEntity
  8
leg fin
100
AcDbLine
 10
-117.1428571428573
 20
20.0
 30
0.0
 11
-117.1428571428573
 21
28.5
 31
0.0
  0
POINT
  5
BF8
330
B9E
100
AcDbEntity
  8
SANINDUSA
100
AcDbPoint
 10
-117.1428571428573
 20
28.5
 30
0.0
  0
POINT
  5
BF9
330
B9E
100
AcDbEntity
  8
SANINDUSA
100
AcDbPoint
 10
-104.2857142857142
 20
28.5
 30
0.0
  0
POINT
  5
BFA
330
B9E
100
AcDbEntity
  8
SANINDUSA
100
AcDbPoint
 10
-91.42857142857156
 20
28.5
 30
0.0
  0
TEXT
  5
BFB
330
B9E
100
AcDbEntity
  8
1
100
AcDbText
 10
-116.200160604496
 20
26.43288406845113
 30
0.0
 40
1.5
  1
Nº Seq.:
 41
0.8
  7
SANINDUSA
 11
-116.200160604496
 21
27.18288406845113
 31
0.0
100
AcDbText
 73
     2
  0
TEXT
  5
BFC
330
B9E
100
AcDbEntity
  8
1
100
AcDbText
 10
-103.2106584078738
 20
26.43288406845113
 30
0.0
 40
1.5
  1
Tipo:
 41
0.8
  7
SANINDUSA
 11
-103.2106584078738
 21
27.18288406845113
 31
0.0
100
AcDbText
 73
     2
  0
TEXT
  5
BFD
330
B9E
100
AcDbEntity
  8
1
100
AcDbText
 10
-90.22114672289353
 20
26.43288406845113
 30
0.0
 40
1.5
  1
Prod.:
 41
0.8
  7
SANINDUSA
 11
-90.22114672289353
 21
27.18288406845113
 31
0.0
100
AcDbText
 73
     2
  0
TEXT
  5
BFE
330
B9E
100
AcDbEntity
  8
1
100
AcDbText
 10
-64.77320576346574
 20
26.43288406845113
 30
0.0
 40
1.5
  1
Rev.:
 41
0.8
  7
SANINDUSA
 11
-64.77320576346574
 21
27.18288406845113
 31
0.0
100
AcDbText
 73
     2
  0
LINE
  5
BFF
330
B9E
100
AcDbEntity
  8
leg fin
100
AcDbLine
 10
-52.85714285714266
 20
20.0
 30
0.0
 11
-52.85714285714266
 21
28.5
 31
0.0
  0
LINE
  5
C00
330
B9E
100
AcDbEntity
  8
leg fin
100
AcDbLine
 10
-65.71428571428578
 20
20.0
 30
0.0
 11
-65.71428571428578
 21
28.5
 31
0.0
  0
LINE
  5
C01
330
B9E
100
AcDbEntity
  8
leg fin
100
AcDbLine
 10
-78.57142857142844
 20
20.0
 30
0.0
 11
-78.57142857142844
 21
28.5
 31
0.0
  0
POINT
  5
C02
330
B9E
100
AcDbEntity
  8
SANINDUSA
100
AcDbPoint
 10
-78.57142857142844
 20
28.5
 30
0.0
  0
POINT
  5
C03
330
B9E
100
AcDbEntity
  8
SANINDUSA
100
AcDbPoint
 10
-65.71428571428578
 20
28.5
 30
0.0
  0
POINT
  5
C04
330
B9E
100
AcDbEntity
  8
SANINDUSA
100
AcDbPoint
 10
-52.85714285714266
 20
28.5
 30
0.0
  0
TEXT
  5
C05
330
B9E
100
AcDbEntity
  8
1
100
AcDbText
 10
-77.61097961686573
 20
26.43288406845113
 30
0.0
 40
1.5
  1
Peça:
 41
0.8
  7
SANINDUSA
 11
-77.61097961686573
 21
27.18288406845113
 31
0.0
100
AcDbText
 73
     2
  0
TEXT
  5
C06
330
B9E
100
AcDbEntity
  8
1
100
AcDbText
 10
-52.06538060077036
 20
26.43288406845113
 30
0.0
 40
1.5
  1
Alt.:
 41
0.8
  7
SANINDUSA
 11
-52.06538060077036
 21
27.18288406845113
 31
0.0
100
AcDbText
 73
     2
  0
LINE
  5
C07
330
B9E
100
AcDbEntity
  8
3
100
AcDbLine
 10
0.0
 20
12.0
 30
0.0
 11
-40.0
 21
12.0
 31
0.0
  0
LINE
  5
C08
330
B9E
100
AcDbEntity
  8
3
100
AcDbLine
 10
-40.0
 20
32.5
 30
0.0
 11
0.0
 21
32.5
 31
0.0
  0
TEXT
  5
C09
330
B9E
100
AcDbEntity
  8
1
100
AcDbText
 10
-19.0
 20
29.75
 30
0.0
 40
2.0
  1
Folha:
 41
0.8
  7
SANINDUSA
 11
-19.0
 21
30.75
 31
0.0
100
AcDbText
 73
     2
  0
LINE
  5
C0A
330
B9E
100
AcDbEntity
  8
3
100
AcDbLine
 10
-20.0
 20
32.5
 30
0.0
 11
-20.0
 21
20.0
 31
0.0
  0
TEXT
  5
C0B
330
B9E
100
AcDbEntity
  8
1
100
AcDbText
 10
-39.0
 20
29.75
 30
0.0
 40
2.0
  1
Escala:
 41
0.8
  7
SANINDUSA
 11
-39.0
 21
30.75
 31
0.0
100
AcDbText
 73
     2
  0
TEXT
  5
C0C
330
B9E
100
AcDbEntity
  8
1
100
AcDbText
 10
-39.0
 20
17.25
 30
0.0
 40
2.0
  1
Substitui:
 41
0.8
  7
SANINDUSA
 11
-39.0
 21
18.25
 31
0.0
100
AcDbText
 73
     2
  0
LWPOLYLINE
  5
C0D
102
{ACAD_REACTORS
330
BEC
102
}
330
B9E
100
AcDbEntity
  8
9
100
AcDbPolyline
 90
        6
 70
     1
 43
0.0
 10
-2.638748516194482
 20
57.02796337120571
 10
-2.638748516194482
 20
55.50786840766477
 10
-5.21497371544865
 20
55.507868407665
 42
-0.4142135623730898
 10
-5.614973715448741
 20
55.90786840766487
 10
-5.614973715448741
 20
56.62796337120562
 42
-0.4142135623731576
 10
-5.21497371544865
 20
57.02796337120571
  0
LINE
  5
C0E
330
B9E
100
AcDbEntity
  8
3
100
AcDbLine
 10
-40.0
 20
50.0
 30
0.0
 11
0.0
 21
50.0
 31
0.0
  0
ATTDEF
  5
C0F
330
B9E
100
AcDbEntity
  8
1
100
AcDbText
 10
-31.30691739422431
 20
40.25
 30
0.0
 40
2.0
  1
XXXXXXXXXXXXXXX
 41
0.8
  7
SANINDUSA
 72
     4
 11
-20.0
 21
41.25
 31
0.0
100
AcDbAttributeDefinition
  3
Observações:
  2
OBS
 70
     0
  0
TEXT
  5
C10
330
B9E
100
AcDbEntity
  8
1
100
AcDbText
 10
-39.0
 20
47.25
 30
0.0
 40
2.0
  1
Observações:
 41
0.8
  7
SANINDUSA
 11
-39.0
 21
48.25
 31
0.0
100
AcDbText
 73
     2
  0
LWPOLYLINE
  5
C11
102
{ACAD_REACTORS
330
BEC
102
}
330
B9E
100
AcDbEntity
  8
9
100
AcDbPolyline
 90
        6
 70
     1
 43
0.0
 10
-29.98468712904878
 20
57.02796337120571
 10
-29.98468712904878
 20
55.507868407665
 10
-32.57692046803459
 20
55.507868407665
 42
-0.4142135623731731
 10
-32.97692046803468
 20
55.90786840766487
 10
-32.97692046803468
 20
56.62796337120562
 42
-0.4142135623731576
 10
-32.57692046803459
 20
57.02796337120571
  0
LWPOLYLINE
  5
C12
102
{ACAD_REACTORS
330
BEC
102
}
330
B9E
100
AcDbEntity
  8
9
100
AcDbPolyline
 90
        4
 70
     1
 43
0.0
 10
-24.19231812786165
 20
59.87619128370352
 10
-24.57637781922995
 20
59.87619128370352
 10
-24.57637781922995
 20
59.28412752246913
 10
-24.19231812786165
 20
59.28412752246913
  0
ENDBLK
  5
C14
330
B9E
100
AcDbEntity
  8
0
100
AcDbBlockEnd
  0
ENDSEC
  0
SECTION
  2
ENTITIES
  0
SPLINE
  5
1683
330
1F
100
AcDbEntity
  8
SANINDUSA
100
AcDbSpline
210
0.0
220
0.0
230
1.0
 70
    24
 71
     1
 72
     4
 73
     2
 74
     0
 42
0.0000000001
 43
0.0000000001
 40
0.0
 40
0.0
 40
1.0
 40
1.0
 10
4851.31597128991
 20
2500.706994305287
 30
0.0
 10
4851.309758161343
 20
2500.929426829253
 30
0.0
  0
ARC
  5
1684
330
1F
100
AcDbEntity
  8
SANINDUSA
100
AcDbCircle
 10
4850.770660058319
 20
2501.091994299088
 30
0.0
 40
0.0050000000136308
100
AcDbArc
 50
90.00000229284912
 51
179.9806103123752
  0
SPLINE
  5
1685
330
1F
100
AcDbEntity
  8
SANINDUSA
100
AcDbSpline
210
0.0
220
0.0
230
1.0
 70
    24
 71
     1
 72
     4
 73
     2
 74
     0
 42
0.0000000001
 43
0.0000000001
 40
0.0
 40
0.0
 40
1.0
 40
1.0
 10
4850.765660057923
 20
2501.091994299475
 30
0.0
 10
4850.765660057923
 20
2501.089994299147
 30
0.0
  0
ARC
  5
1686
330
1F
100
AcDbEntity
  8
SANINDUSA
100
AcDbCircle
 10
4850.770660058319
 20
2501.089994299088
 30
0.0
 40
0.0050000000136308
100
AcDbArc
 50
179.9806103123752
 51
269.9999977071509
  0
SPLINE
  5
1687
330
1F
100
AcDbEntity
  8
SANINDUSA
100
AcDbSpline
210
0.0
220
0.0
230
1.0
 70
    24
 71
     1
 72
     4
 73
     2
 74
     0
 42
0.0000000001
 43
0.0000000001
 40
0.0
 40
0.0
 40
1.0
 40
1.0
 10
4850.868503769077
 20
2500.765349577103
 30
0.0
 10
4850.867093791402
 20
2500.706994305287
 30
0.0
  0
SPLINE
  5
1688
330
1F
100
AcDbEntity
  8
SANINDUSA
100
AcDbSpline
210
0.0
220
0.0
230
1.0
 70
     8
 71
     3
 72
    20
 73
    16
 74
     0
 42
0.0000000001
 43
0.0000000001
 40
0.0
 40
0.0
 40
0.0
 40
0.0
 40
0.0192012210453351
 40
0.1582147947828862
 40
0.2286716350522081
 40
0.2996469448975527
 40
0.3708283627492174
 40
0.4412030215607291
 40
0.5097645346514784
 40
0.5762029046618761
 40
0.6412650728955704
 40
0.705554668129871
 40
0.832963384059948
 40
0.9604881265521566
 40
1.0
 40
1.0
 40
1.0
 40
1.0
 10
4850.776081627383
 20
2501.080862977464
 30
0.0
 10
4850.776102236963
 20
2501.080633767253
 30
0.0
 10
4850.776272056393
 20
2501.078745114112
 30
0.0
 10
4850.777295316987
 20
2501.076108230249
 30
0.0
 10
4850.778830764411
 20
2501.073042911859
 30
0.0
 10
4850.780302574832
 20
2501.070844604502
 30
0.0
 10
4850.782016615664
 20
2501.068823106197
 30
0.0
 10
4850.783929030018
 20
2501.067039548331
 30
0.0
 10
4850.785960435794
 20
2501.065536387434
 30
0.0
 10
4850.788023499092
 20
2501.064336087346
 30
0.0
 10
4850.790004842988
 20
2501.063446614766
 30
0.0
 10
4850.79248314352
 20
2501.062616832857
 30
0.0
 10
4850.795273614378
 20
2501.062111321458
 30
0.0
 10
4850.797542557298
 20
2501.061995371166
 30
0.0
 10
4850.798740776326
 20
2501.061998630862
 30
0.0
 10
4850.799024210459
 20
2501.061999401931
 30
0.0
  0
SPLINE
  5
1689
330
1F
100
AcDbEntity
  8
SANINDUSA
100
AcDbSpline
210
0.0
220
0.0
230
1.0
 70
     8
 71
     3
 72
    15
 73
    11
 74
     0
 42
0.0000000001
 43
0.0000000001
 40
0.0
 40
0.0
 40
0.0
 40
0.0
 40
0.0110117677616785
 40
0.133206989989204
 40
0.2540932638609962
 40
0.388800529539089
 40
0.5366787045748548
 40
0.6951036248178732
 40
0.876119427212086
 40
1.0
 40
1.0
 40
1.0
 40
1.0
 10
4850.89338138435
 20
2500.786896209155
 30
0.0
 10
4850.89338012379
 20
2500.786863153095
 30
0.0
 10
4850.893364875075
 20
2500.786463281054
 30
0.0
 10
4850.893191392302
 20
2500.785704946292
 30
0.0
 10
4850.892644462532
 20
2500.784699009994
 30
0.0
 10
4850.891829874617
 20
2500.783787873399
 30
0.0
 10
4850.890752326117
 20
2500.783000617801
 30
0.0
 10
4850.889415492598
 20
2500.782385714892
 30
0.0
 10
4850.888051827635
 20
2500.782045839032
 30
0.0
 10
4850.887135365786
 20
2500.78200918574
 30
0.0
 10
4850.886763003803
 20
2500.781994293366
 30
0.0
  0
SPLINE
  5
168A
330
1F
100
AcDbEntity
  8
SANINDUSA
100
AcDbSpline
210
0.0
220
0.0
230
1.0
 70
    24
 71
     1
 72
     4
 73
     2
 74
     0
 42
0.0000000001
 43
0.0000000001
 40
0.0
 40
0.0
 40
1.0
 40
1.0
 10
4850.898696270919
 20
2500.971403102312
 30
0.0
 10
4850.89338138435
 20
2500.786896209155
 30
0.0
  0
ARC
  5
168B
330
1F
100
AcDbEntity
  8
SANINDUSA
100
AcDbCircle
 10
4850.896039345372
 20
2500.977693693938
 30
0.0
 40
0.0050000019011323
100
AcDbArc
 50
319.4405911519423
 51
46.6036821242929
  0
ARC
  5
168C
330
1F
100
AcDbEntity
  8
SANINDUSA
100
AcDbCircle
 10
4850.903694196192
 20
2500.971259157698
 30
0.0
 40
0.0050000000000464
100
AcDbArc
 50
140.1651274526031
 51
178.3657033434741
  0
ARC
  5
168F
330
1F
100
AcDbEntity
  8
SANINDUSA
100
AcDbCircle
 10
4851.374338762834
 20
2501.091994299088
 30
0.0
 40
0.0050000000000002
100
AcDbArc
 50
343.7038839043232
 51
90.0
  0
SPLINE
  5
1690
330
1F
100
AcDbEntity
  8
SANINDUSA
100
AcDbSpline
210
0.0
220
0.0
230
1.0
 70
    24
 71
     3
 72
    30
 73
    26
 74
     0
 42
0.0000000001
 43
0.0000000001
 40
0.0
 40
0.0
 40
0.0
 40
0.0
 40
0.0374891960329169
 40
0.0749783449979199
 40
0.1298929246919239
 40
0.1849840722540508
 40
0.2401108522517704
 40
0.295155743902236
 40
0.3500314955787133
 40
0.3911290447838593
 40
0.4322553285552177
 40
0.4733479908161005
 40
0.5178381467271694
 40
0.5625034230913421
 40
0.6071972023512588
 40
0.6518030832738745
 40
0.6962432072290267
 40
0.7372557771894736
 40
0.7784037758025657
 40
0.8195287707379343
 40
0.8605098960692762
 40
0.8953320616145148
 40
0.9302634006348776
 40
0.9651875682169869
 40
1.0
 40
1.0
 40
1.0
 40
1.0
 10
4851.157971297539
 20
2501.096994298898
 30
0.0
 10
4851.161762010377
 20
2501.096994298898
 30
0.0
 10
4851.169343431298
 20
2501.096994298898
 30
0.0
 10
4851.1824571566
 20
2501.096994298898
 30
0.0
 10
4851.197292182117
 20
2501.096994298898
 30
0.0
 10
4851.213759905353
 20
2501.096994298898
 30
0.0
 10
4851.230032642585
 20
2501.096994298898
 30
0.0
 10
4851.246000272563
 20
2501.096994298898
 30
0.0
 10
4851.26027063894
 20
2501.096994298898
 30
0.0
 10
4851.272885004171
 20
2501.096994298898
 30
0.0
 10
4851.283936637398
 20
2501.096994298898
 30
0.0
 10
4851.294943627216
 20
2501.096994298898
 30
0.0
 10
4851.305825687457
 20
2501.096994298898
 30
0.0
 10
4851.316481248227
 20
2501.096994298898
 30
0.0
 10
4851.32654922677
 20
2501.096994298898
 30
0.0
 10
4851.335920637064
 20
2501.096994298898
 30
0.0
 10
4851.344281117632
 20
2501.096994298898
 30
0.0
 10
4851.351606433127
 20
2501.096994298898
 30
0.0
 10
4851.357919024765
 20
2501.096994298898
 30
0.0
 10
4851.363337929271
 20
2501.096994298898
 30
0.0
 10
4851.367548442496
 20
2501.096994298898
 30
0.0
 10
4851.370635381153
 20
2501.096994298898
 30
0.0
 10
4851.372736870547
 20
2501.096994298898
 30
0.0
 10
4851.374082117981
 20
2501.096994298898
 30
0.0
 10
4851.374253317882
 20
2501.096994298898
 30
0.0
 10
4851.374338780678
 20
2501.096994298898
 30
0.0
  0
SPLINE
  5
1693
330
1F
100
AcDbEntity
  8
SANINDUSA
100
AcDbSpline
210
0.0
220
0.0
230
1.0
 70
    24
 71
     3
 72
    18
 73
    14
 74
     0
 42
0.0000000001
 43
0.0000000001
 40
0.0
 40
0.0
 40
0.0
 40
0.0
 40
0.2499999999999999
 40
0.2499999999999999
 40
0.4999999999999999
 40
0.4999999999999999
 40
0.5625
 40
0.5625
 40
0.625
 40
0.625
 40
0.7500000000000002
 40
0.7500000000000002
 40
1.0
 40
1.0
 40
1.0
 40
1.0
 10
4850.889427089287
 20
2501.096994299088
 30
0.0
 10
4850.911252113454
 20
2501.096994299088
 30
0.0
 10
4850.933237501711
 20
2501.096994299088
 30
0.0
 10
4850.977521325145
 20
2501.096994299088
 30
0.0
 10
4850.9998201268
 20
2501.096994299088
 30
0.0
 10
4851.027887799152
 20
2501.096994299088
 30
0.0
 10
4851.033511046826
 20
2501.096994299088
 30
0.0
 10
4851.044777071048
 20
2501.096994299088
 30
0.0
 10
4851.05042088409
 20
2501.096994299088
 30
0.0
 10
4851.067354356593
 20
2501.096994299088
 30
0.0
 10
4851.078654687541
 20
2501.096994299088
 30
0.0
 10
4851.112589451304
 20
2501.096994299088
 30
0.0
 10
4851.13525761344
 20
2501.096994299088
 30
0.0
 10
4851.157971301262
 20
2501.096994299088
 30
0.0
  0
SPLINE
  5
169A
330
1F
100
AcDbEntity
  8
SANINDUSA
100
AcDbSpline
210
0.0
220
0.0
230
1.0
 70
    24
 71
     1
 72
     4
 73
     2
 74
     0
 42
0.0000000001
 43
0.0000000001
 40
0.0
 40
0.0
 40
1.0
 40
1.0
 10
4851.37759200219
 20
2501.085390873175
 30
0.0
 10
4851.379137908256
 20
2501.090591290888
 30
0.0
  0
SPLINE
  5
169B
330
1F
100
AcDbEntity
  8
SANINDUSA
100
AcDbSpline
210
0.0
220
0.0
230
1.0
 70
     8
 71
     3
 72
     8
 73
     4
 74
     0
 42
0.0000000001
 43
0.0000000001
 40
0.0686311596437998
 40
0.0686311596437998
 40
0.0686311596437998
 40
0.0686311596437998
 40
0.5423360678513144
 40
0.5423360678513144
 40
0.5423360678513144
 40
0.5423360678513144
 10
4851.3480568941
 20
2501.007599872
 30
0.0
 10
4851.359678835872
 20
2501.032790867764
 30
0.0
 10
4851.369551273588
 20
2501.058782585101
 30
0.0
 10
4851.377592001559
 20
2501.085390872717
 30
0.0
  0
SPLINE
  5
169C
330
1F
100
AcDbEntity
  8
SANINDUSA
100
AcDbSpline
210
0.0
220
0.0
230
1.0
 70
     8
 71
     3
 72
    11
 73
     7
 74
     0
 42
0.0000000001
 43
0.0000000001
 40
0.0
 40
0.0
 40
0.0
 40
0.0
 40
0.2495361226660925
 40
0.4990724737764296
 40
0.7495362002187429
 40
1.0
 40
1.0
 40
1.0
 40
1.0
 10
4851.313488220013
 20
2500.943277920518
 30
0.0
 10
4851.316640928146
 20
2500.948474289041
 30
0.0
 10
4851.322946347301
 20
2500.958867030844
 30
0.0
 10
4851.331800671078
 20
2500.974835035963
 30
0.0
 10
4851.340245299704
 20
2500.991048969011
 30
0.0
 10
4851.345453024597
 20
2501.002082902863
 30
0.0
 10
4851.348056887425
 20
2501.007599870596
 30
0.0
  0
SPLINE
  5
169D
330
1F
100
AcDbEntity
  8
SANINDUSA
100
AcDbSpline
210
0.0
220
0.0
230
1.0
 70
     8
 71
     3
 72
    18
 73
    14
 74
     0
 42
0.0000000001
 43
0.0000000001
 40
0.0
 40
0.0
 40
0.0
 40
0.0
 40
0.1250000000000032
 40
0.1250000000000032
 40
0.2500000000000064
 40
0.2500000000000064
 40
0.3750000000000097
 40
0.3750000000000097
 40
0.5000000000000129
 40
0.5000000000000129
 40
0.7500000000000064
 40
0.7500000000000064
 40
1.0
 40
1.0
 40
1.0
 40
1.0
 10
4850.997468833664
 20
2501.059076925443
 30
0.0
 10
4850.997380312258
 20
2501.05931067039
 30
0.0
 10
4850.997269139014
 20
2501.059536889487
 30
0.0
 10
4850.996998891017
 20
2501.059973459736
 30
0.0
 10
4850.996837618461
 20
2501.060185671326
 30
0.0
 10
4850.996478161451
 20
2501.060575078672
 30
0.0
 10
4850.996282893418
 20
2501.060750458624
 30
0.0
 10
4850.995864770918
 20
2501.061066912514
 30
0.0
 10
4850.995639737074
 20
2501.061208797062
 30
0.0
 10
4850.99495113118
 20
2501.061573033271
 30
0.0
 10
4850.994480058407
 20
2501.061735924243
 30
0.0
 10
4850.993520765844
 20
2501.061948741955
 30
0.0
 10
4850.993049000116
 20
2501.061994299087
 30
0.0
 10
4850.992584009729
 20
2501.061994299087
 30
0.0
  0
SPLINE
  5
16A0
330
1F
100
AcDbEntity
  8
SANINDUSA
100
AcDbSpline
210
0.0
220
0.0
230
1.0
 70
    24
 71
     3
 72
    10
 73
     6
 74
     0
 42
0.0000000001
 43
0.0000000001
 40
0.0
 40
0.0
 40
0.0
 40
0.0
 40
0.5
 40
0.5
 40
1.0
 40
1.0
 40
1.0
 40
1.0
 10
4850.992584009729
 20
2501.061994299087
 30
0.0
 10
4850.975270176546
 20
2501.061994299087
 30
0.0
 10
4850.958049599772
 20
2501.061994299087
 30
0.0
 10
4850.923802587223
 20
2501.061994299087
 30
0.0
 10
4850.906776716019
 20
2501.061994299087
 30
0.0
 10
4850.889853496673
 20
2501.061994299087
 30
0.0
  0
SPLINE
  5
16A3
330
1F
100
AcDbEntity
  8
SANINDUSA
100
AcDbSpline
210
0.0
220
0.0
230
1.0
 70
     8
 71
     3
 72
    12
 73
     8
 74
     0
 42
0.0000000001
 43
0.0000000001
 40
0.0
 40
0.0
 40
0.0
 40
0.0
 40
0.25
 40
0.25
 40
0.5
 40
0.5
 40
1.0
 40
1.0
 40
1.0
 40
1.0
 10
4851.04446008772
 20
2500.94653422329
 30
0.0
 10
4851.044730938987
 20
2500.946119682479
 30
0.0
 10
4851.045019042147
 20
2500.945708553221
 30
0.0
 10
4851.04561940092
 20
2500.944892143634
 30
0.0
 10
4851.045928953721
 20
2500.94449078154
 30
0.0
 10
4851.046881013343
 20
2500.943304322935
 30
0.0
 10
4851.047545484126
 20
2500.942535577771
 30
0.0
 10
4851.048244070828
 20
2500.941793772109
 30
0.0
  0
SPLINE
  5
16A4
330
1F
100
AcDbEntity
  8
SANINDUSA
100
AcDbSpline
210
0.0
220
0.0
230
1.0
 70
     8
 71
     3
 72
    16
 73
    12
 74
     0
 42
0.0000000001
 43
0.0000000001
 40
0.0
 40
0.0
 40
0.0
 40
0.0
 40
0.2500000000000004
 40
0.2500000000000004
 40
0.5000000000000009
 40
0.5000000000000009
 40
0.6250000000000008
 40
0.6250000000000008
 40
0.7500000000000007
 40
0.7500000000000007
 40
1.0
 40
1.0
 40
1.0
 40
1.0
 10
4851.044460084775
 20
2500.946534225258
 30
0.0
 10
4851.040644987793
 20
2500.955594217657
 30
0.0
 10
4851.036806946133
 20
2500.964744634743
 30
0.0
 10
4851.029073473859
 20
2500.983220523733
 30
0.0
 10
4851.025176506611
 20
2500.992550473734
 30
0.0
 10
4851.019296680506
 20
2501.006644685594
 30
0.0
 10
4851.017330801829
 20
2501.011360143413
 30
0.0
 10
4851.0133868905
 20
2501.020825072981
 30
0.0
 10
4851.011408481341
 20
2501.025575408053
 30
0.0
 10
4851.005459392562
 20
2501.039865049157
 30
0.0
 10
4851.001473681746
 20
2501.049445606397
 30
0.0
 10
4850.997468833664
 20
2501.059076925443
 30
0.0
  0
SPLINE
  5
16A7
330
1F
100
AcDbEntity
  8
SANINDUSA
100
AcDbSpline
210
0.0
220
0.0
230
1.0
 70
    24
 71
     3
 72
    14
 73
    10
 74
     0
 42
0.0000000001
 43
0.0000000001
 40
0.0000002064183523
 40
0.0000002064183523
 40
0.0000002064183523
 40
0.0000002064183523
 40
0.0120000000012213
 40
0.0120000000012213
 40
0.0120000000012213
 40
0.0600000002453422
 40
0.0600000002453422
 40
0.0600000002453422
 40
0.0834126744997301
 40
0.0834126744997301
 40
0.0834126744997301
 40
0.0834126744997301
 10
4850.979906697496
 20
2501.058971184089
 30
0.0
 10
4850.981488643113
 20
2501.055297371753
 30
0.0
 10
4850.983070611963
 20
2501.051623569412
 30
0.0
 10
4850.984652604572
 20
2501.047949777293
 30
0.0
 10
4850.990980683878
 20
2501.033254355994
 30
0.0
 10
4850.997309121183
 20
2501.018559088628
 30
0.0
 10
4851.003638091957
 20
2501.003864051022
 30
0.0
 10
4851.006725136347
 20
2500.996696340031
 30
0.0
 10
4851.009812310085
 20
2500.989528684722
 30
0.0
 10
4851.012899679881
 20
2500.982361113934
 30
0.0
  0
SPLINE
  5
16A9
330
1F
100
AcDbEntity
  8
SANINDUSA
100
AcDbSpline
210
0.0
220
0.0
230
1.0
 70
     8
 71
     3
 72
    18
 73
    14
 74
     0
 42
0.0000000001
 43
0.0000000001
 40
0.0
 40
0.0
 40
0.0
 40
0.0
 40
0.2500000000000047
 40
0.2500000000000047
 40
0.3750000000000035
 40
0.3750000000000035
 40
0.5000000000000023
 40
0.5000000000000023
 40
0.625000000000001
 40
0.625000000000001
 40
0.7499999999999999
 40
0.7499999999999999
 40
1.0
 40
1.0
 40
1.0
 40
1.0
 10
4851.039709899834
 20
2500.951387123884
 30
0.0
 10
4851.040041552865
 20
2500.951145186326
 30
0.0
 10
4851.040394011687
 20
2500.950854846116
 30
0.0
 10
4851.040952205731
 20
2500.950352497537
 30
0.0
 10
4851.041143650442
 20
2500.950173400352
 30
0.0
 10
4851.041532066451
 20
2500.949797464627
 30
0.0
 10
4851.041729432885
 20
2500.949600298589
 30
0.0
 10
4851.042130231088
 20
2500.949188531397
 30
0.0
 10
4851.042333663404
 20
2500.948973928231
 30
0.0
 10
4851.042746428626
 20
2500.948527932991
 30
0.0
 10
4851.042954866827
 20
2500.948299003508
 30
0.0
 10
4851.043587624943
 20
2500.947584863149
 30
0.0
 10
4851.044018961173
 20
2500.947075979612
 30
0.0
 10
4851.044460081765
 20
2500.946534232407
 30
0.0
  0
SPLINE
  5
16AA
330
1F
100
AcDbEntity
  8
SANINDUSA
100
AcDbSpline
210
0.0
220
0.0
230
1.0
 70
     8
 71
     3
 72
    16
 73
    12
 74
     0
 42
0.0000000001
 43
0.0000000001
 40
0.0
 40
0.0
 40
0.0
 40
0.0
 40
0.2499999999999999
 40
0.2499999999999999
 40
0.375
 40
0.375
 40
0.5000000000000002
 40
0.5000000000000002
 40
0.7500000000000001
 40
0.7500000000000001
 40
1.0
 40
1.0
 40
1.0
 40
1.0
 10
4851.012899679881
 20
2500.982361113934
 30
0.0
 10
4851.014216684955
 20
2500.979670188999
 30
0.0
 10
4851.015726064579
 20
2500.976997390652
 30
0.0
 10
4851.018318395667
 20
2500.973021359287
 30
0.0
 10
4851.01923731717
 20
2500.971701554028
 30
0.0
 10
4851.021192807976
 20
2500.969074144641
 30
0.0
 10
4851.022229101807
 20
2500.967767029915
 30
0.0
 10
4851.025519446602
 20
2500.963875132922
 30
0.0
 10
4851.027956456167
 20
2500.961316910521
 30
0.0
 10
4851.033390230512
 20
2500.956285170693
 30
0.0
 10
4851.036386984467
 20
2500.953811157301
 30
0.0
 10
4851.039709899834
 20
2500.951387123884
 30
0.0
  0
ARC
  5
16AC
330
1F
100
AcDbEntity
  8
SANINDUSA
100
AcDbCircle
 10
4850.882153162905
 20
2501.091994299088
 30
0.0
 40
0.0050000000000003
100
AcDbArc
 50
90.0
 51
180.0
  0
SPLINE
  5
16AD
330
1F
100
AcDbEntity
  8
SANINDUSA
100
AcDbSpline
210
0.0
220
0.0
230
1.0
 70
    24
 71
     3
 72
    24
 73
    20
 74
     0
 42
0.0000000001
 43
0.0000000001
 40
0.0
 40
0.0
 40
0.0
 40
0.0
 40
0.1249999999999946
 40
0.1249999999999946
 40
0.1874999999999918
 40
0.1874999999999918
 40
0.2499999999999891
 40
0.2499999999999891
 40
0.3749999999999827
 40
0.3749999999999827
 40
0.4374999999999817
 40
0.4374999999999817
 40
0.4999999999999806
 40
0.4999999999999806
 40
0.6249999999999855
 40
0.6249999999999855
 40
0.7499999999999903
 40
0.7499999999999903
 40
1.0
 40
1.0
 40
1.0
 40
1.0
 10
4850.882153162905
 20
2501.096994299088
 30
0.0
 10
4850.882153162905
 20
2501.096994299088
 30
0.0
 10
4850.882196653056
 20
2501.096994299088
 30
0.0
 10
4850.882325255561
 20
2501.096994299088
 30
0.0
 10
4850.88237873672
 20
2501.096994299088
 30
0.0
 10
4850.88250724001
 20
2501.096994299088
 30
0.0
 10
4850.882582646676
 20
2501.096994299088
 30
0.0
 10
4850.882838586296
 20
2501.096994299088
 30
0.0
 10
4850.883048554166
 20
2501.096994299088
 30
0.0
 10
4850.883421331857
 20
2501.096994299088
 30
0.0
 10
4850.883555275611
 20
2501.096994299088
 30
0.0
 10
4850.883842904149
 20
2501.096994299088
 30
0.0
 10
4850.883997259554
 20
2501.096994299088
 30
0.0
 10
4850.884486084526
 20
2501.096994299088
 30
0.0
 10
4850.88484354367
 20
2501.096994299088
 30
0.0
 10
4850.885620111899
 20
2501.096994299088
 30
0.0
 10
4850.886040521604
 20
2501.096994299088
 30
0.0
 10
4850.887391195017
 20
2501.096994299088
 30
0.0
 10
4850.888369491417
 20
2501.096994299088
 30
0.0
 10
4850.889427089287
 20
2501.096994299088
 30
0.0
  0
SPLINE
  5
16AF
330
1F
100
AcDbEntity
  8
SANINDUSA
100
AcDbSpline
210
0.0
220
0.0
230
1.0
 70
    24
 71
     3
 72
     8
 73
     4
 74
     0
 42
0.0000000001
 43
0.0000000001
 40
0.0
 40
0.0
 40
0.0
 40
0.0
 40
1.0
 40
1.0
 40
1.0
 40
1.0
 10
4850.877153162906
 20
2501.067994299088
 30
0.0
 10
4850.877153162906
 20
2501.075989308844
 30
0.0
 10
4850.877153162906
 20
2501.083989545103
 30
0.0
 10
4850.877153162906
 20
2501.091994299088
 30
0.0
  0
ARC
  5
16B0
330
1F
100
AcDbEntity
  8
SANINDUSA
100
AcDbCircle
 10
4850.883153162905
 20
2501.067994299088
 30
0.0
 40
0.0059999999999999
100
AcDbArc
 50
180.0
 51
270.0
  0
SPLINE
  5
16B1
330
1F
100
AcDbEntity
  8
SANINDUSA
100
AcDbSpline
210
0.0
220
0.0
230
1.0
 70
    24
 71
     3
 72
    24
 73
    20
 74
     0
 42
0.0000000001
 43
0.0000000001
 40
0.0
 40
0.0
 40
0.0
 40
0.0
 40
0.1250000000000002
 40
0.1250000000000002
 40
0.2500000000000005
 40
0.2500000000000005
 40
0.3750000000000008
 40
0.3750000000000008
 40
0.500000000000001
 40
0.500000000000001
 40
0.5625000000000015
 40
0.5625000000000015
 40
0.6250000000000019
 40
0.6250000000000019
 40
0.7500000000000013
 40
0.7500000000000013
 40
0.8750000000000007
 40
0.8750000000000007
 40
1.0
 40
1.0
 40
1.0
 40
1.0
 10
4850.889853496673
 20
2501.061994299087
 30
0.0
 10
4850.889369378402
 20
2501.061994299087
 30
0.0
 10
4850.888899940301
 20
2501.061994299087
 30
0.0
 10
4850.88799016038
 20
2501.061994299087
 30
0.0
 10
4850.887557257091
 20
2501.061994299087
 30
0.0
 10
4850.886740266753
 20
2501.061994299087
 30
0.0
 10
4850.886354983575
 20
2501.061994299087
 30
0.0
 10
4850.885632065141
 20
2501.061994299087
 30
0.0
 10
4850.885300296286
 20
2501.061994299087
 30
0.0
 10
4850.884851029341
 20
2501.061994299087
 30
0.0
 10
4850.884708707153
 20
2501.061994299087
 30
0.0
 10
4850.88444335284
 20
2501.061994299087
 30
0.0
 10
4850.884319962558
 20
2501.061994299087
 30
0.0
 10
4850.883976915431
 20
2501.061994299087
 30
0.0
 10
4850.883784208014
 20
2501.061994299087
 30
0.0
 10
4850.883471225887
 20
2501.061994299087
 30
0.0
 10
4850.883351446814
 20
2501.061994299087
 30
0.0
 10
4850.883193170797
 20
2501.061994299087
 30
0.0
 10
4850.883153162905
 20
2501.061994299087
 30
0.0
 10
4850.883153162905
 20
2501.061994299087
 30
0.0
  0
SPLINE
  5
16B3
330
1F
100
AcDbEntity
  8
SANINDUSA
100
AcDbSpline
210
0.0
220
0.0
230
1.0
 70
     8
 71
     3
 72
    20
 73
    16
 74
     0
 42
0.0000000001
 43
0.0000000001
 40
0.0
 40
0.0
 40
0.0
 40
0.0
 40
0.0312500000000001
 40
0.0312500000000001
 40
0.0625000000000001
 40
0.0625000000000001
 40
0.1250000000000003
 40
0.1250000000000003
 40
0.2500000000000005
 40
0.2500000000000005
 40
0.3750000000000008
 40
0.3750000000000008
 40
0.5000000000000011
 40
0.5000000000000011
 40
1.0
 40
1.0
 40
1.0
 40
1.0
 10
4851.212636147748
 20
2500.930091417071
 30
0.0
 10
4851.211033513061
 20
2500.930073097896
 30
0.0
 10
4851.209430826525
 20
2500.930062002237
 30
0.0
 10
4851.206225317003
 20
2500.930040388769
 30
0.0
 10
4851.204622498442
 20
2500.930031742659
 30
0.0
 10
4851.199813846979
 20
2500.930010421668
 30
0.0
 10
4851.196607817919
 20
2500.930002201093
 30
0.0
 10
4851.186988928088
 20
2500.929987638409
 30
0.0
 10
4851.1805752658
 20
2500.9299918684
 30
0.0
 10
4851.16774578051
 20
2500.930018303185
 30
0.0
 10
4851.161329968451
 20
2500.930045132187
 30
0.0
 10
4851.148496188836
 20
2500.930118819475
 30
0.0
 10
4851.142078203986
 20
2500.930158374295
 30
0.0
 10
4851.109982801066
 20
2500.930368450585
 30
0.0
 10
4851.084284516298
 20
2500.930576775527
 30
0.0
 10
4851.058587943281
 20
2500.930828932604
 30
0.0
  0
SPLINE
  5
16B5
330
1F
100
AcDbEntity
  8
SANINDUSA
100
AcDbSpline
210
0.0
220
0.0
230
1.0
 70
     8
 71
     3
 72
     9
 73
     5
 74
     0
 42
0.0000000001
 43
0.0000000001
 40
0.0
 40
0.0
 40
0.0
 40
0.0
 40
0.0056156150781706
 40
0.9999999999999998
 40
0.9999999999999998
 40
0.9999999999999998
 40
0.9999999999999998
 10
4851.058587943352
 20
2500.930828939114
 30
0.0
 10
4851.058577621463
 20
2500.930834248233
 30
0.0
 10
4851.05673955233
 20
2500.931779668869
 30
0.0
 10
4851.05493488252
 20
2500.932788072399
 30
0.0
 10
4851.05314034704
 20
2500.933790813122
 30
0.0
  0
SPLINE
  5
16B8
330
1F
100
AcDbEntity
  8
SANINDUSA
100
AcDbSpline
210
0.0
220
0.0
230
1.0
 70
     8
 71
     3
 72
    14
 73
    10
 74
     0
 42
0.0000000001
 43
0.0000000001
 40
0.0
 40
0.0
 40
0.0
 40
0.0
 40
0.1250000000000002
 40
0.1250000000000002
 40
0.2500000000000004
 40
0.2500000000000004
 40
0.5000000000000002
 40
0.5000000000000002
 40
1.0
 40
1.0
 40
1.0
 40
1.0
 10
4851.053140347033
 20
2500.933790810989
 30
0.0
 10
4851.047517281947
 20
2500.93377511355
 30
0.0
 10
4851.041894679029
 20
2500.933766510949
 30
0.0
 10
4851.030650397309
 20
2500.933763584837
 30
0.0
 10
4851.025028717105
 20
2500.933767281706
 30
0.0
 10
4851.008165044625
 20
2500.933774594815
 30
0.0
 10
4850.996924425658
 20
2500.933781851489
 30
0.0
 10
4850.963208057937
 20
2500.933810635443
 30
0.0
 10
4850.940741168027
 20
2500.933839002648
 30
0.0
 10
4850.918295018503
 20
2500.933878102283
 30
0.0
  0
LINE
  5
16B9
330
1F
100
AcDbEntity
  8
SANINDUSA
100
AcDbLine
 10
4851.21305007223
 20
2500.706994305287
 30
0.0
 11
4850.912805055417
 21
2500.706994305287
 31
0.0
  0
SPLINE
  5
16BA
330
1F
100
AcDbEntity
  8
SANINDUSA
100
AcDbSpline
210
0.0
220
0.0
230
1.0
 70
     8
 71
     3
 72
    21
 73
    17
 74
     0
 42
0.0000000001
 43
0.0000000001
 40
0.0
 40
0.0
 40
0.0
 40
0.0
 40
0.0513724647685939
 40
0.1027450847839552
 40
0.1774535343749916
 40
0.2524014941837125
 40
0.3271111620182234
 40
0.4017975460314948
 40
0.4767216449748323
 40
0.5514077003454885
 40
0.6260952597790128
 40
0.7010213516134005
 40
0.7757091117258396
 40
0.8503934018541826
 40
0.9253157635999182
 40
1.0
 40
1.0
 40
1.0
 40
1.0
 10
4851.309758161343
 20
2500.929426829253
 30
0.0
 10
4851.309697761052
 20
2500.929431859232
 30
0.0
 10
4851.309576960284
 20
2500.929441919207
 30
0.0
 10
4851.308469014364
 20
2500.929524904071
 30
0.0
 10
4851.306271000109
 20
2500.929672101266
 30
0.0
 10
4851.302538360434
 20
2500.929884781295
 30
0.0
 10
4851.297602505127
 20
2500.930114826175
 30
0.0
 10
4851.291477113379
 20
2500.930328715802
 30
0.0
 10
4851.284284592571
 20
2500.930504719853
 30
0.0
 10
4851.276110102119
 20
2500.930628655261
 30
0.0
 10
4851.267025759804
 20
2500.930675249143
 30
0.0
 10
4851.257178701225
 20
2500.930650242419
 30
0.0
 10
4851.246688314752
 20
2500.930565548874
 30
0.0
 10
4851.235666905894
 20
2500.930428403171
 30
0.0
 10
4851.224280899095
 20
2500.930260309206
 30
0.0
 10
4851.216513610543
 20
2500.930147657328
 30
0.0
 10
4851.212636147774
 20
2500.930091421042
 30
0.0
  0
ARC
  5
16BB
330
1F
100
AcDbEntity
  8
SANINDUSA
100
AcDbCircle
 10
4851.334748417105
 20
2500.930124868208
 30
0.0
 40
0.0249999999999997
100
AcDbArc
 50
148.2561676036065
 51
181.6000000025688
  0
SPLINE
  5
16BC
330
1F
100
AcDbEntity
  8
SANINDUSA
100
AcDbSpline
210
0.0
220
0.0
230
1.0
 70
     8
 71
     3
 72
    11
 73
     7
 74
     0
 42
0.0000000001
 43
0.0000000001
 40
0.0
 40
0.0
 40
0.0
 40
0.0
 40
0.8502830089429311
 40
0.9721645030594906
 40
0.9940382441112472
 40
1.0
 40
1.0
 40
1.0
 40
1.0
 10
4851.054110114611
 20
2500.935472036634
 30
0.0
 10
4851.055361283045
 20
2500.934139316033
 30
0.0
 10
4851.0567917968
 20
2500.93261556024
 30
0.0
 10
4851.058307488279
 20
2500.931106718158
 30
0.0
 10
4851.058536240148
 20
2500.930880041548
 30
0.0
 10
4851.058578823028
 20
2500.930837953463
 30
0.0
 10
4851.058587943352
 20
2500.930828939114
 30
0.0
  0
SPLINE
  5
16BD
330
1F
100
AcDbEntity
  8
SANINDUSA
100
AcDbSpline
210
0.0
220
0.0
230
1.0
 70
    24
 71
     1
 72
     4
 73
     2
 74
     0
 42
0.0000000001
 43
0.0000000001
 40
0.0
 40
0.0
 40
1.0
 40
1.0
 10
4851.048244063891
 20
2500.941793764863
 30
0.0
 10
4851.054110114611
 20
2500.935472036634
 30
0.0
  0
ELLIPSE
  5
16BE
330
1F
100
AcDbEntity
  8
SANINDUSA
100
AcDbEllipse
 10
4796.063364022611
 20
551.2039048499444
 30
0.0
 11
55.85231046860592
 21
1999.201242288563
 31
0.0
210
0.0
220
0.0
230
1.0
 40
0.0008594146500799
 41
6.05976944516686
 42
6.060282189068426
  0
ARC
  5
16BF
330
1F
100
AcDbEntity
  8
SANINDUSA
100
AcDbCircle
 10
4850.915964019752
 20
2500.87096528164
 30
0.0
 40
0.0629559907804299
100
AcDbArc
 50
87.87809284285319
 51
92.06774069522873
  0
SPLINE
  5
16C0
330
1F
100
AcDbEntity
  8
SANINDUSA
100
AcDbSpline
210
0.0
220
0.0
230
1.0
 70
    24
 71
     3
 72
    22
 73
    18
 74
     0
 42
0.0000000001
 43
0.0000000001
 40
0.0
 40
0.0
 40
0.0
 40
0.0
 40
0.125
 40
0.125
 40
0.25
 40
0.25
 40
0.375
 40
0.375
 40
0.5
 40
0.5
 40
0.625
 40
0.625
 40
0.75
 40
0.75
 40
0.875
 40
0.875
 40
1.0
 40
1.0
 40
1.0
 40
1.0
 10
4850.912805055348
 20
2500.706994299088
 30
0.0
 10
4850.912526527986
 20
2500.706994299088
 30
0.0
 10
4850.912249084474
 20
2500.706994299088
 30
0.0
 10
4850.911708847046
 20
2500.706994299088
 30
0.0
 10
4850.911447049821
 20
2500.706994299088
 30
0.0
 10
4850.910939685332
 20
2500.706994299088
 30
0.0
 10
4850.910692388058
 20
2500.706994299088
 30
0.0
 10
4850.910223148053
 20
2500.706994299088
 30
0.0
 10
4850.910003582483
 20
2500.706994299088
 30
0.0
 10
4850.909593726665
 20
2500.706994299088
 30
0.0
 10
4850.909402333093
 20
2500.706994299088
 30
0.0
 10
4850.909055469755
 20
2500.706994299088
 30
0.0
 10
4850.908902152
 20
2500.706994299088
 30
0.0
 10
4850.908634516359
 20
2500.706994299088
 30
0.0
 10
4850.908519822303
 20
2500.706994299088
 30
0.0
 10
4850.908333139033
 20
2500.706994299088
 30
0.0
 10
4850.908262183176
 20
2500.706994299088
 30
0.0
 10
4850.908213711126
 20
2500.706994299088
 30
0.0
  0
LINE
  5
16C8
330
1F
100
AcDbEntity
  8
SANINDUSA
100
AcDbLine
 10
4851.31597128991
 20
2500.706994305287
 30
0.0
 11
4851.21305007223
 21
2500.706994305287
 31
0.0
  0
SPLINE
  5
16CC
330
1F
100
AcDbEntity
  8
SANINDUSA
100
AcDbSpline
210
0.0
220
0.0
230
1.0
 70
    24
 71
     3
 72
    22
 73
    18
 74
     0
 42
0.0000000001
 43
0.0000000001
 40
0.0
 40
0.0
 40
0.0
 40
0.0
 40
0.0000087728561922
 40
0.0825890060852176
 40
0.1653895503454889
 40
0.2481568744581583
 40
0.330691688560882
 40
0.4195525790540798
 40
0.5085925341697641
 40
0.5972988597236788
 40
0.6563099123575046
 40
0.7154410900770307
 40
0.7743461407673995
 40
0.8306128103193287
 40
0.8868310390045744
 40
0.9434321542523594
 40
0.9999999999999998
 40
0.9999999999999998
 40
0.9999999999999998
 40
0.9999999999999998
 10
4850.77066007737
 20
2501.096994298898
 30
0.0
 10
4850.77066007116
 20
2501.096994298898
 30
0.0
 10
4850.770601612709
 20
2501.096994298898
 30
0.0
 10
4850.770919973648
 20
2501.096994298898
 30
0.0
 10
4850.771943860389
 20
2501.096994298898
 30
0.0
 10
4850.773740041278
 20
2501.096994298898
 30
0.0
 10
4850.776340100937
 20
2501.096994298898
 30
0.0
 10
4850.779861744481
 20
2501.096994298898
 30
0.0
 10
4850.784449518723
 20
2501.096994298898
 30
0.0
 10
4850.789477322353
 20
2501.096994298898
 30
0.0
 10
4850.794616229453
 20
2501.096994298898
 30
0.0
 10
4850.79955777833
 20
2501.096994298898
 30
0.0
 10
4850.804976003704
 20
2501.096994298898
 30
0.0
 10
4850.810840789586
 20
2501.096994298898
 30
0.0
 10
4850.817098523553
 20
2501.096994298898
 30
0.0
 10
4850.823763428129
 20
2501.096994298898
 30
0.0
 10
4850.828361631572
 20
2501.096994298898
 30
0.0
 10
4850.830660057402
 20
2501.096994298898
 30
0.0
  0
SPLINE
  5
16D3
330
1F
100
AcDbEntity
  8
SANINDUSA
100
AcDbSpline
210
0.0
220
0.0
230
1.0
 70
     8
 71
     3
 72
     8
 73
     4
 74
     0
 42
0.0000000001
 43
0.0000000001
 40
0.0
 40
0.0
 40
0.0
 40
0.0
 40
1.0
 40
1.0
 40
1.0
 40
1.0
 10
4850.913231084819
 20
2500.938454565437
 30
0.0
 10
4850.908838403642
 20
2500.947712131846
 30
0.0
 10
4850.904451698935
 20
2500.957037214477
 30
0.0
 10
4850.900071950877
 20
2500.966440886387
 30
0.0
  0
SPLINE
  5
16D4
330
1F
100
AcDbEntity
  8
SANINDUSA
100
AcDbSpline
210
0.0
220
0.0
230
1.0
 70
     8
 71
     3
 72
    20
 73
    16
 74
     0
 42
0.0000000001
 43
0.0000000001
 40
0.0
 40
0.0
 40
0.0
 40
0.0
 40
0.1249999999999993
 40
0.1249999999999993
 40
0.2499999999999986
 40
0.2499999999999986
 40
0.3749999999999979
 40
0.3749999999999979
 40
0.4999999999999973
 40
0.4999999999999973
 40
0.6249999999999966
 40
0.6249999999999966
 40
0.7499999999999958
 40
0.7499999999999958
 40
1.0
 40
1.0
 40
1.0
 40
1.0
 10
4850.913692503181
 20
2500.9338802784
 30
0.0
 10
4850.913698655885
 20
2500.93413511976
 30
0.0
 10
4850.913701286099
 20
2500.934387616418
 30
0.0
 10
4850.91369955617
 20
2500.934887956691
 30
0.0
 10
4850.913695152043
 20
2500.935134261851
 30
0.0
 10
4850.913679705257
 20
2500.935609154599
 30
0.0
 10
4850.913668661894
 20
2500.935839314479
 30
0.0
 10
4850.913639903907
 20
2500.936284992503
 30
0.0
 10
4850.913622032235
 20
2500.936501384982
 30
0.0
 10
4850.913580790127
 20
2500.936904740782
 30
0.0
 10
4850.913557333887
 20
2500.937093620748
 30
0.0
 10
4850.913504852035
 20
2500.937446240726
 30
0.0
 10
4850.913475552705
 20
2500.937611175187
 30
0.0
 10
4850.91338108526
 20
2500.93805658129
 30
0.0
 10
4850.913310076299
 20
2500.938288091059
 30
0.0
 10
4850.913231084819
 20
2500.938454565437
 30
0.0
  0
LINE
  5
16D5
330
1F
100
AcDbEntity
  8
SANINDUSA
100
AcDbLine
 10
4850.908213709629
 20
2500.706994305287
 30
0.0
 11
4850.907547597921
 21
2500.706994305287
 31
0.0
  0
SPLINE
  5
16D7
330
1F
100
AcDbEntity
  8
SANINDUSA
100
AcDbSpline
210
0.0
220
0.0
230
1.0
 70
    24
 71
     3
 72
    22
 73
    18
 74
     0
 42
0.0000000001
 43
0.0000000001
 40
0.0
 40
0.0
 40
0.0
 40
0.0
 40
0.0565678457476406
 40
0.1131689609954255
 40
0.1693871896806713
 40
0.2256538592326005
 40
0.2845589099229693
 40
0.3436900876424954
 40
0.4027011402763213
 40
0.4914074658302361
 40
0.5804474209459202
 40
0.6693083114391181
 40
0.7518431255418418
 40
0.8346104496545111
 40
0.9174109939147825
 40
0.9999912271438079
 40
1.0
 40
1.0
 40
1.0
 40
1.0
 10
4850.830660057402
 20
2501.084994298328
 30
0.0
 10
4850.828361631572
 20
2501.084994298328
 30
0.0
 10
4850.823763428129
 20
2501.084994298328
 30
0.0
 10
4850.817098523553
 20
2501.084994298328
 30
0.0
 10
4850.810840789586
 20
2501.084994298328
 30
0.0
 10
4850.804976003704
 20
2501.084994298328
 30
0.0
 10
4850.79955777833
 20
2501.084994298328
 30
0.0
 10
4850.794616229453
 20
2501.084994298328
 30
0.0
 10
4850.789477322353
 20
2501.084994298328
 30
0.0
 10
4850.784449518723
 20
2501.084994298328
 30
0.0
 10
4850.779861744481
 20
2501.084994298328
 30
0.0
 10
4850.776340100937
 20
2501.084994298328
 30
0.0
 10
4850.773740041278
 20
2501.084994298328
 30
0.0
 10
4850.771943860389
 20
2501.084994298328
 30
0.0
 10
4850.770919973648
 20
2501.084994298328
 30
0.0
 10
4850.770601612709
 20
2501.084994298328
 30
0.0
 10
4850.77066007116
 20
2501.084994298328
 30
0.0
 10
4850.77066007737
 20
2501.084994298328
 30
0.0
  0
LINE
  5
16DB
330
1F
100
AcDbEntity
  8
SANINDUSA
100
AcDbLine
 10
4850.87215316031
 20
2501.096994298898
 30
0.0
 11
4850.882153165675
 21
2501.096994298898
 31
0.0
  0
ARC
  5
16DD
330
1F
100
AcDbEntity
  8
SANINDUSA
100
AcDbCircle
 10
4850.872153162906
 20
2501.079994299088
 30
0.0
 40
0.005
100
AcDbArc
 50
0.0
 51
90.0
  0
SPLINE
  5
16E2
330
1F
100
AcDbEntity
  8
SANINDUSA
100
AcDbSpline
210
0.0
220
0.0
230
1.0
 70
     8
 71
     3
 72
    16
 73
    12
 74
     0
 42
0.0000000001
 43
0.0000000001
 40
0.0
 40
0.0
 40
0.0
 40
0.0
 40
0.2500000000000017
 40
0.2500000000000017
 40
0.3750000000000025
 40
0.3750000000000025
 40
0.5000000000000034
 40
0.5000000000000034
 40
0.7500000000000017
 40
0.7500000000000017
 40
1.0
 40
1.0
 40
1.0
 40
1.0
 10
4850.917503516871
 20
2500.969217858345
 30
0.0
 10
4850.916446292593
 20
2500.969214017436
 30
0.0
 10
4850.915396918376
 20
2500.969233470066
 30
0.0
 10
4850.913833194721
 20
2500.969293499653
 30
0.0
 10
4850.913313690806
 20
2500.969318693698
 30
0.0
 10
4850.912278061247
 20
2500.969379192717
 30
0.0
 10
4850.91176066292
 20
2500.969414610008
 30
0.0
 10
4850.91022647262
 20
2500.969534900488
 30
0.0
 10
4850.909225822841
 20
2500.969633697821
 30
0.0
 10
4850.907267198144
 20
2500.969867351781
 30
0.0
 10
4850.906309218918
 20
2500.970002204006
 30
0.0
 10
4850.905373655229
 20
2500.970156082216
 30
0.0
  0
SPLINE
  5
16E3
330
1F
100
AcDbEntity
  8
SANINDUSA
100
AcDbSpline
210
0.0
220
0.0
230
1.0
 70
    24
 71
     3
 72
     8
 73
     4
 74
     0
 42
0.0000000001
 43
0.0000000001
 40
0.0
 40
0.0
 40
0.0
 40
0.0
 40
0.001449250239708
 40
0.001449250239708
 40
0.001449250239708
 40
0.001449250239708
 10
4850.918952756984
 20
2500.969223092789
 30
0.0
 10
4850.918469676907
 20
2500.969221358179
 30
0.0
 10
4850.917986596869
 20
2500.969219613381
 30
0.0
 10
4850.917503516871
 20
2500.969217858345
 30
0.0
  0
SPLINE
  5
16E4
330
1F
100
AcDbEntity
  8
SANINDUSA
100
AcDbSpline
210
0.0
220
0.0
230
1.0
 70
     8
 71
     3
 72
    38
 73
    34
 74
     0
 42
0.0000000001
 43
0.0000000001
 40
0.0
 40
0.0
 40
0.0
 40
0.0
 40
0.1250000000000071
 40
0.1250000000000071
 40
0.1562500000000083
 40
0.1562500000000083
 40
0.1875000000000096
 40
0.1875000000000096
 40
0.250000000000012
 40
0.250000000000012
 40
0.2812500000000126
 40
0.2812500000000126
 40
0.3125000000000132
 40
0.3125000000000132
 40
0.3750000000000162
 40
0.3750000000000162
 40
0.4062500000000166
 40
0.4062500000000166
 40
0.4375000000000168
 40
0.4375000000000168
 40
0.5000000000000158
 40
0.5000000000000158
 40
0.5625000000000148
 40
0.5625000000000148
 40
0.6250000000000137
 40
0.6250000000000137
 40
0.6875000000000127
 40
0.6875000000000127
 40
0.7500000000000116
 40
0.7500000000000116
 40
0.8750000000000056
 40
0.8750000000000056
 40
1.0
 40
1.0
 40
1.0
 40
1.0
 10
4850.931901646449
 20
2500.973477415643
 30
0.0
 10
4850.932202783464
 20
2500.973193319605
 30
0.0
 10
4850.93239402456
 20
2500.972902294461
 30
0.0
 10
4850.932460614646
 20
2500.972527386289
 30
0.0
 10
4850.93246507152
 20
2500.972451727858
 30
0.0
 10
4850.932455436428
 20
2500.972301862612
 30
0.0
 10
4850.93244143701
 20
2500.97222733828
 30
0.0
 10
4850.932371464715
 20
2500.972004999597
 30
0.0
 10
4850.93228762448
 20
2500.971858414934
 30
0.0
 10
4850.932102620121
 20
2500.971641113693
 30
0.0
 10
4850.932030808426
 20
2500.971569000534
 30
0.0
 10
4850.931870141972
 20
2500.971428474178
 30
0.0
 10
4850.931781027796
 20
2500.971359699975
 30
0.0
 10
4850.931488237844
 20
2500.971157684657
 30
0.0
 10
4850.931259194413
 20
2500.971028737025
 30
0.0
 10
4850.930866822181
 20
2500.970843550601
 30
0.0
 10
4850.930727606339
 20
2500.970783134393
 30
0.0
 10
4850.930438339288
 20
2500.970667015955
 30
0.0
 10
4850.930287737168
 20
2500.970611033361
 30
0.0
 10
4850.929819284845
 20
2500.970448873282
 30
0.0
 10
4850.92948485402
 20
2500.970348460461
 30
0.0
 10
4850.928776452539
 20
2500.970161369373
 30
0.0
 10
4850.928400258928
 20
2500.970074321421
 30
0.0
 10
4850.927628359041
 20
2500.969916210643
 30
0.0
 10
4850.927231467166
 20
2500.969844714182
 30
0.0
 10
4850.926418710801
 20
2500.969714830431
 30
0.0
 10
4850.926002831085
 20
2500.969656453716
 30
0.0
 10
4850.925153979696
 20
2500.969551517666
 30
0.0
 10
4850.924719715821
 20
2500.96950488436
 30
0.0
 10
4850.923413656872
 20
2500.969383119129
 30
0.0
 10
4850.922532837911
 20
2500.96932505669
 30
0.0
 10
4850.92075476047
 20
2500.969246617507
 30
0.0
 10
4850.919857457898
 20
2500.969226341325
 30
0.0
 10
4850.918952756984
 20
2500.969223092789
 30
0.0
  0
SPLINE
  5
16E5
330
1F
100
AcDbEntity
  8
SANINDUSA
100
AcDbSpline
210
0.0
220
0.0
230
1.0
 70
    24
 71
     3
 72
     8
 73
     4
 74
     0
 42
0.0000000001
 43
0.0000000001
 40
0.0
 40
0.0
 40
0.0
 40
0.0
 40
0.0026187628603807
 40
0.0026187628603807
 40
0.0026187628603807
 40
0.0026187628603807
 10
4850.931034910793
 20
2500.974295090249
 30
0.0
 10
4850.931323943155
 20
2500.974022422901
 30
0.0
 10
4850.93161285457
 20
2500.973749865137
 30
0.0
 10
4850.931901646449
 20
2500.973477415643
 30
0.0
  0
SPLINE
  5
16E6
330
1F
100
AcDbEntity
  8
SANINDUSA
100
AcDbSpline
210
0.0
220
0.0
230
1.0
 70
    24
 71
     3
 72
    11
 73
     7
 74
     0
 42
0.0000000001
 43
0.0000000001
 40
0.0089436859263083
 40
0.0089436859263083
 40
0.0089436859263083
 40
0.0089436859263083
 40
0.0448596033354013
 40
0.0448596033354013
 40
0.0448596033354013
 40
0.0853002670523206
 40
0.0853002670523206
 40
0.0853002670523206
 40
0.0853002670523206
 10
4851.007391470118
 20
2500.97430754831
 30
0.0
 10
4850.995419498741
 20
2500.974306362115
 30
0.0
 10
4850.983447527953
 20
2500.9743048012
 30
0.0
 10
4850.971475558552
 20
2500.974302883078
 30
0.0
 10
4850.957995340776
 20
2500.974300723307
 30
0.0
 10
4850.944515124385
 20
2500.974298109517
 30
0.0
 10
4850.931034910793
 20
2500.974295090249
 30
0.0
  0
ARC
  5
16E7
330
1F
100
AcDbEntity
  8
SANINDUSA
100
AcDbCircle
 10
4851.007263668835
 20
2500.980305404538
 30
0.0
 40
0.0059992187724712
100
AcDbArc
 50
271.2206863141094
 51
20.03916045441683
  0
LINE
  5
16E8
330
1F
100
AcDbEntity
  8
SANINDUSA
100
AcDbLine
 10
4850.906244118846
 20
2500.706994305287
 30
0.0
 11
4850.907814552225
 21
2500.771990994845
 31
0.0
  0
LINE
  5
16EA
330
1F
100
AcDbEntity
  8
SANINDUSA
100
AcDbLine
 10
4850.907547597921
 20
2500.706994305287
 30
0.0
 11
4850.906244118846
 21
2500.706994305287
 31
0.0
  0
SPLINE
  5
16EC
330
1F
100
AcDbEntity
  8
SANINDUSA
100
AcDbSpline
210
0.0
220
0.0
230
1.0
 70
     8
 71
     3
 72
    26
 73
    22
 74
     0
 42
0.0000000001
 43
0.0000000001
 40
0.0
 40
0.0
 40
0.0
 40
0.0
 40
0.0312500000000008
 40
0.0312500000000008
 40
0.0625000000000017
 40
0.0625000000000017
 40
0.0937500000000025
 40
0.0937500000000025
 40
0.1250000000000033
 40
0.1250000000000033
 40
0.1875000000000027
 40
0.1875000000000027
 40
0.250000000000002
 40
0.250000000000002
 40
0.3750000000000026
 40
0.3750000000000026
 40
0.5000000000000031
 40
0.5000000000000031
 40
0.7500000000000016
 40
0.7500000000000016
 40
1.0
 40
1.0
 40
1.0
 40
1.0
 10
4850.907939750171
 20
2500.777172490486
 30
0.0
 10
4850.907944214956
 20
2500.77736989067
 30
0.0
 10
4850.907933299125
 20
2500.777563717616
 30
0.0
 10
4850.90788683355
 20
2500.777929861163
 30
0.0
 10
4850.907852366639
 20
2500.778098104213
 30
0.0
 10
4850.907767954016
 20
2500.778414091095
 30
0.0
 10
4850.907717567986
 20
2500.778562206651
 30
0.0
 10
4850.907608938229
 20
2500.778833862927
 30
0.0
 10
4850.907550741702
 20
2500.778957903286
 30
0.0
 10
4850.907368138102
 20
2500.779305443974
 30
0.0
 10
4850.907235198192
 20
2500.77950562032
 30
0.0
 10
4850.906960180643
 20
2500.779862926744
 30
0.0
 10
4850.906818621583
 20
2500.780019109976
 30
0.0
 10
4850.906386354746
 20
2500.780443265748
 30
0.0
 10
4850.90608736495
 20
2500.780668022937
 30
0.0
 10
4850.90548418868
 20
2500.781047054161
 30
0.0
 10
4850.905179777062
 20
2500.781200534993
 30
0.0
 10
4850.90426272607
 20
2500.781587635757
 30
0.0
 10
4850.903650909057
 20
2500.781747432796
 30
0.0
 10
4850.902436574428
 20
2500.781951641574
 30
0.0
 10
4850.901833374847
 20
2500.781994299088
 30
0.0
 10
4850.901236007196
 20
2500.781994299088
 30
0.0
  0
LINE
  5
16EE
330
1F
100
AcDbEntity
  8
SANINDUSA
100
AcDbLine
 10
4850.907814552225
 20
2500.771990994845
 30
0.0
 11
4850.907939751781
 21
2500.77717248622
 31
0.0
  0
SPLINE
  5
16EF
330
1F
100
AcDbEntity
  8
SANINDUSA
100
AcDbSpline
210
0.0
220
0.0
230
1.0
 70
    24
 71
     3
 72
     9
 73
     5
 74
     0
 42
0.0000000001
 43
0.0000000001
 40
0.0
 40
0.0
 40
0.0
 40
0.0
 40
0.5647574606106232
 40
0.9999999999999998
 40
0.9999999999999998
 40
0.9999999999999998
 40
0.9999999999999998
 10
4850.868504819608
 20
2500.765349547301
 30
0.0
 10
4850.868557876879
 20
2500.767564468426
 30
0.0
 10
4850.86865182388
 20
2500.771486366374
 30
0.0
 10
4850.868746782851
 20
2500.775408239944
 30
0.0
 10
4850.868788113035
 20
2500.777115206156
 30
0.0
  0
LINE
  5
16F1
330
1F
100
AcDbEntity
  8
SANINDUSA
100
AcDbLine
 10
4850.906244118846
 20
2500.706994305287
 30
0.0
 11
4850.867093791402
 21
2500.706994305287
 31
0.0
  0
SPLINE
  5
16F2
330
1F
100
AcDbEntity
  8
SANINDUSA
100
AcDbSpline
210
0.0
220
0.0
230
1.0
 70
     8
 71
     3
 72
    24
 73
    20
 74
     0
 42
0.0000000001
 43
0.0000000001
 40
0.0
 40
0.0
 40
0.0
 40
0.0
 40
0.1249999999999974
 40
0.1249999999999974
 40
0.1874999999999955
 40
0.1874999999999955
 40
0.2499999999999937
 40
0.2499999999999937
 40
0.37499999999999
 40
0.37499999999999
 40
0.4999999999999862
 40
0.4999999999999862
 40
0.6249999999999825
 40
0.6249999999999825
 40
0.6874999999999842
 40
0.6874999999999842
 40
0.749999999999986
 40
0.749999999999986
 40
1.0
 40
1.0
 40
1.0
 40
1.0
 10
4850.868788109369
 20
2500.77711519812
 30
0.0
 10
4850.868795968828
 20
2500.777440145254
 30
0.0
 10
4850.868835083545
 20
2500.777758988416
 30
0.0
 10
4850.8689387102
 20
2500.778228473791
 30
0.0
 10
4850.868980798938
 20
2500.778383495124
 30
0.0
 10
4850.869080390517
 20
2500.778690527504
 30
0.0
 10
4850.869138217333
 20
2500.77884311865
 30
0.0
 10
4850.869331539914
 20
2500.779286932331
 30
0.0
 10
4850.869487318793
 20
2500.779567040097
 30
0.0
 10
4850.86985195456
 20
2500.780096139511
 30
0.0
 10
4850.870063101255
 20
2500.780346669136
 30
0.0
 10
4850.870522688773
 20
2500.780795582312
 30
0.0
 10
4850.870772363858
 20
2500.780996587278
 30
0.0
 10
4850.871177148826
 20
2500.781262386069
 30
0.0
 10
4850.871317738892
 20
2500.781345220172
 30
0.0
 10
4850.871603369224
 20
2500.781495334529
 30
0.0
 10
4850.87174899067
 20
2500.781563065852
 30
0.0
 10
4850.872490847994
 20
2500.781865827566
 30
0.0
 10
4850.873136565512
 20
2500.781994299088
 30
0.0
 10
4850.873786649838
 20
2500.781994299088
 30
0.0
  0
SPLINE
  5
16F3
330
1F
100
AcDbEntity
  8
SANINDUSA
100
AcDbSpline
210
0.0
220
0.0
230
1.0
 70
    24
 71
     3
 72
    24
 73
    20
 74
     0
 42
0.0000000001
 43
0.0000000001
 40
0.0
 40
0.0
 40
0.0
 40
0.0
 40
0.1249999999999996
 40
0.1249999999999996
 40
0.1874999999999993
 40
0.1874999999999993
 40
0.2499999999999991
 40
0.2499999999999991
 40
0.4999999999999982
 40
0.4999999999999982
 40
0.6249999999999978
 40
0.6249999999999978
 40
0.6562499999999978
 40
0.6562499999999978
 40
0.6874999999999978
 40
0.6874999999999978
 40
0.7499999999999982
 40
0.7499999999999982
 40
1.0
 40
1.0
 40
1.0
 40
1.0
 10
4850.873786649838
 20
2500.781994299088
 30
0.0
 10
4850.873790293599
 20
2500.781994299088
 30
0.0
 10
4850.873943514372
 20
2500.781994299088
 30
0.0
 10
4850.874397312512
 20
2500.781994299088
 30
0.0
 10
4850.874586135649
 20
2500.781994299088
 30
0.0
 10
4850.875035835623
 20
2500.781994299088
 30
0.0
 10
4850.875296893145
 20
2500.781994299088
 30
0.0
 10
4850.87678054196
 20
2500.781994299088
 30
0.0
 10
4850.878534809431
 20
2500.781994299088
 30
0.0
 10
4850.8820080449
 20
2500.781994299088
 30
0.0
 10
4850.883306761504
 20
2500.781994299088
 30
0.0
 10
4850.885110579757
 20
2500.781994299088
 30
0.0
 10
4850.885480378763
 20
2500.781994299088
 30
0.0
 10
4850.886238211285
 20
2500.781994299088
 30
0.0
 10
4850.886626605568
 20
2500.781994299088
 30
0.0
 10
4850.887814753487
 20
2500.781994299088
 30
0.0
 10
4850.88863844918
 20
2500.781994299088
 30
0.0
 10
4850.892912771554
 20
2500.781994299088
 30
0.0
 10
4850.896827931705
 20
2500.781994299088
 30
0.0
 10
4850.901236007196
 20
2500.781994299088
 30
0.0
  0
LINE
  5
16F5
330
1F
100
AcDbEntity
  8
SANINDUSA
100
AcDbLine
 10
4850.87215316031
 20
2501.084994298328
 30
0.0
 11
4850.830660057402
 21
2501.084994298328
 31
0.0
  0
LINE
  5
16F7
330
1F
100
AcDbEntity
  8
SANINDUSA
100
AcDbLine
 10
4850.830660057402
 20
2501.096994298898
 30
0.0
 11
4850.87215316031
 21
2501.096994298898
 31
0.0
  0
SPLINE
  5
16F9
330
1F
100
AcDbEntity
  8
SANINDUSA
100
AcDbSpline
210
0.0
220
0.0
230
1.0
 70
     8
 71
     3
 72
     8
 73
     4
 74
     0
 42
0.0000000001
 43
0.0000000001
 40
0.0
 40
0.0
 40
0.0
 40
0.0
 40
1.0
 40
1.0
 40
1.0
 40
1.0
 10
4850.905373655229
 20
2500.970156082216
 30
0.0
 10
4850.904684982921
 20
2500.970393202803
 30
0.0
 10
4850.904083793397
 20
2500.970562459306
 30
0.0
 10
4850.903561456647
 20
2500.970731086201
 30
0.0
  0
SPLINE
  5
1705
330
1F
100
AcDbEntity
  8
SANINDUSA
100
AcDbSpline
210
0.0
220
0.0
230
1.0
 70
    24
 71
     3
 72
    24
 73
    20
 74
     0
 42
0.0000000001
 43
0.0000000001
 40
0.0
 40
0.0
 40
0.0
 40
0.0
 40
0.1250000000000011
 40
0.1250000000000011
 40
0.1875000000000012
 40
0.1875000000000012
 40
0.2500000000000012
 40
0.2500000000000012
 40
0.3750000000000022
 40
0.3750000000000022
 40
0.4375000000000022
 40
0.4375000000000022
 40
0.5000000000000022
 40
0.5000000000000022
 40
0.6250000000000014
 40
0.6250000000000014
 40
0.7500000000000007
 40
0.7500000000000007
 40
1.0
 40
1.0
 40
1.0
 40
1.0
 10
4850.883153162905
 20
2501.061994299087
 30
0.0
 10
4850.883153162905
 20
2501.061994299087
 30
0.0
 10
4850.883077568291
 20
2501.061994299087
 30
0.0
 10
4850.882858345448
 20
2501.061994299087
 30
0.0
 10
4850.882767148533
 20
2501.061994299087
 30
0.0
 10
4850.882553665543
 20
2501.061994299087
 30
0.0
 10
4850.882431137223
 20
2501.061994299087
 30
0.0
 10
4850.882019016832
 20
2501.061994299087
 30
0.0
 10
4850.881685029975
 20
2501.061994299087
 30
0.0
 10
4850.881102179254
 20
2501.061994299087
 30
0.0
 10
4850.880894902777
 20
2501.061994299087
 30
0.0
 10
4850.880461178449
 20
2501.061994299087
 30
0.0
 10
4850.880234059044
 20
2501.061994299087
 30
0.0
 10
4850.87952487162
 20
2501.061994299087
 30
0.0
 10
4850.879014938099
 20
2501.061994299087
 30
0.0
 10
4850.877935765346
 20
2501.061994299087
 30
0.0
 10
4850.877366178477
 20
2501.061994299087
 30
0.0
 10
4850.875615011266
 20
2501.061994299087
 30
0.0
 10
4850.874384099968
 20
2501.061994299087
 30
0.0
 10
4850.873153162905
 20
2501.061994299087
 30
0.0
  0
SPLINE
  5
170B
330
1F
100
AcDbEntity
  8
SANINDUSA
100
AcDbSpline
210
0.0
220
0.0
230
1.0
 70
    24
 71
     3
 72
    19
 73
    15
 74
     0
 42
0.0000000001
 43
0.0000000001
 40
0.0
 40
0.0
 40
0.0
 40
0.0
 40
0.093155631364199
 40
0.1871547767107373
 40
0.280206918093064
 40
0.3729512372963977
 40
0.4642351883305415
 40
0.5561411889702005
 40
0.6461612429396149
 40
0.7357579624308636
 40
0.823003079874779
 40
0.9105782793651094
 40
0.995477573739037
 40
1.0
 40
1.0
 40
1.0
 40
1.0
 10
4850.830660057402
 20
2501.061994298283
 30
0.0
 10
4850.829343800427
 20
2501.061994298283
 30
0.0
 10
4850.826699367913
 20
2501.061994298283
 30
0.0
 10
4850.822800544256
 20
2501.061994298283
 30
0.0
 10
4850.819019494213
 20
2501.061994298283
 30
0.0
 10
4850.815440765666
 20
2501.061994298283
 30
0.0
 10
4850.81209028304
 20
2501.061994298283
 30
0.0
 10
4850.809031657252
 20
2501.061994298283
 30
0.0
 10
4850.806275420104
 20
2501.061994298283
 30
0.0
 10
4850.803888897375
 20
2501.061994298283
 30
0.0
 10
4850.801856464965
 20
2501.061994298283
 30
0.0
 10
4850.800272063628
 20
2501.061994298283
 30
0.0
 10
4850.799331812995
 20
2501.061994298283
 30
0.0
 10
4850.799039005001
 20
2501.061994298283
 30
0.0
 10
4850.79902419649
 20
2501.061994298283
 30
0.0
  0
SPLINE
  5
170C
330
1F
100
AcDbEntity
  8
SANINDUSA
100
AcDbSpline
210
0.0
220
0.0
230
1.0
 70
    24
 71
     3
 72
     8
 73
     4
 74
     0
 42
0.0000000001
 43
0.0000000001
 40
0.0
 40
0.0
 40
0.0
 40
0.0
 40
1.0
 40
1.0
 40
1.0
 40
1.0
 10
4850.873153162905
 20
2501.061994299087
 30
0.0
 10
4850.858988794708
 20
2501.061994299087
 30
0.0
 10
4850.844824426512
 20
2501.061994299087
 30
0.0
 10
4850.830660058315
 20
2501.061994299087
 30
0.0
  0
ARC
  5
1710
330
1F
100
AcDbEntity
  8
SANINDUSA
100
AcDbCircle
 10
4850.848558444717
 20
2501.056994299088
 30
0.0
 40
0.005
100
AcDbArc
 50
90.0
 51
226.6036848341
  0
LINE
  5
171B
330
1F
100
AcDbEntity
  8
SANINDUSA
100
AcDbLine
 10
4850.845123239941
 20
2501.053361206238
 30
0.0
 11
4850.928461422361
 21
2500.974562357102
 31
0.0
  0
LINE
  5
1720
330
1F
100
AcDbEntity
  8
SANINDUSA
100
AcDbLine
 10
4850.901394550837
 20
2500.97951136801
 30
0.0
 11
4850.815605706683
 21
2501.060627392415
 31
0.0
  0
SPLINE
  5
1722
330
1F
100
AcDbEntity
  8
SANINDUSA
100
AcDbSpline
210
0.0
220
0.0
230
1.0
 70
     8
 71
     3
 72
     8
 73
     4
 74
     0
 42
0.0000000001
 43
0.0000000001
 40
0.0
 40
0.0
 40
0.0
 40
0.0
 40
1.0
 40
1.0
 40
1.0
 40
1.0
 10
4850.900071950877
 20
2500.966440886387
 30
0.0
 10
4850.899406981497
 20
2500.967794132967
 30
0.0
 10
4850.898987808285
 20
2500.969157167509
 30
0.0
 10
4850.898812381222
 20
2500.97052812444
 30
0.0
  0
SPLINE
  5
1724
330
1F
100
AcDbEntity
  8
SANINDUSA
100
AcDbSpline
210
0.0
220
0.0
230
1.0
 70
     8
 71
     3
 72
     8
 73
     4
 74
     0
 42
0.0000000001
 43
0.0000000001
 40
0.0
 40
0.0
 40
0.0
 40
0.0
 40
1.0
 40
1.0
 40
1.0
 40
1.0
 10
4850.901045380688
 20
2500.972274231819
 30
0.0
 10
4850.900758586234
 20
2500.97276023423
 30
0.0
 10
4850.900506812325
 20
2500.973232458229
 30
0.0
 10
4850.900293343789
 20
2500.97368724389
 30
0.0
  0
SPLINE
  5
1725
330
1F
100
AcDbEntity
  8
SANINDUSA
100
AcDbSpline
210
0.0
220
0.0
230
1.0
 70
     8
 71
     3
 72
    14
 73
    10
 74
     0
 42
0.0000000001
 43
0.0000000001
 40
0.0
 40
0.0
 40
0.0
 40
0.0
 40
0.25
 40
0.25
 40
0.5
 40
0.5
 40
0.75
 40
0.75
 40
1.0
 40
1.0
 40
1.0
 40
1.0
 10
4850.903561456647
 20
2500.970731086201
 30
0.0
 10
4850.903225076237
 20
2500.97083750997
 30
0.0
 10
4850.902927073568
 20
2500.970939762954
 30
0.0
 10
4850.902396079297
 20
2500.97115478265
 30
0.0
 10
4850.90216304391
 20
2500.971267389444
 30
0.0
 10
4850.901752626132
 20
2500.971514115104
 30
0.0
 10
4850.901575385108
 20
2500.971648297808
 30
0.0
 10
4850.901273391597
 20
2500.971941325995
 30
0.0
 10
4850.90114790424
 20
2500.972100495217
 30
0.0
 10
4850.901045380688
 20
2500.972274231819
 30
0.0
  0
ARC
  5
1726
330
1F
100
AcDbEntity
  8
SANINDUSA
100
AcDbCircle
 10
4850.930471967497
 20
2500.978501637163
 30
0.0
 40
0.0042440484413303
100
AcDbArc
 50
227.3570395134516
 51
277.6223709836159
  0
ARC
  5
172A
330
1F
100
AcDbEntity
  8
SANINDUSA
100
AcDbCircle
 10
4850.975313857695
 20
2501.056992045084
 30
0.0
 40
0.0050011171698824
100
AcDbArc
 50
23.3120969504765
 51
89.98441545203961
  0
ARC
  5
1735
330
1F
100
AcDbEntity
  8
SANINDUSA
100
AcDbCircle
 10
4850.771098392094
 20
2501.079994424599
 30
0.0
 40
0.0049998737288844
100
AcDbArc
 50
10.07377125034247
 51
89.99924065005032
  0
SPLINE
  5
173A
330
1F
100
AcDbEntity
  8
SANINDUSA
100
AcDbSpline
210
0.0
220
0.0
230
1.0
 70
    24
 71
     3
 72
    10
 73
     6
 74
     0
 42
0.0000000001
 43
0.0000000001
 40
0.0
 40
0.0
 40
0.0
 40
0.0
 40
0.4931332854423975
 40
0.9999409215575926
 40
1.0
 40
1.0
 40
1.0
 40
1.0
 10
4850.898812380767
 20
2500.970528121028
 30
0.0
 10
4850.898780129289
 20
2500.970762822913
 30
0.0
 10
4850.898714732012
 20
2500.971238734853
 30
0.0
 10
4850.898696270555
 20
2500.971488350691
 30
0.0
 10
4850.898696270919
 20
2500.971403112247
 30
0.0
 10
4850.898696270919
 20
2500.971403102312
 30
0.0
  0
SPLINE
  5
173B
330
1F
100
AcDbEntity
  8
SANINDUSA
100
AcDbSpline
210
0.0
220
0.0
230
1.0
 70
    24
 71
     3
 72
     9
 73
     5
 74
     0
 42
0.0000000001
 43
0.0000000001
 40
0.0
 40
0.0
 40
0.0
 40
0.0
 40
0.605489084713857
 40
1.0
 40
1.0
 40
1.0
 40
1.0
 10
4850.900293340123
 20
2500.973687241707
 30
0.0
 10
4850.900140779991
 20
2500.973968605566
 30
0.0
 10
4850.899888818171
 20
2500.974433294141
 30
0.0
 10
4850.899900273208
 20
2500.974413005091
 30
0.0
 10
4850.899904792346
 20
2500.974405000839
 30
0.0
  0
SPLINE
  5
173C
330
1F
100
AcDbEntity
  8
SANINDUSA
100
AcDbSpline
210
0.0
220
0.0
230
1.0
 70
     8
 71
     3
 72
    47
 73
    43
 74
     0
 42
0.0000000001
 43
0.0000000001
 40
0.0
 40
0.0
 40
0.0
 40
0.0
 40
0.0175812048770741
 40
0.0383526769395233
 40
0.0591066298369519
 40
0.0800975790816109
 40
0.1013107464268483
 40
0.122726764798355
 40
0.1443198517266174
 40
0.1660581958771263
 40
0.187904451531932
 40
0.2098158523169394
 40
0.2317789321911994
 40
0.2541067418728292
 40
0.2768335039008941
 40
0.2999438161928118
 40
0.3234119321106555
 40
0.3472008686687134
 40
0.3712617043674403
 40
0.3955337992506658
 40
0.4200031199651501
 40
0.4450464876698359
 40
0.4704736001022647
 40
0.4962628268009976
 40
0.5224078975901266
 40
0.5488955378789803
 40
0.575706338045202
 40
0.6027945533300846
 40
0.630145579175739
 40
0.6577615712579979
 40
0.6856054417274123
 40
0.7136985581284297
 40
0.7420591694265497
 40
0.7707030988294232
 40
0.7996430936537854
 40
0.8288887329852771
 40
0.8584465664793594
 40
0.8883191130154374
 40
0.9185054243094644
 40
0.9490003804722887
 40
0.9797028184391042
 40
1.0
 40
1.0
 40
1.0
 40
1.0
 10
4849.864814064017
 20
2500.747220663672
 30
0.0
 10
4849.866638224907
 20
2500.74723247995
 30
0.0
 10
4849.870617557027
 20
2500.747258256678
 30
0.0
 10
4849.876738514421
 20
2500.747683214055
 30
0.0
 10
4849.883184636382
 20
2500.748411195309
 30
0.0
 10
4849.889633891955
 20
2500.749459820367
 30
0.0
 10
4849.896094105283
 20
2500.750821770821
 30
0.0
 10
4849.902544287536
 20
2500.752499516224
 30
0.0
 10
4849.908961945323
 20
2500.754489965852
 30
0.0
 10
4849.915322965927
 20
2500.756789427375
 30
0.0
 10
4849.92160217186
 20
2500.759391284169
 30
0.0
 10
4849.927775824844
 20
2500.762289856111
 30
0.0
 10
4849.933855278067
 20
2500.765489543416
 30
0.0
 10
4849.939861203723
 20
2500.768995946155
 30
0.0
 10
4849.945809874192
 20
2500.772823288656
 30
0.0
 10
4849.951686876091
 20
2500.776968539572
 30
0.0
 10
4849.957471988794
 20
2500.781424044293
 30
0.0
 10
4849.963142772193
 20
2500.786179116535
 30
0.0
 10
4849.968675137795
 20
2500.791219244861
 30
0.0
 10
4849.974046455121
 20
2500.796531532195
 30
0.0
 10
4849.979268499971
 20
2500.802130681781
 30
0.0
 10
4849.984345406324
 20
2500.808020858856
 30
0.0
 10
4849.989274135493
 20
2500.814211580911
 30
0.0
 10
4849.994029045839
 20
2500.820679160258
 30
0.0
 10
4849.998596866271
 20
2500.82741354002
 30
0.0
 10
4850.002965272589
 20
2500.834404214047
 30
0.0
 10
4850.007120197759
 20
2500.841636883676
 30
0.0
 10
4850.01104880837
 20
2500.849096280135
 30
0.0
 10
4850.014741073945
 20
2500.856768240536
 30
0.0
 10
4850.018185544794
 20
2500.864640247328
 30
0.0
 10
4850.021374458811
 20
2500.872702024659
 30
0.0
 10
4850.024301266277
 20
2500.880944614391
 30
0.0
 10
4850.026961836121
 20
2500.889364015939
 30
0.0
 10
4850.029351620559
 20
2500.89795545014
 30
0.0
 10
4850.031465912944
 20
2500.906713258208
 30
0.0
 10
4850.03329983543
 20
2500.915630825104
 30
0.0
 10
4850.034848679868
 20
2500.924700464008
 30
0.0
 10
4850.036106757221
 20
2500.933913398731
 30
0.0
 10
4850.03707228672
 20
2500.943259481622
 30
0.0
 10
4850.037729045393
 20
2500.952718186951
 30
0.0
 10
4850.038070461437
 20
2500.961167207532
 30
0.0
 10
4850.038126434401
 20
2500.966457728682
 30
0.0
 10
4850.038148710908
 20
2500.968563286906
 30
0.0
  0
SPLINE
  5
173D
330
1F
100
AcDbEntity
  8
SANINDUSA
100
AcDbSpline
210
0.0
220
0.0
230
1.0
 70
     8
 71
     3
 72
    24
 73
    20
 74
     0
 42
0.0000000001
 43
0.0000000001
 40
0.0
 40
0.0
 40
0.0
 40
0.0
 40
0.0265714812932658
 40
0.0694806229183585
 40
0.1177345415177108
 40
0.1749047859426536
 40
0.2359306880199391
 40
0.3003625388451872
 40
0.3648201872344583
 40
0.4292630253873528
 40
0.493650507271739
 40
0.5579478227079362
 40
0.6221205242648656
 40
0.68614410305005
 40
0.7501567460903909
 40
0.8140391093049498
 40
0.877799230823677
 40
0.9328597205520823
 40
0.9784553094527863
 40
0.9784553094527863
 40
0.9784553094527863
 40
0.9784553094527863
 10
4850.038167039335
 20
2500.96856385315
 30
0.0
 10
4850.03819585961
 20
2500.970986038018
 30
0.0
 10
4850.038271220505
 20
2500.977319704991
 30
0.0
 10
4850.038082236966
 20
2500.988052376072
 30
0.0
 10
4850.037638525622
 20
2501.001567290062
 30
0.0
 10
4850.036955445647
 20
2501.016725993764
 30
0.0
 10
4850.036023106074
 20
2501.03334896327
 30
0.0
 10
4850.034725999272
 20
2501.050614213033
 30
0.0
 10
4850.033098274384
 20
2501.068164064707
 30
0.0
 10
4850.031154725214
 20
2501.085677785022
 30
0.0
 10
4850.028899590179
 20
2501.103139345147
 30
0.0
 10
4850.026334384697
 20
2501.120533174006
 30
0.0
 10
4850.02346179826
 20
2501.137845272012
 30
0.0
 10
4850.020281344544
 20
2501.155077046277
 30
0.0
 10
4850.016796868732
 20
2501.172223003275
 30
0.0
 10
4850.013002662759
 20
2501.189278275515
 30
0.0
 10
4850.009106563166
 20
2501.205472765904
 30
0.0
 10
4850.005304143601
 20
2501.219971154519
 30
0.0
 10
4850.002871875238
 20
2501.228819516499
 30
0.0
 10
4850.001728189369
 20
2501.232815596496
 30
0.0
  0
SPLINE
  5
173F
330
1F
100
AcDbEntity
  8
SANINDUSA
100
AcDbSpline
210
0.0
220
0.0
230
1.0
 70
     8
 71
     3
 72
    47
 73
    43
 74
     0
 42
0.0000000001
 43
0.0000000001
 40
0.0
 40
0.0
 40
0.0
 40
0.0
 40
0.0048259351180456
 40
0.0375497796437167
 40
0.0668229167468078
 40
0.0977732611077073
 40
0.1283846149710935
 40
0.1586838010278189
 40
0.1886674446910356
 40
0.2183361557788171
 40
0.2476946936005413
 40
0.2767518400271004
 40
0.3055195950328068
 40
0.3340134545674527
 40
0.3622519585641462
 40
0.3902564599983574
 40
0.4180507361541902
 40
0.4455901533810423
 40
0.4727457809734656
 40
0.4995836816155046
 40
0.5260805833200932
 40
0.5522200650637936
 40
0.5779931935367764
 40
0.6033975366053215
 40
0.628525532072089
 40
0.653166115530413
 40
0.6775998890972196
 40
0.7017601597718589
 40
0.7255916199726446
 40
0.7490525052600747
 40
0.7721140094124311
 40
0.7947605200174744
 40
0.8170048586636468
 40
0.839009567601443
 40
0.8609634587855836
 40
0.8828233921614422
 40
0.904550187189238
 40
0.926110257020923
 40
0.9474763876490921
 40
0.9686281025749648
 40
0.9895495865485949
 40
1.0
 40
1.0
 40
1.0
 40
1.0
 10
4849.691467771709
 20
2500.968564568406
 30
0.0
 10
4849.691468496123
 20
2500.968063923215
 30
0.0
 10
4849.691474132662
 20
2500.964168488203
 30
0.0
 10
4849.691702752008
 20
2500.957238152463
 30
0.0
 10
4849.692209545325
 20
2500.94760849064
 30
0.0
 10
4849.693037488012
 20
2500.938219515798
 30
0.0
 10
4849.694184237868
 20
2500.928757512833
 30
0.0
 10
4849.695637585124
 20
2500.919438938794
 30
0.0
 10
4849.697390161778
 20
2500.910271588725
 30
0.0
 10
4849.69943757442
 20
2500.901265545239
 30
0.0
 10
4849.701774276042
 20
2500.892429562562
 30
0.0
 10
4849.704394946465
 20
2500.883771183712
 30
0.0
 10
4849.707294352885
 20
2500.875296850436
 30
0.0
 10
4849.710467279685
 20
2500.86701194477
 30
0.0
 10
4849.713908925494
 20
2500.858920968614
 30
0.0
 10
4849.717614671952
 20
2500.851027586782
 30
0.0
 10
4849.721576579788
 20
2500.843341098744
 30
0.0
 10
4849.725780047076
 20
2500.835884891481
 30
0.0
 10
4849.730211014355
 20
2500.828677788812
 30
0.0
 10
4849.734854508859
 20
2500.82173545993
 30
0.0
 10
4849.739701859688
 20
2500.815063737345
 30
0.0
 10
4849.74473962521
 20
2500.808674635758
 30
0.0
 10
4849.749955029613
 20
2500.802578081055
 30
0.0
 10
4849.75534124203
 20
2500.796774166658
 30
0.0
 10
4849.760881504433
 20
2500.791282618288
 30
0.0
 10
4849.766574263382
 20
2500.786097787484
 30
0.0
 10
4849.772403357206
 20
2500.781221739531
 30
0.0
 10
4849.778368806685
 20
2500.776650138646
 30
0.0
 10
4849.784444147706
 20
2500.772399256438
 30
0.0
 10
4849.790604719544
 20
2500.768481284671
 30
0.0
 10
4849.796828370472
 20
2500.764904981953
 30
0.0
 10
4849.803096728103
 20
2500.761674359623
 30
0.0
 10
4849.809410136952
 20
2500.758787146725
 30
0.0
 10
4849.815784366612
 20
2500.756223819868
 30
0.0
 10
4849.822233144588
 20
2500.753972452413
 30
0.0
 10
4849.828752425946
 20
2500.752033050172
 30
0.0
 10
4849.835316172633
 20
2500.75041225525
 30
0.0
 10
4849.841899278074
 20
2500.749116329069
 30
0.0
 10
4849.848478058468
 20
2500.748142038649
 30
0.0
 10
4849.855030319479
 20
2500.747511526892
 30
0.0
 10
4849.860474906206
 20
2500.747206045638
 30
0.0
 10
4849.863729731589
 20
2500.747230245379
 30
0.0
 10
4849.864813958995
 20
2500.747238306647
 30
0.0
  0
SPLINE
  5
1740
330
1F
100
AcDbEntity
  8
SANINDUSA
100
AcDbSpline
210
0.0
220
0.0
230
1.0
 70
     8
 71
     3
 72
    24
 73
    20
 74
     0
 42
0.0000000001
 43
0.0000000001
 40
0.0215052660826463
 40
0.0215052660826463
 40
0.0215052660826463
 40
0.0215052660826463
 40
0.0605782785334515
 40
0.1161223411410445
 40
0.1743500541609131
 40
0.236389915488038
 40
0.3000700947742971
 40
0.3639042886042118
 40
0.4279422021500451
 40
0.4920180116171497
 40
0.5562360758428485
 40
0.6205623575582484
 40
0.6849624462043922
 40
0.7494013463747038
 40
0.8138413662511334
 40
0.8781919966032878
 40
0.9288073041405745
 40
0.9733729060713065
 40
1.0
 40
1.0
 40
1.0
 40
1.0
 10
4849.727895871231
 20
2501.232828065821
 30
0.0
 10
4849.726920987531
 20
2501.229402118534
 30
0.0
 10
4849.724633092886
 20
2501.221085001443
 30
0.0
 10
4849.721062970736
 20
2501.207616370912
 30
0.0
 10
4849.717276672683
 20
2501.192041793382
 30
0.0
 10
4849.713575967644
 20
2501.175685719301
 30
0.0
 10
4849.710069372566
 20
2501.158764326779
 30
0.0
 10
4849.706832641809
 20
2501.14160395043
 30
0.0
 10
4849.703899968742
 20
2501.124352380893
 30
0.0
 10
4849.701272701098
 20
2501.107016288218
 30
0.0
 10
4849.698953425797
 20
2501.089609795555
 30
0.0
 10
4849.696942634557
 20
2501.072135197872
 30
0.0
 10
4849.695244341052
 20
2501.054607299664
 30
0.0
 10
4849.693854867517
 20
2501.037041676713
 30
0.0
 10
4849.692797318093
 20
2501.019457690452
 30
0.0
 10
4849.69205027923
 20
2501.003119410832
 30
0.0
 10
4849.691556255392
 20
2500.988584833244
 30
0.0
 10
4849.691354460709
 20
2500.977480797098
 30
0.0
 10
4849.691433175458
 20
2500.970991073479
 30
0.0
 10
4849.691462615908
 20
2500.968563823348
 30
0.0
  0
SPLINE
  5
1743
330
1F
100
AcDbEntity
  8
SANINDUSA
100
AcDbSpline
210
0.0
220
0.0
230
1.0
 70
     8
 71
     3
 72
    27
 73
    23
 74
     0
 42
0.0000000001
 43
0.0000000001
 40
0.0
 40
0.0
 40
0.0
 40
0.0
 40
0.0648314662927775
 40
0.1298966124876908
 40
0.1950206302910434
 40
0.2600464966605154
 40
0.3248448416939392
 40
0.3865201434895218
 40
0.4483877274204784
 40
0.5102058599686785
 40
0.5718135180094148
 40
0.6176609221006716
 40
0.6636491663879321
 40
0.709598677224642
 40
0.7553928320269706
 40
0.7917630342691274
 40
0.8282530852041125
 40
0.8647192474687754
 40
0.9010566421359282
 40
0.9467073389638416
 40
0.9733537698478111
 40
1.0
 40
1.0
 40
1.0
 40
1.0
 10
4849.994695419848
 20
2500.968564926034
 30
0.0
 10
4849.994594851644
 20
2500.963318148393
 30
0.0
 10
4849.994393352745
 20
2500.952805681515
 30
0.0
 10
4849.992766941026
 20
2500.937091902543
 30
0.0
 10
4849.990162766575
 20
2500.921502594758
 30
0.0
 10
4849.986476897642
 20
2500.906150824465
 30
0.0
 10
4849.981794828021
 20
2500.891365701115
 30
0.0
 10
4849.976138890021
 20
2500.877200064688
 30
0.0
 10
4849.969549469232
 20
2500.863710127753
 30
0.0
 10
4849.961912633119
 20
2500.850788634001
 30
0.0
 10
4849.953951839087
 20
2500.839619280232
 30
0.0
 10
4849.945938653551
 20
2500.830122239536
 30
0.0
 10
4849.938132445644
 20
2500.822146931814
 30
0.0
 10
4849.929724059587
 20
2500.81481402087
 30
0.0
 10
4849.921347987485
 20
2500.808681823888
 30
0.0
 10
4849.913142927422
 20
2500.803678985825
 30
0.0
 10
4849.905246790495
 20
2500.799670198686
 30
0.0
 10
4849.89705310373
 20
2500.79631563215
 30
0.0
 10
4849.887890637923
 20
2500.793459338293
 30
0.0
 10
4849.879251247322
 20
2500.79173283325
 30
0.0
 10
4849.871283652098
 20
2500.79086516416
 30
0.0
 10
4849.866970520854
 20
2500.790777338119
 30
0.0
 10
4849.864813963354
 20
2500.790733425265
 30
0.0
  0
SPLINE
  5
1745
330
1F
100
AcDbEntity
  8
SANINDUSA
100
AcDbSpline
210
0.0
220
0.0
230
1.0
 70
     8
 71
     3
 72
    27
 73
    23
 74
     0
 42
0.0000000001
 43
0.0000000001
 40
0.0
 40
0.0
 40
0.0
 40
0.0
 40
0.0648314662927775
 40
0.1298966124876908
 40
0.1950206302910434
 40
0.2600464966605154
 40
0.3248448416939392
 40
0.3865201434895218
 40
0.4483877274204784
 40
0.5102058599686785
 40
0.5718135180094148
 40
0.6176609221006716
 40
0.6636491663879321
 40
0.709598677224642
 40
0.7553928320269706
 40
0.7917630342691274
 40
0.8282530852041125
 40
0.8647192474687754
 40
0.9010566421359282
 40
0.9467073389638416
 40
0.9733537698478111
 40
1.0
 40
1.0
 40
1.0
 40
1.0
 10
4849.734932506859
 20
2500.968564926034
 30
0.0
 10
4849.735033075064
 20
2500.963318148393
 30
0.0
 10
4849.735234573963
 20
2500.952805681515
 30
0.0
 10
4849.736860985683
 20
2500.937091902543
 30
0.0
 10
4849.739465160133
 20
2500.921502594758
 30
0.0
 10
4849.743151029066
 20
2500.906150824465
 30
0.0
 10
4849.747833098687
 20
2500.891365701115
 30
0.0
 10
4849.753489036688
 20
2500.877200064688
 30
0.0
 10
4849.760078457478
 20
2500.863710127753
 30
0.0
 10
4849.767715293589
 20
2500.850788634001
 30
0.0
 10
4849.775676087622
 20
2500.839619280232
 30
0.0
 10
4849.783689273158
 20
2500.830122239536
 30
0.0
 10
4849.791495481063
 20
2500.822146931814
 30
0.0
 10
4849.799903867122
 20
2500.81481402087
 30
0.0
 10
4849.808279939225
 20
2500.808681823888
 30
0.0
 10
4849.816484999286
 20
2500.803678985825
 30
0.0
 10
4849.824381136214
 20
2500.799670198686
 30
0.0
 10
4849.832574822978
 20
2500.79631563215
 30
0.0
 10
4849.841737288787
 20
2500.793459338293
 30
0.0
 10
4849.850376679386
 20
2500.79173283325
 30
0.0
 10
4849.85834427461
 20
2500.79086516416
 30
0.0
 10
4849.862657405855
 20
2500.790777338119
 30
0.0
 10
4849.864813963354
 20
2500.790733425265
 30
0.0
  0
SPLINE
  5
1763
330
1F
100
AcDbEntity
  8
SANINDUSA
100
AcDbSpline
210
0.0
220
0.0
230
1.0
 70
     8
 71
     3
 72
    14
 73
    10
 74
     0
 42
0.0000000001
 43
0.0000000001
 40
0.0
 40
0.0
 40
0.0
 40
0.0
 40
0.25
 40
0.25
 40
0.5
 40
0.5
 40
0.75
 40
0.75
 40
1.0
 40
1.0
 40
1.0
 40
1.0
 10
4849.985530482982
 20
2501.076835425131
 30
0.0
 10
4849.987055834106
 20
2501.067895178672
 30
0.0
 10
4849.988388973442
 20
2501.058930419057
 30
0.0
 10
4849.990676742053
 20
2501.040952627683
 30
0.0
 10
4849.991633598598
 20
2501.031939690945
 30
0.0
 10
4849.993167967103
 20
2501.013866198891
 30
0.0
 10
4849.993742901129
 20
2501.004819038217
 30
0.0
 10
4849.994506655984
 20
2500.986703800212
 30
0.0
 10
4849.994695422832
 20
2500.977634244023
 30
0.0
 10
4849.99469542322
 20
2500.968564924554
 30
0.0
  0
SPLINE
  5
1766
330
1F
100
AcDbEntity
  8
SANINDUSA
100
AcDbSpline
210
0.0
220
0.0
230
1.0
 70
     8
 71
     3
 72
    36
 73
    32
 74
     0
 42
0.0000000001
 43
0.0000000001
 40
0.0
 40
0.0
 40
0.0
 40
0.0
 40
0.0625000000000006
 40
0.0625000000000006
 40
0.1250000000000012
 40
0.1250000000000012
 40
0.2500000000000022
 40
0.2500000000000022
 40
0.2812500000000024
 40
0.2812500000000024
 40
0.3125000000000027
 40
0.3125000000000027
 40
0.3750000000000034
 40
0.3750000000000034
 40
0.5000000000000054
 40
0.5000000000000054
 40
0.5312500000000055
 40
0.5312500000000055
 40
0.5625000000000055
 40
0.5625000000000055
 40
0.6250000000000057
 40
0.6250000000000057
 40
0.7500000000000064
 40
0.7500000000000064
 40
0.7812500000000058
 40
0.7812500000000058
 40
0.8125000000000049
 40
0.8125000000000049
 40
0.8750000000000033
 40
0.8750000000000033
 40
1.0
 40
1.0
 40
1.0
 40
1.0
 10
4849.946172461669
 20
2501.110165608834
 30
0.0
 10
4849.947351335381
 20
2501.110165870628
 30
0.0
 10
4849.948531953513
 20
2501.110113455573
 30
0.0
 10
4849.950866856679
 20
2501.109906358781
 30
0.0
 10
4849.952022991611
 20
2501.109751957669
 30
0.0
 10
4849.955458206697
 20
2501.109139612426
 30
0.0
 10
4849.957704350103
 20
2501.108533663096
 30
0.0
 10
4849.960455709155
 20
2501.107523144888
 30
0.0
 10
4849.96100424911
 20
2501.1073078265
 30
0.0
 10
4849.962090264249
 20
2501.106853405139
 30
0.0
 10
4849.962626278141
 20
2501.106614978633
 30
0.0
 10
4849.96421373
 20
2501.10586667902
 30
0.0
 10
4849.965244617403
 20
2501.105323848776
 30
0.0
 10
4849.968256663106
 20
2501.103566072571
 30
0.0
 10
4849.970157825632
 20
2501.102222836613
 30
0.0
 10
4849.972396765116
 20
2501.100323259652
 30
0.0
 10
4849.97283849495
 20
2501.099931372974
 30
0.0
 10
4849.973699914982
 20
2501.099132445005
 30
0.0
 10
4849.974120397614
 20
2501.098724802517
 30
0.0
 10
4849.975351691468
 20
2501.097477761854
 30
0.0
 10
4849.976132405657
 20
2501.096614296068
 30
0.0
 10
4849.9783561568
 20
2501.093929224964
 30
0.0
 10
4849.979681722938
 20
2501.092013682086
 30
0.0
 10
4849.981135664116
 20
2501.089456907849
 30
0.0
 10
4849.981415819139
 20
2501.088937942596
 30
0.0
 10
4849.981950245693
 20
2501.087893879579
 30
0.0
 10
4849.982205225055
 20
2501.087367563327
 30
0.0
 10
4849.982934033204
 20
2501.085775960604
 30
0.0
 10
4849.983371799805
 20
2501.084698043897
 30
0.0
 10
4849.984542795933
 20
2501.08141445406
 30
0.0
 10
4849.985134842645
 20
2501.079159333778
 30
0.0
 10
4849.985530482982
 20
2501.076835425131
 30
0.0
  0
LINE
  5
176E
330
1F
100
AcDbEntity
  8
SANINDUSA
100
AcDbLine
 10
4849.946172463179
 20
2501.110165609365
 30
0.0
 11
4849.783455463529
 21
2501.110165609365
 31
0.0
  0
SPLINE
  5
1770
330
1F
100
AcDbEntity
  8
SANINDUSA
100
AcDbSpline
210
0.0
220
0.0
230
1.0
 70
     8
 71
     3
 72
    36
 73
    32
 74
     0
 42
0.0000000001
 43
0.0000000001
 40
0.0
 40
0.0
 40
0.0
 40
0.0
 40
0.0625000000000006
 40
0.0625000000000006
 40
0.1250000000000012
 40
0.1250000000000012
 40
0.2500000000000022
 40
0.2500000000000022
 40
0.2812500000000024
 40
0.2812500000000024
 40
0.3125000000000027
 40
0.3125000000000027
 40
0.3750000000000034
 40
0.3750000000000034
 40
0.5000000000000054
 40
0.5000000000000054
 40
0.5312500000000055
 40
0.5312500000000055
 40
0.5625000000000055
 40
0.5625000000000055
 40
0.6250000000000057
 40
0.6250000000000057
 40
0.7500000000000064
 40
0.7500000000000064
 40
0.7812500000000058
 40
0.7812500000000058
 40
0.8125000000000049
 40
0.8125000000000049
 40
0.8750000000000033
 40
0.8750000000000033
 40
1.0
 40
1.0
 40
1.0
 40
1.0
 10
4849.783455465041
 20
2501.110165608834
 30
0.0
 10
4849.782276591326
 20
2501.110165870628
 30
0.0
 10
4849.781095973195
 20
2501.110113455573
 30
0.0
 10
4849.77876107003
 20
2501.109906358781
 30
0.0
 10
4849.777604935098
 20
2501.109751957669
 30
0.0
 10
4849.774169720012
 20
2501.109139612426
 30
0.0
 10
4849.771923576605
 20
2501.108533663096
 30
0.0
 10
4849.769172217553
 20
2501.107523144888
 30
0.0
 10
4849.768623677598
 20
2501.1073078265
 30
0.0
 10
4849.767537662461
 20
2501.106853405139
 30
0.0
 10
4849.767001648566
 20
2501.106614978633
 30
0.0
 10
4849.765414196707
 20
2501.10586667902
 30
0.0
 10
4849.764383309305
 20
2501.105323848776
 30
0.0
 10
4849.761371263603
 20
2501.103566072571
 30
0.0
 10
4849.759470101077
 20
2501.102222836613
 30
0.0
 10
4849.757231161593
 20
2501.100323259652
 30
0.0
 10
4849.756789431758
 20
2501.099931372974
 30
0.0
 10
4849.755928011727
 20
2501.099132445005
 30
0.0
 10
4849.755507529095
 20
2501.098724802517
 30
0.0
 10
4849.75427623524
 20
2501.097477761854
 30
0.0
 10
4849.75349552105
 20
2501.096614296068
 30
0.0
 10
4849.75127176991
 20
2501.093929224964
 30
0.0
 10
4849.749946203769
 20
2501.092013682086
 30
0.0
 10
4849.748492262593
 20
2501.089456907849
 30
0.0
 10
4849.748212107569
 20
2501.088937942596
 30
0.0
 10
4849.747677681016
 20
2501.087893879579
 30
0.0
 10
4849.747422701653
 20
2501.087367563327
 30
0.0
 10
4849.746693893504
 20
2501.085775960604
 30
0.0
 10
4849.746256126904
 20
2501.084698043897
 30
0.0
 10
4849.745085130776
 20
2501.08141445406
 30
0.0
 10
4849.744493084063
 20
2501.079159333778
 30
0.0
 10
4849.744097443727
 20
2501.076835425131
 30
0.0
  0
SPLINE
  5
1778
330
1F
100
AcDbEntity
  8
SANINDUSA
100
AcDbSpline
210
0.0
220
0.0
230
1.0
 70
     8
 71
     3
 72
    14
 73
    10
 74
     0
 42
0.0000000001
 43
0.0000000001
 40
0.0
 40
0.0
 40
0.0
 40
0.0
 40
0.25
 40
0.25
 40
0.5
 40
0.5
 40
0.75
 40
0.75
 40
1.0
 40
1.0
 40
1.0
 40
1.0
 10
4849.744097443727
 20
2501.076835425131
 30
0.0
 10
4849.742572092602
 20
2501.067895178672
 30
0.0
 10
4849.741238953266
 20
2501.058930419057
 30
0.0
 10
4849.738951184654
 20
2501.040952627683
 30
0.0
 10
4849.73799432811
 20
2501.031939690945
 30
0.0
 10
4849.736459959604
 20
2501.013866198891
 30
0.0
 10
4849.73588502558
 20
2501.004819038217
 30
0.0
 10
4849.735121270724
 20
2500.986703800212
 30
0.0
 10
4849.734932503876
 20
2500.977634244023
 30
0.0
 10
4849.734932503487
 20
2500.968564924554
 30
0.0
  0
ARC
  5
17C5
330
1F
100
AcDbEntity
  8
SANINDUSA
100
AcDbCircle
 10
4849.862790370857
 20
2500.970968355997
 30
0.0
 40
0.039916615655668
100
AcDbArc
 50
282.0535799900932
 51
358.7682567290215
  0
ARC
  5
17C6
330
1F
100
AcDbEntity
  8
SANINDUSA
100
AcDbCircle
 10
4849.866837555851
 20
2500.970968355997
 30
0.0
 40
0.0399166156556669
100
AcDbArc
 50
181.2317432709784
 51
257.9464200099068
  0
SPLINE
  5
17C8
330
1F
100
AcDbEntity
  8
SANINDUSA
100
AcDbSpline
210
0.0
220
0.0
230
1.0
 70
     8
 71
     3
 72
    10
 73
     6
 74
     0
 42
0.0000000001
 43
0.0000000001
 40
0.0
 40
0.0
 40
0.0
 40
0.0
 40
0.5
 40
0.5
 40
1.0
 40
1.0
 40
1.0
 40
1.0
 10
4849.858501916202
 20
2500.931931793604
 30
0.0
 10
4849.860574320381
 20
2500.931488374075
 30
0.0
 10
4849.862694106271
 20
2500.931264162272
 30
0.0
 10
4849.866933820438
 20
2500.931264162272
 30
0.0
 10
4849.869053606327
 20
2500.931488374075
 30
0.0
 10
4849.871126010508
 20
2500.931931793604
 30
0.0
  0
SPLINE
  5
17CC
330
1F
100
AcDbEntity
  8
SANINDUSA
100
AcDbSpline
210
0.0
220
0.0
230
1.0
 70
     8
 71
     3
 72
    16
 73
    12
 74
     0
 42
0.0000000001
 43
0.0000000001
 40
0.0
 40
0.0
 40
0.0
 40
0.0
 40
0.1097776115823403
 40
0.2195468694329216
 40
0.3260168419743399
 40
0.4324828051244123
 40
0.5376182986824917
 40
0.6427574252650082
 40
0.7476729240738895
 40
0.8525978177945164
 40
1.0
 40
1.0
 40
1.0
 40
1.0
 10
4849.888210151747
 20
2501.004887132293
 30
0.0
 10
4849.889072778043
 20
2501.004843736961
 30
0.0
 10
4849.890797964989
 20
2501.004756949601
 30
0.0
 10
4849.893282790191
 20
2501.004074453424
 30
0.0
 10
4849.895588167363
 20
2501.003008088068
 30
0.0
 10
4849.897652550919
 20
2501.001583231888
 30
0.0
 10
4849.899431321153
 20
2500.999830137462
 30
0.0
 10
4849.900893164362
 20
2500.997815244684
 30
0.0
 10
4849.90198195694
 20
2500.995580358835
 30
0.0
 10
4849.902827841482
 20
2500.992876178673
 30
0.0
 10
4849.902919621618
 20
2500.99088115739
 30
0.0
 10
4849.902973236919
 20
2500.989715723639
 30
0.0
  0
SPLINE
  5
17CE
330
1F
100
AcDbEntity
  8
SANINDUSA
100
AcDbSpline
210
0.0
220
0.0
230
1.0
 70
     8
 71
     3
 72
    16
 73
    12
 74
     0
 42
0.0000000001
 43
0.0000000001
 40
0.0
 40
0.0
 40
0.0
 40
0.0
 40
0.1097776115823403
 40
0.2195468694329216
 40
0.3260168419743399
 40
0.4324828051244123
 40
0.5376182986824917
 40
0.6427574252650082
 40
0.7476729240738895
 40
0.8525978177945164
 40
1.0
 40
1.0
 40
1.0
 40
1.0
 10
4849.84141777496
 20
2501.004887132293
 30
0.0
 10
4849.840555148666
 20
2501.004843736961
 30
0.0
 10
4849.83882996172
 20
2501.004756949601
 30
0.0
 10
4849.836345136518
 20
2501.004074453424
 30
0.0
 10
4849.834039759344
 20
2501.003008088068
 30
0.0
 10
4849.831975375789
 20
2501.001583231888
 30
0.0
 10
4849.830196605555
 20
2500.999830137462
 30
0.0
 10
4849.828734762347
 20
2500.997815244684
 30
0.0
 10
4849.827645969768
 20
2500.995580358835
 30
0.0
 10
4849.826800085227
 20
2500.992876178673
 30
0.0
 10
4849.826708305091
 20
2500.99088115739
 30
0.0
 10
4849.826654689789
 20
2500.989715723639
 30
0.0
  0
SPLINE
  5
17CF
330
1F
100
AcDbEntity
  8
SANINDUSA
100
AcDbSpline
210
0.0
220
0.0
230
1.0
 70
     8
 71
     3
 72
    11
 73
     7
 74
     0
 42
0.0000000001
 43
0.0000000001
 40
0.0
 40
0.0
 40
0.0
 40
0.0
 40
0.2628577529030001
 40
0.5329892369426858
 40
0.7586336272956595
 40
1.0
 40
1.0
 40
1.0
 40
1.0
 10
4849.866915478076
 20
2501.004839657193
 30
0.0
 10
4849.868782903669
 20
2501.004854666457
 30
0.0
 10
4849.872569429772
 20
2501.004885100317
 30
0.0
 10
4849.877960127797
 20
2501.004863734855
 30
0.0
 10
4849.883191857917
 20
2501.004882546999
 30
0.0
 10
4849.886500261185
 20
2501.004885569939
 30
0.0
 10
4849.888210151747
 20
2501.004887132293
 30
0.0
  0
SPLINE
  5
17D2
330
1F
100
AcDbEntity
  8
SANINDUSA
100
AcDbSpline
210
0.0
220
0.0
230
1.0
 70
     8
 71
     3
 72
    11
 73
     7
 74
     0
 42
0.0000000001
 43
0.0000000001
 40
0.0
 40
0.0
 40
0.0
 40
0.0
 40
0.2628577529030001
 40
0.5329892369426858
 40
0.7586336272956595
 40
1.0
 40
1.0
 40
1.0
 40
1.0
 10
4849.862712448633
 20
2501.004839657193
 30
0.0
 10
4849.860845023038
 20
2501.004854666457
 30
0.0
 10
4849.857058496937
 20
2501.004885100317
 30
0.0
 10
4849.851667798913
 20
2501.004863734855
 30
0.0
 10
4849.846436068791
 20
2501.004882546999
 30
0.0
 10
4849.843127665524
 20
2501.004885569939
 30
0.0
 10
4849.84141777496
 20
2501.004887132293
 30
0.0
  0
SPLINE
  5
17D3
330
1F
100
AcDbEntity
  8
SANINDUSA
100
AcDbSpline
210
0.0
220
0.0
230
1.0
 70
    24
 71
     1
 72
     4
 73
     2
 74
     0
 42
0.0000000001
 43
0.0000000001
 40
0.0
 40
0.0
 40
1.0
 40
1.0
 10
4849.866915478076
 20
2501.004839657193
 30
0.0
 10
4849.864813963354
 20
2501.004829196578
 30
0.0
  0
SPLINE
  5
17D4
330
1F
100
AcDbEntity
  8
SANINDUSA
100
AcDbSpline
210
0.0
220
0.0
230
1.0
 70
    24
 71
     1
 72
     4
 73
     2
 74
     0
 42
0.0000000001
 43
0.0000000001
 40
0.0
 40
0.0
 40
1.0
 40
1.0
 10
4849.864813963354
 20
2501.004829196578
 30
0.0
 10
4849.862712448633
 20
2501.004839657193
 30
0.0
  0
ELLIPSE
  5
17DF
330
1F
100
AcDbEntity
  8
SANINDUSA
100
AcDbEllipse
 10
4849.903273292376
 20
2500.999945957186
 30
0.0
 11
-0.0005238115180411
 21
-0.0299999986071336
 31
0.0
210
0.0
220
0.0
230
1.0
 40
0.0174524048171845
 41
4.942034496596837
 42
6.1787702777542
  0
ELLIPSE
  5
17E0
330
1F
100
AcDbEntity
  8
SANINDUSA
100
AcDbEllipse
 10
4849.826354634332
 20
2500.999945957186
 30
0.0
 11
0.0005238115180413
 21
-0.0299999986071336
 31
0.0
210
0.0
220
0.0
230
1.0
 40
0.017452404817194
 41
0.1044150294261421
 42
1.341150810582898
  0
SPLINE
  5
17E6
330
1F
100
AcDbEntity
  8
SANINDUSA
100
AcDbSpline
210
0.0
220
0.0
230
1.0
 70
     8
 71
     3
 72
    34
 73
    30
 74
     0
 42
0.0000000001
 43
0.0000000001
 40
0.0
 40
0.0
 40
0.0
 40
0.0
 40
0.036419196565431
 40
0.0762157018999058
 40
0.1093629637424906
 40
0.1389598460214305
 40
0.1675914950029093
 40
0.2210788831998692
 40
0.2710219657288262
 40
0.3236329453813411
 40
0.3722273456242071
 40
0.419598256290658
 40
0.4668874689702232
 40
0.4985612788444931
 40
0.5304737898349036
 40
0.5627261076747981
 40
0.5940504479027206
 40
0.6210474049758734
 40
0.6443740452290659
 40
0.660064863982483
 40
0.6779715250884372
 40
0.698349891121111
 40
0.7240682891930519
 40
0.7559532609138263
 40
0.7940215417961193
 40
0.8382866348705325
 40
0.888760787697474
 40
0.9454562460423275
 40
0.9999999999999998
 40
0.9999999999999998
 40
0.9999999999999998
 40
0.9999999999999998
 10
4850.514965943969
 20
2500.942494557221
 30
0.0
 10
4850.515519857006
 20
2500.943604468818
 30
0.0
 10
4850.516679049818
 20
2500.94592721889
 30
0.0
 10
4850.518435479603
 20
2500.94945262718
 30
0.0
 10
4850.520185494938
 20
2500.952974896736
 30
0.0
 10
4850.521817242288
 20
2500.956270721188
 30
0.0
 10
4850.5238312936
 20
2500.960354844857
 30
0.0
 10
4850.526272659199
 20
2500.965338085795
 30
0.0
 10
4850.529243659236
 20
2500.971468479593
 30
0.0
 10
4850.532218233542
 20
2500.977687406723
 30
0.0
 10
4850.535231621305
 20
2500.984085484257
 30
0.0
 10
4850.538307637421
 20
2500.990729080597
 30
0.0
 10
4850.541137995637
 20
2500.996963276948
 30
0.0
 10
4850.543681865175
 20
2501.002671988727
 30
0.0
 10
4850.545910758381
 20
2501.007754725825
 30
0.0
 10
4850.548149992445
 20
2501.012950142087
 30
0.0
 10
4850.550279139259
 20
2501.017980844864
 30
0.0
 10
4850.552202075904
 20
2501.022604563179
 30
0.0
 10
4850.553769077069
 20
2501.026433421938
 30
0.0
 10
4850.555109479318
 20
2501.029751368589
 30
0.0
 10
4850.55637008303
 20
2501.032907069393
 30
0.0
 10
4850.557849419519
 20
2501.036658690675
 30
0.0
 10
4850.559633870329
 20
2501.041257691201
 30
0.0
 10
4850.561787223746
 20
2501.046922389028
 30
0.0
 10
4850.564303308275
 20
2501.05371263334
 30
0.0
 10
4850.567152706343
 20
2501.06163996439
 30
0.0
 10
4850.570296096667
 20
2501.070719395711
 30
0.0
 10
4850.573541707653
 20
2501.080455143149
 30
0.0
 10
4850.575649467682
 20
2501.087193272768
 30
0.0
 10
4850.576682962454
 20
2501.090497169626
 30
0.0
  0
SPLINE
  5
17E7
330
1F
100
AcDbEntity
  8
SANINDUSA
100
AcDbSpline
210
0.0
220
0.0
230
1.0
 70
     8
 71
     3
 72
    33
 73
    29
 74
     0
 42
0.0000000001
 43
0.0000000001
 40
0.0
 40
0.0
 40
0.0
 40
0.0
 40
0.0545472411495955
 40
0.1112463242531072
 40
0.1617237040867231
 40
0.2059916271987456
 40
0.2440623419326163
 40
0.2759493521822374
 40
0.3016693945302599
 40
0.3220490634302334
 40
0.3399568693778872
 40
0.3556486913056816
 40
0.3840180292810643
 40
0.4180237554462378
 40
0.4566923032747112
 40
0.4950996767039901
 40
0.5331338355057481
 40
0.5804260715665172
 40
0.6278000108374384
 40
0.676397517907168
 40
0.7290118611819127
 40
0.7931874896680629
 40
0.8631591551437715
 40
0.8863879633403859
 40
0.9112320817391367
 40
0.9400612661843055
 40
0.973033370571356
 40
1.0
 40
1.0
 40
1.0
 40
1.0
 10
4850.230608828344
 20
2501.090497169626
 30
0.0
 10
4850.231642323113
 20
2501.087193272772
 30
0.0
 10
4850.233750083138
 20
2501.080455143164
 30
0.0
 10
4850.236995694153
 20
2501.070719395653
 30
0.0
 10
4850.24013908438
 20
2501.061639964574
 30
0.0
 10
4850.242988482744
 20
2501.053712632779
 30
0.0
 10
4850.245504566395
 20
2501.046922390685
 30
0.0
 10
4850.247657922327
 20
2501.041257686512
 30
0.0
 10
4850.249442366262
 20
2501.03665870334
 30
0.0
 10
4850.250921721586
 20
2501.03290703451
 30
0.0
 10
4850.2521822688
 20
2501.029751476327
 30
0.0
 10
4850.253641596935
 20
2501.02613913695
 30
0.0
 10
4850.255494846099
 20
2501.021618560934
 30
0.0
 10
4850.257870443634
 20
2501.015936663315
 30
0.0
 10
4850.260481087698
 20
2501.009824729099
 30
0.0
 10
4850.263167105472
 20
2501.00366908456
 30
0.0
 10
4850.266011411047
 20
2500.997276888557
 30
0.0
 10
4850.268984141202
 20
2500.990729109691
 30
0.0
 10
4850.272060155874
 20
2500.984085511803
 30
0.0
 10
4850.275073628584
 20
2500.977687257555
 30
0.0
 10
4850.278327821339
 20
2500.97088373502
 30
0.0
 10
4850.281868803237
 20
2500.963591086498
 30
0.0
 10
4850.284736998209
 20
2500.957761162795
 30
0.0
 10
4850.286838110283
 20
2500.953516532626
 30
0.0
 10
4850.288176821045
 20
2500.95081958528
 30
0.0
 10
4850.289599072045
 20
2500.947961362128
 30
0.0
 10
4850.29100757039
 20
2500.945135955956
 30
0.0
 10
4850.291916735852
 20
2500.943314210896
 30
0.0
 10
4850.292325772322
 20
2500.942494601924
 30
0.0
  0
SPLINE
  5
17E8
330
1F
100
AcDbEntity
  8
SANINDUSA
100
AcDbSpline
210
0.0
220
0.0
230
1.0
 70
    24
 71
     1
 72
     4
 73
     2
 74
     0
 42
0.0000000001
 43
0.0000000001
 40
0.0
 40
0.0
 40
1.0
 40
1.0
 10
4850.518645897484
 20
2500.706992642005
 30
0.0
 10
4850.512394629396
 20
2500.930791393836
 30
0.0
  0
SPLINE
  5
17E9
330
1F
100
AcDbEntity
  8
SANINDUSA
100
AcDbSpline
210
0.0
220
0.0
230
1.0
 70
    24
 71
     1
 72
     4
 73
     2
 74
     0
 42
0.0000000001
 43
0.0000000001
 40
0.0
 40
0.0
 40
1.0
 40
1.0
 10
4850.294897161401
 20
2500.930791393836
 30
0.0
 10
4850.288645893312
 20
2500.706992642005
 30
0.0
  0
SPLINE
  5
17EA
330
1F
100
AcDbEntity
  8
SANINDUSA
100
AcDbSpline
210
0.0
220
0.0
230
1.0
 70
     8
 71
     3
 72
    12
 73
     8
 74
     0
 42
0.0000000001
 43
0.0000000001
 40
0.0
 40
0.0
 40
0.0
 40
0.0
 40
0.1088312979720774
 40
0.3446263325258471
 40
0.5777434642628656
 40
0.8076414651074273
 40
1.0
 40
1.0
 40
1.0
 40
1.0
 10
4850.29228094963
 20
2500.942472697218
 30
0.0
 10
4850.292474830376
 20
2500.942101989334
 30
0.0
 10
4850.293088775185
 20
2500.940928101855
 30
0.0
 10
4850.293864677133
 20
2500.938725282618
 30
0.0
 10
4850.294545193754
 20
2500.935965744249
 30
0.0
 10
4850.294901946886
 20
2500.933289060943
 30
0.0
 10
4850.29488548349
 20
2500.931571839481
 30
0.0
 10
4850.294877983607
 20
2500.930789560993
 30
0.0
  0
SPLINE
  5
17EB
330
1F
100
AcDbEntity
  8
SANINDUSA
100
AcDbSpline
210
0.0
220
0.0
230
1.0
 70
     8
 71
     3
 72
    12
 73
     8
 74
     0
 42
0.0000000001
 43
0.0000000001
 40
0.0
 40
0.0
 40
0.0
 40
0.0
 40
0.1605282718567209
 40
0.390598370032095
 40
0.6172914105382266
 40
0.8407639463198627
 40
1.0
 40
1.0
 40
1.0
 40
1.0
 10
4850.512429028727
 20
2500.930790410359
 30
0.0
 10
4850.512412481069
 20
2500.931441736478
 30
0.0
 10
4850.51237221721
 20
2500.933026547162
 30
0.0
 10
4850.512678196117
 20
2500.935552713759
 30
0.0
 10
4850.51328843551
 20
2500.938257903988
 30
0.0
 10
4850.514073673084
 20
2500.940594493537
 30
0.0
 10
4850.514729670579
 20
2500.941926687606
 30
0.0
 10
4850.515002615727
 20
2500.942480982264
 30
0.0
  0
ARC
  5
17EC
330
1F
100
AcDbEntity
  8
SANINDUSA
100
AcDbCircle
 10
4850.571942266903
 20
2501.091992635806
 30
0.0
 40
0.0050000000046916
100
AcDbArc
 50
342.7787346782509
 51
90.0
  0
SPLINE
  5
17EE
330
1F
100
AcDbEntity
  8
SANINDUSA
100
AcDbSpline
210
0.0
220
0.0
230
1.0
 70
    24
 71
     3
 72
    30
 73
    26
 74
     0
 42
0.0000000001
 43
0.0000000001
 40
0.0
 40
0.0
 40
0.0
 40
0.0
 40
0.0374891960329169
 40
0.0749783449979199
 40
0.1298929246919239
 40
0.1849840722540508
 40
0.2401108522517704
 40
0.295155743902236
 40
0.3500314955787133
 40
0.3911290447838593
 40
0.4322553285552177
 40
0.4733479908161005
 40
0.5178381467271694
 40
0.5625034230913421
 40
0.6071972023512588
 40
0.6518030832738745
 40
0.6962432072290267
 40
0.7372557771894736
 40
0.7784037758025657
 40
0.8195287707379343
 40
0.8605098960692762
 40
0.8953320616145148
 40
0.9302634006348776
 40
0.9651875682169869
 40
1.0
 40
1.0
 40
1.0
 40
1.0
 10
4850.571942262329
 20
2501.096992635616
 30
0.0
 10
4850.571899059893
 20
2501.096992635616
 30
0.0
 10
4850.571812655077
 20
2501.096992635616
 30
0.0
 10
4850.571014787449
 20
2501.096992635616
 30
0.0
 10
4850.569412982323
 20
2501.096992635616
 30
0.0
 10
4850.566593868839
 20
2501.096992635616
 30
0.0
 10
4850.562749788764
 20
2501.096992635616
 30
0.0
 10
4850.557858558616
 20
2501.096992635616
 30
0.0
 10
4850.552389773146
 20
2501.096992635616
 30
0.0
 10
4850.546627495694
 20
2501.096992635616
 30
0.0
 10
4850.540841605841
 20
2501.096992635616
 30
0.0
 10
4850.534272561668
 20
2501.096992635616
 30
0.0
 10
4850.526839284761
 20
2501.096992635616
 30
0.0
 10
4850.518479763469
 20
2501.096992635616
 30
0.0
 10
4850.509402086029
 20
2501.096992635616
 30
0.0
 10
4850.499636857453
 20
2501.096992635616
 30
0.0
 10
4850.489468342911
 20
2501.096992635616
 30
0.0
 10
4850.478955808937
 20
2501.096992635616
 30
0.0
 10
4850.468191995076
 20
2501.096992635616
 30
0.0
 10
4850.456953991239
 20
2501.096992635616
 30
0.0
 10
4850.445889962855
 20
2501.096992635616
 30
0.0
 10
4850.435115070684
 20
2501.096992635616
 30
0.0
 10
4850.424733801057
 20
2501.096992635616
 30
0.0
 10
4850.414219424004
 20
2501.096992635616
 30
0.0
 10
4850.407166638148
 20
2501.096992635616
 30
0.0
 10
4850.403645895399
 20
2501.096992635616
 30
0.0
  0
ARC
  5
17F0
330
1F
100
AcDbEntity
  8
SANINDUSA
100
AcDbCircle
 10
4850.235349523895
 20
2501.091992635806
 30
0.0
 40
0.0050000000046916
100
AcDbArc
 50
90.0
 51
197.2212653217491
  0
SPLINE
  5
17F1
330
1F
100
AcDbEntity
  8
SANINDUSA
100
AcDbSpline
210
0.0
220
0.0
230
1.0
 70
    24
 71
     3
 72
    30
 73
    26
 74
     0
 42
0.0000000001
 43
0.0000000001
 40
0.0
 40
0.0
 40
0.0
 40
0.0
 40
0.0374891960329169
 40
0.0749783449979199
 40
0.1298929246919239
 40
0.1849840722540508
 40
0.2401108522517704
 40
0.295155743902236
 40
0.3500314955787133
 40
0.3911290447838593
 40
0.4322553285552177
 40
0.4733479908161005
 40
0.5178381467271694
 40
0.5625034230913421
 40
0.6071972023512588
 40
0.6518030832738745
 40
0.6962432072290267
 40
0.7372557771894736
 40
0.7784037758025657
 40
0.8195287707379343
 40
0.8605098960692762
 40
0.8953320616145148
 40
0.9302634006348776
 40
0.9651875682169869
 40
1.0
 40
1.0
 40
1.0
 40
1.0
 10
4850.235349528468
 20
2501.096992635616
 30
0.0
 10
4850.235392730905
 20
2501.096992635616
 30
0.0
 10
4850.23547913572
 20
2501.096992635616
 30
0.0
 10
4850.236277003348
 20
2501.096992635616
 30
0.0
 10
4850.237878808474
 20
2501.096992635616
 30
0.0
 10
4850.240697921957
 20
2501.096992635616
 30
0.0
 10
4850.244542002033
 20
2501.096992635616
 30
0.0
 10
4850.249433232182
 20
2501.096992635616
 30
0.0
 10
4850.254902017651
 20
2501.096992635616
 30
0.0
 10
4850.260664295103
 20
2501.096992635616
 30
0.0
 10
4850.266450184957
 20
2501.096992635616
 30
0.0
 10
4850.27301922913
 20
2501.096992635616
 30
0.0
 10
4850.280452506036
 20
2501.096992635616
 30
0.0
 10
4850.288812027329
 20
2501.096992635616
 30
0.0
 10
4850.297889704768
 20
2501.096992635616
 30
0.0
 10
4850.307654933343
 20
2501.096992635616
 30
0.0
 10
4850.317823447887
 20
2501.096992635616
 30
0.0
 10
4850.32833598186
 20
2501.096992635616
 30
0.0
 10
4850.339099795722
 20
2501.096992635616
 30
0.0
 10
4850.350337799558
 20
2501.096992635616
 30
0.0
 10
4850.361401827941
 20
2501.096992635616
 30
0.0
 10
4850.372176720114
 20
2501.096992635616
 30
0.0
 10
4850.382557989739
 20
2501.096992635616
 30
0.0
 10
4850.393072366792
 20
2501.096992635616
 30
0.0
 10
4850.400125152649
 20
2501.096992635616
 30
0.0
 10
4850.403645895399
 20
2501.096992635616
 30
0.0
  0
SPLINE
  5
17F2
330
1F
100
AcDbEntity
  8
SANINDUSA
100
AcDbSpline
210
0.0
220
0.0
230
1.0
 70
     8
 71
     3
 72
    22
 73
    18
 74
     0
 42
0.0000000001
 43
0.0000000001
 40
0.0
 40
0.0
 40
0.0
 40
0.0
 40
0.0746303110701058
 40
0.1494997453365041
 40
0.2241440394388731
 40
0.2988424929447599
 40
0.3737638835944055
 40
0.4484659977698054
 40
0.5232303550028665
 40
0.5982151454477061
 40
0.6729698483318857
 40
0.7289948835091784
 40
0.7852254381544704
 40
0.8414448405719346
 40
0.8974547557271179
 40
0.9487280811881676
 40
1.0
 40
1.0
 40
1.0
 40
1.0
 10
4850.510555416323
 20
2500.94290724488
 30
0.0
 10
4850.510109636712
 20
2500.942871293778
 30
0.0
 10
4850.509216649165
 20
2500.942799276381
 30
0.0
 10
4850.506197891023
 20
2500.942694251845
 30
0.0
 10
4850.502022308422
 20
2500.942606644121
 30
0.0
 10
4850.496587409161
 20
2500.942556327667
 30
0.0
 10
4850.490036281126
 20
2500.942549227133
 30
0.0
 10
4850.482435999401
 20
2500.94258175291
 30
0.0
 10
4850.473847868961
 20
2500.94265943731
 30
0.0
 10
4850.464396475352
 20
2500.942770497964
 30
0.0
 10
4850.45503579234
 20
2500.94288831651
 30
0.0
 10
4850.44604570576
 20
2500.942996541682
 30
0.0
 10
4850.437633975761
 20
2500.943088327717
 30
0.0
 10
4850.428969294189
 20
2500.943168796908
 30
0.0
 10
4850.420368020867
 20
2500.943229407503
 30
0.0
 10
4850.411908291708
 20
2500.943268566115
 30
0.0
 10
4850.406400002316
 20
2500.943273693553
 30
0.0
 10
4850.403645895399
 20
2500.943276257236
 30
0.0
  0
SPLINE
  5
17F3
330
1F
100
AcDbEntity
  8
SANINDUSA
100
AcDbSpline
210
0.0
220
0.0
230
1.0
 70
     8
 71
     3
 72
    22
 73
    18
 74
     0
 42
0.0000000001
 43
0.0000000001
 40
0.0
 40
0.0
 40
0.0
 40
0.0
 40
0.0746303110701058
 40
0.1494997453365041
 40
0.2241440394388731
 40
0.2988424929447599
 40
0.3737638835944055
 40
0.4484659977698054
 40
0.5232303550028665
 40
0.5982151454477061
 40
0.6729698483318857
 40
0.7289948835091784
 40
0.7852254381544704
 40
0.8414448405719346
 40
0.8974547557271179
 40
0.9487280811881676
 40
1.0
 40
1.0
 40
1.0
 40
1.0
 10
4850.296736374474
 20
2500.94290724488
 30
0.0
 10
4850.297182154086
 20
2500.942871293778
 30
0.0
 10
4850.298075141633
 20
2500.942799276381
 30
0.0
 10
4850.301093899774
 20
2500.942694251845
 30
0.0
 10
4850.305269482376
 20
2500.942606644121
 30
0.0
 10
4850.310704381636
 20
2500.942556327667
 30
0.0
 10
4850.317255509672
 20
2500.942549227133
 30
0.0
 10
4850.324855791397
 20
2500.94258175291
 30
0.0
 10
4850.333443921837
 20
2500.94265943731
 30
0.0
 10
4850.342895315445
 20
2500.942770497964
 30
0.0
 10
4850.352255998457
 20
2500.94288831651
 30
0.0
 10
4850.361246085038
 20
2500.942996541682
 30
0.0
 10
4850.369657815036
 20
2500.943088327717
 30
0.0
 10
4850.378322496609
 20
2500.943168796908
 30
0.0
 10
4850.38692376993
 20
2500.943229407503
 30
0.0
 10
4850.395383499089
 20
2500.943268566115
 30
0.0
 10
4850.400891788482
 20
2500.943273693553
 30
0.0
 10
4850.403645895399
 20
2500.943276257236
 30
0.0
  0
LINE
  5
17FA
330
1F
100
AcDbEntity
  8
SANINDUSA
100
AcDbLine
 10
4850.513645894803
 20
2500.706992642005
 30
0.0
 11
4850.293645895995
 21
2500.706992642005
 31
0.0
  0
LINE
  5
17FB
330
1F
100
AcDbEntity
  8
SANINDUSA
100
AcDbLine
 10
4850.513645894803
 20
2500.706992642005
 30
0.0
 11
4850.518645897484
 21
2500.706992642005
 31
0.0
  0
LINE
  5
17FC
330
1F
100
AcDbEntity
  8
SANINDUSA
100
AcDbLine
 10
4850.293645895995
 20
2500.706992642005
 30
0.0
 11
4850.288645893312
 21
2500.706992642005
 31
0.0
  0
SPLINE
  5
17FD
330
1F
100
AcDbEntity
  8
SANINDUSA
100
AcDbSpline
210
0.0
220
0.0
230
1.0
 70
     8
 71
     3
 72
    12
 73
     8
 74
     0
 42
0.0000000001
 43
0.0000000001
 40
0.0
 40
0.0
 40
0.0
 40
0.0
 40
0.153667064075363
 40
0.3651407168244372
 40
0.5766143429879764
 40
0.7883154481363538
 40
1.0
 40
1.0
 40
1.0
 40
1.0
 10
4850.514880463459
 20
2500.942537174542
 30
0.0
 10
4850.514926799558
 20
2500.942582254595
 30
0.0
 10
4850.515036902503
 20
2500.942689372948
 30
0.0
 10
4850.514593930458
 20
2500.942814842443
 30
0.0
 10
4850.513771954044
 20
2500.942917076911
 30
0.0
 10
4850.512593072462
 20
2500.943050554762
 30
0.0
 10
4850.511234617332
 20
2500.942955013595
 30
0.0
 10
4850.510555416323
 20
2500.94290724488
 30
0.0
  0
SPLINE
  5
17FE
330
1F
100
AcDbEntity
  8
SANINDUSA
100
AcDbSpline
210
0.0
220
0.0
230
1.0
 70
     8
 71
     3
 72
    12
 73
     8
 74
     0
 42
0.0000000001
 43
0.0000000001
 40
0.0
 40
0.0
 40
0.0
 40
0.0
 40
0.1536005109406595
 40
0.3650907933562636
 40
0.576581049184242
 40
0.7882988018853375
 40
1.0
 40
1.0
 40
1.0
 40
1.0
 10
4850.292411290086
 20
2500.942537234147
 30
0.0
 10
4850.292364984735
 20
2500.94258229358
 30
0.0
 10
4850.292254922227
 20
2500.942689394685
 30
0.0
 10
4850.292697868358
 20
2500.942814841041
 30
0.0
 10
4850.293519834613
 20
2500.942917077285
 30
0.0
 10
4850.294698718871
 20
2500.943050554667
 30
0.0
 10
4850.296057173643
 20
2500.942955013564
 30
0.0
 10
4850.296736374474
 20
2500.94290724488
 30
0.0
  0
ARC
  5
1804
330
1F
100
AcDbEntity
  8
SANINDUSA
100
AcDbCircle
 10
4852.176183707604
 20
2501.091994299088
 30
0.0
 40
0.0050000000000003
100
AcDbArc
 50
343.7038839043232
 51
90.0
  0
ARC
  5
1805
330
1F
100
AcDbEntity
  8
SANINDUSA
100
AcDbCircle
 10
4852.142644655958
 20
2501.091994299088
 30
0.0
 40
0.005
100
AcDbArc
 50
90.0
 51
177.9999999962464
  0
LINE
  5
1808
330
1F
100
AcDbEntity
  8
SANINDUSA
100
AcDbLine
 10
4852.13607015714
 20
2501.046994297687
 30
0.0
 11
4852.137647713274
 21
2501.092168796729
 31
0.0
  0
SPLINE
  5
1809
330
1F
100
AcDbEntity
  8
SANINDUSA
100
AcDbSpline
210
0.0
220
0.0
230
1.0
 70
    24
 71
     3
 72
    27
 73
    23
 74
     0
 42
0.0000000001
 43
0.0000000001
 40
0.0
 40
0.0
 40
0.0
 40
0.0
 40
0.0387201477974226
 40
0.0775438921392715
 40
0.1162757191593092
 40
0.1595747037991127
 40
0.2029926353126817
 40
0.2463235704114538
 40
0.2935923230100418
 40
0.3410296968416687
 40
0.3885103442206584
 40
0.4358386393867579
 40
0.4867375896741961
 40
0.537796059788133
 40
0.5889411460181931
 40
0.6400606744678528
 40
0.6910109759193874
 40
0.7562289755724155
 40
0.8216061684818397
 40
0.8869992856899944
 40
0.9522389614121593
 40
1.0
 40
1.0
 40
1.0
 40
1.0
 10
4852.13607015714
 20
2501.046994297687
 30
0.0
 10
4852.135975210784
 20
2501.046994297687
 30
0.0
 10
4852.135785064039
 20
2501.046994297687
 30
0.0
 10
4852.134304044853
 20
2501.046994297687
 30
0.0
 10
4852.131908170772
 20
2501.046994297687
 30
0.0
 10
4852.128407835156
 20
2501.046994297687
 30
0.0
 10
4852.12383505986
 20
2501.046994297687
 30
0.0
 10
4852.118244956132
 20
2501.046994297687
 30
0.0
 10
4852.111638591144
 20
2501.046994297687
 30
0.0
 10
4852.104061380906
 20
2501.046994297687
 30
0.0
 10
4852.095819556059
 20
2501.046994297687
 30
0.0
 10
4852.086794287879
 20
2501.046994297687
 30
0.0
 10
4852.077013141419
 20
2501.046994297687
 30
0.0
 10
4852.066509277401
 20
2501.046994297687
 30
0.0
 10
4852.055591951091
 20
2501.046994297687
 30
0.0
 10
4852.044350392822
 20
2501.046994297687
 30
0.0
 10
4852.031775664344
 20
2501.046994297687
 30
0.0
 10
4852.017821017192
 20
2501.046994297687
 30
0.0
 10
4852.002480413251
 20
2501.046994297687
 30
0.0
 10
4851.986943330021
 20
2501.046994297687
 30
0.0
 10
4851.972692523187
 20
2501.046994297687
 30
0.0
 10
4851.963641662031
 20
2501.046994297687
 30
0.0
 10
4851.959816212505
 20
2501.046994297687
 30
0.0
  0
SPLINE
  5
180B
330
1F
100
AcDbEntity
  8
SANINDUSA
100
AcDbSpline
210
0.0
220
0.0
230
1.0
 70
     8
 71
     3
 72
    17
 73
    13
 74
     0
 42
0.0000000001
 43
0.0000000001
 40
0.0
 40
0.0
 40
0.0
 40
0.0
 40
0.0276059563370287
 40
0.0620883106840058
 40
0.0969638958787124
 40
0.165667922252031
 40
0.2924117258632911
 40
0.4192440968580029
 40
0.5460689414302888
 40
0.7373892195362694
 40
0.9287131200554558
 40
1.0
 40
1.0
 40
1.0
 40
1.0
 10
4852.170821691602
 20
2501.08799429882
 30
0.0
 10
4852.170626445973
 20
2501.08735431474
 30
0.0
 10
4852.170187320763
 20
2501.085914932243
 30
0.0
 10
4852.16939654857
 20
2501.083376248039
 30
0.0
 10
4852.16826779013
 20
2501.079802477931
 30
0.0
 10
4852.166321876506
 20
2501.073780069079
 30
0.0
 10
4852.163492924038
 20
2501.065391639802
 30
0.0
 10
4852.159985312237
 20
2501.055543441902
 30
0.0
 10
4852.155688382421
 20
2501.04410667318
 30
0.0
 10
4852.150477338637
 20
2501.031130236713
 30
0.0
 10
4852.145540198268
 20
2501.019697898563
 30
0.0
 10
4852.142543220806
 20
2501.013148162483
 30
0.0
 10
4852.141729677766
 20
2501.011370207105
 30
0.0
  0
ARC
  5
180C
330
1F
100
AcDbEntity
  8
SANINDUSA
100
AcDbCircle
 10
4852.097595620349
 20
2500.929499435462
 30
0.0
 40
0.0050000000000001
100
AcDbArc
 50
1.600000002568872
 51
121.3456475128228
  0
LINE
  5
180D
330
1F
100
AcDbEntity
  8
SANINDUSA
100
AcDbLine
 10
4852.108812714666
 20
2500.706994305287
 30
0.0
 11
4852.102593685239
 21
2500.929639036689
 31
0.0
  0
LINE
  5
180E
330
1F
100
AcDbEntity
  8
SANINDUSA
100
AcDbLine
 10
4852.108812714666
 20
2500.706994305287
 30
0.0
 11
4852.014297003597
 21
2500.706994305287
 31
0.0
  0
LINE
  5
180F
330
1F
100
AcDbEntity
  8
SANINDUSA
100
AcDbLine
 10
4852.117816234677
 20
2500.706994305287
 30
0.0
 11
4852.111603106111
 21
2500.929426829253
 31
0.0
  0
SPLINE
  5
1813
330
1F
100
AcDbEntity
  8
SANINDUSA
100
AcDbSpline
210
0.0
220
0.0
230
1.0
 70
     8
 71
     3
 72
    15
 73
    11
 74
     0
 42
0.0000000001
 43
0.0000000001
 40
0.0
 40
0.0
 40
0.0
 40
0.0
 40
0.1256038106924427
 40
0.2512080169201266
 40
0.3768118926434757
 40
0.5024155843436895
 40
0.6280235802879968
 40
0.7536320549660147
 40
0.8768163258432421
 40
1.0
 40
1.0
 40
1.0
 40
1.0
 10
4852.008861745447
 20
2500.899190331731
 30
0.0
 10
4852.009121871264
 20
2500.900858743262
 30
0.0
 10
4852.009642123717
 20
2500.904195571579
 30
0.0
 10
4852.011461928595
 20
2500.908949881312
 30
0.0
 10
4852.014008658632
 20
2500.913337303514
 30
0.0
 10
4852.017258555013
 20
2500.917241221046
 30
0.0
 10
4852.021124542994
 20
2500.920536149136
 30
0.0
 10
4852.025454456211
 20
2500.923117006135
 30
0.0
 10
4852.030122434844
 20
2500.924974275691
 30
0.0
 10
4852.033385486671
 20
2500.925540428993
 30
0.0
 10
4852.035017008632
 20
2500.925823504958
 30
0.0
  0
SPLINE
  5
1815
330
1F
100
AcDbEntity
  8
SANINDUSA
100
AcDbSpline
210
0.0
220
0.0
230
1.0
 70
     8
 71
     3
 72
    18
 73
    14
 74
     0
 42
0.0000000001
 43
0.0000000001
 40
0.0
 40
0.0
 40
0.0
 40
0.0
 40
0.2499999999999998
 40
0.2499999999999998
 40
0.4999999999999996
 40
0.4999999999999996
 40
0.5624999999999993
 40
0.5624999999999993
 40
0.6249999999999991
 40
0.6249999999999991
 40
0.7499999999999993
 40
0.7499999999999993
 40
1.0
 40
1.0
 40
1.0
 40
1.0
 10
4851.923551936243
 20
2500.787060124768
 30
0.0
 10
4851.921998693225
 20
2500.795340244184
 30
0.0
 10
4851.919985039984
 20
2500.80347513331
 30
0.0
 10
4851.915056671805
 20
2500.819460683616
 30
0.0
 10
4851.912141943646
 20
2500.827311340628
 30
0.0
 10
4851.907925641727
 20
2500.836943950809
 30
0.0
 10
4851.907052965923
 20
2500.838862727616
 30
0.0
 10
4851.905257248903
 20
2500.842666173287
 30
0.0
 10
4851.904333480484
 20
2500.844552610399
 30
0.0
 10
4851.901484961188
 20
2500.8501663688
 30
0.0
 10
4851.899483058348
 20
2500.853848173775
 30
0.0
 10
4851.893170523895
 20
2500.864712574697
 30
0.0
 10
4851.888554074093
 20
2500.871714751168
 30
0.0
 10
4851.883522471569
 20
2500.878472005529
 30
0.0
  0
SPLINE
  5
1819
330
1F
100
AcDbEntity
  8
SANINDUSA
100
AcDbSpline
210
0.0
220
0.0
230
1.0
 70
     8
 71
     3
 72
    32
 73
    28
 74
     0
 42
0.0000000001
 43
0.0000000001
 40
0.0
 40
0.0
 40
0.0
 40
0.0
 40
0.0060788899850849
 40
0.0060788899850849
 40
0.0060788899850849
 40
0.007751341751048
 40
0.007751341751048
 40
0.007751341751048
 40
0.013767349265928
 40
0.013767349265928
 40
0.013767349265928
 40
0.0155303967418131
 40
0.0155303967418131
 40
0.0155303967418131
 40
0.0215920741083038
 40
0.0215920741083038
 40
0.0215920741083038
 40
0.0230320016273094
 40
0.0230320016273094
 40
0.0230320016273094
 40
0.0291446145449589
 40
0.0291446145449589
 40
0.0291446145449589
 40
0.0306717882799519
 40
0.0306717882799519
 40
0.0306717882799519
 40
0.0319084971938046
 40
0.0319084971938046
 40
0.0319084971938046
 40
0.0319084971938046
 10
4851.600506214962
 20
2501.061994299087
 30
0.0
 10
4851.5984785496
 20
2501.061994299087
 30
0.0
 10
4851.596431117537
 20
2501.062224543784
 30
0.0
 10
4851.594468239228
 20
2501.062733007715
 30
0.0
 10
4851.593923771581
 20
2501.062874046596
 30
0.0
 10
4851.593384247605
 20
2501.063035784078
 30
0.0
 10
4851.592852014978
 20
2501.063217623059
 30
0.0
 10
4851.590954335089
 20
2501.063865971468
 30
0.0
 10
4851.589129315257
 20
2501.064781895744
 30
0.0
 10
4851.587473705096
 20
2501.065913487374
 30
0.0
 10
4851.586984462327
 20
2501.066247879513
 30
0.0
 10
4851.586508088363
 20
2501.066601912927
 30
0.0
 10
4851.586046743087
 20
2501.06697384992
 30
0.0
 10
4851.584471928241
 20
2501.06824346712
 30
0.0
 10
4851.583057109971
 20
2501.069739452078
 30
0.0
 10
4851.581874214323
 20
2501.071380405314
 30
0.0
 10
4851.581590847282
 20
2501.071773501749
 30
0.0
 10
4851.581319832854
 20
2501.072175801786
 30
0.0
 10
4851.581061949397
 20
2501.072586067322
 30
0.0
 10
4851.579976560555
 20
2501.07431280714
 30
0.0
 10
4851.579116026282
 20
2501.076201439536
 30
0.0
 10
4851.578521868955
 20
2501.078152510116
 30
0.0
 10
4851.578372198189
 20
2501.07864399312
 30
0.0
 10
4851.57823874478
 20
2501.079140706958
 30
0.0
 10
4851.578121883206
 20
2501.079641007122
 30
0.0
 10
4851.578026822997
 20
2501.080047972705
 30
0.0
 10
4851.577942660831
 20
2501.080457637367
 30
0.0
 10
4851.577869540459
 20
2501.080869111352
 30
0.0
  0
LINE
  5
181A
330
1F
100
AcDbEntity
  8
SANINDUSA
100
AcDbLine
 10
4851.725505004376
 20
2500.721994290981
 30
0.0
 11
4851.715498904436
 21
2500.721994290981
 31
0.0
  0
LINE
  5
181B
330
1F
100
AcDbEntity
  8
SANINDUSA
100
AcDbLine
 10
4851.715498904436
 20
2500.721994290981
 30
0.0
 11
4851.713752868324
 21
2500.771994302902
 31
0.0
  0
LINE
  5
181C
330
1F
100
AcDbEntity
  8
SANINDUSA
100
AcDbLine
 10
4851.680509256869
 20
2500.771994302902
 30
0.0
 11
4851.713752868324
 21
2500.771994302902
 31
0.0
  0
SPLINE
  5
181D
330
1F
100
AcDbEntity
  8
SANINDUSA
100
AcDbSpline
210
0.0
220
0.0
230
1.0
 70
    24
 71
     3
 72
     8
 73
     4
 74
     0
 42
0.0000000001
 43
0.0000000001
 40
0.0
 40
0.0
 40
0.0
 40
0.0
 40
1.0
 40
1.0
 40
1.0
 40
1.0
 10
4851.68050925964
 20
2500.771994299088
 30
0.0
 10
4851.679985755112
 20
2500.750327721253
 30
0.0
 10
4851.679465952972
 20
2500.728661054595
 30
0.0
 10
4851.678949854249
 20
2500.706994299088
 30
0.0
  0
LINE
  5
181E
330
1F
100
AcDbEntity
  8
SANINDUSA
100
AcDbLine
 10
4851.678949857801
 20
2500.706994305287
 30
0.0
 11
4851.668949070125
 21
2500.706994305287
 31
0.0
  0
SPLINE
  5
181F
330
1F
100
AcDbEntity
  8
SANINDUSA
100
AcDbSpline
210
0.0
220
0.0
230
1.0
 70
    24
 71
     3
 72
     8
 73
     4
 74
     0
 42
0.0000000001
 43
0.0000000001
 40
0.0
 40
0.0
 40
0.0
 40
0.0
 40
1.0
 40
1.0
 40
1.0
 40
1.0
 10
4851.668949070634
 20
2500.706994299088
 30
0.0
 10
4851.669506392839
 20
2500.7303680283
 30
0.0
 10
4851.670067720997
 20
2500.753741661303
 30
0.0
 10
4851.670633054137
 20
2500.77711519812
 30
0.0
  0
SPLINE
  5
1820
330
1F
100
AcDbEntity
  8
SANINDUSA
100
AcDbSpline
210
0.0
220
0.0
230
1.0
 70
     8
 71
     3
 72
    24
 73
    20
 74
     0
 42
0.0000000001
 43
0.0000000001
 40
0.0
 40
0.0
 40
0.0
 40
0.0
 40
0.1249999999999941
 40
0.1249999999999941
 40
0.1874999999999912
 40
0.1874999999999912
 40
0.2499999999999882
 40
0.2499999999999882
 40
0.3749999999999854
 40
0.3749999999999854
 40
0.4999999999999827
 40
0.4999999999999827
 40
0.62499999999998
 40
0.62499999999998
 40
0.6874999999999858
 40
0.6874999999999858
 40
0.7499999999999919
 40
0.7499999999999919
 40
1.0
 40
1.0
 40
1.0
 40
1.0
 10
4851.675631594607
 20
2500.781994299088
 30
0.0
 10
4851.675306552441
 20
2500.781994299088
 30
0.0
 10
4851.674986856706
 20
2500.781962905421
 30
0.0
 10
4851.674515002901
 20
2500.781870661259
 30
0.0
 10
4851.674359009185
 20
2500.781832333267
 30
0.0
 10
4851.674049658443
 20
2500.781740194914
 30
0.0
 10
4851.673895713646
 20
2500.781686074701
 30
0.0
 10
4851.673447355109
 20
2500.781503540185
 30
0.0
 10
4851.673163562448
 20
2500.781354579968
 30
0.0
 10
4851.672625800711
 20
2500.781002844699
 30
0.0
 10
4851.672370238701
 20
2500.780797817674
 30
0.0
 10
4851.671910343703
 20
2500.780349219458
 30
0.0
 10
4851.671703360251
 20
2500.780104477783
 30
0.0
 10
4851.671427851325
 20
2500.779706238356
 30
0.0
 10
4851.671341641907
 20
2500.779567692356
 30
0.0
 10
4851.671184664769
 20
2500.779285775328
 30
0.0
 10
4851.671113432066
 20
2500.779141834216
 30
0.0
 10
4851.670792820536
 20
2500.77840751466
 30
0.0
 10
4851.670648773057
 20
2500.777765092394
 30
0.0
 10
4851.670633054137
 20
2500.77711519812
 30
0.0
  0
LINE
  5
1821
330
1F
100
AcDbEntity
  8
SANINDUSA
100
AcDbLine
 10
4851.688607948571
 20
2500.781994293366
 30
0.0
 11
4851.67563159272
 21
2500.781994293366
 31
0.0
  0
SPLINE
  5
1822
330
1F
100
AcDbEntity
  8
SANINDUSA
100
AcDbSpline
210
0.0
220
0.0
230
1.0
 70
     8
 71
     3
 72
    24
 73
    20
 74
     0
 42
0.0000000001
 43
0.0000000001
 40
0.0
 40
0.0
 40
0.0
 40
0.0
 40
0.124999999999998
 40
0.124999999999998
 40
0.187499999999997
 40
0.187499999999997
 40
0.249999999999996
 40
0.249999999999996
 40
0.3749999999999967
 40
0.3749999999999967
 40
0.4999999999999974
 40
0.4999999999999974
 40
0.6249999999999981
 40
0.6249999999999981
 40
0.7499999999999987
 40
0.7499999999999987
 40
0.8749999999999992
 40
0.8749999999999992
 40
1.0
 40
1.0
 40
1.0
 40
1.0
 10
4851.695226326994
 20
2500.786896209601
 30
0.0
 10
4851.695215347183
 20
2500.786515099442
 30
0.0
 10
4851.695141375738
 20
2500.786147242858
 30
0.0
 10
4851.694950469173
 20
2500.785612279505
 30
0.0
 10
4851.694873592506
 20
2500.785437931321
 30
0.0
 10
4851.694700323864
 20
2500.785104405403
 30
0.0
 10
4851.694603461788
 20
2500.784943889139
 30
0.0
 10
4851.69428545109
 20
2500.784479090095
 30
0.0
 10
4851.694034706643
 20
2500.784189914082
 30
0.0
 10
4851.693492012126
 20
2500.783672645179
 30
0.0
 10
4851.693198044101
 20
2500.783441139869
 30
0.0
 10
4851.69257003878
 20
2500.783026184417
 30
0.0
 10
4851.692236611998
 20
2500.782843934873
 30
0.0
 10
4851.69155305274
 20
2500.782534964657
 30
0.0
 10
4851.691200368978
 20
2500.782406541509
 30
0.0
 10
4851.690474084768
 20
2500.782199688188
 30
0.0
 10
4851.690104431058
 20
2500.78212260946
 30
0.0
 10
4851.689361183235
 20
2500.782020101617
 30
0.0
 10
4851.688986244664
 20
2500.781994299088
 30
0.0
 10
4851.688607945703
 20
2500.781994299088
 30
0.0
  0
LINE
  5
1823
330
1F
100
AcDbEntity
  8
SANINDUSA
100
AcDbLine
 10
4851.700541215688
 20
2500.971403132115
 30
0.0
 11
4851.695226329118
 21
2500.786896209155
 31
0.0
  0
ARC
  5
1824
330
1F
100
AcDbEntity
  8
SANINDUSA
100
AcDbCircle
 10
4851.705539140961
 20
2500.971259157698
 30
0.0
 40
0.005
100
AcDbArc
 50
139.9501671418326
 51
178.3499999963725
  0
ARC
  5
1825
330
1F
100
AcDbEntity
  8
SANINDUSA
100
AcDbCircle
 10
4851.697884290057
 20
2500.977693694018
 30
0.0
 40
0.005
100
AcDbArc
 50
319.9501671418326
 51
46.60368483410002
  0
LINE
  5
1826
330
1F
100
AcDbEntity
  8
SANINDUSA
100
AcDbLine
 10
4851.617450651452
 20
2501.060627392415
 30
0.0
 11
4851.701319495886
 21
2500.98132679138
 31
0.0
  0
ARC
  5
1827
330
1F
100
AcDbEntity
  8
SANINDUSA
100
AcDbCircle
 10
4851.614015447662
 20
2501.056994299088
 30
0.0
 40
0.005
100
AcDbArc
 50
46.60368483410002
 51
90.0
  0
LINE
  5
1828
330
1F
100
AcDbEntity
  8
SANINDUSA
100
AcDbLine
 10
4851.600506215095
 20
2501.061994298283
 30
0.0
 11
4851.614015447646
 21
2501.061994298283
 31
0.0
  0
ARC
  5
1829
330
1F
100
AcDbEntity
  8
SANINDUSA
100
AcDbCircle
 10
4851.572946664928
 20
2501.079994299088
 30
0.0
 40
0.0050000000000001
100
AcDbArc
 50
10.0764731112807
 51
90.0
  0
ARC
  5
182B
330
1F
100
AcDbEntity
  8
SANINDUSA
100
AcDbCircle
 10
4851.572505003084
 20
2501.089994299088
 30
0.0
 40
0.005
100
AcDbArc
 50
180.0
 51
270.0
  0
LINE
  5
182C
330
1F
100
AcDbEntity
  8
SANINDUSA
100
AcDbLine
 10
4851.567505002692
 20
2501.091994299475
 30
0.0
 11
4851.567505002692
 21
2501.089994299147
 31
0.0
  0
ARC
  5
182D
330
1F
100
AcDbEntity
  8
SANINDUSA
100
AcDbCircle
 10
4851.572505003084
 20
2501.091994299088
 30
0.0
 40
0.005
100
AcDbArc
 50
90.0
 51
180.0
  0
ARC
  5
182E
330
1F
100
AcDbEntity
  8
SANINDUSA
100
AcDbCircle
 10
4851.578296799152
 20
2501.094994299088
 30
0.0
 40
0.0020000000000001
100
AcDbArc
 50
16.60154960424281
 51
90.0
  0
ARC
  5
182F
330
1F
100
AcDbEntity
  8
SANINDUSA
100
AcDbCircle
 10
4851.585005003085
 20
2501.096994299088
 30
0.0
 40
0.005
100
AcDbArc
 50
196.6015496042428
 51
270.0
  0
LINE
  5
1830
330
1F
100
AcDbEntity
  8
SANINDUSA
100
AcDbLine
 10
4851.597505002953
 20
2501.091994299475
 30
0.0
 11
4851.585005003233
 21
2501.091994299475
 31
0.0
  0
LINE
  5
1831
330
1F
100
AcDbEntity
  8
SANINDUSA
100
AcDbLine
 10
4851.597505002953
 20
2501.081994299699
 30
0.0
 11
4851.597505002953
 21
2501.091994299475
 31
0.0
  0
LINE
  5
1832
330
1F
100
AcDbEntity
  8
SANINDUSA
100
AcDbLine
 10
4851.597505002953
 20
2501.081994299699
 30
0.0
 11
4851.586505003012
 21
2501.081994299699
 31
0.0
  0
LINE
  5
1833
330
1F
100
AcDbEntity
  8
SANINDUSA
100
AcDbLine
 10
4851.586505003012
 20
2501.081994299699
 30
0.0
 11
4851.586505003012
 21
2501.080994299535
 31
0.0
  0
ARC
  5
1834
330
1F
100
AcDbEntity
  8
SANINDUSA
100
AcDbCircle
 10
4851.596505003084
 20
2501.080994299088
 30
0.0
 40
0.01
100
AcDbArc
 50
180.0
 51
270.0
  0
LINE
  5
1835
330
1F
100
AcDbEntity
  8
SANINDUSA
100
AcDbLine
 10
4851.596505003255
 20
2501.070994299758
 30
0.0
 11
4851.787317911833
 21
2501.070994299758
 31
0.0
  0
SPLINE
  5
1836
330
1F
100
AcDbEntity
  8
SANINDUSA
100
AcDbSpline
210
0.0
220
0.0
230
1.0
 70
    24
 71
     3
 72
     9
 73
     5
 74
     0
 42
0.0000000001
 43
0.0000000001
 40
0.0
 40
0.0
 40
0.0
 40
0.0
 40
0.5014494405062214
 40
1.0
 40
1.0
 40
1.0
 40
1.0
 10
4851.787317911833
 20
2501.070994299758
 30
0.0
 10
4851.797840207022
 20
2501.046596616896
 30
0.0
 10
4851.818823967973
 20
2500.997942294264
 30
0.0
 10
4851.839809339015
 20
2500.949288666067
 30
0.0
 10
4851.850271607489
 20
2500.925032372509
 30
0.0
  0
SPLINE
  5
1837
330
1F
100
AcDbEntity
  8
SANINDUSA
100
AcDbSpline
210
0.0
220
0.0
230
1.0
 70
     8
 71
     3
 72
     9
 73
     5
 74
     0
 42
0.0000000001
 43
0.0000000001
 40
0.0
 40
0.0
 40
0.0
 40
0.0
 40
0.4969657503436244
 40
1.0
 40
1.0
 40
1.0
 40
1.0
 10
4851.850271607489
 20
2500.925032372509
 30
0.0
 10
4851.850732898565
 20
2500.924038885559
 30
0.0
 10
4851.85166111359
 20
2500.922039780091
 30
0.0
 10
4851.852904869449
 20
2500.920220070314
 30
0.0
 10
4851.853530521244
 20
2500.919304693971
 30
0.0
  0
SPLINE
  5
1838
330
1F
100
AcDbEntity
  8
SANINDUSA
100
AcDbSpline
210
0.0
220
0.0
230
1.0
 70
     8
 71
     3
 72
    12
 73
     8
 74
     0
 42
0.0000000001
 43
0.0000000001
 40
0.0
 40
0.0
 40
0.0
 40
0.0
 40
0.135285598961454
 40
0.4058571101499304
 40
0.7029245414086756
 40
0.9999959995857341
 40
1.0
 40
1.0
 40
1.0
 40
1.0
 10
4851.883522475809
 20
2500.878472010527
 30
0.0
 10
4851.882158932458
 20
2500.880305220474
 30
0.0
 10
4851.878068299249
 20
2500.885804854559
 30
0.0
 10
4851.871014540622
 20
2500.895352965851
 30
0.0
 10
4851.862373468178
 20
2500.907125363386
 30
0.0
 10
4851.856481434921
 20
2500.915247187712
 30
0.0
 10
4851.85353056098
 20
2500.919304639333
 30
0.0
 10
4851.853530521244
 20
2500.919304693971
 30
0.0
  0
LINE
  5
1839
330
1F
100
AcDbEntity
  8
SANINDUSA
100
AcDbLine
 10
4851.913383449167
 20
2500.787060121928
 30
0.0
 11
4851.923551941961
 21
2500.787060121928
 31
0.0
  0
SPLINE
  5
183A
330
1F
100
AcDbEntity
  8
SANINDUSA
100
AcDbSpline
210
0.0
220
0.0
230
1.0
 70
     8
 71
     3
 72
    22
 73
    18
 74
     0
 42
0.0000000001
 43
0.0000000001
 40
0.0
 40
0.0
 40
0.0
 40
0.0
 40
0.249999999999998
 40
0.3124999999999974
 40
0.3437499999999975
 40
0.3437499999999975
 40
0.3749999999999976
 40
0.3749999999999976
 40
0.4999999999999982
 40
0.4999999999999982
 40
0.6249999999999986
 40
0.6249999999999986
 40
0.7499999999999991
 40
0.7499999999999991
 40
0.8749999999999994
 40
0.8749999999999994
 40
1.0
 40
1.0
 40
1.0
 40
1.0
 10
4851.846462509358
 20
2500.912017719978
 30
0.0
 10
4851.853437557087
 20
2500.902406696452
 30
0.0
 10
4851.862210178286
 20
2500.890431717729
 30
0.0
 10
4851.871933331309
 20
2500.877313579817
 30
0.0
 10
4851.874591079972
 20
2500.873740371654
 30
0.0
 10
4851.876364239566
 20
2500.87135922751
 30
0.0
 10
4851.87724002736
 20
2500.870158553283
 30
0.0
 10
4851.881557908157
 20
2500.864101506151
 30
0.0
 10
4851.884822071053
 20
2500.859088905915
 30
0.0
 10
4851.890926603051
 20
2500.848777753396
 30
0.0
 10
4851.893766917523
 20
2500.843479257583
 30
0.0
 10
4851.898988526174
 20
2500.832651615887
 30
0.0
 10
4851.901369781383
 20
2500.827122539093
 30
0.0
 10
4851.905647880887
 20
2500.815894386528
 30
0.0
 10
4851.907544704979
 20
2500.810195387351
 30
0.0
 10
4851.910839285536
 20
2500.798691183923
 30
0.0
 10
4851.912237041779
 20
2500.792886057926
 30
0.0
 10
4851.913383457436
 20
2500.787060124768
 30
0.0
  0
LINE
  5
183B
330
1F
100
AcDbEntity
  8
SANINDUSA
100
AcDbLine
 10
4851.840690741986
 20
2500.921994293962
 30
0.0
 11
4851.846462513059
 21
2500.912017713223
 31
0.0
  0
SPLINE
  5
183C
330
1F
100
AcDbEntity
  8
SANINDUSA
100
AcDbSpline
210
0.0
220
0.0
230
1.0
 70
    24
 71
     3
 72
     8
 73
     4
 74
     0
 42
0.0000000001
 43
0.0000000001
 40
0.0002833183290459
 40
0.0002833183290459
 40
0.0002833183290459
 40
0.0002833183290459
 40
0.0473829616166925
 40
0.0473829616166925
 40
0.0473829616166925
 40
0.0473829616166925
 10
4851.822037262618
 20
2500.965242695353
 30
0.0
 10
4851.828254985494
 20
2500.950826517334
 30
0.0
 10
4851.834472776695
 20
2500.936410368783
 30
0.0
 10
4851.840690745959
 20
2500.921994297034
 30
0.0
  0
LINE
  5
183D
330
1F
100
AcDbEntity
  8
SANINDUSA
100
AcDbLine
 10
4851.703701446503
 20
2500.781994293366
 30
0.0
 11
4851.70898125574
 21
2500.965283642445
 31
0.0
  0
LINE
  5
183E
330
1F
100
AcDbEntity
  8
SANINDUSA
100
AcDbLine
 10
4851.7234097521
 20
2500.781994293366
 30
0.0
 11
4851.703701446503
 21
2500.781994293366
 31
0.0
  0
LINE
  5
183F
330
1F
100
AcDbEntity
  8
SANINDUSA
100
AcDbLine
 10
4851.7234097521
 20
2500.781994293366
 30
0.0
 11
4851.725505004376
 21
2500.721994290981
 31
0.0
  0
LINE
  5
1840
330
1F
100
AcDbEntity
  8
SANINDUSA
100
AcDbLine
 10
4851.572505003511
 20
2501.096994298898
 30
0.0
 11
4851.578296798951
 21
2501.096994298898
 31
0.0
  0
SPLINE
  5
1843
330
1F
100
AcDbEntity
  8
SANINDUSA
100
AcDbSpline
210
0.0
220
0.0
230
1.0
 70
     8
 71
     3
 72
    23
 73
    19
 74
     0
 42
0.0000000001
 43
0.0000000001
 40
0.0
 40
0.0
 40
0.0
 40
0.0
 40
0.0608271870972334
 40
0.1216546847581877
 40
0.1842492393623359
 40
0.2468441590968208
 40
0.3076681142290099
 40
0.3684923798356444
 40
0.4310844007429243
 40
0.4936763575643139
 40
0.5544877063318498
 40
0.6152986541025034
 40
0.6778765673265985
 40
0.7404542221207099
 40
0.8043130833642994
 40
0.8681715121337205
 40
0.9340856929475673
 40
1.0
 40
1.0
 40
1.0
 40
1.0
 10
4851.853431845754
 20
2500.784836391841
 30
0.0
 10
4851.853817923656
 20
2500.782938797575
 30
0.0
 10
4851.854590081433
 20
2500.779143599356
 30
0.0
 10
4851.856357708242
 20
2500.773543375128
 30
0.0
 10
4851.858580414591
 20
2500.768051891071
 30
0.0
 10
4851.861271202236
 20
2500.76277165406
 30
0.0
 10
4851.864367094309
 20
2500.75778598565
 30
0.0
 10
4851.86786485786
 20
2500.75307333506
 30
0.0
 10
4851.871786675245
 20
2500.748631334273
 30
0.0
 10
4851.876071680202
 20
2500.744539130238
 30
0.0
 10
4851.880643304633
 20
2500.740860372524
 30
0.0
 10
4851.88550284135
 20
2500.737572163494
 30
0.0
 10
4851.890672888451
 20
2500.734679406432
 30
0.0
 10
4851.896158423625
 20
2500.73219711564
 30
0.0
 10
4851.901877524915
 20
2500.730183877213
 30
0.0
 10
4851.907852568673
 20
2500.728658057975
 30
0.0
 10
4851.914004642035
 20
2500.727619463502
 30
0.0
 10
4851.918195884865
 20
2500.727395142112
 30
0.0
 10
4851.920291508287
 20
2500.72728298131
 30
0.0
  0
SPLINE
  5
1848
330
1F
100
AcDbEntity
  8
SANINDUSA
100
AcDbSpline
210
0.0
220
0.0
230
1.0
 70
     8
 71
     3
 72
    19
 73
    15
 74
     0
 42
0.0000000001
 43
0.0000000001
 40
0.0
 40
0.0
 40
0.0
 40
0.0
 40
0.0821924358028774
 40
0.164646490859825
 40
0.2468388705902881
 40
0.3290287439055148
 40
0.4114810680054042
 40
0.4936710371874994
 40
0.5758453006567629
 40
0.6582816622525398
 40
0.740455637357872
 40
0.8268688773746514
 40
0.9135867775021001
 40
0.9999999999999998
 40
0.9999999999999998
 40
0.9999999999999998
 40
0.9999999999999998
 10
4851.843587334006
 20
2500.783079693947
 30
0.0
 10
4851.844210600907
 20
2500.78015352225
 30
0.0
 10
4851.84545911857
 20
2500.774291864824
 30
0.0
 10
4851.848560803822
 20
2500.765839322925
 30
0.0
 10
4851.852509334263
 20
2500.757762325676
 30
0.0
 10
4851.857379139858
 20
2500.750197974901
 30
0.0
 10
4851.863051674827
 20
2500.743219892525
 30
0.0
 10
4851.869465051871
 20
2500.736913991432
 30
0.0
 10
4851.876559721068
 20
2500.731386703987
 30
0.0
 10
4851.884222115105
 20
2500.726682704726
 30
0.0
 10
4851.892499348581
 20
2500.722785070046
 30
0.0
 10
4851.90132913176
 20
2500.719862934364
 30
0.0
 10
4851.910588407678
 20
2500.717875678629
 30
0.0
 10
4851.916878838554
 20
2500.717482806507
 30
0.0
 10
4851.920018519013
 20
2500.717286716137
 30
0.0
  0
SPLINE
  5
1849
330
1F
100
AcDbEntity
  8
SANINDUSA
100
AcDbSpline
210
0.0
220
0.0
230
1.0
 70
     8
 71
     3
 72
    20
 73
    16
 74
     0
 42
0.0000000001
 43
0.0000000001
 40
0.0
 40
0.0
 40
0.0
 40
0.0
 40
0.0773059014842639
 40
0.1548581663688126
 40
0.2321643093064632
 40
0.3094725256546039
 40
0.3870274206574293
 40
0.4643359282324801
 40
0.5416666399475103
 40
0.6192441954823594
 40
0.6965752083766389
 40
0.7739126343827243
 40
0.8514968179540232
 40
0.9288340922185094
 40
1.0
 40
1.0
 40
1.0
 40
1.0
 10
4851.928420985788
 20
2500.717213789855
 30
0.0
 10
4851.931410730541
 20
2500.717343090908
 30
0.0
 10
4851.937399747956
 20
2500.717602105082
 30
0.0
 10
4851.946251840633
 20
2500.719259274368
 30
0.0
 10
4851.95487418672
 20
2500.721813996857
 30
0.0
 10
4851.963144062231
 20
2500.72536215068
 30
0.0
 10
4851.970969154412
 20
2500.729799238174
 30
0.0
 10
4851.978255817094
 20
2500.735079036185
 30
0.0
 10
4851.984888339272
 20
2500.741161153879
 30
0.0
 10
4851.990805705638
 20
2500.747940894252
 30
0.0
 10
4851.995934611622
 20
2500.755336176617
 30
0.0
 10
4852.000184558641
 20
2500.763271745094
 30
0.0
 10
4852.003510308174
 20
2500.771630001139
 30
0.0
 10
4852.00588993274
 20
2500.78007134166
 30
0.0
 10
4852.006680019046
 20
2500.785764517219
 30
0.0
 10
4852.007058645337
 20
2500.788492808972
 30
0.0
  0
SPLINE
  5
184C
330
1F
100
AcDbEntity
  8
SANINDUSA
100
AcDbSpline
210
0.0
220
0.0
230
1.0
 70
     8
 71
     3
 72
    38
 73
    34
 74
     0
 42
0.0000000001
 43
0.0000000001
 40
0.0
 40
0.0
 40
0.0
 40
0.0
 40
0.1249999999999921
 40
0.1249999999999921
 40
0.1874999999999889
 40
0.1874999999999889
 40
0.2187499999999874
 40
0.2187499999999874
 40
0.2499999999999858
 40
0.2499999999999858
 40
0.374999999999984
 40
0.374999999999984
 40
0.4374999999999836
 40
0.4374999999999836
 40
0.4687499999999841
 40
0.4687499999999841
 40
0.4999999999999845
 40
0.4999999999999845
 40
0.6249999999999851
 40
0.6249999999999851
 40
0.6874999999999849
 40
0.6874999999999849
 40
0.7187499999999859
 40
0.7187499999999859
 40
0.7499999999999869
 40
0.7499999999999869
 40
0.8749999999999953
 40
0.8749999999999953
 40
0.9062499999999966
 40
0.9062499999999966
 40
0.937499999999998
 40
0.937499999999998
 40
1.0
 40
1.0
 40
1.0
 40
1.0
 10
4851.928321595798
 20
2500.727213294652
 30
0.0
 10
4851.932590510593
 20
2500.727255730629
 30
0.0
 10
4851.936789500147
 20
2500.727685460546
 30
0.0
 10
4851.94298749826
 20
2500.728886617017
 30
0.0
 10
4851.945036642047
 20
2500.729380360289
 30
0.0
 10
4851.948084674557
 20
2500.730263226214
 30
0.0
 10
4851.949096398338
 20
2500.730581259507
 30
0.0
 10
4851.95111112247
 20
2500.73126564244
 30
0.0
 10
4851.952115402614
 20
2500.731632623634
 30
0.0
 10
4851.957064335248
 20
2500.733570277524
 30
0.0
 10
4851.960831732291
 20
2500.73545848993
 30
0.0
 10
4851.966203313428
 20
2500.738783644507
 30
0.0
 10
4851.9679469649
 20
2500.739974679728
 30
0.0
 10
4851.970490508064
 20
2500.741888065668
 30
0.0
 10
4851.971327707587
 20
2500.742548164543
 30
0.0
 10
4851.972971467848
 20
2500.743906514263
 30
0.0
 10
4851.973774737786
 20
2500.744601932308
 30
0.0
 10
4851.977699811598
 20
2500.748158689142
 30
0.0
 10
4851.980550015627
 20
2500.751257083325
 30
0.0
 10
4851.984396768213
 20
2500.756278720868
 30
0.0
 10
4851.985607161076
 20
2500.758015318518
 30
0.0
 10
4851.987311681656
 20
2500.760717157011
 30
0.0
 10
4851.987860903385
 20
2500.761633603874
 30
0.0
 10
4851.988911000771
 20
2500.763479999529
 30
0.0
 10
4851.989413374885
 20
2500.764412259356
 30
0.0
 10
4851.991813628172
 20
2500.769118166844
 30
0.0
 10
4851.993379375273
 20
2500.7730245526
 30
0.0
 10
4851.994893658083
 20
2500.778084542222
 30
0.0
 10
4851.995174199649
 20
2500.779105458437
 30
0.0
 10
4851.995689959697
 20
2500.781165404442
 30
0.0
 10
4851.995925504777
 20
2500.782206128218
 30
0.0
 10
4851.996560048291
 20
2500.785342682146
 30
0.0
 10
4851.996886756642
 20
2500.787449239898
 30
0.0
 10
4851.997116976267
 20
2500.789571346532
 30
0.0
  0
SPLINE
  5
184E
330
1F
100
AcDbEntity
  8
SANINDUSA
100
AcDbSpline
210
0.0
220
0.0
230
1.0
 70
    24
 71
     1
 72
     4
 73
     2
 74
     0
 42
0.0000000001
 43
0.0000000001
 40
0.0
 40
0.0
 40
1.0
 40
1.0
 10
4852.179436946958
 20
2501.085390873175
 30
0.0
 10
4852.180982853025
 20
2501.090591290888
 30
0.0
  0
SPLINE
  5
184F
330
1F
100
AcDbEntity
  8
SANINDUSA
100
AcDbSpline
210
0.0
220
0.0
230
1.0
 70
     8
 71
     3
 72
    42
 73
    38
 74
     0
 42
0.0000000001
 43
0.0000000001
 40
0.0
 40
0.0
 40
0.0
 40
0.0
 40
0.0286140975900576
 40
0.0572207441619178
 40
0.0858203873148974
 40
0.1144134749772002
 40
0.1430004553851647
 40
0.1715817770625194
 40
0.2001578887993942
 40
0.2287292396314558
 40
0.2572962788188681
 40
0.2858594558252455
 40
0.3144192202965363
 40
0.3429760220399113
 40
0.371530311002525
 40
0.4000825372503564
 40
0.4286331509469111
 40
0.4571826023319751
 40
0.4857313417003493
 40
0.514279819380481
 40
0.5428284857132589
 40
0.571377791030601
 40
0.5999281856342078
 40
0.628480119774232
 40
0.657034043628006
 40
0.6855904072787603
 40
0.7141496606943654
 40
0.7427122537061316
 40
0.7712786359875869
 40
0.7998492570333676
 40
0.8284245661380543
 40
0.8570050123751558
 40
0.8855910445760477
 40
0.914183111309075
 40
0.9427816608585988
 40
0.971387141204217
 40
1.0
 40
1.0
 40
1.0
 40
1.0
 10
4852.149901838868
 20
2501.007599871997
 30
0.0
 10
4852.150233758239
 20
2501.008321486261
 30
0.0
 10
4852.150897510551
 20
2501.009764526882
 30
0.0
 10
4852.151882153999
 20
2501.011933786768
 30
0.0
 10
4852.152858582321
 20
2501.014106112365
 30
0.0
 10
4852.153826017495
 20
2501.016281862613
 30
0.0
 10
4852.154784667914
 20
2501.018460941368
 30
0.0
 10
4852.155734477757
 20
2501.020643374381
 30
0.0
 10
4852.156675461975
 20
2501.022829154753
 30
0.0
 10
4852.157607616561
 20
2501.025018284328
 30
0.0
 10
4852.158530942589
 20
2501.027210762613
 30
0.0
 10
4852.15944543977
 20
2501.029406589736
 30
0.0
 10
4852.160351108181
 20
2501.031605765661
 30
0.0
 10
4852.161247947798
 20
2501.033808290396
 30
0.0
 10
4852.162135958628
 20
2501.036014163937
 30
0.0
 10
4852.163015140668
 20
2501.038223386284
 30
0.0
 10
4852.163885493918
 20
2501.040435957432
 30
0.0
 10
4852.164747018377
 20
2501.042651877383
 30
0.0
 10
4852.165599714044
 20
2501.044871146134
 30
0.0
 10
4852.166443580918
 20
2501.047093763683
 30
0.0
 10
4852.167278618999
 20
2501.049319730028
 30
0.0
 10
4852.168104828287
 20
2501.051549045169
 30
0.0
 10
4852.168922208782
 20
2501.053781709102
 30
0.0
 10
4852.16973076048
 20
2501.056017721828
 30
0.0
 10
4852.170530483384
 20
2501.058257083343
 30
0.0
 10
4852.171321377493
 20
2501.060499793645
 30
0.0
 10
4852.172103442801
 20
2501.062745852736
 30
0.0
 10
4852.172876679329
 20
2501.064995260607
 30
0.0
 10
4852.173641086997
 20
2501.067248017279
 30
0.0
 10
4852.174396666106
 20
2501.069504122662
 30
0.0
 10
4852.175143415525
 20
2501.071763577092
 30
0.0
 10
4852.175881339476
 20
2501.074026379295
 30
0.0
 10
4852.176610422196
 20
2501.076292534031
 30
0.0
 10
4852.177330722533
 20
2501.078562023514
 30
0.0
 10
4852.178042020785
 20
2501.080834914136
 30
0.0
 10
4852.178745137187
 20
2501.083110958026
 30
0.0
 10
4852.179206323457
 20
2501.084630835823
 30
0.0
 10
4852.179436946328
 20
2501.085390872717
 30
0.0
  0
SPLINE
  5
1850
330
1F
100
AcDbEntity
  8
SANINDUSA
100
AcDbSpline
210
0.0
220
0.0
230
1.0
 70
     8
 71
     3
 72
    11
 73
     7
 74
     0
 42
0.0000000001
 43
0.0000000001
 40
0.0
 40
0.0
 40
0.0
 40
0.0
 40
0.2495361226660925
 40
0.4990724737764296
 40
0.7495362002187429
 40
1.0
 40
1.0
 40
1.0
 40
1.0
 10
4852.115333164781
 20
2500.943277920518
 30
0.0
 10
4852.118485872916
 20
2500.948474289041
 30
0.0
 10
4852.124791292069
 20
2500.958867030844
 30
0.0
 10
4852.133645615847
 20
2500.974835035963
 30
0.0
 10
4852.142090244473
 20
2500.991048969011
 30
0.0
 10
4852.147297969366
 20
2501.002082902863
 30
0.0
 10
4852.149901832193
 20
2501.007599870596
 30
0.0
  0
LINE
  5
1851
330
1F
100
AcDbEntity
  8
SANINDUSA
100
AcDbLine
 10
4852.117816234677
 20
2500.706994305287
 30
0.0
 11
4852.108812714666
 21
2500.706994305287
 31
0.0
  0
SPLINE
  5
1852
330
1F
100
AcDbEntity
  8
SANINDUSA
100
AcDbSpline
210
0.0
220
0.0
230
1.0
 70
     8
 71
     3
 72
    12
 73
     8
 74
     0
 42
0.0000000001
 43
0.0000000001
 40
0.0
 40
0.0
 40
0.0
 40
0.0
 40
0.2500000000000003
 40
0.2500000000000003
 40
0.5000000000000007
 40
0.5000000000000007
 40
1.0
 40
1.0
 40
1.0
 40
1.0
 10
4852.007058644208
 20
2500.788492811159
 30
0.0
 10
4852.008059022313
 20
2500.797714085504
 30
0.0
 10
4852.009081499807
 20
2500.806932945975
 30
0.0
 10
4852.011090624521
 20
2500.825374558655
 30
0.0
 10
4852.012081479823
 20
2500.83459684363
 30
0.0
 10
4852.015030946752
 20
2500.862266190333
 30
0.0
 10
4852.016973044804
 20
2500.88071498427
 30
0.0
 10
4852.018914571427
 20
2500.899163852933
 30
0.0
  0
SPLINE
  5
1853
330
1F
100
AcDbEntity
  8
SANINDUSA
100
AcDbSpline
210
0.0
220
0.0
230
1.0
 70
     8
 71
     3
 72
     8
 73
     4
 74
     0
 42
0.0000000001
 43
0.0000000001
 40
0.0
 40
0.0
 40
0.0
 40
0.0
 40
1.0
 40
1.0
 40
1.0
 40
1.0
 10
4851.920018523176
 20
2500.717286719169
 30
0.0
 10
4851.922818891272
 20
2500.717210244306
 30
0.0
 10
4851.92561971221
 20
2500.717185942129
 30
0.0
 10
4851.928420985777
 20
2500.717213788583
 30
0.0
  0
SPLINE
  5
1854
330
1F
100
AcDbEntity
  8
SANINDUSA
100
AcDbSpline
210
0.0
220
0.0
230
1.0
 70
    24
 71
     1
 72
     4
 73
     2
 74
     0
 42
0.0000000001
 43
0.0000000001
 40
0.0
 40
0.0
 40
1.0
 40
1.0
 10
4851.837141389697
 20
2500.819361577664
 30
0.0
 10
4851.843587334006
 20
2500.783079693947
 30
0.0
  0
SPLINE
  5
1855
330
1F
100
AcDbEntity
  8
SANINDUSA
100
AcDbSpline
210
0.0
220
0.0
230
1.0
 70
     8
 71
     3
 72
     8
 73
     4
 74
     0
 42
0.0000000001
 43
0.0000000001
 40
0.0
 40
0.0
 40
0.0
 40
0.0
 40
1.0
 40
1.0
 40
1.0
 40
1.0
 10
4851.837141393572
 20
2500.81936157352
 30
0.0
 10
4851.837029099673
 20
2500.819996418237
 30
0.0
 10
4851.836851192686
 20
2500.820618313063
 30
0.0
 10
4851.836611121676
 20
2500.821216644208
 30
0.0
  0
ARC
  5
1856
330
1F
100
AcDbEntity
  8
SANINDUSA
100
AcDbCircle
 10
4851.828067551417
 20
2500.817788670602
 30
0.0
 40
0.0092056284853652
100
AcDbArc
 50
21.86243043049634
 51
177.9999999962464
  0
LINE
  5
1857
330
1F
100
AcDbEntity
  8
SANINDUSA
100
AcDbLine
 10
4851.818867529481
 20
2500.818109939728
 30
0.0
 11
4851.815511102527
 21
2500.721994290981
 31
0.0
  0
LINE
  5
1858
330
1F
100
AcDbEntity
  8
SANINDUSA
100
AcDbLine
 10
4851.815511102527
 20
2500.721994290981
 30
0.0
 11
4851.805505002587
 21
2500.721994290981
 31
0.0
  0
LINE
  5
1859
330
1F
100
AcDbEntity
  8
SANINDUSA
100
AcDbLine
 10
4851.808873618692
 20
2500.818458924924
 30
0.0
 11
4851.805505002587
 21
2500.721994290981
 31
0.0
  0
ARC
  5
185A
330
1F
100
AcDbEntity
  8
SANINDUSA
100
AcDbCircle
 10
4851.828067551417
 20
2500.817788670602
 30
0.0
 40
0.0192056284853652
100
AcDbArc
 50
21.86243043049634
 51
177.9999999962464
  0
SPLINE
  5
185B
330
1F
100
AcDbEntity
  8
SANINDUSA
100
AcDbSpline
210
0.0
220
0.0
230
1.0
 70
     8
 71
     3
 72
    15
 73
    11
 74
     0
 42
0.0000000001
 43
0.0000000001
 40
0.0
 40
0.0
 40
0.0
 40
0.0
 40
0.0000105521703495
 40
0.0001075518160838
 40
0.0002988053552644
 40
0.0010788812839367
 40
0.0026224044879574
 40
0.0057260792498977
 40
0.2040718559058648
 40
1.0
 40
1.0
 40
1.0
 40
1.0
 10
4851.845891917794
 20
2500.824940423403
 30
0.0
 10
4851.845891927966
 20
2500.824940413629
 30
0.0
 10
4851.845892031629
 20
2500.824940314004
 30
0.0
 10
4851.845892114812
 20
2500.824939898945
 30
0.0
 10
4851.845892675243
 20
2500.824938614723
 30
0.0
 10
4851.845893892702
 20
2500.824935470071
 30
0.0
 10
4851.845896603168
 20
2500.824928791022
 30
0.0
 10
4851.845997147844
 20
2500.824677723753
 30
0.0
 10
4851.846470264584
 20
2500.823436189127
 30
0.0
 10
4851.846758104645
 20
2500.822140549436
 30
0.0
 10
4851.846988524049
 20
2500.821103374395
 30
0.0
  0
SPLINE
  5
185C
330
1F
100
AcDbEntity
  8
SANINDUSA
100
AcDbSpline
210
0.0
220
0.0
230
1.0
 70
    24
 71
     3
 72
     8
 73
     4
 74
     0
 42
0.0000000001
 43
0.0000000001
 40
0.0
 40
0.0
 40
0.0
 40
0.0
 40
1.0
 40
1.0
 40
1.0
 40
1.0
 10
4851.846988531597
 20
2500.821103375096
 30
0.0
 10
4851.849127168267
 20
2500.80901276112
 30
0.0
 10
4851.851274892903
 20
2500.79692376174
 30
0.0
 10
4851.853431835912
 20
2500.784836400126
 30
0.0
  0
SPLINE
  5
185D
330
1F
100
AcDbEntity
  8
SANINDUSA
100
AcDbSpline
210
0.0
220
0.0
230
1.0
 70
    24
 71
     1
 72
     4
 73
     2
 74
     0
 42
0.0000000001
 43
0.0000000001
 40
0.0
 40
0.0
 40
1.0
 40
1.0
 10
4851.920291508287
 20
2500.72728298131
 30
0.0
 10
4851.928321595043
 20
2500.727213303481
 30
0.0
  0
SPLINE
  5
185E
330
1F
100
AcDbEntity
  8
SANINDUSA
100
AcDbSpline
210
0.0
220
0.0
230
1.0
 70
     8
 71
     3
 72
    14
 73
    10
 74
     0
 42
0.0000000001
 43
0.0000000001
 40
0.3066758625569752
 40
0.3066758625569752
 40
0.3066758625569752
 40
0.3066758625569752
 40
0.445936047935113
 40
0.445936047935113
 40
0.5631913183037187
 40
0.5631913183037187
 40
0.7891865455114408
 40
0.7891865455114408
 40
0.8603971964519171
 40
0.8603971964519171
 40
0.8603971964519171
 40
0.8603971964519171
 10
4852.141729542403
 20
2501.011369960928
 30
0.0
 10
4852.136520088725
 20
2501.000078284447
 30
0.0
 10
4852.13096417026
 20
2500.988971838178
 30
0.0
 10
4852.120101656874
 20
2500.968863703175
 30
0.0
 10
4852.113749051278
 20
2500.960659998623
 30
0.0
 10
4852.092030007325
 20
2500.940191548808
 30
0.0
 10
4852.073767769845
 20
2500.931216115264
 30
0.0
 10
4852.047558686133
 20
2500.927438447748
 30
0.0
 10
4852.041288715856
 20
2500.926598859805
 30
0.0
 10
4852.035017015658
 20
2500.925823510144
 30
0.0
  0
SPLINE
  5
185F
330
1F
100
AcDbEntity
  8
SANINDUSA
100
AcDbSpline
210
0.0
220
0.0
230
1.0
 70
     8
 71
     3
 72
    15
 73
    11
 74
     0
 42
0.0000000001
 43
0.0000000001
 40
0.0
 40
0.0
 40
0.0
 40
0.0
 40
0.1256310571581539
 40
0.2512609662589118
 40
0.3768912795495937
 40
0.5025217092178409
 40
0.6281512737697384
 40
0.7537811635699773
 40
0.8768905432936959
 40
1.0
 40
1.0
 40
1.0
 40
1.0
 10
4852.036346579641
 20
2500.916919390593
 30
0.0
 10
4852.035237609044
 20
2500.916725569108
 30
0.0
 10
4852.033019677981
 20
2500.916337927908
 30
0.0
 10
4852.029872781631
 20
2500.915066646295
 30
0.0
 10
4852.026979360635
 20
2500.913315291778
 30
0.0
 10
4852.024416869827
 20
2500.911101163679
 30
0.0
 10
4852.022267945899
 20
2500.90848381015
 30
0.0
 10
4852.020601154305
 20
2500.905566743608
 30
0.0
 10
4852.019420873738
 20
2500.902434165118
 30
0.0
 10
4852.019083341566
 20
2500.900253956845
 30
0.0
 10
4852.018914575427
 20
2500.899163852368
 30
0.0
  0
SPLINE
  5
1860
330
1F
100
AcDbEntity
  8
SANINDUSA
100
AcDbSpline
210
0.0
220
0.0
230
1.0
 70
     8
 71
     3
 72
    30
 73
    26
 74
     0
 42
0.0000000001
 43
0.0000000001
 40
0.0
 40
0.0
 40
0.0
 40
0.0
 40
0.0477367529085136
 40
0.0955056346060898
 40
0.1433071053592339
 40
0.1911416244937326
 40
0.2390096503839993
 40
0.2689304634808547
 40
0.2988818409756627
 40
0.3327933631451359
 40
0.3629271069082228
 40
0.4273021362033755
 40
0.491670566286038
 40
0.5554871924573992
 40
0.6192193064969335
 40
0.682955492725542
 40
0.7467843185094562
 40
0.7784647734225948
 40
0.8101154942561002
 40
0.841747264191656
 40
0.8733708857968627
 40
0.904997169988974
 40
0.9366369249559324
 40
0.9683009450913505
 40
1.0
 40
1.0
 40
1.0
 40
1.0
 10
4852.036346567451
 20
2500.916919390484
 30
0.0
 10
4852.03731925878
 20
2500.917040766445
 30
0.0
 10
4852.039265296096
 20
2500.917283600057
 30
0.0
 10
4852.042183889213
 20
2500.917659482022
 30
0.0
 10
4852.045103378149
 20
2500.91804400344
 30
0.0
 10
4852.048023645904
 20
2500.918438096206
 30
0.0
 10
4852.050579010408
 20
2500.918790681242
 30
0.0
 10
4852.052769739643
 20
2500.919099278608
 30
0.0
 10
4852.054676471928
 20
2500.919369343871
 30
0.0
 10
4852.056585730207
 20
2500.919652958441
 30
0.0
 10
4852.059186895774
 20
2500.920087027434
 30
0.0
 10
4852.062388545395
 20
2500.920718284203
 30
0.0
 10
4852.066237869774
 20
2500.921626138685
 30
0.0
 10
4852.07003780725
 20
2500.922674055467
 30
0.0
 10
4852.073783736956
 20
2500.92385869457
 30
0.0
 10
4852.077483053403
 20
2500.925182415286
 30
0.0
 10
4852.080519440021
 20
2500.926398328313
 30
0.0
 10
4852.082915705653
 20
2500.927435875912
 30
0.0
 10
4852.084690661188
 20
2500.92824360387
 30
0.0
 10
4852.086449340269
 20
2500.929083465616
 30
0.0
 10
4852.088191718046
 20
2500.929955517757
 30
0.0
 10
4852.089917913203
 20
2500.93085955956
 30
0.0
 10
4852.09162747196
 20
2500.931796335918
 30
0.0
 10
4852.093322088814
 20
2500.932763063306
 30
0.0
 10
4852.094436905415
 20
2500.933434003294
 30
0.0
 10
4852.094994621918
 20
2500.933769658777
 30
0.0
  0
ARC
  5
1861
330
1F
100
AcDbEntity
  8
SANINDUSA
100
AcDbCircle
 10
4852.136593361874
 20
2500.930124868208
 30
0.0
 40
0.0249999999999996
100
AcDbArc
 50
148.2561676036065
 51
181.6000000025688
  0
LINE
  5
1862
330
1F
100
AcDbEntity
  8
SANINDUSA
100
AcDbLine
 10
4852.145075644106
 20
2501.046994297687
 30
0.0
 11
4852.13607015714
 21
2501.046994297687
 31
0.0
  0
LINE
  5
1863
330
1F
100
AcDbEntity
  8
SANINDUSA
100
AcDbLine
 10
4852.142644668668
 20
2501.096994298898
 30
0.0
 11
4852.176183725447
 21
2501.096994298898
 31
0.0
  0
SPLINE
  5
1864
330
1F
100
AcDbEntity
  8
SANINDUSA
100
AcDbSpline
210
0.0
220
0.0
230
1.0
 70
    24
 71
     3
 72
     9
 73
     5
 74
     0
 42
0.0000000001
 43
0.0000000001
 40
0.0
 40
0.0
 40
0.0
 40
0.0
 40
0.3686928203732606
 40
1.0
 40
1.0
 40
1.0
 40
1.0
 10
4852.145075644106
 20
2501.046994297687
 30
0.0
 10
4852.145251620539
 20
2501.05203309914
 30
0.0
 10
4852.145728918777
 20
2501.065699764653
 30
0.0
 10
4852.146206136379
 20
2501.079366432982
 30
0.0
 10
4852.146507407278
 20
2501.08799429882
 30
0.0
  0
LINE
  5
1865
330
1F
100
AcDbEntity
  8
SANINDUSA
100
AcDbLine
 10
4852.146507407278
 20
2501.08799429882
 30
0.0
 11
4852.170821691602
 21
2501.08799429882
 31
0.0
  0
LINE
  5
1873
330
1F
100
AcDbEntity
  8
SANINDUSA
100
AcDbLine
 10
4851.678949857801
 20
2500.706994305287
 30
0.0
 11
4851.718435625285
 21
2500.706994305287
 31
0.0
  0
LINE
  5
187D
330
1F
100
AcDbEntity
  8
SANINDUSA
100
AcDbLine
 10
4851.694005000144
 20
2501.084994298328
 30
0.0
 11
4851.680724280625
 21
2501.084994298328
 31
0.0
  0
LINE
  5
187E
330
1F
100
AcDbEntity
  8
SANINDUSA
100
AcDbLine
 10
4851.680724280625
 20
2501.081994299699
 30
0.0
 11
4851.680724280625
 21
2501.084994298328
 31
0.0
  0
LINE
  5
187F
330
1F
100
AcDbEntity
  8
SANINDUSA
100
AcDbLine
 10
4851.680724280625
 20
2501.081994299699
 30
0.0
 11
4851.667505006044
 21
2501.081994299699
 31
0.0
  0
LINE
  5
1880
330
1F
100
AcDbEntity
  8
SANINDUSA
100
AcDbLine
 10
4851.667505006044
 20
2501.091994299475
 30
0.0
 11
4851.667505006044
 21
2501.081994299699
 31
0.0
  0
LINE
  5
1881
330
1F
100
AcDbEntity
  8
SANINDUSA
100
AcDbLine
 10
4851.680005001575
 20
2501.091994299475
 30
0.0
 11
4851.667505006044
 21
2501.091994299475
 31
0.0
  0
ARC
  5
1882
330
1F
100
AcDbEntity
  8
SANINDUSA
100
AcDbCircle
 10
4851.680005003085
 20
2501.096994299088
 30
0.0
 40
0.005
100
AcDbArc
 50
270.0
 51
343.3984503957571
  0
ARC
  5
1883
330
1F
100
AcDbEntity
  8
SANINDUSA
100
AcDbCircle
 10
4851.686713207017
 20
2501.094994299088
 30
0.0
 40
0.0020000000000001
100
AcDbArc
 50
90.0
 51
163.3984503957571
  0
ARC
  5
1884
330
1F
100
AcDbEntity
  8
SANINDUSA
100
AcDbCircle
 10
4851.813234556214
 20
2501.091994299088
 30
0.0
 40
0.005
100
AcDbArc
 50
4.999999996291116
 51
90.0
  0
LINE
  5
1885
330
1F
100
AcDbEntity
  8
SANINDUSA
100
AcDbLine
 10
4851.822190652341
 20
2501.046994297687
 30
0.0
 11
4851.818215529173
 21
2501.092430077415
 31
0.0
  0
LINE
  5
1886
330
1F
100
AcDbEntity
  8
SANINDUSA
100
AcDbLine
 10
4851.694005000144
 20
2501.084994298328
 30
0.0
 11
4851.694005000144
 21
2501.08799429882
 31
0.0
  0
LINE
  5
1887
330
1F
100
AcDbEntity
  8
SANINDUSA
100
AcDbLine
 10
4851.813156272023
 20
2501.046994297687
 30
0.0
 11
4851.809569234699
 21
2501.08799429882
 31
0.0
  0
LINE
  5
1888
330
1F
100
AcDbEntity
  8
SANINDUSA
100
AcDbLine
 10
4851.822190652341
 20
2501.046994297687
 30
0.0
 11
4851.813156272023
 21
2501.046994297687
 31
0.0
  0
LINE
  5
1889
330
1F
100
AcDbEntity
  8
SANINDUSA
100
AcDbLine
 10
4851.686713206321
 20
2501.096994298898
 30
0.0
 11
4851.813234562724
 21
2501.096994298898
 31
0.0
  0
LINE
  5
188A
330
1F
100
AcDbEntity
  8
SANINDUSA
100
AcDbLine
 10
4851.694005000144
 20
2501.08799429882
 30
0.0
 11
4851.809569234699
 21
2501.08799429882
 31
0.0
  0
LINE
  5
188E
330
1F
100
AcDbEntity
  8
SANINDUSA
100
AcDbLine
 10
4851.578296798951
 20
2501.096994298898
 30
0.0
 11
4851.686713206321
 21
2501.096994298898
 31
0.0
  0
LINE
  5
189C
330
1F
100
AcDbEntity
  8
SANINDUSA
100
AcDbLine
 10
4851.725505004376
 20
2500.721994290981
 30
0.0
 11
4851.805505002587
 21
2500.721994290981
 31
0.0
  0
LINE
  5
18AF
330
1F
100
AcDbEntity
  8
SANINDUSA
100
AcDbLine
 10
4851.718435625285
 20
2500.706994305287
 30
0.0
 11
4851.719407225698
 21
2500.706994305287
 31
0.0
  0
SPLINE
  5
18B4
330
1F
100
AcDbEntity
  8
SANINDUSA
100
AcDbSpline
210
0.0
220
0.0
230
1.0
 70
    24
 71
     3
 72
    34
 73
    30
 74
     0
 42
0.0000000001
 43
0.0000000001
 40
0.0
 40
0.0
 40
0.0
 40
0.0
 40
0.124999999999999
 40
0.124999999999999
 40
0.1874999999999989
 40
0.1874999999999989
 40
0.2187499999999993
 40
0.2187499999999993
 40
0.2499999999999998
 40
0.2499999999999998
 40
0.3750000000000024
 40
0.3750000000000024
 40
0.4375000000000039
 40
0.4375000000000039
 40
0.4687500000000041
 40
0.4687500000000041
 40
0.5000000000000044
 40
0.5000000000000044
 40
0.6250000000000046
 40
0.6250000000000046
 40
0.6875000000000047
 40
0.6875000000000047
 40
0.7500000000000049
 40
0.7500000000000049
 40
0.8750000000000024
 40
0.8750000000000024
 40
0.9375000000000012
 40
0.9375000000000012
 40
1.0
 40
1.0
 40
1.0
 40
1.0
 10
4851.822190645261
 20
2501.046994299088
 30
0.0
 10
4851.822190645261
 20
2501.046994299088
 30
0.0
 10
4851.8223998073
 20
2501.046994299088
 30
0.0
 10
4851.823014332561
 20
2501.046994299088
 30
0.0
 10
4851.823269608297
 20
2501.046994299088
 30
0.0
 10
4851.823729218423
 20
2501.046994299088
 30
0.0
 10
4851.823895222818
 20
2501.046994299088
 30
0.0
 10
4851.824253238
 20
2501.046994299088
 30
0.0
 10
4851.824445787855
 20
2501.046994299088
 30
0.0
 10
4851.825466653809
 20
2501.046994299088
 30
0.0
 10
4851.826467617524
 20
2501.046994299088
 30
0.0
 10
4851.828235907863
 20
2501.046994299088
 30
0.0
 10
4851.828870076465
 20
2501.046994299088
 30
0.0
 10
4851.829889598502
 20
2501.046994299088
 30
0.0
 10
4851.830240833709
 20
2501.046994299088
 30
0.0
 10
4851.830966494169
 20
2501.046994299088
 30
0.0
 10
4851.831340732736
 20
2501.046994299088
 30
0.0
 10
4851.833251206376
 20
2501.046994299088
 30
0.0
 10
4851.834918483929
 20
2501.046994299088
 30
0.0
 10
4851.837622036603
 20
2501.046994299088
 30
0.0
 10
4851.838557190461
 20
2501.046994299088
 30
0.0
 10
4851.840496864672
 20
2501.046994299088
 30
0.0
 10
4851.841504992937
 20
2501.046994299088
 30
0.0
 10
4851.844577206858
 20
2501.046994299088
 30
0.0
 10
4851.846704278536
 20
2501.046994299088
 30
0.0
 10
4851.850010947814
 20
2501.046994299088
 30
0.0
 10
4851.851132625207
 20
2501.046994299088
 30
0.0
 10
4851.853415861157
 20
2501.046994299088
 30
0.0
 10
4851.854576997304
 20
2501.046994299088
 30
0.0
 10
4851.855744834604
 20
2501.046994299088
 30
0.0
  0
LINE
  5
18B6
330
1F
100
AcDbEntity
  8
SANINDUSA
100
AcDbLine
 10
4852.014297003597
 20
2500.706994305287
 30
0.0
 11
4851.719407225698
 21
2500.706994305287
 31
0.0
  0
SPLINE
  5
18B8
330
1F
100
AcDbEntity
  8
SANINDUSA
100
AcDbSpline
210
0.0
220
0.0
230
1.0
 70
    24
 71
     3
 72
    12
 73
     8
 74
     0
 42
0.0000000001
 43
0.0000000001
 40
0.0
 40
0.0
 40
0.0
 40
0.0
 40
0.0063358886310022
 40
0.2537379269515902
 40
0.5015395158001201
 40
0.7505625646458686
 40
1.0
 40
1.0
 40
1.0
 40
1.0
 10
4851.855744833797
 20
2501.046994297687
 30
0.0
 10
4851.855962682294
 20
2501.046994297687
 30
0.0
 10
4851.864687019055
 20
2501.046994297687
 30
0.0
 10
4851.881993202772
 20
2501.046994297687
 30
0.0
 10
4851.907796230443
 20
2501.046994297687
 30
0.0
 10
4851.933756371519
 20
2501.046994297687
 30
0.0
 10
4851.951124785866
 20
2501.046994297687
 30
0.0
 10
4851.959816212505
 20
2501.046994297687
 30
0.0
  0
SPLINE
  5
18B9
330
1F
100
AcDbEntity
  8
SANINDUSA
100
AcDbSpline
210
0.0
220
0.0
230
1.0
 70
    24
 71
     3
 72
    14
 73
    10
 74
     0
 42
0.0000000001
 43
0.0000000001
 40
0.0
 40
0.0
 40
0.0
 40
0.0
 40
0.25
 40
0.25
 40
0.5
 40
0.5
 40
0.75
 40
0.75
 40
1.0
 40
1.0
 40
1.0
 40
1.0
 10
4851.95981621377
 20
2501.096994299088
 30
0.0
 10
4851.95067491988
 20
2501.096994299088
 30
0.0
 10
4851.941541683624
 20
2501.096994299088
 30
0.0
 10
4851.923291691356
 20
2501.096994299088
 30
0.0
 10
4851.914174937551
 20
2501.096994299088
 30
0.0
 10
4851.895957871278
 20
2501.096994299088
 30
0.0
 10
4851.886873255108
 20
2501.096994299088
 30
0.0
 10
4851.868752587545
 20
2501.096994299088
 30
0.0
 10
4851.859716586647
 20
2501.096994299088
 30
0.0
 10
4851.850705296429
 20
2501.096994299088
 30
0.0
  0
SPLINE
  5
18BE
330
1F
100
AcDbEntity
  8
SANINDUSA
100
AcDbSpline
210
0.0
220
0.0
230
1.0
 70
    24
 71
     1
 72
     4
 73
     2
 74
     0
 42
0.0000000001
 43
0.0000000001
 40
0.0
 40
0.0
 40
1.0
 40
1.0
 10
4851.853530521244
 20
2500.919304693971
 30
0.0
 10
4851.865921075194
 20
2500.90231185678
 30
0.0
  0
CIRCLE
  5
18C4
330
1F
100
AcDbEntity
  8
SANINDUSA
100
AcDbCircle
 10
4849.942313963355
 20
2501.172398309359
 30
0.0
 40
0.00775
  0
CIRCLE
  5
18C6
330
1F
100
AcDbEntity
  8
SANINDUSA
100
AcDbCircle
 10
4849.787313963354
 20
2501.172398309359
 30
0.0
 40
0.00775
  0
LINE
  5
18CC
330
1F
100
AcDbEntity
  8
SANINDUSA
100
AcDbLine
 10
4851.813234562724
 20
2501.096994298898
 30
0.0
 11
4851.850705290884
 21
2501.096994298898
 31
0.0
  0
LINE
  5
18D0
330
1F
100
AcDbEntity
  8
SANINDUSA
100
AcDbLine
 10
4851.95981621377
 20
2501.096994299088
 30
0.0
 11
4852.142644655958
 21
2501.096994299088
 31
0.0
  0
LINE
  5
18D5
330
1F
100
AcDbEntity
  8
SANINDUSA
100
AcDbLine
 10
4851.997116976267
 20
2500.789571346532
 30
0.0
 11
4852.008861759367
 21
2500.899190326085
 31
0.0
  0
LINE
  5
18EA
330
1F
100
AcDbEntity
  8
SANINDUSA
100
AcDbLine
 10
4851.70898125574
 20
2500.965283642445
 30
0.0
 11
4851.822037262618
 21
2500.965283642445
 31
0.0
  0
LINE
  5
1E15
330
1F
100
AcDbEntity
  8
SANINDUSA
100
AcDbLine
 10
4850.53836950713
 20
2501.439992635616
 30
0.0
 11
4850.523369712745
 21
2501.439992635616
 31
0.0
  0
ARC
  5
1E18
330
1F
100
AcDbEntity
  8
SANINDUSA
100
AcDbCircle
 10
4850.53836950713
 20
2501.442992635616
 30
0.0
 40
0.0030000000000001
100
AcDbArc
 50
270.0
 51
0.3000000005074375
  0
LINE
  5
1E19
330
1F
100
AcDbEntity
  8
SANINDUSA
100
AcDbLine
 10
4850.523369712745
 20
2501.439992635616
 30
0.0
 11
4850.283922078054
 21
2501.439992635616
 31
0.0
  0
LINE
  5
1E1C
330
1F
100
AcDbEntity
  8
SANINDUSA
100
AcDbLine
 10
4850.283922078054
 20
2501.439992635616
 30
0.0
 11
4850.26892228367
 21
2501.439992635616
 31
0.0
  0
ARC
  5
1E1D
330
1F
100
AcDbEntity
  8
SANINDUSA
100
AcDbCircle
 10
4850.26892228367
 20
2501.442992635616
 30
0.0
 40
0.0030000000000001
100
AcDbArc
 50
179.6999999994925
 51
270.0
  0
LINE
  5
1E20
330
1F
100
AcDbEntity
  8
SANINDUSA
100
AcDbLine
 10
4850.541254218391
 20
2501.465018815435
 30
0.0
 11
4850.541369466006
 21
2501.443008343507
 31
0.0
  0
LINE
  5
1E25
330
1F
100
AcDbEntity
  8
SANINDUSA
100
AcDbLine
 10
4850.265922324793
 20
2501.443008343507
 30
0.0
 11
4850.266037572407
 21
2501.465018815435
 31
0.0
  0
LINE
  5
1E27
330
1F
100
AcDbEntity
  8
SANINDUSA
100
AcDbLine
 10
4850.52325446513
 20
2501.469992635616
 30
0.0
 11
4850.53625428693
 21
2501.469992635616
 31
0.0
  0
ARC
  5
1E28
330
1F
100
AcDbEntity
  8
SANINDUSA
100
AcDbCircle
 10
4850.53625428693
 20
2501.464992635616
 30
0.0
 40
0.005
100
AcDbArc
 50
0.3000000005074375
 51
90.0
  0
LINE
  5
1E2A
330
1F
100
AcDbEntity
  8
SANINDUSA
100
AcDbLine
 10
4850.284037325668
 20
2501.469992635616
 30
0.0
 11
4850.52325446513
 21
2501.469992635616
 31
0.0
  0
LINE
  5
1E2B
330
1F
100
AcDbEntity
  8
SANINDUSA
100
AcDbLine
 10
4850.271037503869
 20
2501.469992635616
 30
0.0
 11
4850.284037325668
 21
2501.469992635616
 31
0.0
  0
ARC
  5
1E2C
330
1F
100
AcDbEntity
  8
SANINDUSA
100
AcDbCircle
 10
4850.271037503869
 20
2501.464992635616
 30
0.0
 40
0.005
100
AcDbArc
 50
90.0
 51
179.6999999994925
  0
ARC
  5
1E2F
330
1F
100
AcDbEntity
  8
SANINDUSA
100
AcDbCircle
 10
4850.538235538823
 20
2501.436992635616
 30
0.0
 40
0.0030000000000002
100
AcDbArc
 50
358.300000000627
 51
90.0
  0
ARC
  5
1E33
330
1F
100
AcDbEntity
  8
SANINDUSA
100
AcDbCircle
 10
4850.269056251976
 20
2501.436992635616
 30
0.0
 40
0.0030000000000001
100
AcDbArc
 50
90.0
 51
181.699999999373
  0
LINE
  5
1E38
330
1F
100
AcDbEntity
  8
SANINDUSA
100
AcDbLine
 10
4850.541234218404
 20
2501.436903636883
 30
0.0
 11
4850.531289889567
 21
2501.101844304395
 31
0.0
  0
LINE
  5
1E3A
330
1F
100
AcDbEntity
  8
SANINDUSA
100
AcDbLine
 10
4850.276001901232
 20
2501.101844304395
 30
0.0
 11
4850.266057572395
 21
2501.436903636883
 31
0.0
  0
LINE
  5
1E3B
330
1F
100
AcDbEntity
  8
SANINDUSA
100
AcDbLine
 10
4850.526292090267
 20
2501.096992635616
 30
0.0
 11
4850.513297812085
 21
2501.096992635616
 31
0.0
  0
ARC
  5
1E3D
330
1F
100
AcDbEntity
  8
SANINDUSA
100
AcDbCircle
 10
4850.526292090267
 20
2501.101992635616
 30
0.0
 40
0.005
100
AcDbArc
 50
270.0
 51
358.300000000627
  0
LINE
  5
1E3E
330
1F
100
AcDbEntity
  8
SANINDUSA
100
AcDbLine
 10
4850.513297812085
 20
2501.096992635616
 30
0.0
 11
4850.293993978714
 21
2501.096992635616
 31
0.0
  0
LINE
  5
1E40
330
1F
100
AcDbEntity
  8
SANINDUSA
100
AcDbLine
 10
4850.293993978714
 20
2501.096992635616
 30
0.0
 11
4850.280999700533
 21
2501.096992635616
 31
0.0
  0
ARC
  5
1E41
330
1F
100
AcDbEntity
  8
SANINDUSA
100
AcDbCircle
 10
4850.280999700533
 20
2501.101992635616
 30
0.0
 40
0.0050000000000001
100
AcDbArc
 50
181.699999999373
 51
270.0
  0
LINE
  5
1E49
330
1F
100
AcDbEntity
  8
SANINDUSA
100
AcDbLine
 10
4850.783660057924
 20
2501.439994298898
 30
0.0
 11
4850.768660057925
 21
2501.439994298898
 31
0.0
  0
ARC
  5
1E4A
330
1F
100
AcDbEntity
  8
SANINDUSA
100
AcDbCircle
 10
4850.768660057925
 20
2501.442994298898
 30
0.0
 40
0.0030000000000001
100
AcDbArc
 50
180.0
 51
270.0
  0
LINE
  5
1E4D
330
1F
100
AcDbEntity
  8
SANINDUSA
100
AcDbLine
 10
4850.889013615445
 20
2501.439994298898
 30
0.0
 11
4850.783660057924
 21
2501.439994298898
 31
0.0
  0
LINE
  5
1E50
330
1F
100
AcDbEntity
  8
SANINDUSA
100
AcDbLine
 10
4850.904013409828
 20
2501.439994298898
 30
0.0
 11
4850.889013615445
 21
2501.439994298898
 31
0.0
  0
ARC
  5
1E52
330
1F
100
AcDbEntity
  8
SANINDUSA
100
AcDbCircle
 10
4850.904013409828
 20
2501.442994298898
 30
0.0
 40
0.0030000000000001
100
AcDbArc
 50
270.0
 51
0.3000000005074375
  0
LINE
  5
1E55
330
1F
100
AcDbEntity
  8
SANINDUSA
100
AcDbLine
 10
4850.765660057923
 20
2501.442994298898
 30
0.0
 11
4850.765660057923
 21
2501.464994298898
 31
0.0
  0
LINE
  5
1E59
330
1F
100
AcDbEntity
  8
SANINDUSA
100
AcDbLine
 10
4850.90689812109
 20
2501.465020478717
 30
0.0
 11
4850.907013368705
 21
2501.44301000679
 31
0.0
  0
LINE
  5
1E5A
330
1F
100
AcDbEntity
  8
SANINDUSA
100
AcDbLine
 10
4850.770660057924
 20
2501.469994298898
 30
0.0
 11
4850.783660057924
 21
2501.469994298898
 31
0.0
  0
ARC
  5
1E5C
330
1F
100
AcDbEntity
  8
SANINDUSA
100
AcDbCircle
 10
4850.770660057924
 20
2501.464994298898
 30
0.0
 40
0.005
100
AcDbArc
 50
90.0
 51
180.0
  0
LINE
  5
1E5D
330
1F
100
AcDbEntity
  8
SANINDUSA
100
AcDbLine
 10
4850.783660057924
 20
2501.469994298898
 30
0.0
 11
4850.88889836783
 21
2501.469994298898
 31
0.0
  0
LINE
  5
1E5F
330
1F
100
AcDbEntity
  8
SANINDUSA
100
AcDbLine
 10
4850.88889836783
 20
2501.469994298898
 30
0.0
 11
4850.901898189629
 21
2501.469994298898
 31
0.0
  0
ARC
  5
1E60
330
1F
100
AcDbEntity
  8
SANINDUSA
100
AcDbCircle
 10
4850.901898189629
 20
2501.464994298898
 30
0.0
 40
0.005
100
AcDbArc
 50
0.3000000005074375
 51
90.0
  0
ARC
  5
1E63
330
1F
100
AcDbEntity
  8
SANINDUSA
100
AcDbCircle
 10
4850.768660057925
 20
2501.436994298898
 30
0.0
 40
0.0030000000000001
100
AcDbArc
 50
90.0
 51
180.0
  0
ARC
  5
1E66
330
1F
100
AcDbEntity
  8
SANINDUSA
100
AcDbCircle
 10
4850.903879441522
 20
2501.436994298898
 30
0.0
 40
0.0030000000000002
100
AcDbArc
 50
358.300000000627
 51
90.0
  0
LINE
  5
1E69
330
1F
100
AcDbEntity
  8
SANINDUSA
100
AcDbLine
 10
4850.765660057923
 20
2501.101994298898
 30
0.0
 11
4850.765660057923
 21
2501.436994298898
 31
0.0
  0
LINE
  5
1E6E
330
1F
100
AcDbEntity
  8
SANINDUSA
100
AcDbLine
 10
4850.906878121103
 20
2501.436905300165
 30
0.0
 11
4850.896933792267
 21
2501.101845967678
 31
0.0
  0
LINE
  5
1E70
330
1F
100
AcDbEntity
  8
SANINDUSA
100
AcDbLine
 10
4850.783660057924
 20
2501.096994298898
 30
0.0
 11
4850.770660057924
 21
2501.096994298898
 31
0.0
  0
ARC
  5
1E71
330
1F
100
AcDbEntity
  8
SANINDUSA
100
AcDbCircle
 10
4850.770660057924
 20
2501.101994298898
 30
0.0
 40
0.005
100
AcDbArc
 50
180.0
 51
270.0
  0
LINE
  5
1E73
330
1F
100
AcDbEntity
  8
SANINDUSA
100
AcDbLine
 10
4850.878941714785
 20
2501.096994298898
 30
0.0
 11
4850.783660057924
 21
2501.096994298898
 31
0.0
  0
LINE
  5
1E74
330
1F
100
AcDbEntity
  8
SANINDUSA
100
AcDbLine
 10
4850.891935992966
 20
2501.096994298898
 30
0.0
 11
4850.878941714785
 21
2501.096994298898
 31
0.0
  0
ARC
  5
1E75
330
1F
100
AcDbEntity
  8
SANINDUSA
100
AcDbCircle
 10
4850.891935992966
 20
2501.101994298898
 30
0.0
 40
0.0050000000000001
100
AcDbArc
 50
270.0
 51
358.300000000627
  0
LINE
  5
1E78
330
1F
100
AcDbEntity
  8
SANINDUSA
100
AcDbLine
 10
4849.745205750027
 20
2501.361505875629
 30
0.0
 11
4849.984422176682
 21
2501.361505875629
 31
0.0
  0
CIRCLE
  5
1E88
330
1F
100
AcDbEntity
  8
SANINDUSA
100
AcDbCircle
 10
4849.864813963354
 20
2501.295876135455
 30
0.0
 40
0.025
  0
ELLIPSE
  5
1E91
330
1F
100
AcDbEntity
  8
SANINDUSA
100
AcDbEllipse
 10
4849.745090557243
 20
2501.238152729344
 30
0.0
 11
0.0127281546927961
 21
0.0127281546928477
 31
0.0
210
0.0
220
0.0
230
1.0
 40
0.9999817230800928
 41
2.356208197848945
 42
3.926977109326593
  0
ELLIPSE
  5
1E94
330
1F
100
AcDbEntity
  8
SANINDUSA
100
AcDbEllipse
 10
4849.984537369465
 20
2501.238152729344
 30
0.0
 11
0.0127281546928474
 21
-0.0127281546927961
 31
0.0
210
0.0
220
0.0
230
1.0
 40
0.9999817230800983
 41
5.497800851438759
 42
7.068569762916388
  0
ELLIPSE
  5
1E97
330
1F
100
AcDbEntity
  8
SANINDUSA
100
AcDbEllipse
 10
4849.745090557243
 20
2501.343505875629
 30
0.0
 11
0.0180001644958493
 21
-0.0000000000000003
 31
0.0
210
0.0
220
0.0
230
1.0
 40
0.9999908614252179
 41
1.570796326794912
 42
3.141592653589822
  0
LINE
  5
1E98
330
1F
100
AcDbEntity
  8
SANINDUSA
100
AcDbLine
 10
4849.745090557243
 20
2501.361505875629
 30
0.0
 11
4849.745205750027
 21
2501.361505875629
 31
0.0
  0
LINE
  5
1E99
330
1F
100
AcDbEntity
  8
SANINDUSA
100
AcDbLine
 10
4849.727090392747
 20
2501.343505875629
 30
0.0
 11
4849.727090392747
 21
2501.238152318109
 31
0.0
  0
LINE
  5
1E9A
330
1F
100
AcDbEntity
  8
SANINDUSA
100
AcDbLine
 10
4849.984422176682
 20
2501.361505875629
 30
0.0
 11
4849.984537369465
 21
2501.361505875629
 31
0.0
  0
ELLIPSE
  5
1E9B
330
1F
100
AcDbEntity
  8
SANINDUSA
100
AcDbEllipse
 10
4849.984537369465
 20
2501.343505875629
 30
0.0
 11
0.0180001644958495
 21
0.0000000000000003
 31
0.0
210
0.0
220
0.0
230
1.0
 40
0.9999908614252101
 41
0.0
 42
1.57079632679488
  0
LINE
  5
1E9D
330
1F
100
AcDbEntity
  8
SANINDUSA
100
AcDbLine
 10
4850.00253753396
 20
2501.238152318109
 30
0.0
 11
4850.00253753396
 21
2501.343505875629
 31
0.0
  0
LINE
  5
1E9E
330
1F
100
AcDbEntity
  8
SANINDUSA
100
AcDbLine
 10
4849.745090146008
 20
2501.220152564848
 30
0.0
 11
4849.9845377807
 21
2501.220152564848
 31
0.0
  0
LINE
  5
1E9F
330
1F
100
AcDbEntity
  8
SANINDUSA
100
AcDbLine
 10
4851.608134743258
 20
2501.457994298898
 30
0.0
 11
4851.605403367835
 21
2501.457994298898
 31
0.0
  0
ARC
  5
1EA0
330
1F
100
AcDbEntity
  8
SANINDUSA
100
AcDbCircle
 10
4851.605403367835
 20
2501.452994298898
 30
0.0
 40
0.0050000000000002
100
AcDbArc
 50
90.0
 51
169.9999999993365
  0
LINE
  5
1EA1
330
1F
100
AcDbEntity
  8
SANINDUSA
100
AcDbLine
 10
4851.600479329071
 20
2501.453862539787
 30
0.0
 11
4851.597650711206
 21
2501.43782065072
 31
0.0
  0
ARC
  5
1EA2
330
1F
100
AcDbEntity
  8
SANINDUSA
100
AcDbCircle
 10
4851.596665903453
 20
2501.437994298898
 30
0.0
 40
0.0010000000000002
100
AcDbArc
 50
270.0
 51
349.9999999993365
  0
LINE
  5
1EA3
330
1F
100
AcDbEntity
  8
SANINDUSA
100
AcDbLine
 10
4851.588377986431
 20
2501.436994298898
 30
0.0
 11
4851.596665903453
 21
2501.436994298898
 31
0.0
  0
ARC
  5
1EA4
330
1F
100
AcDbEntity
  8
SANINDUSA
100
AcDbCircle
 10
4851.588377986431
 20
2501.437994298898
 30
0.0
 40
0.0010000000000002
100
AcDbArc
 50
194.477512185468
 51
270.0
  0
ARC
  5
1EA5
330
1F
100
AcDbEntity
  8
SANINDUSA
100
AcDbCircle
 10
4851.584505003084
 20
2501.436994298898
 30
0.0
 40
0.0030000000000001
100
AcDbArc
 50
14.47751218546802
 51
90.0
  0
LINE
  5
1EA6
330
1F
100
AcDbEntity
  8
SANINDUSA
100
AcDbLine
 10
4851.584505003084
 20
2501.439994298898
 30
0.0
 11
4851.570505003085
 21
2501.439994298898
 31
0.0
  0
ARC
  5
1EA7
330
1F
100
AcDbEntity
  8
SANINDUSA
100
AcDbCircle
 10
4851.570505003085
 20
2501.442994298898
 30
0.0
 40
0.0030000000000004
100
AcDbArc
 50
180.0
 51
270.0
  0
LINE
  5
1EA8
330
1F
100
AcDbEntity
  8
SANINDUSA
100
AcDbLine
 10
4851.567505003084
 20
2501.442994298898
 30
0.0
 11
4851.567505003084
 21
2501.464994298898
 31
0.0
  0
ARC
  5
1EA9
330
1F
100
AcDbEntity
  8
SANINDUSA
100
AcDbCircle
 10
4851.572505003084
 20
2501.464994298898
 30
0.0
 40
0.005
100
AcDbArc
 50
90.0
 51
180.0
  0
LINE
  5
1EAA
330
1F
100
AcDbEntity
  8
SANINDUSA
100
AcDbLine
 10
4851.607134743259
 20
2501.469994298898
 30
0.0
 11
4851.572505003084
 21
2501.469994298898
 31
0.0
  0
ARC
  5
1EAB
330
1F
100
AcDbEntity
  8
SANINDUSA
100
AcDbCircle
 10
4851.607134743259
 20
2501.468994298898
 30
0.0
 40
0.0009999999999999
100
AcDbArc
 50
0.0
 51
90.0
  0
LINE
  5
1EAC
330
1F
100
AcDbEntity
  8
SANINDUSA
100
AcDbLine
 10
4851.608134743258
 20
2501.468994298898
 30
0.0
 11
4851.608134743258
 21
2501.457994298898
 31
0.0
  0
LINE
  5
1EAD
330
1F
100
AcDbEntity
  8
SANINDUSA
100
AcDbLine
 10
4851.658134743258
 20
2501.457994298898
 30
0.0
 11
4851.658134743258
 21
2501.468994298898
 31
0.0
  0
LINE
  5
1EAF
330
1F
100
AcDbEntity
  8
SANINDUSA
100
AcDbLine
 10
4851.658134743258
 20
2501.457994298898
 30
0.0
 11
4851.608134743258
 21
2501.457994298898
 31
0.0
  0
ARC
  5
1EB0
330
1F
100
AcDbEntity
  8
SANINDUSA
100
AcDbCircle
 10
4851.659134743258
 20
2501.468994298898
 30
0.0
 40
0.0010000000000002
100
AcDbArc
 50
90.0
 51
180.0
  0
LINE
  5
1EB1
330
1F
100
AcDbEntity
  8
SANINDUSA
100
AcDbLine
 10
4851.607134743259
 20
2501.469994298898
 30
0.0
 11
4851.659134743258
 21
2501.469994298898
 31
0.0
  0
ARC
  5
1EB2
330
1F
100
AcDbEntity
  8
SANINDUSA
100
AcDbCircle
 10
4851.703743134788
 20
2501.464994298898
 30
0.0
 40
0.0050000000000004
100
AcDbArc
 50
0.3000000005074375
 51
90.0
  0
LINE
  5
1EB3
330
1F
100
AcDbEntity
  8
SANINDUSA
100
AcDbLine
 10
4851.70874306625
 20
2501.465020478717
 30
0.0
 11
4851.708858313866
 21
2501.44301000679
 31
0.0
  0
ARC
  5
1EB4
330
1F
100
AcDbEntity
  8
SANINDUSA
100
AcDbCircle
 10
4851.705858354989
 20
2501.442994298898
 30
0.0
 40
0.0030000000000004
100
AcDbArc
 50
270.0
 51
0.3000000005074375
  0
ARC
  5
1EB5
330
1F
100
AcDbEntity
  8
SANINDUSA
100
AcDbCircle
 10
4851.696858354989
 20
2501.436994298898
 30
0.0
 40
0.0030000000000003
100
AcDbArc
 50
90.0
 51
165.522487814532
  0
ARC
  5
1EB6
330
1F
100
AcDbEntity
  8
SANINDUSA
100
AcDbCircle
 10
4851.692985371641
 20
2501.437994298898
 30
0.0
 40
0.0010000000000002
100
AcDbArc
 50
270.0
 51
345.522487814532
  0
ARC
  5
1EB7
330
1F
100
AcDbEntity
  8
SANINDUSA
100
AcDbCircle
 10
4851.684697454619
 20
2501.437994298898
 30
0.0
 40
0.0009999999999999
100
AcDbArc
 50
190.0000000006635
 51
270.0
  0
LINE
  5
1EB8
330
1F
100
AcDbEntity
  8
SANINDUSA
100
AcDbLine
 10
4851.683712646867
 20
2501.43782065072
 30
0.0
 11
4851.680884029003
 21
2501.453862539787
 31
0.0
  0
ARC
  5
1EB9
330
1F
100
AcDbEntity
  8
SANINDUSA
100
AcDbCircle
 10
4851.675959990238
 20
2501.452994298898
 30
0.0
 40
0.005
100
AcDbArc
 50
10.00000000066348
 51
90.0
  0
LINE
  5
1EBA
330
1F
100
AcDbEntity
  8
SANINDUSA
100
AcDbLine
 10
4851.675959990238
 20
2501.457994298898
 30
0.0
 11
4851.658134743258
 21
2501.457994298898
 31
0.0
  0
LINE
  5
1EBB
330
1F
100
AcDbEntity
  8
SANINDUSA
100
AcDbLine
 10
4851.684697454619
 20
2501.436994298898
 30
0.0
 11
4851.692985371641
 21
2501.436994298898
 31
0.0
  0
LINE
  5
1EBC
330
1F
100
AcDbEntity
  8
SANINDUSA
100
AcDbLine
 10
4851.703743134788
 20
2501.469994298898
 30
0.0
 11
4851.659134743258
 21
2501.469994298898
 31
0.0
  0
LINE
  5
1EBD
330
1F
100
AcDbEntity
  8
SANINDUSA
100
AcDbLine
 10
4851.705858354989
 20
2501.439994298898
 30
0.0
 11
4851.696858354989
 21
2501.439994298898
 31
0.0
  0
LINE
  5
1EC0
330
1F
100
AcDbEntity
  8
SANINDUSA
100
AcDbLine
 10
4851.588377986431
 20
2501.436994298898
 30
0.0
 11
4851.584505003084
 21
2501.436994298898
 31
0.0
  0
LINE
  5
1EC6
330
1F
100
AcDbEntity
  8
SANINDUSA
100
AcDbLine
 10
4851.684697454619
 20
2501.436994298898
 30
0.0
 11
4851.678788608102
 21
2501.436994298898
 31
0.0
  0
LINE
  5
1EC7
330
1F
100
AcDbEntity
  8
SANINDUSA
100
AcDbLine
 10
4851.678788608102
 20
2501.436994298898
 30
0.0
 11
4851.596665903453
 21
2501.436994298898
 31
0.0
  0
LINE
  5
1EC8
330
1F
100
AcDbEntity
  8
SANINDUSA
100
AcDbLine
 10
4851.602145831514
 20
2501.108994298898
 30
0.0
 11
4851.602145831514
 21
2501.096994298898
 31
0.0
  0
LINE
  5
1EC9
330
1F
100
AcDbEntity
  8
SANINDUSA
100
AcDbLine
 10
4851.664145831514
 20
2501.096994298898
 30
0.0
 11
4851.664145831514
 21
2501.108994298898
 31
0.0
  0
LINE
  5
1ECA
330
1F
100
AcDbEntity
  8
SANINDUSA
100
AcDbLine
 10
4851.664145831514
 20
2501.108994298898
 30
0.0
 11
4851.602145831514
 21
2501.108994298898
 31
0.0
  0
LINE
  5
1ECB
330
1F
100
AcDbEntity
  8
SANINDUSA
100
AcDbLine
 10
4851.602145831514
 20
2501.096994298898
 30
0.0
 11
4851.664145831514
 21
2501.096994298898
 31
0.0
  0
ARC
  5
1ECC
330
1F
100
AcDbEntity
  8
SANINDUSA
100
AcDbCircle
 10
4851.577505003085
 20
2501.101994298898
 30
0.0
 40
0.005
100
AcDbArc
 50
180.0
 51
270.0
  0
LINE
  5
1ECD
330
1F
100
AcDbEntity
  8
SANINDUSA
100
AcDbLine
 10
4851.572505003084
 20
2501.101994298898
 30
0.0
 11
4851.572505003084
 21
2501.436994298898
 31
0.0
  0
ARC
  5
1ECE
330
1F
100
AcDbEntity
  8
SANINDUSA
100
AcDbCircle
 10
4851.575505003084
 20
2501.436994298898
 30
0.0
 40
0.0029999999999998
100
AcDbArc
 50
90.0
 51
180.0
  0
LINE
  5
1ECF
330
1F
100
AcDbEntity
  8
SANINDUSA
100
AcDbLine
 10
4851.584505003084
 20
2501.439994298898
 30
0.0
 11
4851.575505003084
 21
2501.439994298898
 31
0.0
  0
LINE
  5
1ED0
330
1F
100
AcDbEntity
  8
SANINDUSA
100
AcDbLine
 10
4851.584505003084
 20
2501.108994298898
 30
0.0
 11
4851.584505003084
 21
2501.439994298898
 31
0.0
  0
LINE
  5
1ED1
330
1F
100
AcDbEntity
  8
SANINDUSA
100
AcDbLine
 10
4851.602145831514
 20
2501.108994298898
 30
0.0
 11
4851.584505003084
 21
2501.108994298898
 31
0.0
  0
LINE
  5
1ED2
330
1F
100
AcDbEntity
  8
SANINDUSA
100
AcDbLine
 10
4851.602145831514
 20
2501.096994298898
 30
0.0
 11
4851.577505003085
 21
2501.096994298898
 31
0.0
  0
ARC
  5
1ED3
330
1F
100
AcDbEntity
  8
SANINDUSA
100
AcDbCircle
 10
4851.705724386683
 20
2501.436994298898
 30
0.0
 40
0.0029999999999999
100
AcDbArc
 50
358.300000000627
 51
90.0
  0
LINE
  5
1ED4
330
1F
100
AcDbEntity
  8
SANINDUSA
100
AcDbLine
 10
4851.708723066263
 20
2501.436905300165
 30
0.0
 11
4851.698778737426
 21
2501.101845967678
 31
0.0
  0
ARC
  5
1ED5
330
1F
100
AcDbEntity
  8
SANINDUSA
100
AcDbCircle
 10
4851.693780938126
 20
2501.101994298898
 30
0.0
 40
0.005
100
AcDbArc
 50
270.0
 51
358.300000000627
  0
LINE
  5
1ED6
330
1F
100
AcDbEntity
  8
SANINDUSA
100
AcDbLine
 10
4851.6968094616
 20
2501.439994298898
 30
0.0
 11
4851.686985610939
 21
2501.108994298898
 31
0.0
  0
LINE
  5
1ED7
330
1F
100
AcDbEntity
  8
SANINDUSA
100
AcDbLine
 10
4851.705724386683
 20
2501.439994298898
 30
0.0
 11
4851.6968094616
 21
2501.439994298898
 31
0.0
  0
LINE
  5
1ED8
330
1F
100
AcDbEntity
  8
SANINDUSA
100
AcDbLine
 10
4851.686985610939
 20
2501.108994298898
 30
0.0
 11
4851.664145831514
 21
2501.108994298898
 31
0.0
  0
LINE
  5
1ED9
330
1F
100
AcDbEntity
  8
SANINDUSA
100
AcDbLine
 10
4851.693780938126
 20
2501.096994298898
 30
0.0
 11
4851.664145831514
 21
2501.096994298898
 31
0.0
  0
ARC
  5
1EDF
330
1F
100
AcDbEntity
  8
SANINDUSA
100
AcDbCircle
 10
4851.570505003085
 20
2501.436994298898
 30
0.0
 40
0.0029999999999998
100
AcDbArc
 50
90.0
 51
180.0
  0
LINE
  5
1EE1
330
1F
100
AcDbEntity
  8
SANINDUSA
100
AcDbLine
 10
4851.567505003084
 20
2501.101994298898
 30
0.0
 11
4851.567505003084
 21
2501.436994298898
 31
0.0
  0
ARC
  5
1EE3
330
1F
100
AcDbEntity
  8
SANINDUSA
100
AcDbCircle
 10
4851.572505003084
 20
2501.101994298898
 30
0.0
 40
0.005
100
AcDbArc
 50
180.0
 51
270.0
  0
LINE
  5
1EE4
330
1F
100
AcDbEntity
  8
SANINDUSA
100
AcDbLine
 10
4851.577505003085
 20
2501.096994298898
 30
0.0
 11
4851.572505003084
 21
2501.096994298898
 31
0.0
  0
LINE
  5
1F00
330
1F
100
AcDbEntity
  8
SANINDUSA
100
AcDbLine
 10
4851.692985371641
 20
2501.436994298898
 30
0.0
 11
4851.696720423679
 21
2501.436994298898
 31
0.0
  0
LINE
  5
1F03
330
1F
100
AcDbEntity
  8
SANINDUSA
100
AcDbLine
 10
4851.572505003084
 20
2501.084994299088
 30
0.0
 11
4851.572946664928
 21
2501.084994299088
 31
0.0
  0
ENDSEC
  0
SECTION
  2
OBJECTS
  0
DICTIONARY
  5
C
330
0
100
AcDbDictionary
281
     1
  3
ACAD_2007HEADERVARS_RT
350
1FA2
  3
ACAD_BACKGROUND
350
1F9C
  3
ACAD_COLOR
350
EE6
  3
ACAD_GROUP
350
D
  3
ACAD_LAYOUT
350
1A
  3
ACAD_MATERIAL
350
EE5
  3
ACAD_MLEADERSTYLE
350
10A8
  3
ACAD_MLINESTYLE
350
17
  3
ACAD_PLOTSETTINGS
350
19
  3
ACAD_PLOTSTYLENAME
350
E
  3
ACAD_SCALELIST
350
1096
  3
ACAD_TABLESTYLE
350
EE7
  3
ACAD_VISUALSTYLE
350
1082
  3
ACDB_RECOMPOSE_DATA
350
1FA0
  3
AcDbVariableDictionary
350
3D
  3
AEC_PROPERTY_SET_DEFS
350
1617
  3
ASE_INDEX_DICTIONARY
350
1066
  3
Autodesk_PNP
350
10B4
  3
DWGPROPS
350
1FA1
  0
DICTIONARY
  5
1CE4
330
8
100
AcDbDictionary
280
     1
281
     1
  0
DICTIONARY
  5
1051
330
2
100
AcDbDictionary
280
     1
281
     1
  3
ACAD_LAYERFILTERS
360
1065
  3
ACAD_LAYERSTATES
360
1331
  3
ACLYDICTIONARY
360
1064
  0
DICTIONARY
  5
1CBE
330
10
100
AcDbDictionary
280
     1
281
     1
  3
ADSK_XREC_LAYER_RECONCILED
360
1CBF
  0
DICTIONARY
  5
1CC0
330
2F
100
AcDbDictionary
280
     1
281
     1
  3
ADSK_XREC_LAYER_RECONCILED
360
1CC1
  0
DICTIONARY
  5
1CC2
330
30
100
AcDbDictionary
280
     1
281
     1
  3
ADSK_XREC_LAYER_RECONCILED
360
1CC3
  0
DICTIONARY
  5
1CC4
330
31
100
AcDbDictionary
280
     1
281
     1
  3
ADSK_XREC_LAYER_RECONCILED
360
1CC5
  0
DICTIONARY
  5
1CC6
330
32
100
AcDbDictionary
280
     1
281
     1
  3
ADSK_XREC_LAYER_RECONCILED
360
1CC7
  0
DICTIONARY
  5
1CC8
330
33
100
AcDbDictionary
280
     1
281
     1
  3
ADSK_XREC_LAYER_RECONCILED
360
1CC9
  0
DICTIONARY
  5
1CCA
330
34
100
AcDbDictionary
280
     1
281
     1
  3
ADSK_XREC_LAYER_RECONCILED
360
1CCB
  0
DICTIONARY
  5
1CCC
330
35
100
AcDbDictionary
280
     1
281
     1
  3
ADSK_XREC_LAYER_RECONCILED
360
1CCD
  0
DICTIONARY
  5
1CCE
330
36
100
AcDbDictionary
280
     1
281
     1
  3
ADSK_XREC_LAYER_RECONCILED
360
1CCF
  0
DICTIONARY
  5
1CD0
330
37
100
AcDbDictionary
280
     1
281
     1
  3
ADSK_XREC_LAYER_RECONCILED
360
1CD1
  0
DICTIONARY
  5
1CD2
330
5D6
100
AcDbDictionary
280
     1
281
     1
  3
ADSK_XREC_LAYER_RECONCILED
360
1CD3
  0
DICTIONARY
  5
1CD4
330
8AF
100
AcDbDictionary
280
     1
281
     1
  3
ADSK_XREC_LAYER_RECONCILED
360
1CD5
  0
DICTIONARY
  5
1CD6
330
8F8
100
AcDbDictionary
280
     1
281
     1
  3
ADSK_XREC_LAYER_RECONCILED
360
1CD7
  0
DICTIONARY
  5
1CD8
330
91D
100
AcDbDictionary
280
     1
281
     1
  3
ADSK_XREC_LAYER_RECONCILED
360
1CD9
  0
DICTIONARY
  5
1CDA
330
C7B
100
AcDbDictionary
280
     1
281
     1
  3
ADSK_XREC_LAYER_RECONCILED
360
1CDB
  0
DICTIONARY
  5
1CDC
330
1060
100
AcDbDictionary
280
     1
281
     1
  3
ADSK_XREC_LAYER_RECONCILED
360
1CDD
  0
DICTIONARY
  5
1FA2
102
{ACAD_REACTORS
330
C
102
}
330
C
100
AcDbDictionary
281
     1
  3
DIMJOGANG
350
1FA3
  0
DICTIONARY
  5
1F9C
102
{ACAD_REACTORS
330
C
102
}
330
C
100
AcDbDictionary
281
     1
  0
DICTIONARY
  5
EE6
102
{ACAD_REACTORS
330
C
102
}
330
C
100
AcDbDictionary
281
     1
  0
DICTIONARY
  5
D
102
{ACAD_REACTORS
330
C
102
}
330
C
100
AcDbDictionary
281
     1
  0
DICTIONARY
  5
1A
102
{ACAD_REACTORS
330
C
102
}
330
C
100
AcDbDictionary
281
     1
  3
Layout1
350
1E
  3
Layout2
350
26
  3
Model
350
22
  0
DICTIONARY
  5
EE5
102
{ACAD_REACTORS
330
C
102
}
330
C
100
AcDbDictionary
281
     1
  3
ByBlock
350
1072
  3
ByLayer
350
106A
  3
Global
350
107A
  0
DICTIONARY
  5
10A8
102
{ACAD_REACTORS
330
C
102
}
330
C
100
AcDbDictionary
281
     1
  3
Standard
350
10A9
  0
DICTIONARY
  5
17
102
{ACAD_REACTORS
330
C
102
}
330
C
100
AcDbDictionary
281
     1
  3
Standard
350
18
  0
DICTIONARY
  5
19
102
{ACAD_REACTORS
330
C
102
}
330
C
100
AcDbDictionary
281
     1
  0
ACDBDICTIONARYWDFLT
  5
E
102
{ACAD_REACTORS
330
C
102
}
330
C
100
AcDbDictionary
281
     1
  3
Normal
350
F
100
AcDbDictionaryWithDefault
340
F
  0
DICTIONARY
  5
1096
102
{ACAD_REACTORS
330
C
102
}
330
C
100
AcDbDictionary
281
     1
  3
A0
350
1097
  3
A1
350
1098
  3
A2
350
1099
  3
A3
350
109A
  3
A4
350
109B
  3
A5
350
109C
  3
A6
350
109D
  3
A7
350
109E
  3
A8
350
109F
  3
A9
350
10A0
  3
B0
350
10A1
  3
B1
350
10A2
  3
B2
350
10A3
  3
B3
350
10A4
  3
B4
350
10A5
  3
B5
350
10A6
  3
B6
350
10A7
  0
DICTIONARY
  5
EE7
102
{ACAD_REACTORS
330
C
102
}
330
C
100
AcDbDictionary
281
     1
  3
Standard
350
EE8
  0
DICTIONARY
  5
1082
102
{ACAD_REACTORS
330
C
102
}
330
C
100
AcDbDictionary
281
     1
  3
2dWireframe
350
1088
  3
3D Hidden
350
108A
  3
3dWireframe
350
1089
  3
Basic
350
1087
  3
Brighten
350
108E
  3
ColorChange
350
1092
  3
Conceptual
350
108B
  3
Dim
350
108D
  3
EdgeColorOff
350
1095
  3
Facepattern
350
1091
  3
Flat
350
1083
  3
FlatWithEdges
350
1084
  3
Gouraud
350
1085
  3
GouraudWithEdges
350
1086
  3
JitterOff
350
1093
  3
Linepattern
350
1090
  3
OverhangOff
350
1094
  3
Realistic
350
108C
  3
Thicken
350
108F
  0
XRECORD
  5
1FA0
102
{ACAD_REACTORS
330
C
102
}
330
C
100
AcDbXrecord
280
     1
 90
        1
330
EE8
  0
DICTIONARY
  5
3D
102
{ACAD_REACTORS
330
C
102
}
330
C
100
AcDbDictionary
281
     1
  3
CANNOSCALE
350
1D22
  3
CMLEADERSTYLE
350
1D21
  3
CTABLESTYLE
350
1049
  3
DIMASSOC
350
3F
  3
HIDETEXT
350
3E
  3
INDEXCTL
350
1D24
  3
SORTENTS
350
1D23
  3
XCLIPFRAME
350
1F9E
  0
DICTIONARY
  5
1617
102
{ACAD_REACTORS
330
C
102
}
330
C
100
AcDbDictionary
281
     1
  0
DICTIONARY
  5
1066
102
{ACAD_REACTORS
330
C
102
}
330
C
100
AcDbDictionary
281
     1
  3
ASEBlockHierarchyIndexRecord
350
1067
1001
DCO15
1040
1602247867.484
  0
DICTIONARY
  5
10B4
102
{ACAD_REACTORS
330
C
102
}
330
C
100
AcDbDictionary
281
     1
  0
XRECORD
  5
1FA1
102
{ACAD_REACTORS
330
C
102
}
330
C
100
AcDbXrecord
280
     1
  1
DWGPROPS COOKIE
  2

  3

  4

  6

  7

  8
Julio
  9

300
=
301
=
302
=
303
=
304
=
305
=
306
=
307
=
308
=
309
=
 40
0.0209423842592593
 41
2455776.606340775
 42
2456111.463639317
  1

 90
        0
  0
DICTIONARY
  5
1065
102
{ACAD_REACTORS
330
1051
102
}
330
1051
100
AcDbDictionary
281
     1
  0
DICTIONARY
  5
1331
102
{ACAD_REACTORS
330
1051
102
}
330
1051
100
AcDbDictionary
281
     1
  0
DICTIONARY
  5
1064
102
{ACAD_REACTORS
330
1051
102
}
330
1051
100
AcDbDictionary
281
     1
1001
ACAD
1000
<All
  0
XRECORD
  5
1CBF
102
{ACAD_REACTORS
330
1CBE
102
}
330
1CBE
100
AcDbXrecord
280
     1
290
     1
  0
XRECORD
  5
1CC1
102
{ACAD_REACTORS
330
1CC0
102
}
330
1CC0
100
AcDbXrecord
280
     1
290
     1
  0
XRECORD
  5
1CC3
102
{ACAD_REACTORS
330
1CC2
102
}
330
1CC2
100
AcDbXrecord
280
     1
290
     1
  0
XRECORD
  5
1CC5
102
{ACAD_REACTORS
330
1CC4
102
}
330
1CC4
100
AcDbXrecord
280
     1
290
     1
  0
XRECORD
  5
1CC7
102
{ACAD_REACTORS
330
1CC6
102
}
330
1CC6
100
AcDbXrecord
280
     1
290
     1
  0
XRECORD
  5
1CC9
102
{ACAD_REACTORS
330
1CC8
102
}
330
1CC8
100
AcDbXrecord
280
     1
290
     1
  0
XRECORD
  5
1CCB
102
{ACAD_REACTORS
330
1CCA
102
}
330
1CCA
100
AcDbXrecord
280
     1
290
     1
  0
XRECORD
  5
1CCD
102
{ACAD_REACTORS
330
1CCC
102
}
330
1CCC
100
AcDbXrecord
280
     1
290
     1
  0
XRECORD
  5
1CCF
102
{ACAD_REACTORS
330
1CCE
102
}
330
1CCE
100
AcDbXrecord
280
     1
290
     1
  0
XRECORD
  5
1CD1
102
{ACAD_REACTORS
330
1CD0
102
}
330
1CD0
100
AcDbXrecord
280
     1
290
     1
  0
XRECORD
  5
1CD3
102
{ACAD_REACTORS
330
1CD2
102
}
330
1CD2
100
AcDbXrecord
280
     1
290
     1
  0
XRECORD
  5
1CD5
102
{ACAD_REACTORS
330
1CD4
102
}
330
1CD4
100
AcDbXrecord
280
     1
290
     1
  0
XRECORD
  5
1CD7
102
{ACAD_REACTORS
330
1CD6
102
}
330
1CD6
100
AcDbXrecord
280
     1
290
     1
  0
XRECORD
  5
1CD9
102
{ACAD_REACTORS
330
1CD8
102
}
330
1CD8
100
AcDbXrecord
280
     1
290
     1
  0
XRECORD
  5
1CDB
102
{ACAD_REACTORS
330
1CDA
102
}
330
1CDA
100
AcDbXrecord
280
     1
290
     1
  0
XRECORD
  5
1CDD
102
{ACAD_REACTORS
330
1CDC
102
}
330
1CDC
100
AcDbXrecord
280
     1
290
     1
  0
XRECORD
  5
1FA3
102
{ACAD_REACTORS
330
1FA2
102
}
330
1FA2
100
AcDbXrecord
280
     1
 40
1.570796326794896
  0
LAYOUT
  5
1E
102
{ACAD_XDICTIONARY
360
1FA4
102
}
102
{ACAD_REACTORS
330
1A
102
}
330
1A
100
AcDbPlotSettings
  1

  2
Ploter HP500
  4

  6

 40
0.0
 41
0.0
 42
0.0
 43
0.0
 44
0.0
 45
0.0
 46
0.0
 47
0.0
 48
0.0
 49
0.0
140
0.0
141
0.0
142
1.0
143
1.0
 70
   688
 72
     0
 73
     0
 74
     5
  7
sanindusa.ctb
 75
    16
147
1.0
148
0.0
149
0.0
100
AcDbLayout
  1
Layout1
 70
     1
 71
     1
 10
0.0
 20
0.0
 11
420.0
 21
297.0
 12
0.0
 22
0.0
 32
0.0
 14
1.000000000000000E+20
 24
1.000000000000000E+20
 34
1.000000000000000E+20
 15
-1.000000000000000E+20
 25
-1.000000000000000E+20
 35
-1.000000000000000E+20
146
0.0
 13
0.0
 23
0.0
 33
0.0
 16
1.0
 26
0.0
 36
0.0
 17
0.0
 27
1.0
 37
0.0
 76
     0
330
1B
  0
LAYOUT
  5
26
102
{ACAD_XDICTIONARY
360
1FA8
102
}
102
{ACAD_REACTORS
330
1A
102
}
330
1A
100
AcDbPlotSettings
  1

  2
Ploter HP500
  4

  6

 40
0.0
 41
0.0
 42
0.0
 43
0.0
 44
0.0
 45
0.0
 46
0.0
 47
0.0
 48
0.0
 49
0.0
140
0.0
141
0.0
142
1.0
143
1.0
 70
   688
 72
     0
 73
     0
 74
     5
  7
sanindusa.ctb
 75
    16
147
1.0
148
0.0
149
0.0
100
AcDbLayout
  1
Layout2
 70
     1
 71
     2
 10
0.0
 20
0.0
 11
12.0
 21
9.0
 12
0.0
 22
0.0
 32
0.0
 14
0.0
 24
0.0
 34
0.0
 15
0.0
 25
0.0
 35
0.0
146
0.0
 13
0.0
 23
0.0
 33
0.0
 16
1.0
 26
0.0
 36
0.0
 17
0.0
 27
1.0
 37
0.0
 76
     0
330
23
  0
LAYOUT
  5
22
102
{ACAD_XDICTIONARY
360
1FA6
102
}
102
{ACAD_REACTORS
330
1A
102
}
330
1A
100
AcDbPlotSettings
  1

  2
Ploter HP500
  4
User268
  6

 40
4.995333194732666
 41
16.97565841674804
 42
4.995330810546875
 43
16.97567749023437
 44
209.9733276367187
 45
296.9259948730469
 46
0.0
 47
0.0
 48
0.0
 49
0.0
140
0.0
141
0.0
142
1.0
143
1.0
 70
 11952
 72
     1
 73
     1
 74
     0
  7
sanindusa.ctb
 75
     0
147
1.0
148
-427.5957866592534
149
7.362384574453926
100
AcDbLayout
  1
Model
 70
     1
 71
     0
 10
0.0
 20
0.0
 11
12.0
 21
9.0
 12
0.0
 22
0.0
 32
0.0
 14
0.0
 24
0.0
 34
0.0
 15
0.0
 25
0.0
 35
0.0
146
0.0
 13
0.0
 23
0.0
 33
0.0
 16
1.0
 26
0.0
 36
0.0
 17
0.0
 27
1.0
 37
0.0
 76
     0
330
1F
331
1068
  0
MATERIAL
  5
1072
102
{ACAD_XDICTIONARY
360
1073
102
}
102
{ACAD_REACTORS
330
EE5
102
}
330
EE5
100
AcDbMaterial
  1
ByBlock
 72
     0
 43
0.0008202099737533
 43
0.0
 43
0.0
 43
0.0
 43
0.0
 43
0.0008202099737533
 43
0.0
 43
0.0
 43
0.0
 43
0.0
 43
1.0
 43
0.0
 43
0.0
 43
0.0
 43
0.0
 43
1.0
 77
     0
 47
0.0008202099737533
 47
0.0
 47
0.0
 47
0.0
 47
0.0
 47
0.0008202099737533
 47
0.0
 47
0.0
 47
0.0
 47
0.0
 47
1.0
 47
0.0
 47
0.0
 47
0.0
 47
0.0
 47
1.0
171
     0
 49
0.0008202099737533
 49
0.0
 49
0.0
 49
0.0
 49
0.0
 49
0.0008202099737533
 49
0.0
 49
0.0
 49
0.0
 49
0.0
 49
1.0
 49
0.0
 49
0.0
 49
0.0
 49
0.0
 49
1.0
175
     0
142
0.0008202099737533
142
0.0
142
0.0
142
0.0
142
0.0
142
0.0008202099737533
142
0.0
142
0.0
142
0.0
142
0.0
142
1.0
142
0.0
142
0.0
142
0.0
142
0.0
142
1.0
179
     0
144
0.0008202099737533
144
0.0
144
0.0
144
0.0
144
0.0
144
0.0008202099737533
144
0.0
144
0.0
144
0.0
144
0.0
144
1.0
144
0.0
144
0.0
144
0.0
144
0.0
144
1.0
147
0.0008202099737533
147
0.0
147
0.0
147
0.0
147
0.0
147
0.0008202099737533
147
0.0
147
0.0
147
0.0
147
0.0
147
1.0
147
0.0
147
0.0
147
0.0
147
0.0
147
1.0
  0
MATERIAL
  5
106A
102
{ACAD_XDICTIONARY
360
106B
102
}
102
{ACAD_REACTORS
330
EE5
102
}
330
EE5
100
AcDbMaterial
  1
ByLayer
 72
     0
 43
0.0008202099737533
 43
0.0
 43
0.0
 43
0.0
 43
0.0
 43
0.0008202099737533
 43
0.0
 43
0.0
 43
0.0
 43
0.0
 43
1.0
 43
0.0
 43
0.0
 43
0.0
 43
0.0
 43
1.0
 77
     0
 47
0.0008202099737533
 47
0.0
 47
0.0
 47
0.0
 47
0.0
 47
0.0008202099737533
 47
0.0
 47
0.0
 47
0.0
 47
0.0
 47
1.0
 47
0.0
 47
0.0
 47
0.0
 47
0.0
 47
1.0
171
     0
 49
0.0008202099737533
 49
0.0
 49
0.0
 49
0.0
 49
0.0
 49
0.0008202099737533
 49
0.0
 49
0.0
 49
0.0
 49
0.0
 49
1.0
 49
0.0
 49
0.0
 49
0.0
 49
0.0
 49
1.0
175
     0
142
0.0008202099737533
142
0.0
142
0.0
142
0.0
142
0.0
142
0.0008202099737533
142
0.0
142
0.0
142
0.0
142
0.0
142
1.0
142
0.0
142
0.0
142
0.0
142
0.0
142
1.0
179
     0
144
0.0008202099737533
144
0.0
144
0.0
144
0.0
144
0.0
144
0.0008202099737533
144
0.0
144
0.0
144
0.0
144
0.0
144
1.0
144
0.0
144
0.0
144
0.0
144
0.0
144
1.0
147
0.0008202099737533
147
0.0
147
0.0
147
0.0
147
0.0
147
0.0008202099737533
147
0.0
147
0.0
147
0.0
147
0.0
147
1.0
147
0.0
147
0.0
147
0.0
147
0.0
147
1.0
  0
MATERIAL
  5
107A
102
{ACAD_XDICTIONARY
360
107B
102
}
102
{ACAD_REACTORS
330
EE5
102
}
330
EE5
100
AcDbMaterial
  1
Global
 72
     0
 43
0.0008202099737533
 43
0.0
 43
0.0
 43
0.0
 43
0.0
 43
0.0008202099737533
 43
0.0
 43
0.0
 43
0.0
 43
0.0
 43
1.0
 43
0.0
 43
0.0
 43
0.0
 43
0.0
 43
1.0
 77
     0
 47
0.0008202099737533
 47
0.0
 47
0.0
 47
0.0
 47
0.0
 47
0.0008202099737533
 47
0.0
 47
0.0
 47
0.0
 47
0.0
 47
1.0
 47
0.0
 47
0.0
 47
0.0
 47
0.0
 47
1.0
171
     0
 49
0.0008202099737533
 49
0.0
 49
0.0
 49
0.0
 49
0.0
 49
0.0008202099737533
 49
0.0
 49
0.0
 49
0.0
 49
0.0
 49
1.0
 49
0.0
 49
0.0
 49
0.0
 49
0.0
 49
1.0
175
     0
142
0.0008202099737533
142
0.0
142
0.0
142
0.0
142
0.0
142
0.0008202099737533
142
0.0
142
0.0
142
0.0
142
0.0
142
1.0
142
0.0
142
0.0
142
0.0
142
0.0
142
1.0
179
     0
144
0.0008202099737533
144
0.0
144
0.0
144
0.0
144
0.0
144
0.0008202099737533
144
0.0
144
0.0
144
0.0
144
0.0
144
1.0
144
0.0
144
0.0
144
0.0
144
0.0
144
1.0
147
0.0008202099737533
147
0.0
147
0.0
147
0.0
147
0.0
147
0.0008202099737533
147
0.0
147
0.0
147
0.0
147
0.0
147
1.0
147
0.0
147
0.0
147
0.0
147
0.0
147
1.0
  0
MLEADERSTYLE
  5
10A9
102
{ACAD_REACTORS
330
10A8
102
}
330
10A8
100
AcDbMLeaderStyle
170
     2
171
     1
172
     0
 90
        2
 40
0.0
 41
0.0
173
     1
 91
-1056964608
340
14
 92
       -2
290
     1
 42
2.0
291
     1
 43
0.36
  3
Standard
 44
4.0
300

342
11
174
     1
178
     6
175
     1
176
     0
 93
-1056964608
 45
4.0
292
     0
297
     0
 46
4.0
 94
-1056964608
 47
1.0
 49
1.0
140
1.0
293
     1
141
0.0
294
     1
177
     0
142
1.0
295
     0
296
     0
143
0.125
1001
ACAD_MLEADERVER
1070
     2
  0
MLINESTYLE
  5
18
102
{ACAD_REACTORS
330
17
102
}
330
17
100
AcDbMlineStyle
  2
STANDARD
 70
     0
  3

 62
   256
 51
90.0
 52
90.0
 71
     2
 49
0.5
 62
   256
  6
BYLAYER
 49
-0.5
 62
   256
  6
BYLAYER
  0
ACDBPLACEHOLDER
  5
F
102
{ACAD_REACTORS
330
E
102
}
330
E
  0
SCALE
  5
1097
102
{ACAD_REACTORS
330
1096
102
}
330
1096
100
AcDbScale
 70
     0
300
1:1
140
1.0
141
1.0
290
     1
  0
SCALE
  5
1098
102
{ACAD_REACTORS
330
1096
102
}
330
1096
100
AcDbScale
 70
     0
300
1:2
140
1.0
141
2.0
290
     0
  0
SCALE
  5
1099
102
{ACAD_REACTORS
330
1096
102
}
330
1096
100
AcDbScale
 70
     0
300
1:4
140
1.0
141
4.0
290
     0
  0
SCALE
  5
109A
102
{ACAD_REACTORS
330
1096
102
}
330
1096
100
AcDbScale
 70
     0
300
1:5
140
1.0
141
5.0
290
     0
  0
SCALE
  5
109B
102
{ACAD_REACTORS
330
1096
102
}
330
1096
100
AcDbScale
 70
     0
300
1:8
140
1.0
141
8.0
290
     0
  0
SCALE
  5
109C
102
{ACAD_REACTORS
330
1096
102
}
330
1096
100
AcDbScale
 70
     0
300
1:10
140
1.0
141
10.0
290
     0
  0
SCALE
  5
109D
102
{ACAD_REACTORS
330
1096
102
}
330
1096
100
AcDbScale
 70
     0
300
1:16
140
1.0
141
16.0
290
     0
  0
SCALE
  5
109E
102
{ACAD_REACTORS
330
1096
102
}
330
1096
100
AcDbScale
 70
     0
300
1:20
140
1.0
141
20.0
290
     0
  0
SCALE
  5
109F
102
{ACAD_REACTORS
330
1096
102
}
330
1096
100
AcDbScale
 70
     0
300
1:30
140
1.0
141
30.0
290
     0
  0
SCALE
  5
10A0
102
{ACAD_REACTORS
330
1096
102
}
330
1096
100
AcDbScale
 70
     0
300
1:40
140
1.0
141
40.0
290
     0
  0
SCALE
  5
10A1
102
{ACAD_REACTORS
330
1096
102
}
330
1096
100
AcDbScale
 70
     0
300
1:50
140
1.0
141
50.0
290
     0
  0
SCALE
  5
10A2
102
{ACAD_REACTORS
330
1096
102
}
330
1096
100
AcDbScale
 70
     0
300
1:100
140
1.0
141
100.0
290
     0
  0
SCALE
  5
10A3
102
{ACAD_REACTORS
330
1096
102
}
330
1096
100
AcDbScale
 70
     0
300
2:1
140
2.0
141
1.0
290
     0
  0
SCALE
  5
10A4
102
{ACAD_REACTORS
330
1096
102
}
330
1096
100
AcDbScale
 70
     0
300
4:1
140
4.0
141
1.0
290
     0
  0
SCALE
  5
10A5
102
{ACAD_REACTORS
330
1096
102
}
330
1096
100
AcDbScale
 70
     0
300
8:1
140
8.0
141
1.0
290
     0
  0
SCALE
  5
10A6
102
{ACAD_REACTORS
330
1096
102
}
330
1096
100
AcDbScale
 70
     0
300
10:1
140
10.0
141
1.0
290
     0
  0
SCALE
  5
10A7
102
{ACAD_REACTORS
330
1096
102
}
330
1096
100
AcDbScale
 70
     0
300
100:1
140
100.0
141
1.0
290
     0
  0
TABLESTYLE
  5
EE8
102
{ACAD_XDICTIONARY
360
1CDE
102
}
102
{ACAD_REACTORS
330
EE7
102
}
330
EE7
100
AcDbTableStyle
  3
Standard
 70
     0
 71
     0
 40
1.5
 41
1.5
280
     0
281
     0
  7
Standard
140
4.5
170
     2
 62
     0
 63
     7
283
     0
274
    -2
284
     1
 64
     0
275
    -2
285
     1
 65
     0
276
    -2
286
     1
 66
     0
277
    -2
287
     1
 67
     0
278
    -2
288
     1
 68
     0
279
    -2
289
     1
 69
     0
  7
Standard
140
6.0
170
     5
 62
     0
 63
     7
283
     0
274
    -2
284
     1
 64
     0
275
    -2
285
     1
 65
     0
276
    -2
286
     1
 66
     0
277
    -2
287
     1
 67
     0
278
    -2
288
     1
 68
     0
279
    -2
289
     1
 69
     0
  7
Standard
140
4.5
170
     5
 62
     0
 63
     7
283
     0
274
    -2
284
     1
 64
     0
275
    -2
285
     1
 65
     0
276
    -2
286
     1
 66
     0
277
    -2
287
     1
 67
     0
278
    -2
288
     1
 68
     0
279
    -2
289
     1
 69
     0
  0
VISUALSTYLE
  5
1088
102
{ACAD_XDICTIONARY
360
1FB8
102
}
102
{ACAD_REACTORS
330
1082
102
}
330
1082
100
AcDbVisualStyle
  2
2dWireframe
 70
     4
 71
     0
 72
     2
 73
     0
 90
        0
 40
-0.6
 41
-30.0
 62
     5
 63
     7
 74
     1
 91
        4
 64
     7
 65
   257
 75
     1
175
     1
 42
1.0
 92
        0
 66
   257
 43
1.0
 76
     1
 77
     6
 78
     2
 67
     7
 79
     5
170
     0
171
     0
290
     0
174
     0
 93
        1
 44
0.0
173
     0
291
     0
 45
0.0
1001
ACAD
1000
AcDbSavedByObjectVersion
1070
     0
  0
VISUALSTYLE
  5
108A
102
{ACAD_XDICTIONARY
360
1FBC
102
}
102
{ACAD_REACTORS
330
1082
102
}
330
1082
100
AcDbVisualStyle
  2
3D Hidden
 70
     6
 71
     1
 72
     2
 73
     2
 90
        0
 40
-0.6
 41
-30.0
 62
     5
 63
     7
 74
     2
 91
        2
 64
     7
 65
   257
 75
     2
175
     1
 42
179.0
 92
        0
 66
   257
 43
1.0
 76
     1
 77
     6
 78
     2
 67
     7
 79
     3
170
     0
171
     0
290
     0
174
     0
 93
        1
 44
0.0
173
     0
291
     0
 45
0.0
1001
ACAD
1000
AcDbSavedByObjectVersion
1070
     0
  0
VISUALSTYLE
  5
1089
102
{ACAD_XDICTIONARY
360
1FBA
102
}
102
{ACAD_REACTORS
330
1082
102
}
330
1082
100
AcDbVisualStyle
  2
3dWireframe
 70
     5
 71
     0
 72
     2
 73
     0
 90
        0
 40
-0.6
 41
-30.0
 62
     5
 63
     7
 74
     1
 91
        4
 64
     7
 65
   257
 75
     1
175
     1
 42
1.0
 92
        0
 66
   257
 43
1.0
 76
     1
 77
     6
 78
     2
 67
     7
 79
     5
170
     0
171
     0
290
     0
174
     0
 93
        1
 44
0.0
173
     0
291
     0
 45
0.0
1001
ACAD
1000
AcDbSavedByObjectVersion
1070
     0
  0
VISUALSTYLE
  5
1087
102
{ACAD_XDICTIONARY
360
1FB6
102
}
102
{ACAD_REACTORS
330
1082
102
}
330
1082
100
AcDbVisualStyle
  2
Basic
 70
     7
 71
     1
 72
     0
 73
     1
 90
        0
 40
-0.6
 41
-30.0
 62
     5
 63
     7
 74
     0
 91
        4
 64
     7
 65
   257
 75
     1
175
     1
 42
1.0
 92
        8
 66
     7
 43
1.0
 76
     1
 77
     6
 78
     2
 67
     7
 79
     5
170
     0
171
     0
290
     0
174
     0
 93
        1
 44
0.0
173
     0
291
     1
 45
0.0
1001
ACAD
1000
AcDbSavedByObjectVersion
1070
     0
  0
VISUALSTYLE
  5
108E
102
{ACAD_XDICTIONARY
360
1FC4
102
}
102
{ACAD_REACTORS
330
1082
102
}
330
1082
100
AcDbVisualStyle
  2
Brighten
 70
    12
 71
     2
 72
     2
 73
     0
 90
        0
 40
-0.6
 41
-30.0
 62
     5
 63
     7
 74
     1
 91
        4
 64
     7
 65
   257
 75
     1
175
     1
 42
1.0
 92
        8
 66
     7
 43
1.0
 76
     1
 77
     6
 78
     2
 67
     7
 79
     5
170
     0
171
     0
290
     0
174
     0
 93
        1
 44
50.0
173
     0
291
     1
 45
0.0
1001
ACAD
1000
AcDbSavedByObjectVersion
1070
     0
  0
VISUALSTYLE
  5
1092
102
{ACAD_XDICTIONARY
360
1FCC
102
}
102
{ACAD_REACTORS
330
1082
102
}
330
1082
100
AcDbVisualStyle
  2
ColorChange
 70
    16
 71
     2
 72
     2
 73
     3
 90
        0
 40
-0.6
 41
-30.0
 62
     5
 63
     8
 74
     1
 91
        4
 64
     7
 65
   257
 75
     1
175
     1
 42
1.0
 92
        8
 66
     8
 43
1.0
 76
     1
 77
     6
 78
     2
 67
     7
 79
     5
170
     0
171
     0
290
     0
174
     0
 93
        1
 44
0.0
173
     0
291
     1
 45
0.0
1001
ACAD
1000
AcDbSavedByObjectVersion
1070
     0
  0
VISUALSTYLE
  5
108B
102
{ACAD_XDICTIONARY
360
1FBE
102
}
102
{ACAD_REACTORS
330
1082
102
}
330
1082
100
AcDbVisualStyle
  2
Conceptual
 70
     9
 71
     3
 72
     2
 73
     0
 90
        0
 40
-0.6
 41
-30.0
 62
     5
 63
     7
 74
     2
 91
        2
 64
     7
 65
   257
 75
     1
175
     1
 42
179.0
 92
        8
 66
     7
 43
1.0
 76
     1
 77
     6
 78
     2
 67
     7
 79
     3
170
     0
171
     0
290
     0
174
     0
 93
        1
 44
0.0
173
     0
291
     0
 45
0.0
1001
ACAD
1000
AcDbSavedByObjectVersion
1070
     0
  0
VISUALSTYLE
  5
108D
102
{ACAD_XDICTIONARY
360
1FC2
102
}
102
{ACAD_REACTORS
330
1082
102
}
330
1082
100
AcDbVisualStyle
  2
Dim
 70
    11
 71
     2
 72
     2
 73
     0
 90
        0
 40
-0.6
 41
-30.0
 62
     5
 63
     7
 74
     1
 91
        4
 64
     7
 65
   257
 75
     1
175
     1
 42
1.0
 92
        8
 66
     7
 43
1.0
 76
     1
 77
     6
 78
     2
 67
     7
 79
     5
170
     0
171
     0
290
     0
174
     0
 93
        1
 44
-50.0
173
     0
291
     1
 45
0.0
1001
ACAD
1000
AcDbSavedByObjectVersion
1070
     0
  0
VISUALSTYLE
  5
1095
102
{ACAD_XDICTIONARY
360
1FD2
102
}
102
{ACAD_REACTORS
330
1082
102
}
330
1082
100
AcDbVisualStyle
  2
EdgeColorOff
 70
    22
 71
     2
 72
     2
 73
     0
 90
        0
 40
-0.6
 41
-30.0
 62
     5
 63
     7
 74
     1
 91
        4
 64
     7
 65
   257
 75
     1
175
     1
 42
1.0
 92
        8
 66
     7
 43
1.0
 76
     1
 77
     6
 78
     2
 67
     7
 79
     5
170
     0
171
     0
290
     0
174
     0
 93
        1
 44
0.0
173
     0
291
     1
 45
0.0
1001
ACAD
1000
AcDbSavedByObjectVersion
1070
     0
  0
VISUALSTYLE
  5
1091
102
{ACAD_XDICTIONARY
360
1FCA
102
}
102
{ACAD_REACTORS
330
1082
102
}
330
1082
100
AcDbVisualStyle
  2
Facepattern
 70
    15
 71
     2
 72
     2
 73
     0
 90
        0
 40
-0.6
 41
-30.0
 62
     5
 63
     7
 74
     1
 91
        4
 64
     7
 65
   257
 75
     1
175
     1
 42
1.0
 92
        8
 66
     7
 43
1.0
 76
     1
 77
     6
 78
     2
 67
     7
 79
     5
170
     0
171
     0
290
     0
174
     0
 93
        1
 44
0.0
173
     0
291
     1
 45
0.0
1001
ACAD
1000
AcDbSavedByObjectVersion
1070
     0
  0
VISUALSTYLE
  5
1083
102
{ACAD_XDICTIONARY
360
1FAE
102
}
102
{ACAD_REACTORS
330
1082
102
}
330
1082
100
AcDbVisualStyle
  2
Flat
 70
     0
 71
     2
 72
     1
 73
     1
 90
        2
 40
-0.6
 41
30.0
 62
     5
 63
     7
 74
     0
 91
        4
 64
     7
 65
   257
 75
     1
175
     1
 42
1.0
 92
        8
 66
     7
 43
1.0
 76
     1
 77
     6
 78
     2
 67
     7
 79
     5
170
     0
171
     0
290
     0
174
     0
 93
       13
 44
0.0
173
     0
291
     1
 45
0.0
1001
ACAD
1000
AcDbSavedByObjectVersion
1070
     0
  0
VISUALSTYLE
  5
1084
102
{ACAD_XDICTIONARY
360
1FB0
102
}
102
{ACAD_REACTORS
330
1082
102
}
330
1082
100
AcDbVisualStyle
  2
FlatWithEdges
 70
     1
 71
     2
 72
     1
 73
     1
 90
        2
 40
-0.6
 41
30.0
 62
     5
 63
     7
 74
     1
 91
        4
 64
     7
 65
   257
 75
     1
175
     1
 42
1.0
 92
        0
 66
   257
 43
1.0
 76
     1
 77
     6
 78
     2
 67
     7
 79
     5
170
     0
171
     0
290
     0
174
     0
 93
       13
 44
0.0
173
     0
291
     1
 45
0.0
1001
ACAD
1000
AcDbSavedByObjectVersion
1070
     0
  0
VISUALSTYLE
  5
1085
102
{ACAD_XDICTIONARY
360
1FB2
102
}
102
{ACAD_REACTORS
330
1082
102
}
330
1082
100
AcDbVisualStyle
  2
Gouraud
 70
     2
 71
     2
 72
     2
 73
     1
 90
        2
 40
-0.6
 41
30.0
 62
     5
 63
     7
 74
     0
 91
        4
 64
     7
 65
   257
 75
     1
175
     1
 42
1.0
 92
        0
 66
     7
 43
1.0
 76
     1
 77
     6
 78
     2
 67
     7
 79
     5
170
     0
171
     0
290
     0
174
     0
 93
       13
 44
0.0
173
     0
291
     1
 45
0.0
1001
ACAD
1000
AcDbSavedByObjectVersion
1070
     0
  0
VISUALSTYLE
  5
1086
102
{ACAD_XDICTIONARY
360
1FB4
102
}
102
{ACAD_REACTORS
330
1082
102
}
330
1082
100
AcDbVisualStyle
  2
GouraudWithEdges
 70
     3
 71
     2
 72
     2
 73
     1
 90
        2
 40
-0.6
 41
30.0
 62
     5
 63
     7
 74
     1
 91
        4
 64
     7
 65
   257
 75
     1
175
     1
 42
1.0
 92
        0
 66
   257
 43
1.0
 76
     1
 77
     6
 78
     2
 67
     7
 79
     5
170
     0
171
     0
290
     0
174
     0
 93
       13
 44
0.0
173
     0
291
     1
 45
0.0
1001
ACAD
1000
AcDbSavedByObjectVersion
1070
     0
  0
VISUALSTYLE
  5
1093
102
{ACAD_XDICTIONARY
360
1FCE
102
}
102
{ACAD_REACTORS
330
1082
102
}
330
1082
100
AcDbVisualStyle
  2
JitterOff
 70
    20
 71
     2
 72
     2
 73
     0
 90
        0
 40
-0.6
 41
-30.0
 62
     5
 63
     7
 74
     1
 91
        4
 64
     7
 65
   257
 75
     1
175
     1
 42
1.0
 92
       10
 66
     7
 43
1.0
 76
     1
 77
     6
 78
     2
 67
     7
 79
     5
170
     0
171
     0
290
     0
174
     0
 93
        1
 44
0.0
173
     0
291
     1
 45
0.0
1001
ACAD
1000
AcDbSavedByObjectVersion
1070
     0
  0
VISUALSTYLE
  5
1090
102
{ACAD_XDICTIONARY
360
1FC8
102
}
102
{ACAD_REACTORS
330
1082
102
}
330
1082
100
AcDbVisualStyle
  2
Linepattern
 70
    14
 71
     2
 72
     2
 73
     0
 90
        0
 40
-0.6
 41
-30.0
 62
     5
 63
     7
 74
     1
 91
        4
 64
     7
 65
   257
 75
     7
175
     7
 42
1.0
 92
        8
 66
     7
 43
1.0
 76
     1
 77
     6
 78
     2
 67
     7
 79
     5
170
     0
171
     0
290
     0
174
     0
 93
        1
 44
0.0
173
     0
291
     1
 45
0.0
1001
ACAD
1000
AcDbSavedByObjectVersion
1070
     0
  0
VISUALSTYLE
  5
1094
102
{ACAD_XDICTIONARY
360
1FD0
102
}
102
{ACAD_REACTORS
330
1082
102
}
330
1082
100
AcDbVisualStyle
  2
OverhangOff
 70
    21
 71
     2
 72
     2
 73
     0
 90
        0
 40
-0.6
 41
-30.0
 62
     5
 63
     7
 74
     1
 91
        4
 64
     7
 65
   257
 75
     1
175
     1
 42
1.0
 92
        9
 66
     7
 43
1.0
 76
     1
 77
     6
 78
     2
 67
     7
 79
     5
170
     0
171
     0
290
     0
174
     0
 93
        1
 44
0.0
173
     0
291
     1
 45
0.0
1001
ACAD
1000
AcDbSavedByObjectVersion
1070
     0
  0
VISUALSTYLE
  5
108C
102
{ACAD_XDICTIONARY
360
1FC0
102
}
102
{ACAD_REACTORS
330
1082
102
}
330
1082
100
AcDbVisualStyle
  2
Realistic
 70
     8
 71
     2
 72
     2
 73
     0
 90
        0
 40
-0.6
 41
-30.0
 62
     5
 63
     7
 74
     1
 91
        0
 64
     7
 65
   257
 75
     1
175
     1
 42
1.0
 92
        8
 66
     8
 43
1.0
 76
     1
 77
     6
 78
     2
 67
     7
 79
     5
170
     0
171
     0
290
     0
174
     0
 93
       13
 44
0.0
173
     0
291
     0
 45
0.0
1001
ACAD
1000
AcDbSavedByObjectVersion
1070
     0
  0
VISUALSTYLE
  5
108F
102
{ACAD_XDICTIONARY
360
1FC6
102
}
102
{ACAD_REACTORS
330
1082
102
}
330
1082
100
AcDbVisualStyle
  2
Thicken
 70
    13
 71
     2
 72
     2
 73
     0
 90
        0
 40
-0.6
 41
-30.0
 62
     5
 63
     7
 74
     1
 91
        4
 64
     7
 65
   257
 75
     1
175
     1
 42
1.0
 92
       12
 66
     7
 43
1.0
 76
     1
 77
     6
 78
     2
 67
     7
 79
     5
170
     0
171
     0
290
     0
174
     0
 93
        1
 44
0.0
173
     0
291
     1
 45
0.0
1001
ACAD
1000
AcDbSavedByObjectVersion
1070
     0
  0
DICTIONARYVAR
  5
1D22
102
{ACAD_REACTORS
330
3D
102
}
330
3D
100
DictionaryVariables
280
     0
  1
1:1
  0
DICTIONARYVAR
  5
1D21
102
{ACAD_REACTORS
330
3D
102
}
330
3D
100
DictionaryVariables
280
     0
  1
STANDARD
  0
DICTIONARYVAR
  5
1049
102
{ACAD_REACTORS
330
3D
102
}
330
3D
100
DictionaryVariables
280
     0
  1
STANDARD
  0
DICTIONARYVAR
  5
3F
102
{ACAD_REACTORS
330
3D
102
}
330
3D
100
DictionaryVariables
280
     0
  1
2
  0
DICTIONARYVAR
  5
3E
102
{ACAD_REACTORS
330
3D
102
}
330
3D
100
DictionaryVariables
280
     0
  1
1
  0
DICTIONARYVAR
  5
1D24
102
{ACAD_REACTORS
330
3D
102
}
330
3D
100
DictionaryVariables
280
     0
  1
0
  0
DICTIONARYVAR
  5
1D23
102
{ACAD_REACTORS
330
3D
102
}
330
3D
100
DictionaryVariables
280
     0
  1
127
  0
DICTIONARYVAR
  5
1F9E
102
{ACAD_REACTORS
330
3D
102
}
330
3D
100
DictionaryVariables
280
     0
  1
2
  0
XRECORD
  5
1067
102
{ACAD_REACTORS
330
1066
102
}
330
1066
100
AcDbXrecord
280
     1
  0
DICTIONARY
  5
1FA4
330
1E
100
AcDbDictionary
280
     1
281
     1
  3
ACAD_XREC_ROUNDTRIP
360
1FA5
  0
DICTIONARY
  5
1FA8
330
26
100
AcDbDictionary
280
     1
281
     1
  3
ACAD_XREC_ROUNDTRIP
360
1FA9
  0
DICTIONARY
  5
1FA6
330
22
100
AcDbDictionary
280
     1
281
     1
  3
ACAD_XREC_ROUNDTRIP
360
1FA7
  0
DICTIONARY
  5
1073
330
1072
100
AcDbDictionary
280
     1
281
     1
  3
ACAD_XREC_ROUNDTRIP
360
1FAC
  3
BUMPTILE
360
1075
  3
DIFFUSETILE
360
1074
  3
OPACITYTILE
360
1078
  3
REFLECTIONTILE
360
1077
  3
REFRACTIONTILE
360
1079
  3
SPECULARTILE
360
1076
  0
DICTIONARY
  5
106B
330
106A
100
AcDbDictionary
280
     1
281
     1
  3
ACAD_XREC_ROUNDTRIP
360
1FAB
  3
BUMPTILE
360
106D
  3
DIFFUSETILE
360
106C
  3
OPACITYTILE
360
1070
  3
REFLECTIONTILE
360
106F
  3
REFRACTIONTILE
360
1071
  3
SPECULARTILE
360
106E
  0
DICTIONARY
  5
107B
330
107A
100
AcDbDictionary
280
     1
281
     1
  3
ACAD_XREC_ROUNDTRIP
360
1FAD
  3
BUMPTILE
360
107D
  3
DIFFUSETILE
360
107C
  3
OPACITYTILE
360
1080
  3
REFLECTIONTILE
360
107F
  3
REFRACTIONTILE
360
1081
  3
SPECULARTILE
360
107E
  0
DICTIONARY
  5
1CDE
330
EE8
100
AcDbDictionary
280
     1
281
     1
  3
ACAD_ROUNDTRIP_2008_TABLESTYLE_CELLSTYLEMAP
360
1F9F
  3
ACAD_XREC_ROUNDTRIP
360
1FAA
  0
DICTIONARY
  5
1FB8
330
1088
100
AcDbDictionary
280
     1
281
     1
  3
ACAD_XREC_ROUNDTRIP
360
1FB9
  0
DICTIONARY
  5
1FBC
330
108A
100
AcDbDictionary
280
     1
281
     1
  3
ACAD_XREC_ROUNDTRIP
360
1FBD
  0
DICTIONARY
  5
1FBA
330
1089
100
AcDbDictionary
280
     1
281
     1
  3
ACAD_XREC_ROUNDTRIP
360
1FBB
  0
DICTIONARY
  5
1FB6
330
1087
100
AcDbDictionary
280
     1
281
     1
  3
ACAD_XREC_ROUNDTRIP
360
1FB7
  0
DICTIONARY
  5
1FC4
330
108E
100
AcDbDictionary
280
     1
281
     1
  3
ACAD_XREC_ROUNDTRIP
360
1FC5
  0
DICTIONARY
  5
1FCC
330
1092
100
AcDbDictionary
280
     1
281
     1
  3
ACAD_XREC_ROUNDTRIP
360
1FCD
  0
DICTIONARY
  5
1FBE
330
108B
100
AcDbDictionary
280
     1
281
     1
  3
ACAD_XREC_ROUNDTRIP
360
1FBF
  0
DICTIONARY
  5
1FC2
330
108D
100
AcDbDictionary
280
     1
281
     1
  3
ACAD_XREC_ROUNDTRIP
360
1FC3
  0
DICTIONARY
  5
1FD2
330
1095
100
AcDbDictionary
280
     1
281
     1
  3
ACAD_XREC_ROUNDTRIP
360
1FD3
  0
DICTIONARY
  5
1FCA
330
1091
100
AcDbDictionary
280
     1
281
     1
  3
ACAD_XREC_ROUNDTRIP
360
1FCB
  0
DICTIONARY
  5
1FAE
330
1083
100
AcDbDictionary
280
     1
281
     1
  3
ACAD_XREC_ROUNDTRIP
360
1FAF
  0
DICTIONARY
  5
1FB0
330
1084
100
AcDbDictionary
280
     1
281
     1
  3
ACAD_XREC_ROUNDTRIP
360
1FB1
  0
DICTIONARY
  5
1FB2
330
1085
100
AcDbDictionary
280
     1
281
     1
  3
ACAD_XREC_ROUNDTRIP
360
1FB3
  0
DICTIONARY
  5
1FB4
330
1086
100
AcDbDictionary
280
     1
281
     1
  3
ACAD_XREC_ROUNDTRIP
360
1FB5
  0
DICTIONARY
  5
1FCE
330
1093
100
AcDbDictionary
280
     1
281
     1
  3
ACAD_XREC_ROUNDTRIP
360
1FCF
  0
DICTIONARY
  5
1FC8
330
1090
100
AcDbDictionary
280
     1
281
     1
  3
ACAD_XREC_ROUNDTRIP
360
1FC9
  0
DICTIONARY
  5
1FD0
330
1094
100
AcDbDictionary
280
     1
281
     1
  3
ACAD_XREC_ROUNDTRIP
360
1FD1
  0
DICTIONARY
  5
1FC0
330
108C
100
AcDbDictionary
280
     1
281
     1
  3
ACAD_XREC_ROUNDTRIP
360
1FC1
  0
DICTIONARY
  5
1FC6
330
108F
100
AcDbDictionary
280
     1
281
     1
  3
ACAD_XREC_ROUNDTRIP
360
1FC7
  0
XRECORD
  5
1FA5
102
{ACAD_REACTORS
330
1FA4
102
}
330
1FA4
100
AcDbXrecord
280
     1
102
SHADEPLOT
 70
     0
102
SHADEPLOTRESLEVEL
 70
     2
102
SHADEPLOTCUSTOMDPI
 70
   300
  0
XRECORD
  5
1FA9
102
{ACAD_REACTORS
330
1FA8
102
}
330
1FA8
100
AcDbXrecord
280
     1
102
SHADEPLOT
 70
     0
102
SHADEPLOTRESLEVEL
 70
     2
102
SHADEPLOTCUSTOMDPI
 70
   300
  0
XRECORD
  5
1FA7
102
{ACAD_REACTORS
330
1FA6
102
}
330
1FA6
100
AcDbXrecord
280
     1
102
SHADEPLOT
 70
     0
102
SHADEPLOTRESLEVEL
 70
     2
102
SHADEPLOTCUSTOMDPI
 70
   300
  0
XRECORD
  5
1FAC
102
{ACAD_REACTORS
330
1073
102
}
330
1073
100
AcDbXrecord
280
     1
102
MATERIAL
148
0.0
149
0.0
149
0.0
 93
        0
 94
      127
282
     0
 72
     0
 77
     0
171
     0
175
     0
179
     0
273
     0
  0
XRECORD
  5
1075
102
{ACAD_REACTORS
330
1073
102
}
330
1073
100
AcDbXrecord
280
     1
270
     1
271
     1
  0
XRECORD
  5
1074
102
{ACAD_REACTORS
330
1073
102
}
330
1073
100
AcDbXrecord
280
     1
270
     1
271
     1
  0
XRECORD
  5
1078
102
{ACAD_REACTORS
330
1073
102
}
330
1073
100
AcDbXrecord
280
     1
270
     1
271
     1
  0
XRECORD
  5
1077
102
{ACAD_REACTORS
330
1073
102
}
330
1073
100
AcDbXrecord
280
     1
270
     1
271
     1
  0
XRECORD
  5
1079
102
{ACAD_REACTORS
330
1073
102
}
330
1073
100
AcDbXrecord
280
     1
270
     1
271
     1
  0
XRECORD
  5
1076
102
{ACAD_REACTORS
330
1073
102
}
330
1073
100
AcDbXrecord
280
     1
270
     1
271
     1
  0
XRECORD
  5
1FAB
102
{ACAD_REACTORS
330
106B
102
}
330
106B
100
AcDbXrecord
280
     1
102
MATERIAL
148
0.0
149
0.0
149
0.0
 93
        0
 94
      127
282
     0
 72
     0
 77
     0
171
     0
175
     0
179
     0
273
     0
  0
XRECORD
  5
106D
102
{ACAD_REACTORS
330
106B
102
}
330
106B
100
AcDbXrecord
280
     1
270
     1
271
     1
  0
XRECORD
  5
106C
102
{ACAD_REACTORS
330
106B
102
}
330
106B
100
AcDbXrecord
280
     1
270
     1
271
     1
  0
XRECORD
  5
1070
102
{ACAD_REACTORS
330
106B
102
}
330
106B
100
AcDbXrecord
280
     1
270
     1
271
     1
  0
XRECORD
  5
106F
102
{ACAD_REACTORS
330
106B
102
}
330
106B
100
AcDbXrecord
280
     1
270
     1
271
     1
  0
XRECORD
  5
1071
102
{ACAD_REACTORS
330
106B
102
}
330
106B
100
AcDbXrecord
280
     1
270
     1
271
     1
  0
XRECORD
  5
106E
102
{ACAD_REACTORS
330
106B
102
}
330
106B
100
AcDbXrecord
280
     1
270
     1
271
     1
  0
XRECORD
  5
1FAD
102
{ACAD_REACTORS
330
107B
102
}
330
107B
100
AcDbXrecord
280
     1
102
MATERIAL
148
0.0
149
0.0
149
0.0
 93
        0
 94
      127
282
     0
 72
     0
 77
     0
171
     0
175
     0
179
     0
273
     0
  0
XRECORD
  5
107D
102
{ACAD_REACTORS
330
107B
102
}
330
107B
100
AcDbXrecord
280
     1
270
     1
271
     1
  0
XRECORD
  5
107C
102
{ACAD_REACTORS
330
107B
102
}
330
107B
100
AcDbXrecord
280
     1
270
     1
271
     1
  0
XRECORD
  5
1080
102
{ACAD_REACTORS
330
107B
102
}
330
107B
100
AcDbXrecord
280
     1
270
     1
271
     1
  0
XRECORD
  5
107F
102
{ACAD_REACTORS
330
107B
102
}
330
107B
100
AcDbXrecord
280
     1
270
     1
271
     1
  0
XRECORD
  5
1081
102
{ACAD_REACTORS
330
107B
102
}
330
107B
100
AcDbXrecord
280
     1
270
     1
271
     1
  0
XRECORD
  5
107E
102
{ACAD_REACTORS
330
107B
102
}
330
107B
100
AcDbXrecord
280
     1
270
     1
271
     1
  0
CELLSTYLEMAP
  5
1F9F
102
{ACAD_REACTORS
330
1CDE
102
}
330
1CDE
100
AcDbCellStyleMap
 90
        3
300
CELLSTYLE
  1
TABLEFORMAT_BEGIN
 90
        5
170
     1
 91
        0
 92
    32768
 62
   257
 93
        1
300
CONTENTFORMAT
  1
CONTENTFORMAT_BEGIN
 90
        0
 91
        0
 92
        4
 93
        0
300

 40
0.0
140
1.0
 94
        5
 62
     0
340
11
144
6.0
309
CONTENTFORMAT_END
171
     1
301
MARGIN
  1
CELLMARGIN_BEGIN
 40
1.5
 40
1.5
 40
1.5
 40
1.5
 40
0.18
 40
0.18
309
CELLMARGIN_END
 94
        6
 95
        1
302
GRIDFORMAT
  1
GRIDFORMAT_BEGIN
 90
        0
 91
        1
 62
     0
 92
       -2
340
0
 93
        0
 40
0.045
309
GRIDFORMAT_END
 95
        2
302
GRIDFORMAT
  1
GRIDFORMAT_BEGIN
 90
        0
 91
        1
 62
     0
 92
       -2
340
0
 93
        0
 40
0.045
309
GRIDFORMAT_END
 95
        4
302
GRIDFORMAT
  1
GRIDFORMAT_BEGIN
 90
        0
 91
        1
 62
     0
 92
       -2
340
0
 93
        0
 40
0.045
309
GRIDFORMAT_END
 95
        8
302
GRIDFORMAT
  1
GRIDFORMAT_BEGIN
 90
        0
 91
        1
 62
     0
 92
       -2
340
0
 93
        0
 40
0.045
309
GRIDFORMAT_END
 95
       16
302
GRIDFORMAT
  1
GRIDFORMAT_BEGIN
 90
        0
 91
        1
 62
     0
 92
       -2
340
0
 93
        0
 40
0.045
309
GRIDFORMAT_END
 95
       32
302
GRIDFORMAT
  1
GRIDFORMAT_BEGIN
 90
        0
 91
        1
 62
     0
 92
       -2
340
0
 93
        0
 40
0.045
309
GRIDFORMAT_END
309
TABLEFORMAT_END
  1
CELLSTYLE_BEGIN
 90
        1
 91
        1
300
_TITLE
309
CELLSTYLE_END
300
CELLSTYLE
  1
TABLEFORMAT_BEGIN
 90
        5
170
     1
 91
        0
 92
        0
 62
   257
 93
        1
300
CONTENTFORMAT
  1
CONTENTFORMAT_BEGIN
 90
        0
 91
        0
 92
        4
 93
        0
300

 40
0.0
140
1.0
 94
        5
 62
     0
340
11
144
4.5
309
CONTENTFORMAT_END
171
     1
301
MARGIN
  1
CELLMARGIN_BEGIN
 40
1.5
 40
1.5
 40
1.5
 40
1.5
 40
0.18
 40
0.18
309
CELLMARGIN_END
 94
        6
 95
        1
302
GRIDFORMAT
  1
GRIDFORMAT_BEGIN
 90
        0
 91
        1
 62
     0
 92
       -2
340
0
 93
        0
 40
0.045
309
GRIDFORMAT_END
 95
        2
302
GRIDFORMAT
  1
GRIDFORMAT_BEGIN
 90
        0
 91
        1
 62
     0
 92
       -2
340
0
 93
        0
 40
0.045
309
GRIDFORMAT_END
 95
        4
302
GRIDFORMAT
  1
GRIDFORMAT_BEGIN
 90
        0
 91
        1
 62
     0
 92
       -2
340
0
 93
        0
 40
0.045
309
GRIDFORMAT_END
 95
        8
302
GRIDFORMAT
  1
GRIDFORMAT_BEGIN
 90
        0
 91
        1
 62
     0
 92
       -2
340
0
 93
        0
 40
0.045
309
GRIDFORMAT_END
 95
       16
302
GRIDFORMAT
  1
GRIDFORMAT_BEGIN
 90
        0
 91
        1
 62
     0
 92
       -2
340
0
 93
        0
 40
0.045
309
GRIDFORMAT_END
 95
       32
302
GRIDFORMAT
  1
GRIDFORMAT_BEGIN
 90
        0
 91
        1
 62
     0
 92
       -2
340
0
 93
        0
 40
0.045
309
GRIDFORMAT_END
309
TABLEFORMAT_END
  1
CELLSTYLE_BEGIN
 90
        2
 91
        1
300
_HEADER
309
CELLSTYLE_END
300
CELLSTYLE
  1
TABLEFORMAT_BEGIN
 90
        5
170
     1
 91
        0
 92
        0
 62
   257
 93
        1
300
CONTENTFORMAT
  1
CONTENTFORMAT_BEGIN
 90
        0
 91
        0
 92
        4
 93
        0
300

 40
0.0
140
1.0
 94
        2
 62
     0
340
11
144
4.5
309
CONTENTFORMAT_END
171
     1
301
MARGIN
  1
CELLMARGIN_BEGIN
 40
1.5
 40
1.5
 40
1.5
 40
1.5
 40
0.18
 40
0.18
309
CELLMARGIN_END
 94
        6
 95
        1
302
GRIDFORMAT
  1
GRIDFORMAT_BEGIN
 90
        0
 91
        1
 62
     0
 92
       -2
340
0
 93
        0
 40
0.045
309
GRIDFORMAT_END
 95
        2
302
GRIDFORMAT
  1
GRIDFORMAT_BEGIN
 90
        0
 91
        1
 62
     0
 92
       -2
340
0
 93
        0
 40
0.045
309
GRIDFORMAT_END
 95
        4
302
GRIDFORMAT
  1
GRIDFORMAT_BEGIN
 90
        0
 91
        1
 62
     0
 92
       -2
340
0
 93
        0
 40
0.045
309
GRIDFORMAT_END
 95
        8
302
GRIDFORMAT
  1
GRIDFORMAT_BEGIN
 90
        0
 91
        1
 62
     0
 92
       -2
340
0
 93
        0
 40
0.045
309
GRIDFORMAT_END
 95
       16
302
GRIDFORMAT
  1
GRIDFORMAT_BEGIN
 90
        0
 91
        1
 62
     0
 92
       -2
340
0
 93
        0
 40
0.045
309
GRIDFORMAT_END
 95
       32
302
GRIDFORMAT
  1
GRIDFORMAT_BEGIN
 90
        0
 91
        1
 62
     0
 92
       -2
340
0
 93
        0
 40
0.045
309
GRIDFORMAT_END
309
TABLEFORMAT_END
  1
CELLSTYLE_BEGIN
 90
        3
 91
        2
300
_DATA
309
CELLSTYLE_END
  0
XRECORD
  5
1FAA
102
{ACAD_REACTORS
330
1CDE
102
}
330
1CDE
100
AcDbXrecord
280
     1
102
ACAD_ROUNDTRIP_PRE2007_TABLESTYLE
 90
        4
 91
        0
  1

 92
        4
 93
        0
  2

 94
        4
 95
        0
  3

  0
XRECORD
  5
1FB9
102
{ACAD_REACTORS
330
1FB8
102
}
330
1FB8
100
AcDbXrecord
280
     1
102
RTVSPropertyOp0
 70
     1
102
RTVSPropertyOp1
 70
     1
102
RTVSPropertyOp2
 70
     1
102
RTVSPropertyOp3
 70
     1
102
RTVSPropertyOp4
 70
     1
102
RTVSPropertyOp5
 70
     1
102
RTVSPropertyOp6
 70
     1
102
RTVSPropertyOp7
 70
     1
102
RTVSPropertyOp8
 70
     1
102
RTVSPropertyOp9
 70
     1
102
RTVSPropertyOp10
 70
     1
102
RTVSPropertyOp11
 70
     1
102
RTVSPropertyOp12
 70
     1
102
RTVSPropertyOp13
 70
     1
102
RTVSPropertyOp14
 70
     1
102
RTVSPropertyOp15
 70
     1
102
RTVSPropertyOp16
 70
     1
102
RTVSPropertyOp17
 70
     1
102
RTVSPropertyOp18
 70
     1
102
RTVSPropertyOp19
 70
     1
102
RTVSPropertyOp20
 70
     1
102
RTVSPropertyOp21
 70
     1
102
RTVSPropertyOp22
 70
     1
102
RTVSPropertyOp23
 70
     1
102
RTVSPropertyOp24
 70
     1
102
RTVSPropertyOp25
 70
     1
102
RTVSPropertyOp26
 70
     1
102
RTVSPropertyOp27
 70
     1
  0
XRECORD
  5
1FBD
102
{ACAD_REACTORS
330
1FBC
102
}
330
1FBC
100
AcDbXrecord
280
     1
102
RTVSPropertyOp0
 70
     1
102
RTVSPropertyOp1
 70
     1
102
RTVSPropertyOp2
 70
     1
102
RTVSPropertyOp3
 70
     1
102
RTVSPropertyOp4
 70
     1
102
RTVSPropertyOp5
 70
     1
102
RTVSPropertyOp6
 70
     1
102
RTVSPropertyOp7
 70
     1
102
RTVSPropertyOp8
 70
     1
102
RTVSPropertyOp9
 70
     1
102
RTVSPropertyOp10
 70
     1
102
RTVSPropertyOp11
 70
     1
102
RTVSPropertyOp12
 70
     1
102
RTVSPropertyOp13
 70
     1
102
RTVSPropertyOp14
 70
     1
102
RTVSPropertyOp15
 70
     1
102
RTVSPropertyOp16
 70
     1
102
RTVSPropertyOp17
 70
     1
102
RTVSPropertyOp18
 70
     1
102
RTVSPropertyOp19
 70
     1
102
RTVSPropertyOp20
 70
     1
102
RTVSPropertyOp21
 70
     1
102
RTVSPropertyOp22
 70
     1
102
RTVSPropertyOp23
 70
     1
102
RTVSPropertyOp24
 70
     1
102
RTVSPropertyOp25
 70
     1
102
RTVSPropertyOp26
 70
     1
102
RTVSPropertyOp27
 70
     1
  0
XRECORD
  5
1FBB
102
{ACAD_REACTORS
330
1FBA
102
}
330
1FBA
100
AcDbXrecord
280
     1
102
RTVSPropertyOp0
 70
     1
102
RTVSPropertyOp1
 70
     1
102
RTVSPropertyOp2
 70
     1
102
RTVSPropertyOp3
 70
     1
102
RTVSPropertyOp4
 70
     1
102
RTVSPropertyOp5
 70
     1
102
RTVSPropertyOp6
 70
     1
102
RTVSPropertyOp7
 70
     1
102
RTVSPropertyOp8
 70
     1
102
RTVSPropertyOp9
 70
     1
102
RTVSPropertyOp10
 70
     1
102
RTVSPropertyOp11
 70
     1
102
RTVSPropertyOp12
 70
     1
102
RTVSPropertyOp13
 70
     1
102
RTVSPropertyOp14
 70
     1
102
RTVSPropertyOp15
 70
     1
102
RTVSPropertyOp16
 70
     1
102
RTVSPropertyOp17
 70
     1
102
RTVSPropertyOp18
 70
     1
102
RTVSPropertyOp19
 70
     1
102
RTVSPropertyOp20
 70
     1
102
RTVSPropertyOp21
 70
     1
102
RTVSPropertyOp22
 70
     1
102
RTVSPropertyOp23
 70
     1
102
RTVSPropertyOp24
 70
     1
102
RTVSPropertyOp25
 70
     1
102
RTVSPropertyOp26
 70
     1
102
RTVSPropertyOp27
 70
     1
  0
XRECORD
  5
1FB7
102
{ACAD_REACTORS
330
1FB6
102
}
330
1FB6
100
AcDbXrecord
280
     1
102
RTVSPropertyOp0
 70
     1
102
RTVSPropertyOp1
 70
     1
102
RTVSPropertyOp2
 70
     1
102
RTVSPropertyOp3
 70
     1
102
RTVSPropertyOp4
 70
     1
102
RTVSPropertyOp5
 70
     1
102
RTVSPropertyOp6
 70
     1
102
RTVSPropertyOp7
 70
     1
102
RTVSPropertyOp8
 70
     1
102
RTVSPropertyOp9
 70
     1
102
RTVSPropertyOp10
 70
     1
102
RTVSPropertyOp11
 70
     1
102
RTVSPropertyOp12
 70
     1
102
RTVSPropertyOp13
 70
     1
102
RTVSPropertyOp14
 70
     1
102
RTVSPropertyOp15
 70
     1
102
RTVSPropertyOp16
 70
     1
102
RTVSPropertyOp17
 70
     1
102
RTVSPropertyOp18
 70
     1
102
RTVSPropertyOp19
 70
     1
102
RTVSPropertyOp20
 70
     1
102
RTVSPropertyOp21
 70
     1
102
RTVSPropertyOp22
 70
     1
102
RTVSPropertyOp23
 70
     1
102
RTVSPropertyOp24
 70
     1
102
RTVSPropertyOp25
 70
     1
102
RTVSPropertyOp26
 70
     1
102
RTVSPropertyOp27
 70
     1
  0
XRECORD
  5
1FC5
102
{ACAD_REACTORS
330
1FC4
102
}
330
1FC4
100
AcDbXrecord
280
     1
102
RTVSPropertyOp0
 70
     1
102
RTVSPropertyOp1
 70
     1
102
RTVSPropertyOp2
 70
     1
102
RTVSPropertyOp3
 70
     1
102
RTVSPropertyOp4
 70
     1
102
RTVSPropertyOp5
 70
     1
102
RTVSPropertyOp6
 70
     1
102
RTVSPropertyOp7
 70
     1
102
RTVSPropertyOp8
 70
     1
102
RTVSPropertyOp9
 70
     1
102
RTVSPropertyOp10
 70
     1
102
RTVSPropertyOp11
 70
     1
102
RTVSPropertyOp12
 70
     1
102
RTVSPropertyOp13
 70
     1
102
RTVSPropertyOp14
 70
     1
102
RTVSPropertyOp15
 70
     1
102
RTVSPropertyOp16
 70
     1
102
RTVSPropertyOp17
 70
     1
102
RTVSPropertyOp18
 70
     1
102
RTVSPropertyOp19
 70
     1
102
RTVSPropertyOp20
 70
     1
102
RTVSPropertyOp21
 70
     1
102
RTVSPropertyOp22
 70
     1
102
RTVSPropertyOp23
 70
     1
102
RTVSPropertyOp24
 70
     1
102
RTVSPropertyOp25
 70
     1
102
RTVSPropertyOp26
 70
     1
102
RTVSPropertyOp27
 70
     1
  0
XRECORD
  5
1FCD
102
{ACAD_REACTORS
330
1FCC
102
}
330
1FCC
100
AcDbXrecord
280
     1
102
RTVSPropertyOp0
 70
     1
102
RTVSPropertyOp1
 70
     1
102
RTVSPropertyOp2
 70
     1
102
RTVSPropertyOp3
 70
     1
102
RTVSPropertyOp4
 70
     1
102
RTVSPropertyOp5
 70
     1
102
RTVSPropertyOp6
 70
     1
102
RTVSPropertyOp7
 70
     1
102
RTVSPropertyOp8
 70
     1
102
RTVSPropertyOp9
 70
     1
102
RTVSPropertyOp10
 70
     1
102
RTVSPropertyOp11
 70
     1
102
RTVSPropertyOp12
 70
     1
102
RTVSPropertyOp13
 70
     1
102
RTVSPropertyOp14
 70
     1
102
RTVSPropertyOp15
 70
     1
102
RTVSPropertyOp16
 70
     1
102
RTVSPropertyOp17
 70
     1
102
RTVSPropertyOp18
 70
     1
102
RTVSPropertyOp19
 70
     1
102
RTVSPropertyOp20
 70
     1
102
RTVSPropertyOp21
 70
     1
102
RTVSPropertyOp22
 70
     1
102
RTVSPropertyOp23
 70
     1
102
RTVSPropertyOp24
 70
     1
102
RTVSPropertyOp25
 70
     1
102
RTVSPropertyOp26
 70
     1
102
RTVSPropertyOp27
 70
     1
  0
XRECORD
  5
1FBF
102
{ACAD_REACTORS
330
1FBE
102
}
330
1FBE
100
AcDbXrecord
280
     1
102
RTVSPropertyOp0
 70
     1
102
RTVSPropertyOp1
 70
     1
102
RTVSPropertyOp2
 70
     1
102
RTVSPropertyOp3
 70
     1
102
RTVSPropertyOp4
 70
     1
102
RTVSPropertyOp5
 70
     1
102
RTVSPropertyOp6
 70
     1
102
RTVSPropertyOp7
 70
     1
102
RTVSPropertyOp8
 70
     1
102
RTVSPropertyOp9
 70
     1
102
RTVSPropertyOp10
 70
     1
102
RTVSPropertyOp11
 70
     1
102
RTVSPropertyOp12
 70
     1
102
RTVSPropertyOp13
 70
     1
102
RTVSPropertyOp14
 70
     1
102
RTVSPropertyOp15
 70
     1
102
RTVSPropertyOp16
 70
     1
102
RTVSPropertyOp17
 70
     1
102
RTVSPropertyOp18
 70
     1
102
RTVSPropertyOp19
 70
     1
102
RTVSPropertyOp20
 70
     1
102
RTVSPropertyOp21
 70
     1
102
RTVSPropertyOp22
 70
     1
102
RTVSPropertyOp23
 70
     1
102
RTVSPropertyOp24
 70
     1
102
RTVSPropertyOp25
 70
     1
102
RTVSPropertyOp26
 70
     1
102
RTVSPropertyOp27
 70
     1
  0
XRECORD
  5
1FC3
102
{ACAD_REACTORS
330
1FC2
102
}
330
1FC2
100
AcDbXrecord
280
     1
102
RTVSPropertyOp0
 70
     1
102
RTVSPropertyOp1
 70
     1
102
RTVSPropertyOp2
 70
     1
102
RTVSPropertyOp3
 70
     1
102
RTVSPropertyOp4
 70
     1
102
RTVSPropertyOp5
 70
     1
102
RTVSPropertyOp6
 70
     1
102
RTVSPropertyOp7
 70
     1
102
RTVSPropertyOp8
 70
     1
102
RTVSPropertyOp9
 70
     1
102
RTVSPropertyOp10
 70
     1
102
RTVSPropertyOp11
 70
     1
102
RTVSPropertyOp12
 70
     1
102
RTVSPropertyOp13
 70
     1
102
RTVSPropertyOp14
 70
     1
102
RTVSPropertyOp15
 70
     1
102
RTVSPropertyOp16
 70
     1
102
RTVSPropertyOp17
 70
     1
102
RTVSPropertyOp18
 70
     1
102
RTVSPropertyOp19
 70
     1
102
RTVSPropertyOp20
 70
     1
102
RTVSPropertyOp21
 70
     1
102
RTVSPropertyOp22
 70
     1
102
RTVSPropertyOp23
 70
     1
102
RTVSPropertyOp24
 70
     1
102
RTVSPropertyOp25
 70
     1
102
RTVSPropertyOp26
 70
     1
102
RTVSPropertyOp27
 70
     1
  0
XRECORD
  5
1FD3
102
{ACAD_REACTORS
330
1FD2
102
}
330
1FD2
100
AcDbXrecord
280
     1
102
RTVSPropertyOp0
 70
     0
102
RTVSPropertyOp1
 70
     0
102
RTVSPropertyOp2
 70
     0
102
RTVSPropertyOp3
 70
     0
102
RTVSPropertyOp4
 70
     0
102
RTVSPropertyOp5
 70
     0
102
RTVSPropertyOp6
 70
     0
102
RTVSPropertyOp7
 70
     0
102
RTVSPropertyOp8
 70
     0
102
RTVSPropertyOp9
 70
     0
102
RTVSPropertyOp10
 70
     0
102
RTVSPropertyOp11
 70
     0
102
RTVSPropertyOp12
 70
     0
102
RTVSPropertyOp13
 70
     0
102
RTVSPropertyOp14
 70
     2
102
RTVSPropertyOp15
 70
     0
102
RTVSPropertyOp16
 70
     0
102
RTVSPropertyOp17
 70
     0
102
RTVSPropertyOp18
 70
     0
102
RTVSPropertyOp19
 70
     0
102
RTVSPropertyOp20
 70
     0
102
RTVSPropertyOp21
 70
     0
102
RTVSPropertyOp22
 70
     0
102
RTVSPropertyOp23
 70
     0
102
RTVSPropertyOp24
 70
     0
102
RTVSPropertyOp25
 70
     0
102
RTVSPropertyOp26
 70
     0
102
RTVSPropertyOp27
 70
     0
  0
XRECORD
  5
1FCB
102
{ACAD_REACTORS
330
1FCA
102
}
330
1FCA
100
AcDbXrecord
280
     1
102
RTVSPropertyOp0
 70
     1
102
RTVSPropertyOp1
 70
     1
102
RTVSPropertyOp2
 70
     1
102
RTVSPropertyOp3
 70
     1
102
RTVSPropertyOp4
 70
     1
102
RTVSPropertyOp5
 70
     1
102
RTVSPropertyOp6
 70
     1
102
RTVSPropertyOp7
 70
     1
102
RTVSPropertyOp8
 70
     1
102
RTVSPropertyOp9
 70
     1
102
RTVSPropertyOp10
 70
     1
102
RTVSPropertyOp11
 70
     1
102
RTVSPropertyOp12
 70
     1
102
RTVSPropertyOp13
 70
     1
102
RTVSPropertyOp14
 70
     1
102
RTVSPropertyOp15
 70
     1
102
RTVSPropertyOp16
 70
     1
102
RTVSPropertyOp17
 70
     1
102
RTVSPropertyOp18
 70
     1
102
RTVSPropertyOp19
 70
     1
102
RTVSPropertyOp20
 70
     1
102
RTVSPropertyOp21
 70
     1
102
RTVSPropertyOp22
 70
     1
102
RTVSPropertyOp23
 70
     1
102
RTVSPropertyOp24
 70
     1
102
RTVSPropertyOp25
 70
     1
102
RTVSPropertyOp26
 70
     1
102
RTVSPropertyOp27
 70
     1
  0
XRECORD
  5
1FAF
102
{ACAD_REACTORS
330
1FAE
102
}
330
1FAE
100
AcDbXrecord
280
     1
102
RTVSPropertyOp0
 70
     1
102
RTVSPropertyOp1
 70
     1
102
RTVSPropertyOp2
 70
     1
102
RTVSPropertyOp3
 70
     1
102
RTVSPropertyOp4
 70
     1
102
RTVSPropertyOp5
 70
     1
102
RTVSPropertyOp6
 70
     1
102
RTVSPropertyOp7
 70
     1
102
RTVSPropertyOp8
 70
     1
102
RTVSPropertyOp9
 70
     1
102
RTVSPropertyOp10
 70
     1
102
RTVSPropertyOp11
 70
     1
102
RTVSPropertyOp12
 70
     1
102
RTVSPropertyOp13
 70
     1
102
RTVSPropertyOp14
 70
     1
102
RTVSPropertyOp15
 70
     1
102
RTVSPropertyOp16
 70
     1
102
RTVSPropertyOp17
 70
     1
102
RTVSPropertyOp18
 70
     1
102
RTVSPropertyOp19
 70
     1
102
RTVSPropertyOp20
 70
     1
102
RTVSPropertyOp21
 70
     1
102
RTVSPropertyOp22
 70
     1
102
RTVSPropertyOp23
 70
     1
102
RTVSPropertyOp24
 70
     1
102
RTVSPropertyOp25
 70
     1
102
RTVSPropertyOp26
 70
     1
102
RTVSPropertyOp27
 70
     1
  0
XRECORD
  5
1FB1
102
{ACAD_REACTORS
330
1FB0
102
}
330
1FB0
100
AcDbXrecord
280
     1
102
RTVSPropertyOp0
 70
     1
102
RTVSPropertyOp1
 70
     1
102
RTVSPropertyOp2
 70
     1
102
RTVSPropertyOp3
 70
     1
102
RTVSPropertyOp4
 70
     1
102
RTVSPropertyOp5
 70
     1
102
RTVSPropertyOp6
 70
     1
102
RTVSPropertyOp7
 70
     1
102
RTVSPropertyOp8
 70
     1
102
RTVSPropertyOp9
 70
     1
102
RTVSPropertyOp10
 70
     1
102
RTVSPropertyOp11
 70
     1
102
RTVSPropertyOp12
 70
     1
102
RTVSPropertyOp13
 70
     1
102
RTVSPropertyOp14
 70
     1
102
RTVSPropertyOp15
 70
     1
102
RTVSPropertyOp16
 70
     1
102
RTVSPropertyOp17
 70
     1
102
RTVSPropertyOp18
 70
     1
102
RTVSPropertyOp19
 70
     1
102
RTVSPropertyOp20
 70
     1
102
RTVSPropertyOp21
 70
     1
102
RTVSPropertyOp22
 70
     1
102
RTVSPropertyOp23
 70
     1
102
RTVSPropertyOp24
 70
     1
102
RTVSPropertyOp25
 70
     1
102
RTVSPropertyOp26
 70
     1
102
RTVSPropertyOp27
 70
     1
  0
XRECORD
  5
1FB3
102
{ACAD_REACTORS
330
1FB2
102
}
330
1FB2
100
AcDbXrecord
280
     1
102
RTVSPropertyOp0
 70
     1
102
RTVSPropertyOp1
 70
     1
102
RTVSPropertyOp2
 70
     1
102
RTVSPropertyOp3
 70
     1
102
RTVSPropertyOp4
 70
     1
102
RTVSPropertyOp5
 70
     1
102
RTVSPropertyOp6
 70
     1
102
RTVSPropertyOp7
 70
     1
102
RTVSPropertyOp8
 70
     1
102
RTVSPropertyOp9
 70
     1
102
RTVSPropertyOp10
 70
     1
102
RTVSPropertyOp11
 70
     1
102
RTVSPropertyOp12
 70
     1
102
RTVSPropertyOp13
 70
     1
102
RTVSPropertyOp14
 70
     1
102
RTVSPropertyOp15
 70
     1
102
RTVSPropertyOp16
 70
     1
102
RTVSPropertyOp17
 70
     1
102
RTVSPropertyOp18
 70
     1
102
RTVSPropertyOp19
 70
     1
102
RTVSPropertyOp20
 70
     1
102
RTVSPropertyOp21
 70
     1
102
RTVSPropertyOp22
 70
     1
102
RTVSPropertyOp23
 70
     1
102
RTVSPropertyOp24
 70
     1
102
RTVSPropertyOp25
 70
     1
102
RTVSPropertyOp26
 70
     1
102
RTVSPropertyOp27
 70
     1
  0
XRECORD
  5
1FB5
102
{ACAD_REACTORS
330
1FB4
102
}
330
1FB4
100
AcDbXrecord
280
     1
102
RTVSPropertyOp0
 70
     1
102
RTVSPropertyOp1
 70
     1
102
RTVSPropertyOp2
 70
     1
102
RTVSPropertyOp3
 70
     1
102
RTVSPropertyOp4
 70
     1
102
RTVSPropertyOp5
 70
     1
102
RTVSPropertyOp6
 70
     1
102
RTVSPropertyOp7
 70
     1
102
RTVSPropertyOp8
 70
     1
102
RTVSPropertyOp9
 70
     1
102
RTVSPropertyOp10
 70
     1
102
RTVSPropertyOp11
 70
     1
102
RTVSPropertyOp12
 70
     1
102
RTVSPropertyOp13
 70
     1
102
RTVSPropertyOp14
 70
     1
102
RTVSPropertyOp15
 70
     1
102
RTVSPropertyOp16
 70
     1
102
RTVSPropertyOp17
 70
     1
102
RTVSPropertyOp18
 70
     1
102
RTVSPropertyOp19
 70
     1
102
RTVSPropertyOp20
 70
     1
102
RTVSPropertyOp21
 70
     1
102
RTVSPropertyOp22
 70
     1
102
RTVSPropertyOp23
 70
     1
102
RTVSPropertyOp24
 70
     1
102
RTVSPropertyOp25
 70
     1
102
RTVSPropertyOp26
 70
     1
102
RTVSPropertyOp27
 70
     1
  0
XRECORD
  5
1FCF
102
{ACAD_REACTORS
330
1FCE
102
}
330
1FCE
100
AcDbXrecord
280
     1
102
RTVSPropertyOp0
 70
     0
102
RTVSPropertyOp1
 70
     0
102
RTVSPropertyOp2
 70
     0
102
RTVSPropertyOp3
 70
     0
102
RTVSPropertyOp4
 70
     0
102
RTVSPropertyOp5
 70
     0
102
RTVSPropertyOp6
 70
     0
102
RTVSPropertyOp7
 70
     0
102
RTVSPropertyOp8
 70
     0
102
RTVSPropertyOp9
 70
     0
102
RTVSPropertyOp10
 70
     0
102
RTVSPropertyOp11
 70
     0
102
RTVSPropertyOp12
 70
     0
102
RTVSPropertyOp13
 70
     0
102
RTVSPropertyOp14
 70
     2
102
RTVSPropertyOp15
 70
     0
102
RTVSPropertyOp16
 70
     0
102
RTVSPropertyOp17
 70
     0
102
RTVSPropertyOp18
 70
     0
102
RTVSPropertyOp19
 70
     0
102
RTVSPropertyOp20
 70
     0
102
RTVSPropertyOp21
 70
     0
102
RTVSPropertyOp22
 70
     0
102
RTVSPropertyOp23
 70
     0
102
RTVSPropertyOp24
 70
     0
102
RTVSPropertyOp25
 70
     0
102
RTVSPropertyOp26
 70
     0
102
RTVSPropertyOp27
 70
     0
  0
XRECORD
  5
1FC9
102
{ACAD_REACTORS
330
1FC8
102
}
330
1FC8
100
AcDbXrecord
280
     1
102
RTVSPropertyOp0
 70
     1
102
RTVSPropertyOp1
 70
     1
102
RTVSPropertyOp2
 70
     1
102
RTVSPropertyOp3
 70
     1
102
RTVSPropertyOp4
 70
     1
102
RTVSPropertyOp5
 70
     1
102
RTVSPropertyOp6
 70
     1
102
RTVSPropertyOp7
 70
     1
102
RTVSPropertyOp8
 70
     1
102
RTVSPropertyOp9
 70
     1
102
RTVSPropertyOp10
 70
     1
102
RTVSPropertyOp11
 70
     1
102
RTVSPropertyOp12
 70
     1
102
RTVSPropertyOp13
 70
     1
102
RTVSPropertyOp14
 70
     1
102
RTVSPropertyOp15
 70
     1
102
RTVSPropertyOp16
 70
     1
102
RTVSPropertyOp17
 70
     1
102
RTVSPropertyOp18
 70
     1
102
RTVSPropertyOp19
 70
     1
102
RTVSPropertyOp20
 70
     1
102
RTVSPropertyOp21
 70
     1
102
RTVSPropertyOp22
 70
     1
102
RTVSPropertyOp23
 70
     1
102
RTVSPropertyOp24
 70
     1
102
RTVSPropertyOp25
 70
     1
102
RTVSPropertyOp26
 70
     1
102
RTVSPropertyOp27
 70
     1
  0
XRECORD
  5
1FD1
102
{ACAD_REACTORS
330
1FD0
102
}
330
1FD0
100
AcDbXrecord
280
     1
102
RTVSPropertyOp0
 70
     0
102
RTVSPropertyOp1
 70
     0
102
RTVSPropertyOp2
 70
     0
102
RTVSPropertyOp3
 70
     0
102
RTVSPropertyOp4
 70
     0
102
RTVSPropertyOp5
 70
     0
102
RTVSPropertyOp6
 70
     0
102
RTVSPropertyOp7
 70
     0
102
RTVSPropertyOp8
 70
     0
102
RTVSPropertyOp9
 70
     0
102
RTVSPropertyOp10
 70
     0
102
RTVSPropertyOp11
 70
     0
102
RTVSPropertyOp12
 70
     0
102
RTVSPropertyOp13
 70
     0
102
RTVSPropertyOp14
 70
     2
102
RTVSPropertyOp15
 70
     0
102
RTVSPropertyOp16
 70
     0
102
RTVSPropertyOp17
 70
     0
102
RTVSPropertyOp18
 70
     0
102
RTVSPropertyOp19
 70
     0
102
RTVSPropertyOp20
 70
     0
102
RTVSPropertyOp21
 70
     0
102
RTVSPropertyOp22
 70
     0
102
RTVSPropertyOp23
 70
     0
102
RTVSPropertyOp24
 70
     0
102
RTVSPropertyOp25
 70
     0
102
RTVSPropertyOp26
 70
     0
102
RTVSPropertyOp27
 70
     0
  0
XRECORD
  5
1FC1
102
{ACAD_REACTORS
330
1FC0
102
}
330
1FC0
100
AcDbXrecord
280
     1
102
RTVSPropertyOp0
 70
     1
102
RTVSPropertyOp1
 70
     1
102
RTVSPropertyOp2
 70
     1
102
RTVSPropertyOp3
 70
     1
102
RTVSPropertyOp4
 70
     1
102
RTVSPropertyOp5
 70
     1
102
RTVSPropertyOp6
 70
     1
102
RTVSPropertyOp7
 70
     1
102
RTVSPropertyOp8
 70
     1
102
RTVSPropertyOp9
 70
     1
102
RTVSPropertyOp10
 70
     1
102
RTVSPropertyOp11
 70
     1
102
RTVSPropertyOp12
 70
     1
102
RTVSPropertyOp13
 70
     1
102
RTVSPropertyOp14
 70
     1
102
RTVSPropertyOp15
 70
     1
102
RTVSPropertyOp16
 70
     1
102
RTVSPropertyOp17
 70
     1
102
RTVSPropertyOp18
 70
     1
102
RTVSPropertyOp19
 70
     1
102
RTVSPropertyOp20
 70
     1
102
RTVSPropertyOp21
 70
     1
102
RTVSPropertyOp22
 70
     1
102
RTVSPropertyOp23
 70
     1
102
RTVSPropertyOp24
 70
     1
102
RTVSPropertyOp25
 70
     1
102
RTVSPropertyOp26
 70
     1
102
RTVSPropertyOp27
 70
     1
  0
XRECORD
  5
1FC7
102
{ACAD_REACTORS
330
1FC6
102
}
330
1FC6
100
AcDbXrecord
280
     1
102
RTVSPropertyOp0
 70
     1
102
RTVSPropertyOp1
 70
     1
102
RTVSPropertyOp2
 70
     1
102
RTVSPropertyOp3
 70
     1
102
RTVSPropertyOp4
 70
     1
102
RTVSPropertyOp5
 70
     1
102
RTVSPropertyOp6
 70
     1
102
RTVSPropertyOp7
 70
     1
102
RTVSPropertyOp8
 70
     1
102
RTVSPropertyOp9
 70
     1
102
RTVSPropertyOp10
 70
     1
102
RTVSPropertyOp11
 70
     1
102
RTVSPropertyOp12
 70
     1
102
RTVSPropertyOp13
 70
     1
102
RTVSPropertyOp14
 70
     1
102
RTVSPropertyOp15
 70
     1
102
RTVSPropertyOp16
 70
     1
102
RTVSPropertyOp17
 70
     1
102
RTVSPropertyOp18
 70
     1
102
RTVSPropertyOp19
 70
     1
102
RTVSPropertyOp20
 70
     1
102
RTVSPropertyOp21
 70
     1
102
RTVSPropertyOp22
 70
     1
102
RTVSPropertyOp23
 70
     1
102
RTVSPropertyOp24
 70
     1
102
RTVSPropertyOp25
 70
     1
102
RTVSPropertyOp26
 70
     1
102
RTVSPropertyOp27
 70
     1
  0
ENDSEC
  0
EOF
