  0
SECTION
  2
HEADER
  9
$ACADVER
  1
AC1015
  9
$ACADMAINTVER
 70
    20
  9
$DWGCODEPAGE
  3
ANSI_1252
  9
$INSBASE
 10
0.0
 20
0.0
 30
0.0
  9
$EXTMIN
 10
5034.650265291809
 20
3342.435698413313
 30
0.0
  9
$EXTMAX
 10
5037.583232505607
 20
3343.055698448221
 30
0.0
  9
$LIMMIN
 10
0.0
 20
0.0
  9
$LIMMAX
 10
420.0
 20
297.0
  9
$ORTHOMODE
 70
     1
  9
$REGENMODE
 70
     1
  9
$FILLMODE
 70
     1
  9
$QTEXTMODE
 70
     0
  9
$MIRRTEXT
 70
     1
  9
$LTSCALE
 40
1.0
  9
$ATTMODE
 70
     1
  9
$TEXTSIZE
 40
2.5
  9
$TRACEWID
 40
1.0
  9
$TEXTSTYLE
  7
SANINDUSA
  9
$CLAYER
  8
0
  9
$CELTYPE
  6
ByLayer
  9
$CECOLOR
 62
   256
  9
$CELTSCALE
 40
1.0
  9
$DISPSILH
 70
     0
  9
$DIMSCALE
 40
1.0
  9
$DIMASZ
 40
2.0
  9
$DIMEXO
 40
1.0
  9
$DIMDLI
 40
1.0
  9
$DIMRND
 40
0.0
  9
$DIMDLE
 40
0.0
  9
$DIMEXE
 40
1.0
  9
$DIMTP
 40
0.0
  9
$DIMTM
 40
0.0
  9
$DIMTXT
 40
2.0
  9
$DIMCEN
 40
0.0
  9
$DIMTSZ
 40
0.0
  9
$DIMTOL
 70
     0
  9
$DIMLIM
 70
     0
  9
$DIMTIH
 70
     0
  9
$DIMTOH
 70
     0
  9
$DIMSE1
 70
     0
  9
$DIMSE2
 70
     0
  9
$DIMTAD
 70
     1
  9
$DIMZIN
 70
     8
  9
$DIMBLK
  1

  9
$DIMASO
 70
     1
  9
$DIMSHO
 70
     1
  9
$DIMPOST
  1

  9
$DIMAPOST
  1

  9
$DIMALT
 70
     0
  9
$DIMALTD
 70
     3
  9
$DIMALTF
 40
0.03937007874016
  9
$DIMLFAC
 40
1.0
  9
$DIMTOFL
 70
     1
  9
$DIMTVP
 40
0.0
  9
$DIMTIX
 70
     0
  9
$DIMSOXD
 70
     0
  9
$DIMSAH
 70
     0
  9
$DIMBLK1
  1

  9
$DIMBLK2
  1

  9
$DIMSTYLE
  2
SANINDUSA
  9
$DIMCLRD
 70
   256
  9
$DIMCLRE
 70
   256
  9
$DIMCLRT
 70
   256
  9
$DIMTFAC
 40
1.0
  9
$DIMGAP
 40
1.0
  9
$DIMJUST
 70
     0
  9
$DIMSD1
 70
     0
  9
$DIMSD2
 70
     0
  9
$DIMTOLJ
 70
     0
  9
$DIMTZIN
 70
     8
  9
$DIMALTZ
 70
     0
  9
$DIMALTTZ
 70
     0
  9
$DIMUPT
 70
     0
  9
$DIMDEC
 70
     1
  9
$DIMTDEC
 70
     1
  9
$DIMALTU
 70
     2
  9
$DIMALTTD
 70
     3
  9
$DIMTXSTY
  7
SANINDUSA
  9
$DIMAUNIT
 70
     0
  9
$DIMADEC
 70
     1
  9
$DIMALTRND
 40
0.0
  9
$DIMAZIN
 70
     0
  9
$DIMDSEP
 70
    44
  9
$DIMATFIT
 70
     3
  9
$DIMFRAC
 70
     0
  9
$DIMLDRBLK
  1

  9
$DIMLUNIT
 70
     2
  9
$DIMLWD
 70
    -1
  9
$DIMLWE
 70
    -1
  9
$DIMTMOVE
 70
     0
  9
$LUNITS
 70
     2
  9
$LUPREC
 70
     4
  9
$SKETCHINC
 40
1.0
  9
$FILLETRAD
 40
0.0
  9
$AUNITS
 70
     0
  9
$AUPREC
 70
     0
  9
$MENU
  1
.
  9
$ELEVATION
 40
0.0
  9
$PELEVATION
 40
0.0
  9
$THICKNESS
 40
0.0
  9
$LIMCHECK
 70
     0
  9
$CHAMFERA
 40
10.0
  9
$CHAMFERB
 40
10.0
  9
$CHAMFERC
 40
20.0
  9
$CHAMFERD
 40
0.0
  9
$SKPOLY
 70
     0
  9
$TDCREATE
 40
2455755.413476736
  9
$TDUCREATE
 40
2455755.371810070
  9
$TDUPDATE
 40
2456147.393509653
  9
$TDUUPDATE
 40
2456147.351842986
  9
$TDINDWG
 40
0.0083183218
  9
$TDUSRTIMER
 40
0.0083183218
  9
$USRTIMER
 70
     1
  9
$ANGBASE
 50
0.0
  9
$ANGDIR
 70
     0
  9
$PDMODE
 70
     0
  9
$PDSIZE
 40
0.0
  9
$PLINEWID
 40
0.0
  9
$SPLFRAME
 70
     0
  9
$SPLINETYPE
 70
     6
  9
$SPLINESEGS
 70
     8
  9
$HANDSEED
  5
1D26
  9
$SURFTAB1
 70
     6
  9
$SURFTAB2
 70
     6
  9
$SURFTYPE
 70
     6
  9
$SURFU
 70
     6
  9
$SURFV
 70
     6
  9
$UCSBASE
  2

  9
$UCSNAME
  2

  9
$UCSORG
 10
0.0
 20
0.0
 30
0.0
  9
$UCSXDIR
 10
1.0
 20
0.0
 30
0.0
  9
$UCSYDIR
 10
0.0
 20
1.0
 30
0.0
  9
$UCSORTHOREF
  2

  9
$UCSORTHOVIEW
 70
     0
  9
$UCSORGTOP
 10
0.0
 20
0.0
 30
0.0
  9
$UCSORGBOTTOM
 10
0.0
 20
0.0
 30
0.0
  9
$UCSORGLEFT
 10
0.0
 20
0.0
 30
0.0
  9
$UCSORGRIGHT
 10
0.0
 20
0.0
 30
0.0
  9
$UCSORGFRONT
 10
0.0
 20
0.0
 30
0.0
  9
$UCSORGBACK
 10
0.0
 20
0.0
 30
0.0
  9
$PUCSBASE
  2

  9
$PUCSNAME
  2

  9
$PUCSORG
 10
0.0
 20
0.0
 30
0.0
  9
$PUCSXDIR
 10
1.0
 20
0.0
 30
0.0
  9
$PUCSYDIR
 10
0.0
 20
1.0
 30
0.0
  9
$PUCSORTHOREF
  2

  9
$PUCSORTHOVIEW
 70
     0
  9
$PUCSORGTOP
 10
0.0
 20
0.0
 30
0.0
  9
$PUCSORGBOTTOM
 10
0.0
 20
0.0
 30
0.0
  9
$PUCSORGLEFT
 10
0.0
 20
0.0
 30
0.0
  9
$PUCSORGRIGHT
 10
0.0
 20
0.0
 30
0.0
  9
$PUCSORGFRONT
 10
0.0
 20
0.0
 30
0.0
  9
$PUCSORGBACK
 10
0.0
 20
0.0
 30
0.0
  9
$USERI1
 70
     0
  9
$USERI2
 70
     0
  9
$USERI3
 70
     0
  9
$USERI4
 70
     0
  9
$USERI5
 70
     0
  9
$USERR1
 40
0.0
  9
$USERR2
 40
0.0
  9
$USERR3
 40
0.0
  9
$USERR4
 40
0.0
  9
$USERR5
 40
0.0
  9
$WORLDVIEW
 70
     1
  9
$SHADEDGE
 70
     3
  9
$SHADEDIF
 70
    70
  9
$TILEMODE
 70
     1
  9
$MAXACTVP
 70
    64
  9
$PINSBASE
 10
0.0
 20
0.0
 30
0.0
  9
$PLIMCHECK
 70
     0
  9
$PEXTMIN
 10
1.000000000000000E+20
 20
1.000000000000000E+20
 30
1.000000000000000E+20
  9
$PEXTMAX
 10
-1.000000000000000E+20
 20
-1.000000000000000E+20
 30
-1.000000000000000E+20
  9
$PLIMMIN
 10
0.0
 20
0.0
  9
$PLIMMAX
 10
420.0
 20
297.0
  9
$UNITMODE
 70
     0
  9
$VISRETAIN
 70
     1
  9
$PLINEGEN
 70
     0
  9
$PSLTSCALE
 70
     1
  9
$TREEDEPTH
 70
  3020
  9
$CMLSTYLE
  2
Standard
  9
$CMLJUST
 70
     0
  9
$CMLSCALE
 40
20.0
  9
$PROXYGRAPHICS
 70
     1
  9
$MEASUREMENT
 70
     1
  9
$CELWEIGHT
370
    -1
  9
$ENDCAPS
280
     0
  9
$JOINSTYLE
280
     0
  9
$LWDISPLAY
290
     0
  9
$INSUNITS
 70
     4
  9
$HYPERLINKBASE
  1

  9
$STYLESHEET
  1
sanindusa.ctb
  9
$XEDIT
290
     1
  9
$CEPSNTYPE
380
     0
  9
$PSTYLEMODE
290
     1
  9
$FINGERPRINTGUID
  2
{F8F7AB17-1691-4169-9DFF-BF25AC7588B5}
  9
$VERSIONGUID
  2
{262CABBC-0AF7-4740-9D8D-28D2DCAF0F43}
  9
$EXTNAMES
290
     1
  9
$PSVPSCALE
 40
0.0
  9
$OLESTARTUP
290
     0
  0
ENDSEC
  0
SECTION
  2
CLASSES
  0
CLASS
  1
ACDBDICTIONARYWDFLT
  2
AcDbDictionaryWithDefault
  3
ObjectDBX Classes
 90
        0
280
     0
281
     0
  0
CLASS
  1
ACDBPLACEHOLDER
  2
AcDbPlaceHolder
  3
ObjectDBX Classes
 90
        0
280
     0
281
     0
  0
CLASS
  1
LAYOUT
  2
AcDbLayout
  3
ObjectDBX Classes
 90
        0
280
     0
281
     0
  0
CLASS
  1
DICTIONARYVAR
  2
AcDbDictionaryVar
  3
ObjectDBX Classes
 90
        0
280
     0
281
     0
  0
CLASS
  1
DIMASSOC
  2
AcDbDimAssoc
  3
"AcDbDimAssoc|Product Desc:     AcDim ARX App For Dimension|Company:          Autodesk, Inc.|WEB Address:      www.autodesk.com"
 90
    32768
280
     0
281
     0
  0
CLASS
  1
TABLESTYLE
  2
AcDbTableStyle
  3
ObjectDBX Classes
 90
     4095
280
     0
281
     0
  0
CLASS
  1
MATERIAL
  2
AcDbMaterial
  3
ObjectDBX Classes
 90
     1153
280
     0
281
     0
  0
CLASS
  1
VISUALSTYLE
  2
AcDbVisualStyle
  3
ObjectDBX Classes
 90
     4095
280
     0
281
     0
  0
CLASS
  1
SCALE
  2
AcDbScale
  3
ObjectDBX Classes
 90
     1153
280
     0
281
     0
  0
CLASS
  1
MLEADERSTYLE
  2
AcDbMLeaderStyle
  3
ACDB_MLEADERSTYLE_CLASS
 90
     4095
280
     0
281
     0
  0
CLASS
  1
ARC_DIMENSION
  2
AcDbArcDimension
  3
ObjectDBX Classes
 90
    33793
280
     0
281
     1
  0
CLASS
  1
SORTENTSTABLE
  2
AcDbSortentsTable
  3
ObjectDBX Classes
 90
    32768
280
     0
281
     0
  0
CLASS
  1
AEC_REFEDIT_STATUS_TRACKER
  2
AecDbRefEditStatusTracker
  3
AecArchBase60|Product Desc: Autodesk Architectural Desktop 2007 |Company: Autodesk,Inc. |WEB Address: www.autodesk.com
 90
    32897
280
     0
281
     0
  0
CLASS
  1
NPOCOLLECTION
  2
AcDbImpNonPersistentObjectsCollection
  3
ObjectDBX Classes
 90
    33921
280
     0
281
     0
  0
CLASS
  1
CELLSTYLEMAP
  2
AcDbCellStyleMap
  3
ObjectDBX Classes
 90
     1152
280
     0
281
     0
  0
CLASS
  1
EXACXREFPANELOBJECT
  2
ExAcXREFPanelObject
  3
EXAC_ESW
 90
    33793
280
     0
281
     0
  0
CLASS
  1
SOLID_BACKGROUND
  2
AcDbSolidBackground
  3
SCENEOE
 90
    36863
280
     0
281
     0
  0
ENDSEC
  0
SECTION
  2
TABLES
  0
TABLE
  2
VPORT
  5
8
102
{ACAD_XDICTIONARY
360
1B9D
102
}
330
0
100
AcDbSymbolTable
 70
     1
  0
VPORT
  5
1068
330
8
100
AcDbSymbolTableRecord
100
AcDbViewportTableRecord
  2
*Active
 70
     0
 10
0.0
 20
0.0
 11
1.0
 21
1.0
 12
5036.116748898708
 22
3342.745698430767
 13
0.0
 23
0.0
 14
10.0
 24
10.0
 15
10.0
 25
10.0
 16
0.0
 26
0.0
 36
1.0
 17
0.0
 27
0.0
 37
0.0
 40
1.789226333108128
 41
1.645464025026068
 42
50.0
 43
0.0
 44
0.0
 50
0.0
 51
0.0
 71
     0
 72
   100
 73
     1
 74
     2
 75
     0
 76
     0
 77
     0
 78
     0
281
     0
 65
     1
110
0.0
120
0.0
130
0.0
111
1.0
121
0.0
131
0.0
112
0.0
122
1.0
132
0.0
 79
     0
146
0.0
  0
ENDTAB
  0
TABLE
  2
LTYPE
  5
5
330
0
100
AcDbSymbolTable
 70
     5
  0
LTYPE
  5
14
330
5
100
AcDbSymbolTableRecord
100
AcDbLinetypeTableRecord
  2
ByBlock
 70
     0
  3

 72
    65
 73
     0
 40
0.0
  0
LTYPE
  5
15
330
5
100
AcDbSymbolTableRecord
100
AcDbLinetypeTableRecord
  2
ByLayer
 70
     0
  3

 72
    65
 73
     0
 40
0.0
  0
LTYPE
  5
16
330
5
100
AcDbSymbolTableRecord
100
AcDbLinetypeTableRecord
  2
Continuous
 70
     0
  3
Solid line
 72
    65
 73
     0
 40
0.0
  0
LTYPE
  5
2D
330
5
100
AcDbSymbolTableRecord
100
AcDbLinetypeTableRecord
  2
DASHDOT
 70
     0
  3
Dash dot __ . __ . __ . __ . __ . __ . __ . __
 72
    65
 73
     4
 40
25.4
 49
12.7
 74
     0
 49
-6.349999999999999
 74
     0
 49
0.0
 74
     0
 49
-6.349999999999999
 74
     0
  0
LTYPE
  5
2E
330
5
100
AcDbSymbolTableRecord
100
AcDbLinetypeTableRecord
  2
HIDDEN
 70
     0
  3
Hidden __ __ __ __ __ __ __ __ __ __ __ __ __ _
 72
    65
 73
     2
 40
9.524999999999998
 49
6.349999999999999
 74
     0
 49
-3.174999999999999
 74
     0
  0
LTYPE
  5
C75
330
5
100
AcDbSymbolTableRecord
100
AcDbLinetypeTableRecord
  2
AM_ISO02W050
 70
     0
  3
__ __ __ __ __ __ __ __ __ __ __ __ __ __ __
 72
    65
 73
     2
 40
7.5
 49
6.0
 74
     0
 49
-1.5
 74
     0
  0
LTYPE
  5
C76
330
5
100
AcDbSymbolTableRecord
100
AcDbLinetypeTableRecord
  2
AM_ISO08W050
 70
     0
  3
____ . ____ . ____ . ____ . ____ . ____ . ____
 72
    65
 73
     4
 40
18.0
 49
12.0
 74
     0
 49
-1.5
 74
     0
 49
3.0
 74
     0
 49
-1.5
 74
     0
  0
ENDTAB
  0
TABLE
  2
LAYER
  5
2
102
{ACAD_XDICTIONARY
360
1051
102
}
330
0
100
AcDbSymbolTable
 70
    17
  0
LAYER
  5
10
102
{ACAD_XDICTIONARY
360
1B77
102
}
330
2
100
AcDbSymbolTableRecord
100
AcDbLayerTableRecord
  2
0
 70
     0
 62
     7
  6
Continuous
370
    -3
390
F
  0
LAYER
  5
2F
102
{ACAD_XDICTIONARY
360
1B79
102
}
330
2
100
AcDbSymbolTableRecord
100
AcDbLayerTableRecord
  2
1
 70
     0
 62
     1
  6
Continuous
370
    -3
390
F
  0
LAYER
  5
30
102
{ACAD_XDICTIONARY
360
1B7B
102
}
330
2
100
AcDbSymbolTableRecord
100
AcDbLayerTableRecord
  2
2
 70
     0
 62
     2
  6
Continuous
370
    -3
390
F
  0
LAYER
  5
31
102
{ACAD_XDICTIONARY
360
1B7D
102
}
330
2
100
AcDbSymbolTableRecord
100
AcDbLayerTableRecord
  2
3
 70
     0
 62
     3
  6
Continuous
370
    -3
390
F
  0
LAYER
  5
32
102
{ACAD_XDICTIONARY
360
1B7F
102
}
330
2
100
AcDbSymbolTableRecord
100
AcDbLayerTableRecord
  2
4
 70
     0
 62
     4
  6
Continuous
370
    -3
390
F
  0
LAYER
  5
33
102
{ACAD_XDICTIONARY
360
1B81
102
}
330
2
100
AcDbSymbolTableRecord
100
AcDbLayerTableRecord
  2
5
 70
     0
 62
     5
  6
Continuous
370
    -3
390
F
  0
LAYER
  5
34
102
{ACAD_XDICTIONARY
360
1B83
102
}
330
2
100
AcDbSymbolTableRecord
100
AcDbLayerTableRecord
  2
6
 70
     0
 62
     6
  6
Continuous
370
    -3
390
F
  0
LAYER
  5
35
102
{ACAD_XDICTIONARY
360
1B85
102
}
330
2
100
AcDbSymbolTableRecord
100
AcDbLayerTableRecord
  2
7
 70
     0
 62
     7
  6
Continuous
370
    -3
390
F
  0
LAYER
  5
36
102
{ACAD_XDICTIONARY
360
1B87
102
}
330
2
100
AcDbSymbolTableRecord
100
AcDbLayerTableRecord
  2
cen
 70
     0
 62
     7
  6
DASHDOT
370
    -3
390
F
  0
LAYER
  5
37
102
{ACAD_XDICTIONARY
360
1B89
102
}
330
2
100
AcDbSymbolTableRecord
100
AcDbLayerTableRecord
  2
hid
 70
     0
 62
     7
  6
HIDDEN
370
    -3
390
F
  0
LAYER
  5
5D6
102
{ACAD_XDICTIONARY
360
1B8B
102
}
330
2
100
AcDbSymbolTableRecord
100
AcDbLayerTableRecord
  2
hatch
 70
     0
 62
     9
  6
Continuous
370
    -3
390
F
  0
LAYER
  5
8AF
102
{ACAD_XDICTIONARY
360
1B8D
102
}
330
2
100
AcDbSymbolTableRecord
100
AcDbLayerTableRecord
  2
9
 70
     0
 62
     9
  6
Continuous
370
    -3
390
F
  0
LAYER
  5
8F8
102
{ACAD_XDICTIONARY
360
1B8F
102
}
330
2
100
AcDbSymbolTableRecord
100
AcDbLayerTableRecord
  2
leg fin
 70
     0
 62
     9
  6
Continuous
370
    -3
390
F
  0
LAYER
  5
91D
102
{ACAD_XDICTIONARY
360
1B91
102
}
330
2
100
AcDbSymbolTableRecord
100
AcDbLayerTableRecord
  2
cotas
 70
     0
 62
     1
  6
Continuous
370
    -3
390
F
  0
LAYER
  5
92F
330
2
100
AcDbSymbolTableRecord
100
AcDbLayerTableRecord
  2
Defpoints
 70
     0
 62
     7
  6
Continuous
290
     0
370
    -3
390
F
  0
LAYER
  5
C7B
102
{ACAD_XDICTIONARY
360
1B93
102
}
330
2
100
AcDbSymbolTableRecord
100
AcDbLayerTableRecord
  2
SANINDUSA
 70
     0
 62
     3
  6
Continuous
370
    -3
390
F
  0
LAYER
  5
1060
102
{ACAD_XDICTIONARY
360
1B95
102
}
330
2
100
AcDbSymbolTableRecord
100
AcDbLayerTableRecord
  2
hid1
 70
     0
 62
     9
  6
HIDDEN
370
    -3
390
F
1001
AcAecLayerStandard
1000

1000

  0
ENDTAB
  0
TABLE
  2
STYLE
  5
3
330
0
100
AcDbSymbolTable
 70
     4
  0
STYLE
  5
11
330
3
100
AcDbSymbolTableRecord
100
AcDbTextStyleTableRecord
  2
Standard
 70
     0
 40
0.0
 41
1.0
 50
0.0
 71
     0
 42
2.5
  3
Avgardn.ttf
  4

1001
ACAD
1000
AvantGarde Bk BT
1071
       34
  0
STYLE
  5
2C
330
3
100
AcDbSymbolTableRecord
100
AcDbTextStyleTableRecord
  2

 70
     1
 40
0.0
 41
1.0
 50
0.0
 71
     0
 42
2.5
  3
ltypeshp.shx
  4

  0
STYLE
  5
91F
330
3
100
AcDbSymbolTableRecord
100
AcDbTextStyleTableRecord
  2
SANINDUSA
 70
     0
 40
0.0
 41
1.0
 50
0.0
 71
     0
 42
2.5
  3
verdana.TTF
  4

1001
ACAD
1000
Verdana
1071
       34
  0
STYLE
  5
C7C
330
3
100
AcDbSymbolTableRecord
100
AcDbTextStyleTableRecord
  2
futura
 70
     0
 40
0.0
 41
1.0
 50
0.0
 71
     0
 42
2.5
  3
ZURCHN.TTF
  4

1001
ACAD
1000
Zurich BT
1071
       34
  0
ENDTAB
  0
TABLE
  2
VIEW
  5
6
330
0
100
AcDbSymbolTable
 70
     0
  0
ENDTAB
  0
TABLE
  2
UCS
  5
7
330
0
100
AcDbSymbolTable
 70
     0
  0
ENDTAB
  0
TABLE
  2
APPID
  5
9
330
0
100
AcDbSymbolTable
 70
    12
  0
APPID
  5
12
330
9
100
AcDbSymbolTableRecord
100
AcDbRegAppTableRecord
  2
ACAD
 70
     0
  0
APPID
  5
3A
330
9
100
AcDbSymbolTableRecord
100
AcDbRegAppTableRecord
  2
DCO15
 70
     0
  0
APPID
  5
EEE
330
9
100
AcDbSymbolTableRecord
100
AcDbRegAppTableRecord
  2
ACAD_DSTYLE_DIMTEXT_FILL
 70
     0
  0
APPID
  5
EEF
330
9
100
AcDbSymbolTableRecord
100
AcDbRegAppTableRecord
  2
ACAD_DSTYLE_DIMEXT_LENGTH
 70
     0
  0
APPID
  5
EF0
330
9
100
AcDbSymbolTableRecord
100
AcDbRegAppTableRecord
  2
ACAD_DSTYLE_DIMEXT_ENABLED
 70
     0
  0
APPID
  5
EF1
330
9
100
AcDbSymbolTableRecord
100
AcDbRegAppTableRecord
  2
ACAD_DSTYLE_DIM_LINETYPE
 70
     0
  0
APPID
  5
EF2
330
9
100
AcDbSymbolTableRecord
100
AcDbRegAppTableRecord
  2
ACAD_DSTYLE_DIM_EXT1_LINETYPE
 70
     0
  0
APPID
  5
EF3
330
9
100
AcDbSymbolTableRecord
100
AcDbRegAppTableRecord
  2
ACAD_DSTYLE_DIM_EXT2_LINETYPE
 70
     0
  0
APPID
  5
FAF
330
9
100
AcDbSymbolTableRecord
100
AcDbRegAppTableRecord
  2
ACAD_DSTYLE_DIMJOGGED_JOGANGLE_SYMBOL
 70
     0
  0
APPID
  5
1013
330
9
100
AcDbSymbolTableRecord
100
AcDbRegAppTableRecord
  2
ACAD_DSTYLE_DIMARC_LENGTH_SYMBOL
 70
     0
  0
APPID
  5
1061
330
9
100
AcDbSymbolTableRecord
100
AcDbRegAppTableRecord
  2
AcAecLayerStandard
 70
     0
  0
APPID
  5
1BCF
330
9
100
AcDbSymbolTableRecord
100
AcDbRegAppTableRecord
  2
ACAD_MLEADERVER
 70
     0
  0
ENDTAB
  0
TABLE
  2
DIMSTYLE
  5
A
330
0
100
AcDbSymbolTable
 70
     3
100
AcDbDimStyleTable
 71
     1
340
921
  0
DIMSTYLE
105
45
330
A
100
AcDbSymbolTableRecord
100
AcDbDimStyleTableRecord
  2
STANDARD
 70
     0
289
     0
340
11
  0
DIMSTYLE
105
921
330
A
100
AcDbSymbolTableRecord
100
AcDbDimStyleTableRecord
  2
SANINDUSA
 70
     0
 41
2.0
 42
1.0
 43
1.0
 44
1.0
 73
     0
 74
     0
 77
     1
 78
     8
140
2.0
141
0.0
143
0.03937007874016
147
1.0
171
     3
172
     1
176
   256
177
   256
178
   256
179
     1
271
     1
272
     1
274
     3
278
    44
283
     0
284
     8
340
91F
371
    -1
372
    -1
1001
ACAD_DSTYLE_DIMJOGGED_JOGANGLE_SYMBOL
1070
   384
1040
1.570796326794896
  0
DIMSTYLE
105
C7D
330
A
100
AcDbSymbolTableRecord
100
AcDbDimStyleTableRecord
  2
AM_ISO
 70
     0
  4
"
 41
2.5
 42
1.0
 43
10.0
 44
1.0
 47
0.1
 48
0.1
 73
     0
 74
     0
 77
     1
 78
     8
 79
     2
140
3.5
141
0.0
143
0.0393701
146
0.71
147
1.5
172
     1
176
   256
177
   256
178
     2
271
     2
272
     3
274
     4
283
     0
284
     8
340
11
371
    -1
372
    -1
  0
ENDTAB
  0
TABLE
  2
BLOCK_RECORD
  5
1
330
0
100
AcDbSymbolTable
 70
     7
  0
BLOCK_RECORD
  5
1F
330
1
100
AcDbSymbolTableRecord
100
AcDbBlockTableRecord
  2
*Model_Space
340
22
  0
BLOCK_RECORD
  5
1B
330
1
100
AcDbSymbolTableRecord
100
AcDbBlockTableRecord
  2
*Paper_Space
340
1E
  0
BLOCK_RECORD
  5
23
330
1
100
AcDbSymbolTableRecord
100
AcDbBlockTableRecord
  2
*Paper_Space0
340
26
  0
BLOCK_RECORD
  5
919
330
1
100
AcDbSymbolTableRecord
100
AcDbBlockTableRecord
  2
_DotSmall
340
0
  0
BLOCK_RECORD
  5
922
330
1
100
AcDbSymbolTableRecord
100
AcDbBlockTableRecord
  2
base para cotas
340
0
310
2800000020000000200000000100080000000000000400000000000000000000000000000000000000000000000080000080000000808000800000008000800080800000C0C0C000C0DCC000F0CAA6000020400000206000002080000020A0000020C0000020E00000400000004020000040400000406000004080000040A0
310
000040C0000040E00000600000006020000060400000606000006080000060A0000060C0000060E00000800000008020000080400000806000008080000080A0000080C0000080E00000A0000000A0200000A0400000A0600000A0800000A0A00000A0C00000A0E00000C0000000C0200000C0400000C0600000C0800000C0
310
A00000C0C00000C0E00000E0000000E0200000E0400000E0600000E0800000E0A00000E0C00000E0E00040000000400020004000400040006000400080004000A0004000C0004000E00040200000402020004020400040206000402080004020A0004020C0004020E000404000004040200040404000404060004040800040
310
40A0004040C0004040E00040600000406020004060400040606000406080004060A0004060C0004060E00040800000408020004080400040806000408080004080A0004080C0004080E00040A0000040A0200040A0400040A0600040A0800040A0A00040A0C00040A0E00040C0000040C0200040C0400040C0600040C08000
310
40C0A00040C0C00040C0E00040E0000040E0200040E0400040E0600040E0800040E0A00040E0C00040E0E00080000000800020008000400080006000800080008000A0008000C0008000E00080200000802020008020400080206000802080008020A0008020C0008020E00080400000804020008040400080406000804080
310
008040A0008040C0008040E00080600000806020008060400080606000806080008060A0008060C0008060E00080800000808020008080400080806000808080008080A0008080C0008080E00080A0000080A0200080A0400080A0600080A0800080A0A00080A0C00080A0E00080C0000080C0200080C0400080C0600080C0
310
800080C0A00080C0C00080C0E00080E0000080E0200080E0400080E0600080E0800080E0A00080E0C00080E0E000C0000000C0002000C0004000C0006000C0008000C000A000C000C000C000E000C0200000C0202000C0204000C0206000C0208000C020A000C020C000C020E000C0400000C0402000C0404000C0406000C0
310
408000C040A000C040C000C040E000C0600000C0602000C0604000C0606000C0608000C060A000C060C000C060E000C0800000C0802000C0804000C0806000C0808000C080A000C080C000C080E000C0A00000C0A02000C0A04000C0A06000C0A08000C0A0A000C0A0C000C0A0E000C0C00000C0C02000C0C04000C0C06000
310
C0C08000C0C0A000F0FBFF00A4A0A000808080000000FF0000FF000000FFFF00FF000000FF00FF00FFFF0000FFFFFF00A4A4A4A4A4A4A4A4A4A4A4A4A4A4A4A4A4A4A4A4A4A4A4A4A4A4A4A4A4A4A4A4A4A4A4A4A4A4A4A4A4A4A4A4A4A4A4A4A4A4A4A4A4A4A4A4A4A4A4A4A4A4A4A4A4A4A4A4A4A4A4A4A4A4A4A4A4A4A4
310
A4A4A4A4A4A4A4A4A4A4A4A4A4A4A4A4A4A4A4A4A4A4A4A4A4A4A4A4A4A4A4A4A4A4A4A4A4A4A4A4A4A4A4A4A4A4A4A4A4A4A4A4A4A4A4A4A4A4A4A4A4A4A4A4A4A4A4A4A4A4A4A4A4A4A4A4A4A4A4A4A4A4A4A4A4A4A4A4A4A4A4A4A4A4A4A4A4A4A4A4A4A4A4A4A4A4A4A4A4A4A4A4A4A4A4A4A4A4A4A4A4A4A4A4A4A4A4
310
A4A4A4A4A4A4A4A4A4A4A4A4A4A4A4A4A4A4A4A4A4A4A4A4A4A4A4A4A4A4A4A4A4A4A4A4A4A4A4A4A4A4A4A4A4A4A4A4A4A4A4A4A4A4A4A4A4A4A4A4A4A4A4A4A4A4A4A4A4A4A4A4A4A4A4A4A4A4A4A4A4A4A4A4A4A4A4A4A4A4A4A4A4A4A4A4A4A4A4A4A4A4A4A4A4A4A4A4A4A4A4A4A4A4A4A4A4A4A4A4A4A4A4A4A4A4A4
310
A4A4A4A4A4A4A4A4A4A4A4A4A4A4A4A4A4A4A4A4A4A4A4A4A4A4A4A4A4A4A4A4A4A4A4A4A4A4A4A4A4A4A4A4A4A4A4A4A4A4A4A4A4A4A4A4A4A4A4A4A4A4A4A4A4A4A4A4A4A4A4A4A4A4A4A4A4A4A4A4A4A4A4A4A4A4A4A4A4A4A4A4A4A4A4A4A4A4A4A4A4A4A4A4A4A4A4A4A4A4A4A4A4A4A4A4F9F9F9F9F9F9F9F9F9F9F9
310
F9F9F9F9F9F9F9F9F9F9F9F9F9F9F9F9F9F9F9A4A4F9F9F9F9F9F9F9F9F9F9F9F9F9F9F9F9F9F9F9F9F9F9F9F9F9F9F9F9F9F9A4A4F9F9F9F9F9F9F9F9F9F9F9F9F9F9F9F9F9F9F9F9F9F9F9F9F9F9F9F9F9F9A4A4F9A4A4A4A4A4A4A4A4A4A4A4A4A4A4A4A4A4A4A4A4A4A4A4A4A4A4A4A4F9A4A4A4A4A4A4A4A4A4A4A4A4
310
A4A4A4A4A4A4A4A4A4A4A4A4A4A4A4A4A4A4A4A4A4A4A4A4A4A4A4A4A4A4A4A4A4A4A4A4A4A4A4A4A4A4A4A4A4A4A4A4A4A4A4A4A4A4A4A4A4A4A4A4A4A4A4A4A4A4A4A4A4A4A4A4A4A4A4A4A4A4A4A4A4A4A4A4A4A4A4A4A4A4A4A4A4A4A4A4A4A4A4A4A4A4A4A4A4A4A4A4A4A4A4A4A4A4A4A4A4A4A4A4A4A4A4A4A4A4A4
310
A4A4A4A4A4A4A4A4A4A4A4A4A4A4A4A4A4A4A4A4A4A4A4A4A4A4A4A4A4A4A4A4A4A4A4A4A4A4A4A4A4A4A4A4A4A4A4A4A4A4A4A4A4A4A4A4A4A4A4A4A4A4A4A4A4A4A4A4A4A4A4A4A4A4A4A4A4A4A4A4A4A4A4A4A4A4A4A4A4A4A4A4A4A4A4A4A4A4A4A4A4A4A4A4A4A4A4A4A4A4A4A4A4A4A4A4A4A4A4A4A4A4A4A4A4A4A4
310
A4A4A4A4A4A4A4A4A4A4A4A4A4A4A4A4A4A4A4A4A4A4A4A4A4A4A4A4A4A4A4A4A4A4A4A4A4A4A4A4A4A4A4A4A4A4A4A4A4A4A4A4A4A4A4A4A4A4A4A4A4A4A4A4A4A4A4A4A4A4A4A4A4A4A4A4A4A4A4A4A4A4A4A4A4A4A4A4A4A4A4A4A4A4A4A4A4A4A4A4A4A4A4A4A4A4A4A4A4A4A4A4A4A4A4A4A4A4A4A4A4A4A4A4A4A4A4
310
A4A4A4A4A4A4A4A4A4A4A4A4A4A4A4A4A4A4A4A4A4A4A4A4A4A4A4A4A4A4A4A4A4A4A4A4A4A4A4A4A4A4A4A4A4A4A4A4A4A4A4A4A4A4A4A4
1001
ACAD
1000
DesignCenter Data
1002
{
1070
     1
1070
     4
1002
}
  0
BLOCK_RECORD
  5
AA8
330
1
100
AcDbSymbolTableRecord
100
AcDbBlockTableRecord
  2
_CLOSED
340
0
  0
BLOCK_RECORD
  5
B79
330
1
100
AcDbSymbolTableRecord
100
AcDbBlockTableRecord
  2
nota revisoes
340
0
1001
ACAD
1000
DesignCenter Data
1002
{
1070
     1
1070
     4
1002
}
  0
BLOCK_RECORD
  5
B8E
330
1
100
AcDbSymbolTableRecord
100
AcDbBlockTableRecord
  2
a3l
340
0
1001
ACAD
1000
DesignCenter Data
1002
{
1070
     1
1070
     4
1002
}
  0
BLOCK_RECORD
  5
B9E
330
1
100
AcDbSymbolTableRecord
100
AcDbBlockTableRecord
  2
legenda desenvolvimento
340
0
1001
ACAD
1000
DesignCenter Data
1002
{
1070
     1
1070
     4
1002
}
  0
ENDTAB
  0
ENDSEC
  0
SECTION
  2
BLOCKS
  0
BLOCK
  5
20
330
1F
100
AcDbEntity
  8
0
100
AcDbBlockBegin
  2
*Model_Space
 70
     0
 10
0.0
 20
0.0
 30
0.0
  3
*Model_Space
  1

  0
ENDBLK
  5
21
330
1F
100
AcDbEntity
  8
0
100
AcDbBlockEnd
  0
BLOCK
  5
1C
330
1B
100
AcDbEntity
 67
     1
  8
0
100
AcDbBlockBegin
  2
*Paper_Space
 70
     0
 10
0.0
 20
0.0
 30
0.0
  3
*Paper_Space
  1

  0
ENDBLK
  5
1D
330
1B
100
AcDbEntity
 67
     1
  8
0
100
AcDbBlockEnd
  0
BLOCK
  5
24
330
23
100
AcDbEntity
 67
     1
  8
0
100
AcDbBlockBegin
  2
*Paper_Space0
 70
     0
 10
0.0
 20
0.0
 30
0.0
  3
*Paper_Space0
  1

  0
ENDBLK
  5
25
330
23
100
AcDbEntity
 67
     1
  8
0
100
AcDbBlockEnd
  0
BLOCK
  5
91B
330
919
100
AcDbEntity
  8
0
100
AcDbBlockBegin
  2
_DotSmall
 70
     0
 10
0.0
 20
0.0
 30
0.0
  3
_DotSmall
  1

  0
LWPOLYLINE
  5
91A
330
919
100
AcDbEntity
  8
0
  6
ByBlock
 62
     0
100
AcDbPolyline
 90
        2
 70
     1
 43
0.5
 10
-0.0625
 20
0.0
 42
1.0
 10
0.0625
 20
0.0
 42
1.0
  0
ENDBLK
  5
91C
330
919
100
AcDbEntity
  8
0
100
AcDbBlockEnd
  0
BLOCK
  5
92A
330
922
100
AcDbEntity
  8
0
100
AcDbBlockBegin
  2
base para cotas
 70
     0
 10
0.0
 20
0.0
 30
0.0
  3
base para cotas
  1

  0
LINE
  5
B36
330
922
100
AcDbEntity
  8
cotas
100
AcDbLine
 10
0.0
 20
-30.0
 30
0.0
 11
327.1260136525398
 21
-30.0
 31
0.0
  0
LINE
  5
B37
330
922
100
AcDbEntity
  8
cotas
100
AcDbLine
 10
0.0
 20
-25.0
 30
0.0
 11
327.1260136525398
 21
-25.0
 31
0.0
  0
LINE
  5
B38
330
922
100
AcDbEntity
  8
cotas
100
AcDbLine
 10
0.0
 20
-20.0
 30
0.0
 11
327.1260136525398
 21
-20.0
 31
0.0
  0
LINE
  5
B39
330
922
100
AcDbEntity
  8
cotas
100
AcDbLine
 10
0.0
 20
-15.0
 30
0.0
 11
327.1260136525398
 21
-15.0
 31
0.0
  0
LINE
  5
B3A
330
922
100
AcDbEntity
  8
cotas
100
AcDbLine
 10
0.0
 20
-10.0
 30
0.0
 11
327.1260136525398
 21
-10.0
 31
0.0
  0
LINE
  5
B3B
330
922
100
AcDbEntity
  8
cotas
100
AcDbLine
 10
0.0
 20
0.0
 30
0.0
 11
0.0
 21
-30.0
 31
0.0
  0
LINE
  5
B3C
330
922
100
AcDbEntity
  8
cotas
100
AcDbLine
 10
327.1260136525398
 20
-30.0
 30
0.0
 11
327.1260136525398
 21
0.0
 31
0.0
  0
ENDBLK
  5
92B
330
922
100
AcDbEntity
  8
0
100
AcDbBlockEnd
  0
BLOCK
  5
AAD
330
AA8
100
AcDbEntity
  8
0
100
AcDbBlockBegin
  2
_CLOSED
 70
     0
 10
0.0
 20
0.0
 30
0.0
  3
_CLOSED
  1

  0
LINE
  5
AA9
330
AA8
100
AcDbEntity
  8
0
100
AcDbLine
 10
-1.0
 20
0.166667
 30
0.0
 11
0.0
 21
0.0
 31
0.0
  0
LINE
  5
AAA
330
AA8
100
AcDbEntity
  8
0
100
AcDbLine
 10
0.0
 20
0.0
 30
0.0
 11
-1.0
 21
-0.166667
 31
0.0
  0
LINE
  5
AAB
330
AA8
100
AcDbEntity
  8
0
100
AcDbLine
 10
-1.0
 20
0.166667
 30
0.0
 11
-1.0
 21
-0.166667
 31
0.0
  0
LINE
  5
AAC
330
AA8
100
AcDbEntity
  8
0
100
AcDbLine
 10
0.0
 20
0.0
 30
0.0
 11
-1.0
 21
0.0
 31
0.0
  0
ENDBLK
  5
AAE
330
AA8
100
AcDbEntity
  8
0
100
AcDbBlockEnd
  0
BLOCK
  5
B7C
330
B79
100
AcDbEntity
  8
0
100
AcDbBlockBegin
  2
nota revisoes
 70
     0
 10
0.0
 20
0.0
 30
0.0
  3
nota revisoes
  1

  0
CIRCLE
  5
B7A
330
B79
100
AcDbEntity
  8
4
100
AcDbCircle
 10
0.0
 20
0.0
 30
0.0
 40
13.69426055101189
  0
TEXT
  5
B7B
330
B79
100
AcDbEntity
  8
4
100
AcDbText
 10
-5.496248358154345
 20
-5.354545554066362
 30
0.0
 40
12.0
  1
1
  7
SANINDUSA
 72
     1
 11
-0.249774214433728
 21
-5.354545554066362
 31
0.0
100
AcDbText
  0
ENDBLK
  5
B7D
330
B79
100
AcDbEntity
  8
0
100
AcDbBlockEnd
  0
BLOCK
  5
B9C
330
B8E
100
AcDbEntity
  8
0
100
AcDbBlockBegin
  2
a3l
 70
     0
 10
0.0
 20
0.0
 30
0.0
  3
a3l
  1

  0
LINE
  5
B8F
330
B8E
100
AcDbEntity
  8
1
100
AcDbLine
 10
-364.2925296599447
 20
-362.1188951399395
 30
0.0
 11
-364.2925296599447
 21
-65.11889513993946
 31
0.0
  0
LINE
  5
B90
330
B8E
100
AcDbEntity
  8
4
100
AcDbLine
 10
-369.2925296599447
 20
-357.1188951399395
 30
0.0
 11
-369.2925296599447
 21
-70.11889513993946
 31
0.0
  0
LINE
  5
B91
330
B8E
100
AcDbEntity
  8
1
100
AcDbLine
 10
-784.2925296599446
 20
-65.11889513993946
 30
0.0
 11
-784.2925296599446
 21
-362.1188951399395
 31
0.0
  0
LINE
  5
B92
330
B8E
100
AcDbEntity
  8
4
100
AcDbLine
 10
-759.2925296599446
 20
-357.1188951399395
 30
0.0
 11
-759.2925296599446
 21
-70.11889513993946
 31
0.0
  0
LINE
  5
B93
330
B8E
100
AcDbEntity
  8
1
100
AcDbLine
 10
-784.2925296599446
 20
-362.1188951399395
 30
0.0
 11
-364.2925296599447
 21
-362.1188951399395
 31
0.0
  0
LINE
  5
B94
330
B8E
100
AcDbEntity
  8
4
100
AcDbLine
 10
-759.2925296599446
 20
-357.1188951399395
 30
0.0
 11
-369.2925296599447
 21
-357.1188951399395
 31
0.0
  0
LINE
  5
B95
330
B8E
100
AcDbEntity
  8
1
100
AcDbLine
 10
-654.2925296599446
 20
-357.1188951399395
 30
0.0
 11
-654.2925296599446
 21
-362.1188951399395
 31
0.0
  0
LINE
  5
B96
330
B8E
100
AcDbEntity
  8
1
100
AcDbLine
 10
-364.2925296599447
 20
-65.11889513993946
 30
0.0
 11
-784.2925296599446
 21
-65.11889513993946
 31
0.0
  0
LINE
  5
B97
330
B8E
100
AcDbEntity
  8
4
100
AcDbLine
 10
-369.2925296599447
 20
-70.11889513993946
 30
0.0
 11
-759.2925296599446
 21
-70.11889513993946
 31
0.0
  0
LINE
  5
B98
330
B8E
100
AcDbEntity
  8
1
100
AcDbLine
 10
-654.2925296599446
 20
-65.11889513993946
 30
0.0
 11
-654.2925296599446
 21
-70.11889513993946
 31
0.0
  0
LINE
  5
B99
330
B8E
100
AcDbEntity
  8
1
100
AcDbLine
 10
-549.2925296599446
 20
-70.11889513993946
 30
0.0
 11
-549.2925296599446
 21
-65.11889513993946
 31
0.0
  0
LINE
  5
B9A
330
B8E
100
AcDbEntity
  8
1
100
AcDbLine
 10
-369.2925296599447
 20
-65.11889513993946
 30
0.0
 11
-364.2925296599447
 21
-65.11889513993946
 31
0.0
  0
LINE
  5
B9B
330
B8E
100
AcDbEntity
  8
1
100
AcDbLine
 10
-549.2925296599446
 20
-357.1188951399395
 30
0.0
 11
-549.2925296599446
 21
-362.1188951399395
 31
0.0
  0
ENDBLK
  5
B9D
330
B8E
100
AcDbEntity
  8
0
100
AcDbBlockEnd
  0
BLOCK
  5
C13
330
B9E
100
AcDbEntity
  8
0
100
AcDbBlockBegin
  2
legenda desenvolvimento
 70
     2
 10
0.0
 20
0.0
 30
0.0
  3
legenda desenvolvimento
  1

  0
ATTDEF
  5
B9F
330
B9E
100
AcDbEntity
  8
1
100
AcDbText
 10
-108.606245802552
 20
55.5
 30
0.0
 40
4.0
  1
XXXXXXXXXXXXXX
 41
0.8
  7
SANINDUSA
 72
     4
 11
-87.5
 21
57.5
 31
0.0
100
AcDbAttributeDefinition
  3
Nome do Produto:
  2
PRODUTO
 70
     0
  0
ATTDEF
  5
BA0
330
B9E
100
AcDbEntity
  8
1
100
AcDbText
 10
-97.9997966101695
 20
41.25
 30
0.0
 40
3.0
  1
XXXXXXXXX
 41
0.8
  7
futura
 72
     4
 11
-87.5
 21
42.75
 31
0.0
100
AcDbAttributeDefinition
  3
Nome da Peça:
  2
PECA
 70
     0
  0
ATTDEF
  5
BA1
330
B9E
100
AcDbEntity
  8
1
100
AcDbText
 10
-133.4422431161853
 20
21.11745296763252
 30
0.0
 40
2.5
  1
X
 41
0.8
  7
SANINDUSA
 72
     4
 11
-132.5
 21
22.36745296763252
 31
0.0
100
AcDbAttributeDefinition
  3
Cod. TESTE:
  2
TESTE
 70
     0
  0
ATTDEF
  5
BA2
330
B9E
100
AcDbEntity
  8
1
100
AcDbText
 10
-124.3844862323707
 20
21.11745296763252
 30
0.0
 40
2.5
  1
XX
 41
0.8
  7
SANINDUSA
 72
     4
 11
-122.5
 21
22.36745296763252
 31
0.0
100
AcDbAttributeDefinition
  3
Cod. Ano:
  2
ANO
 70
     0
  0
ATTDEF
  5
BA3
330
B9E
100
AcDbEntity
  8
1
100
AcDbText
 10
-112.526889953052
 20
21.11745296763252
 30
0.0
 40
2.5
  1
XXX
 41
0.8
  7
SANINDUSA
 72
     4
 11
-109.700160604496
 21
22.36745296763252
 31
0.0
100
AcDbAttributeDefinition
  3
Cod. Sequência:
  2
SEQUENCIA
 70
     0
  0
ATTDEF
  5
BA4
330
B9E
100
AcDbEntity
  8
1
100
AcDbText
 10
-99.35382430979316
 20
21.11745296763252
 30
0.0
 40
2.5
  1
XX
 41
0.8
  7
SANINDUSA
 72
     4
 11
-97.46933807742244
 21
22.36745296763252
 31
0.0
100
AcDbAttributeDefinition
  3
Cod. Tipo:
  2
TIPO
 70
     0
  0
ATTDEF
  5
BA5
330
B9E
100
AcDbEntity
  8
1
100
AcDbText
 10
-87.42035911468438
 20
21.11745296763252
 30
0.0
 40
2.5
  1
XXX
 41
0.8
  7
SANINDUSA
 72
     4
 11
-84.59362976612828
 21
22.36745296763252
 31
0.0
100
AcDbAttributeDefinition
  3
Cod. Produto:
  2
PRODUTO
 70
     0
  0
ATTDEF
  5
BA6
330
B9E
100
AcDbEntity
  8
1
100
AcDbText
 10
-74.62051971917853
 20
21.11745296763252
 30
0.0
 40
2.5
  1
XXX
 41
0.8
  7
SANINDUSA
 72
     4
 11
-71.79379037062244
 21
22.36745296763252
 31
0.0
100
AcDbAttributeDefinition
  3
Cod. Peça:
  2
PECA
 70
     0
  0
ATTDEF
  5
BA7
330
B9E
100
AcDbEntity
  8
1
100
AcDbText
 10
-61.10603446650329
 20
21.11745296763252
 30
0.0
 40
2.5
  1
XX
 41
0.8
  7
SANINDUSA
 72
     4
 11
-59.22154823413257
 21
22.36745296763252
 31
0.0
100
AcDbAttributeDefinition
  3
Cod. Revisão:
  2
REV
 70
     0
  0
ATTDEF
  5
BA8
330
B9E
100
AcDbEntity
  8
1
100
AcDbText
 10
-48.43615325006194
 20
21.11745296763252
 30
0.0
 40
2.5
  1
XX
 41
0.8
  7
SANINDUSA
 72
     4
 11
-46.55166701769121
 21
22.36745296763252
 31
0.0
100
AcDbAttributeDefinition
  3
Cod. Alteração:
  2
ALT
 70
     0
  0
ATTDEF
  5
BA9
330
B9E
100
AcDbEntity
  8
1
100
AcDbText
 10
-35.19086635325722
 20
23.98875083948959
 30
0.0
 40
3.0
  1
1/XXX
 41
0.8
  7
SANINDUSA
 72
     4
 11
-30.0
 21
25.25
 31
0.0
100
AcDbAttributeDefinition
  3
Escala geral:
  2
ESCALA
 70
     0
  0
ATTDEF
  5
BAA
330
B9E
100
AcDbEntity
  8
1
100
AcDbText
 10
-15.65345869711215
 20
23.75
 30
0.0
 40
3.0
  1
XXXXX
 41
0.8
  7
SANINDUSA
 72
     4
 11
-10.0
 21
25.25
 31
0.0
100
AcDbAttributeDefinition
  3
Folha:
  2
FOLHA
 70
     0
  0
ATTDEF
  5
BAB
330
B9E
100
AcDbEntity
  8
1
100
AcDbText
 10
-178.5146998822042
 20
56.9531347542807
 30
0.0
 40
2.0
  1
xx
 41
0.8
  7
SANINDUSA
 72
     4
 11
-177.2123493113513
 21
57.70330265219877
 31
0.0
100
AcDbAttributeDefinition
  3
revisão
  2
REV.
 70
     0
  0
ATTDEF
  5
BAC
330
B9E
100
AcDbEntity
  8
1
100
AcDbText
 10
-172.7849640077129
 20
56.9531347542807
 30
0.0
 40
2.0
  1
xx
 41
0.8
  7
SANINDUSA
 72
     4
 11
-171.48261343686
 21
57.70330265219877
 31
0.0
100
AcDbAttributeDefinition
  3
alteração
  2
ALT.
 70
     0
  0
ATTDEF
  5
BAD
330
B9E
100
AcDbEntity
  8
1
100
AcDbText
 10
-168.007199951307
 20
56.70330265219877
 30
0.0
 40
2.0
  1
xx/xx/xxxx
 41
0.8
  7
SANINDUSA
 11
-168.007199951307
 21
57.70330265219877
 31
0.0
100
AcDbAttributeDefinition
  3
data
  2
DATA
 70
     0
 74
     2
  0
ATTDEF
  5
BAE
330
B9E
100
AcDbEntity
  8
1
100
AcDbText
 10
-168.5396372253371
 20
13.15916722632639
 30
0.0
 40
2.0
  1
XX/XX/XXXX
 41
0.8
  7
SANINDUSA
 72
     4
 11
-161.5099528734231
 21
14.0
 31
0.0
100
AcDbAttributeDefinition
  3
Data projecto
  2
DATA_PROJ
 70
     0
  0
ATTDEF
  5
BAF
330
B9E
100
AcDbEntity
  8
1
100
AcDbText
 10
-150.8658110728766
 20
13.24983210208193
 30
0.0
 40
2.0
  1
xxxxxxxx
 41
0.8
  7
SANINDUSA
 72
     4
 11
-145.6564087894649
 21
14.0
 31
0.0
100
AcDbAttributeDefinition
  3
nome de quem projectou
  2
NOME
 70
     0
  0
ATTDEF
  5
BB0
330
B9E
100
AcDbEntity
  8
1
100
AcDbText
 10
-168.5396372253371
 20
9.159167226326394
 30
0.0
 40
2.0
  1
XX/XX/XXXX
 41
0.8
  7
SANINDUSA
 72
     4
 11
-161.5099528734231
 21
10.0
 31
0.0
100
AcDbAttributeDefinition
  3
Data desenhou
  2
DATA_DES
 70
     0
  0
ATTDEF
  5
BB1
330
B9E
100
AcDbEntity
  8
1
100
AcDbText
 10
-151.516986358303
 20
9.249832102081933
 30
0.0
 40
2.0
  1
xxxxxxxxx
 41
0.8
  7
SANINDUSA
 72
     4
 11
-145.6564087894649
 21
10.0
 31
0.0
100
AcDbAttributeDefinition
  3
nome
  2
NOME
 70
     0
  0
ATTDEF
  5
BB2
330
B9E
100
AcDbEntity
  8
1
100
AcDbText
 10
-127.2924214135946
 20
14.1979876583216
 30
0.0
 40
2.0
  1
Vitreous China
 41
0.8
  7
SANINDUSA
 72
     4
 11
-119.231709526422
 21
15.22216495852308
 31
0.0
100
AcDbAttributeDefinition
  3
Nome do Material:
  2
MATERIAL
 70
     0
  0
ATTDEF
  5
BB3
330
B9E
100
AcDbEntity
  8
1
100
AcDbText
 10
-103.1563452122093
 20
14.38019043949261
 30
0.0
 40
2.0
  1
Branco
 41
0.8
  7
SANINDUSA
 72
     4
 11
-99.33418268702462
 21
15.35937109765245
 31
0.0
100
AcDbAttributeDefinition
  3
cor da peça
  2
COR
 70
     0
  0
ATTDEF
  5
BB4
330
B9E
100
AcDbEntity
  8
1
100
AcDbText
 10
-116.7235057085292
 20
5.975822699798522
 30
0.0
 40
2.0
  1
Vidrado
 41
0.8
  7
SANINDUSA
 72
     4
 11
-112.5
 21
7.0
 31
0.0
100
AcDbAttributeDefinition
  3
Tipo de acabamento:
  2
ACABAMENTO
 70
     0
  0
ATTDEF
  5
BB5
330
B9E
100
AcDbEntity
  8
1
100
AcDbText
 10
-79.18527869967246
 20
16.65066409850533
 30
0.0
 40
2.0
  1
XXXXXXX
 41
0.8
  7
SANINDUSA
 72
     4
 11
-73.90871724903445
 21
17.65066409850533
 31
0.0
100
AcDbAttributeDefinition
  3
Normas
  2
NORMAS
 70
     0
  0
ATTDEF
  5
BB6
330
B9E
100
AcDbEntity
  8
1
100
AcDbText
 10
-30.55312290127603
 20
14.0
 30
0.0
 40
2.0
  1
XXXXXXXXXXXXXX
 41
0.8
  7
SANINDUSA
 72
     4
 11
-20.0
 21
15.0
 31
0.0
100
AcDbAttributeDefinition
  3
Substitui o desenho:
  2
SUBSTITUI
 70
     0
  0
ATTDEF
  5
BB7
330
B9E
100
AcDbEntity
  8
1
100
AcDbText
 10
-31.30691739422431
 20
6.0
 30
0.0
 40
2.0
  1
XXXXXXXXXXXXXXX
 41
0.8
  7
SANINDUSA
 72
     4
 11
-20.0
 21
7.0
 31
0.0
100
AcDbAttributeDefinition
  3
Substituido por:
  2
SUBSTITUIDO
 70
     0
  0
ATTDEF
  5
BB8
330
B9E
100
AcDbEntity
  8
1
100
AcDbText
 10
-110.0220608548302
 20
1.478208457928303
 30
0.0
 40
2.0
  1
XXXXXXXXXXXXXXXXXXXXXXXXXXXXXXXXXX
 41
0.8
  7
SANINDUSA
 11
-110.0220608548302
 21
2.478208457928303
 31
0.0
100
AcDbAttributeDefinition
  3
Localização do desenho:
  2
LOC-DWG
 70
     0
 74
     2
  0
LINE
  5
BB9
330
B9E
100
AcDbEntity
  8
3
100
AcDbLine
 10
-135.0
 20
4.0
 30
0.0
 11
0.0000000000004547
 21
4.0
 31
0.0
  0
LINE
  5
BBA
330
B9E
100
AcDbEntity
  8
3
100
AcDbLine
 10
-90.00000000000046
 20
12.0
 30
0.0
 11
-135.0
 21
12.0
 31
0.0
  0
LINE
  5
BBB
330
B9E
100
AcDbEntity
  8
3
100
AcDbLine
 10
-135.0
 20
32.5
 30
0.0
 11
-40.0
 21
32.5
 31
0.0
  0
TEXT
  5
BBC
330
B9E
100
AcDbEntity
  8
1
100
AcDbText
 10
-134.0
 20
1.25
 30
0.0
 40
2.0
  1
Localização do des.:
 41
0.8
  7
SANINDUSA
 11
-134.0
 21
2.25
 31
0.0
100
AcDbText
 73
     2
  0
LINE
  5
BBD
330
B9E
100
AcDbEntity
  8
3
100
AcDbLine
 10
-180.0
 20
65.0
 30
0.0
 11
0.0
 21
65.0
 31
0.0
  0
LINE
  5
BBE
330
B9E
100
AcDbEntity
  8
leg fin
100
AcDbLine
 10
-40.0
 20
25.05956924886846
 30
0.0
 11
-135.0
 21
25.05956924886846
 31
0.0
  0
LINE
  5
BBF
330
B9E
100
AcDbEntity
  8
leg fin
100
AcDbLine
 10
-40.0
 20
28.5
 30
0.0
 11
-135.0
 21
28.5
 31
0.0
  0
LINE
  5
BC0
330
B9E
100
AcDbEntity
  8
3
100
AcDbLine
 10
-135.0
 20
50.0
 30
0.0
 11
-40.0
 21
50.0
 31
0.0
  0
TEXT
  5
BC1
330
B9E
100
AcDbEntity
  8
1
100
AcDbText
 10
-134.0
 20
29.75
 30
0.0
 40
2.0
  1
Desenho nº:
 41
0.8
  7
SANINDUSA
 11
-134.0
 21
30.75
 31
0.0
100
AcDbText
 73
     2
  0
TEXT
  5
BC2
330
B9E
100
AcDbEntity
  8
1
100
AcDbText
 10
-134.0
 20
9.25
 30
0.0
 40
2.0
  1
Acabamento:
 41
0.8
  7
SANINDUSA
 11
-134.0
 21
10.25
 31
0.0
100
AcDbText
 73
     2
  0
LINE
  5
BC3
330
B9E
100
AcDbEntity
  8
3
100
AcDbLine
 10
-180.0
 20
20.0
 30
0.0
 11
0.0
 21
20.0
 31
0.0
  0
LINE
  5
BC4
330
B9E
100
AcDbEntity
  8
1
100
AcDbLine
 10
-174.5810776056337
 20
55.5
 30
0.0
 11
-174.5810776056337
 21
65.0
 31
0.0
  0
LINE
  5
BC5
330
B9E
100
AcDbEntity
  8
1
100
AcDbLine
 10
-168.9210461879161
 20
55.5
 30
0.0
 11
-168.9210461879161
 21
65.0
 31
0.0
  0
LINE
  5
BC6
330
B9E
100
AcDbEntity
  8
1
100
AcDbLine
 10
-154.0988595589306
 20
55.5
 30
0.0
 11
-154.0988595589306
 21
65.0
 31
0.0
  0
LINE
  5
BC7
330
B9E
100
AcDbEntity
  8
3
100
AcDbLine
 10
-180.0
 20
65.0
 30
0.0
 11
-180.0
 21
0.0
 31
0.0
  0
LINE
  5
BC8
330
B9E
100
AcDbEntity
  8
3
100
AcDbLine
 10
-135.0
 20
0.0
 30
0.0
 11
-135.0
 21
65.0
 31
0.0
  0
TEXT
  5
BC9
330
B9E
100
AcDbEntity
  8
1
100
AcDbText
 10
-179.0
 20
9.75
 30
0.0
 40
1.5
  1
Des.
 41
0.8
  7
SANINDUSA
 11
-179.0
 21
10.5
 31
0.0
100
AcDbText
 73
     2
  0
LINE
  5
BCA
330
B9E
100
AcDbEntity
  8
1
100
AcDbLine
 10
-168.9210461879161
 20
20.0
 30
0.0
 11
-168.9210461879161
 21
0.0
 31
0.0
  0
LINE
  5
BCB
330
B9E
100
AcDbEntity
  8
1
100
AcDbLine
 10
-154.0988595589306
 20
20.0
 30
0.0
 11
-154.0988595589306
 21
0.0
 31
0.0
  0
LINE
  5
BCC
330
B9E
100
AcDbEntity
  8
1
100
AcDbLine
 10
-180.0
 20
4.0
 30
0.0
 11
-135.0
 21
4.0
 31
0.0
  0
LINE
  5
BCD
330
B9E
100
AcDbEntity
  8
1
100
AcDbLine
 10
-180.0
 20
8.0
 30
0.0
 11
-135.0
 21
8.0
 31
0.0
  0
TEXT
  5
BCE
330
B9E
100
AcDbEntity
  8
1
100
AcDbText
 10
-179.0
 20
1.73257823687436
 30
0.0
 40
1.5
  1
Aprov.
 41
0.8
  7
SANINDUSA
 11
-179.0
 21
2.48257823687436
 31
0.0
100
AcDbText
 73
     2
  0
TEXT
  5
BCF
330
B9E
100
AcDbEntity
  8
1
100
AcDbText
 10
-179.0
 20
5.75
 30
0.0
 40
1.5
  1
Ver.
 41
0.8
  7
SANINDUSA
 11
-179.0
 21
6.5
 31
0.0
100
AcDbText
 73
     2
  0
LINE
  5
BD0
330
B9E
100
AcDbEntity
  8
1
100
AcDbLine
 10
-180.0
 20
16.0
 30
0.0
 11
-135.0
 21
16.0
 31
0.0
  0
LINE
  5
BD1
330
B9E
100
AcDbEntity
  8
1
100
AcDbLine
 10
-180.0
 20
12.0
 30
0.0
 11
-135.0
 21
12.0
 31
0.0
  0
TEXT
  5
BD2
330
B9E
100
AcDbEntity
  8
1
100
AcDbText
 10
-179.0
 20
13.75
 30
0.0
 40
1.5
  1
Proj.
 41
0.8
  7
SANINDUSA
 11
-179.0
 21
14.5
 31
0.0
100
AcDbText
 73
     2
  0
TEXT
  5
BD3
330
B9E
100
AcDbEntity
  8
1
100
AcDbText
 10
-167.9210461879161
 20
17.75
 30
0.0
 40
1.5
  1
Data
 41
0.8
  7
SANINDUSA
 11
-167.9210461879161
 21
18.5
 31
0.0
100
AcDbText
 73
     2
  0
TEXT
  5
BD4
330
B9E
100
AcDbEntity
  8
1
100
AcDbText
 10
-153.0988595589306
 20
17.75
 30
0.0
 40
1.5
  1
Nome
 41
0.8
  7
SANINDUSA
 11
-153.0988595589306
 21
18.5
 31
0.0
100
AcDbText
 73
     2
  0
LINE
  5
BD5
330
B9E
100
AcDbEntity
  8
leg fin
100
AcDbLine
 10
-130.0
 20
20.0
 30
0.0
 11
-130.0
 21
28.5
 31
0.0
  0
TEXT
  5
BD6
330
B9E
100
AcDbEntity
  8
1
100
AcDbText
 10
-134.0
 20
17.25
 30
0.0
 40
2.0
  1
Material:
 41
0.8
  7
SANINDUSA
 11
-134.0
 21
18.25
 31
0.0
100
AcDbText
 73
     2
  0
TEXT
  5
BD7
330
B9E
100
AcDbEntity
  8
1
100
AcDbText
 10
-129.0
 20
26.43288406845113
 30
0.0
 40
1.5
  1
Ano:
 41
0.8
  7
SANINDUSA
 11
-129.0
 21
27.18288406845113
 31
0.0
100
AcDbText
 73
     2
  0
LINE
  5
BD8
330
B9E
100
AcDbEntity
  8
1
100
AcDbLine
 10
-180.0
 20
55.5
 30
0.0
 11
-135.0
 21
55.5
 31
0.0
  0
TEXT
  5
BD9
330
B9E
100
AcDbEntity
  8
1
100
AcDbText
 10
-179.0
 20
52.67772246885193
 30
0.0
 40
1.5
  1
descrição
 41
0.8
  7
SANINDUSA
 11
-179.0
 21
53.42772246885193
 31
0.0
100
AcDbText
 73
     2
  0
TEXT
  5
BDA
330
B9E
100
AcDbEntity
  8
1
100
AcDbText
 10
-134.0
 20
47.25
 30
0.0
 40
2.0
  1
Peça:
 41
0.8
  7
SANINDUSA
 11
-134.0
 21
48.25
 31
0.0
100
AcDbText
 73
     2
  0
LINE
  5
BDB
330
B9E
100
AcDbEntity
  8
1
100
AcDbLine
 10
-180.0
 20
59.5
 30
0.0
 11
-135.0
 21
59.5
 31
0.0
  0
TEXT
  5
BDC
330
B9E
100
AcDbEntity
  8
1
100
AcDbText
 10
-173.5810776056337
 20
62.75
 30
0.0
 40
1.5
  1
Alt.
 41
0.8
  7
SANINDUSA
 11
-173.5810776056337
 21
63.5
 31
0.0
100
AcDbText
 73
     2
  0
TEXT
  5
BDD
330
B9E
100
AcDbEntity
  8
1
100
AcDbText
 10
-179.0
 20
62.75
 30
0.0
 40
1.5
  1
Rev.
 41
0.8
  7
SANINDUSA
 11
-179.0
 21
63.5
 31
0.0
100
AcDbText
 73
     2
  0
TEXT
  5
BDE
330
B9E
100
AcDbEntity
  8
1
100
AcDbText
 10
-167.9210461879161
 20
62.75
 30
0.0
 40
1.5
  1
Data
 41
0.8
  7
SANINDUSA
 11
-167.9210461879161
 21
63.5
 31
0.0
100
AcDbText
 73
     2
  0
TEXT
  5
BDF
330
B9E
100
AcDbEntity
  8
1
100
AcDbText
 10
-153.0988595589306
 20
62.75
 30
0.0
 40
1.5
  1
Nome
 41
0.8
  7
SANINDUSA
 11
-153.0988595589306
 21
63.5
 31
0.0
100
AcDbText
 73
     2
  0
TEXT
  5
BE0
330
B9E
100
AcDbEntity
  8
1
100
AcDbText
 10
-134.0
 20
62.25
 30
0.0
 40
2.0
  1
Produto:
 41
0.8
  7
SANINDUSA
 11
-134.0
 21
63.25
 31
0.0
100
AcDbText
 73
     2
  0
LINE
  5
BE1
330
B9E
100
AcDbEntity
  8
3
100
AcDbLine
 10
-40.0
 20
4.0
 30
0.0
 11
-40.0
 21
65.0
 31
0.0
  0
LWPOLYLINE
  5
BE2
102
{ACAD_REACTORS
330
BEC
102
}
330
B9E
100
AcDbEntity
  8
9
100
AcDbPolyline
 90
       12
 70
     1
 43
0.0
 10
-3.038714600644652
 20
58.90010174665076
 10
-5.726962862472191
 20
58.90010174665076
 10
-5.726962862472191
 20
58.5001017466509
 10
-3.038748516195028
 20
58.5001017466509
 42
-0.4142135623731731
 10
-2.638748516194482
 20
58.1001017466508
 10
-2.638748516194482
 20
57.42799728675596
 10
-5.21497371544865
 20
57.42799728675596
 42
0.4142135623731289
 10
-6.014973715448377
 20
56.627997286756
 10
-6.014973715448377
 20
55.92380871629643
 42
0.4142135623731132
 10
-5.21497371544865
 20
55.12380871629648
 10
-2.23871460064447
 20
55.12380871629648
 10
-2.23871460064447
 20
58.10010174665103
 42
0.4142135623730717
  0
LWPOLYLINE
  5
BE3
102
{ACAD_REACTORS
330
BEC
102
}
330
B9E
100
AcDbEntity
  8
9
100
AcDbPolyline
 90
       20
 70
     1
 43
0.0
 10
-10.01531287095122
 20
57.82799728675581
 10
-10.01531287095122
 20
58.10010174665103
 42
-0.4142135623730744
 10
-9.615312870951584
 20
58.5001017466509
 10
-6.92703069357276
 20
58.5001017466509
 10
-6.92703069357276
 20
58.90010174665076
 10
-9.615346786501959
 20
58.90010174665076
 42
0.4142135623730883
 10
-10.41534678650168
 20
58.1001017466508
 10
-10.41534678650168
 20
57.82796337120567
 42
0.4142135623730717
 10
-9.615346786501959
 20
57.02796337120571
 10
-7.423079531965413
 20
57.02796337120571
 42
-0.4142135623730847
 10
-7.023079531965322
 20
56.62796337120562
 10
-7.023079531965322
 20
55.90786840766487
 42
-0.4142135623730744
 10
-7.423079531965413
 20
55.507868407665
 10
-10.41534678650168
 20
55.507868407665
 10
-10.41534678650168
 20
55.12380871629648
 10
-7.445787917283723
 20
55.12380871629648
 42
0.4114777732064574
 10
-6.645822882998345
 20
55.9163291493976
 10
-6.639238813324936
 20
56.62051771985716
 42
0.4169546541682913
 10
-7.439203847610315
 20
57.42799728675596
 10
-9.615312870951584
 20
57.42799728675596
 42
-0.4142135623731576
  0
LWPOLYLINE
  5
BE4
102
{ACAD_REACTORS
330
BEC
102
}
330
B9E
100
AcDbEntity
  8
9
100
AcDbPolyline
 90
       12
 70
     1
 43
0.0
 10
-14.41561811090378
 20
58.90010174665076
 10
-14.79964388672215
 20
58.90010174665076
 10
-14.79964388672215
 20
55.92380871629643
 42
0.4142135623731133
 10
-13.99964388672242
 20
55.12380871629648
 10
-11.8233508563676
 20
55.12380871629648
 42
0.4142135623730872
 10
-11.02335085636741
 20
55.92380871629643
 10
-11.02335085636741
 20
58.90010174665076
 10
-11.42338477191788
 20
58.90010174665076
 10
-11.42338477191788
 20
55.91567577726095
 42
-0.4131711701795318
 10
-11.82196067063523
 20
55.51567831234956
 10
-14.0141940096214
 20
55.50787335710947
 42
-0.4152567234624407
 10
-14.41561811090378
 20
55.90787082202087
  0
LWPOLYLINE
  5
BE5
102
{ACAD_REACTORS
330
BEC
102
}
330
B9E
100
AcDbEntity
  8
9
100
AcDbPolyline
 90
        6
 70
     1
 43
0.0
 10
-15.80771578768872
 20
55.507868407665
 10
-18.39994912667453
 20
55.507868407665
 42
-0.4142135623731731
 10
-18.79994912667462
 20
55.90786840766487
 10
-18.79994912667462
 20
58.10010174665103
 42
-0.4142135623730744
 10
-18.39994912667453
 20
58.5001017466509
 10
-15.80771578768872
 20
58.5001017466509
  0
LWPOLYLINE
  5
BE6
102
{ACAD_REACTORS
330
BEC
102
}
330
B9E
100
AcDbEntity
  8
9
100
AcDbPolyline
 90
        8
 70
     1
 43
0.0
 10
-15.4236900118708
 20
59.87619128370352
 10
-15.80771578768872
 20
59.87619128370352
 10
-15.80771578768872
 20
58.90010174665076
 10
-18.39176256411201
 20
58.90010174665076
 42
0.4131164467977967
 10
-19.19175694739761
 20
58.1030995310698
 10
-19.1999120763262
 20
55.92680650071542
 42
0.4153115297271718
 10
-18.39991769304061
 20
55.12380871629648
 10
-15.4236900118708
 20
55.12380871629648
  0
LWPOLYLINE
  5
BE7
102
{ACAD_REACTORS
330
BEC
102
}
330
B9E
100
AcDbEntity
  8
9
100
AcDbPolyline
 90
       10
 70
     1
 43
0.0
 10
-20.59201288790928
 20
58.90010174665076
 10
-23.56830591826338
 20
58.90010174665076
 10
-23.56830591826338
 20
55.12380871629648
 10
-23.18424622689509
 20
55.12380871629648
 10
-23.18424622689509
 20
58.5001017466509
 10
-20.59204680345965
 20
58.5001017466509
 42
-0.4142135623730898
 10
-20.19204680345956
 20
58.1001017466508
 10
-20.19204680345956
 20
55.12380871629648
 10
-19.79201288790909
 20
55.12380871629648
 10
-19.79201288790909
 20
58.10010174665103
 42
0.4142135623731132
  0
LWPOLYLINE
  5
BE8
102
{ACAD_REACTORS
330
BEC
102
}
330
B9E
100
AcDbEntity
  8
9
100
AcDbPolyline
 90
        4
 70
     1
 43
0.0
 10
-24.19231812786165
 20
58.90010174665076
 10
-24.57637781922995
 20
58.90010174665076
 10
-24.57637781922995
 20
55.12380871629648
 10
-24.19231812786165
 20
55.12380871629648
  0
LWPOLYLINE
  5
BE9
102
{ACAD_REACTORS
330
BEC
102
}
330
B9E
100
AcDbEntity
  8
9
100
AcDbPolyline
 90
       10
 70
     1
 43
0.0
 10
-28.57661522808212
 20
58.5001017466509
 10
-25.98444972019706
 20
58.5001017466509
 42
-0.4142135623731731
 10
-25.58444972019652
 20
58.1001017466508
 10
-25.58444972019652
 20
55.12380871629648
 10
-25.2004239443786
 20
55.12380871629648
 10
-25.2004239443786
 20
58.10010174665103
 42
0.4142135623730717
 10
-26.00042394437833
 20
58.90010174665076
 10
-28.97664914363259
 20
58.90010174665076
 10
-28.97664914363259
 20
55.12380871629648
 10
-28.57661522808212
 20
55.12380871629648
  0
LWPOLYLINE
  5
BEA
102
{ACAD_REACTORS
330
BEC
102
}
330
B9E
100
AcDbEntity
  8
9
100
AcDbPolyline
 90
       12
 70
     1
 43
0.0
 10
-29.58465321349832
 20
58.10010174665103
 42
0.4142135623730716
 10
-30.3846532134985
 20
58.90010174665076
 10
-33.07296930642724
 20
58.90010174665076
 10
-33.07296930642724
 20
58.5001017466509
 10
-30.38468712904842
 20
58.5001017466509
 42
-0.4142135623730067
 10
-29.98468712904878
 20
58.1001017466508
 10
-29.98468712904878
 20
57.42799728675618
 10
-32.56098015940324
 20
57.42799728675596
 42
0.4142135623731289
 10
-33.36098015940343
 20
56.627997286756
 10
-33.36098015940343
 20
55.92380871629643
 42
0.4142135623731132
 10
-32.56098015940324
 20
55.12380871629648
 10
-29.58465321349832
 20
55.12380871629648
  0
LWPOLYLINE
  5
BEB
102
{ACAD_REACTORS
330
BEC
102
}
330
B9E
100
AcDbEntity
  8
9
100
AcDbPolyline
 90
       20
 70
     1
 43
0.0
 10
-34.7850262845518
 20
57.42799728675596
 10
-36.96125148380543
 20
57.42799728675596
 42
-0.4142135623730898
 10
-37.36125148380552
 20
57.82799728675604
 10
-37.36125148380552
 20
58.10010174665103
 42
-0.4142135623730744
 10
-36.96125148380543
 20
58.5001017466509
 10
-34.27303713752781
 20
58.50010174665067
 10
-34.27303713752781
 20
58.90010174665076
 10
-36.96128539935535
 20
58.90010174665076
 42
0.4142135623731289
 10
-37.76128539935553
 20
58.1001017466508
 10
-37.76128539935553
 20
57.82796337120567
 42
0.4142135623730716
 10
-36.9612853993558
 20
57.02796337120571
 10
-34.76901814481926
 20
57.02796337120571
 42
-0.414213562373168
 10
-34.36901814481962
 20
56.62796337120562
 10
-34.36901814481962
 20
55.90786840766487
 42
-0.4142135623730744
 10
-34.76901814481926
 20
55.507868407665
 10
-37.76128539935553
 20
55.507868407665
 10
-37.76128539935553
 20
55.12380871629648
 10
-34.7850262845518
 20
55.12380871629648
 42
0.4142135623731289
 10
-33.98502628455162
 20
55.92380871629643
 10
-33.98502628455162
 20
56.627997286756
 42
0.4142135623731132
  0
HATCH
  5
BEC
330
B9E
100
AcDbEntity
  8
9
100
AcDbHatch
 10
0.0
 20
0.0
 30
0.0
210
0.0
220
0.0
230
1.0
  2
SOLID
 70
     1
 71
     1
 91
       13
 92
        7
 72
     1
 73
     1
 93
       20
 10
-34.36901814481962
 20
55.90786840766487
 42
-0.414213562372991
 10
-34.76901814481926
 20
55.507868407665
 42
0.0
 10
-37.76128539935553
 20
55.507868407665
 42
0.0
 10
-37.76128539935553
 20
55.12380871629648
 42
0.0
 10
-34.7850262845518
 20
55.12380871629648
 42
0.4142135623731705
 10
-33.98502628455162
 20
55.92380871629666
 42
0.0
 10
-33.98502628455162
 20
56.627997286756
 42
0.4142135623731547
 10
-34.7850262845518
 20
57.42799728675596
 42
0.0
 10
-36.96125148380543
 20
57.42799728675596
 42
-0.4142135623730898
 10
-37.36125148380552
 20
57.82799728675604
 42
0.0
 10
-37.36125148380552
 20
58.1001017466508
 42
-0.4142135623731575
 10
-36.96125148380543
 20
58.5001017466509
 42
0.0
 10
-34.27303713752781
 20
58.50010174665067
 42
0.0
 10
-34.27303713752781
 20
58.90010174665076
 42
0.0
 10
-36.96128539935535
 20
58.90010174665076
 42
0.4142135623731705
 10
-37.76128539935553
 20
58.10010174665058
 42
0.0
 10
-37.76128539935553
 20
57.82796337120544
 42
0.4142135623730299
 10
-36.9612853993558
 20
57.02796337120571
 42
0.0
 10
-34.76901814481926
 20
57.02796337120571
 42
-0.4142135623730015
 10
-34.36901814481962
 20
56.62796337120608
 42
0.0
 97
        1
330
BEB
 92
        7
 72
     1
 73
     1
 93
       12
 10
-33.36098015940343
 20
55.92380871629666
 42
0.4142135623731547
 10
-32.56098015940324
 20
55.12380871629648
 42
0.0
 10
-29.58465321349877
 20
55.12380871629648
 42
0.0
 10
-29.58465321349832
 20
58.10010174665058
 42
0.4142135623731964
 10
-30.3846532134985
 20
58.90010174665076
 42
0.0
 10
-33.07296930642724
 20
58.90010174665076
 42
0.0
 10
-33.07296930642724
 20
58.50010174665067
 42
0.0
 10
-30.38468712904887
 20
58.5001017466509
 42
-0.4142135623732564
 10
-29.98468712904878
 20
58.10010174665103
 42
0.0
 10
-29.98468712904923
 20
57.42799728675596
 42
0.0
 10
-32.56098015940324
 20
57.42799728675596
 42
0.4142135623731705
 10
-33.36098015940343
 20
56.627997286756
 42
0.0
 97
        1
330
BEA
 92
       22
 72
     1
 73
     1
 93
        6
 10
-32.97692046803468
 20
56.62796337120562
 42
-0.4142135623731576
 10
-32.57692046803459
 20
57.02796337120571
 42
0.0
 10
-29.98468712904878
 20
57.02796337120571
 42
0.0
 10
-29.98468712904878
 20
55.507868407665
 42
0.0
 10
-32.57692046803459
 20
55.507868407665
 42
-0.4142135623731731
 10
-32.97692046803468
 20
55.90786840766487
 42
0.0
 97
        1
330
C11
 92
        7
 72
     1
 73
     1
 93
       10
 10
-28.57661522808212
 20
58.5001017466509
 42
0.0
 10
-25.98444972019661
 20
58.5001017466509
 42
-0.4142135623730067
 10
-25.58444972019652
 20
58.10010174665058
 42
0.0
 10
-25.58444972019606
 20
55.12380871629648
 42
0.0
 10
-25.20042394437906
 20
55.12380871629648
 42
0.0
 10
-25.2004239443786
 20
58.1001017466508
 42
0.4142135623731134
 10
-26.00042394437833
 20
58.90010174665076
 42
0.0
 10
-28.97664914363259
 20
58.90010174665076
 42
0.0
 10
-28.97664914363259
 20
55.12380871629648
 42
0.0
 10
-28.57661522808212
 20
55.12380871629648
 42
0.0
 97
        1
330
BE9
 92
        7
 72
     0
 73
     1
 93
        4
 10
-24.57637781922995
 20
55.12380871629648
 10
-24.19231812786165
 20
55.12380871629648
 10
-24.19231812786165
 20
58.90010174665076
 10
-24.57637781922995
 20
58.90010174665076
 97
        1
330
BE8
 92
        7
 72
     0
 73
     1
 93
        4
 10
-24.19231812786165
 20
59.87619128370352
 10
-24.5763778192304
 20
59.87619128370352
 10
-24.5763778192304
 20
59.28412752246913
 10
-24.1923181278612
 20
59.28412752246913
 97
        1
330
C12
 92
        7
 72
     1
 73
     1
 93
       10
 10
-23.18424622689509
 20
58.5001017466509
 42
0.0
 10
-20.59204680345965
 20
58.5001017466509
 42
-0.4142135623730898
 10
-20.19204680345956
 20
58.1001017466508
 42
0.0
 10
-20.19204680345956
 20
55.12380871629648
 42
0.0
 10
-19.79201288790909
 20
55.12380871629648
 42
0.0
 10
-19.79201288790909
 20
58.1001017466508
 42
0.4142135623731547
 10
-20.59201288790928
 20
58.90010174665076
 42
0.0
 10
-23.56830591826338
 20
58.90010174665076
 42
0.0
 10
-23.56830591826338
 20
55.12380871629648
 42
0.0
 10
-23.18424622689463
 20
55.12380871629648
 42
0.0
 97
        1
330
BE7
 92
        7
 72
     1
 73
     1
 93
        8
 10
-19.1999120763262
 20
55.92680650071542
 42
0.4153115297271299
 10
-18.39991769304061
 20
55.12380871629648
 42
0.0
 10
-15.4236900118708
 20
55.12380871629648
 42
0.0
 10
-15.4236900118708
 20
59.87619128370352
 42
0.0
 10
-15.80771578768872
 20
59.87619128370352
 42
0.0
 10
-15.80771578768872
 20
58.90010174665076
 42
0.0
 10
-18.39176256411201
 20
58.90010174665076
 42
0.4131164467977965
 10
-19.19175694739761
 20
58.1030995310698
 42
0.0
 97
        1
330
BE6
 92
       22
 72
     1
 73
     1
 93
        6
 10
-18.79994912667462
 20
58.1001017466508
 42
-0.4142135623731575
 10
-18.39994912667453
 20
58.5001017466509
 42
0.0
 10
-15.80771578768872
 20
58.50010174665067
 42
0.0
 10
-15.80771578768827
 20
55.507868407665
 42
0.0
 10
-18.39994912667453
 20
55.507868407665
 42
-0.4142135623731731
 10
-18.79994912667462
 20
55.90786840766487
 42
0.0
 97
        1
330
BE5
 92
        7
 72
     1
 73
     1
 93
       12
 10
-14.79964388672215
 20
55.92380871629621
 42
0.4142135623729885
 10
-13.99964388672242
 20
55.12380871629648
 42
0.0
 10
-11.8233508563676
 20
55.12380871629648
 42
0.4142135623731289
 10
-11.02335085636741
 20
55.92380871629666
 42
0.0
 10
-11.02335085636741
 20
58.90010174665076
 42
0.0
 10
-11.42338477191788
 20
58.90010174665076
 42
0.0
 10
-11.42338477191788
 20
55.91567577726095
 42
-0.4131711701795319
 10
-11.82196067063523
 20
55.51567831234956
 42
0.0
 10
-14.01419400962095
 20
55.50787335710947
 42
-0.4152567234626918
 10
-14.41561811090378
 20
55.90787082202087
 42
0.0
 10
-14.41561811090378
 20
58.90010174665076
 42
0.0
 10
-14.7996438867226
 20
58.90010174665076
 42
0.0
 97
        1
330
BE4
 92
        7
 72
     1
 73
     1
 93
       20
 10
-7.423079531965413
 20
57.02796337120571
 42
-0.414213562373168
 10
-7.023079531965322
 20
56.62796337120562
 42
0.0
 10
-7.023079531965322
 20
55.90786840766487
 42
-0.4142135623731575
 10
-7.423079531965413
 20
55.507868407665
 42
0.0
 10
-10.41534678650168
 20
55.507868407665
 42
0.0
 10
-10.41534678650168
 20
55.12380871629648
 42
0.0
 10
-7.445787917283723
 20
55.12380871629648
 42
0.4114777732065809
 10
-6.645822882998345
 20
55.91632914939783
 42
0.0
 10
-6.639238813324936
 20
56.62051771985716
 42
0.4169546541682913
 10
-7.439203847610315
 20
57.42799728675596
 42
0.0
 10
-9.615312870951584
 20
57.42799728675596
 42
-0.4142135623729911
 10
-10.01531287095122
 20
57.82799728675581
 42
0.0
 10
-10.01531287095122
 20
58.10010174665103
 42
-0.414213562372991
 10
-9.615312870951584
 20
58.5001017466509
 42
0.0
 10
-6.92703069357276
 20
58.50010174665067
 42
0.0
 10
-6.927030693572305
 20
58.90010174665076
 42
0.0
 10
-9.615346786501959
 20
58.90010174665076
 42
0.4142135623730467
 10
-10.41534678650168
 20
58.10010174665103
 42
0.0
 10
-10.41534678650168
 20
57.82796337120544
 42
0.4142135623730301
 10
-9.615346786501959
 20
57.02796337120571
 42
0.0
 97
        1
330
BE3
 92
        7
 72
     1
 73
     1
 93
       12
 10
-5.21497371544865
 20
57.42799728675596
 42
0.4142135623730871
 10
-6.014973715448377
 20
56.627997286756
 42
0.0
 10
-6.014973715448377
 20
55.92380871629621
 42
0.4142135623730715
 10
-5.21497371544865
 20
55.12380871629648
 42
0.0
 10
-2.23871460064447
 20
55.12380871629648
 42
0.0
 10
-2.23871460064447
 20
58.10010174665058
 42
0.414213562373155
 10
-3.038714600644652
 20
58.90010174665076
 42
0.0
 10
-5.726962862471737
 20
58.90010174665076
 42
0.0
 10
-5.726962862472191
 20
58.5001017466509
 42
0.0
 10
-3.038748516194573
 20
58.5001017466509
 42
-0.4142135623730067
 10
-2.638748516194482
 20
58.10010174665058
 42
0.0
 10
-2.638748516194482
 20
57.42799728675596
 42
0.0
 97
        1
330
BE2
 92
       22
 72
     1
 73
     1
 93
        6
 10
-2.638748516194937
 20
57.02796337120571
 42
0.0
 10
-2.638748516194482
 20
55.50786840766477
 42
0.0
 10
-5.21497371544865
 20
55.507868407665
 42
-0.4142135623731731
 10
-5.614973715448741
 20
55.90786840766509
 42
0.0
 10
-5.614973715448741
 20
56.62796337120562
 42
-0.4142135623731576
 10
-5.21497371544865
 20
57.02796337120571
 42
0.0
 97
        1
330
C0D
 75
     0
 76
     1
 47
0.0407044778999864
 98
       13
 10
-34.18710075113677
 20
56.16907953933765
 10
-33.12851374392494
 20
56.49471602641233
 10
-33.12851374392494
 20
56.49471602641233
 10
-28.77202873835904
 20
57.51232930166111
 10
-24.41554807250941
 20
57.91937341678636
 10
-24.41554807250941
 20
59.384734621186
 10
-23.31624584658039
 20
58.3264175319116
 10
-19.04119127844888
 20
57.75655517324913
 10
-19.04119127844888
 20
57.75655517324913
 10
-14.64399105416578
 20
57.43091868617466
 10
-8.048195057457178
 20
57.22739662861204
 10
-4.017427461911665
 20
57.18669281458665
 10
-4.017427461911665
 20
57.18669281458665
  0
TEXT
  5
BED
330
B9E
100
AcDbEntity
  8
leg fin
100
AcDbText
 10
3.391127401597259
 20
2.107634911895729
 30
0.0
 40
1.5
  1
Este desenho é propriedade da Sanindusa, S.A., e não pode ser copiado nem divulgado sem nossa autorização.
 50
90.0
 41
0.8
  7
SANINDUSA
100
AcDbText
  0
LINE
  5
BEE
330
B9E
100
AcDbEntity
  8
3
100
AcDbLine
 10
-90.0
 20
4.0
 30
0.0
 11
-90.0
 21
12.0
 31
0.0
  0
TEXT
  5
BEF
330
B9E
100
AcDbEntity
  8
1
100
AcDbText
 10
-39.0
 20
9.25
 30
0.0
 40
2.0
  1
Substituido por:
 41
0.8
  7
SANINDUSA
 11
-39.0
 21
10.25
 31
0.0
100
AcDbText
 73
     2
  0
POINT
  5
BF0
330
B9E
100
AcDbEntity
  8
SANINDUSA
100
AcDbPoint
 10
0.0
 20
0.0
 30
0.0
  0
TEXT
  5
BF1
330
B9E
100
AcDbEntity
  8
1
100
AcDbText
 10
-89.0
 20
16.74927010445663
 30
0.0
 40
2.0
  1
Normas:
 41
0.8
  7
SANINDUSA
 11
-89.0
 21
17.74927010445663
 31
0.0
100
AcDbText
 73
     2
  0
LINE
  5
BF2
330
B9E
100
AcDbEntity
  8
3
100
AcDbLine
 10
-90.0
 20
12.0
 30
0.0
 11
-90.0
 21
20.0
 31
0.0
  0
LINE
  5
BF3
330
B9E
100
AcDbEntity
  8
3
100
AcDbLine
 10
-110.546019464768
 20
12.0
 30
0.0
 11
-110.546019464768
 21
20.0
 31
0.0
  0
TEXT
  5
BF4
330
B9E
100
AcDbEntity
  8
1
100
AcDbText
 10
-109.6177520618648
 20
17.25
 30
0.0
 40
2.0
  1
Cor:
 41
0.8
  7
SANINDUSA
 11
-109.6177520618648
 21
18.25
 31
0.0
100
AcDbText
 73
     2
  0
LINE
  5
BF5
330
B9E
100
AcDbEntity
  8
leg fin
100
AcDbLine
 10
-91.42857142857156
 20
20.0
 30
0.0
 11
-91.42857142857156
 21
28.5
 31
0.0
  0
LINE
  5
BF6
330
B9E
100
AcDbEntity
  8
leg fin
100
AcDbLine
 10
-104.2857142857142
 20
20.0
 30
0.0
 11
-104.2857142857142
 21
28.5
 31
0.0
  0
LINE
  5
BF7
330
B9E
100
AcDbEntity
  8
leg fin
100
AcDbLine
 10
-117.1428571428573
 20
20.0
 30
0.0
 11
-117.1428571428573
 21
28.5
 31
0.0
  0
POINT
  5
BF8
330
B9E
100
AcDbEntity
  8
SANINDUSA
100
AcDbPoint
 10
-117.1428571428573
 20
28.5
 30
0.0
  0
POINT
  5
BF9
330
B9E
100
AcDbEntity
  8
SANINDUSA
100
AcDbPoint
 10
-104.2857142857142
 20
28.5
 30
0.0
  0
POINT
  5
BFA
330
B9E
100
AcDbEntity
  8
SANINDUSA
100
AcDbPoint
 10
-91.42857142857156
 20
28.5
 30
0.0
  0
TEXT
  5
BFB
330
B9E
100
AcDbEntity
  8
1
100
AcDbText
 10
-116.200160604496
 20
26.43288406845113
 30
0.0
 40
1.5
  1
Nº Seq.:
 41
0.8
  7
SANINDUSA
 11
-116.200160604496
 21
27.18288406845113
 31
0.0
100
AcDbText
 73
     2
  0
TEXT
  5
BFC
330
B9E
100
AcDbEntity
  8
1
100
AcDbText
 10
-103.2106584078738
 20
26.43288406845113
 30
0.0
 40
1.5
  1
Tipo:
 41
0.8
  7
SANINDUSA
 11
-103.2106584078738
 21
27.18288406845113
 31
0.0
100
AcDbText
 73
     2
  0
TEXT
  5
BFD
330
B9E
100
AcDbEntity
  8
1
100
AcDbText
 10
-90.22114672289353
 20
26.43288406845113
 30
0.0
 40
1.5
  1
Prod.:
 41
0.8
  7
SANINDUSA
 11
-90.22114672289353
 21
27.18288406845113
 31
0.0
100
AcDbText
 73
     2
  0
TEXT
  5
BFE
330
B9E
100
AcDbEntity
  8
1
100
AcDbText
 10
-64.77320576346574
 20
26.43288406845113
 30
0.0
 40
1.5
  1
Rev.:
 41
0.8
  7
SANINDUSA
 11
-64.77320576346574
 21
27.18288406845113
 31
0.0
100
AcDbText
 73
     2
  0
LINE
  5
BFF
330
B9E
100
AcDbEntity
  8
leg fin
100
AcDbLine
 10
-52.85714285714266
 20
20.0
 30
0.0
 11
-52.85714285714266
 21
28.5
 31
0.0
  0
LINE
  5
C00
330
B9E
100
AcDbEntity
  8
leg fin
100
AcDbLine
 10
-65.71428571428578
 20
20.0
 30
0.0
 11
-65.71428571428578
 21
28.5
 31
0.0
  0
LINE
  5
C01
330
B9E
100
AcDbEntity
  8
leg fin
100
AcDbLine
 10
-78.57142857142844
 20
20.0
 30
0.0
 11
-78.57142857142844
 21
28.5
 31
0.0
  0
POINT
  5
C02
330
B9E
100
AcDbEntity
  8
SANINDUSA
100
AcDbPoint
 10
-78.57142857142844
 20
28.5
 30
0.0
  0
POINT
  5
C03
330
B9E
100
AcDbEntity
  8
SANINDUSA
100
AcDbPoint
 10
-65.71428571428578
 20
28.5
 30
0.0
  0
POINT
  5
C04
330
B9E
100
AcDbEntity
  8
SANINDUSA
100
AcDbPoint
 10
-52.85714285714266
 20
28.5
 30
0.0
  0
TEXT
  5
C05
330
B9E
100
AcDbEntity
  8
1
100
AcDbText
 10
-77.61097961686573
 20
26.43288406845113
 30
0.0
 40
1.5
  1
Peça:
 41
0.8
  7
SANINDUSA
 11
-77.61097961686573
 21
27.18288406845113
 31
0.0
100
AcDbText
 73
     2
  0
TEXT
  5
C06
330
B9E
100
AcDbEntity
  8
1
100
AcDbText
 10
-52.06538060077036
 20
26.43288406845113
 30
0.0
 40
1.5
  1
Alt.:
 41
0.8
  7
SANINDUSA
 11
-52.06538060077036
 21
27.18288406845113
 31
0.0
100
AcDbText
 73
     2
  0
LINE
  5
C07
330
B9E
100
AcDbEntity
  8
3
100
AcDbLine
 10
0.0
 20
12.0
 30
0.0
 11
-40.0
 21
12.0
 31
0.0
  0
LINE
  5
C08
330
B9E
100
AcDbEntity
  8
3
100
AcDbLine
 10
-40.0
 20
32.5
 30
0.0
 11
0.0
 21
32.5
 31
0.0
  0
TEXT
  5
C09
330
B9E
100
AcDbEntity
  8
1
100
AcDbText
 10
-19.0
 20
29.75
 30
0.0
 40
2.0
  1
Folha:
 41
0.8
  7
SANINDUSA
 11
-19.0
 21
30.75
 31
0.0
100
AcDbText
 73
     2
  0
LINE
  5
C0A
330
B9E
100
AcDbEntity
  8
3
100
AcDbLine
 10
-20.0
 20
32.5
 30
0.0
 11
-20.0
 21
20.0
 31
0.0
  0
TEXT
  5
C0B
330
B9E
100
AcDbEntity
  8
1
100
AcDbText
 10
-39.0
 20
29.75
 30
0.0
 40
2.0
  1
Escala:
 41
0.8
  7
SANINDUSA
 11
-39.0
 21
30.75
 31
0.0
100
AcDbText
 73
     2
  0
TEXT
  5
C0C
330
B9E
100
AcDbEntity
  8
1
100
AcDbText
 10
-39.0
 20
17.25
 30
0.0
 40
2.0
  1
Substitui:
 41
0.8
  7
SANINDUSA
 11
-39.0
 21
18.25
 31
0.0
100
AcDbText
 73
     2
  0
LWPOLYLINE
  5
C0D
102
{ACAD_REACTORS
330
BEC
102
}
330
B9E
100
AcDbEntity
  8
9
100
AcDbPolyline
 90
        6
 70
     1
 43
0.0
 10
-2.638748516194482
 20
57.02796337120571
 10
-2.638748516194482
 20
55.50786840766477
 10
-5.21497371544865
 20
55.507868407665
 42
-0.4142135623730898
 10
-5.614973715448741
 20
55.90786840766487
 10
-5.614973715448741
 20
56.62796337120562
 42
-0.4142135623731576
 10
-5.21497371544865
 20
57.02796337120571
  0
LINE
  5
C0E
330
B9E
100
AcDbEntity
  8
3
100
AcDbLine
 10
-40.0
 20
50.0
 30
0.0
 11
0.0
 21
50.0
 31
0.0
  0
ATTDEF
  5
C0F
330
B9E
100
AcDbEntity
  8
1
100
AcDbText
 10
-31.30691739422431
 20
40.25
 30
0.0
 40
2.0
  1
XXXXXXXXXXXXXXX
 41
0.8
  7
SANINDUSA
 72
     4
 11
-20.0
 21
41.25
 31
0.0
100
AcDbAttributeDefinition
  3
Observações:
  2
OBS
 70
     0
  0
TEXT
  5
C10
330
B9E
100
AcDbEntity
  8
1
100
AcDbText
 10
-39.0
 20
47.25
 30
0.0
 40
2.0
  1
Observações:
 41
0.8
  7
SANINDUSA
 11
-39.0
 21
48.25
 31
0.0
100
AcDbText
 73
     2
  0
LWPOLYLINE
  5
C11
102
{ACAD_REACTORS
330
BEC
102
}
330
B9E
100
AcDbEntity
  8
9
100
AcDbPolyline
 90
        6
 70
     1
 43
0.0
 10
-29.98468712904878
 20
57.02796337120571
 10
-29.98468712904878
 20
55.507868407665
 10
-32.57692046803459
 20
55.507868407665
 42
-0.4142135623731731
 10
-32.97692046803468
 20
55.90786840766487
 10
-32.97692046803468
 20
56.62796337120562
 42
-0.4142135623731576
 10
-32.57692046803459
 20
57.02796337120571
  0
LWPOLYLINE
  5
C12
102
{ACAD_REACTORS
330
BEC
102
}
330
B9E
100
AcDbEntity
  8
9
100
AcDbPolyline
 90
        4
 70
     1
 43
0.0
 10
-24.19231812786165
 20
59.87619128370352
 10
-24.57637781922995
 20
59.87619128370352
 10
-24.57637781922995
 20
59.28412752246913
 10
-24.19231812786165
 20
59.28412752246913
  0
ENDBLK
  5
C14
330
B9E
100
AcDbEntity
  8
0
100
AcDbBlockEnd
  0
ENDSEC
  0
SECTION
  2
ENTITIES
  0
ARC
  5
165E
330
1F
100
AcDbEntity
  8
SANINDUSA
100
AcDbCircle
 10
5036.480601199292
 20
3343.888347741098
 30
0.0
 40
1.150313125885491
100
AcDbArc
 50
270.5817900366609
 51
274.1595169538805
  0
LINE
  5
1660
330
1F
100
AcDbEntity
  8
SANINDUSA
100
AcDbLine
 10
5036.851089285351
 20
3342.855822124146
 30
0.0
 11
5036.25908927793
 21
3342.855822124052
 31
0.0
  0
ARC
  5
1662
330
1F
100
AcDbEntity
  8
SANINDUSA
100
AcDbCircle
 10
5036.39765061739
 20
3342.728183964213
 30
0.0
 40
0.0099049233373872
100
AcDbArc
 50
33.51779937416886
 51
89.25320153526056
  0
LINE
  5
1664
330
1F
100
AcDbEntity
  8
SANINDUSA
100
AcDbLine
 10
5036.409343177461
 20
3342.708581794985
 30
0.0
 11
5036.410087806055
 21
3342.700070719607
 31
0.0
  0
LINE
  5
1665
330
1F
100
AcDbEntity
  8
SANINDUSA
100
AcDbLine
 10
5036.480087806054
 20
3342.700070719607
 30
0.0
 11
5036.482614841394
 21
3342.728954863734
 31
0.0
  0
ARC
  5
1666
330
1F
100
AcDbEntity
  8
SANINDUSA
100
AcDbCircle
 10
5036.492496614654
 20
3342.728167378624
 30
0.0
 40
0.009926347584563
100
AcDbArc
 50
92.06757211358221
 51
175.4213953695108
  0
ARC
  5
1667
330
1F
100
AcDbEntity
  8
SANINDUSA
100
AcDbCircle
 10
5036.406443670024
 20
3342.704499474195
 30
0.0
 40
0.003566034286513
100
AcDbArc
 50
29.52607898489912
 51
94.00564553087505
  0
LWPOLYLINE
  5
1668
330
1F
100
AcDbEntity
  8
SANINDUSA
100
AcDbPolyline
 90
       17
 70
   128
 43
0.0
 10
5036.370801749495
 20
3342.739480328746
 10
5036.371463107305
 20
3342.736358446069
 10
5036.372420746924
 20
3342.732985456474
 10
5036.373596991708
 20
3342.729727369733
 10
5036.374984908505
 20
3342.726609756238
 10
5036.37657613116
 20
3342.7236577617
 10
5036.378360628726
 20
3342.72089630831
 10
5036.380326104858
 20
3342.718350102193
 10
5036.382457976749
 20
3342.716042791493
 10
5036.384738869362
 20
3342.713996757753
 10
5036.387148341471
 20
3342.712232221849
 10
5036.389663138554
 20
3342.710766230709
 10
5036.392257930356
 20
3342.709611569531
 10
5036.394906722808
 20
3342.708776180632
 10
5036.397584080286
 20
3342.708263297565
 10
5036.400108718658
 20
3342.708074619062
 10
5036.400527689942
 20
3342.708070714958
  0
LWPOLYLINE
  5
1669
330
1F
100
AcDbEntity
  8
SANINDUSA
100
AcDbPolyline
 90
       16
 70
   128
 43
0.0
 10
5036.8760532488
 20
3342.82841850724
 10
5036.876059908002
 20
3342.829322437756
 10
5036.875771792145
 20
3342.832251663319
 10
5036.875175414238
 20
3342.835176650434
 10
5036.874271301118
 20
3342.838048473
 10
5036.873073740564
 20
3342.840818212368
 10
5036.871582585064
 20
3342.843482450116
 10
5036.869819919566
 20
3342.845982290338
 10
5036.867810842517
 20
3342.848275715485
 10
5036.865586858688
 20
3342.850324038677
 10
5036.863195446504
 20
3342.852079745149
 10
5036.860679932924
 20
3342.853515690891
 10
5036.858358168407
 20
3342.85451326007
 10
5036.855768813548
 20
3342.855281190481
 10
5036.85316321108
 20
3342.855714747216
 10
5036.851088932856
 20
3342.855795000214
  0
LWPOLYLINE
  5
166F
330
1F
100
AcDbEntity
  8
SANINDUSA
100
AcDbPolyline
 90
       12
 70
   128
 43
0.0
 10
5036.518840853211
 20
3342.800070718862
 10
5036.517038880508
 20
3342.800499216653
 10
5036.515265567662
 20
3342.801852607168
 10
5036.513541182038
 20
3342.804307681508
 10
5036.512684821298
 20
3342.80610177759
 10
5036.511888403911
 20
3342.808266208507
 10
5036.511139596658
 20
3342.810953565873
 10
5036.51050441731
 20
3342.814097934402
 10
5036.510150599784
 20
3342.816544276662
 10
5036.50988516947
 20
3342.819184721447
 10
5036.509728762514
 20
3342.821823758073
 10
5036.509674508984
 20
3342.824570720084
  0
LINE
  5
1670
330
1F
100
AcDbEntity
  8
SANINDUSA
100
AcDbLine
 10
5036.276089285351
 20
3342.800070719607
 30
0.0
 11
5036.518840861587
 21
3342.800070719607
 31
0.0
  0
LINE
  5
1676
330
1F
100
AcDbEntity
  8
SANINDUSA
100
AcDbLine
 10
5036.4562424172
 20
3342.850070719606
 30
0.0
 11
5036.276089285351
 21
3342.850070719606
 31
0.0
  0
ARC
  5
167A
330
1F
100
AcDbEntity
  8
SANINDUSA
100
AcDbCircle
 10
5036.276089285351
 20
3342.875070719607
 30
0.0
 40
0.0250000000000005
100
AcDbArc
 50
232.6168015867869
 51
270.0
  0
LINE
  5
167D
330
1F
100
AcDbEntity
  8
SANINDUSA
100
AcDbLine
 10
5036.259089285351
 20
3342.800070719607
 30
0.0
 11
5036.276089285351
 21
3342.800070719607
 31
0.0
  0
LWPOLYLINE
  5
1680
330
1F
100
AcDbEntity
  8
SANINDUSA
100
AcDbPolyline
 90
       11
 70
   128
 43
0.0
 10
5036.256089291594
 20
3342.828049448318
 10
5036.256089291594
 20
3342.831887322478
 10
5036.256089281057
 20
3342.83563854359
 10
5036.256089281057
 20
3342.839579801075
 10
5036.256089291594
 20
3342.843218620866
 10
5036.256089291594
 20
3342.846010092646
 10
5036.256089281057
 20
3342.848442093934
 10
5036.256089291594
 20
3342.850249873954
 10
5036.256089291594
 20
3342.851633951067
 10
5036.256089281057
 20
3342.85251461179
 10
5036.256089281057
 20
3342.852822124259
  0
ARC
  5
1681
330
1F
100
AcDbEntity
  8
SANINDUSA
100
AcDbCircle
 10
5036.259089285351
 20
3342.852822124146
 30
0.0
 40
0.003
100
AcDbArc
 50
52.61680158678693
 51
180.0
  0
ARC
  5
1682
330
1F
100
AcDbEntity
  8
SANINDUSA
100
AcDbCircle
 10
5036.259089285351
 20
3342.803070719607
 30
0.0
 40
0.0030000000000001
100
AcDbArc
 50
180.0
 51
270.0
  0
LWPOLYLINE
  5
1683
330
1F
100
AcDbEntity
  8
SANINDUSA
100
AcDbPolyline
 90
       13
 70
   128
 43
0.0
 10
5036.256089291594
 20
3342.803070721216
 10
5036.256089291594
 20
3342.803254653699
 10
5036.256089291594
 20
3342.803803314455
 10
5036.256089291594
 20
3342.8047073083
 10
5036.256089281057
 20
3342.805951175279
 10
5036.256089291594
 20
3342.807513621635
 10
5036.256089291594
 20
3342.809367922134
 10
5036.256089281057
 20
3342.811482348479
 10
5036.256089291594
 20
3342.81382072065
 10
5036.256089281057
 20
3342.816343025304
 10
5036.256089291594
 20
3342.819006110541
 10
5036.256089291594
 20
3342.821764406748
 10
5036.256089291594
 20
3342.824570720084
  0
LINE
  5
1685
330
1F
100
AcDbEntity
  8
SANINDUSA
100
AcDbLine
 10
5036.256089285352
 20
3342.824570719607
 30
0.0
 11
5036.256089285352
 21
3342.828049447824
 31
0.0
  0
ARC
  5
1686
330
1F
100
AcDbEntity
  8
SANINDUSA
100
AcDbCircle
 10
5036.555505168329
 20
3342.827103661937
 30
0.0
 40
0.0458802161711566
100
AcDbArc
 50
159.4999172978542
 51
182.6632733707002
  0
LINE
  5
1688
330
1F
100
AcDbEntity
  8
SANINDUSA
100
AcDbLine
 10
5036.509674509706
 20
3342.824570719607
 30
0.0
 11
5036.509674509706
 21
3342.824971784303
 31
0.0
  0
LWPOLYLINE
  5
1696
330
1F
100
AcDbEntity
  8
SANINDUSA
100
AcDbPolyline
 90
        6
 70
   128
 43
0.0
 10
5036.512530469001
 20
3342.843171314336
 10
5036.513324494554
 20
3342.844963273034
 10
5036.514172099288
 20
3342.846471580676
 10
5036.516060984061
 20
3342.848731203703
 10
5036.517656036811
 20
3342.849735469382
 10
5036.51932592129
 20
3342.850070719606
  0
LINE
  5
1698
330
1F
100
AcDbEntity
  8
SANINDUSA
100
AcDbLine
 10
5036.519325904128
 20
3342.850070719606
 30
0.0
 11
5036.505646023238
 21
3342.850070719606
 31
0.0
  0
LINE
  5
169A
330
1F
100
AcDbEntity
  8
SANINDUSA
100
AcDbLine
 10
5036.797886106188
 20
3342.800070719607
 30
0.0
 11
5036.518840861587
 21
3342.800070719607
 31
0.0
  0
LINE
  5
169C
330
1F
100
AcDbEntity
  8
SANINDUSA
100
AcDbLine
 10
5036.519325904128
 20
3342.850070719606
 30
0.0
 11
5036.797108428268
 21
3342.850070719606
 31
0.0
  0
LWPOLYLINE
  5
16A5
330
1F
100
AcDbEntity
  8
SANINDUSA
100
AcDbPolyline
 90
        9
 70
   128
 43
0.0
 10
5036.256089278423
 20
3342.800933067687
 10
5036.256089286325
 20
3342.801415928639
 10
5036.256089278423
 20
3342.801843301393
 10
5036.256089278423
 20
3342.802211449481
 10
5036.256089291594
 20
3342.802517154254
 10
5036.256089291594
 20
3342.802757740952
 10
5036.256089275789
 20
3342.802931108512
 10
5036.256089286325
 20
3342.80303574074
 10
5036.256089296863
 20
3342.803070721216
  0
LINE
  5
16A7
330
1F
100
AcDbEntity
  8
SANINDUSA
100
AcDbLine
 10
5036.288359144695
 20
3342.800070718862
 30
0.0
 11
5036.286257795612
 21
3342.739896222123
 31
0.0
  0
LINE
  5
16A9
330
1F
100
AcDbEntity
  8
SANINDUSA
100
AcDbLine
 10
5036.256089285352
 20
3342.738605132624
 30
0.0
 11
5036.256089285352
 21
3342.80093306754
 31
0.0
  0
LWPOLYLINE
  5
16AF
330
1F
100
AcDbEntity
  8
SANINDUSA
100
AcDbPolyline
 90
       17
 70
   128
 43
0.0
 10
5036.397790778967
 20
3342.73808971513
 10
5036.397652179056
 20
3342.738090430386
 10
5036.397741330177
 20
3342.738090519793
 10
5036.398288902034
 20
3342.738091063686
 10
5036.400243082812
 20
3342.73809073586
 10
5036.403478538321
 20
3342.738089916296
 10
5036.407886835257
 20
3342.738088806159
 10
5036.413359203141
 20
3342.738087696023
 10
5036.419727054579
 20
3342.738087032921
 10
5036.426819167998
 20
3342.738087368198
 10
5036.434426790059
 20
3342.738089141436
 10
5036.442334634656
 20
3342.738092553802
 10
5036.450318238216
 20
3342.738096197135
 10
5036.458154412098
 20
3342.73809779156
 10
5036.465624119134
 20
3342.738095608539
 10
5036.472504739666
 20
3342.738091406412
 10
5036.478611438695
 20
3342.738089439459
  0
LINE
  5
16B3
330
1F
100
AcDbEntity
  8
SANINDUSA
100
AcDbLine
 10
5036.281260841477
 20
3342.735070719607
 30
0.0
 11
5036.259089285351
 21
3342.735070719607
 31
0.0
  0
ARC
  5
16B4
330
1F
100
AcDbEntity
  8
SANINDUSA
100
AcDbCircle
 10
5036.281260841477
 20
3342.740070719607
 30
0.0
 40
0.0050000000000001
100
AcDbArc
 50
270.0
 51
357.9999999962464
  0
ARC
  5
16B5
330
1F
100
AcDbEntity
  8
SANINDUSA
100
AcDbCircle
 10
5036.259089285351
 20
3342.738070719607
 30
0.0
 40
0.0030000000000001
100
AcDbArc
 50
180.0
 51
270.0
  0
LINE
  5
16C2
330
1F
100
AcDbEntity
  8
SANINDUSA
100
AcDbLine
 10
5036.286089294558
 20
3342.735070717521
 30
0.0
 11
5036.281260841477
 21
3342.735070719607
 31
0.0
  0
ARC
  5
16C9
330
1F
100
AcDbEntity
  8
SANINDUSA
100
AcDbCircle
 10
5036.48425574403
 20
3346.447963781223
 30
0.0
 40
3.709878635430152
100
AcDbArc
 50
269.9128290204803
 51
270.1265878875731
  0
LWPOLYLINE
  5
16D0
330
1F
100
AcDbEntity
  8
SANINDUSA
100
AcDbPolyline
 90
       11
 70
   128
 43
0.0
 10
5036.828753674104
 20
3342.824570720084
 10
5036.828540242463
 20
3342.821664786897
 10
5036.827890295912
 20
3342.818758853711
 10
5036.826928251947
 20
3342.816190925427
 10
5036.825628864608
 20
3342.813733124174
 10
5036.823365199522
 20
3342.810631238855
 10
5036.820594423553
 20
3342.807865695096
 10
5036.815998731192
 20
3342.804639355279
 10
5036.81075229149
 20
3342.802240931429
 10
5036.804490091664
 20
3342.800618031062
 10
5036.797886101971
 20
3342.800070718862
  0
ARC
  5
16D2
330
1F
100
AcDbEntity
  8
SANINDUSA
100
AcDbCircle
 10
5036.797766653097
 20
3342.813703745719
 30
0.0
 40
0.036372929775271
100
AcDbArc
 50
54.1106956977836
 51
91.03687802942829
  0
ARC
  5
16D6
330
1F
100
AcDbEntity
  8
SANINDUSA
100
AcDbCircle
 10
5036.851589285351
 20
3342.824570719607
 30
0.0
 40
0.0245000000000002
100
AcDbArc
 50
270.0
 51
0.0
  0
LINE
  5
16D8
330
1F
100
AcDbEntity
  8
SANINDUSA
100
AcDbLine
 10
5036.797886106188
 20
3342.800070719607
 30
0.0
 11
5036.851589285351
 21
3342.800070719607
 31
0.0
  0
SPLINE
  5
16D9
330
1F
100
AcDbEntity
  8
SANINDUSA
100
AcDbSpline
210
0.0
220
0.0
230
1.0
 70
    28
 71
     3
 72
    13
 73
     9
 74
     0
 42
0.0000000001
 43
0.0000000001
 40
0.0
 40
0.0
 40
0.0
 40
0.0
 40
0.0778340582400604
 40
0.2968583939260554
 40
0.5182034239649227
 40
0.7423941224373382
 40
0.9699363090354836
 40
1.0
 40
1.0
 40
1.0
 40
1.0
 10
5036.505296030943
 20
3342.850070719606
 30
0.0
 41
1.0
 10
5036.503985797465
 20
3342.850070719606
 30
0.0
 41
1.0
 10
5036.498988578834
 20
3342.850070719606
 30
0.0
 41
1.0
 10
5036.490461989818
 20
3342.850070719606
 30
0.0
 41
1.0
 10
5036.47969052746
 20
3342.850070719606
 30
0.0
 41
1.0
 10
5036.469071950898
 20
3342.850070719606
 30
0.0
 41
1.0
 10
5036.461557570377
 20
3342.850070719606
 30
0.0
 41
1.0
 10
5036.457707952788
 20
3342.850070719606
 30
0.0
 41
1.0
 10
5036.4572586862
 20
3342.850070719606
 30
0.0
 41
1.0
  0
LINE
  5
16DA
330
1F
100
AcDbEntity
  8
SANINDUSA
100
AcDbLine
 10
5036.803278723875
 20
3342.850070719606
 30
0.0
 11
5036.797108428268
 21
3342.850070719606
 31
0.0
  0
ARC
  5
16DD
330
1F
100
AcDbEntity
  8
SANINDUSA
100
AcDbCircle
 10
5036.80626367419
 20
3342.824694792527
 30
0.0
 40
0.0224917056015873
100
AcDbArc
 50
0.7056330695086778
 51
55.23338156168279
  0
LWPOLYLINE
  5
16E1
330
1F
100
AcDbEntity
  8
SANINDUSA
100
AcDbPolyline
 90
        3
 70
   128
 43
0.0
 10
5036.405893637034
 20
3342.733642664738
 10
5036.406975609856
 20
3342.731578041799
 10
5036.407569343047
 20
3342.728962329216
  0
LINE
  5
16E2
330
1F
100
AcDbEntity
  8
SANINDUSA
100
AcDbLine
 10
5036.828753688912
 20
3342.824971784303
 30
0.0
 11
5036.828753688912
 21
3342.824570719607
 31
0.0
  0
LWPOLYLINE
  5
16E5
330
1F
100
AcDbEntity
  8
SANINDUSA
100
AcDbPolyline
 90
        3
 70
   128
 43
0.0
 10
5036.407569343047
 20
3342.728962329216
 10
5036.408449875006
 20
3342.719007019885
 10
5036.408969008276
 20
3342.713157509454
  0
LINE
  5
16E6
330
1F
100
AcDbEntity
  8
SANINDUSA
100
AcDbLine
 10
5036.469836543397
 20
3342.700070719607
 30
0.0
 11
5036.480087806054
 21
3342.700070719607
 31
0.0
  0
LINE
  5
16E7
330
1F
100
AcDbEntity
  8
SANINDUSA
100
AcDbLine
 10
5036.410087806055
 20
3342.700070719607
 30
0.0
 11
5036.469836543397
 21
3342.700070719607
 31
0.0
  0
LINE
  5
16E8
330
1F
100
AcDbEntity
  8
SANINDUSA
100
AcDbLine
 10
5036.822138595474
 20
3342.850070719606
 30
0.0
 11
5036.803278723875
 21
3342.850070719606
 31
0.0
  0
LINE
  5
16ED
330
1F
100
AcDbEntity
  8
SANINDUSA
100
AcDbLine
 10
5036.641980188882
 20
3342.735070717521
 30
0.0
 11
5036.485366609134
 21
3342.735070717521
 31
0.0
  0
ARC
  5
16EF
330
1F
100
AcDbEntity
  8
SANINDUSA
100
AcDbCircle
 10
5036.851089285351
 20
3342.825070719606
 30
0.0
 40
0.0250000000000003
100
AcDbArc
 50
0.0
 51
90.0
  0
LINE
  5
16F0
330
1F
100
AcDbEntity
  8
SANINDUSA
100
AcDbLine
 10
5036.851089285351
 20
3342.850070719606
 30
0.0
 11
5036.822138595474
 21
3342.850070719606
 31
0.0
  0
LINE
  5
16F1
330
1F
100
AcDbEntity
  8
SANINDUSA
100
AcDbLine
 10
5036.876089285351
 20
3342.825070719606
 30
0.0
 11
5036.876089285351
 21
3342.824570719607
 31
0.0
  0
LINE
  5
16FB
330
1F
100
AcDbEntity
  8
SANINDUSA
100
AcDbLine
 10
5036.406169614598
 20
3342.708070714958
 30
0.0
 11
5036.400527692799
 21
3342.708070719607
 31
0.0
  0
LINE
  5
1701
330
1F
100
AcDbEntity
  8
SANINDUSA
100
AcDbLine
 10
5036.371828710143
 20
3342.735070717521
 30
0.0
 11
5036.306245612152
 21
3342.735070719607
 31
0.0
  0
LINE
  5
1702
330
1F
100
AcDbEntity
  8
SANINDUSA
100
AcDbLine
 10
5036.754650481075
 20
3342.798734687065
 30
0.0
 11
5036.687528089627
 21
3342.736406752149
 31
0.0
  0
LINE
  5
1708
330
1F
100
AcDbEntity
  8
SANINDUSA
100
AcDbLine
 10
5036.306245612152
 20
3342.735070719607
 30
0.0
 11
5036.286072671577
 21
3342.735070717521
 31
0.0
  0
LINE
  5
170B
330
1F
100
AcDbEntity
  8
SANINDUSA
100
AcDbLine
 10
5036.68412583413
 20
3342.735070719607
 30
0.0
 11
5036.656865920865
 21
3342.735070719607
 31
0.0
  0
LINE
  5
170C
330
1F
100
AcDbEntity
  8
SANINDUSA
100
AcDbLine
 10
5036.656865920865
 20
3342.735070719607
 30
0.0
 11
5036.641980188882
 21
3342.735070717521
 31
0.0
  0
ARC
  5
170D
330
1F
100
AcDbEntity
  8
SANINDUSA
100
AcDbCircle
 10
5036.758052736573
 20
3342.795070719607
 30
0.0
 40
0.005
100
AcDbArc
 50
90.0
 51
132.878903600611
  0
LWPOLYLINE
  5
170F
330
1F
100
AcDbEntity
  8
SANINDUSA
100
AcDbPolyline
 90
        9
 70
   128
 43
0.0
 10
5036.876089305429
 20
3342.825070719234
 10
5036.876089284355
 20
3342.825117724947
 10
5036.876089284355
 20
3342.825258650817
 10
5036.876089284355
 20
3342.825493234209
 10
5036.876089305429
 20
3342.825821031816
 10
5036.876089284355
 20
3342.826241428964
 10
5036.876089284355
 20
3342.826753634028
 10
5036.876089263282
 20
3342.827356685884
 10
5036.876089263282
 20
3342.828049448318
  0
ARC
  5
1710
330
1F
100
AcDbEntity
  8
SANINDUSA
100
AcDbCircle
 10
5036.68412583413
 20
3342.740070719607
 30
0.0
 40
0.0050000000000001
100
AcDbArc
 50
270.0
 51
312.8789036006109
  0
SPLINE
  5
171D
330
1F
100
AcDbEntity
  8
SANINDUSA
100
AcDbSpline
210
0.0
220
0.0
230
1.0
 70
    28
 71
     1
 72
     4
 73
     2
 74
     0
 42
0.0000000001
 43
0.0000000001
 40
0.0
 40
0.0
 40
1.0
 40
1.0
 10
5036.699322240686
 20
3342.796830833889
 30
0.0
 41
1.0
 10
5036.703400643704
 20
3342.800070718862
 30
0.0
 41
1.0
  0
SPLINE
  5
171E
330
1F
100
AcDbEntity
  8
SANINDUSA
100
AcDbSpline
210
0.0
220
0.0
230
1.0
 70
    12
 71
     3
 72
    25
 73
    21
 74
     0
 42
0.0000000001
 43
0.0000000001
 40
0.0
 40
0.0
 40
0.0
 40
0.0
 40
0.0043307912470598
 40
0.0776599362697987
 40
0.1521242686883719
 40
0.2277984949152442
 40
0.3032179142619931
 40
0.376871968113218
 40
0.4509326563759369
 40
0.4837731208399248
 40
0.5247084098362702
 40
0.5658786732459271
 40
0.6073567600892477
 40
0.6489219822664248
 40
0.6902855816773191
 40
0.7311781871309922
 40
0.8012819526307135
 40
0.8694952789133189
 40
0.9357632722952747
 40
1.0
 40
1.0
 40
1.0
 40
1.0
 10
5036.564703794624
 20
3342.741110061295
 30
0.0
 41
1.0
 10
5036.564948745203
 20
3342.741123652424
 30
0.0
 41
1.0
 10
5036.569341209608
 20
3342.741367369146
 30
0.0
 41
1.0
 10
5036.577586773276
 20
3342.741978470525
 30
0.0
 41
1.0
 10
5036.58936063482
 20
3342.743019775376
 30
0.0
 41
1.0
 10
5036.600596558439
 20
3342.744442501758
 30
0.0
 41
1.0
 10
5036.611250354471
 20
3342.746331426747
 30
0.0
 41
1.0
 10
5036.621287995421
 20
3342.748795632469
 30
0.0
 41
1.0
 10
5036.629130339032
 20
3342.751375202205
 30
0.0
 41
1.0
 10
5036.635385872603
 20
3342.753856458231
 30
0.0
 41
1.0
 10
5036.640315099365
 20
3342.75597952114
 30
0.0
 41
1.0
 10
5036.645462354359
 20
3342.758502335275
 30
0.0
 41
1.0
 10
5036.650555528691
 20
3342.76127681088
 30
0.0
 41
1.0
 10
5036.655661034703
 20
3342.764283554484
 30
0.0
 41
1.0
 10
5036.660729908479
 20
3342.767493634593
 30
0.0
 41
1.0
 10
5036.666961679393
 20
3342.771691504961
 30
0.0
 41
1.0
 10
5036.674292715157
 20
3342.776998749307
 30
0.0
 41
1.0
 10
5036.682716726135
 20
3342.783493285832
 30
0.0
 41
1.0
 10
5036.690986495678
 20
3342.790113192029
 30
0.0
 41
1.0
 10
5036.696572641227
 20
3342.794614976229
 30
0.0
 41
1.0
 10
5036.699322240686
 20
3342.796830833889
 30
0.0
 41
1.0
  0
ARC
  5
1723
330
1F
100
AcDbEntity
  8
SANINDUSA
100
AcDbCircle
 10
5035.880154187023
 20
3342.666685208245
 30
0.0
 40
0.5308528891849003
100
AcDbArc
 50
4.526747369980257
 51
5.022256737726126
  0
LWPOLYLINE
  5
172E
330
1F
100
AcDbEntity
  8
SANINDUSA
100
AcDbPolyline
 90
       11
 70
   128
 43
0.0
 10
5035.245265280783
 20
3343.055698427148
 10
5035.248467935508
 20
3343.055698427148
 10
5035.251670611305
 20
3343.055698406074
 10
5035.254578954588
 20
3343.055698448221
 10
5035.25731363178
 20
3343.055698427148
 10
5035.259978661304
 20
3343.055698427148
 10
5035.262321773201
 20
3343.055698427148
 10
5035.26449191443
 20
3343.055698427148
 10
5035.266101924043
 20
3343.055698427148
 10
5035.26696348992
 20
3343.055698427148
 10
5035.267265282429
 20
3343.055698406074
  0
ARC
  5
172F
330
1F
100
AcDbEntity
  8
SANINDUSA
100
AcDbCircle
 10
5035.267265296102
 20
3343.05269842749
 30
0.0
 40
0.0030000000000001
100
AcDbArc
 50
0.0
 51
90.0
  0
LWPOLYLINE
  5
1732
330
1F
100
AcDbEntity
  8
SANINDUSA
100
AcDbPolyline
 90
       14
 70
   128
 43
0.0
 10
5035.245265322931
 20
3343.035698440977
 10
5035.248278738304
 20
3343.035698440977
 10
5035.251248173443
 20
3343.035698419903
 10
5035.254130427825
 20
3343.035698419903
 10
5035.256883375677
 20
3343.035698419903
 10
5035.259466893196
 20
3343.035698419903
 10
5035.261843364323
 20
3343.035698440977
 10
5035.26397803898
 20
3343.035698419903
 10
5035.265839897085
 20
3343.035698440977
 10
5035.267401690705
 20
3343.035698440977
 10
5035.268640723757
 20
3343.035698440977
 10
5035.269538830952
 20
3343.03569839883
 10
5035.270083009987
 20
3343.035698419903
 10
5035.27026531618
 20
3343.035698440977
  0
LWPOLYLINE
  5
1734
330
1F
100
AcDbEntity
  8
SANINDUSA
100
AcDbPolyline
 90
        9
 70
   128
 43
0.0
 10
5035.27026531618
 20
3343.035698440977
 10
5035.270265295107
 20
3343.037865990176
 10
5035.270265295107
 20
3343.040029472204
 10
5035.270265295107
 20
3343.042184777742
 10
5035.27026531618
 20
3343.044327923916
 10
5035.270265295107
 20
3343.046454843552
 10
5035.270265295107
 20
3343.048561511628
 10
5035.270265274032
 20
3343.050644008486
 10
5035.270265274032
 20
3343.052698414471
  0
LWPOLYLINE
  5
1735
330
1F
100
AcDbEntity
  8
SANINDUSA
100
AcDbPolyline
 90
       14
 70
   128
 43
0.0
 10
5034.670265304321
 20
3342.460698422369
 10
5034.670265304321
 20
3342.457685006993
 10
5034.670265293785
 20
3342.454715540245
 10
5034.670265304321
 20
3342.451833296399
 10
5034.670265299054
 20
3342.449080343281
 10
5034.670265288516
 20
3342.446496815223
 10
5034.670265288516
 20
3342.444120365171
 10
5034.670265288516
 20
3342.441985669439
 10
5034.670265288516
 20
3342.440123832407
 10
5034.670265288516
 20
3342.438562038788
 10
5034.670265299054
 20
3342.437323016272
 10
5034.67026530959
 20
3342.436424877468
 10
5034.670265299054
 20
3342.43588070897
 10
5034.670265299054
 20
3342.43569842385
  0
LWPOLYLINE
  5
1736
330
1F
100
AcDbEntity
  8
SANINDUSA
100
AcDbPolyline
 90
        9
 70
   128
 43
0.0
 10
5034.653265293949
 20
3342.435698434387
 10
5034.655319699933
 20
3342.435698434387
 10
5034.657402207328
 20
3342.43569842385
 10
5034.65950888594
 20
3342.435698434387
 10
5034.661635805576
 20
3342.435698413313
 10
5034.663778941214
 20
3342.43569842385
 10
5034.66593425729
 20
3342.435698434387
 10
5034.668097739318
 20
3342.435698434387
 10
5034.670265299054
 20
3342.43569842385
  0
ARC
  5
1739
330
1F
100
AcDbEntity
  8
SANINDUSA
100
AcDbCircle
 10
5034.653265296102
 20
3342.43869842749
 30
0.0
 40
0.003
100
AcDbArc
 50
180.0
 51
270.0
  0
LWPOLYLINE
  5
173A
330
1F
100
AcDbEntity
  8
SANINDUSA
100
AcDbPolyline
 90
       11
 70
   128
 43
0.0
 10
5034.650265302346
 20
3342.43869842599
 10
5034.650265302346
 20
3342.438995013363
 10
5034.650265291809
 20
3342.439861794913
 10
5034.650265291809
 20
3342.441448497318
 10
5034.650265302346
 20
3342.443641956292
 10
5034.650265302346
 20
3342.445959485052
 10
5034.650265291809
 20
3342.448650087177
 10
5034.650265302346
 20
3342.451353101549
 10
5034.650265302346
 20
3342.454293097114
 10
5034.650265291809
 20
3342.457443689944
 10
5034.650265291809
 20
3342.460698438173
  0
LINE
  5
173F
330
1F
100
AcDbEntity
  8
SANINDUSA
100
AcDbLine
 10
5034.652265296102
 20
3343.05569842749
 30
0.0
 11
5035.245265296103
 21
3343.05569842749
 31
0.0
  0
LINE
  5
1741
330
1F
100
AcDbEntity
  8
SANINDUSA
100
AcDbLine
 10
5034.650265296103
 20
3342.46069842749
 30
0.0
 11
5034.650265296103
 21
3343.053698427489
 31
0.0
  0
ARC
  5
1745
330
1F
100
AcDbEntity
  8
SANINDUSA
100
AcDbCircle
 10
5034.652265296102
 20
3343.053698427489
 30
0.0
 40
0.0020000000000002
100
AcDbArc
 50
90.0
 51
180.0
  0
LINE
  5
1746
330
1F
100
AcDbEntity
  8
SANINDUSA
100
AcDbLine
 10
5034.670265288516
 20
3343.035698419903
 30
0.0
 11
5035.245265296103
 21
3343.03569842749
 31
0.0
  0
LINE
  5
1749
330
1F
100
AcDbEntity
  8
SANINDUSA
100
AcDbLine
 10
5034.670265288516
 20
3343.035698419903
 30
0.0
 11
5034.670265296103
 21
3342.46069842749
 31
0.0
  0
ARC
  5
174D
330
1F
100
AcDbEntity
  8
SANINDUSA
100
AcDbCircle
 10
5035.653419126209
 20
3342.052652091908
 30
0.0
 40
0.8623225326151803
100
AcDbArc
 50
148.0180718959374
 51
149.2226252320147
  0
SPLINE
  5
1750
330
1F
100
AcDbEntity
  8
SANINDUSA
100
AcDbSpline
210
0.0
220
0.0
230
1.0
 70
    12
 71
     3
 72
    53
 73
    49
 74
     0
 42
0.0000000001
 43
0.0000000001
 40
0.0
 40
0.0
 40
0.0
 40
0.0
 40
0.0154432029746313
 40
0.0310289901738567
 40
0.0467573316401709
 40
0.0626281797392537
 40
0.0786414708828048
 40
0.0947971282102793
 40
0.1110950653490594
 40
0.1275351913561733
 40
0.1441174169149773
 40
0.1608416618249969
 40
0.1777078637724212
 40
0.1947159883135062
 40
0.2118660399342364
 40
0.2291580739804968
 40
0.2465922091764984
 40
0.2641686403792839
 40
0.2818876511531236
 40
0.2997496256986469
 40
0.3177550596407574
 40
0.3359045691764002
 40
0.3541988981069897
 40
0.3726389237740401
 40
0.3912257505433219
 40
0.409960740594174
 40
0.4352057361852914
 40
0.4767084731654569
 40
0.5343548330085925
 40
0.6083997815261095
 40
0.6356205154454954
 40
0.661323487714788
 40
0.6854877434451065
 40
0.7080834669829813
 40
0.7290798346284007
 40
0.7484495721096768
 40
0.7895275492849611
 40
0.8301336787162981
 40
0.870191545534681
 40
0.9096892483765717
 40
0.9242260592194543
 40
0.9381807690487534
 40
0.9515881079543223
 40
0.9645181120469889
 40
0.9770538935156166
 40
0.9893047687355799
 40
0.9939295146039755
 40
0.9999999999999998
 40
0.9999999999999998
 40
0.9999999999999998
 40
0.9999999999999998
 10
5034.882045535105
 20
3342.583822871856
 30
0.0
 41
1.0
 10
5034.882016265229
 20
3342.583431865833
 30
0.0
 41
1.0
 10
5034.881957455231
 20
3342.5826462437
 30
0.0
 41
1.0
 10
5034.881868418106
 20
3342.581457064444
 30
0.0
 41
1.0
 10
5034.881778277179
 20
3342.580253204987
 30
0.0
 41
1.0
 10
5034.881687006018
 20
3342.579034298515
 30
0.0
 41
1.0
 10
5034.881594615655
 20
3342.577800482799
 30
0.0
 41
1.0
 10
5034.881501103665
 20
3342.576551760954
 30
0.0
 41
1.0
 10
5034.881406468112
 20
3342.575288174808
 30
0.0
 41
1.0
 10
5034.881310703962
 20
3342.574009757426
 30
0.0
 41
1.0
 10
5034.881213804357
 20
3342.572716545501
 30
0.0
 41
1.0
 10
5034.88111576068
 20
3342.571408575334
 30
0.0
 41
1.0
 10
5034.881016563069
 20
3342.570085883135
 30
0.0
 41
1.0
 10
5034.880916200937
 20
3342.568748504006
 30
0.0
 41
1.0
 10
5034.880814663626
 20
3342.567396471146
 30
0.0
 41
1.0
 10
5034.880711941154
 20
3342.566029814878
 30
0.0
 41
1.0
 10
5034.880608025056
 20
3342.564648561613
 30
0.0
 41
1.0
 10
5034.880502909351
 20
3342.563252732775
 30
0.0
 41
1.0
 10
5034.88039659137
 20
3342.561842343695
 30
0.0
 41
1.0
 10
5034.880289073427
 20
3342.56041740254
 30
0.0
 41
1.0
 10
5034.88018036144
 20
3342.558977909218
 30
0.0
 41
1.0
 10
5034.880070475089
 20
3342.557523854752
 30
0.0
 41
1.0
 10
5034.879959414192
 20
3342.556055219271
 30
0.0
 41
1.0
 10
5034.879847289882
 20
3342.554571973418
 30
0.0
 41
1.0
 10
5034.879733832787
 20
3342.553074057558
 30
0.0
 41
1.0
 10
5034.879607457071
 20
3342.551390280514
 30
0.0
 41
1.0
 10
5034.879428478834
 20
3342.549084779353
 30
0.0
 41
1.0
 10
5034.879180004435
 20
3342.545720165933
 30
0.0
 41
1.0
 10
5034.878831061235
 20
3342.541016154254
 30
0.0
 41
1.0
 10
5034.878492476217
 20
3342.536679016919
 30
0.0
 41
1.0
 10
5034.878238324671
 20
3342.533202459248
 30
0.0
 41
1.0
 10
5034.878082517035
 20
3342.531088259265
 30
0.0
 41
1.0
 10
5034.8779397496
 20
3342.529097976099
 30
0.0
 41
1.0
 10
5034.877809147022
 20
3342.52723450575
 30
0.0
 41
1.0
 10
5034.877689365137
 20
3342.52550088212
 30
0.0
 41
1.0
 10
5034.87753092153
 20
3342.523256195049
 30
0.0
 41
1.0
 10
5034.877324026349
 20
3342.520467414992
 30
0.0
 41
1.0
 10
5034.877068562467
 20
3342.517102466272
 30
0.0
 41
1.0
 10
5034.876806783884
 20
3342.513776992625
 30
0.0
 41
1.0
 10
5034.876591581981
 20
3342.511170476682
 30
0.0
 41
1.0
 10
5034.876429982811
 20
3342.509286175599
 30
0.0
 41
1.0
 10
5034.876326534142
 20
3342.508124820955
 30
0.0
 41
1.0
 10
5034.876223906291
 20
3342.507007887031
 30
0.0
 41
1.0
 10
5034.876122223034
 20
3342.505930178982
 30
0.0
 41
1.0
 10
5034.876032340289
 20
3342.504883632138
 30
0.0
 41
1.0
 10
5034.875962224681
 20
3342.504067320052
 30
0.0
 41
1.0
 10
5034.875907587213
 20
3342.503430331446
 30
0.0
 41
1.0
 10
5034.875882967519
 20
3342.503133328424
 30
0.0
 41
1.0
 10
5034.875868993673
 20
3342.502964753059
 30
0.0
 41
1.0
  0
LWPOLYLINE
  5
1751
330
1F
100
AcDbEntity
  8
SANINDUSA
100
AcDbPolyline
 90
       10
 70
   128
 43
0.0
 10
5034.882045531557
 20
3342.583822880202
 10
5034.888771515303
 20
3342.592783405563
 10
5034.912663341465
 20
3342.624811596536
 10
5034.936915417816
 20
3342.65654174607
 10
5034.945062709198
 20
3342.667120404849
 10
5034.953126244254
 20
3342.677761683308
 10
5034.961248964023
 20
3342.688346031911
 10
5034.969573767394
 20
3342.698753985417
 10
5034.97824354272
 20
3342.708865983752
 10
5034.987401188891
 20
3342.718562519528
  0
ARC
  5
1754
330
1F
100
AcDbEntity
  8
SANINDUSA
100
AcDbCircle
 10
5034.680983808478
 20
3343.009431156244
 30
0.0
 40
0.5716300304659733
100
AcDbArc
 50
291.362083986382
 51
292.1627387042494
  0
SPLINE
  5
1755
330
1F
100
AcDbEntity
  8
SANINDUSA
100
AcDbSpline
210
0.0
220
0.0
230
1.0
 70
    12
 71
     3
 72
    22
 73
    18
 74
     0
 42
0.0000000001
 43
0.0000000001
 40
0.0
 40
0.0
 40
0.0
 40
0.0
 40
0.125
 40
0.125
 40
0.25
 40
0.25
 40
0.375
 40
0.375
 40
0.5
 40
0.5
 40
0.625
 40
0.625
 40
0.75
 40
0.75
 40
0.875
 40
0.875
 40
1.0
 40
1.0
 40
1.0
 40
1.0
 10
5034.889205998911
 20
3342.477073764243
 30
0.0
 41
1.0
 10
5034.888992757476
 20
3342.477019299746
 30
0.0
 41
1.0
 10
5034.888709694449
 20
3342.477143942317
 30
0.0
 41
1.0
 10
5034.88801684757
 20
3342.477745751426
 30
0.0
 41
1.0
 10
5034.887607088064
 20
3342.478222896818
 30
0.0
 41
1.0
 10
5034.886679603221
 20
3342.479507886682
 30
0.0
 41
1.0
 10
5034.886161910475
 20
3342.480315686002
 30
0.0
 41
1.0
 10
5034.885042257986
 20
3342.482225015846
 30
0.0
 41
1.0
 10
5034.884440337587
 20
3342.483326479278
 30
0.0
 41
1.0
 10
5034.883179787288
 20
3342.48577271927
 30
0.0
 41
1.0
 10
5034.882521201682
 20
3342.487117409871
 30
0.0
 41
1.0
 10
5034.881177475241
 20
3342.489988544607
 30
0.0
 41
1.0
 10
5034.880492381621
 20
3342.491514887855
 30
0.0
 41
1.0
 10
5034.879127009409
 20
3342.494679445642
 30
0.0
 41
1.0
 10
5034.878446778794
 20
3342.496317548984
 30
0.0
 41
1.0
 10
5034.877122282363
 20
3342.499630622039
 30
0.0
 41
1.0
 10
5034.876478063087
 20
3342.501305475334
 30
0.0
 41
1.0
 10
5034.87586657767
 20
3342.502960415283
 30
0.0
 41
1.0
  0
LINE
  5
1757
330
1F
100
AcDbEntity
  8
SANINDUSA
100
AcDbLine
 10
5034.896624711245
 20
3342.480035375392
 30
0.0
 11
5034.903850520457
 21
3342.483034023929
 31
0.0
  0
LWPOLYLINE
  5
175A
330
1F
100
AcDbEntity
  8
SANINDUSA
100
AcDbPolyline
 90
       10
 70
   128
 43
0.0
 10
5035.122140849291
 20
3342.823918197936
 10
5035.11318032393
 20
3342.81719221419
 10
5035.081152132956
 20
3342.793300388028
 10
5035.049421983423
 20
3342.769048311678
 10
5035.038843314107
 20
3342.760901009759
 10
5035.028202035648
 20
3342.752837474702
 10
5035.017617676508
 20
3342.744714744396
 10
5035.007209744076
 20
3342.736389962098
 10
5034.997097745741
 20
3342.727720186772
 10
5034.987401188891
 20
3342.718562519528
  0
SPLINE
  5
175B
330
1F
100
AcDbEntity
  8
SANINDUSA
100
AcDbSpline
210
0.0
220
0.0
230
1.0
 70
    12
 71
     3
 72
    27
 73
    23
 74
     0
 42
0.0000000001
 43
0.0000000001
 40
0.0
 40
0.0
 40
0.0
 40
0.0
 40
0.1250000000000071
 40
0.1875000000000092
 40
0.2187500000000085
 40
0.2187500000000085
 40
0.2500000000000079
 40
0.2500000000000079
 40
0.3750000000000125
 40
0.3750000000000125
 40
0.4375000000000135
 40
0.4375000000000135
 40
0.5000000000000128
 40
0.5000000000000128
 40
0.6250000000000098
 40
0.6250000000000098
 40
0.750000000000007
 40
0.750000000000007
 40
0.8125000000000055
 40
0.8125000000000055
 40
0.8750000000000039
 40
1.0
 40
1.0
 40
1.0
 40
1.0
 10
5035.202998136952
 20
3342.830103135852
 30
0.0
 41
1.0
 10
5035.199929884404
 20
3342.829815241608
 30
0.0
 41
1.0
 10
5035.195325819652
 20
3342.829409997911
 30
0.0
 41
1.0
 10
5035.189914382051
 20
3342.828975303838
 30
0.0
 41
1.0
 10
5035.187582644247
 20
3342.828796262607
 30
0.0
 41
1.0
 10
5035.186024922021
 20
3342.828678413618
 30
0.0
 41
1.0
 10
5035.185243202383
 20
3342.828620216219
 30
0.0
 41
1.0
 10
5035.181345485472
 20
3342.828333276982
 30
0.0
 41
1.0
 10
5035.178256719904
 20
3342.828116011743
 30
0.0
 41
1.0
 10
5035.173571316578
 20
3342.827781872021
 30
0.0
 41
1.0
 10
5035.172000525552
 20
3342.827669126189
 30
0.0
 41
1.0
 10
5035.168826710605
 20
3342.82743639693
 30
0.0
 41
1.0
 10
5035.167224761083
 20
3342.8273166028
 30
0.0
 41
1.0
 10
5035.16236904706
 20
3342.82695002332
 30
0.0
 41
1.0
 10
5035.159066052973
 20
3342.826696292781
 30
0.0
 41
1.0
 10
5035.152299179388
 20
3342.826185083882
 30
0.0
 41
1.0
 10
5035.148828692246
 20
3342.825924869134
 30
0.0
 41
1.0
 10
5035.143446152487
 20
3342.825521156181
 30
0.0
 41
1.0
 10
5035.141621941678
 20
3342.825384325414
 30
0.0
 41
1.0
 10
5035.137909211464
 20
3342.825105236995
 30
0.0
 41
1.0
 10
5035.132259899643
 20
3342.824679306494
 30
0.0
 41
1.0
 10
5035.126304774871
 20
3342.824229811051
 30
0.0
 41
1.0
 10
5035.122140851736
 20
3342.823918188486
 30
0.0
 41
1.0
  0
SPLINE
  5
175C
330
1F
100
AcDbEntity
  8
SANINDUSA
100
AcDbSpline
210
0.0
220
0.0
230
1.0
 70
    12
 71
     3
 72
    22
 73
    18
 74
     0
 42
0.0000000001
 43
0.0000000001
 40
0.0
 40
0.0
 40
0.0
 40
0.0
 40
0.125
 40
0.125
 40
0.25
 40
0.25
 40
0.375
 40
0.375
 40
0.5000000000000001
 40
0.5000000000000001
 40
0.6250000000000001
 40
0.6250000000000001
 40
0.75
 40
0.75
 40
0.875
 40
0.875
 40
1.0
 40
1.0
 40
1.0
 40
1.0
 10
5035.228895062778
 20
3342.816770663745
 30
0.0
 41
1.0
 10
5035.22894926492
 20
3342.816982865
 30
0.0
 41
1.0
 10
5035.228824332802
 20
3342.817264899198
 30
0.0
 41
1.0
 10
5035.22822190153
 20
3342.817955732928
 30
0.0
 41
1.0
 10
5035.227744423566
 20
3342.818364508138
 30
0.0
 41
1.0
 10
5035.226458740618
 20
3342.819290087982
 30
0.0
 41
1.0
 10
5035.225650580837
 20
3342.819806860044
 30
0.0
 41
1.0
 10
5035.22374051958
 20
3342.820924750426
 30
0.0
 41
1.0
 10
5035.222638685246
 20
3342.821525829414
 30
0.0
 41
1.0
 10
5035.220191711171
 20
3342.822784787941
 30
0.0
 41
1.0
 10
5035.218846657436
 20
3342.823442623191
 30
0.0
 41
1.0
 10
5035.21597482156
 20
3342.824784947572
 30
0.0
 41
1.0
 10
5035.214448140351
 20
3342.825469389488
 30
0.0
 41
1.0
 10
5035.211282946921
 20
3342.826833560221
 30
0.0
 41
1.0
 10
5035.209644545936
 20
3342.827513241058
 30
0.0
 41
1.0
 10
5035.206330929547
 20
3342.828836738839
 30
0.0
 41
1.0
 10
5035.204655830586
 20
3342.829480509232
 30
0.0
 41
1.0
 10
5035.203000674576
 20
3342.830091593643
 30
0.0
 41
1.0
  0
ARC
  5
175D
330
1F
100
AcDbEntity
  8
SANINDUSA
100
AcDbCircle
 10
5034.694086267355
 20
3343.025953727754
 30
0.0
 40
0.5742629487334713
100
AcDbArc
 50
337.8393541486973
 51
338.637738766767
  0
LINE
  5
175E
330
1F
100
AcDbEntity
  8
SANINDUSA
100
AcDbLine
 10
5035.222929699664
 20
3342.802113203135
 30
0.0
 11
5035.225928348832
 21
3342.80933901298
 31
0.0
  0
ARC
  5
1764
330
1F
100
AcDbEntity
  8
SANINDUSA
100
AcDbCircle
 10
5035.653254217166
 20
3342.052639235896
 30
0.0
 40
0.8622118492928544
100
AcDbArc
 50
120.7773133582499
 51
121.9820228046488
  0
SPLINE
  5
1767
330
1F
100
AcDbEntity
  8
SANINDUSA
100
AcDbSpline
210
0.0
220
0.0
230
1.0
 70
    12
 71
     3
 72
    27
 73
    23
 74
     0
 42
0.0000000001
 43
0.0000000001
 40
0.0
 40
0.0
 40
0.0
 40
0.0
 40
0.1249999999999953
 40
0.1562499999999936
 40
0.1562499999999936
 40
0.187499999999992
 40
0.187499999999992
 40
0.2499999999999912
 40
0.2499999999999912
 40
0.3749999999999868
 40
0.3749999999999868
 40
0.4999999999999826
 40
0.4999999999999826
 40
0.5624999999999812
 40
0.5624999999999812
 40
0.6249999999999797
 40
0.6874999999999783
 40
0.6874999999999783
 40
0.7187499999999784
 40
0.7187499999999784
 40
0.7499999999999785
 40
1.0
 40
1.0
 40
1.0
 40
1.0
 10
5035.126617625662
 20
3342.883479836578
 30
0.0
 41
1.0
 10
5035.131179147388
 20
3342.881510478385
 30
0.0
 41
1.0
 10
5035.136549718707
 20
3342.879250965854
 30
0.0
 41
1.0
 10
5035.141647384167
 20
3342.877147442405
 30
0.0
 41
1.0
 10
5035.143667443035
 20
3342.876316577302
 30
0.0
 41
1.0
 10
5035.144668649377
 20
3342.875906087316
 30
0.0
 41
1.0
 10
5035.147640035797
 20
3342.874691327661
 30
0.0
 41
1.0
 10
5035.1495791501
 20
3342.873903321986
 30
0.0
 41
1.0
 10
5035.155288227381
 20
3342.871593127206
 30
0.0
 41
1.0
 10
5035.158948332231
 20
3342.870125019621
 30
0.0
 41
1.0
 10
5035.166079532967
 20
3342.867268609329
 30
0.0
 41
1.0
 10
5035.169550918196
 20
3342.86588085964
 30
0.0
 41
1.0
 10
5035.174669351642
 20
3342.86382467707
 30
0.0
 41
1.0
 10
5035.17636034338
 20
3342.863143601016
 30
0.0
 41
1.0
 10
5035.179717788369
 20
3342.861785697226
 30
0.0
 41
1.0
 10
5035.183052711134
 20
3342.86043141875
 30
0.0
 41
1.0
 10
5035.186369814332
 20
3342.859070728898
 30
0.0
 41
1.0
 10
5035.188861168723
 20
3342.858042683995
 30
0.0
 41
1.0
 10
5035.189690855714
 20
3342.857699325
 30
0.0
 41
1.0
 10
5035.191339890908
 20
3342.857015208589
 30
0.0
 41
1.0
 10
5035.198726552886
 20
3342.853942939906
 30
0.0
 41
1.0
 10
5035.205841240664
 20
3342.850917069304
 30
0.0
 41
1.0
 10
5035.212165385976
 20
3342.84820149915
 30
0.0
 41
1.0
  0
SPLINE
  5
1768
330
1F
100
AcDbEntity
  8
SANINDUSA
100
AcDbSpline
210
0.0
220
0.0
230
1.0
 70
    12
 71
     3
 72
     8
 73
     4
 74
     0
 42
0.0000000001
 43
0.0000000001
 40
0.0
 40
0.0
 40
0.0
 40
0.0
 40
1.0
 40
1.0
 40
1.0
 40
1.0
 10
5035.099378242927
 20
3342.897036785156
 30
0.0
 41
1.0
 10
5035.109331721728
 20
3342.891286182425
 30
0.0
 41
1.0
 10
5035.117802748978
 20
3342.887285507269
 30
0.0
 41
1.0
 10
5035.126617625662
 20
3342.883479836578
 30
0.0
 41
1.0
  0
LINE
  5
1769
330
1F
100
AcDbEntity
  8
SANINDUSA
100
AcDbLine
 10
5035.064507465397
 20
3342.922953300788
 30
0.0
 11
5035.099378242927
 21
3342.897036785156
 31
0.0
  0
LINE
  5
176C
330
1F
100
AcDbEntity
  8
SANINDUSA
100
AcDbLine
 10
5035.238854492243
 20
3342.844109446505
 30
0.0
 11
5035.240055880578
 21
3342.847712550778
 31
0.0
  0
SPLINE
  5
176D
330
1F
100
AcDbEntity
  8
SANINDUSA
100
AcDbSpline
210
0.0
220
0.0
230
1.0
 70
    12
 71
     3
 72
    22
 73
    18
 74
     0
 42
0.0000000001
 43
0.0000000001
 40
0.0
 40
0.0
 40
0.0
 40
0.0
 40
0.125
 40
0.125
 40
0.25
 40
0.25
 40
0.375
 40
0.375
 40
0.5
 40
0.5
 40
0.625
 40
0.625
 40
0.75
 40
0.75
 40
0.875
 40
0.875
 40
1.0
 40
1.0
 40
1.0
 40
1.0
 10
5035.238854404735
 20
3342.844109217104
 30
0.0
 41
1.0
 10
5035.238753159761
 20
3342.843808872972
 30
0.0
 41
1.0
 10
5035.238486504013
 20
3342.843564275378
 30
0.0
 41
1.0
 10
5035.237633433992
 20
3342.843196721142
 30
0.0
 41
1.0
 10
5035.237047044451
 20
3342.843073775155
 30
0.0
 41
1.0
 10
5035.235578884464
 20
3342.842954646235
 30
0.0
 41
1.0
 10
5035.23469715658
 20
3342.842958466755
 30
0.0
 41
1.0
 10
5035.232674986204
 20
3342.843092719248
 30
0.0
 41
1.0
 10
5035.231534602335
 20
3342.84322314733
 30
0.0
 41
1.0
 10
5035.229042549534
 20
3342.843605195956
 30
0.0
 41
1.0
 10
5035.227690952849
 20
3342.843856805425
 30
0.0
 41
1.0
 10
5035.224832694018
 20
3342.844470755888
 30
0.0
 41
1.0
 10
5035.223326114734
 20
3342.844833079084
 30
0.0
 41
1.0
 10
5035.220220561464
 20
3342.845653389322
 30
0.0
 41
1.0
 10
5035.218621677508
 20
3342.846111352582
 30
0.0
 41
1.0
 10
5035.215398029536
 20
3342.847103895385
 30
0.0
 41
1.0
 10
5035.213773358972
 20
3342.847638446154
 30
0.0
 41
1.0
 10
5035.212169544037
 20
3342.848200187555
 30
0.0
 41
1.0
  0
LINE
  5
1772
330
1F
100
AcDbEntity
  8
SANINDUSA
100
AcDbLine
 10
5034.783010422805
 20
3342.641456258195
 30
0.0
 11
5034.808926938437
 21
3342.606585480666
 31
0.0
  0
SPLINE
  5
1773
330
1F
100
AcDbEntity
  8
SANINDUSA
100
AcDbSpline
210
0.0
220
0.0
230
1.0
 70
    12
 71
     3
 72
    24
 73
    20
 74
     0
 42
0.0000000001
 43
0.0000000001
 40
0.0
 40
0.0
 40
0.0
 40
0.0
 40
0.05601408993801
 40
0.1095001503386276
 40
0.1604547130890311
 40
0.2088745072235729
 40
0.25475646004642
 40
0.2980976990914708
 40
0.3388955551910509
 40
0.3771475670528325
 40
0.4128514879460364
 40
0.4460052954251916
 40
0.4766072055657859
 40
0.5670138759079036
 40
0.656150845107393
 40
0.7440175530898115
 40
0.8306140629091968
 40
0.9159410844910741
 40
1.0
 40
1.0
 40
1.0
 40
1.0
 10
5034.822483887014
 20
3342.57934609793
 30
0.0
 41
1.0
 10
5034.822256843037
 20
3342.579870086083
 30
0.0
 41
1.0
 10
5034.821813002039
 20
3342.58089441374
 30
0.0
 41
1.0
 10
5034.821154843362
 20
3342.582389154638
 30
0.0
 41
1.0
 10
5034.820522388502
 20
3342.583808944121
 30
0.0
 41
1.0
 10
5034.819915757617
 20
3342.585153869948
 30
0.0
 41
1.0
 10
5034.819335718587
 20
3342.586424550662
 30
0.0
 41
1.0
 10
5034.818782866048
 20
3342.587621462625
 30
0.0
 41
1.0
 10
5034.818257817829
 20
3342.588745102796
 30
0.0
 41
1.0
 10
5034.817761168707
 20
3342.589795944491
 30
0.0
 41
1.0
 10
5034.817293472245
 20
3342.59077444406
 30
0.0
 41
1.0
 10
5034.816855324541
 20
3342.591681037019
 30
0.0
 41
1.0
 10
5034.816169747212
 20
3342.593083370731
 30
0.0
 41
1.0
 10
5034.815219158939
 20
3342.594987604152
 30
0.0
 41
1.0
 10
5034.813981026468
 20
3342.597397221524
 30
0.0
 41
1.0
 10
5034.812732542611
 20
3342.59975987717
 30
0.0
 41
1.0
 10
5034.811474493317
 20
3342.602076345569
 30
0.0
 41
1.0
 10
5034.810210486443
 20
3342.604348559176
 30
0.0
 41
1.0
 10
5034.809352647036
 20
3342.605843570966
 30
0.0
 41
1.0
 10
5034.808926938437
 20
3342.606585480666
 30
0.0
 41
1.0
  0
SPLINE
  5
1774
330
1F
100
AcDbEntity
  8
SANINDUSA
100
AcDbSpline
210
0.0
220
0.0
230
1.0
 70
    12
 71
     3
 72
    25
 73
    21
 74
     0
 42
0.0000000001
 43
0.0000000001
 40
0.0
 40
0.0
 40
0.0
 40
0.0
 40
0.007415859372866
 40
0.1732682255357562
 40
0.3039399105182256
 40
0.3785610693796928
 40
0.4560879131676509
 40
0.5365431087638743
 40
0.6199497161386565
 40
0.6584238280504242
 40
0.6961159248126498
 40
0.7330249530016372
 40
0.7691499096295425
 40
0.8044898485629349
 40
0.839043882975543
 40
0.8728111645767192
 40
0.9057909422842886
 40
0.9379827471078316
 40
0.969385965690264
 40
1.0
 40
1.0
 40
1.0
 40
1.0
 10
5034.857762091046
 20
3342.493798249465
 30
0.0
 41
1.0
 10
5034.857670572137
 20
3342.494011421586
 30
0.0
 41
1.0
 10
5034.855532273925
 20
3342.498992092502
 30
0.0
 41
1.0
 10
5034.851815595166
 20
3342.50773713146
 30
0.0
 41
1.0
 10
5034.847361697941
 20
3342.518424909183
 30
0.0
 41
1.0
 10
5034.844040869204
 20
3342.526576127939
 30
0.0
 41
1.0
 10
5034.841340977575
 20
3342.533275568607
 30
0.0
 41
1.0
 10
5034.838561945473
 20
3342.540214853329
 30
0.0
 41
1.0
 10
5034.836241623702
 20
3342.546012053116
 30
0.0
 41
1.0
 10
5034.834410247054
 20
3342.550567392716
 30
0.0
 41
1.0
 10
5034.833110899262
 20
3342.553787131193
 30
0.0
 41
1.0
 10
5034.831836436928
 20
3342.556931232919
 30
0.0
 41
1.0
 10
5034.830586386033
 20
3342.559999314772
 30
0.0
 41
1.0
 10
5034.829360358416
 20
3342.562991044976
 30
0.0
 41
1.0
 10
5034.828158022571
 20
3342.565906153622
 30
0.0
 41
1.0
 10
5034.826979095184
 20
3342.568744392215
 30
0.0
 41
1.0
 10
5034.825823401306
 20
3342.57150568909
 30
0.0
 41
1.0
 10
5034.824690633882
 20
3342.574189601999
 30
0.0
 41
1.0
 10
5034.823581204098
 20
3342.576797257871
 30
0.0
 41
1.0
 10
5034.82284654313
 20
3342.578503722967
 30
0.0
 41
1.0
 10
5034.822483887014
 20
3342.57934609793
 30
0.0
 41
1.0
  0
LINE
  5
1775
330
1F
100
AcDbEntity
  8
SANINDUSA
100
AcDbLine
 10
5034.858251172814
 20
3342.465907843014
 30
0.0
 11
5034.861863577685
 21
3342.467112378507
 31
0.0
  0
SPLINE
  5
1777
330
1F
100
AcDbEntity
  8
SANINDUSA
100
AcDbSpline
210
0.0
220
0.0
230
1.0
 70
    12
 71
     3
 72
    22
 73
    18
 74
     0
 42
0.0000000001
 43
0.0000000001
 40
0.0
 40
0.0
 40
0.0
 40
0.0
 40
0.1249999999999999
 40
0.1249999999999999
 40
0.2499999999999998
 40
0.2499999999999998
 40
0.3749999999999998
 40
0.3749999999999998
 40
0.5
 40
0.5
 40
0.625
 40
0.625
 40
0.75
 40
0.75
 40
0.875
 40
0.875
 40
1.0
 40
1.0
 40
1.0
 40
1.0
 10
5034.86186368403
 20
3342.467112411355
 30
0.0
 41
1.0
 10
5034.862163442478
 20
3342.467213421992
 30
0.0
 41
1.0
 10
5034.862407450408
 20
3342.467479847581
 30
0.0
 41
1.0
 10
5034.862773840304
 20
3342.468332473827
 30
0.0
 41
1.0
 10
5034.862896211744
 20
3342.468918649793
 30
0.0
 41
1.0
 10
5034.863014229904
 20
3342.47038640663
 30
0.0
 41
1.0
 10
5034.863009873204
 20
3342.471267944946
 30
0.0
 41
1.0
 10
5034.862874608422
 20
3342.47328976634
 30
0.0
 41
1.0
 10
5034.862743704263
 20
3342.4744299908
 30
0.0
 41
1.0
 10
5034.862360782948
 20
3342.476921759678
 30
0.0
 41
1.0
 10
5034.862108776892
 20
3342.478273231855
 30
0.0
 41
1.0
 10
5034.861494128925
 20
3342.481131279793
 30
0.0
 41
1.0
 10
5034.861131504833
 20
3342.482637772695
 30
0.0
 41
1.0
 10
5034.860310700774
 20
3342.485743192982
 30
0.0
 41
1.0
 10
5034.859852544603
 20
3342.487342030336
 30
0.0
 41
1.0
 10
5034.858859731802
 20
3342.490565624993
 30
0.0
 41
1.0
 10
5034.858325103954
 20
3342.492190288838
 30
0.0
 41
1.0
 10
5034.857763344898
 20
3342.493794116301
 30
0.0
 41
1.0
  0
CIRCLE
  5
177C
330
1F
100
AcDbEntity
  8
SANINDUSA
100
AcDbCircle
 10
5034.751582575939
 20
3342.954381147654
 30
0.0
 40
0.0174999999999998
  0
SPLINE
  5
177D
330
1F
100
AcDbEntity
  8
SANINDUSA
100
AcDbSpline
210
0.0
220
0.0
230
1.0
 70
    12
 71
     3
 72
    56
 73
    52
 74
     0
 42
0.0000000001
 43
0.0000000001
 40
0.0
 40
0.0
 40
0.0
 40
0.0
 40
0.0156249999999988
 40
0.0156249999999988
 40
0.0234374999999985
 40
0.0234374999999985
 40
0.0312499999999982
 40
0.0312499999999982
 40
0.0624999999999982
 40
0.0624999999999982
 40
0.1249999999999978
 40
0.1249999999999978
 40
0.1562499999999976
 40
0.1562499999999976
 40
0.1874999999999973
 40
0.2499999999999974
 40
0.2499999999999974
 40
0.2812499999999976
 40
0.2812499999999976
 40
0.3124999999999978
 40
0.3749999999999987
 40
0.3749999999999987
 40
0.4062499999999988
 40
0.4062499999999988
 40
0.437499999999999
 40
0.499999999999999
 40
0.499999999999999
 40
0.531249999999999
 40
0.531249999999999
 40
0.562499999999999
 40
0.562499999999999
 40
0.593749999999999
 40
0.593749999999999
 40
0.624999999999999
 40
0.624999999999999
 40
0.6874999999999987
 40
0.6874999999999987
 40
0.7499999999999987
 40
0.7812499999999987
 40
0.7812499999999987
 40
0.7968749999999987
 40
0.7968749999999987
 40
0.8124999999999985
 40
0.8749999999999991
 40
0.9062499999999992
 40
0.9062499999999992
 40
0.9374999999999996
 40
0.9374999999999996
 40
0.9687499999999998
 40
0.9687499999999998
 40
1.0
 40
1.0
 40
1.0
 40
1.0
 10
5035.064507465397
 20
3342.922953300788
 30
0.0
 41
1.0
 10
5035.063194924738
 20
3342.923929891783
 30
0.0
 41
1.0
 10
5035.061960373908
 20
3342.924849504222
 30
0.0
 41
1.0
 10
5035.060136391475
 20
3342.926170297239
 30
0.0
 41
1.0
 10
5035.059528727618
 20
3342.926605069857
 30
0.0
 41
1.0
 10
5035.058307245974
 20
3342.92747078802
 30
0.0
 41
1.0
 10
5035.057694496143
 20
3342.927900607464
 30
0.0
 41
1.0
 10
5035.054620605642
 20
3342.930034518769
 30
0.0
 41
1.0
 10
5035.052129062453
 20
3342.931693107062
 30
0.0
 41
1.0
 10
5035.044552891045
 20
3342.936522345367
 30
0.0
 41
1.0
 10
5035.039374794656
 20
3342.939539833974
 30
0.0
 41
1.0
 10
5035.031487942845
 20
3342.943717197203
 30
0.0
 41
1.0
 10
5035.028838132692
 20
3342.945052500587
 30
0.0
 41
1.0
 10
5035.023487719614
 20
3342.94761315496
 30
0.0
 41
1.0
 10
5035.015389113437
 20
3342.951286520547
 30
0.0
 41
1.0
 10
5035.007063984824
 20
3342.954448836365
 30
0.0
 41
1.0
 10
5034.998577757576
 20
3342.957259516533
 30
0.0
 41
1.0
 10
5034.995721543159
 20
3342.95813811445
 30
0.0
 41
1.0
 10
5034.989949357805
 20
3342.959772833889
 30
0.0
 41
1.0
 10
5034.981208512288
 20
3342.962041423458
 30
0.0
 41
1.0
 10
5034.972287696999
 20
3342.963737227114
 30
0.0
 41
1.0
 10
5034.963337212112
 20
3342.965021417307
 30
0.0
 41
1.0
 10
5034.960351752437
 20
3342.965379840683
 30
0.0
 41
1.0
 10
5034.954366288278
 20
3342.965961576721
 30
0.0
 41
1.0
 10
5034.945365734902
 20
3342.966631058343
 30
0.0
 41
1.0
 10
5034.936300994626
 20
3342.96668069593
 30
0.0
 41
1.0
 10
5034.927197309105
 20
3342.966303135183
 30
0.0
 41
1.0
 10
5034.924157370607
 20
3342.966106504597
 30
0.0
 41
1.0
 10
5034.91805955112
 20
3342.965566426845
 30
0.0
 41
1.0
 10
5034.915001919188
 20
3342.965222783918
 30
0.0
 41
1.0
 10
5034.908903185684
 20
3342.96439225708
 30
0.0
 41
1.0
 10
5034.905863206297
 20
3342.963905416095
 30
0.0
 41
1.0
 10
5034.899828887663
 20
3342.962792275197
 30
0.0
 41
1.0
 10
5034.896829594408
 20
3342.962165744629
 30
0.0
 41
1.0
 10
5034.887886419532
 20
3342.960077722611
 30
0.0
 41
1.0
 10
5034.881996929607
 20
3342.958408205634
 30
0.0
 41
1.0
 10
5034.870371044988
 20
3342.95452070577
 30
0.0
 41
1.0
 10
5034.861767347432
 20
3342.951191591199
 30
0.0
 41
1.0
 10
5034.853352050053
 20
3342.947234456365
 30
0.0
 41
1.0
 10
5034.849177036918
 20
3342.945150570093
 30
0.0
 41
1.0
 10
5034.847790323526
 20
3342.94443811342
 30
0.0
 41
1.0
 10
5034.845038248754
 20
3342.942983363404
 30
0.0
 41
1.0
 10
5034.838205372478
 20
3342.939268968357
 30
0.0
 41
1.0
 10
5034.828979009962
 20
3342.933534881882
 30
0.0
 41
1.0
 10
5034.821454997183
 20
3342.928106583567
 30
0.0
 41
1.0
 10
5034.816528269204
 20
3342.924377616634
 30
0.0
 41
1.0
 10
5034.814110033566
 20
3342.922458572847
 30
0.0
 41
1.0
 10
5034.809358617469
 20
3342.918508127738
 30
0.0
 41
1.0
 10
5034.807026154761
 20
3342.916477023119
 30
0.0
 41
1.0
 10
5034.802449174176
 20
3342.912302820948
 30
0.0
 41
1.0
 10
5034.800204736516
 20
3342.910159653727
 30
0.0
 41
1.0
 10
5034.798003970559
 20
3342.907959753202
 30
0.0
 41
1.0
  0
SPLINE
  5
177E
330
1F
100
AcDbEntity
  8
SANINDUSA
100
AcDbSpline
210
0.0
220
0.0
230
1.0
 70
    12
 71
     3
 72
    63
 73
    59
 74
     0
 42
0.0000000001
 43
0.0000000001
 40
0.0
 40
0.0
 40
0.0
 40
0.0
 40
0.0048159282896822
 40
0.0096373381163647
 40
0.0144641861590641
 40
0.0192964283687894
 40
0.024134020014778
 40
0.0289769157315107
 40
0.033825069566503
 40
0.0386784350288699
 40
0.0435369651386843
 40
0.0484006124771138
 40
0.053269329237349
 40
0.0581430672763333
 40
0.0630217781672777
 40
0.0679054132529862
 40
0.0727939236999832
 40
0.0776872605534494
 40
0.0825853747929689
 40
0.0874882173890966
 40
0.0923957393607386
 40
0.0973078918333632
 40
0.1022246260980307
 40
0.1071458936712617
 40
0.1120716463557291
 40
0.1170018363017958
 40
0.1219364160698809
 40
0.1268753386936752
 40
0.1566580155092232
 40
0.1878696105433423
 40
0.2204905431494108
 40
0.2544991002496564
 40
0.288025967383499
 40
0.3302398562214761
 40
0.381014097335626
 40
0.4069988482323373
 40
0.4309985565896223
 40
0.453029365095316
 40
0.473105700854702
 40
0.4912404713524305
 40
0.5074451632059568
 40
0.5738752835851973
 40
0.6316008760590258
 40
0.6736629694719716
 40
0.7148237035767064
 40
0.7551063442048179
 40
0.8168553526647952
 40
0.8767323492892728
 40
0.8920110705107036
 40
0.9073087862852977
 40
0.9226253326617017
 40
0.9379603598869929
 40
0.9434918300750709
 40
0.9509531693074231
 40
0.9603410275210515
 40
0.9716509614715157
 40
0.9848773606317326
 40
1.0
 40
1.0
 40
1.0
 40
1.0
 10
5034.798003884699
 20
3342.907959838726
 30
0.0
 41
1.0
 10
5034.797672186687
 20
3342.907626653543
 30
0.0
 41
1.0
 10
5034.797008413124
 20
3342.906959903942
 30
0.0
 41
1.0
 10
5034.796021065386
 20
3342.905950468971
 30
0.0
 41
1.0
 10
5034.795039178989
 20
3342.904933553506
 30
0.0
 41
1.0
 10
5034.794063469448
 20
3342.90390857058
 30
0.0
 41
1.0
 10
5034.793093848013
 20
3342.902875736076
 30
0.0
 41
1.0
 10
5034.792130442081
 20
3342.90183505102
 30
0.0
 41
1.0
 10
5034.791173321322
 20
3342.90078657473
 30
0.0
 41
1.0
 10
5034.790222571174
 20
3342.89973035151
 30
0.0
 41
1.0
 10
5034.789278273128
 20
3342.898666430313
 30
0.0
 41
1.0
 10
5034.788340510003
 20
3342.89759485947
 30
0.0
 41
1.0
 10
5034.787409364539
 20
3342.896515688098
 30
0.0
 41
1.0
 10
5034.786484919768
 20
3342.895428965726
 30
0.0
 41
1.0
 10
5034.785567258914
 20
3342.894334742387
 30
0.0
 41
1.0
 10
5034.784656465419
 20
3342.893233068596
 30
0.0
 41
1.0
 10
5034.783752622923
 20
3342.892123995351
 30
0.0
 41
1.0
 10
5034.782855815286
 20
3342.891007574137
 30
0.0
 41
1.0
 10
5034.781966126562
 20
3342.889883856914
 30
0.0
 41
1.0
 10
5034.781083641016
 20
3342.888752896126
 30
0.0
 41
1.0
 10
5034.780208443109
 20
3342.887614744693
 30
0.0
 41
1.0
 10
5034.779340617511
 20
3342.886469456018
 30
0.0
 41
1.0
 10
5034.778480249057
 20
3342.88531708395
 30
0.0
 41
1.0
 10
5034.777627422902
 20
3342.884157682919
 30
0.0
 41
1.0
 10
5034.776782223925
 20
3342.882991307418
 30
0.0
 41
1.0
 10
5034.775944738959
 20
3342.881818013952
 30
0.0
 41
1.0
 10
5034.775115048454
 20
3342.880637853721
 30
0.0
 41
1.0
 10
5034.772915568213
 20
3342.877461034158
 30
0.0
 41
1.0
 10
5034.769393452756
 20
3342.872089084536
 30
0.0
 41
1.0
 10
5034.764738514573
 20
3342.864254641588
 30
0.0
 41
1.0
 10
5034.760261672619
 20
3342.855856700637
 30
0.0
 41
1.0
 10
5034.756105099303
 20
3342.847054562999
 30
0.0
 41
1.0
 10
5034.752040617054
 20
3342.8372044118
 30
0.0
 41
1.0
 10
5034.747995637179
 20
3342.825611710291
 30
0.0
 41
1.0
 10
5034.744947517749
 20
3342.8144762083
 30
0.0
 41
1.0
 10
5034.742910654822
 20
3342.80492313582
 30
0.0
 41
1.0
 10
5034.741708449576
 20
3342.798045147244
 30
0.0
 41
1.0
 10
5034.740821391999
 20
3342.791697163278
 30
0.0
 41
1.0
 10
5034.740194571787
 20
3342.785889345009
 30
0.0
 41
1.0
 10
5034.739777972546
 20
3342.780628442633
 30
0.0
 41
1.0
 10
5034.739256140692
 20
3342.770868467692
 30
0.0
 41
1.0
 10
5034.739367648018
 20
3342.757221139757
 30
0.0
 41
1.0
 10
5034.740982016518
 20
3342.741129658089
 30
0.0
 41
1.0
 10
5034.743342959108
 20
3342.727609369545
 30
0.0
 41
1.0
 10
5034.746123288876
 20
3342.715896667543
 30
0.0
 41
1.0
 10
5034.750135863037
 20
3342.702518065209
 30
0.0
 41
1.0
 10
5034.755762373777
 20
3342.687732970726
 30
0.0
 41
1.0
 10
5034.761548741456
 20
3342.675666017946
 30
0.0
 41
1.0
 10
5034.765760979624
 20
3342.667905227911
 30
0.0
 41
1.0
 10
5034.767977429169
 20
3342.664011969739
 30
0.0
 41
1.0
 10
5034.770273595601
 20
3342.660159658215
 30
0.0
 41
1.0
 10
5034.772143184124
 20
3342.65716415119
 30
0.0
 41
1.0
 10
5034.773634879638
 20
3342.654837844788
 30
0.0
 41
1.0
 10
5034.77482682631
 20
3342.653009153913
 30
0.0
 41
1.0
 10
5034.776352264456
 20
3342.650725587062
 30
0.0
 41
1.0
 10
5034.778228767826
 20
3342.648001123397
 30
0.0
 41
1.0
 10
5034.780475643458
 20
3342.644853455347
 30
0.0
 41
1.0
 10
5034.782128640555
 20
3342.642638052638
 30
0.0
 41
1.0
 10
5034.783010422805
 20
3342.641456258195
 30
0.0
 41
1.0
  0
ARC
  5
1780
330
1F
100
AcDbEntity
  8
SANINDUSA
100
AcDbCircle
 10
5034.670265296103
 20
3343.03569842749
 30
0.0
 40
0.6
100
AcDbArc
 50
341.7411922544654
 51
0.0
  0
ARC
  5
1781
330
1F
100
AcDbEntity
  8
SANINDUSA
100
AcDbCircle
 10
5035.653143721952
 20
3342.05282000164
 30
0.0
 40
0.8619999999999995
100
AcDbArc
 50
121.9821570436722
 51
148.0178429563277
  0
ARC
  5
1782
330
1F
100
AcDbEntity
  8
SANINDUSA
100
AcDbCircle
 10
5034.670265296103
 20
3343.03569842749
 30
0.0
 40
0.6000000000000002
100
AcDbArc
 50
270.0
 51
288.2588077373713
  0
ARC
  5
1783
330
1F
100
AcDbEntity
  8
SANINDUSA
100
AcDbCircle
 10
5034.649411578947
 20
3343.043378830167
 30
0.0
 40
0.6222156584169368
100
AcDbArc
 50
338.6419270782448
 51
341.238194916467
  0
LWPOLYLINE
  5
1786
330
1F
100
AcDbEntity
  8
SANINDUSA
100
AcDbPolyline
 90
        4
 70
   128
 43
0.0
 10
5034.889206038775
 20
3342.477073732152
 10
5034.876080269451
 20
3342.472113071789
 10
5034.862785450434
 20
3342.467423880596
 10
5034.862710947976
 20
3342.467398605658
  0
ARC
  5
178B
330
1F
100
AcDbEntity
  8
SANINDUSA
100
AcDbCircle
 10
5035.642288578148
 20
3342.059221085158
 30
0.0
 40
0.8493982122238104
100
AcDbArc
 50
149.2191370139964
 51
149.7437526395486
  0
ARC
  5
178C
330
1F
100
AcDbEntity
  8
SANINDUSA
100
AcDbCircle
 10
5034.899957433385
 20
3342.492245097322
 30
0.0
 40
0.0100000000000004
100
AcDbArc
 50
292.9114919666925
 51
329.7397927129003
  0
ARC
  5
178D
330
1F
100
AcDbEntity
  8
SANINDUSA
100
AcDbCircle
 10
5035.213718626271
 20
3342.806006290208
 30
0.0
 40
0.010000000000001
100
AcDbArc
 50
300.2602073002295
 51
337.0885080093079
  0
ARC
  5
178E
330
1F
100
AcDbEntity
  8
SANINDUSA
100
AcDbCircle
 10
5035.635095870905
 20
3342.083430461275
 30
0.0
 40
0.8264655202380398
100
AcDbArc
 50
120.2488879552914
 51
120.7880576763029
  0
LWPOLYLINE
  5
178F
330
1F
100
AcDbEntity
  8
SANINDUSA
100
AcDbPolyline
 90
       38
 70
   128
 43
0.0
 10
5034.809009194552
 20
3342.91604640404
 10
5034.808748716493
 20
3342.916032253235
 10
5034.808208119939
 20
3342.915765105436
 10
5034.80740165053
 20
3342.915247236572
 10
5034.806359221988
 20
3342.914493029255
 10
5034.805108451038
 20
3342.913514063331
 10
5034.803693223086
 20
3342.912337344394
 10
5034.802161142995
 20
3342.910993787157
 10
5034.800556043491
 20
3342.909516603337
 10
5034.798939079648
 20
3342.907956748474
 10
5034.797344896176
 20
3342.90634760287
 10
5034.795827535873
 20
3342.90474348328
 10
5034.794418092575
 20
3342.903182796016
 10
5034.793151853731
 20
3342.901709026091
 10
5034.792061430468
 20
3342.900369346363
 10
5034.79116884451
 20
3342.899198338325
 10
5034.790500732667
 20
3342.898241225543
 10
5034.790073047521
 20
3342.897528501261
 10
5034.789896167734
 20
3342.897086159549
 10
5034.789976836804
 20
3342.896933335076
 10
5034.79030923846
 20
3342.897070744339
 10
5034.790885638761
 20
3342.897495711012
 10
5034.791690274782
 20
3342.898189774777
 10
5034.792703643071
 20
3342.899130123651
 10
5034.793901035037
 20
3342.900284104363
 10
5034.795255497771
 20
3342.901616882544
 10
5034.796731122158
 20
3342.903084204001
 10
5034.798292705042
 20
3342.90464372169
 10
5034.799895886866
 20
3342.906246903513
 10
5034.801496961347
 20
3342.907848062288
 10
5034.803049145484
 20
3342.909402733089
 10
5034.804505150512
 20
3342.910868179012
 10
5034.805821343908
 20
3342.912208122156
 10
5034.806953334502
 20
3342.913386579651
 10
5034.8078674575
 20
3342.914377704941
 10
5034.808529500196
 20
3342.915154513505
 10
5034.808922119163
 20
3342.915702738638
 10
5034.809009194552
 20
3342.91604640404
  0
SPLINE
  5
1792
330
1F
100
AcDbEntity
  8
SANINDUSA
100
AcDbSpline
210
0.0
220
0.0
230
1.0
 70
    12
 71
     3
 72
    79
 73
    75
 74
     0
 42
0.0000000001
 43
0.0000000001
 40
0.0
 40
0.0
 40
0.0
 40
0.0
 40
0.1250000000000425
 40
0.1250000000000425
 40
0.1562500000000532
 40
0.1562500000000532
 40
0.1718750000000586
 40
0.1718750000000586
 40
0.1875000000000639
 40
0.1875000000000639
 40
0.1953125000000668
 40
0.1953125000000668
 40
0.2031250000000697
 40
0.2031250000000697
 40
0.2187500000000754
 40
0.2265625000000783
 40
0.228515625000079
 40
0.228515625000079
 40
0.2304687500000796
 40
0.2304687500000796
 40
0.2324218750000802
 40
0.2333984375000805
 40
0.2333984375000805
 40
0.2343750000000808
 40
0.2343750000000808
 40
0.2363281250000809
 40
0.2363281250000809
 40
0.238281250000081
 40
0.238281250000081
 40
0.2421875000000808
 40
0.2500000000000798
 40
0.2500000000000798
 40
0.2812500000000753
 40
0.2812500000000753
 40
0.3125000000000709
 40
0.3281250000000686
 40
0.3281250000000686
 40
0.3437500000000664
 40
0.3750000000000624
 40
0.3906250000000604
 40
0.3906250000000604
 40
0.4062500000000585
 40
0.4062500000000585
 40
0.437500000000055
 40
0.437500000000055
 40
0.4687500000000517
 40
0.4687500000000517
 40
0.5000000000000484
 40
0.5000000000000484
 40
0.531250000000045
 40
0.531250000000045
 40
0.5625000000000416
 40
0.6250000000000349
 40
0.6562500000000316
 40
0.6562500000000316
 40
0.6875000000000284
 40
0.7187500000000251
 40
0.7187500000000251
 40
0.7343750000000235
 40
0.7343750000000235
 40
0.7500000000000217
 40
0.7812500000000189
 40
0.7812500000000189
 40
0.8125000000000161
 40
0.8125000000000161
 40
0.8750000000000108
 40
0.9062500000000083
 40
0.9062500000000083
 40
0.9375000000000056
 40
0.9375000000000056
 40
0.9687500000000031
 40
0.9843750000000015
 40
0.9843750000000015
 40
1.0
 40
1.0
 40
1.0
 40
1.0
 10
5035.089743320018
 20
3342.834454725141
 30
0.0
 41
1.0
 10
5035.078949783271
 20
3342.839764232974
 30
0.0
 41
1.0
 10
5035.06812595104
 20
3342.846861255689
 30
0.0
 41
1.0
 10
5035.054023071774
 20
3342.857826107134
 30
0.0
 41
1.0
 10
5035.051169022113
 20
3342.860126783311
 30
0.0
 41
1.0
 10
5035.04685958396
 20
3342.863708932685
 30
0.0
 41
1.0
 10
5035.045418256038
 20
3342.864925087324
 30
0.0
 41
1.0
 10
5035.042539329072
 20
3342.867389580361
 30
0.0
 41
1.0
 10
5035.041100727355
 20
3342.868638625483
 30
0.0
 41
1.0
 10
5035.038946127575
 20
3342.870534269933
 30
0.0
 41
1.0
 10
5035.038228480652
 20
3342.871169784703
 30
0.0
 41
1.0
 10
5035.036789269724
 20
3342.872439125944
 30
0.0
 41
1.0
 10
5035.036067717231
 20
3342.873072983869
 30
0.0
 41
1.0
 10
5035.033898606656
 20
3342.874973286284
 30
0.0
 41
1.0
 10
5035.03171988536
 20
3342.876869904392
 30
0.0
 41
1.0
 10
5035.029344904445
 20
3342.878913038943
 30
0.0
 41
1.0
 10
5035.028429168106
 20
3342.879696566799
 30
0.0
 41
1.0
 10
5035.028062692472
 20
3342.8800097856
 30
0.0
 41
1.0
 10
5035.027881604303
 20
3342.880164722798
 30
0.0
 41
1.0
 10
5035.027500773765
 20
3342.880487393059
 30
0.0
 41
1.0
 10
5035.027207142732
 20
3342.88073478413
 30
0.0
 41
1.0
 10
5035.02694088063
 20
3342.880962546062
 30
0.0
 41
1.0
 10
5035.026773830227
 20
3342.881106946241
 30
0.0
 41
1.0
 10
5035.026696354742
 20
3342.881174845472
 30
0.0
 41
1.0
 10
5035.026470057167
 20
3342.881374196529
 30
0.0
 41
1.0
 10
5035.026329627832
 20
3342.881499679278
 30
0.0
 41
1.0
 10
5035.026050629936
 20
3342.881749177554
 30
0.0
 41
1.0
 10
5035.025909895368
 20
3342.881874716762
 30
0.0
 41
1.0
 10
5035.025477583105
 20
3342.882258201317
 30
0.0
 41
1.0
 10
5035.024612686151
 20
3342.88302438497
 30
0.0
 41
1.0
 10
5035.023746847924
 20
3342.883788132905
 30
0.0
 41
1.0
 10
5035.02085815024
 20
3342.886328056194
 30
0.0
 41
1.0
 10
5035.01854057006
 20
3342.888340910707
 30
0.0
 41
1.0
 10
5035.013865240023
 20
3342.892325190961
 30
0.0
 41
1.0
 10
5035.01032259526
 20
3342.895283290375
 30
0.0
 41
1.0
 10
5035.006658171147
 20
3342.898198421752
 30
0.0
 41
1.0
 10
5035.00418065316
 20
3342.900132538452
 30
0.0
 41
1.0
 10
5035.00038508812
 20
3342.903027917565
 30
0.0
 41
1.0
 10
5034.995055281367
 20
3342.906813818949
 30
0.0
 41
1.0
 10
5034.990928293161
 20
3342.909520158841
 30
0.0
 41
1.0
 10
5034.988156177726
 20
3342.911286240404
 30
0.0
 41
1.0
 10
5034.986759370193
 20
3342.912149176433
 30
0.0
 41
1.0
 10
5034.98253383116
 20
3342.914669812826
 30
0.0
 41
1.0
 10
5034.979672200584
 20
3342.916261764005
 30
0.0
 41
1.0
 10
5034.973875128422
 20
3342.919259697145
 30
0.0
 41
1.0
 10
5034.970939013747
 20
3342.920665584922
 30
0.0
 41
1.0
 10
5034.965012813866
 20
3342.923282543348
 30
0.0
 41
1.0
 10
5034.962021105306
 20
3342.924494602376
 30
0.0
 41
1.0
 10
5034.955969435333
 20
3342.926731350501
 30
0.0
 41
1.0
 10
5034.95291093611
 20
3342.9277572816
 30
0.0
 41
1.0
 10
5034.946707368636
 20
3342.929621271846
 30
0.0
 41
1.0
 10
5034.937271437125
 20
3342.932129750017
 30
0.0
 41
1.0
 10
5034.924289240803
 20
3342.934294164581
 30
0.0
 41
1.0
 10
5034.914433928172
 20
3342.934987016959
 30
0.0
 41
1.0
 10
5034.907857577478
 20
3342.935237117612
 30
0.0
 41
1.0
 10
5034.901261681723
 20
3342.935276894686
 30
0.0
 41
1.0
 10
5034.894632449296
 20
3342.934874204278
 30
0.0
 41
1.0
 10
5034.889650181965
 20
3342.934398078468
 30
0.0
 41
1.0
 10
5034.887986253337
 20
3342.934209817961
 30
0.0
 41
1.0
 10
5034.884651680986
 20
3342.933771867535
 30
0.0
 41
1.0
 10
5034.879642807712
 20
3342.9330239895
 30
0.0
 41
1.0
 10
5034.874642521406
 20
3342.932005002126
 30
0.0
 41
1.0
 10
5034.868035783587
 20
3342.930408473489
 30
0.0
 41
1.0
 10
5034.864764414146
 20
3342.929492284261
 30
0.0
 41
1.0
 10
5034.855064066115
 20
3342.926387613619
 30
0.0
 41
1.0
 10
5034.845591288998
 20
3342.922567425459
 30
0.0
 41
1.0
 10
5034.83656904335
 20
3342.91762636078
 30
0.0
 41
1.0
 10
5034.830666461588
 20
3342.914077945072
 30
0.0
 41
1.0
 10
5034.827768015331
 20
3342.912173369319
 30
0.0
 41
1.0
 10
5034.822136415642
 20
3342.908133873421
 30
0.0
 41
1.0
 10
5034.818033978798
 20
3342.90493232571
 30
0.0
 41
1.0
 10
5034.814159615884
 20
3342.90150930887
 30
0.0
 41
1.0
 10
5034.811632521433
 20
3342.899182128898
 30
0.0
 41
1.0
 10
5034.810393035133
 20
3342.897995717562
 30
0.0
 41
1.0
 10
5034.809175828762
 20
3342.89678793239
 30
0.0
 41
1.0
  0
SPLINE
  5
1793
330
1F
100
AcDbEntity
  8
SANINDUSA
100
AcDbSpline
210
0.0
220
0.0
230
1.0
 70
    12
 71
     3
 72
     8
 73
     4
 74
     0
 42
0.0000000001
 43
0.0000000001
 40
0.0
 40
0.0
 40
0.0
 40
0.0
 40
1.0
 40
1.0
 40
1.0
 40
1.0
 10
5035.122140851736
 20
3342.823918188486
 30
0.0
 41
1.0
 10
5035.111574340169
 20
3342.825397966129
 30
0.0
 41
1.0
 10
5035.101457069173
 20
3342.828692550575
 30
0.0
 41
1.0
 10
5035.089743320018
 20
3342.834454725141
 30
0.0
 41
1.0
  0
ARC
  5
1794
330
1F
100
AcDbEntity
  8
SANINDUSA
100
AcDbCircle
 10
5034.839253005952
 20
3342.866675039784
 30
0.0
 40
0.0360118016533678
100
AcDbArc
 50
315.0405007835612
 51
134.9597836790542
  0
SPLINE
  5
1795
330
1F
100
AcDbEntity
  8
SANINDUSA
100
AcDbSpline
210
0.0
220
0.0
230
1.0
 70
    12
 71
     3
 72
    32
 73
    28
 74
     0
 42
0.0000000001
 43
0.0000000001
 40
0.0
 40
0.0
 40
0.0
 40
0.0
 40
0.0384123132570068
 40
0.076403584004057
 40
0.1139724446717776
 40
0.1511176566609236
 40
0.1878381239276562
 40
0.2241329038258069
 40
0.2600012165256602
 40
0.2954424531406623
 40
0.3304561827026799
 40
0.3650421576781853
 40
0.3992002906844857
 40
0.4329306627776232
 40
0.4662336072642597
 40
0.499109747088487
 40
0.5315598913281995
 40
0.58041842702626
 40
0.628811961597415
 40
0.6767458199940357
 40
0.7242256397235792
 40
0.7712578438497691
 40
0.8178501649884477
 40
0.8640112354023724
 40
0.9097501816850137
 40
0.9550764798939981
 40
0.9999999999999998
 40
0.9999999999999998
 40
0.9999999999999998
 40
0.9999999999999998
 10
5034.871508998451
 20
3342.616220403575
 30
0.0
 41
1.0
 10
5034.871699729976
 20
3342.615830352285
 30
0.0
 41
1.0
 10
5034.87207910239
 20
3342.615054525112
 30
0.0
 41
1.0
 10
5034.872632149576
 20
3342.613892845294
 30
0.0
 41
1.0
 10
5034.87316957441
 20
3342.612740643575
 30
0.0
 41
1.0
 10
5034.87369056517
 20
3342.611597535951
 30
0.0
 41
1.0
 10
5034.874195446403
 20
3342.610463512775
 30
0.0
 41
1.0
 10
5034.874684238687
 20
3342.609338470393
 30
0.0
 41
1.0
 10
5034.875157038078
 20
3342.608222334493
 30
0.0
 41
1.0
 10
5034.875613916204
 20
3342.607115027603
 30
0.0
 41
1.0
 10
5034.876054946767
 20
3342.606016477402
 30
0.0
 41
1.0
 10
5034.876480198147
 20
3342.60492661532
 30
0.0
 41
1.0
 10
5034.876889736989
 20
3342.60384537478
 30
0.0
 41
1.0
 10
5034.877283628461
 20
3342.602772689489
 30
0.0
 41
1.0
 10
5034.877661932661
 20
3342.601708499117
 30
0.0
 41
1.0
 10
5034.878024702269
 20
3342.600652750638
 30
0.0
 41
1.0
 10
5034.878432039077
 20
3342.599424296774
 30
0.0
 41
1.0
 10
5034.87887620477
 20
3342.598019718149
 30
0.0
 41
1.0
 10
5034.879347929631
 20
3342.596434863145
 30
0.0
 41
1.0
 10
5034.879789567775
 20
3342.594852358695
 30
0.0
 41
1.0
 10
5034.880201266933
 20
3342.59327204526
 30
0.0
 41
1.0
 10
5034.880583186479
 20
3342.591693774176
 30
0.0
 41
1.0
 10
5034.88093538206
 20
3342.590117420345
 30
0.0
 41
1.0
 10
5034.88125813751
 20
3342.588542977271
 30
0.0
 41
1.0
 10
5034.881550857761
 20
3342.586970035822
 30
0.0
 41
1.0
 10
5034.881816193713
 20
3342.585399644974
 30
0.0
 41
1.0
 10
5034.881969315766
 20
3342.584346896784
 30
0.0
 41
1.0
 10
5034.882045535105
 20
3342.583822871856
 30
0.0
 41
1.0
  0
SPLINE
  5
1796
330
1F
100
AcDbEntity
  8
SANINDUSA
100
AcDbSpline
210
0.0
220
0.0
230
1.0
 70
    12
 71
     3
 72
   100
 73
    96
 74
     0
 42
0.0000000001
 43
0.0000000001
 40
0.0
 40
0.0
 40
0.0
 40
0.0
 40
0.0035933051253494
 40
0.0071806685442911
 40
0.0107623785674196
 40
0.0143387245938611
 40
0.0179099969918481
 40
0.0214764869936653
 40
0.0250384866024124
 40
0.0285962885084012
 40
0.0321501860134064
 40
0.0357004729613424
 40
0.039247443674277
 40
0.0427913928928402
 40
0.0463326157690677
 40
0.0498714079592944
 40
0.0534080656266779
 40
0.0569428854037024
 40
0.0604761643482317
 40
0.0640081998940584
 40
0.0675392897965155
 40
0.0710697320735338
 40
0.0745998249423617
 40
0.0781298667520029
 40
0.0816601559113318
 40
0.0851909908127691
 40
0.0887226697513938
 40
0.0922554908393983
 40
0.0957897519159169
 40
0.0993257504524209
 40
0.1028637834541561
 40
0.1064041473584141
 40
0.1099471379308827
 40
0.1134930501617792
 40
0.1170421781640499
 40
0.1205948150764959
 40
0.1241512529707399
 40
0.1544589098684538
 40
0.1848499572186065
 40
0.2154940516514396
 40
0.2465548046323967
 40
0.2702211036685547
 40
0.2939401973909408
 40
0.317780680502496
 40
0.3418095881381573
 40
0.3660918910756543
 40
0.4053687142418438
 40
0.4444487062403483
 40
0.4835976824610834
 40
0.5067237503937029
 40
0.5300329728194312
 40
0.5535669144877672
 40
0.5773623026160321
 40
0.6014510670486605
 40
0.615443327275909
 40
0.6298351562312426
 40
0.6446289399623467
 40
0.65982755385141
 40
0.6680495463020079
 40
0.6767798797183352
 40
0.6860179096740657
 40
0.6957633751951457
 40
0.7060165561434147
 40
0.716778420155205
 40
0.7268907369356949
 40
0.7545491006264204
 40
0.7651105308604368
 40
0.7756779294573737
 40
0.7862544988737078
 40
0.7968434369251711
 40
0.802370725672039
 40
0.8080781335280999
 40
0.8139667887083858
 40
0.8200378810037351
 40
0.8262926660511757
 40
0.8327324686841542
 40
0.8393586853521835
 40
0.846172785597391
 40
0.85317631210624
 40
0.8603708781093368
 40
0.8705624781258601
 40
0.8806278880693348
 40
0.8905676970896855
 40
0.900382239431647
 40
0.9100716216002551
 40
0.9196357509719025
 40
0.929074365466355
 40
0.9383870643126702
 40
0.9475733368842284
 40
0.956632584207848
 40
0.9655641473964639
 40
0.9743673383512325
 40
0.9830414704141221
 40
0.9915858887193071
 40
1.0
 40
1.0
 40
1.0
 40
1.0
 10
5034.809175791192
 20
3342.896787894841
 30
0.0
 41
1.0
 10
5034.808895482151
 20
3342.896503934359
 30
0.0
 41
1.0
 10
5034.808335327576
 20
3342.895936482938
 30
0.0
 41
1.0
 10
5034.807505458181
 20
3342.895076507363
 30
0.0
 41
1.0
 10
5034.806684095059
 20
3342.894211014342
 30
0.0
 41
1.0
 10
5034.805871923436
 20
3342.893339324012
 30
0.0
 41
1.0
 10
5034.805068756857
 20
3342.892461621448
 30
0.0
 41
1.0
 10
5034.804274641478
 20
3342.891577860913
 30
0.0
 41
1.0
 10
5034.803489560943
 20
3342.890688058698
 30
0.0
 41
1.0
 10
5034.802713515371
 20
3342.889792214747
 30
0.0
 41
1.0
 10
5034.801946500301
 20
3342.888890333544
 30
0.0
 41
1.0
 10
5034.801188512389
 20
3342.887982418471
 30
0.0
 41
1.0
 10
5034.800439547936
 20
3342.887068473259
 30
0.0
 41
1.0
 10
5034.799699603303
 20
3342.886148501566
 30
0.0
 41
1.0
 10
5034.798968674892
 20
3342.885222506984
 30
0.0
 41
1.0
 10
5034.798246759598
 20
3342.884290492636
 30
0.0
 41
1.0
 10
5034.797533854747
 20
3342.883352461226
 30
0.0
 41
1.0
 10
5034.796829958041
 20
3342.882408415076
 30
0.0
 41
1.0
 10
5034.796135067524
 20
3342.881458356174
 30
0.0
 41
1.0
 10
5034.79544918154
 20
3342.880502286207
 30
0.0
 41
1.0
 10
5034.794772298701
 20
3342.879540206597
 30
0.0
 41
1.0
 10
5034.794104417852
 20
3342.878572118527
 30
0.0
 41
1.0
 10
5034.793445538047
 20
3342.87759802298
 30
0.0
 41
1.0
 10
5034.792795658521
 20
3342.876617920754
 30
0.0
 41
1.0
 10
5034.792154778663
 20
3342.875631812498
 30
0.0
 41
1.0
 10
5034.791522897986
 20
3342.874639698729
 30
0.0
 41
1.0
 10
5034.790900016114
 20
3342.873641579866
 30
0.0
 41
1.0
 10
5034.790286132737
 20
3342.87263745625
 30
0.0
 41
1.0
 10
5034.789681247605
 20
3342.871627328175
 30
0.0
 41
1.0
 10
5034.789085360482
 20
3342.870611195908
 30
0.0
 41
1.0
 10
5034.788498471158
 20
3342.869589059722
 30
0.0
 41
1.0
 10
5034.787920579282
 20
3342.868560919908
 30
0.0
 41
1.0
 10
5034.787351684878
 20
3342.867526776848
 30
0.0
 41
1.0
 10
5034.786791786316
 20
3342.866486630843
 30
0.0
 41
1.0
 10
5034.786240887758
 20
3342.865440482857
 30
0.0
 41
1.0
 10
5034.785698971307
 20
3342.864388331812
 30
0.0
 41
1.0
 10
5034.783830273623
 20
3342.860677565874
 30
0.0
 41
1.0
 10
5034.780890709183
 20
3342.854167699047
 30
0.0
 41
1.0
 10
5034.777424349592
 20
3342.844626071335
 30
0.0
 41
1.0
 10
5034.774658335119
 20
3342.834771645788
 30
0.0
 41
1.0
 10
5034.772764139435
 20
3342.82547527871
 30
0.0
 41
1.0
 10
5034.771559762059
 20
3342.816845184467
 30
0.0
 41
1.0
 10
5034.770899098702
 20
3342.808961151138
 30
0.0
 41
1.0
 10
5034.770665326024
 20
3342.801013471773
 30
0.0
 41
1.0
 10
5034.77085840743
 20
3342.793002790249
 30
0.0
 41
1.0
 10
5034.771600651502
 20
3342.783305904318
 30
0.0
 41
1.0
 10
5034.773227380114
 20
3342.772018312943
 30
0.0
 41
1.0
 10
5034.776176071289
 20
3342.75930505162
 30
0.0
 41
1.0
 10
5034.779633715666
 20
3342.748595906948
 30
0.0
 41
1.0
 10
5034.783145995744
 20
3342.739781184992
 30
0.0
 41
1.0
 10
5034.786372146609
 20
3342.732730158849
 30
0.0
 41
1.0
 10
5034.78996705748
 20
3342.725783592353
 30
0.0
 41
1.0
 10
5034.793924257906
 20
3342.718948055219
 30
0.0
 41
1.0
 10
5034.797614523754
 20
3342.713200800406
 30
0.0
 41
1.0
 10
5034.800901824937
 20
3342.708449561989
 30
0.0
 41
1.0
 10
5034.803690337625
 20
3342.70460955009
 30
0.0
 41
1.0
 10
5034.806634567848
 20
3342.700734721271
 30
0.0
 41
1.0
 10
5034.80922959226
 20
3342.697461391116
 30
0.0
 41
1.0
 10
5034.811445899888
 20
3342.694747695111
 30
0.0
 41
1.0
 10
5034.813265479997
 20
3342.692557477113
 30
0.0
 41
1.0
 10
5034.815202783444
 20
3342.690260644365
 30
0.0
 41
1.0
 10
5034.81725653877
 20
3342.687859429251
 30
0.0
 41
1.0
 10
5034.819422584568
 20
3342.685353742004
 30
0.0
 41
1.0
 10
5034.821625967554
 20
3342.682847116306
 30
0.0
 41
1.0
 10
5034.825023428331
 20
3342.678937185445
 30
0.0
 41
1.0
 10
5034.828375766399
 20
3342.675075732497
 30
0.0
 41
1.0
 10
5034.831724533638
 20
3342.671220895315
 30
0.0
 41
1.0
 10
5034.833895052059
 20
3342.668738137831
 30
0.0
 41
1.0
 10
5034.836057721448
 20
3342.666273588078
 30
0.0
 41
1.0
 10
5034.83787287055
 20
3342.664222468646
 30
0.0
 41
1.0
 10
5034.839344088153
 20
3342.662550395876
 30
0.0
 41
1.0
 10
5034.840482019244
 20
3342.661232662613
 30
0.0
 41
1.0
 10
5034.841642313803
 20
3342.659870532914
 30
0.0
 41
1.0
 10
5034.84282388776
 20
3342.658463643101
 30
0.0
 41
1.0
 10
5034.844026615314
 20
3342.657012522297
 30
0.0
 41
1.0
 10
5034.845250099874
 20
3342.655517458113
 30
0.0
 41
1.0
 10
5034.846494001723
 20
3342.653978798028
 30
0.0
 41
1.0
 10
5034.847758018026
 20
3342.652396925341
 30
0.0
 41
1.0
 10
5034.849041614015
 20
3342.650772025685
 30
0.0
 41
1.0
 10
5034.850514526503
 20
3342.648888514856
 30
0.0
 41
1.0
 10
5034.852145560941
 20
3342.646769271137
 30
0.0
 41
1.0
 10
5034.853900644533
 20
3342.644435149071
 30
0.0
 41
1.0
 10
5034.855595949105
 20
3342.642127478987
 30
0.0
 41
1.0
 10
5034.857231923815
 20
3342.639845302214
 30
0.0
 41
1.0
 10
5034.858809357228
 20
3342.637587965065
 30
0.0
 41
1.0
 10
5034.860328933457
 20
3342.635354748822
 30
0.0
 41
1.0
 10
5034.861791346123
 20
3342.633144968889
 30
0.0
 41
1.0
 10
5034.863197268169
 20
3342.630957952034
 30
0.0
 41
1.0
 10
5034.864547348982
 20
3342.628793042573
 30
0.0
 41
1.0
 10
5034.865842247339
 20
3342.626649608176
 30
0.0
 41
1.0
 10
5034.867082514758
 20
3342.624526999004
 30
0.0
 41
1.0
 10
5034.868269012786
 20
3342.622424710238
 30
0.0
 41
1.0
 10
5034.86940138055
 20
3342.620341796522
 30
0.0
 41
1.0
 10
5034.870483620588
 20
3342.618279017049
 30
0.0
 41
1.0
 10
5034.871168961185
 20
3342.616903083906
 30
0.0
 41
1.0
 10
5034.871508998451
 20
3342.616220403575
 30
0.0
 41
1.0
  0
ARC
  5
1797
330
1F
100
AcDbEntity
  8
SANINDUSA
100
AcDbCircle
 10
5034.839288541557
 20
3342.866710575389
 30
0.0
 40
0.0360118015063946
100
AcDbArc
 50
135.0398829432719
 51
314.959832557265
  0
CIRCLE
  5
179A
330
1F
100
AcDbEntity
  8
SANINDUSA
100
AcDbCircle
 10
5034.839263816806
 20
3342.866699906786
 30
0.0
 40
0.0235000000000004
  0
LINE
  5
179D
330
1F
100
AcDbEntity
  8
SANINDUSA
100
AcDbLine
 10
5037.421101756159
 20
3342.855281190481
 30
0.0
 11
5037.002494541696
 21
3342.855281190481
 31
0.0
  0
LWPOLYLINE
  5
17A1
330
1F
100
AcDbEntity
  8
SANINDUSA
100
AcDbPolyline
 90
       18
 70
   128
 43
0.0
 10
5037.567202210132
 20
3342.799568490179
 10
5037.568363750281
 20
3342.799585694694
 10
5037.570323333057
 20
3342.799932922623
 10
5037.5721528742
 20
3342.800560172284
 10
5037.573830672839
 20
3342.801427202933
 10
5037.575355481973
 20
3342.802502975807
 10
5037.576743017407
 20
3342.803775669697
 10
5037.57806557436
 20
3342.805325397423
 10
5037.579304771565
 20
3342.807188896518
 10
5037.580418466395
 20
3342.809357131983
 10
5037.581243963169
 20
3342.811429245815
 10
5037.581866409487
 20
3342.813418367657
 10
5037.582363806876
 20
3342.815463293036
 10
5037.582732352829
 20
3342.817471302219
 10
5037.582992617169
 20
3342.819455417163
 10
5037.583155594132
 20
3342.821436638351
 10
5037.583227238676
 20
3342.823563577378
 10
5037.58322092225
 20
3342.824029843701
  0
LWPOLYLINE
  5
17A2
330
1F
100
AcDbEntity
  8
SANINDUSA
100
AcDbPolyline
 90
       11
 70
   128
 43
0.0
 10
5037.58040594621
 20
3342.839444968657
 10
5037.580359940509
 20
3342.839560576376
 10
5037.579330524516
 20
3342.84158303522
 10
5037.578098066725
 20
3342.843483311643
 10
5037.576748086426
 20
3342.845109888051
 10
5037.57527300692
 20
3342.846484834474
 10
5037.573658313153
 20
3342.847624055369
 10
5037.572011804516
 20
3342.848473567351
 10
5037.57031051215
 20
3342.84907301064
 10
5037.56839993801
 20
3342.849445607634
 10
5037.566946167626
 20
3342.849496845147
  0
ARC
  5
17A3
330
1F
100
AcDbEntity
  8
SANINDUSA
100
AcDbCircle
 10
5037.545536543461
 20
3342.825116611232
 30
0.0
 40
0.0376889569176882
100
AcDbArc
 50
358.9574182467775
 51
22.30441418269859
  0
LINE
  5
17A4
330
1F
100
AcDbEntity
  8
SANINDUSA
100
AcDbLine
 10
5037.583232505607
 20
3342.824029785942
 30
0.0
 11
5037.583232494083
 21
3342.824430850639
 31
0.0
  0
ARC
  5
17A6
330
1F
100
AcDbEntity
  8
SANINDUSA
100
AcDbCircle
 10
5037.434651153693
 20
3342.854562243757
 30
0.0
 40
0.0052594862265495
100
AcDbArc
 50
220.8500617351523
 51
253.1041206855345
  0
ARC
  5
17A7
330
1F
100
AcDbEntity
  8
SANINDUSA
100
AcDbCircle
 10
5037.420924401048
 20
3342.841672054225
 30
0.0
 40
0.0135769625417419
100
AcDbArc
 50
44.10983506788351
 51
89.2542398671015
  0
SPLINE
  5
17A9
330
1F
100
AcDbEntity
  8
SANINDUSA
100
AcDbSpline
210
0.0
220
0.0
230
1.0
 70
    12
 71
     3
 72
    34
 73
    30
 74
     0
 42
0.0000000001
 43
0.0000000001
 40
0.0
 40
0.0
 40
0.0
 40
0.0
 40
0.0167954591644168
 40
0.03353718264928
 40
0.0502333018291743
 40
0.0668920148593172
 40
0.0835215752172052
 40
0.1001302798415488
 40
0.1167264569503222
 40
0.1333184536257758
 40
0.1499146232578331
 40
0.1665233129400292
 40
0.1831528509128118
 40
0.1998115341483533
 40
0.2165076161684374
 40
0.2332492951829886
 40
0.2500447026313558
 40
0.3749241699913298
 40
0.4998035091971906
 40
0.624682553416982
 40
0.7495615856480625
 40
0.7810588322905891
 40
0.8123914020573032
 40
0.8436137070517846
 40
0.8747807368911708
 40
0.9059477737683819
 40
0.9371700998390201
 40
0.9685027046090597
 40
1.0
 40
1.0
 40
1.0
 40
1.0
 10
5037.219670170287
 20
3342.737806208884
 30
0.0
 41
1.0
 10
5037.219523125767
 20
3342.737831885403
 30
0.0
 41
1.0
 10
5037.219229507186
 20
3342.737883156289
 30
0.0
 41
1.0
 10
5037.218791983484
 20
3342.7379721595
 30
0.0
 41
1.0
 10
5037.218357591943
 20
3342.738069860494
 30
0.0
 41
1.0
 10
5037.217926479197
 20
3342.738177129803
 30
0.0
 41
1.0
 10
5037.217498606526
 20
3342.738293735085
 30
0.0
 41
1.0
 10
5037.21707398469
 20
3342.738419738383
 30
0.0
 41
1.0
 10
5037.216652611235
 20
3342.738555123052
 30
0.0
 41
1.0
 10
5037.216234487228
 20
3342.738699893458
 30
0.0
 41
1.0
 10
5037.215819612807
 20
3342.738854048276
 30
0.0
 41
1.0
 10
5037.215407988259
 20
3342.73901758778
 30
0.0
 41
1.0
 10
5037.214999614135
 20
3342.739190511376
 30
0.0
 41
1.0
 10
5037.214594489689
 20
3342.739372820182
 30
0.0
 41
1.0
 10
5037.214192619003
 20
3342.739564509175
 30
0.0
 41
1.0
 10
5037.213793987974
 20
3342.739765596129
 30
0.0
 41
1.0
 10
5037.212551227987
 20
3342.74042705148
 30
0.0
 41
1.0
 10
5037.210560987112
 20
3342.741735480305
 30
0.0
 41
1.0
 10
5037.208118426738
 20
3342.744019932651
 30
0.0
 41
1.0
 10
5037.206079174453
 20
3342.746670799755
 30
0.0
 41
1.0
 10
5037.204906943659
 20
3342.748893529597
 30
0.0
 41
1.0
 10
5037.204283002779
 20
3342.750440832479
 30
0.0
 41
1.0
 10
5037.204002672694
 20
3342.751228573924
 30
0.0
 41
1.0
 10
5037.203756459344
 20
3342.752024518594
 30
0.0
 41
1.0
 10
5037.203544374643
 20
3342.752828712843
 30
0.0
 41
1.0
 10
5037.203366214265
 20
3342.753641120773
 30
0.0
 41
1.0
 10
5037.203222799668
 20
3342.754461795521
 30
0.0
 41
1.0
 10
5037.203111043247
 20
3342.755290513233
 30
0.0
 41
1.0
 10
5037.203065526798
 20
3342.755847112505
 30
0.0
 41
1.0
 10
5037.203042708919
 20
3342.756126141625
 30
0.0
 41
1.0
  0
SPLINE
  5
17AB
330
1F
100
AcDbEntity
  8
SANINDUSA
100
AcDbSpline
210
0.0
220
0.0
230
1.0
 70
    12
 71
     3
 72
    32
 73
    28
 74
     0
 42
0.0000000001
 43
0.0000000001
 40
0.0
 40
0.0
 40
0.0
 40
0.0
 40
0.0077413799314576
 40
0.0157268961911795
 40
0.0314546620656803
 40
0.062923141320669
 40
0.1257536600705224
 40
0.2503114062405625
 40
0.3745981934906448
 40
0.4372792177834974
 40
0.4999601726771377
 40
0.562357704495342
 40
0.624755198174134
 40
0.6868936955054928
 40
0.7490319823688809
 40
0.7803363036984568
 40
0.8116185810354513
 40
0.8429010392773816
 40
0.8742059029364648
 40
0.8899390178833323
 40
0.9056639671246495
 40
0.9213835667462005
 40
0.9371006357093165
 40
0.9528179943369609
 40
0.968538462796209
 40
0.9842648595810965
 40
1.0
 40
1.0
 40
1.0
 40
1.0
 10
5037.312945745747
 20
3342.737548509165
 30
0.0
 41
1.0
 10
5037.313439919236
 20
3342.737552843068
 30
0.0
 41
1.0
 10
5037.314443850736
 20
3342.737561647549
 30
0.0
 41
1.0
 10
5037.316451699905
 20
3342.737585667391
 30
0.0
 41
1.0
 10
5037.319974028961
 20
3342.737638634922
 30
0.0
 41
1.0
 10
5037.326994295955
 20
3342.73789001196
 30
0.0
 41
1.0
 10
5037.340931502317
 20
3342.738947019788
 30
0.0
 41
1.0
 10
5037.36062713423
 20
3342.742035242149
 30
0.0
 41
1.0
 10
5037.379876146328
 20
3342.747187554433
 30
0.0
 41
1.0
 10
5037.39490114195
 20
3342.752520459394
 30
0.0
 41
1.0
 10
5037.405972087275
 20
3342.757129588242
 30
0.0
 41
1.0
 10
5037.416765949279
 20
3342.762312192865
 30
0.0
 41
1.0
 10
5037.42723853025
 20
3342.768045141172
 30
0.0
 41
1.0
 10
5037.437379074764
 20
3342.774314906665
 30
0.0
 41
1.0
 10
5037.445542260808
 20
3342.779981162168
 30
0.0
 41
1.0
 10
5037.451898474243
 20
3342.784777682429
 30
0.0
 41
1.0
 10
5037.456584476683
 20
3342.788513864911
 30
0.0
 41
1.0
 10
5037.461169154091
 20
3342.792373662532
 30
0.0
 41
1.0
 10
5037.464907279836
 20
3342.795694935912
 30
0.0
 41
1.0
 10
5037.467848827888
 20
3342.798415460776
 30
0.0
 41
1.0
 10
5037.470032391902
 20
3342.80048983748
 30
0.0
 41
1.0
 10
5037.472187261787
 20
3342.802592533466
 30
0.0
 41
1.0
 10
5037.474313389989
 20
3342.804723599917
 30
0.0
 41
1.0
 10
5037.476410971551
 20
3342.806882861439
 30
0.0
 41
1.0
 10
5037.478479272447
 20
3342.809070967352
 30
0.0
 41
1.0
 10
5037.480521033827
 20
3342.81128549337
 30
0.0
 41
1.0
 10
5037.481857238159
 20
3342.812784986697
 30
0.0
 41
1.0
 10
5037.482525526001
 20
3342.813534941726
 30
0.0
 41
1.0
  0
SPLINE
  5
17AC
330
1F
100
AcDbEntity
  8
SANINDUSA
100
AcDbSpline
210
0.0
220
0.0
230
1.0
 70
    12
 71
     3
 72
    26
 73
    22
 74
     0
 42
0.0000000001
 43
0.0000000001
 40
0.0
 40
0.0
 40
0.0
 40
0.0
 40
0.0208821318403483
 40
0.0417227800167705
 40
0.0625416142441793
 40
0.0833583660733858
 40
0.1041927729718787
 40
0.1250645223203275
 40
0.1875585175989622
 40
0.2500899273810231
 40
0.3125839226665858
 40
0.3751153324419771
 40
0.5000072818370649
 40
0.6248992312321712
 40
0.6873932265425573
 40
0.7499246362936284
 40
0.8124186316465948
 40
0.8749500413541364
 40
0.9166347660985243
 40
0.9582654158968844
 40
1.0
 40
1.0
 40
1.0
 40
1.0
 10
5037.303063772277
 20
3342.728420386386
 30
0.0
 41
1.0
 10
5037.303073630458
 20
3342.728522570743
 30
0.0
 41
1.0
 10
5037.303093327236
 20
3342.728726736462
 30
0.0
 41
1.0
 10
5037.303134723141
 20
3342.729031447796
 30
0.0
 41
1.0
 10
5037.303184755882
 20
3342.729334499295
 30
0.0
 41
1.0
 10
5037.303244272655
 20
3342.729635814036
 30
0.0
 41
1.0
 10
5037.303313051701
 20
3342.729935417896
 30
0.0
 41
1.0
 10
5037.303442948205
 20
3342.730430944207
 30
0.0
 41
1.0
 10
5037.303667220845
 20
3342.731113374875
 30
0.0
 41
1.0
 10
5037.304035416877
 20
3342.731959803975
 30
0.0
 41
1.0
 10
5037.304479707432
 20
3342.73276923531
 30
0.0
 41
1.0
 10
5037.305168743802
 20
3342.733788100451
 30
0.0
 41
1.0
 10
5037.306201684891
 20
3342.73493642902
 30
0.0
 41
1.0
 10
5037.307428055695
 20
3342.735875085232
 30
0.0
 41
1.0
 10
5037.308498266208
 20
3342.736481301128
 30
0.0
 41
1.0
 10
5037.309340155587
 20
3342.736860065742
 30
0.0
 41
1.0
 10
5037.310213267204
 20
3342.737160102239
 30
0.0
 41
1.0
 10
5037.311010822131
 20
3342.737354041473
 30
0.0
 41
1.0
 10
5037.311718790679
 20
3342.737469066622
 30
0.0
 41
1.0
 10
5037.312330801333
 20
3342.737532705426
 30
0.0
 41
1.0
 10
5037.312740593975
 20
3342.737543236875
 30
0.0
 41
1.0
 10
5037.312945745747
 20
3342.737548509165
 30
0.0
 41
1.0
  0
LINE
  5
17AE
330
1F
100
AcDbEntity
  8
SANINDUSA
100
AcDbLine
 10
5037.230235580569
 20
3342.702965564656
 30
0.0
 11
5037.230536172256
 21
3342.699529785942
 31
0.0
  0
LINE
  5
17AF
330
1F
100
AcDbEntity
  8
SANINDUSA
100
AcDbLine
 10
5037.300536172256
 20
3342.699529785942
 30
0.0
 11
5037.303063772277
 21
3342.728420386386
 31
0.0
  0
LINE
  5
17B0
330
1F
100
AcDbEntity
  8
SANINDUSA
100
AcDbLine
 10
5037.229534323329
 20
3342.747531171904
 30
0.0
 11
5037.242036172257
 21
3342.736663480434
 31
0.0
  0
LWPOLYLINE
  5
17B1
330
1F
100
AcDbEntity
  8
SANINDUSA
100
AcDbPolyline
 90
       33
 70
   128
 43
0.0
 10
5037.22953432333
 20
3342.747531171904
 10
5037.229667830663
 20
3342.747530812597
 10
5037.230073401239
 20
3342.747529765546
 10
5037.230754034694
 20
3342.747528169035
 10
5037.231637144935
 20
3342.747526375732
 10
5037.232758505125
 20
3342.747524504059
 10
5037.235775463322
 20
3342.747521253754
 10
5037.239525273479
 20
3342.747519455364
 10
5037.241674439414
 20
3342.747519059425
 10
5037.244159922099
 20
3342.747518964533
 10
5037.249235514101
 20
3342.747519532764
 10
5037.251950387982
 20
3342.747520102439
 10
5037.25496494932
 20
3342.74752087717
 10
5037.260788222937
 20
3342.747522676694
 10
5037.263758990904
 20
3342.747523708151
 10
5037.266957635387
 20
3342.747524874388
 10
5037.269919821238
 20
3342.747525974291
 10
5037.272872322067
 20
3342.747527059606
 10
5037.275764378172
 20
3342.747528081222
 10
5037.278787094889
 20
3342.747529068326
 10
5037.281501764442
 20
3342.747529859581
 10
5037.284125316166
 20
3342.747530534889
 10
5037.286612262845
 20
3342.747531122005
 10
5037.289117998195
 20
3342.747531740683
 10
5037.291281013338
 20
3342.747532417096
 10
5037.293282042189
 20
3342.747533327603
 10
5037.295086123881
 20
3342.747534591786
 10
5037.296795399019
 20
3342.747536444433
 10
5037.299323091978
 20
3342.747541164358
 10
5037.300242656957
 20
3342.747543719497
 10
5037.300963125218
 20
3342.747546130488
 10
5037.301407600898
 20
3342.74754782756
 10
5037.301557894717
 20
3342.747548447703
  0
LINE
  5
17B2
330
1F
100
AcDbEntity
  8
SANINDUSA
100
AcDbLine
 10
5037.289036172257
 20
3342.736663480434
 30
0.0
 11
5037.301557894716
 21
3342.747548447702
 31
0.0
  0
LINE
  5
17B3
330
1F
100
AcDbEntity
  8
SANINDUSA
100
AcDbLine
 10
5037.242036172257
 20
3342.736663480434
 30
0.0
 11
5037.289036172257
 21
3342.736663480434
 31
0.0
  0
ARC
  5
17B5
330
1F
100
AcDbEntity
  8
SANINDUSA
100
AcDbCircle
 10
5037.313507224112
 20
3342.963271699792
 30
0.0
 40
0.2158058574415593
100
AcDbArc
 50
268.6060182756053
 51
318.4590703858611
  0
SPLINE
  5
17B6
330
1F
100
AcDbEntity
  8
SANINDUSA
100
AcDbSpline
210
0.0
220
0.0
230
1.0
 70
    28
 71
     3
 72
     9
 73
     5
 74
     0
 42
0.0000000001
 43
0.0000000001
 40
0.0
 40
0.0
 40
0.0
 40
0.0
 40
0.5457007071521219
 40
1.0
 40
1.0
 40
1.0
 40
1.0
 10
5037.301557894716
 20
3342.747548447703
 30
0.0
 41
1.0
 10
5037.302776507947
 20
3342.74754272538
 30
0.0
 41
1.0
 10
5037.305009624407
 20
3342.747532239186
 30
0.0
 41
1.0
 10
5037.307242764287
 20
3342.747530500053
 30
0.0
 41
1.0
 10
5037.308257278156
 20
3342.747529709967
 30
0.0
 41
1.0
  0
SPLINE
  5
17B7
330
1F
100
AcDbEntity
  8
SANINDUSA
100
AcDbSpline
210
0.0
220
0.0
230
1.0
 70
    28
 71
     3
 72
     8
 73
     4
 74
     0
 42
0.0000000001
 43
0.0000000001
 40
0.0
 40
0.0
 40
0.0
 40
0.0
 40
1.0
 40
1.0
 40
1.0
 40
1.0
 10
5037.222985303524
 20
3342.747529811276
 30
0.0
 41
1.0
 10
5037.225168310126
 20
3342.747530264818
 30
0.0
 41
1.0
 10
5037.227351316727
 20
3342.747530718361
 30
0.0
 41
1.0
 10
5037.229534323329
 20
3342.747531171904
 30
0.0
 41
1.0
  0
ARC
  5
17B8
330
1F
100
AcDbEntity
  8
SANINDUSA
100
AcDbCircle
 10
5037.009400910271
 20
3342.803338207519
 30
0.0
 40
0.2003344676013793
100
AcDbArc
 50
0.1266934891121936
 51
7.873466430469455
  0
LINE
  5
17B9
330
1F
100
AcDbEntity
  8
SANINDUSA
100
AcDbLine
 10
5037.207846826317
 20
3342.830781190481
 30
0.0
 11
5037.207185816806
 21
3342.840233877301
 31
0.0
  0
LINE
  5
17BD
330
1F
100
AcDbEntity
  8
SANINDUSA
100
AcDbLine
 10
5037.2130185483
 20
3342.756823603743
 30
0.0
 11
5037.209734888106
 21
3342.803781190481
 31
0.0
  0
LINE
  5
17BE
330
1F
100
AcDbEntity
  8
SANINDUSA
100
AcDbLine
 10
5037.207846826317
 20
3342.830781190481
 30
0.0
 11
5037.197822406358
 21
3342.830781190481
 31
0.0
  0
LINE
  5
17BF
330
1F
100
AcDbEntity
  8
SANINDUSA
100
AcDbLine
 10
5037.199710468147
 20
3342.803781190481
 30
0.0
 11
5037.209734888106
 21
3342.803781190481
 31
0.0
  0
ARC
  5
17C0
330
1F
100
AcDbEntity
  8
SANINDUSA
100
AcDbCircle
 10
5036.98907125667
 20
3342.802617580931
 30
0.0
 40
0.2106424254495927
100
AcDbArc
 50
0.3165091638626746
 51
7.683650771092601
  0
LINE
  5
17C1
330
1F
100
AcDbEntity
  8
SANINDUSA
100
AcDbLine
 10
5037.242036172257
 20
3342.736663480434
 30
0.0
 11
5037.242036172257
 21
3342.728529785942
 31
0.0
  0
LINE
  5
17C2
330
1F
100
AcDbEntity
  8
SANINDUSA
100
AcDbLine
 10
5037.242036172257
 20
3342.728529785942
 30
0.0
 11
5037.227999001014
 21
3342.728529785942
 31
0.0
  0
LINE
  5
17C3
330
1F
100
AcDbEntity
  8
SANINDUSA
100
AcDbLine
 10
5037.227973943073
 20
3342.728816199523
 30
0.0
 11
5037.227999001014
 21
3342.728529785942
 31
0.0
  0
SPLINE
  5
17C4
330
1F
100
AcDbEntity
  8
SANINDUSA
100
AcDbSpline
210
0.0
220
0.0
230
1.0
 70
    12
 71
     3
 72
    37
 73
    33
 74
     0
 42
0.0000000001
 43
0.0000000001
 40
0.0
 40
0.0
 40
0.0
 40
0.0
 40
0.0257766741374745
 40
0.0513074583670949
 40
0.0766176684455772
 40
0.1017332871340828
 40
0.1266809051976005
 40
0.1514876536550911
 40
0.1761811278551508
 40
0.2007893042231838
 40
0.2253404507808857
 40
0.249863032771451
 40
0.2743856149096268
 40
0.2989367619095189
 40
0.3235449390128708
 40
0.3482384142388772
 40
0.373045164009307
 40
0.3979927836685451
 40
0.4231084042302934
 40
0.4484186164535264
 40
0.4739494030929439
 40
0.4997260798979875
 40
0.5510938682749097
 40
0.6015763977299438
 40
0.6513846588221524
 40
0.7007382905150982
 40
0.7498630301575698
 40
0.7989877706046764
 40
0.8483414047004568
 40
0.8981496697608958
 40
0.9486322046972023
 40
0.9999999999999998
 40
0.9999999999999998
 40
0.9999999999999998
 40
0.9999999999999998
 10
5037.219670170287
 20
3342.737806208884
 30
0.0
 41
1.0
 10
5037.219781676916
 20
3342.73778645162
 30
0.0
 41
1.0
 10
5037.220003626485
 20
3342.73774712556
 30
0.0
 41
1.0
 10
5037.220332552344
 20
3342.737675392024
 30
0.0
 41
1.0
 10
5037.220656355485
 20
3342.73759466233
 30
0.0
 41
1.0
 10
5037.220974881997
 20
3342.737504024974
 30
0.0
 41
1.0
 10
5037.221288171228
 20
3342.737403720557
 30
0.0
 41
1.0
 10
5037.221596211264
 20
3342.737293684904
 30
0.0
 41
1.0
 10
5037.2218990037
 20
3342.737173934821
 30
0.0
 41
1.0
 10
5037.222196546502
 20
3342.73704446583
 30
0.0
 41
1.0
 10
5037.222488838589
 20
3342.736905279329
 30
0.0
 41
1.0
 10
5037.222775878652
 20
3342.736756375374
 30
0.0
 41
1.0
 10
5037.223057665507
 20
3342.736597754598
 30
0.0
 41
1.0
 10
5037.223334198039
 20
3342.736429417679
 30
0.0
 41
1.0
 10
5037.223605475247
 20
3342.736251365467
 30
0.0
 41
1.0
 10
5037.223871496259
 20
3342.736063598928
 30
0.0
 41
1.0
 10
5037.224132260367
 20
3342.735866119102
 30
0.0
 41
1.0
 10
5037.224387766949
 20
3342.735658927184
 30
0.0
 41
1.0
 10
5037.224638015824
 20
3342.735442024061
 30
0.0
 41
1.0
 10
5037.224883005922
 20
3342.735215411943
 30
0.0
 41
1.0
 10
5037.225122740303
 20
3342.734979088064
 30
0.0
 41
1.0
 10
5037.225433955546
 20
3342.734652538354
 30
0.0
 41
1.0
 10
5037.225802135619
 20
3342.73422919843
 30
0.0
 41
1.0
 10
5037.226206721133
 20
3342.73369932125
 30
0.0
 41
1.0
 10
5037.226570757307
 20
3342.733151362483
 30
0.0
 41
1.0
 10
5037.226894193732
 20
3342.732585350317
 30
0.0
 41
1.0
 10
5037.227177020561
 20
3342.732001311701
 30
0.0
 41
1.0
 10
5037.22741914782
 20
3342.73139927748
 30
0.0
 41
1.0
 10
5037.227620815542
 20
3342.73077930975
 30
0.0
 41
1.0
 10
5037.227781073866
 20
3342.730141368081
 30
0.0
 41
1.0
 10
5037.227903541345
 20
3342.729485802487
 30
0.0
 41
1.0
 10
5037.227950340242
 20
3342.729040690116
 30
0.0
 41
1.0
 10
5037.227973943073
 20
3342.728816199523
 30
0.0
 41
1.0
  0
SPLINE
  5
17C5
330
1F
100
AcDbEntity
  8
SANINDUSA
100
AcDbSpline
210
0.0
220
0.0
230
1.0
 70
    12
 71
     3
 72
    22
 73
    18
 74
     0
 42
0.0000000001
 43
0.0000000001
 40
0.0
 40
0.0
 40
0.0
 40
0.0
 40
0.125
 40
0.125
 40
0.25
 40
0.25
 40
0.375
 40
0.375
 40
0.5
 40
0.5
 40
0.625
 40
0.625
 40
0.75
 40
0.75
 40
0.875
 40
0.875
 40
1.0
 40
1.0
 40
1.0
 40
1.0
 10
5037.222985302389
 20
3342.747529459224
 30
0.0
 41
1.0
 10
5037.222417468266
 20
3342.747529446211
 30
0.0
 41
1.0
 10
5037.221830186509
 20
3342.747578110902
 30
0.0
 41
1.0
 10
5037.220642237811
 20
3342.747789311243
 30
0.0
 41
1.0
 10
5037.220041678808
 20
3342.74795200222
 30
0.0
 41
1.0
 10
5037.218860422191
 20
3342.748398709363
 30
0.0
 41
1.0
 10
5037.218279923101
 20
3342.748682811653
 30
0.0
 41
1.0
 10
5037.217175078961
 20
3342.749366528621
 30
0.0
 41
1.0
 10
5037.216650965994
 20
3342.749766104601
 30
0.0
 41
1.0
 10
5037.215691503684
 20
3342.750660798826
 30
0.0
 41
1.0
 10
5037.215256331379
 20
3342.751155751983
 30
0.0
 41
1.0
 10
5037.214497191627
 20
3342.75221019149
 30
0.0
 41
1.0
 10
5037.214173278973
 20
3342.752769449024
 30
0.0
 41
1.0
 10
5037.213645242964
 20
3342.753916649453
 30
0.0
 41
1.0
 10
5037.213441047545
 20
3342.754504388302
 30
0.0
 41
1.0
 10
5037.213147480082
 20
3342.755674695019
 30
0.0
 41
1.0
 10
5037.213057960621
 20
3342.756257144377
 30
0.0
 41
1.0
 10
5037.213018357563
 20
3342.756823589787
 30
0.0
 41
1.0
  0
LINE
  5
17C6
330
1F
100
AcDbEntity
  8
SANINDUSA
100
AcDbLine
 10
5037.203042899689
 20
3342.756126154966
 30
0.0
 11
5037.199710468147
 21
3342.803781190481
 31
0.0
  0
ARC
  5
17C7
330
1F
100
AcDbEntity
  8
SANINDUSA
100
AcDbCircle
 10
5037.223622727795
 20
3342.748529785942
 30
0.0
 40
0.0299999999999999
100
AcDbArc
 50
183.9999489384204
 51
270.0
  0
LINE
  5
17C8
330
1F
100
AcDbEntity
  8
SANINDUSA
100
AcDbLine
 10
5037.223622727795
 20
3342.718529785942
 30
0.0
 11
5037.242036172257
 21
3342.718529785942
 31
0.0
  0
LINE
  5
17C9
330
1F
100
AcDbEntity
  8
SANINDUSA
100
AcDbLine
 10
5037.242036172257
 20
3342.718529785942
 30
0.0
 11
5037.242036172257
 21
3342.699529785942
 31
0.0
  0
LINE
  5
17CA
330
1F
100
AcDbEntity
  8
SANINDUSA
100
AcDbLine
 10
5037.230536172256
 20
3342.699529785942
 30
0.0
 11
5037.242036172257
 21
3342.699529785942
 31
0.0
  0
ARC
  5
17CB
330
1F
100
AcDbEntity
  8
SANINDUSA
100
AcDbCircle
 10
5037.225254607079
 20
3342.702529785942
 30
0.0
 40
0.0050000000000006
100
AcDbArc
 50
4.999999996291116
 51
90.0
  0
LINE
  5
17CC
330
1F
100
AcDbEntity
  8
SANINDUSA
100
AcDbLine
 10
5037.225254607079
 20
3342.707529785942
 30
0.0
 11
5037.222690211875
 21
3342.707529785942
 31
0.0
  0
ARC
  5
17CD
330
1F
100
AcDbEntity
  8
SANINDUSA
100
AcDbCircle
 10
5037.222690211875
 20
3342.747529785942
 30
0.0
 40
0.0400000000000001
100
AcDbArc
 50
183.9999489384204
 51
270.0
  0
LINE
  5
17CE
330
1F
100
AcDbEntity
  8
SANINDUSA
100
AcDbLine
 10
5037.182787647378
 20
3342.744739562557
 30
0.0
 11
5037.176484595117
 21
3342.834878563865
 31
0.0
  0
ARC
  5
17CF
330
1F
100
AcDbEntity
  8
SANINDUSA
100
AcDbCircle
 10
5037.171496774554
 20
3342.834529785942
 30
0.0
 40
0.005
100
AcDbArc
 50
3.999948938420393
 51
90.0
  0
LINE
  5
17D0
330
1F
100
AcDbEntity
  8
SANINDUSA
100
AcDbLine
 10
5037.159036172257
 20
3342.839529785942
 30
0.0
 11
5037.171496774554
 21
3342.839529785942
 31
0.0
  0
LINE
  5
17D1
330
1F
100
AcDbEntity
  8
SANINDUSA
100
AcDbLine
 10
5037.159036172257
 20
3342.849529785942
 30
0.0
 11
5037.159036172257
 21
3342.839529785942
 31
0.0
  0
LINE
  5
17D2
330
1F
100
AcDbEntity
  8
SANINDUSA
100
AcDbLine
 10
5037.159036172257
 20
3342.849529785942
 30
0.0
 11
5037.197217273366
 21
3342.849529785942
 31
0.0
  0
SPLINE
  5
17D3
330
1F
100
AcDbEntity
  8
SANINDUSA
100
AcDbSpline
210
0.0
220
0.0
230
1.0
 70
    12
 71
     3
 72
     8
 73
     4
 74
     0
 42
0.0000000001
 43
0.0000000001
 40
0.0
 40
0.0
 40
0.0
 40
0.0
 40
1.0
 40
1.0
 40
1.0
 40
1.0
 10
5037.197217273583
 20
3342.849529785942
 30
0.0
 41
1.0
 10
5037.197987137964
 20
3342.849529785942
 30
0.0
 41
1.0
 10
5037.198793281717
 20
3342.849439809238
 30
0.0
 41
1.0
 10
5037.199602057629
 20
3342.849241056172
 30
0.0
 41
1.0
  0
SPLINE
  5
17D4
330
1F
100
AcDbEntity
  8
SANINDUSA
100
AcDbSpline
210
0.0
220
0.0
230
1.0
 70
    12
 71
     3
 72
    14
 73
    10
 74
     0
 42
0.0000000001
 43
0.0000000001
 40
0.0
 40
0.0
 40
0.0
 40
0.0
 40
0.25
 40
0.25
 40
0.5
 40
0.5
 40
0.75
 40
0.75
 40
1.0
 40
1.0
 40
1.0
 40
1.0
 10
5037.199602057791
 20
3342.849241056179
 30
0.0
 41
1.0
 10
5037.200412301479
 20
3342.849041942414
 30
0.0
 41
1.0
 10
5037.201224533476
 20
3342.848733025642
 30
0.0
 41
1.0
 10
5037.202764860913
 20
3342.847894611851
 30
0.0
 41
1.0
 10
5037.203491905759
 20
3342.847365118025
 30
0.0
 41
1.0
 10
5037.204777759154
 20
3342.846131699226
 30
0.0
 41
1.0
 10
5037.205335795234
 20
3342.845428557442
 30
0.0
 41
1.0
 10
5037.206234981336
 20
3342.843930456582
 30
0.0
 41
1.0
 10
5037.206576141082
 20
3342.843136536833
 30
0.0
 41
1.0
 10
5037.206808660666
 20
3342.842341335758
 30
0.0
 41
1.0
  0
SPLINE
  5
17D5
330
1F
100
AcDbEntity
  8
SANINDUSA
100
AcDbSpline
210
0.0
220
0.0
230
1.0
 70
    12
 71
     3
 72
     8
 73
     4
 74
     0
 42
0.0000000001
 43
0.0000000001
 40
0.0
 40
0.0
 40
0.0
 40
0.0
 40
1.0
 40
1.0
 40
1.0
 40
1.0
 10
5037.20680866067
 20
3342.842341335606
 30
0.0
 41
1.0
 10
5037.207016247108
 20
3342.841631404187
 30
0.0
 41
1.0
 10
5037.207137904961
 20
3342.840920766862
 30
0.0
 41
1.0
 10
5037.207185937981
 20
3342.840233885971
 30
0.0
 41
1.0
  0
LINE
  5
17D6
330
1F
100
AcDbEntity
  8
SANINDUSA
100
AcDbLine
 10
5037.187186214342
 20
3342.839529785942
 30
0.0
 11
5037.197210632698
 21
3342.839529785942
 31
0.0
  0
LINE
  5
17D7
330
1F
100
AcDbEntity
  8
SANINDUSA
100
AcDbLine
 10
5037.187186214342
 20
3342.839529785942
 30
0.0
 11
5037.193695804422
 21
3342.746437118403
 31
0.0
  0
LINE
  5
17D8
330
1F
100
AcDbEntity
  8
SANINDUSA
100
AcDbLine
 10
5037.197822406358
 20
3342.830781190481
 30
0.0
 11
5037.197210632698
 21
3342.839529785942
 31
0.0
  0
SPLINE
  5
17D9
330
1F
100
AcDbEntity
  8
SANINDUSA
100
AcDbSpline
210
0.0
220
0.0
230
1.0
 70
    28
 71
     3
 72
    56
 73
    52
 74
     0
 42
0.0000000001
 43
0.0000000001
 40
0.0
 40
0.0
 40
0.0
 40
0.0
 40
0.0312500000000002
 40
0.0312500000000002
 40
0.0625000000000003
 40
0.0625000000000003
 40
0.0937500000000005
 40
0.0937500000000005
 40
0.1250000000000006
 40
0.1875000000000009
 40
0.2031250000000009
 40
0.2031250000000009
 40
0.2187500000000008
 40
0.2187500000000008
 40
0.2500000000000008
 40
0.3125000000000012
 40
0.3125000000000012
 40
0.3750000000000017
 40
0.3750000000000017
 40
0.4062500000000019
 40
0.4062500000000019
 40
0.437500000000002
 40
0.437500000000002
 40
0.4687500000000022
 40
0.4687500000000022
 40
0.5000000000000023
 40
0.5000000000000023
 40
0.5625000000000031
 40
0.5937500000000031
 40
0.5937500000000031
 40
0.6250000000000034
 40
0.6250000000000034
 40
0.687500000000004
 40
0.7187500000000041
 40
0.7187500000000041
 40
0.7500000000000041
 40
0.7500000000000041
 40
0.8125000000000031
 40
0.8125000000000031
 40
0.8750000000000021
 40
0.8750000000000021
 40
0.9375000000000014
 40
0.9375000000000014
 40
0.9687500000000007
 40
0.9687500000000007
 40
0.9765625000000005
 40
0.9804687500000003
 40
0.9804687500000003
 40
0.9843750000000003
 40
0.9843750000000003
 40
1.0
 40
1.0
 40
1.0
 40
1.0
 10
5037.197217273366
 20
3342.849529785942
 30
0.0
 41
1.0
 10
5037.197207062796
 20
3342.849529785942
 30
0.0
 41
1.0
 10
5037.197254251346
 20
3342.849529785942
 30
0.0
 41
1.0
 10
5037.197430125202
 20
3342.849529785942
 30
0.0
 41
1.0
 10
5037.197562645481
 20
3342.849529785942
 30
0.0
 41
1.0
 10
5037.197920696434
 20
3342.849529785942
 30
0.0
 41
1.0
 10
5037.198145899267
 20
3342.849529785942
 30
0.0
 41
1.0
 10
5037.198695213805
 20
3342.849529785942
 30
0.0
 41
1.0
 10
5037.199667991344
 20
3342.849529785942
 30
0.0
 41
1.0
 10
5037.201359678747
 20
3342.849529785942
 30
0.0
 41
1.0
 10
5037.202942253495
 20
3342.849529785942
 30
0.0
 41
1.0
 10
5037.203606077718
 20
3342.849529785942
 30
0.0
 41
1.0
 10
5037.203953831258
 20
3342.849529785942
 30
0.0
 41
1.0
 10
5037.205039917772
 20
3342.849529785942
 30
0.0
 41
1.0
 10
5037.207385243589
 20
3342.849529785942
 30
0.0
 41
1.0
 10
5037.210275667657
 20
3342.849529785942
 30
0.0
 41
1.0
 10
5037.214659680206
 20
3342.849529785942
 30
0.0
 41
1.0
 10
5037.217115203332
 20
3342.849529785942
 30
0.0
 41
1.0
 10
5037.221240036938
 20
3342.849529785942
 30
0.0
 41
1.0
 10
5037.222688483645
 20
3342.849529785942
 30
0.0
 41
1.0
 10
5037.225739262241
 20
3342.849529785942
 30
0.0
 41
1.0
 10
5037.227345468022
 20
3342.849529785942
 30
0.0
 41
1.0
 10
5037.230708472062
 20
3342.849529785942
 30
0.0
 41
1.0
 10
5037.232464377344
 20
3342.849529785942
 30
0.0
 41
1.0
 10
5037.236108295013
 20
3342.849529785942
 30
0.0
 41
1.0
 10
5037.237996098575
 20
3342.849529785942
 30
0.0
 41
1.0
 10
5037.24386593441
 20
3342.849529785942
 30
0.0
 41
1.0
 10
5037.250145242406
 20
3342.849529785942
 30
0.0
 41
1.0
 10
5037.257056401266
 20
3342.849529785942
 30
0.0
 41
1.0
 10
5037.2618062121
 20
3342.849529785942
 30
0.0
 41
1.0
 10
5037.264252617163
 20
3342.849529785942
 30
0.0
 41
1.0
 10
5037.271826662784
 20
3342.849529785942
 30
0.0
 41
1.0
 10
5037.279849896631
 20
3342.849529785942
 30
0.0
 41
1.0
 10
5037.288405283715
 20
3342.849529785942
 30
0.0
 41
1.0
 10
5037.294211394812
 20
3342.849529785942
 30
0.0
 41
1.0
 10
5037.297164463152
 20
3342.849529785942
 30
0.0
 41
1.0
 10
5037.306165408336
 20
3342.849529785942
 30
0.0
 41
1.0
 10
5037.312357742127
 20
3342.849529785942
 30
0.0
 41
1.0
 10
5037.325101875912
 20
3342.849529785942
 30
0.0
 41
1.0
 10
5037.331651328851
 20
3342.849529785942
 30
0.0
 41
1.0
 10
5037.345096060042
 20
3342.849529785942
 30
0.0
 41
1.0
 10
5037.351998301328
 20
3342.849529785942
 30
0.0
 41
1.0
 10
5037.362489395889
 20
3342.849529785942
 30
0.0
 41
1.0
 10
5037.366006183618
 20
3342.849529785942
 30
0.0
 41
1.0
 10
5037.370424140554
 20
3342.849529785942
 30
0.0
 41
1.0
 10
5037.371751175637
 20
3342.849529785942
 30
0.0
 41
1.0
 10
5037.373080606331
 20
3342.849529785942
 30
0.0
 41
1.0
 10
5037.373967417331
 20
3342.849529785942
 30
0.0
 41
1.0
 10
5037.374409874583
 20
3342.849529785942
 30
0.0
 41
1.0
 10
5037.376638334142
 20
3342.849529785942
 30
0.0
 41
1.0
 10
5037.378485282592
 20
3342.849529785942
 30
0.0
 41
1.0
 10
5037.379971853731
 20
3342.849529785942
 30
0.0
 41
1.0
  0
LINE
  5
17DA
330
1F
100
AcDbEntity
  8
SANINDUSA
100
AcDbLine
 10
5037.289036172257
 20
3342.699529785942
 30
0.0
 11
5037.300536172256
 21
3342.699529785942
 31
0.0
  0
LINE
  5
17DB
330
1F
100
AcDbEntity
  8
SANINDUSA
100
AcDbLine
 10
5037.289036172257
 20
3342.699529785942
 30
0.0
 11
5037.289036172257
 21
3342.736663480434
 31
0.0
  0
LINE
  5
17DC
330
1F
100
AcDbEntity
  8
SANINDUSA
100
AcDbLine
 10
5037.540209788017
 20
3342.849529785942
 30
0.0
 11
5037.544536172257
 21
3342.849529785942
 31
0.0
  0
ARC
  5
17DD
330
1F
100
AcDbEntity
  8
SANINDUSA
100
AcDbCircle
 10
5037.544536172257
 20
3342.839529785942
 30
0.0
 40
0.0100000000000007
100
AcDbArc
 50
0.0
 51
90.0
  0
LINE
  5
17DE
330
1F
100
AcDbEntity
  8
SANINDUSA
100
AcDbLine
 10
5037.554536172257
 20
3342.839529785942
 30
0.0
 11
5037.554536172257
 21
3342.809529785942
 31
0.0
  0
ARC
  5
17DF
330
1F
100
AcDbEntity
  8
SANINDUSA
100
AcDbCircle
 10
5037.544536172257
 20
3342.809529785942
 30
0.0
 40
0.0100000000000001
100
AcDbArc
 50
270.0
 51
0.0
  0
LINE
  5
17E0
330
1F
100
AcDbEntity
  8
SANINDUSA
100
AcDbLine
 10
5037.539364616131
 20
3342.799529785942
 30
0.0
 11
5037.544536172257
 21
3342.799529785942
 31
0.0
  0
ARC
  5
17E1
330
1F
100
AcDbEntity
  8
SANINDUSA
100
AcDbCircle
 10
5037.539364616131
 20
3342.804529785942
 30
0.0
 40
0.0050000000000004
100
AcDbArc
 50
182.0000000037536
 51
270.0
  0
LINE
  5
17E2
330
1F
100
AcDbEntity
  8
SANINDUSA
100
AcDbLine
 10
5037.53354979314
 20
3342.827775988168
 30
0.0
 11
5037.534367661996
 21
3342.804355288458
 31
0.0
  0
SPLINE
  5
17E3
330
1F
100
AcDbEntity
  8
SANINDUSA
100
AcDbSpline
210
0.0
220
0.0
230
1.0
 70
    12
 71
     3
 72
    28
 73
    24
 74
     0
 42
0.0000000001
 43
0.0000000001
 40
0.0
 40
0.0
 40
0.0
 40
0.0
 40
0.0179163349661972
 40
0.0357870811434782
 40
0.0536304181359679
 40
0.0714646093680983
 40
0.0893079463475821
 40
0.107178692498904
 40
0.1250950274262547
 40
0.187597300656502
 40
0.2501305191342764
 40
0.3126327923163922
 40
0.3751660108431433
 40
0.5000053494677158
 40
0.6248446880920003
 40
0.6873469613208246
 40
0.7498801798000018
 40
0.8123824530361469
 40
0.8749156715077281
 40
0.9062241525119841
 40
0.9374423812435438
 40
0.9686683553995592
 40
1.0
 40
1.0
 40
1.0
 40
1.0
 10
5037.521070227684
 20
3342.837113143539
 30
0.0
 41
1.0
 10
5037.521173770471
 20
3342.837138704697
 30
0.0
 41
1.0
 10
5037.521380592576
 20
3342.837189761971
 30
0.0
 41
1.0
 10
5037.521693420607
 20
3342.837253737834
 30
0.0
 41
1.0
 10
5037.522007490048
 20
3342.837308302821
 30
0.0
 41
1.0
 10
5037.522323028523
 20
3342.837352568948
 30
0.0
 41
1.0
 10
5037.522639971029
 20
3342.837386774693
 30
0.0
 41
1.0
 10
5037.522958344432
 20
3342.837410851708
 30
0.0
 41
1.0
 10
5037.52354287679
 20
3342.837436413958
 30
0.0
 41
1.0
 10
5037.524395456678
 20
3342.837412965594
 30
0.0
 41
1.0
 10
5037.525502965626
 20
3342.837256642524
 30
0.0
 41
1.0
 10
5037.526586806023
 20
3342.836978791176
 30
0.0
 41
1.0
 10
5037.527979424369
 20
3342.83644921983
 30
0.0
 41
1.0
 10
5037.529596900286
 20
3342.835501105677
 30
0.0
 41
1.0
 10
5037.530962818371
 20
3342.834217082896
 30
0.0
 41
1.0
 10
5037.531863920071
 20
3342.833030555289
 30
0.0
 41
1.0
 10
5037.532436278273
 20
3342.832069364513
 30
0.0
 41
1.0
 10
5037.532898954726
 20
3342.831050820487
 30
0.0
 41
1.0
 10
5037.533186596738
 20
3342.830163577923
 30
0.0
 41
1.0
 10
5037.533357005578
 20
3342.829438613668
 30
0.0
 41
1.0
 10
5037.533453577522
 20
3342.828888747451
 30
0.0
 41
1.0
 10
5037.533521351612
 20
3342.82833426085
 30
0.0
 41
1.0
 10
5037.533540301961
 20
3342.827962288504
 30
0.0
 41
1.0
 10
5037.53354979314
 20
3342.827775988169
 30
0.0
 41
1.0
  0
SPLINE
  5
17E4
330
1F
100
AcDbEntity
  8
SANINDUSA
100
AcDbSpline
210
0.0
220
0.0
230
1.0
 70
    12
 71
     3
 72
    14
 73
    10
 74
     0
 42
0.0000000001
 43
0.0000000001
 40
0.0
 40
0.0
 40
0.0
 40
0.0
 40
0.25
 40
0.25
 40
0.5
 40
0.5
 40
0.75
 40
0.75
 40
1.0
 40
1.0
 40
1.0
 40
1.0
 10
5037.521070227684
 20
3342.837113143539
 30
0.0
 41
1.0
 10
5037.517368574413
 20
3342.836163226314
 30
0.0
 41
1.0
 10
5037.513737799931
 20
3342.834937233257
 30
0.0
 41
1.0
 10
5037.506698233148
 20
3342.831960184689
 30
0.0
 41
1.0
 10
5037.50328949845
 20
3342.83020915354
 30
0.0
 41
1.0
 10
5037.496769444923
 20
3342.826220767817
 30
0.0
 41
1.0
 10
5037.493658179446
 20
3342.823983445881
 30
0.0
 41
1.0
 10
5037.487801916739
 20
3342.819071979116
 30
0.0
 41
1.0
 10
5037.485056967433
 20
3342.816397874477
 30
0.0
 41
1.0
 10
5037.482525525998
 20
3342.813534941728
 30
0.0
 41
1.0
  0
ARC
  5
17E8
330
1F
100
AcDbEntity
  8
SANINDUSA
100
AcDbCircle
 10
5037.026336867221
 20
3342.882666214157
 30
0.0
 40
0.0331370275875569
100
AcDbArc
 50
242.0776139370591
 51
270.3446116767789
  0
ARC
  5
17E9
330
1F
100
AcDbEntity
  8
SANINDUSA
100
AcDbCircle
 10
5037.026336867221
 20
3342.882666214157
 30
0.0
 40
0.0431370275875569
100
AcDbArc
 50
246.4193171851407
 51
270.3446116767789
  0
LINE
  5
17EA
330
1F
100
AcDbEntity
  8
SANINDUSA
100
AcDbLine
 10
5037.124036172257
 20
3342.839529785942
 30
0.0
 11
5037.124036172257
 21
3342.849529785942
 31
0.0
  0
LINE
  5
17EB
330
1F
100
AcDbEntity
  8
SANINDUSA
100
AcDbLine
 10
5037.058900081465
 20
3342.839529785942
 30
0.0
 11
5037.124036172257
 21
3342.839529785942
 31
0.0
  0
ARC
  5
17EC
330
1F
100
AcDbEntity
  8
SANINDUSA
100
AcDbCircle
 10
5037.058900081465
 20
3342.834529785942
 30
0.0
 40
0.005
100
AcDbArc
 50
90.0
 51
177.1727205315718
  0
ARC
  5
17ED
330
1F
100
AcDbEntity
  8
SANINDUSA
100
AcDbCircle
 10
5037.058900081465
 20
3342.834529785942
 30
0.0
 40
0.0150000000000001
100
AcDbArc
 50
160.5287793619829
 51
177.1727205315718
  0
LINE
  5
17EE
330
1F
100
AcDbEntity
  8
SANINDUSA
100
AcDbLine
 10
5037.049190192665
 20
3342.739283159382
 30
0.0
 11
5037.053906167635
 21
3342.834776412503
 31
0.0
  0
LINE
  5
17EF
330
1F
100
AcDbEntity
  8
SANINDUSA
100
AcDbLine
 10
5037.039437112378
 20
3342.744529785942
 30
0.0
 11
5037.043918339975
 21
3342.835269665625
 31
0.0
  0
ARC
  5
17F0
330
1F
100
AcDbEntity
  8
SANINDUSA
100
AcDbCircle
 10
5037.044196278835
 20
3342.739529785942
 30
0.0
 40
0.0050000000000002
100
AcDbArc
 50
270.0
 51
357.1727205315718
  0
LINE
  5
17F1
330
1F
100
AcDbEntity
  8
SANINDUSA
100
AcDbLine
 10
5037.044196278835
 20
3342.734529785942
 30
0.0
 11
5037.002494541696
 21
3342.734529785942
 31
0.0
  0
LINE
  5
17F2
330
1F
100
AcDbEntity
  8
SANINDUSA
100
AcDbLine
 10
5037.039437112378
 20
3342.744529785942
 30
0.0
 11
5037.009080328133
 21
3342.744529785942
 31
0.0
  0
ARC
  5
17F3
330
1F
100
AcDbEntity
  8
SANINDUSA
100
AcDbCircle
 10
5037.002229458257
 20
3342.737670911159
 30
0.0
 40
0.0031522907314499
100
AcDbArc
 50
182.5659380562285
 51
274.8238317258711
  0
LINE
  5
17F4
330
1F
100
AcDbEntity
  8
SANINDUSA
100
AcDbLine
 10
5036.999080328135
 20
3342.737529785942
 30
0.0
 11
5036.999080328135
 21
3342.852281190481
 31
0.0
  0
LINE
  5
17F5
330
1F
100
AcDbEntity
  8
SANINDUSA
100
AcDbLine
 10
5037.009080328133
 20
3342.744529785942
 30
0.0
 11
5037.009080328133
 21
3342.84313122955
 31
0.0
  0
ARC
  5
17F6
330
1F
100
AcDbEntity
  8
SANINDUSA
100
AcDbCircle
 10
5037.002298087873
 20
3342.852061959874
 30
0.0
 40
0.0032252193414122
100
AcDbArc
 50
86.50785084305779
 51
176.1023793323461
  0
ARC
  5
17F7
330
1F
100
AcDbEntity
  8
SANINDUSA
100
AcDbCircle
 10
5037.002530152504
 20
3342.836196818188
 30
0.0
 40
0.0190844054662267
100
AcDbArc
 50
64.25552900701811
 51
90.10683088645953
  0
LINE
  5
17F8
330
1F
100
AcDbEntity
  8
SANINDUSA
100
AcDbLine
 10
5037.026536172256
 20
3342.849529785942
 30
0.0
 11
5037.124036172257
 21
3342.849529785942
 31
0.0
  0
LINE
  5
17F9
330
1F
100
AcDbEntity
  8
SANINDUSA
100
AcDbLine
 10
5037.026536172256
 20
3342.839529785942
 30
0.0
 11
5037.044757945841
 21
3342.839529785942
 31
0.0
  0
LINE
  5
17FD
330
1F
100
AcDbEntity
  8
SANINDUSA
100
AcDbLine
 10
5037.242036172257
 20
3342.699529785942
 30
0.0
 11
5037.289036172257
 21
3342.699529785942
 31
0.0
  0
LINE
  5
1805
330
1F
100
AcDbEntity
  8
SANINDUSA
100
AcDbLine
 10
5037.05151675784
 20
3342.734529785942
 30
0.0
 11
5037.044196278835
 21
3342.734529785942
 31
0.0
  0
LINE
  5
1807
330
1F
100
AcDbEntity
  8
SANINDUSA
100
AcDbLine
 10
5037.567153528372
 20
3342.799529785942
 30
0.0
 11
5037.544536172257
 21
3342.799529785942
 31
0.0
  0
LINE
  5
1810
330
1F
100
AcDbEntity
  8
SANINDUSA
100
AcDbLine
 10
5037.544536172257
 20
3342.849529785942
 30
0.0
 11
5037.566946603912
 21
3342.849529785942
 31
0.0
  0
LINE
  5
1811
330
1F
100
AcDbEntity
  8
SANINDUSA
100
AcDbLine
 10
5037.159036172257
 20
3342.839529785942
 30
0.0
 11
5037.124036172257
 21
3342.839529785942
 31
0.0
  0
LINE
  5
1812
330
1F
100
AcDbEntity
  8
SANINDUSA
100
AcDbLine
 10
5037.159036172257
 20
3342.849529785942
 30
0.0
 11
5037.124036172257
 21
3342.849529785942
 31
0.0
  0
ELLIPSE
  5
1817
330
1F
100
AcDbEntity
  8
SANINDUSA
100
AcDbEllipse
 10
5037.123372241143
 20
3342.790281190481
 30
0.0
 11
0.0004929551961555
 21
0.0099939378135989
 31
0.0
210
0.0
220
0.0
230
1.0
 40
0.7062465880442353
 41
0.0348218293662917
 42
3.176414482956048
  0
LINE
  5
1818
330
1F
100
AcDbEntity
  8
SANINDUSA
100
AcDbLine
 10
5037.130196381827
 20
3342.780281190481
 30
0.0
 11
5037.123125314015
 21
3342.780281190481
 31
0.0
  0
ELLIPSE
  5
1819
330
1F
100
AcDbEntity
  8
SANINDUSA
100
AcDbEllipse
 10
5037.130443308956
 20
3342.790281190481
 30
0.0
 11
0.0004929551961555
 21
0.0099939378135989
 31
0.0
210
0.0
220
0.0
230
1.0
 40
0.7062465880442353
 41
3.176414482956104
 42
6.318007136545896
  0
LINE
  5
181A
330
1F
100
AcDbEntity
  8
SANINDUSA
100
AcDbLine
 10
5037.123619168273
 20
3342.800281190481
 30
0.0
 11
5037.130690236085
 21
3342.800281190481
 31
0.0
  0
LINE
  5
181C
330
1F
100
AcDbEntity
  8
SANINDUSA
100
AcDbLine
 10
5037.149852003227
 20
3342.734529785942
 30
0.0
 11
5037.05151675784
 21
3342.734529785942
 31
0.0
  0
LINE
  5
181E
330
1F
100
AcDbEntity
  8
SANINDUSA
100
AcDbLine
 10
5037.184861651237
 20
3342.734529785942
 30
0.0
 11
5037.163792027502
 21
3342.734529785942
 31
0.0
  0
LINE
  5
1825
330
1F
100
AcDbEntity
  8
SANINDUSA
100
AcDbLine
 10
5037.163792027502
 20
3342.734529785942
 30
0.0
 11
5037.149852003227
 21
3342.734529785942
 31
0.0
  0
LINE
  5
1829
330
1F
100
AcDbEntity
  8
SANINDUSA
100
AcDbLine
 10
5037.540038843489
 20
3342.849529785942
 30
0.0
 11
5037.379971853731
 21
3342.849529785942
 31
0.0
  0
LINE
  5
183D
330
1F
100
AcDbEntity
  8
SANINDUSA
100
AcDbLine
 10
5037.539364616131
 20
3342.799529785942
 30
0.0
 11
5037.476238173205
 21
3342.799529785942
 31
0.0
  0
ARC
  5
1841
330
1F
100
AcDbEntity
  8
SANINDUSA
100
AcDbCircle
 10
5037.540210368988
 20
3342.762528997555
 30
0.0
 40
0.0870009574721205
100
AcDbArc
 50
90.1129607778113
 51
138.5163427877749
  0
ARC
  5
1C29
330
1F
100
AcDbEntity
  8
SANINDUSA
100
AcDbCircle
 10
5035.802941392579
 20
3343.887731519276
 30
0.0
 40
1.150313125885491
100
AcDbArc
 50
265.8404830461056
 51
269.4182099633418
  0
LINE
  5
1C2A
330
1F
100
AcDbEntity
  8
SANINDUSA
100
AcDbLine
 10
5035.432453306519
 20
3342.855205902323
 30
0.0
 11
5036.02445331394
 21
3342.85520590223
 31
0.0
  0
ARC
  5
1C2B
330
1F
100
AcDbEntity
  8
SANINDUSA
100
AcDbCircle
 10
5035.885891974481
 20
3342.727567742389
 30
0.0
 40
0.0099049233373872
100
AcDbArc
 50
90.7467984647892
 51
146.4822006258117
  0
LINE
  5
1C2C
330
1F
100
AcDbEntity
  8
SANINDUSA
100
AcDbLine
 10
5035.87419941441
 20
3342.707965573162
 30
0.0
 11
5035.873454785814
 21
3342.699454497784
 31
0.0
  0
LINE
  5
1C2D
330
1F
100
AcDbEntity
  8
SANINDUSA
100
AcDbLine
 10
5035.803454785815
 20
3342.699454497784
 30
0.0
 11
5035.800927750476
 21
3342.728338641911
 31
0.0
  0
ARC
  5
1C2E
330
1F
100
AcDbEntity
  8
SANINDUSA
100
AcDbCircle
 10
5035.791045977216
 20
3342.727551156801
 30
0.0
 40
0.009926347584563
100
AcDbArc
 50
4.5786046304912
 51
87.93242788642416
  0
ARC
  5
1C2F
330
1F
100
AcDbEntity
  8
SANINDUSA
100
AcDbCircle
 10
5035.877098921845
 20
3342.703883252372
 30
0.0
 40
0.003566034286513
100
AcDbArc
 50
85.99435446914212
 51
150.4739210151204
  0
LWPOLYLINE
  5
1C30
330
1F
100
AcDbEntity
  8
SANINDUSA
100
AcDbPolyline
 90
       17
 70
   128
 43
0.0
 10
5035.912740842374
 20
3342.738864106923
 10
5035.912079484565
 20
3342.735742224246
 10
5035.911121844947
 20
3342.732369234652
 10
5035.909945600161
 20
3342.72911114791
 10
5035.908557683366
 20
3342.725993534415
 10
5035.906966460711
 20
3342.723041539878
 10
5035.905181963145
 20
3342.720280086487
 10
5035.903216487011
 20
3342.71773388037
 10
5035.901084615121
 20
3342.71542656967
 10
5035.898803722509
 20
3342.71338053593
 10
5035.8963942504
 20
3342.711616000026
 10
5035.893879453316
 20
3342.710150008887
 10
5035.891284661514
 20
3342.708995347708
 10
5035.888635869063
 20
3342.708159958809
 10
5035.885958511585
 20
3342.707647075742
 10
5035.883433873213
 20
3342.707458397239
 10
5035.883014901927
 20
3342.707454493135
  0
LWPOLYLINE
  5
1C31
330
1F
100
AcDbEntity
  8
SANINDUSA
100
AcDbPolyline
 90
       16
 70
   128
 43
0.0
 10
5035.407489343071
 20
3342.827802285417
 10
5035.407482683869
 20
3342.828706215933
 10
5035.407770799725
 20
3342.831635441497
 10
5035.408367177631
 20
3342.834560428612
 10
5035.409271290752
 20
3342.837432251177
 10
5035.410468851306
 20
3342.840201990544
 10
5035.411960006806
 20
3342.842866228294
 10
5035.413722672304
 20
3342.845366068516
 10
5035.415731749353
 20
3342.847659493662
 10
5035.417955733182
 20
3342.849707816855
 10
5035.420347145366
 20
3342.851463523326
 10
5035.422862658946
 20
3342.852899469068
 10
5035.425184423463
 20
3342.853897038247
 10
5035.427773778322
 20
3342.854664968658
 10
5035.43037938079
 20
3342.855098525394
 10
5035.432453659014
 20
3342.855178778391
  0
LWPOLYLINE
  5
1C32
330
1F
100
AcDbEntity
  8
SANINDUSA
100
AcDbPolyline
 90
       12
 70
   128
 43
0.0
 10
5035.764701738659
 20
3342.799454497039
 10
5035.766503711362
 20
3342.79988299483
 10
5035.768277024208
 20
3342.801236385345
 10
5035.770001409832
 20
3342.803691459685
 10
5035.770857770573
 20
3342.805485555768
 10
5035.771654187959
 20
3342.807649986684
 10
5035.772402995212
 20
3342.81033734405
 10
5035.773038174561
 20
3342.81348171258
 10
5035.773391992086
 20
3342.815928054839
 10
5035.773657422399
 20
3342.818568499624
 10
5035.773813829355
 20
3342.82120753625
 10
5035.773868082886
 20
3342.823954498261
  0
LINE
  5
1C33
330
1F
100
AcDbEntity
  8
SANINDUSA
100
AcDbLine
 10
5036.007453306519
 20
3342.799454497784
 30
0.0
 11
5035.764701730284
 21
3342.799454497784
 31
0.0
  0
LINE
  5
1C34
330
1F
100
AcDbEntity
  8
SANINDUSA
100
AcDbLine
 10
5035.82730017467
 20
3342.849454497784
 30
0.0
 11
5036.007453306519
 21
3342.849454497784
 31
0.0
  0
ARC
  5
1C35
330
1F
100
AcDbEntity
  8
SANINDUSA
100
AcDbCircle
 10
5036.007453306519
 20
3342.874454497784
 30
0.0
 40
0.0250000000000005
100
AcDbArc
 50
270.0
 51
307.3831984131807
  0
LINE
  5
1C36
330
1F
100
AcDbEntity
  8
SANINDUSA
100
AcDbLine
 10
5036.024453306519
 20
3342.799454497784
 30
0.0
 11
5036.007453306519
 21
3342.799454497784
 31
0.0
  0
LWPOLYLINE
  5
1C37
330
1F
100
AcDbEntity
  8
SANINDUSA
100
AcDbPolyline
 90
       11
 70
   128
 43
0.0
 10
5036.027453300276
 20
3342.827433226496
 10
5036.027453300276
 20
3342.831271100655
 10
5036.027453310812
 20
3342.835022321768
 10
5036.027453310812
 20
3342.838963579252
 10
5036.027453300276
 20
3342.842602399044
 10
5036.027453300276
 20
3342.845393870823
 10
5036.027453310812
 20
3342.847825872111
 10
5036.027453300276
 20
3342.849633652131
 10
5036.027453300276
 20
3342.851017729245
 10
5036.027453310812
 20
3342.851898389966
 10
5036.027453310812
 20
3342.852205902436
  0
ARC
  5
1C38
330
1F
100
AcDbEntity
  8
SANINDUSA
100
AcDbCircle
 10
5036.024453306519
 20
3342.852205902322
 30
0.0
 40
0.003
100
AcDbArc
 50
0.0000000000000064
 51
127.3831984131807
  0
ARC
  5
1C39
330
1F
100
AcDbEntity
  8
SANINDUSA
100
AcDbCircle
 10
5036.024453306519
 20
3342.802454497784
 30
0.0
 40
0.0030000000000001
100
AcDbArc
 50
270.0
 51
0.0000000000000064
  0
LWPOLYLINE
  5
1C3A
330
1F
100
AcDbEntity
  8
SANINDUSA
100
AcDbPolyline
 90
       13
 70
   128
 43
0.0
 10
5036.027453300276
 20
3342.802454499393
 10
5036.027453300276
 20
3342.802638431876
 10
5036.027453300276
 20
3342.803187092632
 10
5036.027453300276
 20
3342.804091086477
 10
5036.027453310812
 20
3342.805334953457
 10
5036.027453300276
 20
3342.806897399813
 10
5036.027453300276
 20
3342.808751700311
 10
5036.027453310812
 20
3342.810866126657
 10
5036.027453300276
 20
3342.813204498827
 10
5036.027453310812
 20
3342.815726803481
 10
5036.027453300276
 20
3342.818389888718
 10
5036.027453300276
 20
3342.821148184925
 10
5036.027453300276
 20
3342.823954498261
  0
LINE
  5
1C3B
330
1F
100
AcDbEntity
  8
SANINDUSA
100
AcDbLine
 10
5036.027453306519
 20
3342.823954497784
 30
0.0
 11
5036.027453306519
 21
3342.827433226002
 31
0.0
  0
ARC
  5
1C3C
330
1F
100
AcDbEntity
  8
SANINDUSA
100
AcDbCircle
 10
5035.728037423542
 20
3342.826487440114
 30
0.0
 40
0.0458802161711566
100
AcDbArc
 50
357.3367266293011
 51
20.50008270212785
  0
LINE
  5
1C3D
330
1F
100
AcDbEntity
  8
SANINDUSA
100
AcDbLine
 10
5035.773868082164
 20
3342.823954497784
 30
0.0
 11
5035.773868082164
 21
3342.824355562481
 31
0.0
  0
LWPOLYLINE
  5
1C3E
330
1F
100
AcDbEntity
  8
SANINDUSA
100
AcDbPolyline
 90
        6
 70
   128
 43
0.0
 10
5035.771012122869
 20
3342.842555092513
 10
5035.770218097316
 20
3342.84434705121
 10
5035.769370492582
 20
3342.845855358854
 10
5035.767481607809
 20
3342.84811498188
 10
5035.76588655506
 20
3342.84911924756
 10
5035.76421667058
 20
3342.849454497784
  0
LINE
  5
1C3F
330
1F
100
AcDbEntity
  8
SANINDUSA
100
AcDbLine
 10
5035.764216687742
 20
3342.849454497784
 30
0.0
 11
5035.777896568632
 21
3342.849454497784
 31
0.0
  0
LINE
  5
1C40
330
1F
100
AcDbEntity
  8
SANINDUSA
100
AcDbLine
 10
5035.485656485683
 20
3342.799454497784
 30
0.0
 11
5035.764701730284
 21
3342.799454497784
 31
0.0
  0
LINE
  5
1C41
330
1F
100
AcDbEntity
  8
SANINDUSA
100
AcDbLine
 10
5035.764216687742
 20
3342.849454497784
 30
0.0
 11
5035.486434163602
 21
3342.849454497784
 31
0.0
  0
LWPOLYLINE
  5
1C42
330
1F
100
AcDbEntity
  8
SANINDUSA
100
AcDbPolyline
 90
        9
 70
   128
 43
0.0
 10
5036.027453313447
 20
3342.800316845864
 10
5036.027453305544
 20
3342.800799706817
 10
5036.027453313447
 20
3342.80122707957
 10
5036.027453313447
 20
3342.801595227658
 10
5036.027453300276
 20
3342.801900932431
 10
5036.027453300276
 20
3342.802141519129
 10
5036.027453316081
 20
3342.802314886688
 10
5036.027453305544
 20
3342.802419518918
 10
5036.027453295008
 20
3342.802454499393
  0
LINE
  5
1C43
330
1F
100
AcDbEntity
  8
SANINDUSA
100
AcDbLine
 10
5035.995183447176
 20
3342.799454497039
 30
0.0
 11
5035.997284796258
 21
3342.739280000301
 31
0.0
  0
LINE
  5
1C44
330
1F
100
AcDbEntity
  8
SANINDUSA
100
AcDbLine
 10
5036.027453306519
 20
3342.7379889108
 30
0.0
 11
5036.027453306519
 21
3342.800316845717
 31
0.0
  0
LWPOLYLINE
  5
1C45
330
1F
100
AcDbEntity
  8
SANINDUSA
100
AcDbPolyline
 90
       17
 70
   128
 43
0.0
 10
5035.885751812902
 20
3342.737473493308
 10
5035.885890412814
 20
3342.737474208564
 10
5035.885801261692
 20
3342.73747429797
 10
5035.885253689837
 20
3342.737474841862
 10
5035.883299509059
 20
3342.737474514037
 10
5035.880064053549
 20
3342.737473694473
 10
5035.875655756613
 20
3342.737472584337
 10
5035.870183388729
 20
3342.7374714742
 10
5035.863815537291
 20
3342.737470811098
 10
5035.856723423872
 20
3342.737471146374
 10
5035.849115801812
 20
3342.737472919612
 10
5035.841207957213
 20
3342.737476331978
 10
5035.833224353654
 20
3342.737479975312
 10
5035.825388179772
 20
3342.737481569737
 10
5035.817918472736
 20
3342.737479386717
 10
5035.811037852203
 20
3342.737475184589
 10
5035.804931153176
 20
3342.737473217636
  0
LINE
  5
1C46
330
1F
100
AcDbEntity
  8
SANINDUSA
100
AcDbLine
 10
5036.002281750393
 20
3342.734454497784
 30
0.0
 11
5036.024453306519
 21
3342.734454497784
 31
0.0
  0
ARC
  5
1C47
330
1F
100
AcDbEntity
  8
SANINDUSA
100
AcDbCircle
 10
5036.002281750393
 20
3342.739454497784
 30
0.0
 40
0.0050000000000001
100
AcDbArc
 50
182.000000003753
 51
270.0
  0
ARC
  5
1C48
330
1F
100
AcDbEntity
  8
SANINDUSA
100
AcDbCircle
 10
5036.024453306519
 20
3342.737454497784
 30
0.0
 40
0.0030000000000001
100
AcDbArc
 50
270.0
 51
0.0000000000000064
  0
LINE
  5
1C49
330
1F
100
AcDbEntity
  8
SANINDUSA
100
AcDbLine
 10
5035.997453297312
 20
3342.734454495698
 30
0.0
 11
5036.002281750393
 21
3342.734454497784
 31
0.0
  0
ARC
  5
1C4A
330
1F
100
AcDbEntity
  8
SANINDUSA
100
AcDbCircle
 10
5035.79928684784
 20
3346.4473475594
 30
0.0
 40
3.709878635430152
100
AcDbArc
 50
269.8734121124537
 51
270.0871709795003
  0
LWPOLYLINE
  5
1C4B
330
1F
100
AcDbEntity
  8
SANINDUSA
100
AcDbPolyline
 90
       11
 70
   128
 43
0.0
 10
5035.454788917767
 20
3342.823954498261
 10
5035.455002349408
 20
3342.821048565074
 10
5035.455652295958
 20
3342.818142631888
 10
5035.456614339922
 20
3342.815574703604
 10
5035.457913727262
 20
3342.813116902351
 10
5035.460177392349
 20
3342.810015017033
 10
5035.462948168317
 20
3342.807249473273
 10
5035.467543860678
 20
3342.804023133457
 10
5035.472790300381
 20
3342.801624709606
 10
5035.479052500207
 20
3342.800001809239
 10
5035.4856564899
 20
3342.799454497039
  0
ARC
  5
1C4C
330
1F
100
AcDbEntity
  8
SANINDUSA
100
AcDbCircle
 10
5035.485775938774
 20
3342.813087523897
 30
0.0
 40
0.036372929775271
100
AcDbArc
 50
88.96312197052198
 51
125.8893043022295
  0
ARC
  5
1C4D
330
1F
100
AcDbEntity
  8
SANINDUSA
100
AcDbCircle
 10
5035.431953306519
 20
3342.823954497784
 30
0.0
 40
0.0245000000000002
100
AcDbArc
 50
180.0
 51
270.0
  0
LINE
  5
1C4E
330
1F
100
AcDbEntity
  8
SANINDUSA
100
AcDbLine
 10
5035.485656485683
 20
3342.799454497784
 30
0.0
 11
5035.431953306519
 21
3342.799454497784
 31
0.0
  0
SPLINE
  5
1C4F
330
1F
100
AcDbEntity
  8
SANINDUSA
100
AcDbSpline
210
0.0
220
0.0
230
1.0
 70
    28
 71
     3
 72
    13
 73
     9
 74
     0
 42
0.0000000001
 43
0.0000000001
 40
0.0
 40
0.0
 40
0.0
 40
0.0
 40
0.0778340582400604
 40
0.2968583939260554
 40
0.5182034239649227
 40
0.7423941224373382
 40
0.9699363090354836
 40
1.0
 40
1.0
 40
1.0
 40
1.0
 10
5035.778246560926
 20
3342.849454497784
 30
0.0
 41
1.0
 10
5035.779556794405
 20
3342.849454497784
 30
0.0
 41
1.0
 10
5035.784554013037
 20
3342.849454497784
 30
0.0
 41
1.0
 10
5035.793080602052
 20
3342.849454497784
 30
0.0
 41
1.0
 10
5035.803852064409
 20
3342.849454497784
 30
0.0
 41
1.0
 10
5035.814470640972
 20
3342.849454497784
 30
0.0
 41
1.0
 10
5035.821985021493
 20
3342.849454497784
 30
0.0
 41
1.0
 10
5035.825834639082
 20
3342.849454497784
 30
0.0
 41
1.0
 10
5035.82628390567
 20
3342.849454497784
 30
0.0
 41
1.0
  0
LINE
  5
1C50
330
1F
100
AcDbEntity
  8
SANINDUSA
100
AcDbLine
 10
5035.480263867995
 20
3342.849454497784
 30
0.0
 11
5035.486434163602
 21
3342.849454497784
 31
0.0
  0
ARC
  5
1C51
330
1F
100
AcDbEntity
  8
SANINDUSA
100
AcDbCircle
 10
5035.477278917681
 20
3342.824078570704
 30
0.0
 40
0.0224917056015873
100
AcDbArc
 50
124.7666184383234
 51
179.2943669304907
  0
LWPOLYLINE
  5
1C52
330
1F
100
AcDbEntity
  8
SANINDUSA
100
AcDbPolyline
 90
        3
 70
   128
 43
0.0
 10
5035.877648954836
 20
3342.733026442914
 10
5035.876566982015
 20
3342.730961819976
 10
5035.875973248822
 20
3342.728346107393
  0
LINE
  5
1C53
330
1F
100
AcDbEntity
  8
SANINDUSA
100
AcDbLine
 10
5035.454788902958
 20
3342.824355562481
 30
0.0
 11
5035.454788902958
 21
3342.823954497784
 31
0.0
  0
LWPOLYLINE
  5
1C54
330
1F
100
AcDbEntity
  8
SANINDUSA
100
AcDbPolyline
 90
        3
 70
   128
 43
0.0
 10
5035.875973248822
 20
3342.728346107393
 10
5035.875092716864
 20
3342.718390798062
 10
5035.874573583594
 20
3342.71254128763
  0
LINE
  5
1C55
330
1F
100
AcDbEntity
  8
SANINDUSA
100
AcDbLine
 10
5035.813706048474
 20
3342.699454497784
 30
0.0
 11
5035.803454785815
 21
3342.699454497784
 31
0.0
  0
LINE
  5
1C56
330
1F
100
AcDbEntity
  8
SANINDUSA
100
AcDbLine
 10
5035.873454785814
 20
3342.699454497784
 30
0.0
 11
5035.813706048474
 21
3342.699454497784
 31
0.0
  0
LINE
  5
1C57
330
1F
100
AcDbEntity
  8
SANINDUSA
100
AcDbLine
 10
5035.461403996396
 20
3342.849454497784
 30
0.0
 11
5035.480263867995
 21
3342.849454497784
 31
0.0
  0
LINE
  5
1C58
330
1F
100
AcDbEntity
  8
SANINDUSA
100
AcDbLine
 10
5035.641562402988
 20
3342.734454495698
 30
0.0
 11
5035.798175982737
 21
3342.734454495698
 31
0.0
  0
ARC
  5
1C59
330
1F
100
AcDbEntity
  8
SANINDUSA
100
AcDbCircle
 10
5035.432453306519
 20
3342.824454497784
 30
0.0
 40
0.0250000000000003
100
AcDbArc
 50
90.0
 51
180.0
  0
LINE
  5
1C5A
330
1F
100
AcDbEntity
  8
SANINDUSA
100
AcDbLine
 10
5035.432453306519
 20
3342.849454497784
 30
0.0
 11
5035.461403996396
 21
3342.849454497784
 31
0.0
  0
LINE
  5
1C5B
330
1F
100
AcDbEntity
  8
SANINDUSA
100
AcDbLine
 10
5035.407453306518
 20
3342.824454497784
 30
0.0
 11
5035.407453306518
 21
3342.823954497784
 31
0.0
  0
LINE
  5
1C5C
330
1F
100
AcDbEntity
  8
SANINDUSA
100
AcDbLine
 10
5035.877372977272
 20
3342.707454493135
 30
0.0
 11
5035.883014899071
 21
3342.707454497784
 31
0.0
  0
LINE
  5
1C5D
330
1F
100
AcDbEntity
  8
SANINDUSA
100
AcDbLine
 10
5035.911713881727
 20
3342.734454495698
 30
0.0
 11
5035.977296979718
 21
3342.734454497784
 31
0.0
  0
LINE
  5
1C5E
330
1F
100
AcDbEntity
  8
SANINDUSA
100
AcDbLine
 10
5035.528892110795
 20
3342.798118465243
 30
0.0
 11
5035.596014502242
 21
3342.735790530325
 31
0.0
  0
LINE
  5
1C5F
330
1F
100
AcDbEntity
  8
SANINDUSA
100
AcDbLine
 10
5035.977296979718
 20
3342.734454497784
 30
0.0
 11
5035.997469920292
 21
3342.734454495698
 31
0.0
  0
LINE
  5
1C60
330
1F
100
AcDbEntity
  8
SANINDUSA
100
AcDbLine
 10
5035.59941675774
 20
3342.734454497784
 30
0.0
 11
5035.626676671005
 21
3342.734454497784
 31
0.0
  0
LINE
  5
1C61
330
1F
100
AcDbEntity
  8
SANINDUSA
100
AcDbLine
 10
5035.626676671005
 20
3342.734454497784
 30
0.0
 11
5035.641562402988
 21
3342.734454495698
 31
0.0
  0
ARC
  5
1C62
330
1F
100
AcDbEntity
  8
SANINDUSA
100
AcDbCircle
 10
5035.525489855298
 20
3342.794454497784
 30
0.0
 40
0.005
100
AcDbArc
 50
47.12109639942446
 51
90.0
  0
LWPOLYLINE
  5
1C63
330
1F
100
AcDbEntity
  8
SANINDUSA
100
AcDbPolyline
 90
        9
 70
   128
 43
0.0
 10
5035.407453286442
 20
3342.824454497411
 10
5035.407453307516
 20
3342.824501503125
 10
5035.407453307516
 20
3342.824642428994
 10
5035.407453307516
 20
3342.824877012386
 10
5035.407453286442
 20
3342.825204809993
 10
5035.407453307516
 20
3342.825625207141
 10
5035.407453307516
 20
3342.826137412205
 10
5035.407453328588
 20
3342.826740464061
 10
5035.407453328588
 20
3342.827433226496
  0
ARC
  5
1C64
330
1F
100
AcDbEntity
  8
SANINDUSA
100
AcDbCircle
 10
5035.59941675774
 20
3342.739454497784
 30
0.0
 40
0.0050000000000001
100
AcDbArc
 50
227.1210963994245
 51
270.0
  0
SPLINE
  5
1C65
330
1F
100
AcDbEntity
  8
SANINDUSA
100
AcDbSpline
210
0.0
220
0.0
230
1.0
 70
    28
 71
     1
 72
     4
 73
     2
 74
     0
 42
0.0000000001
 43
0.0000000001
 40
0.0
 40
0.0
 40
1.0
 40
1.0
 10
5035.584220351184
 20
3342.796214612067
 30
0.0
 41
1.0
 10
5035.580141948167
 20
3342.799454497039
 30
0.0
 41
1.0
  0
SPLINE
  5
1C66
330
1F
100
AcDbEntity
  8
SANINDUSA
100
AcDbSpline
210
0.0
220
0.0
230
1.0
 70
    12
 71
     3
 72
    25
 73
    21
 74
     0
 42
0.0000000001
 43
0.0000000001
 40
0.0
 40
0.0
 40
0.0
 40
0.0
 40
0.0043307912470598
 40
0.0776599362697987
 40
0.1521242686883719
 40
0.2277984949152442
 40
0.3032179142619931
 40
0.376871968113218
 40
0.4509326563759369
 40
0.4837731208399248
 40
0.5247084098362702
 40
0.5658786732459271
 40
0.6073567600892477
 40
0.6489219822664248
 40
0.6902855816773191
 40
0.7311781871309922
 40
0.8012819526307135
 40
0.8694952789133189
 40
0.9357632722952747
 40
1.0
 40
1.0
 40
1.0
 40
1.0
 10
5035.718838797246
 20
3342.740493839472
 30
0.0
 41
1.0
 10
5035.718593846667
 20
3342.740507430602
 30
0.0
 41
1.0
 10
5035.714201382262
 20
3342.740751147323
 30
0.0
 41
1.0
 10
5035.705955818594
 20
3342.741362248702
 30
0.0
 41
1.0
 10
5035.694181957049
 20
3342.742403553553
 30
0.0
 41
1.0
 10
5035.682946033432
 20
3342.743826279935
 30
0.0
 41
1.0
 10
5035.672292237398
 20
3342.745715204924
 30
0.0
 41
1.0
 10
5035.662254596449
 20
3342.748179410646
 30
0.0
 41
1.0
 10
5035.654412252839
 20
3342.750758980382
 30
0.0
 41
1.0
 10
5035.648156719267
 20
3342.753240236408
 30
0.0
 41
1.0
 10
5035.643227492506
 20
3342.755363299317
 30
0.0
 41
1.0
 10
5035.638080237511
 20
3342.757886113452
 30
0.0
 41
1.0
 10
5035.63298706318
 20
3342.760660589057
 30
0.0
 41
1.0
 10
5035.627881557168
 20
3342.76366733266
 30
0.0
 41
1.0
 10
5035.62281268339
 20
3342.76687741277
 30
0.0
 41
1.0
 10
5035.616580912478
 20
3342.771075283138
 30
0.0
 41
1.0
 10
5035.609249876713
 20
3342.776382527484
 30
0.0
 41
1.0
 10
5035.600825865736
 20
3342.782877064009
 30
0.0
 41
1.0
 10
5035.592556096192
 20
3342.789496970206
 30
0.0
 41
1.0
 10
5035.586969950642
 20
3342.793998754407
 30
0.0
 41
1.0
 10
5035.584220351184
 20
3342.796214612067
 30
0.0
 41
1.0
  0
ARC
  5
1C67
330
1F
100
AcDbEntity
  8
SANINDUSA
100
AcDbCircle
 10
5036.403388404846
 20
3342.666068986422
 30
0.0
 40
0.5308528891849003
100
AcDbArc
 50
174.9777432622694
 51
175.4732526300204
  0
ENDSEC
  0
SECTION
  2
OBJECTS
  0
DICTIONARY
  5
C
330
0
100
AcDbDictionary
281
     1
  3
ACAD_2007HEADERVARS_RT
350
1CF4
  3
ACAD_BACKGROUND
350
1CA7
  3
ACAD_COLOR
350
EE6
  3
ACAD_GROUP
350
D
  3
ACAD_LAYOUT
350
1A
  3
ACAD_MATERIAL
350
EE5
  3
ACAD_MLEADERSTYLE
350
10A8
  3
ACAD_MLINESTYLE
350
17
  3
ACAD_PLOTSETTINGS
350
19
  3
ACAD_PLOTSTYLENAME
350
E
  3
ACAD_SCALELIST
350
1096
  3
ACAD_TABLESTYLE
350
EE7
  3
ACAD_VISUALSTYLE
350
1082
  3
ACDB_RECOMPOSE_DATA
350
1CF2
  3
AcDbVariableDictionary
350
3D
  3
AEC_PROPERTY_SET_DEFS
350
1581
  3
ASE_INDEX_DICTIONARY
350
1066
  3
Autodesk_PNP
350
10B2
  3
DWGPROPS
350
1CF3
  0
DICTIONARY
  5
1B9D
330
8
100
AcDbDictionary
280
     1
281
     1
  0
DICTIONARY
  5
1051
330
2
100
AcDbDictionary
280
     1
281
     1
  3
ACAD_LAYERFILTERS
360
1065
  3
ACAD_LAYERSTATES
360
12B8
  3
ACLYDICTIONARY
360
1064
  0
DICTIONARY
  5
1B77
330
10
100
AcDbDictionary
280
     1
281
     1
  3
ADSK_XREC_LAYER_RECONCILED
360
1B78
  0
DICTIONARY
  5
1B79
330
2F
100
AcDbDictionary
280
     1
281
     1
  3
ADSK_XREC_LAYER_RECONCILED
360
1B7A
  0
DICTIONARY
  5
1B7B
330
30
100
AcDbDictionary
280
     1
281
     1
  3
ADSK_XREC_LAYER_RECONCILED
360
1B7C
  0
DICTIONARY
  5
1B7D
330
31
100
AcDbDictionary
280
     1
281
     1
  3
ADSK_XREC_LAYER_RECONCILED
360
1B7E
  0
DICTIONARY
  5
1B7F
330
32
100
AcDbDictionary
280
     1
281
     1
  3
ADSK_XREC_LAYER_RECONCILED
360
1B80
  0
DICTIONARY
  5
1B81
330
33
100
AcDbDictionary
280
     1
281
     1
  3
ADSK_XREC_LAYER_RECONCILED
360
1B82
  0
DICTIONARY
  5
1B83
330
34
100
AcDbDictionary
280
     1
281
     1
  3
ADSK_XREC_LAYER_RECONCILED
360
1B84
  0
DICTIONARY
  5
1B85
330
35
100
AcDbDictionary
280
     1
281
     1
  3
ADSK_XREC_LAYER_RECONCILED
360
1B86
  0
DICTIONARY
  5
1B87
330
36
100
AcDbDictionary
280
     1
281
     1
  3
ADSK_XREC_LAYER_RECONCILED
360
1B88
  0
DICTIONARY
  5
1B89
330
37
100
AcDbDictionary
280
     1
281
     1
  3
ADSK_XREC_LAYER_RECONCILED
360
1B8A
  0
DICTIONARY
  5
1B8B
330
5D6
100
AcDbDictionary
280
     1
281
     1
  3
ADSK_XREC_LAYER_RECONCILED
360
1B8C
  0
DICTIONARY
  5
1B8D
330
8AF
100
AcDbDictionary
280
     1
281
     1
  3
ADSK_XREC_LAYER_RECONCILED
360
1B8E
  0
DICTIONARY
  5
1B8F
330
8F8
100
AcDbDictionary
280
     1
281
     1
  3
ADSK_XREC_LAYER_RECONCILED
360
1B90
  0
DICTIONARY
  5
1B91
330
91D
100
AcDbDictionary
280
     1
281
     1
  3
ADSK_XREC_LAYER_RECONCILED
360
1B92
  0
DICTIONARY
  5
1B93
330
C7B
100
AcDbDictionary
280
     1
281
     1
  3
ADSK_XREC_LAYER_RECONCILED
360
1B94
  0
DICTIONARY
  5
1B95
330
1060
100
AcDbDictionary
280
     1
281
     1
  3
ADSK_XREC_LAYER_RECONCILED
360
1B96
  0
DICTIONARY
  5
1CF4
102
{ACAD_REACTORS
330
C
102
}
330
C
100
AcDbDictionary
281
     1
  3
DIMJOGANG
350
1CF5
  0
DICTIONARY
  5
1CA7
102
{ACAD_REACTORS
330
C
102
}
330
C
100
AcDbDictionary
281
     1
  0
DICTIONARY
  5
EE6
102
{ACAD_REACTORS
330
C
102
}
330
C
100
AcDbDictionary
281
     1
  0
DICTIONARY
  5
D
102
{ACAD_REACTORS
330
C
102
}
330
C
100
AcDbDictionary
281
     1
  0
DICTIONARY
  5
1A
102
{ACAD_REACTORS
330
C
102
}
330
C
100
AcDbDictionary
281
     1
  3
Layout1
350
1E
  3
Layout2
350
26
  3
Model
350
22
  0
DICTIONARY
  5
EE5
102
{ACAD_REACTORS
330
C
102
}
330
C
100
AcDbDictionary
281
     1
  3
ByBlock
350
1072
  3
ByLayer
350
106A
  3
Global
350
107A
  0
DICTIONARY
  5
10A8
102
{ACAD_REACTORS
330
C
102
}
330
C
100
AcDbDictionary
281
     1
  3
Standard
350
10A9
  0
DICTIONARY
  5
17
102
{ACAD_REACTORS
330
C
102
}
330
C
100
AcDbDictionary
281
     1
  3
Standard
350
18
  0
DICTIONARY
  5
19
102
{ACAD_REACTORS
330
C
102
}
330
C
100
AcDbDictionary
281
     1
  0
ACDBDICTIONARYWDFLT
  5
E
102
{ACAD_REACTORS
330
C
102
}
330
C
100
AcDbDictionary
281
     1
  3
Normal
350
F
100
AcDbDictionaryWithDefault
340
F
  0
DICTIONARY
  5
1096
102
{ACAD_REACTORS
330
C
102
}
330
C
100
AcDbDictionary
281
     1
  3
A0
350
1097
  3
A1
350
1098
  3
A2
350
1099
  3
A3
350
109A
  3
A4
350
109B
  3
A5
350
109C
  3
A6
350
109D
  3
A7
350
109E
  3
A8
350
109F
  3
A9
350
10A0
  3
B0
350
10A1
  3
B1
350
10A2
  3
B2
350
10A3
  3
B3
350
10A4
  3
B4
350
10A5
  3
B5
350
10A6
  3
B6
350
10A7
  0
DICTIONARY
  5
EE7
102
{ACAD_REACTORS
330
C
102
}
330
C
100
AcDbDictionary
281
     1
  3
Standard
350
EE8
  0
DICTIONARY
  5
1082
102
{ACAD_REACTORS
330
C
102
}
330
C
100
AcDbDictionary
281
     1
  3
2dWireframe
350
1088
  3
3D Hidden
350
108A
  3
3dWireframe
350
1089
  3
Basic
350
1087
  3
Brighten
350
108E
  3
ColorChange
350
1092
  3
Conceptual
350
108B
  3
Dim
350
108D
  3
EdgeColorOff
350
1095
  3
Facepattern
350
1091
  3
Flat
350
1083
  3
FlatWithEdges
350
1084
  3
Gouraud
350
1085
  3
GouraudWithEdges
350
1086
  3
JitterOff
350
1093
  3
Linepattern
350
1090
  3
OverhangOff
350
1094
  3
Realistic
350
108C
  3
Thicken
350
108F
  0
XRECORD
  5
1CF2
102
{ACAD_REACTORS
330
C
102
}
330
C
100
AcDbXrecord
280
     1
 90
        1
330
EE8
  0
DICTIONARY
  5
3D
102
{ACAD_REACTORS
330
C
102
}
330
C
100
AcDbDictionary
281
     1
  3
CANNOSCALE
350
1BDB
  3
CMLEADERSTYLE
350
1BDA
  3
CTABLESTYLE
350
1049
  3
DIMASSOC
350
3F
  3
HIDETEXT
350
3E
  3
INDEXCTL
350
1BDD
  3
SORTENTS
350
1BDC
  3
XCLIPFRAME
350
1CF0
  0
DICTIONARY
  5
1581
102
{ACAD_REACTORS
330
C
102
}
330
C
100
AcDbDictionary
281
     1
  0
DICTIONARY
  5
1066
102
{ACAD_REACTORS
330
C
102
}
330
C
100
AcDbDictionary
281
     1
  3
ASEBlockHierarchyIndexRecord
350
1067
1001
DCO15
1040
1602247867.484
  0
DICTIONARY
  5
10B2
102
{ACAD_REACTORS
330
C
102
}
330
C
100
AcDbDictionary
281
     1
  0
XRECORD
  5
1CF3
102
{ACAD_REACTORS
330
C
102
}
330
C
100
AcDbXrecord
280
     1
  1
DWGPROPS COOKIE
  2

  3

  4

  6

  7

  8
Julio
  9

300
=
301
=
302
=
303
=
304
=
305
=
306
=
307
=
308
=
309
=
 40
0.0083176041666667
 41
2455755.413476736
 42
2456147.393509653
  1

 90
        0
  0
DICTIONARY
  5
1065
102
{ACAD_REACTORS
330
1051
102
}
330
1051
100
AcDbDictionary
281
     1
  0
DICTIONARY
  5
12B8
102
{ACAD_REACTORS
330
1051
102
}
330
1051
100
AcDbDictionary
281
     1
  0
DICTIONARY
  5
1064
102
{ACAD_REACTORS
330
1051
102
}
330
1051
100
AcDbDictionary
281
     1
1001
ACAD
1000
<All
  0
XRECORD
  5
1B78
102
{ACAD_REACTORS
330
1B77
102
}
330
1B77
100
AcDbXrecord
280
     1
290
     1
  0
XRECORD
  5
1B7A
102
{ACAD_REACTORS
330
1B79
102
}
330
1B79
100
AcDbXrecord
280
     1
290
     1
  0
XRECORD
  5
1B7C
102
{ACAD_REACTORS
330
1B7B
102
}
330
1B7B
100
AcDbXrecord
280
     1
290
     1
  0
XRECORD
  5
1B7E
102
{ACAD_REACTORS
330
1B7D
102
}
330
1B7D
100
AcDbXrecord
280
     1
290
     1
  0
XRECORD
  5
1B80
102
{ACAD_REACTORS
330
1B7F
102
}
330
1B7F
100
AcDbXrecord
280
     1
290
     1
  0
XRECORD
  5
1B82
102
{ACAD_REACTORS
330
1B81
102
}
330
1B81
100
AcDbXrecord
280
     1
290
     1
  0
XRECORD
  5
1B84
102
{ACAD_REACTORS
330
1B83
102
}
330
1B83
100
AcDbXrecord
280
     1
290
     1
  0
XRECORD
  5
1B86
102
{ACAD_REACTORS
330
1B85
102
}
330
1B85
100
AcDbXrecord
280
     1
290
     1
  0
XRECORD
  5
1B88
102
{ACAD_REACTORS
330
1B87
102
}
330
1B87
100
AcDbXrecord
280
     1
290
     1
  0
XRECORD
  5
1B8A
102
{ACAD_REACTORS
330
1B89
102
}
330
1B89
100
AcDbXrecord
280
     1
290
     1
  0
XRECORD
  5
1B8C
102
{ACAD_REACTORS
330
1B8B
102
}
330
1B8B
100
AcDbXrecord
280
     1
290
     1
  0
XRECORD
  5
1B8E
102
{ACAD_REACTORS
330
1B8D
102
}
330
1B8D
100
AcDbXrecord
280
     1
290
     1
  0
XRECORD
  5
1B90
102
{ACAD_REACTORS
330
1B8F
102
}
330
1B8F
100
AcDbXrecord
280
     1
290
     1
  0
XRECORD
  5
1B92
102
{ACAD_REACTORS
330
1B91
102
}
330
1B91
100
AcDbXrecord
280
     1
290
     1
  0
XRECORD
  5
1B94
102
{ACAD_REACTORS
330
1B93
102
}
330
1B93
100
AcDbXrecord
280
     1
290
     1
  0
XRECORD
  5
1B96
102
{ACAD_REACTORS
330
1B95
102
}
330
1B95
100
AcDbXrecord
280
     1
290
     1
  0
XRECORD
  5
1CF5
102
{ACAD_REACTORS
330
1CF4
102
}
330
1CF4
100
AcDbXrecord
280
     1
 40
1.570796326794896
  0
LAYOUT
  5
1E
102
{ACAD_XDICTIONARY
360
1CF6
102
}
102
{ACAD_REACTORS
330
1A
102
}
330
1A
100
AcDbPlotSettings
  1

  2
Ploter HP500
  4

  6

 40
0.0
 41
0.0
 42
0.0
 43
0.0
 44
0.0
 45
0.0
 46
0.0
 47
0.0
 48
0.0
 49
0.0
140
0.0
141
0.0
142
1.0
143
1.0
 70
   688
 72
     0
 73
     0
 74
     5
  7
sanindusa.ctb
 75
    16
147
1.0
148
0.0
149
0.0
100
AcDbLayout
  1
Layout1
 70
     1
 71
     1
 10
0.0
 20
0.0
 11
420.0
 21
297.0
 12
0.0
 22
0.0
 32
0.0
 14
1.000000000000000E+20
 24
1.000000000000000E+20
 34
1.000000000000000E+20
 15
-1.000000000000000E+20
 25
-1.000000000000000E+20
 35
-1.000000000000000E+20
146
0.0
 13
0.0
 23
0.0
 33
0.0
 16
1.0
 26
0.0
 36
0.0
 17
0.0
 27
1.0
 37
0.0
 76
     0
330
1B
  0
LAYOUT
  5
26
102
{ACAD_XDICTIONARY
360
1CFA
102
}
102
{ACAD_REACTORS
330
1A
102
}
330
1A
100
AcDbPlotSettings
  1

  2
Ploter HP500
  4

  6

 40
0.0
 41
0.0
 42
0.0
 43
0.0
 44
0.0
 45
0.0
 46
0.0
 47
0.0
 48
0.0
 49
0.0
140
0.0
141
0.0
142
1.0
143
1.0
 70
   688
 72
     0
 73
     0
 74
     5
  7
sanindusa.ctb
 75
    16
147
1.0
148
0.0
149
0.0
100
AcDbLayout
  1
Layout2
 70
     1
 71
     2
 10
0.0
 20
0.0
 11
12.0
 21
9.0
 12
0.0
 22
0.0
 32
0.0
 14
0.0
 24
0.0
 34
0.0
 15
0.0
 25
0.0
 35
0.0
146
0.0
 13
0.0
 23
0.0
 33
0.0
 16
1.0
 26
0.0
 36
0.0
 17
0.0
 27
1.0
 37
0.0
 76
     0
330
23
  0
LAYOUT
  5
22
102
{ACAD_XDICTIONARY
360
1CF8
102
}
102
{ACAD_REACTORS
330
1A
102
}
330
1A
100
AcDbPlotSettings
  1

  2
Ploter HP500
  4
User268
  6

 40
4.995333194732666
 41
16.97565841674804
 42
4.995330810546875
 43
16.97567749023437
 44
209.9733276367187
 45
296.9259948730469
 46
0.0
 47
0.0
 48
0.0
 49
0.0
140
0.0
141
0.0
142
1.0
143
1.0
 70
 11952
 72
     1
 73
     1
 74
     0
  7
sanindusa.ctb
 75
     0
147
1.0
148
-427.5957866592534
149
7.362384574453926
100
AcDbLayout
  1
Model
 70
     1
 71
     0
 10
0.0
 20
0.0
 11
12.0
 21
9.0
 12
0.0
 22
0.0
 32
0.0
 14
0.0
 24
0.0
 34
0.0
 15
0.0
 25
0.0
 35
0.0
146
0.0
 13
0.0
 23
0.0
 33
0.0
 16
1.0
 26
0.0
 36
0.0
 17
0.0
 27
1.0
 37
0.0
 76
     0
330
1F
331
1068
  0
MATERIAL
  5
1072
102
{ACAD_XDICTIONARY
360
1073
102
}
102
{ACAD_REACTORS
330
EE5
102
}
330
EE5
100
AcDbMaterial
  1
ByBlock
 72
     0
 43
0.0008202099737533
 43
0.0
 43
0.0
 43
0.0
 43
0.0
 43
0.0008202099737533
 43
0.0
 43
0.0
 43
0.0
 43
0.0
 43
1.0
 43
0.0
 43
0.0
 43
0.0
 43
0.0
 43
1.0
 77
     0
 47
0.0008202099737533
 47
0.0
 47
0.0
 47
0.0
 47
0.0
 47
0.0008202099737533
 47
0.0
 47
0.0
 47
0.0
 47
0.0
 47
1.0
 47
0.0
 47
0.0
 47
0.0
 47
0.0
 47
1.0
171
     0
 49
0.0008202099737533
 49
0.0
 49
0.0
 49
0.0
 49
0.0
 49
0.0008202099737533
 49
0.0
 49
0.0
 49
0.0
 49
0.0
 49
1.0
 49
0.0
 49
0.0
 49
0.0
 49
0.0
 49
1.0
175
     0
142
0.0008202099737533
142
0.0
142
0.0
142
0.0
142
0.0
142
0.0008202099737533
142
0.0
142
0.0
142
0.0
142
0.0
142
1.0
142
0.0
142
0.0
142
0.0
142
0.0
142
1.0
179
     0
144
0.0008202099737533
144
0.0
144
0.0
144
0.0
144
0.0
144
0.0008202099737533
144
0.0
144
0.0
144
0.0
144
0.0
144
1.0
144
0.0
144
0.0
144
0.0
144
0.0
144
1.0
147
0.0008202099737533
147
0.0
147
0.0
147
0.0
147
0.0
147
0.0008202099737533
147
0.0
147
0.0
147
0.0
147
0.0
147
1.0
147
0.0
147
0.0
147
0.0
147
0.0
147
1.0
  0
MATERIAL
  5
106A
102
{ACAD_XDICTIONARY
360
106B
102
}
102
{ACAD_REACTORS
330
EE5
102
}
330
EE5
100
AcDbMaterial
  1
ByLayer
 72
     0
 43
0.0008202099737533
 43
0.0
 43
0.0
 43
0.0
 43
0.0
 43
0.0008202099737533
 43
0.0
 43
0.0
 43
0.0
 43
0.0
 43
1.0
 43
0.0
 43
0.0
 43
0.0
 43
0.0
 43
1.0
 77
     0
 47
0.0008202099737533
 47
0.0
 47
0.0
 47
0.0
 47
0.0
 47
0.0008202099737533
 47
0.0
 47
0.0
 47
0.0
 47
0.0
 47
1.0
 47
0.0
 47
0.0
 47
0.0
 47
0.0
 47
1.0
171
     0
 49
0.0008202099737533
 49
0.0
 49
0.0
 49
0.0
 49
0.0
 49
0.0008202099737533
 49
0.0
 49
0.0
 49
0.0
 49
0.0
 49
1.0
 49
0.0
 49
0.0
 49
0.0
 49
0.0
 49
1.0
175
     0
142
0.0008202099737533
142
0.0
142
0.0
142
0.0
142
0.0
142
0.0008202099737533
142
0.0
142
0.0
142
0.0
142
0.0
142
1.0
142
0.0
142
0.0
142
0.0
142
0.0
142
1.0
179
     0
144
0.0008202099737533
144
0.0
144
0.0
144
0.0
144
0.0
144
0.0008202099737533
144
0.0
144
0.0
144
0.0
144
0.0
144
1.0
144
0.0
144
0.0
144
0.0
144
0.0
144
1.0
147
0.0008202099737533
147
0.0
147
0.0
147
0.0
147
0.0
147
0.0008202099737533
147
0.0
147
0.0
147
0.0
147
0.0
147
1.0
147
0.0
147
0.0
147
0.0
147
0.0
147
1.0
  0
MATERIAL
  5
107A
102
{ACAD_XDICTIONARY
360
107B
102
}
102
{ACAD_REACTORS
330
EE5
102
}
330
EE5
100
AcDbMaterial
  1
Global
 72
     0
 43
0.0008202099737533
 43
0.0
 43
0.0
 43
0.0
 43
0.0
 43
0.0008202099737533
 43
0.0
 43
0.0
 43
0.0
 43
0.0
 43
1.0
 43
0.0
 43
0.0
 43
0.0
 43
0.0
 43
1.0
 77
     0
 47
0.0008202099737533
 47
0.0
 47
0.0
 47
0.0
 47
0.0
 47
0.0008202099737533
 47
0.0
 47
0.0
 47
0.0
 47
0.0
 47
1.0
 47
0.0
 47
0.0
 47
0.0
 47
0.0
 47
1.0
171
     0
 49
0.0008202099737533
 49
0.0
 49
0.0
 49
0.0
 49
0.0
 49
0.0008202099737533
 49
0.0
 49
0.0
 49
0.0
 49
0.0
 49
1.0
 49
0.0
 49
0.0
 49
0.0
 49
0.0
 49
1.0
175
     0
142
0.0008202099737533
142
0.0
142
0.0
142
0.0
142
0.0
142
0.0008202099737533
142
0.0
142
0.0
142
0.0
142
0.0
142
1.0
142
0.0
142
0.0
142
0.0
142
0.0
142
1.0
179
     0
144
0.0008202099737533
144
0.0
144
0.0
144
0.0
144
0.0
144
0.0008202099737533
144
0.0
144
0.0
144
0.0
144
0.0
144
1.0
144
0.0
144
0.0
144
0.0
144
0.0
144
1.0
147
0.0008202099737533
147
0.0
147
0.0
147
0.0
147
0.0
147
0.0008202099737533
147
0.0
147
0.0
147
0.0
147
0.0
147
1.0
147
0.0
147
0.0
147
0.0
147
0.0
147
1.0
  0
MLEADERSTYLE
  5
10A9
102
{ACAD_REACTORS
330
10A8
102
}
330
10A8
100
AcDbMLeaderStyle
170
     2
171
     1
172
     0
 90
        2
 40
0.0
 41
0.0
173
     1
 91
-1056964608
340
14
 92
       -2
290
     1
 42
2.0
291
     1
 43
0.36
  3
Standard
 44
4.0
300

342
11
174
     1
178
     6
175
     1
176
     0
 93
-1056964608
 45
4.0
292
     0
297
     0
 46
4.0
 94
-1056964608
 47
1.0
 49
1.0
140
1.0
293
     1
141
0.0
294
     1
177
     0
142
1.0
295
     0
296
     0
143
0.125
1001
ACAD_MLEADERVER
1070
     2
  0
MLINESTYLE
  5
18
102
{ACAD_REACTORS
330
17
102
}
330
17
100
AcDbMlineStyle
  2
STANDARD
 70
     0
  3

 62
   256
 51
90.0
 52
90.0
 71
     2
 49
0.5
 62
   256
  6
BYLAYER
 49
-0.5
 62
   256
  6
BYLAYER
  0
ACDBPLACEHOLDER
  5
F
102
{ACAD_REACTORS
330
E
102
}
330
E
  0
SCALE
  5
1097
102
{ACAD_REACTORS
330
1096
102
}
330
1096
100
AcDbScale
 70
     0
300
1:1
140
1.0
141
1.0
290
     1
  0
SCALE
  5
1098
102
{ACAD_REACTORS
330
1096
102
}
330
1096
100
AcDbScale
 70
     0
300
1:2
140
1.0
141
2.0
290
     0
  0
SCALE
  5
1099
102
{ACAD_REACTORS
330
1096
102
}
330
1096
100
AcDbScale
 70
     0
300
1:4
140
1.0
141
4.0
290
     0
  0
SCALE
  5
109A
102
{ACAD_REACTORS
330
1096
102
}
330
1096
100
AcDbScale
 70
     0
300
1:5
140
1.0
141
5.0
290
     0
  0
SCALE
  5
109B
102
{ACAD_REACTORS
330
1096
102
}
330
1096
100
AcDbScale
 70
     0
300
1:8
140
1.0
141
8.0
290
     0
  0
SCALE
  5
109C
102
{ACAD_REACTORS
330
1096
102
}
330
1096
100
AcDbScale
 70
     0
300
1:10
140
1.0
141
10.0
290
     0
  0
SCALE
  5
109D
102
{ACAD_REACTORS
330
1096
102
}
330
1096
100
AcDbScale
 70
     0
300
1:16
140
1.0
141
16.0
290
     0
  0
SCALE
  5
109E
102
{ACAD_REACTORS
330
1096
102
}
330
1096
100
AcDbScale
 70
     0
300
1:20
140
1.0
141
20.0
290
     0
  0
SCALE
  5
109F
102
{ACAD_REACTORS
330
1096
102
}
330
1096
100
AcDbScale
 70
     0
300
1:30
140
1.0
141
30.0
290
     0
  0
SCALE
  5
10A0
102
{ACAD_REACTORS
330
1096
102
}
330
1096
100
AcDbScale
 70
     0
300
1:40
140
1.0
141
40.0
290
     0
  0
SCALE
  5
10A1
102
{ACAD_REACTORS
330
1096
102
}
330
1096
100
AcDbScale
 70
     0
300
1:50
140
1.0
141
50.0
290
     0
  0
SCALE
  5
10A2
102
{ACAD_REACTORS
330
1096
102
}
330
1096
100
AcDbScale
 70
     0
300
1:100
140
1.0
141
100.0
290
     0
  0
SCALE
  5
10A3
102
{ACAD_REACTORS
330
1096
102
}
330
1096
100
AcDbScale
 70
     0
300
2:1
140
2.0
141
1.0
290
     0
  0
SCALE
  5
10A4
102
{ACAD_REACTORS
330
1096
102
}
330
1096
100
AcDbScale
 70
     0
300
4:1
140
4.0
141
1.0
290
     0
  0
SCALE
  5
10A5
102
{ACAD_REACTORS
330
1096
102
}
330
1096
100
AcDbScale
 70
     0
300
8:1
140
8.0
141
1.0
290
     0
  0
SCALE
  5
10A6
102
{ACAD_REACTORS
330
1096
102
}
330
1096
100
AcDbScale
 70
     0
300
10:1
140
10.0
141
1.0
290
     0
  0
SCALE
  5
10A7
102
{ACAD_REACTORS
330
1096
102
}
330
1096
100
AcDbScale
 70
     0
300
100:1
140
100.0
141
1.0
290
     0
  0
TABLESTYLE
  5
EE8
102
{ACAD_XDICTIONARY
360
1B97
102
}
102
{ACAD_REACTORS
330
EE7
102
}
330
EE7
100
AcDbTableStyle
  3
Standard
 70
     0
 71
     0
 40
1.5
 41
1.5
280
     0
281
     0
  7
Standard
140
4.5
170
     2
 62
     0
 63
     7
283
     0
274
    -2
284
     1
 64
     0
275
    -2
285
     1
 65
     0
276
    -2
286
     1
 66
     0
277
    -2
287
     1
 67
     0
278
    -2
288
     1
 68
     0
279
    -2
289
     1
 69
     0
  7
Standard
140
6.0
170
     5
 62
     0
 63
     7
283
     0
274
    -2
284
     1
 64
     0
275
    -2
285
     1
 65
     0
276
    -2
286
     1
 66
     0
277
    -2
287
     1
 67
     0
278
    -2
288
     1
 68
     0
279
    -2
289
     1
 69
     0
  7
Standard
140
4.5
170
     5
 62
     0
 63
     7
283
     0
274
    -2
284
     1
 64
     0
275
    -2
285
     1
 65
     0
276
    -2
286
     1
 66
     0
277
    -2
287
     1
 67
     0
278
    -2
288
     1
 68
     0
279
    -2
289
     1
 69
     0
  0
VISUALSTYLE
  5
1088
102
{ACAD_XDICTIONARY
360
1D0A
102
}
102
{ACAD_REACTORS
330
1082
102
}
330
1082
100
AcDbVisualStyle
  2
2dWireframe
 70
     4
 71
     0
 72
     2
 73
     0
 90
        0
 40
-0.6
 41
-30.0
 62
     5
 63
     7
 74
     1
 91
        4
 64
     7
 65
   257
 75
     1
175
     1
 42
1.0
 92
        0
 66
   257
 43
1.0
 76
     1
 77
     6
 78
     2
 67
     7
 79
     5
170
     0
171
     0
290
     0
174
     0
 93
        1
 44
0.0
173
     0
291
     0
 45
0.0
1001
ACAD
1000
AcDbSavedByObjectVersion
1070
     0
  0
VISUALSTYLE
  5
108A
102
{ACAD_XDICTIONARY
360
1D0E
102
}
102
{ACAD_REACTORS
330
1082
102
}
330
1082
100
AcDbVisualStyle
  2
3D Hidden
 70
     6
 71
     1
 72
     2
 73
     2
 90
        0
 40
-0.6
 41
-30.0
 62
     5
 63
     7
 74
     2
 91
        2
 64
     7
 65
   257
 75
     2
175
     1
 42
179.0
 92
        0
 66
   257
 43
1.0
 76
     1
 77
     6
 78
     2
 67
     7
 79
     3
170
     0
171
     0
290
     0
174
     0
 93
        1
 44
0.0
173
     0
291
     0
 45
0.0
1001
ACAD
1000
AcDbSavedByObjectVersion
1070
     0
  0
VISUALSTYLE
  5
1089
102
{ACAD_XDICTIONARY
360
1D0C
102
}
102
{ACAD_REACTORS
330
1082
102
}
330
1082
100
AcDbVisualStyle
  2
3dWireframe
 70
     5
 71
     0
 72
     2
 73
     0
 90
        0
 40
-0.6
 41
-30.0
 62
     5
 63
     7
 74
     1
 91
        4
 64
     7
 65
   257
 75
     1
175
     1
 42
1.0
 92
        0
 66
   257
 43
1.0
 76
     1
 77
     6
 78
     2
 67
     7
 79
     5
170
     0
171
     0
290
     0
174
     0
 93
        1
 44
0.0
173
     0
291
     0
 45
0.0
1001
ACAD
1000
AcDbSavedByObjectVersion
1070
     0
  0
VISUALSTYLE
  5
1087
102
{ACAD_XDICTIONARY
360
1D08
102
}
102
{ACAD_REACTORS
330
1082
102
}
330
1082
100
AcDbVisualStyle
  2
Basic
 70
     7
 71
     1
 72
     0
 73
     1
 90
        0
 40
-0.6
 41
-30.0
 62
     5
 63
     7
 74
     0
 91
        4
 64
     7
 65
   257
 75
     1
175
     1
 42
1.0
 92
        8
 66
     7
 43
1.0
 76
     1
 77
     6
 78
     2
 67
     7
 79
     5
170
     0
171
     0
290
     0
174
     0
 93
        1
 44
0.0
173
     0
291
     1
 45
0.0
1001
ACAD
1000
AcDbSavedByObjectVersion
1070
     0
  0
VISUALSTYLE
  5
108E
102
{ACAD_XDICTIONARY
360
1D16
102
}
102
{ACAD_REACTORS
330
1082
102
}
330
1082
100
AcDbVisualStyle
  2
Brighten
 70
    12
 71
     2
 72
     2
 73
     0
 90
        0
 40
-0.6
 41
-30.0
 62
     5
 63
     7
 74
     1
 91
        4
 64
     7
 65
   257
 75
     1
175
     1
 42
1.0
 92
        8
 66
     7
 43
1.0
 76
     1
 77
     6
 78
     2
 67
     7
 79
     5
170
     0
171
     0
290
     0
174
     0
 93
        1
 44
50.0
173
     0
291
     1
 45
0.0
1001
ACAD
1000
AcDbSavedByObjectVersion
1070
     0
  0
VISUALSTYLE
  5
1092
102
{ACAD_XDICTIONARY
360
1D1E
102
}
102
{ACAD_REACTORS
330
1082
102
}
330
1082
100
AcDbVisualStyle
  2
ColorChange
 70
    16
 71
     2
 72
     2
 73
     3
 90
        0
 40
-0.6
 41
-30.0
 62
     5
 63
     8
 74
     1
 91
        4
 64
     7
 65
   257
 75
     1
175
     1
 42
1.0
 92
        8
 66
     8
 43
1.0
 76
     1
 77
     6
 78
     2
 67
     7
 79
     5
170
     0
171
     0
290
     0
174
     0
 93
        1
 44
0.0
173
     0
291
     1
 45
0.0
1001
ACAD
1000
AcDbSavedByObjectVersion
1070
     0
  0
VISUALSTYLE
  5
108B
102
{ACAD_XDICTIONARY
360
1D10
102
}
102
{ACAD_REACTORS
330
1082
102
}
330
1082
100
AcDbVisualStyle
  2
Conceptual
 70
     9
 71
     3
 72
     2
 73
     0
 90
        0
 40
-0.6
 41
-30.0
 62
     5
 63
     7
 74
     2
 91
        2
 64
     7
 65
   257
 75
     1
175
     1
 42
179.0
 92
        8
 66
     7
 43
1.0
 76
     1
 77
     6
 78
     2
 67
     7
 79
     3
170
     0
171
     0
290
     0
174
     0
 93
        1
 44
0.0
173
     0
291
     0
 45
0.0
1001
ACAD
1000
AcDbSavedByObjectVersion
1070
     0
  0
VISUALSTYLE
  5
108D
102
{ACAD_XDICTIONARY
360
1D14
102
}
102
{ACAD_REACTORS
330
1082
102
}
330
1082
100
AcDbVisualStyle
  2
Dim
 70
    11
 71
     2
 72
     2
 73
     0
 90
        0
 40
-0.6
 41
-30.0
 62
     5
 63
     7
 74
     1
 91
        4
 64
     7
 65
   257
 75
     1
175
     1
 42
1.0
 92
        8
 66
     7
 43
1.0
 76
     1
 77
     6
 78
     2
 67
     7
 79
     5
170
     0
171
     0
290
     0
174
     0
 93
        1
 44
-50.0
173
     0
291
     1
 45
0.0
1001
ACAD
1000
AcDbSavedByObjectVersion
1070
     0
  0
VISUALSTYLE
  5
1095
102
{ACAD_XDICTIONARY
360
1D24
102
}
102
{ACAD_REACTORS
330
1082
102
}
330
1082
100
AcDbVisualStyle
  2
EdgeColorOff
 70
    22
 71
     2
 72
     2
 73
     0
 90
        0
 40
-0.6
 41
-30.0
 62
     5
 63
     7
 74
     1
 91
        4
 64
     7
 65
   257
 75
     1
175
     1
 42
1.0
 92
        8
 66
     7
 43
1.0
 76
     1
 77
     6
 78
     2
 67
     7
 79
     5
170
     0
171
     0
290
     0
174
     0
 93
        1
 44
0.0
173
     0
291
     1
 45
0.0
1001
ACAD
1000
AcDbSavedByObjectVersion
1070
     0
  0
VISUALSTYLE
  5
1091
102
{ACAD_XDICTIONARY
360
1D1C
102
}
102
{ACAD_REACTORS
330
1082
102
}
330
1082
100
AcDbVisualStyle
  2
Facepattern
 70
    15
 71
     2
 72
     2
 73
     0
 90
        0
 40
-0.6
 41
-30.0
 62
     5
 63
     7
 74
     1
 91
        4
 64
     7
 65
   257
 75
     1
175
     1
 42
1.0
 92
        8
 66
     7
 43
1.0
 76
     1
 77
     6
 78
     2
 67
     7
 79
     5
170
     0
171
     0
290
     0
174
     0
 93
        1
 44
0.0
173
     0
291
     1
 45
0.0
1001
ACAD
1000
AcDbSavedByObjectVersion
1070
     0
  0
VISUALSTYLE
  5
1083
102
{ACAD_XDICTIONARY
360
1D00
102
}
102
{ACAD_REACTORS
330
1082
102
}
330
1082
100
AcDbVisualStyle
  2
Flat
 70
     0
 71
     2
 72
     1
 73
     1
 90
        2
 40
-0.6
 41
30.0
 62
     5
 63
     7
 74
     0
 91
        4
 64
     7
 65
   257
 75
     1
175
     1
 42
1.0
 92
        8
 66
     7
 43
1.0
 76
     1
 77
     6
 78
     2
 67
     7
 79
     5
170
     0
171
     0
290
     0
174
     0
 93
       13
 44
0.0
173
     0
291
     1
 45
0.0
1001
ACAD
1000
AcDbSavedByObjectVersion
1070
     0
  0
VISUALSTYLE
  5
1084
102
{ACAD_XDICTIONARY
360
1D02
102
}
102
{ACAD_REACTORS
330
1082
102
}
330
1082
100
AcDbVisualStyle
  2
FlatWithEdges
 70
     1
 71
     2
 72
     1
 73
     1
 90
        2
 40
-0.6
 41
30.0
 62
     5
 63
     7
 74
     1
 91
        4
 64
     7
 65
   257
 75
     1
175
     1
 42
1.0
 92
        0
 66
   257
 43
1.0
 76
     1
 77
     6
 78
     2
 67
     7
 79
     5
170
     0
171
     0
290
     0
174
     0
 93
       13
 44
0.0
173
     0
291
     1
 45
0.0
1001
ACAD
1000
AcDbSavedByObjectVersion
1070
     0
  0
VISUALSTYLE
  5
1085
102
{ACAD_XDICTIONARY
360
1D04
102
}
102
{ACAD_REACTORS
330
1082
102
}
330
1082
100
AcDbVisualStyle
  2
Gouraud
 70
     2
 71
     2
 72
     2
 73
     1
 90
        2
 40
-0.6
 41
30.0
 62
     5
 63
     7
 74
     0
 91
        4
 64
     7
 65
   257
 75
     1
175
     1
 42
1.0
 92
        0
 66
     7
 43
1.0
 76
     1
 77
     6
 78
     2
 67
     7
 79
     5
170
     0
171
     0
290
     0
174
     0
 93
       13
 44
0.0
173
     0
291
     1
 45
0.0
1001
ACAD
1000
AcDbSavedByObjectVersion
1070
     0
  0
VISUALSTYLE
  5
1086
102
{ACAD_XDICTIONARY
360
1D06
102
}
102
{ACAD_REACTORS
330
1082
102
}
330
1082
100
AcDbVisualStyle
  2
GouraudWithEdges
 70
     3
 71
     2
 72
     2
 73
     1
 90
        2
 40
-0.6
 41
30.0
 62
     5
 63
     7
 74
     1
 91
        4
 64
     7
 65
   257
 75
     1
175
     1
 42
1.0
 92
        0
 66
   257
 43
1.0
 76
     1
 77
     6
 78
     2
 67
     7
 79
     5
170
     0
171
     0
290
     0
174
     0
 93
       13
 44
0.0
173
     0
291
     1
 45
0.0
1001
ACAD
1000
AcDbSavedByObjectVersion
1070
     0
  0
VISUALSTYLE
  5
1093
102
{ACAD_XDICTIONARY
360
1D20
102
}
102
{ACAD_REACTORS
330
1082
102
}
330
1082
100
AcDbVisualStyle
  2
JitterOff
 70
    20
 71
     2
 72
     2
 73
     0
 90
        0
 40
-0.6
 41
-30.0
 62
     5
 63
     7
 74
     1
 91
        4
 64
     7
 65
   257
 75
     1
175
     1
 42
1.0
 92
       10
 66
     7
 43
1.0
 76
     1
 77
     6
 78
     2
 67
     7
 79
     5
170
     0
171
     0
290
     0
174
     0
 93
        1
 44
0.0
173
     0
291
     1
 45
0.0
1001
ACAD
1000
AcDbSavedByObjectVersion
1070
     0
  0
VISUALSTYLE
  5
1090
102
{ACAD_XDICTIONARY
360
1D1A
102
}
102
{ACAD_REACTORS
330
1082
102
}
330
1082
100
AcDbVisualStyle
  2
Linepattern
 70
    14
 71
     2
 72
     2
 73
     0
 90
        0
 40
-0.6
 41
-30.0
 62
     5
 63
     7
 74
     1
 91
        4
 64
     7
 65
   257
 75
     7
175
     7
 42
1.0
 92
        8
 66
     7
 43
1.0
 76
     1
 77
     6
 78
     2
 67
     7
 79
     5
170
     0
171
     0
290
     0
174
     0
 93
        1
 44
0.0
173
     0
291
     1
 45
0.0
1001
ACAD
1000
AcDbSavedByObjectVersion
1070
     0
  0
VISUALSTYLE
  5
1094
102
{ACAD_XDICTIONARY
360
1D22
102
}
102
{ACAD_REACTORS
330
1082
102
}
330
1082
100
AcDbVisualStyle
  2
OverhangOff
 70
    21
 71
     2
 72
     2
 73
     0
 90
        0
 40
-0.6
 41
-30.0
 62
     5
 63
     7
 74
     1
 91
        4
 64
     7
 65
   257
 75
     1
175
     1
 42
1.0
 92
        9
 66
     7
 43
1.0
 76
     1
 77
     6
 78
     2
 67
     7
 79
     5
170
     0
171
     0
290
     0
174
     0
 93
        1
 44
0.0
173
     0
291
     1
 45
0.0
1001
ACAD
1000
AcDbSavedByObjectVersion
1070
     0
  0
VISUALSTYLE
  5
108C
102
{ACAD_XDICTIONARY
360
1D12
102
}
102
{ACAD_REACTORS
330
1082
102
}
330
1082
100
AcDbVisualStyle
  2
Realistic
 70
     8
 71
     2
 72
     2
 73
     0
 90
        0
 40
-0.6
 41
-30.0
 62
     5
 63
     7
 74
     1
 91
        0
 64
     7
 65
   257
 75
     1
175
     1
 42
1.0
 92
        8
 66
     8
 43
1.0
 76
     1
 77
     6
 78
     2
 67
     7
 79
     5
170
     0
171
     0
290
     0
174
     0
 93
       13
 44
0.0
173
     0
291
     0
 45
0.0
1001
ACAD
1000
AcDbSavedByObjectVersion
1070
     0
  0
VISUALSTYLE
  5
108F
102
{ACAD_XDICTIONARY
360
1D18
102
}
102
{ACAD_REACTORS
330
1082
102
}
330
1082
100
AcDbVisualStyle
  2
Thicken
 70
    13
 71
     2
 72
     2
 73
     0
 90
        0
 40
-0.6
 41
-30.0
 62
     5
 63
     7
 74
     1
 91
        4
 64
     7
 65
   257
 75
     1
175
     1
 42
1.0
 92
       12
 66
     7
 43
1.0
 76
     1
 77
     6
 78
     2
 67
     7
 79
     5
170
     0
171
     0
290
     0
174
     0
 93
        1
 44
0.0
173
     0
291
     1
 45
0.0
1001
ACAD
1000
AcDbSavedByObjectVersion
1070
     0
  0
DICTIONARYVAR
  5
1BDB
102
{ACAD_REACTORS
330
3D
102
}
330
3D
100
DictionaryVariables
280
     0
  1
1:1
  0
DICTIONARYVAR
  5
1BDA
102
{ACAD_REACTORS
330
3D
102
}
330
3D
100
DictionaryVariables
280
     0
  1
STANDARD
  0
DICTIONARYVAR
  5
1049
102
{ACAD_REACTORS
330
3D
102
}
330
3D
100
DictionaryVariables
280
     0
  1
STANDARD
  0
DICTIONARYVAR
  5
3F
102
{ACAD_REACTORS
330
3D
102
}
330
3D
100
DictionaryVariables
280
     0
  1
2
  0
DICTIONARYVAR
  5
3E
102
{ACAD_REACTORS
330
3D
102
}
330
3D
100
DictionaryVariables
280
     0
  1
1
  0
DICTIONARYVAR
  5
1BDD
102
{ACAD_REACTORS
330
3D
102
}
330
3D
100
DictionaryVariables
280
     0
  1
0
  0
DICTIONARYVAR
  5
1BDC
102
{ACAD_REACTORS
330
3D
102
}
330
3D
100
DictionaryVariables
280
     0
  1
127
  0
DICTIONARYVAR
  5
1CF0
102
{ACAD_REACTORS
330
3D
102
}
330
3D
100
DictionaryVariables
280
     0
  1
2
  0
XRECORD
  5
1067
102
{ACAD_REACTORS
330
1066
102
}
330
1066
100
AcDbXrecord
280
     1
  0
DICTIONARY
  5
1CF6
330
1E
100
AcDbDictionary
280
     1
281
     1
  3
ACAD_XREC_ROUNDTRIP
360
1CF7
  0
DICTIONARY
  5
1CFA
330
26
100
AcDbDictionary
280
     1
281
     1
  3
ACAD_XREC_ROUNDTRIP
360
1CFB
  0
DICTIONARY
  5
1CF8
330
22
100
AcDbDictionary
280
     1
281
     1
  3
ACAD_XREC_ROUNDTRIP
360
1CF9
  0
DICTIONARY
  5
1073
330
1072
100
AcDbDictionary
280
     1
281
     1
  3
ACAD_XREC_ROUNDTRIP
360
1CFE
  3
BUMPTILE
360
1075
  3
DIFFUSETILE
360
1074
  3
OPACITYTILE
360
1078
  3
REFLECTIONTILE
360
1077
  3
REFRACTIONTILE
360
1079
  3
SPECULARTILE
360
1076
  0
DICTIONARY
  5
106B
330
106A
100
AcDbDictionary
280
     1
281
     1
  3
ACAD_XREC_ROUNDTRIP
360
1CFD
  3
BUMPTILE
360
106D
  3
DIFFUSETILE
360
106C
  3
OPACITYTILE
360
1070
  3
REFLECTIONTILE
360
106F
  3
REFRACTIONTILE
360
1071
  3
SPECULARTILE
360
106E
  0
DICTIONARY
  5
107B
330
107A
100
AcDbDictionary
280
     1
281
     1
  3
ACAD_XREC_ROUNDTRIP
360
1CFF
  3
BUMPTILE
360
107D
  3
DIFFUSETILE
360
107C
  3
OPACITYTILE
360
1080
  3
REFLECTIONTILE
360
107F
  3
REFRACTIONTILE
360
1081
  3
SPECULARTILE
360
107E
  0
DICTIONARY
  5
1B97
330
EE8
100
AcDbDictionary
280
     1
281
     1
  3
ACAD_ROUNDTRIP_2008_TABLESTYLE_CELLSTYLEMAP
360
1CF1
  3
ACAD_XREC_ROUNDTRIP
360
1CFC
  0
DICTIONARY
  5
1D0A
330
1088
100
AcDbDictionary
280
     1
281
     1
  3
ACAD_XREC_ROUNDTRIP
360
1D0B
  0
DICTIONARY
  5
1D0E
330
108A
100
AcDbDictionary
280
     1
281
     1
  3
ACAD_XREC_ROUNDTRIP
360
1D0F
  0
DICTIONARY
  5
1D0C
330
1089
100
AcDbDictionary
280
     1
281
     1
  3
ACAD_XREC_ROUNDTRIP
360
1D0D
  0
DICTIONARY
  5
1D08
330
1087
100
AcDbDictionary
280
     1
281
     1
  3
ACAD_XREC_ROUNDTRIP
360
1D09
  0
DICTIONARY
  5
1D16
330
108E
100
AcDbDictionary
280
     1
281
     1
  3
ACAD_XREC_ROUNDTRIP
360
1D17
  0
DICTIONARY
  5
1D1E
330
1092
100
AcDbDictionary
280
     1
281
     1
  3
ACAD_XREC_ROUNDTRIP
360
1D1F
  0
DICTIONARY
  5
1D10
330
108B
100
AcDbDictionary
280
     1
281
     1
  3
ACAD_XREC_ROUNDTRIP
360
1D11
  0
DICTIONARY
  5
1D14
330
108D
100
AcDbDictionary
280
     1
281
     1
  3
ACAD_XREC_ROUNDTRIP
360
1D15
  0
DICTIONARY
  5
1D24
330
1095
100
AcDbDictionary
280
     1
281
     1
  3
ACAD_XREC_ROUNDTRIP
360
1D25
  0
DICTIONARY
  5
1D1C
330
1091
100
AcDbDictionary
280
     1
281
     1
  3
ACAD_XREC_ROUNDTRIP
360
1D1D
  0
DICTIONARY
  5
1D00
330
1083
100
AcDbDictionary
280
     1
281
     1
  3
ACAD_XREC_ROUNDTRIP
360
1D01
  0
DICTIONARY
  5
1D02
330
1084
100
AcDbDictionary
280
     1
281
     1
  3
ACAD_XREC_ROUNDTRIP
360
1D03
  0
DICTIONARY
  5
1D04
330
1085
100
AcDbDictionary
280
     1
281
     1
  3
ACAD_XREC_ROUNDTRIP
360
1D05
  0
DICTIONARY
  5
1D06
330
1086
100
AcDbDictionary
280
     1
281
     1
  3
ACAD_XREC_ROUNDTRIP
360
1D07
  0
DICTIONARY
  5
1D20
330
1093
100
AcDbDictionary
280
     1
281
     1
  3
ACAD_XREC_ROUNDTRIP
360
1D21
  0
DICTIONARY
  5
1D1A
330
1090
100
AcDbDictionary
280
     1
281
     1
  3
ACAD_XREC_ROUNDTRIP
360
1D1B
  0
DICTIONARY
  5
1D22
330
1094
100
AcDbDictionary
280
     1
281
     1
  3
ACAD_XREC_ROUNDTRIP
360
1D23
  0
DICTIONARY
  5
1D12
330
108C
100
AcDbDictionary
280
     1
281
     1
  3
ACAD_XREC_ROUNDTRIP
360
1D13
  0
DICTIONARY
  5
1D18
330
108F
100
AcDbDictionary
280
     1
281
     1
  3
ACAD_XREC_ROUNDTRIP
360
1D19
  0
XRECORD
  5
1CF7
102
{ACAD_REACTORS
330
1CF6
102
}
330
1CF6
100
AcDbXrecord
280
     1
102
SHADEPLOT
 70
     0
102
SHADEPLOTRESLEVEL
 70
     2
102
SHADEPLOTCUSTOMDPI
 70
   300
  0
XRECORD
  5
1CFB
102
{ACAD_REACTORS
330
1CFA
102
}
330
1CFA
100
AcDbXrecord
280
     1
102
SHADEPLOT
 70
     0
102
SHADEPLOTRESLEVEL
 70
     2
102
SHADEPLOTCUSTOMDPI
 70
   300
  0
XRECORD
  5
1CF9
102
{ACAD_REACTORS
330
1CF8
102
}
330
1CF8
100
AcDbXrecord
280
     1
102
SHADEPLOT
 70
     0
102
SHADEPLOTRESLEVEL
 70
     2
102
SHADEPLOTCUSTOMDPI
 70
   300
  0
XRECORD
  5
1CFE
102
{ACAD_REACTORS
330
1073
102
}
330
1073
100
AcDbXrecord
280
     1
102
MATERIAL
148
0.0
149
0.0
149
0.0
 93
        0
 94
      127
282
     0
 72
     0
 77
     0
171
     0
175
     0
179
     0
273
     0
  0
XRECORD
  5
1075
102
{ACAD_REACTORS
330
1073
102
}
330
1073
100
AcDbXrecord
280
     1
270
     1
271
     1
  0
XRECORD
  5
1074
102
{ACAD_REACTORS
330
1073
102
}
330
1073
100
AcDbXrecord
280
     1
270
     1
271
     1
  0
XRECORD
  5
1078
102
{ACAD_REACTORS
330
1073
102
}
330
1073
100
AcDbXrecord
280
     1
270
     1
271
     1
  0
XRECORD
  5
1077
102
{ACAD_REACTORS
330
1073
102
}
330
1073
100
AcDbXrecord
280
     1
270
     1
271
     1
  0
XRECORD
  5
1079
102
{ACAD_REACTORS
330
1073
102
}
330
1073
100
AcDbXrecord
280
     1
270
     1
271
     1
  0
XRECORD
  5
1076
102
{ACAD_REACTORS
330
1073
102
}
330
1073
100
AcDbXrecord
280
     1
270
     1
271
     1
  0
XRECORD
  5
1CFD
102
{ACAD_REACTORS
330
106B
102
}
330
106B
100
AcDbXrecord
280
     1
102
MATERIAL
148
0.0
149
0.0
149
0.0
 93
        0
 94
      127
282
     0
 72
     0
 77
     0
171
     0
175
     0
179
     0
273
     0
  0
XRECORD
  5
106D
102
{ACAD_REACTORS
330
106B
102
}
330
106B
100
AcDbXrecord
280
     1
270
     1
271
     1
  0
XRECORD
  5
106C
102
{ACAD_REACTORS
330
106B
102
}
330
106B
100
AcDbXrecord
280
     1
270
     1
271
     1
  0
XRECORD
  5
1070
102
{ACAD_REACTORS
330
106B
102
}
330
106B
100
AcDbXrecord
280
     1
270
     1
271
     1
  0
XRECORD
  5
106F
102
{ACAD_REACTORS
330
106B
102
}
330
106B
100
AcDbXrecord
280
     1
270
     1
271
     1
  0
XRECORD
  5
1071
102
{ACAD_REACTORS
330
106B
102
}
330
106B
100
AcDbXrecord
280
     1
270
     1
271
     1
  0
XRECORD
  5
106E
102
{ACAD_REACTORS
330
106B
102
}
330
106B
100
AcDbXrecord
280
     1
270
     1
271
     1
  0
XRECORD
  5
1CFF
102
{ACAD_REACTORS
330
107B
102
}
330
107B
100
AcDbXrecord
280
     1
102
MATERIAL
148
0.0
149
0.0
149
0.0
 93
        0
 94
      127
282
     0
 72
     0
 77
     0
171
     0
175
     0
179
     0
273
     0
  0
XRECORD
  5
107D
102
{ACAD_REACTORS
330
107B
102
}
330
107B
100
AcDbXrecord
280
     1
270
     1
271
     1
  0
XRECORD
  5
107C
102
{ACAD_REACTORS
330
107B
102
}
330
107B
100
AcDbXrecord
280
     1
270
     1
271
     1
  0
XRECORD
  5
1080
102
{ACAD_REACTORS
330
107B
102
}
330
107B
100
AcDbXrecord
280
     1
270
     1
271
     1
  0
XRECORD
  5
107F
102
{ACAD_REACTORS
330
107B
102
}
330
107B
100
AcDbXrecord
280
     1
270
     1
271
     1
  0
XRECORD
  5
1081
102
{ACAD_REACTORS
330
107B
102
}
330
107B
100
AcDbXrecord
280
     1
270
     1
271
     1
  0
XRECORD
  5
107E
102
{ACAD_REACTORS
330
107B
102
}
330
107B
100
AcDbXrecord
280
     1
270
     1
271
     1
  0
CELLSTYLEMAP
  5
1CF1
102
{ACAD_REACTORS
330
1B97
102
}
330
1B97
100
AcDbCellStyleMap
 90
        3
300
CELLSTYLE
  1
TABLEFORMAT_BEGIN
 90
        5
170
     1
 91
        0
 92
    32768
 62
   257
 93
        1
300
CONTENTFORMAT
  1
CONTENTFORMAT_BEGIN
 90
        0
 91
        0
 92
        4
 93
        0
300

 40
0.0
140
1.0
 94
        5
 62
     0
340
11
144
6.0
309
CONTENTFORMAT_END
171
     1
301
MARGIN
  1
CELLMARGIN_BEGIN
 40
1.5
 40
1.5
 40
1.5
 40
1.5
 40
0.18
 40
0.18
309
CELLMARGIN_END
 94
        6
 95
        1
302
GRIDFORMAT
  1
GRIDFORMAT_BEGIN
 90
        0
 91
        1
 62
     0
 92
       -2
340
0
 93
        0
 40
0.045
309
GRIDFORMAT_END
 95
        2
302
GRIDFORMAT
  1
GRIDFORMAT_BEGIN
 90
        0
 91
        1
 62
     0
 92
       -2
340
0
 93
        0
 40
0.045
309
GRIDFORMAT_END
 95
        4
302
GRIDFORMAT
  1
GRIDFORMAT_BEGIN
 90
        0
 91
        1
 62
     0
 92
       -2
340
0
 93
        0
 40
0.045
309
GRIDFORMAT_END
 95
        8
302
GRIDFORMAT
  1
GRIDFORMAT_BEGIN
 90
        0
 91
        1
 62
     0
 92
       -2
340
0
 93
        0
 40
0.045
309
GRIDFORMAT_END
 95
       16
302
GRIDFORMAT
  1
GRIDFORMAT_BEGIN
 90
        0
 91
        1
 62
     0
 92
       -2
340
0
 93
        0
 40
0.045
309
GRIDFORMAT_END
 95
       32
302
GRIDFORMAT
  1
GRIDFORMAT_BEGIN
 90
        0
 91
        1
 62
     0
 92
       -2
340
0
 93
        0
 40
0.045
309
GRIDFORMAT_END
309
TABLEFORMAT_END
  1
CELLSTYLE_BEGIN
 90
        1
 91
        1
300
_TITLE
309
CELLSTYLE_END
300
CELLSTYLE
  1
TABLEFORMAT_BEGIN
 90
        5
170
     1
 91
        0
 92
        0
 62
   257
 93
        1
300
CONTENTFORMAT
  1
CONTENTFORMAT_BEGIN
 90
        0
 91
        0
 92
        4
 93
        0
300

 40
0.0
140
1.0
 94
        5
 62
     0
340
11
144
4.5
309
CONTENTFORMAT_END
171
     1
301
MARGIN
  1
CELLMARGIN_BEGIN
 40
1.5
 40
1.5
 40
1.5
 40
1.5
 40
0.18
 40
0.18
309
CELLMARGIN_END
 94
        6
 95
        1
302
GRIDFORMAT
  1
GRIDFORMAT_BEGIN
 90
        0
 91
        1
 62
     0
 92
       -2
340
0
 93
        0
 40
0.045
309
GRIDFORMAT_END
 95
        2
302
GRIDFORMAT
  1
GRIDFORMAT_BEGIN
 90
        0
 91
        1
 62
     0
 92
       -2
340
0
 93
        0
 40
0.045
309
GRIDFORMAT_END
 95
        4
302
GRIDFORMAT
  1
GRIDFORMAT_BEGIN
 90
        0
 91
        1
 62
     0
 92
       -2
340
0
 93
        0
 40
0.045
309
GRIDFORMAT_END
 95
        8
302
GRIDFORMAT
  1
GRIDFORMAT_BEGIN
 90
        0
 91
        1
 62
     0
 92
       -2
340
0
 93
        0
 40
0.045
309
GRIDFORMAT_END
 95
       16
302
GRIDFORMAT
  1
GRIDFORMAT_BEGIN
 90
        0
 91
        1
 62
     0
 92
       -2
340
0
 93
        0
 40
0.045
309
GRIDFORMAT_END
 95
       32
302
GRIDFORMAT
  1
GRIDFORMAT_BEGIN
 90
        0
 91
        1
 62
     0
 92
       -2
340
0
 93
        0
 40
0.045
309
GRIDFORMAT_END
309
TABLEFORMAT_END
  1
CELLSTYLE_BEGIN
 90
        2
 91
        1
300
_HEADER
309
CELLSTYLE_END
300
CELLSTYLE
  1
TABLEFORMAT_BEGIN
 90
        5
170
     1
 91
        0
 92
        0
 62
   257
 93
        1
300
CONTENTFORMAT
  1
CONTENTFORMAT_BEGIN
 90
        0
 91
        0
 92
        4
 93
        0
300

 40
0.0
140
1.0
 94
        2
 62
     0
340
11
144
4.5
309
CONTENTFORMAT_END
171
     1
301
MARGIN
  1
CELLMARGIN_BEGIN
 40
1.5
 40
1.5
 40
1.5
 40
1.5
 40
0.18
 40
0.18
309
CELLMARGIN_END
 94
        6
 95
        1
302
GRIDFORMAT
  1
GRIDFORMAT_BEGIN
 90
        0
 91
        1
 62
     0
 92
       -2
340
0
 93
        0
 40
0.045
309
GRIDFORMAT_END
 95
        2
302
GRIDFORMAT
  1
GRIDFORMAT_BEGIN
 90
        0
 91
        1
 62
     0
 92
       -2
340
0
 93
        0
 40
0.045
309
GRIDFORMAT_END
 95
        4
302
GRIDFORMAT
  1
GRIDFORMAT_BEGIN
 90
        0
 91
        1
 62
     0
 92
       -2
340
0
 93
        0
 40
0.045
309
GRIDFORMAT_END
 95
        8
302
GRIDFORMAT
  1
GRIDFORMAT_BEGIN
 90
        0
 91
        1
 62
     0
 92
       -2
340
0
 93
        0
 40
0.045
309
GRIDFORMAT_END
 95
       16
302
GRIDFORMAT
  1
GRIDFORMAT_BEGIN
 90
        0
 91
        1
 62
     0
 92
       -2
340
0
 93
        0
 40
0.045
309
GRIDFORMAT_END
 95
       32
302
GRIDFORMAT
  1
GRIDFORMAT_BEGIN
 90
        0
 91
        1
 62
     0
 92
       -2
340
0
 93
        0
 40
0.045
309
GRIDFORMAT_END
309
TABLEFORMAT_END
  1
CELLSTYLE_BEGIN
 90
        3
 91
        2
300
_DATA
309
CELLSTYLE_END
  0
XRECORD
  5
1CFC
102
{ACAD_REACTORS
330
1B97
102
}
330
1B97
100
AcDbXrecord
280
     1
102
ACAD_ROUNDTRIP_PRE2007_TABLESTYLE
 90
        4
 91
        0
  1

 92
        4
 93
        0
  2

 94
        4
 95
        0
  3

  0
XRECORD
  5
1D0B
102
{ACAD_REACTORS
330
1D0A
102
}
330
1D0A
100
AcDbXrecord
280
     1
102
RTVSPropertyOp0
 70
     1
102
RTVSPropertyOp1
 70
     1
102
RTVSPropertyOp2
 70
     1
102
RTVSPropertyOp3
 70
     1
102
RTVSPropertyOp4
 70
     1
102
RTVSPropertyOp5
 70
     1
102
RTVSPropertyOp6
 70
     1
102
RTVSPropertyOp7
 70
     1
102
RTVSPropertyOp8
 70
     1
102
RTVSPropertyOp9
 70
     1
102
RTVSPropertyOp10
 70
     1
102
RTVSPropertyOp11
 70
     1
102
RTVSPropertyOp12
 70
     1
102
RTVSPropertyOp13
 70
     1
102
RTVSPropertyOp14
 70
     1
102
RTVSPropertyOp15
 70
     1
102
RTVSPropertyOp16
 70
     1
102
RTVSPropertyOp17
 70
     1
102
RTVSPropertyOp18
 70
     1
102
RTVSPropertyOp19
 70
     1
102
RTVSPropertyOp20
 70
     1
102
RTVSPropertyOp21
 70
     1
102
RTVSPropertyOp22
 70
     1
102
RTVSPropertyOp23
 70
     1
102
RTVSPropertyOp24
 70
     1
102
RTVSPropertyOp25
 70
     1
102
RTVSPropertyOp26
 70
     1
102
RTVSPropertyOp27
 70
     1
  0
XRECORD
  5
1D0F
102
{ACAD_REACTORS
330
1D0E
102
}
330
1D0E
100
AcDbXrecord
280
     1
102
RTVSPropertyOp0
 70
     1
102
RTVSPropertyOp1
 70
     1
102
RTVSPropertyOp2
 70
     1
102
RTVSPropertyOp3
 70
     1
102
RTVSPropertyOp4
 70
     1
102
RTVSPropertyOp5
 70
     1
102
RTVSPropertyOp6
 70
     1
102
RTVSPropertyOp7
 70
     1
102
RTVSPropertyOp8
 70
     1
102
RTVSPropertyOp9
 70
     1
102
RTVSPropertyOp10
 70
     1
102
RTVSPropertyOp11
 70
     1
102
RTVSPropertyOp12
 70
     1
102
RTVSPropertyOp13
 70
     1
102
RTVSPropertyOp14
 70
     1
102
RTVSPropertyOp15
 70
     1
102
RTVSPropertyOp16
 70
     1
102
RTVSPropertyOp17
 70
     1
102
RTVSPropertyOp18
 70
     1
102
RTVSPropertyOp19
 70
     1
102
RTVSPropertyOp20
 70
     1
102
RTVSPropertyOp21
 70
     1
102
RTVSPropertyOp22
 70
     1
102
RTVSPropertyOp23
 70
     1
102
RTVSPropertyOp24
 70
     1
102
RTVSPropertyOp25
 70
     1
102
RTVSPropertyOp26
 70
     1
102
RTVSPropertyOp27
 70
     1
  0
XRECORD
  5
1D0D
102
{ACAD_REACTORS
330
1D0C
102
}
330
1D0C
100
AcDbXrecord
280
     1
102
RTVSPropertyOp0
 70
     1
102
RTVSPropertyOp1
 70
     1
102
RTVSPropertyOp2
 70
     1
102
RTVSPropertyOp3
 70
     1
102
RTVSPropertyOp4
 70
     1
102
RTVSPropertyOp5
 70
     1
102
RTVSPropertyOp6
 70
     1
102
RTVSPropertyOp7
 70
     1
102
RTVSPropertyOp8
 70
     1
102
RTVSPropertyOp9
 70
     1
102
RTVSPropertyOp10
 70
     1
102
RTVSPropertyOp11
 70
     1
102
RTVSPropertyOp12
 70
     1
102
RTVSPropertyOp13
 70
     1
102
RTVSPropertyOp14
 70
     1
102
RTVSPropertyOp15
 70
     1
102
RTVSPropertyOp16
 70
     1
102
RTVSPropertyOp17
 70
     1
102
RTVSPropertyOp18
 70
     1
102
RTVSPropertyOp19
 70
     1
102
RTVSPropertyOp20
 70
     1
102
RTVSPropertyOp21
 70
     1
102
RTVSPropertyOp22
 70
     1
102
RTVSPropertyOp23
 70
     1
102
RTVSPropertyOp24
 70
     1
102
RTVSPropertyOp25
 70
     1
102
RTVSPropertyOp26
 70
     1
102
RTVSPropertyOp27
 70
     1
  0
XRECORD
  5
1D09
102
{ACAD_REACTORS
330
1D08
102
}
330
1D08
100
AcDbXrecord
280
     1
102
RTVSPropertyOp0
 70
     1
102
RTVSPropertyOp1
 70
     1
102
RTVSPropertyOp2
 70
     1
102
RTVSPropertyOp3
 70
     1
102
RTVSPropertyOp4
 70
     1
102
RTVSPropertyOp5
 70
     1
102
RTVSPropertyOp6
 70
     1
102
RTVSPropertyOp7
 70
     1
102
RTVSPropertyOp8
 70
     1
102
RTVSPropertyOp9
 70
     1
102
RTVSPropertyOp10
 70
     1
102
RTVSPropertyOp11
 70
     1
102
RTVSPropertyOp12
 70
     1
102
RTVSPropertyOp13
 70
     1
102
RTVSPropertyOp14
 70
     1
102
RTVSPropertyOp15
 70
     1
102
RTVSPropertyOp16
 70
     1
102
RTVSPropertyOp17
 70
     1
102
RTVSPropertyOp18
 70
     1
102
RTVSPropertyOp19
 70
     1
102
RTVSPropertyOp20
 70
     1
102
RTVSPropertyOp21
 70
     1
102
RTVSPropertyOp22
 70
     1
102
RTVSPropertyOp23
 70
     1
102
RTVSPropertyOp24
 70
     1
102
RTVSPropertyOp25
 70
     1
102
RTVSPropertyOp26
 70
     1
102
RTVSPropertyOp27
 70
     1
  0
XRECORD
  5
1D17
102
{ACAD_REACTORS
330
1D16
102
}
330
1D16
100
AcDbXrecord
280
     1
102
RTVSPropertyOp0
 70
     1
102
RTVSPropertyOp1
 70
     1
102
RTVSPropertyOp2
 70
     1
102
RTVSPropertyOp3
 70
     1
102
RTVSPropertyOp4
 70
     1
102
RTVSPropertyOp5
 70
     1
102
RTVSPropertyOp6
 70
     1
102
RTVSPropertyOp7
 70
     1
102
RTVSPropertyOp8
 70
     1
102
RTVSPropertyOp9
 70
     1
102
RTVSPropertyOp10
 70
     1
102
RTVSPropertyOp11
 70
     1
102
RTVSPropertyOp12
 70
     1
102
RTVSPropertyOp13
 70
     1
102
RTVSPropertyOp14
 70
     1
102
RTVSPropertyOp15
 70
     1
102
RTVSPropertyOp16
 70
     1
102
RTVSPropertyOp17
 70
     1
102
RTVSPropertyOp18
 70
     1
102
RTVSPropertyOp19
 70
     1
102
RTVSPropertyOp20
 70
     1
102
RTVSPropertyOp21
 70
     1
102
RTVSPropertyOp22
 70
     1
102
RTVSPropertyOp23
 70
     1
102
RTVSPropertyOp24
 70
     1
102
RTVSPropertyOp25
 70
     1
102
RTVSPropertyOp26
 70
     1
102
RTVSPropertyOp27
 70
     1
  0
XRECORD
  5
1D1F
102
{ACAD_REACTORS
330
1D1E
102
}
330
1D1E
100
AcDbXrecord
280
     1
102
RTVSPropertyOp0
 70
     1
102
RTVSPropertyOp1
 70
     1
102
RTVSPropertyOp2
 70
     1
102
RTVSPropertyOp3
 70
     1
102
RTVSPropertyOp4
 70
     1
102
RTVSPropertyOp5
 70
     1
102
RTVSPropertyOp6
 70
     1
102
RTVSPropertyOp7
 70
     1
102
RTVSPropertyOp8
 70
     1
102
RTVSPropertyOp9
 70
     1
102
RTVSPropertyOp10
 70
     1
102
RTVSPropertyOp11
 70
     1
102
RTVSPropertyOp12
 70
     1
102
RTVSPropertyOp13
 70
     1
102
RTVSPropertyOp14
 70
     1
102
RTVSPropertyOp15
 70
     1
102
RTVSPropertyOp16
 70
     1
102
RTVSPropertyOp17
 70
     1
102
RTVSPropertyOp18
 70
     1
102
RTVSPropertyOp19
 70
     1
102
RTVSPropertyOp20
 70
     1
102
RTVSPropertyOp21
 70
     1
102
RTVSPropertyOp22
 70
     1
102
RTVSPropertyOp23
 70
     1
102
RTVSPropertyOp24
 70
     1
102
RTVSPropertyOp25
 70
     1
102
RTVSPropertyOp26
 70
     1
102
RTVSPropertyOp27
 70
     1
  0
XRECORD
  5
1D11
102
{ACAD_REACTORS
330
1D10
102
}
330
1D10
100
AcDbXrecord
280
     1
102
RTVSPropertyOp0
 70
     1
102
RTVSPropertyOp1
 70
     1
102
RTVSPropertyOp2
 70
     1
102
RTVSPropertyOp3
 70
     1
102
RTVSPropertyOp4
 70
     1
102
RTVSPropertyOp5
 70
     1
102
RTVSPropertyOp6
 70
     1
102
RTVSPropertyOp7
 70
     1
102
RTVSPropertyOp8
 70
     1
102
RTVSPropertyOp9
 70
     1
102
RTVSPropertyOp10
 70
     1
102
RTVSPropertyOp11
 70
     1
102
RTVSPropertyOp12
 70
     1
102
RTVSPropertyOp13
 70
     1
102
RTVSPropertyOp14
 70
     1
102
RTVSPropertyOp15
 70
     1
102
RTVSPropertyOp16
 70
     1
102
RTVSPropertyOp17
 70
     1
102
RTVSPropertyOp18
 70
     1
102
RTVSPropertyOp19
 70
     1
102
RTVSPropertyOp20
 70
     1
102
RTVSPropertyOp21
 70
     1
102
RTVSPropertyOp22
 70
     1
102
RTVSPropertyOp23
 70
     1
102
RTVSPropertyOp24
 70
     1
102
RTVSPropertyOp25
 70
     1
102
RTVSPropertyOp26
 70
     1
102
RTVSPropertyOp27
 70
     1
  0
XRECORD
  5
1D15
102
{ACAD_REACTORS
330
1D14
102
}
330
1D14
100
AcDbXrecord
280
     1
102
RTVSPropertyOp0
 70
     1
102
RTVSPropertyOp1
 70
     1
102
RTVSPropertyOp2
 70
     1
102
RTVSPropertyOp3
 70
     1
102
RTVSPropertyOp4
 70
     1
102
RTVSPropertyOp5
 70
     1
102
RTVSPropertyOp6
 70
     1
102
RTVSPropertyOp7
 70
     1
102
RTVSPropertyOp8
 70
     1
102
RTVSPropertyOp9
 70
     1
102
RTVSPropertyOp10
 70
     1
102
RTVSPropertyOp11
 70
     1
102
RTVSPropertyOp12
 70
     1
102
RTVSPropertyOp13
 70
     1
102
RTVSPropertyOp14
 70
     1
102
RTVSPropertyOp15
 70
     1
102
RTVSPropertyOp16
 70
     1
102
RTVSPropertyOp17
 70
     1
102
RTVSPropertyOp18
 70
     1
102
RTVSPropertyOp19
 70
     1
102
RTVSPropertyOp20
 70
     1
102
RTVSPropertyOp21
 70
     1
102
RTVSPropertyOp22
 70
     1
102
RTVSPropertyOp23
 70
     1
102
RTVSPropertyOp24
 70
     1
102
RTVSPropertyOp25
 70
     1
102
RTVSPropertyOp26
 70
     1
102
RTVSPropertyOp27
 70
     1
  0
XRECORD
  5
1D25
102
{ACAD_REACTORS
330
1D24
102
}
330
1D24
100
AcDbXrecord
280
     1
102
RTVSPropertyOp0
 70
     0
102
RTVSPropertyOp1
 70
     0
102
RTVSPropertyOp2
 70
     0
102
RTVSPropertyOp3
 70
     0
102
RTVSPropertyOp4
 70
     0
102
RTVSPropertyOp5
 70
     0
102
RTVSPropertyOp6
 70
     0
102
RTVSPropertyOp7
 70
     0
102
RTVSPropertyOp8
 70
     0
102
RTVSPropertyOp9
 70
     0
102
RTVSPropertyOp10
 70
     0
102
RTVSPropertyOp11
 70
     0
102
RTVSPropertyOp12
 70
     0
102
RTVSPropertyOp13
 70
     0
102
RTVSPropertyOp14
 70
     2
102
RTVSPropertyOp15
 70
     0
102
RTVSPropertyOp16
 70
     0
102
RTVSPropertyOp17
 70
     0
102
RTVSPropertyOp18
 70
     0
102
RTVSPropertyOp19
 70
     0
102
RTVSPropertyOp20
 70
     0
102
RTVSPropertyOp21
 70
     0
102
RTVSPropertyOp22
 70
     0
102
RTVSPropertyOp23
 70
     0
102
RTVSPropertyOp24
 70
     0
102
RTVSPropertyOp25
 70
     0
102
RTVSPropertyOp26
 70
     0
102
RTVSPropertyOp27
 70
     0
  0
XRECORD
  5
1D1D
102
{ACAD_REACTORS
330
1D1C
102
}
330
1D1C
100
AcDbXrecord
280
     1
102
RTVSPropertyOp0
 70
     1
102
RTVSPropertyOp1
 70
     1
102
RTVSPropertyOp2
 70
     1
102
RTVSPropertyOp3
 70
     1
102
RTVSPropertyOp4
 70
     1
102
RTVSPropertyOp5
 70
     1
102
RTVSPropertyOp6
 70
     1
102
RTVSPropertyOp7
 70
     1
102
RTVSPropertyOp8
 70
     1
102
RTVSPropertyOp9
 70
     1
102
RTVSPropertyOp10
 70
     1
102
RTVSPropertyOp11
 70
     1
102
RTVSPropertyOp12
 70
     1
102
RTVSPropertyOp13
 70
     1
102
RTVSPropertyOp14
 70
     1
102
RTVSPropertyOp15
 70
     1
102
RTVSPropertyOp16
 70
     1
102
RTVSPropertyOp17
 70
     1
102
RTVSPropertyOp18
 70
     1
102
RTVSPropertyOp19
 70
     1
102
RTVSPropertyOp20
 70
     1
102
RTVSPropertyOp21
 70
     1
102
RTVSPropertyOp22
 70
     1
102
RTVSPropertyOp23
 70
     1
102
RTVSPropertyOp24
 70
     1
102
RTVSPropertyOp25
 70
     1
102
RTVSPropertyOp26
 70
     1
102
RTVSPropertyOp27
 70
     1
  0
XRECORD
  5
1D01
102
{ACAD_REACTORS
330
1D00
102
}
330
1D00
100
AcDbXrecord
280
     1
102
RTVSPropertyOp0
 70
     1
102
RTVSPropertyOp1
 70
     1
102
RTVSPropertyOp2
 70
     1
102
RTVSPropertyOp3
 70
     1
102
RTVSPropertyOp4
 70
     1
102
RTVSPropertyOp5
 70
     1
102
RTVSPropertyOp6
 70
     1
102
RTVSPropertyOp7
 70
     1
102
RTVSPropertyOp8
 70
     1
102
RTVSPropertyOp9
 70
     1
102
RTVSPropertyOp10
 70
     1
102
RTVSPropertyOp11
 70
     1
102
RTVSPropertyOp12
 70
     1
102
RTVSPropertyOp13
 70
     1
102
RTVSPropertyOp14
 70
     1
102
RTVSPropertyOp15
 70
     1
102
RTVSPropertyOp16
 70
     1
102
RTVSPropertyOp17
 70
     1
102
RTVSPropertyOp18
 70
     1
102
RTVSPropertyOp19
 70
     1
102
RTVSPropertyOp20
 70
     1
102
RTVSPropertyOp21
 70
     1
102
RTVSPropertyOp22
 70
     1
102
RTVSPropertyOp23
 70
     1
102
RTVSPropertyOp24
 70
     1
102
RTVSPropertyOp25
 70
     1
102
RTVSPropertyOp26
 70
     1
102
RTVSPropertyOp27
 70
     1
  0
XRECORD
  5
1D03
102
{ACAD_REACTORS
330
1D02
102
}
330
1D02
100
AcDbXrecord
280
     1
102
RTVSPropertyOp0
 70
     1
102
RTVSPropertyOp1
 70
     1
102
RTVSPropertyOp2
 70
     1
102
RTVSPropertyOp3
 70
     1
102
RTVSPropertyOp4
 70
     1
102
RTVSPropertyOp5
 70
     1
102
RTVSPropertyOp6
 70
     1
102
RTVSPropertyOp7
 70
     1
102
RTVSPropertyOp8
 70
     1
102
RTVSPropertyOp9
 70
     1
102
RTVSPropertyOp10
 70
     1
102
RTVSPropertyOp11
 70
     1
102
RTVSPropertyOp12
 70
     1
102
RTVSPropertyOp13
 70
     1
102
RTVSPropertyOp14
 70
     1
102
RTVSPropertyOp15
 70
     1
102
RTVSPropertyOp16
 70
     1
102
RTVSPropertyOp17
 70
     1
102
RTVSPropertyOp18
 70
     1
102
RTVSPropertyOp19
 70
     1
102
RTVSPropertyOp20
 70
     1
102
RTVSPropertyOp21
 70
     1
102
RTVSPropertyOp22
 70
     1
102
RTVSPropertyOp23
 70
     1
102
RTVSPropertyOp24
 70
     1
102
RTVSPropertyOp25
 70
     1
102
RTVSPropertyOp26
 70
     1
102
RTVSPropertyOp27
 70
     1
  0
XRECORD
  5
1D05
102
{ACAD_REACTORS
330
1D04
102
}
330
1D04
100
AcDbXrecord
280
     1
102
RTVSPropertyOp0
 70
     1
102
RTVSPropertyOp1
 70
     1
102
RTVSPropertyOp2
 70
     1
102
RTVSPropertyOp3
 70
     1
102
RTVSPropertyOp4
 70
     1
102
RTVSPropertyOp5
 70
     1
102
RTVSPropertyOp6
 70
     1
102
RTVSPropertyOp7
 70
     1
102
RTVSPropertyOp8
 70
     1
102
RTVSPropertyOp9
 70
     1
102
RTVSPropertyOp10
 70
     1
102
RTVSPropertyOp11
 70
     1
102
RTVSPropertyOp12
 70
     1
102
RTVSPropertyOp13
 70
     1
102
RTVSPropertyOp14
 70
     1
102
RTVSPropertyOp15
 70
     1
102
RTVSPropertyOp16
 70
     1
102
RTVSPropertyOp17
 70
     1
102
RTVSPropertyOp18
 70
     1
102
RTVSPropertyOp19
 70
     1
102
RTVSPropertyOp20
 70
     1
102
RTVSPropertyOp21
 70
     1
102
RTVSPropertyOp22
 70
     1
102
RTVSPropertyOp23
 70
     1
102
RTVSPropertyOp24
 70
     1
102
RTVSPropertyOp25
 70
     1
102
RTVSPropertyOp26
 70
     1
102
RTVSPropertyOp27
 70
     1
  0
XRECORD
  5
1D07
102
{ACAD_REACTORS
330
1D06
102
}
330
1D06
100
AcDbXrecord
280
     1
102
RTVSPropertyOp0
 70
     1
102
RTVSPropertyOp1
 70
     1
102
RTVSPropertyOp2
 70
     1
102
RTVSPropertyOp3
 70
     1
102
RTVSPropertyOp4
 70
     1
102
RTVSPropertyOp5
 70
     1
102
RTVSPropertyOp6
 70
     1
102
RTVSPropertyOp7
 70
     1
102
RTVSPropertyOp8
 70
     1
102
RTVSPropertyOp9
 70
     1
102
RTVSPropertyOp10
 70
     1
102
RTVSPropertyOp11
 70
     1
102
RTVSPropertyOp12
 70
     1
102
RTVSPropertyOp13
 70
     1
102
RTVSPropertyOp14
 70
     1
102
RTVSPropertyOp15
 70
     1
102
RTVSPropertyOp16
 70
     1
102
RTVSPropertyOp17
 70
     1
102
RTVSPropertyOp18
 70
     1
102
RTVSPropertyOp19
 70
     1
102
RTVSPropertyOp20
 70
     1
102
RTVSPropertyOp21
 70
     1
102
RTVSPropertyOp22
 70
     1
102
RTVSPropertyOp23
 70
     1
102
RTVSPropertyOp24
 70
     1
102
RTVSPropertyOp25
 70
     1
102
RTVSPropertyOp26
 70
     1
102
RTVSPropertyOp27
 70
     1
  0
XRECORD
  5
1D21
102
{ACAD_REACTORS
330
1D20
102
}
330
1D20
100
AcDbXrecord
280
     1
102
RTVSPropertyOp0
 70
     0
102
RTVSPropertyOp1
 70
     0
102
RTVSPropertyOp2
 70
     0
102
RTVSPropertyOp3
 70
     0
102
RTVSPropertyOp4
 70
     0
102
RTVSPropertyOp5
 70
     0
102
RTVSPropertyOp6
 70
     0
102
RTVSPropertyOp7
 70
     0
102
RTVSPropertyOp8
 70
     0
102
RTVSPropertyOp9
 70
     0
102
RTVSPropertyOp10
 70
     0
102
RTVSPropertyOp11
 70
     0
102
RTVSPropertyOp12
 70
     0
102
RTVSPropertyOp13
 70
     0
102
RTVSPropertyOp14
 70
     2
102
RTVSPropertyOp15
 70
     0
102
RTVSPropertyOp16
 70
     0
102
RTVSPropertyOp17
 70
     0
102
RTVSPropertyOp18
 70
     0
102
RTVSPropertyOp19
 70
     0
102
RTVSPropertyOp20
 70
     0
102
RTVSPropertyOp21
 70
     0
102
RTVSPropertyOp22
 70
     0
102
RTVSPropertyOp23
 70
     0
102
RTVSPropertyOp24
 70
     0
102
RTVSPropertyOp25
 70
     0
102
RTVSPropertyOp26
 70
     0
102
RTVSPropertyOp27
 70
     0
  0
XRECORD
  5
1D1B
102
{ACAD_REACTORS
330
1D1A
102
}
330
1D1A
100
AcDbXrecord
280
     1
102
RTVSPropertyOp0
 70
     1
102
RTVSPropertyOp1
 70
     1
102
RTVSPropertyOp2
 70
     1
102
RTVSPropertyOp3
 70
     1
102
RTVSPropertyOp4
 70
     1
102
RTVSPropertyOp5
 70
     1
102
RTVSPropertyOp6
 70
     1
102
RTVSPropertyOp7
 70
     1
102
RTVSPropertyOp8
 70
     1
102
RTVSPropertyOp9
 70
     1
102
RTVSPropertyOp10
 70
     1
102
RTVSPropertyOp11
 70
     1
102
RTVSPropertyOp12
 70
     1
102
RTVSPropertyOp13
 70
     1
102
RTVSPropertyOp14
 70
     1
102
RTVSPropertyOp15
 70
     1
102
RTVSPropertyOp16
 70
     1
102
RTVSPropertyOp17
 70
     1
102
RTVSPropertyOp18
 70
     1
102
RTVSPropertyOp19
 70
     1
102
RTVSPropertyOp20
 70
     1
102
RTVSPropertyOp21
 70
     1
102
RTVSPropertyOp22
 70
     1
102
RTVSPropertyOp23
 70
     1
102
RTVSPropertyOp24
 70
     1
102
RTVSPropertyOp25
 70
     1
102
RTVSPropertyOp26
 70
     1
102
RTVSPropertyOp27
 70
     1
  0
XRECORD
  5
1D23
102
{ACAD_REACTORS
330
1D22
102
}
330
1D22
100
AcDbXrecord
280
     1
102
RTVSPropertyOp0
 70
     0
102
RTVSPropertyOp1
 70
     0
102
RTVSPropertyOp2
 70
     0
102
RTVSPropertyOp3
 70
     0
102
RTVSPropertyOp4
 70
     0
102
RTVSPropertyOp5
 70
     0
102
RTVSPropertyOp6
 70
     0
102
RTVSPropertyOp7
 70
     0
102
RTVSPropertyOp8
 70
     0
102
RTVSPropertyOp9
 70
     0
102
RTVSPropertyOp10
 70
     0
102
RTVSPropertyOp11
 70
     0
102
RTVSPropertyOp12
 70
     0
102
RTVSPropertyOp13
 70
     0
102
RTVSPropertyOp14
 70
     2
102
RTVSPropertyOp15
 70
     0
102
RTVSPropertyOp16
 70
     0
102
RTVSPropertyOp17
 70
     0
102
RTVSPropertyOp18
 70
     0
102
RTVSPropertyOp19
 70
     0
102
RTVSPropertyOp20
 70
     0
102
RTVSPropertyOp21
 70
     0
102
RTVSPropertyOp22
 70
     0
102
RTVSPropertyOp23
 70
     0
102
RTVSPropertyOp24
 70
     0
102
RTVSPropertyOp25
 70
     0
102
RTVSPropertyOp26
 70
     0
102
RTVSPropertyOp27
 70
     0
  0
XRECORD
  5
1D13
102
{ACAD_REACTORS
330
1D12
102
}
330
1D12
100
AcDbXrecord
280
     1
102
RTVSPropertyOp0
 70
     1
102
RTVSPropertyOp1
 70
     1
102
RTVSPropertyOp2
 70
     1
102
RTVSPropertyOp3
 70
     1
102
RTVSPropertyOp4
 70
     1
102
RTVSPropertyOp5
 70
     1
102
RTVSPropertyOp6
 70
     1
102
RTVSPropertyOp7
 70
     1
102
RTVSPropertyOp8
 70
     1
102
RTVSPropertyOp9
 70
     1
102
RTVSPropertyOp10
 70
     1
102
RTVSPropertyOp11
 70
     1
102
RTVSPropertyOp12
 70
     1
102
RTVSPropertyOp13
 70
     1
102
RTVSPropertyOp14
 70
     1
102
RTVSPropertyOp15
 70
     1
102
RTVSPropertyOp16
 70
     1
102
RTVSPropertyOp17
 70
     1
102
RTVSPropertyOp18
 70
     1
102
RTVSPropertyOp19
 70
     1
102
RTVSPropertyOp20
 70
     1
102
RTVSPropertyOp21
 70
     1
102
RTVSPropertyOp22
 70
     1
102
RTVSPropertyOp23
 70
     1
102
RTVSPropertyOp24
 70
     1
102
RTVSPropertyOp25
 70
     1
102
RTVSPropertyOp26
 70
     1
102
RTVSPropertyOp27
 70
     1
  0
XRECORD
  5
1D19
102
{ACAD_REACTORS
330
1D18
102
}
330
1D18
100
AcDbXrecord
280
     1
102
RTVSPropertyOp0
 70
     1
102
RTVSPropertyOp1
 70
     1
102
RTVSPropertyOp2
 70
     1
102
RTVSPropertyOp3
 70
     1
102
RTVSPropertyOp4
 70
     1
102
RTVSPropertyOp5
 70
     1
102
RTVSPropertyOp6
 70
     1
102
RTVSPropertyOp7
 70
     1
102
RTVSPropertyOp8
 70
     1
102
RTVSPropertyOp9
 70
     1
102
RTVSPropertyOp10
 70
     1
102
RTVSPropertyOp11
 70
     1
102
RTVSPropertyOp12
 70
     1
102
RTVSPropertyOp13
 70
     1
102
RTVSPropertyOp14
 70
     1
102
RTVSPropertyOp15
 70
     1
102
RTVSPropertyOp16
 70
     1
102
RTVSPropertyOp17
 70
     1
102
RTVSPropertyOp18
 70
     1
102
RTVSPropertyOp19
 70
     1
102
RTVSPropertyOp20
 70
     1
102
RTVSPropertyOp21
 70
     1
102
RTVSPropertyOp22
 70
     1
102
RTVSPropertyOp23
 70
     1
102
RTVSPropertyOp24
 70
     1
102
RTVSPropertyOp25
 70
     1
102
RTVSPropertyOp26
 70
     1
102
RTVSPropertyOp27
 70
     1
  0
ENDSEC
  0
EOF
