  0
SECTION
  2
HEADER
  9
$ACADVER
  1
AC1015
  9
$ACADMAINTVER
 70
    20
  9
$DWGCODEPAGE
  3
ANSI_1252
  9
$INSBASE
 10
0.0
 20
0.0
 30
0.0
  9
$EXTMIN
 10
4644.543445841726
 20
2353.009820219555
 30
0.0
  9
$EXTMAX
 10
4646.287425894624
 20
2353.259117883125
 30
0.0
  9
$LIMMIN
 10
0.0
 20
0.0
  9
$LIMMAX
 10
420.0
 20
297.0
  9
$ORTHOMODE
 70
     0
  9
$REGENMODE
 70
     1
  9
$FILLMODE
 70
     1
  9
$QTEXTMODE
 70
     0
  9
$MIRRTEXT
 70
     1
  9
$LTSCALE
 40
1.0
  9
$ATTMODE
 70
     1
  9
$TEXTSIZE
 40
2.5
  9
$TRACEWID
 40
1.0
  9
$TEXTSTYLE
  7
SANINDUSA
  9
$CLAYER
  8
0
  9
$CELTYPE
  6
ByLayer
  9
$CECOLOR
 62
   256
  9
$CELTSCALE
 40
1.0
  9
$DISPSILH
 70
     0
  9
$DIMSCALE
 40
1.0
  9
$DIMASZ
 40
2.0
  9
$DIMEXO
 40
1.0
  9
$DIMDLI
 40
1.0
  9
$DIMRND
 40
0.0
  9
$DIMDLE
 40
0.0
  9
$DIMEXE
 40
1.0
  9
$DIMTP
 40
0.0
  9
$DIMTM
 40
0.0
  9
$DIMTXT
 40
2.0
  9
$DIMCEN
 40
0.0
  9
$DIMTSZ
 40
0.0
  9
$DIMTOL
 70
     0
  9
$DIMLIM
 70
     0
  9
$DIMTIH
 70
     0
  9
$DIMTOH
 70
     0
  9
$DIMSE1
 70
     0
  9
$DIMSE2
 70
     0
  9
$DIMTAD
 70
     1
  9
$DIMZIN
 70
     8
  9
$DIMBLK
  1

  9
$DIMASO
 70
     1
  9
$DIMSHO
 70
     1
  9
$DIMPOST
  1

  9
$DIMAPOST
  1

  9
$DIMALT
 70
     0
  9
$DIMALTD
 70
     3
  9
$DIMALTF
 40
0.03937007874016
  9
$DIMLFAC
 40
1.0
  9
$DIMTOFL
 70
     1
  9
$DIMTVP
 40
0.0
  9
$DIMTIX
 70
     0
  9
$DIMSOXD
 70
     0
  9
$DIMSAH
 70
     0
  9
$DIMBLK1
  1

  9
$DIMBLK2
  1

  9
$DIMSTYLE
  2
SANINDUSA
  9
$DIMCLRD
 70
   256
  9
$DIMCLRE
 70
   256
  9
$DIMCLRT
 70
   256
  9
$DIMTFAC
 40
1.0
  9
$DIMGAP
 40
1.0
  9
$DIMJUST
 70
     0
  9
$DIMSD1
 70
     0
  9
$DIMSD2
 70
     0
  9
$DIMTOLJ
 70
     0
  9
$DIMTZIN
 70
     8
  9
$DIMALTZ
 70
     0
  9
$DIMALTTZ
 70
     0
  9
$DIMUPT
 70
     0
  9
$DIMDEC
 70
     1
  9
$DIMTDEC
 70
     1
  9
$DIMALTU
 70
     2
  9
$DIMALTTD
 70
     3
  9
$DIMTXSTY
  7
SANINDUSA
  9
$DIMAUNIT
 70
     0
  9
$DIMADEC
 70
     1
  9
$DIMALTRND
 40
0.0
  9
$DIMAZIN
 70
     0
  9
$DIMDSEP
 70
    44
  9
$DIMATFIT
 70
     3
  9
$DIMFRAC
 70
     0
  9
$DIMLDRBLK
  1

  9
$DIMLUNIT
 70
     2
  9
$DIMLWD
 70
    -1
  9
$DIMLWE
 70
    -1
  9
$DIMTMOVE
 70
     0
  9
$LUNITS
 70
     2
  9
$LUPREC
 70
     4
  9
$SKETCHINC
 40
1.0
  9
$FILLETRAD
 40
0.0
  9
$AUNITS
 70
     0
  9
$AUPREC
 70
     0
  9
$MENU
  1
.
  9
$ELEVATION
 40
0.0
  9
$PELEVATION
 40
0.0
  9
$THICKNESS
 40
0.0
  9
$LIMCHECK
 70
     0
  9
$CHAMFERA
 40
10.0
  9
$CHAMFERB
 40
10.0
  9
$CHAMFERC
 40
20.0
  9
$CHAMFERD
 40
0.0
  9
$SKPOLY
 70
     0
  9
$TDCREATE
 40
2455313.409987512
  9
$TDUCREATE
 40
2455313.368320845
  9
$TDUPDATE
 40
2456111.751447477
  9
$TDUUPDATE
 40
2456111.709780810
  9
$TDINDWG
 40
0.0322101157
  9
$TDUSRTIMER
 40
0.0322101157
  9
$USRTIMER
 70
     1
  9
$ANGBASE
 50
0.0
  9
$ANGDIR
 70
     0
  9
$PDMODE
 70
     0
  9
$PDSIZE
 40
0.0
  9
$PLINEWID
 40
0.0
  9
$SPLFRAME
 70
     0
  9
$SPLINETYPE
 70
     6
  9
$SPLINESEGS
 70
     8
  9
$HANDSEED
  5
22C7
  9
$SURFTAB1
 70
     6
  9
$SURFTAB2
 70
     6
  9
$SURFTYPE
 70
     6
  9
$SURFU
 70
     6
  9
$SURFV
 70
     6
  9
$UCSBASE
  2

  9
$UCSNAME
  2

  9
$UCSORG
 10
0.0
 20
0.0
 30
0.0
  9
$UCSXDIR
 10
1.0
 20
0.0
 30
0.0
  9
$UCSYDIR
 10
0.0
 20
1.0
 30
0.0
  9
$UCSORTHOREF
  2

  9
$UCSORTHOVIEW
 70
     0
  9
$UCSORGTOP
 10
0.0
 20
0.0
 30
0.0
  9
$UCSORGBOTTOM
 10
0.0
 20
0.0
 30
0.0
  9
$UCSORGLEFT
 10
0.0
 20
0.0
 30
0.0
  9
$UCSORGRIGHT
 10
0.0
 20
0.0
 30
0.0
  9
$UCSORGFRONT
 10
0.0
 20
0.0
 30
0.0
  9
$UCSORGBACK
 10
0.0
 20
0.0
 30
0.0
  9
$PUCSBASE
  2

  9
$PUCSNAME
  2

  9
$PUCSORG
 10
0.0
 20
0.0
 30
0.0
  9
$PUCSXDIR
 10
1.0
 20
0.0
 30
0.0
  9
$PUCSYDIR
 10
0.0
 20
1.0
 30
0.0
  9
$PUCSORTHOREF
  2

  9
$PUCSORTHOVIEW
 70
     0
  9
$PUCSORGTOP
 10
0.0
 20
0.0
 30
0.0
  9
$PUCSORGBOTTOM
 10
0.0
 20
0.0
 30
0.0
  9
$PUCSORGLEFT
 10
0.0
 20
0.0
 30
0.0
  9
$PUCSORGRIGHT
 10
0.0
 20
0.0
 30
0.0
  9
$PUCSORGFRONT
 10
0.0
 20
0.0
 30
0.0
  9
$PUCSORGBACK
 10
0.0
 20
0.0
 30
0.0
  9
$USERI1
 70
     0
  9
$USERI2
 70
     0
  9
$USERI3
 70
     0
  9
$USERI4
 70
     0
  9
$USERI5
 70
     0
  9
$USERR1
 40
0.0
  9
$USERR2
 40
0.0
  9
$USERR3
 40
0.0
  9
$USERR4
 40
0.0
  9
$USERR5
 40
0.0
  9
$WORLDVIEW
 70
     1
  9
$SHADEDGE
 70
     3
  9
$SHADEDIF
 70
    70
  9
$TILEMODE
 70
     1
  9
$MAXACTVP
 70
    64
  9
$PINSBASE
 10
0.0
 20
0.0
 30
0.0
  9
$PLIMCHECK
 70
     0
  9
$PEXTMIN
 10
1.000000000000000E+20
 20
1.000000000000000E+20
 30
1.000000000000000E+20
  9
$PEXTMAX
 10
-1.000000000000000E+20
 20
-1.000000000000000E+20
 30
-1.000000000000000E+20
  9
$PLIMMIN
 10
0.0
 20
0.0
  9
$PLIMMAX
 10
420.0
 20
297.0
  9
$UNITMODE
 70
     0
  9
$VISRETAIN
 70
     1
  9
$PLINEGEN
 70
     0
  9
$PSLTSCALE
 70
     1
  9
$TREEDEPTH
 70
  3020
  9
$CMLSTYLE
  2
Standard
  9
$CMLJUST
 70
     0
  9
$CMLSCALE
 40
20.0
  9
$PROXYGRAPHICS
 70
     1
  9
$MEASUREMENT
 70
     1
  9
$CELWEIGHT
370
    -1
  9
$ENDCAPS
280
     0
  9
$JOINSTYLE
280
     0
  9
$LWDISPLAY
290
     0
  9
$INSUNITS
 70
     4
  9
$HYPERLINKBASE
  1

  9
$STYLESHEET
  1
sanindusa.ctb
  9
$XEDIT
290
     1
  9
$CEPSNTYPE
380
     0
  9
$PSTYLEMODE
290
     1
  9
$FINGERPRINTGUID
  2
{3D6A32ED-BB8A-4BB5-8460-022A41340134}
  9
$VERSIONGUID
  2
{A083692D-ED0B-4F3E-94D5-BEA07A93C942}
  9
$EXTNAMES
290
     1
  9
$PSVPSCALE
 40
0.0
  9
$OLESTARTUP
290
     0
  0
ENDSEC
  0
SECTION
  2
CLASSES
  0
CLASS
  1
ACDBDICTIONARYWDFLT
  2
AcDbDictionaryWithDefault
  3
ObjectDBX Classes
 90
        0
280
     0
281
     0
  0
CLASS
  1
ACDBPLACEHOLDER
  2
AcDbPlaceHolder
  3
ObjectDBX Classes
 90
        0
280
     0
281
     0
  0
CLASS
  1
LAYOUT
  2
AcDbLayout
  3
ObjectDBX Classes
 90
        0
280
     0
281
     0
  0
CLASS
  1
DICTIONARYVAR
  2
AcDbDictionaryVar
  3
ObjectDBX Classes
 90
        0
280
     0
281
     0
  0
CLASS
  1
DIMASSOC
  2
AcDbDimAssoc
  3
"AcDbDimAssoc|Product Desc:     AcDim ARX App For Dimension|Company:          Autodesk, Inc.|WEB Address:      www.autodesk.com"
 90
    32768
280
     0
281
     0
  0
CLASS
  1
TABLESTYLE
  2
AcDbTableStyle
  3
ObjectDBX Classes
 90
     4095
280
     0
281
     0
  0
CLASS
  1
MATERIAL
  2
AcDbMaterial
  3
ObjectDBX Classes
 90
     1153
280
     0
281
     0
  0
CLASS
  1
VISUALSTYLE
  2
AcDbVisualStyle
  3
ObjectDBX Classes
 90
     4095
280
     0
281
     0
  0
CLASS
  1
SCALE
  2
AcDbScale
  3
ObjectDBX Classes
 90
     1153
280
     0
281
     0
  0
CLASS
  1
MLEADERSTYLE
  2
AcDbMLeaderStyle
  3
ACDB_MLEADERSTYLE_CLASS
 90
     4095
280
     0
281
     0
  0
CLASS
  1
SORTENTSTABLE
  2
AcDbSortentsTable
  3
ObjectDBX Classes
 90
    32768
280
     0
281
     0
  0
CLASS
  1
AEC_REFEDIT_STATUS_TRACKER
  2
AecDbRefEditStatusTracker
  3
AecArchBase60|Product Desc: Autodesk Architectural Desktop 2007 |Company: Autodesk,Inc. |WEB Address: www.autodesk.com
 90
    32897
280
     0
281
     0
  0
CLASS
  1
NPOCOLLECTION
  2
AcDbImpNonPersistentObjectsCollection
  3
ObjectDBX Classes
 90
    33921
280
     0
281
     0
  0
CLASS
  1
CELLSTYLEMAP
  2
AcDbCellStyleMap
  3
ObjectDBX Classes
 90
     1152
280
     0
281
     0
  0
CLASS
  1
SOLID_BACKGROUND
  2
AcDbSolidBackground
  3
SCENEOE
 90
    36863
280
     0
281
     0
  0
ENDSEC
  0
SECTION
  2
TABLES
  0
TABLE
  2
VPORT
  5
8
102
{ACAD_XDICTIONARY
360
2245
102
}
330
0
100
AcDbSymbolTable
 70
     1
  0
VPORT
  5
1068
330
8
100
AcDbSymbolTableRecord
100
AcDbViewportTableRecord
  2
*Active
 70
     0
 10
0.0
 20
0.0
 11
1.0
 21
1.0
 12
4645.420898928636
 22
2353.13446905134
 13
0.0
 23
0.0
 14
10.0
 24
10.0
 15
10.0
 25
10.0
 16
0.0
 26
0.0
 36
1.0
 17
0.0
 27
0.0
 37
0.0
 40
1.070537116050002
 41
1.645464025026068
 42
50.0
 43
0.0
 44
0.0
 50
0.0
 51
0.0
 71
     0
 72
   100
 73
     1
 74
     2
 75
     0
 76
     0
 77
     0
 78
     0
281
     0
 65
     1
110
0.0
120
0.0
130
0.0
111
1.0
121
0.0
131
0.0
112
0.0
122
1.0
132
0.0
 79
     0
146
0.0
  0
ENDTAB
  0
TABLE
  2
LTYPE
  5
5
330
0
100
AcDbSymbolTable
 70
     6
  0
LTYPE
  5
14
330
5
100
AcDbSymbolTableRecord
100
AcDbLinetypeTableRecord
  2
ByBlock
 70
     0
  3

 72
    65
 73
     0
 40
0.0
  0
LTYPE
  5
15
330
5
100
AcDbSymbolTableRecord
100
AcDbLinetypeTableRecord
  2
ByLayer
 70
     0
  3

 72
    65
 73
     0
 40
0.0
  0
LTYPE
  5
16
330
5
100
AcDbSymbolTableRecord
100
AcDbLinetypeTableRecord
  2
Continuous
 70
     0
  3
Solid line
 72
    65
 73
     0
 40
0.0
  0
LTYPE
  5
2D
330
5
100
AcDbSymbolTableRecord
100
AcDbLinetypeTableRecord
  2
DASHDOT
 70
     0
  3
Dash dot __ . __ . __ . __ . __ . __ . __ . __
 72
    65
 73
     4
 40
25.4
 49
12.7
 74
     0
 49
-6.349999999999999
 74
     0
 49
0.0
 74
     0
 49
-6.349999999999999
 74
     0
  0
LTYPE
  5
2E
330
5
100
AcDbSymbolTableRecord
100
AcDbLinetypeTableRecord
  2
HIDDEN
 70
     0
  3
Hidden __ __ __ __ __ __ __ __ __ __ __ __ __ _
 72
    65
 73
     2
 40
9.524999999999998
 49
6.349999999999999
 74
     0
 49
-3.174999999999999
 74
     0
  0
LTYPE
  5
C75
330
5
100
AcDbSymbolTableRecord
100
AcDbLinetypeTableRecord
  2
AM_ISO02W050
 70
     0
  3
__ __ __ __ __ __ __ __ __ __ __ __ __ __ __
 72
    65
 73
     2
 40
7.5
 49
6.0
 74
     0
 49
-1.5
 74
     0
  0
LTYPE
  5
C76
330
5
100
AcDbSymbolTableRecord
100
AcDbLinetypeTableRecord
  2
AM_ISO08W050
 70
     0
  3
____ . ____ . ____ . ____ . ____ . ____ . ____
 72
    65
 73
     4
 40
18.0
 49
12.0
 74
     0
 49
-1.5
 74
     0
 49
3.0
 74
     0
 49
-1.5
 74
     0
  0
LTYPE
  5
123E
330
5
100
AcDbSymbolTableRecord
100
AcDbLinetypeTableRecord
  2
SLD-Solid
 70
     0
  3
SolidWorks Line Style
 72
    65
 73
     0
 40
0.0
  0
ENDTAB
  0
TABLE
  2
LAYER
  5
2
102
{ACAD_XDICTIONARY
360
1051
102
}
330
0
100
AcDbSymbolTable
 70
    17
  0
LAYER
  5
10
102
{ACAD_XDICTIONARY
360
21CA
102
}
330
2
100
AcDbSymbolTableRecord
100
AcDbLayerTableRecord
  2
0
 70
     0
 62
     7
  6
Continuous
370
    -3
390
F
  0
LAYER
  5
2F
102
{ACAD_XDICTIONARY
360
21CC
102
}
330
2
100
AcDbSymbolTableRecord
100
AcDbLayerTableRecord
  2
1
 70
     0
 62
     1
  6
Continuous
370
    -3
390
F
  0
LAYER
  5
30
102
{ACAD_XDICTIONARY
360
21CE
102
}
330
2
100
AcDbSymbolTableRecord
100
AcDbLayerTableRecord
  2
2
 70
     0
 62
     2
  6
Continuous
370
    -3
390
F
  0
LAYER
  5
31
102
{ACAD_XDICTIONARY
360
21D0
102
}
330
2
100
AcDbSymbolTableRecord
100
AcDbLayerTableRecord
  2
3
 70
     0
 62
     3
  6
Continuous
370
    -3
390
F
  0
LAYER
  5
32
102
{ACAD_XDICTIONARY
360
21D2
102
}
330
2
100
AcDbSymbolTableRecord
100
AcDbLayerTableRecord
  2
4
 70
     0
 62
     4
  6
Continuous
370
    -3
390
F
  0
LAYER
  5
33
102
{ACAD_XDICTIONARY
360
21D4
102
}
330
2
100
AcDbSymbolTableRecord
100
AcDbLayerTableRecord
  2
5
 70
     0
 62
     5
  6
Continuous
370
    -3
390
F
  0
LAYER
  5
34
102
{ACAD_XDICTIONARY
360
21D6
102
}
330
2
100
AcDbSymbolTableRecord
100
AcDbLayerTableRecord
  2
6
 70
     0
 62
     6
  6
Continuous
370
    -3
390
F
  0
LAYER
  5
35
102
{ACAD_XDICTIONARY
360
21D8
102
}
330
2
100
AcDbSymbolTableRecord
100
AcDbLayerTableRecord
  2
7
 70
     0
 62
     7
  6
Continuous
370
    -3
390
F
  0
LAYER
  5
36
102
{ACAD_XDICTIONARY
360
21DA
102
}
330
2
100
AcDbSymbolTableRecord
100
AcDbLayerTableRecord
  2
cen
 70
     0
 62
     7
  6
DASHDOT
370
    -3
390
F
  0
LAYER
  5
37
102
{ACAD_XDICTIONARY
360
21DC
102
}
330
2
100
AcDbSymbolTableRecord
100
AcDbLayerTableRecord
  2
hid
 70
     0
 62
     7
  6
HIDDEN
370
    -3
390
F
  0
LAYER
  5
5D6
102
{ACAD_XDICTIONARY
360
21DE
102
}
330
2
100
AcDbSymbolTableRecord
100
AcDbLayerTableRecord
  2
hatch
 70
     0
 62
     9
  6
Continuous
370
    -3
390
F
  0
LAYER
  5
8AF
102
{ACAD_XDICTIONARY
360
21E0
102
}
330
2
100
AcDbSymbolTableRecord
100
AcDbLayerTableRecord
  2
9
 70
     0
 62
     9
  6
Continuous
370
    -3
390
F
  0
LAYER
  5
8F8
102
{ACAD_XDICTIONARY
360
21E2
102
}
330
2
100
AcDbSymbolTableRecord
100
AcDbLayerTableRecord
  2
leg fin
 70
     0
 62
     9
  6
Continuous
370
    -3
390
F
  0
LAYER
  5
91D
102
{ACAD_XDICTIONARY
360
21E4
102
}
330
2
100
AcDbSymbolTableRecord
100
AcDbLayerTableRecord
  2
cotas
 70
     0
 62
     1
  6
Continuous
370
    -3
390
F
  0
LAYER
  5
92F
330
2
100
AcDbSymbolTableRecord
100
AcDbLayerTableRecord
  2
Defpoints
 70
     0
 62
     7
  6
Continuous
290
     0
370
    -3
390
F
  0
LAYER
  5
C7B
102
{ACAD_XDICTIONARY
360
21E6
102
}
330
2
100
AcDbSymbolTableRecord
100
AcDbLayerTableRecord
  2
SANINDUSA
 70
     0
 62
     3
  6
Continuous
370
    -3
390
F
  0
LAYER
  5
1060
102
{ACAD_XDICTIONARY
360
21E8
102
}
330
2
100
AcDbSymbolTableRecord
100
AcDbLayerTableRecord
  2
hid1
 70
     0
 62
     9
  6
HIDDEN
370
    -3
390
F
1001
AcAecLayerStandard
1000

1000

  0
ENDTAB
  0
TABLE
  2
STYLE
  5
3
330
0
100
AcDbSymbolTable
 70
     4
  0
STYLE
  5
11
330
3
100
AcDbSymbolTableRecord
100
AcDbTextStyleTableRecord
  2
Standard
 70
     0
 40
0.0
 41
1.0
 50
0.0
 71
     0
 42
2.5
  3
Avgardn.ttf
  4

1001
ACAD
1000
AvantGarde Bk BT
1071
       34
  0
STYLE
  5
2C
330
3
100
AcDbSymbolTableRecord
100
AcDbTextStyleTableRecord
  2

 70
     1
 40
0.0
 41
1.0
 50
0.0
 71
     0
 42
2.5
  3
ltypeshp.shx
  4

  0
STYLE
  5
91F
330
3
100
AcDbSymbolTableRecord
100
AcDbTextStyleTableRecord
  2
SANINDUSA
 70
     0
 40
0.0
 41
1.0
 50
0.0
 71
     0
 42
2.5
  3
verdana.TTF
  4

1001
ACAD
1000
Verdana
1071
       34
  0
STYLE
  5
C7C
330
3
100
AcDbSymbolTableRecord
100
AcDbTextStyleTableRecord
  2
futura
 70
     0
 40
0.0
 41
1.0
 50
0.0
 71
     0
 42
2.5
  3
ZURCHN.TTF
  4

1001
ACAD
1000
Zurich BT
1071
       34
  0
ENDTAB
  0
TABLE
  2
VIEW
  5
6
330
0
100
AcDbSymbolTable
 70
     0
  0
ENDTAB
  0
TABLE
  2
UCS
  5
7
330
0
100
AcDbSymbolTable
 70
     0
  0
ENDTAB
  0
TABLE
  2
APPID
  5
9
330
0
100
AcDbSymbolTable
 70
    15
  0
APPID
  5
12
330
9
100
AcDbSymbolTableRecord
100
AcDbRegAppTableRecord
  2
ACAD
 70
     0
  0
APPID
  5
3A
330
9
100
AcDbSymbolTableRecord
100
AcDbRegAppTableRecord
  2
DCO15
 70
     0
  0
APPID
  5
EEE
330
9
100
AcDbSymbolTableRecord
100
AcDbRegAppTableRecord
  2
ACAD_DSTYLE_DIMTEXT_FILL
 70
     0
  0
APPID
  5
EEF
330
9
100
AcDbSymbolTableRecord
100
AcDbRegAppTableRecord
  2
ACAD_DSTYLE_DIMEXT_LENGTH
 70
     0
  0
APPID
  5
EF0
330
9
100
AcDbSymbolTableRecord
100
AcDbRegAppTableRecord
  2
ACAD_DSTYLE_DIMEXT_ENABLED
 70
     0
  0
APPID
  5
EF1
330
9
100
AcDbSymbolTableRecord
100
AcDbRegAppTableRecord
  2
ACAD_DSTYLE_DIM_LINETYPE
 70
     0
  0
APPID
  5
EF2
330
9
100
AcDbSymbolTableRecord
100
AcDbRegAppTableRecord
  2
ACAD_DSTYLE_DIM_EXT1_LINETYPE
 70
     0
  0
APPID
  5
EF3
330
9
100
AcDbSymbolTableRecord
100
AcDbRegAppTableRecord
  2
ACAD_DSTYLE_DIM_EXT2_LINETYPE
 70
     0
  0
APPID
  5
FAF
330
9
100
AcDbSymbolTableRecord
100
AcDbRegAppTableRecord
  2
ACAD_DSTYLE_DIMJOGGED_JOGANGLE_SYMBOL
 70
     0
  0
APPID
  5
1013
330
9
100
AcDbSymbolTableRecord
100
AcDbRegAppTableRecord
  2
ACAD_DSTYLE_DIMARC_LENGTH_SYMBOL
 70
     0
  0
APPID
  5
1061
330
9
100
AcDbSymbolTableRecord
100
AcDbRegAppTableRecord
  2
AcAecLayerStandard
 70
     0
  0
APPID
  5
123F
330
9
100
AcDbSymbolTableRecord
100
AcDbRegAppTableRecord
  2
ACAD_DSTYLE_DIMJAG
 70
     0
  0
APPID
  5
1240
330
9
100
AcDbSymbolTableRecord
100
AcDbRegAppTableRecord
  2
ACAD_DSTYLE_DIMTALN
 70
     0
  0
APPID
  5
1241
330
9
100
AcDbSymbolTableRecord
100
AcDbRegAppTableRecord
  2
ACAD_DSTYLE_DIMRADIAL_EXTENSION
 70
     0
  0
APPID
  5
2277
330
9
100
AcDbSymbolTableRecord
100
AcDbRegAppTableRecord
  2
ACAD_MLEADERVER
 70
     0
  0
ENDTAB
  0
TABLE
  2
DIMSTYLE
  5
A
330
0
100
AcDbSymbolTable
 70
     3
100
AcDbDimStyleTable
 71
     1
340
921
  0
DIMSTYLE
105
45
330
A
100
AcDbSymbolTableRecord
100
AcDbDimStyleTableRecord
  2
STANDARD
 70
     0
289
     0
340
11
  0
DIMSTYLE
105
921
330
A
100
AcDbSymbolTableRecord
100
AcDbDimStyleTableRecord
  2
SANINDUSA
 70
     0
 41
2.0
 42
1.0
 43
1.0
 44
1.0
 73
     0
 74
     0
 77
     1
 78
     8
140
2.0
141
0.0
143
0.03937007874016
147
1.0
171
     3
172
     1
176
   256
177
   256
178
   256
179
     1
271
     1
272
     1
274
     3
278
    44
283
     0
284
     8
340
91F
371
    -1
372
    -1
1001
ACAD_DSTYLE_DIMJOGGED_JOGANGLE_SYMBOL
1070
   384
1040
1.570796326794896
  0
DIMSTYLE
105
C7D
330
A
100
AcDbSymbolTableRecord
100
AcDbDimStyleTableRecord
  2
AM_ISO
 70
     0
  4
"
 41
2.5
 42
1.0
 43
10.0
 44
1.0
 47
0.1
 48
0.1
 73
     0
 74
     0
 77
     1
 78
     8
 79
     2
140
3.5
141
0.0
143
0.0393701
146
0.71
147
1.5
172
     1
176
   256
177
   256
178
     2
271
     2
272
     3
274
     4
283
     0
284
     8
340
11
371
    -1
372
    -1
  0
ENDTAB
  0
TABLE
  2
BLOCK_RECORD
  5
1
330
0
100
AcDbSymbolTable
 70
    85
  0
BLOCK_RECORD
  5
1F
330
1
100
AcDbSymbolTableRecord
100
AcDbBlockTableRecord
  2
*Model_Space
340
22
  0
BLOCK_RECORD
  5
1B
330
1
100
AcDbSymbolTableRecord
100
AcDbBlockTableRecord
  2
*Paper_Space
340
1E
  0
BLOCK_RECORD
  5
23
330
1
100
AcDbSymbolTableRecord
100
AcDbBlockTableRecord
  2
*Paper_Space0
340
26
  0
BLOCK_RECORD
  5
919
330
1
100
AcDbSymbolTableRecord
100
AcDbBlockTableRecord
  2
_DotSmall
340
0
  0
BLOCK_RECORD
  5
922
330
1
100
AcDbSymbolTableRecord
100
AcDbBlockTableRecord
  2
base para cotas
340
0
310
2800000020000000200000000100080000000000000400000000000000000000000000000000000000000000000080000080000000808000800000008000800080800000C0C0C000C0DCC000F0CAA6000020400000206000002080000020A0000020C0000020E00000400000004020000040400000406000004080000040A0
310
000040C0000040E00000600000006020000060400000606000006080000060A0000060C0000060E00000800000008020000080400000806000008080000080A0000080C0000080E00000A0000000A0200000A0400000A0600000A0800000A0A00000A0C00000A0E00000C0000000C0200000C0400000C0600000C0800000C0
310
A00000C0C00000C0E00000E0000000E0200000E0400000E0600000E0800000E0A00000E0C00000E0E00040000000400020004000400040006000400080004000A0004000C0004000E00040200000402020004020400040206000402080004020A0004020C0004020E000404000004040200040404000404060004040800040
310
40A0004040C0004040E00040600000406020004060400040606000406080004060A0004060C0004060E00040800000408020004080400040806000408080004080A0004080C0004080E00040A0000040A0200040A0400040A0600040A0800040A0A00040A0C00040A0E00040C0000040C0200040C0400040C0600040C08000
310
40C0A00040C0C00040C0E00040E0000040E0200040E0400040E0600040E0800040E0A00040E0C00040E0E00080000000800020008000400080006000800080008000A0008000C0008000E00080200000802020008020400080206000802080008020A0008020C0008020E00080400000804020008040400080406000804080
310
008040A0008040C0008040E00080600000806020008060400080606000806080008060A0008060C0008060E00080800000808020008080400080806000808080008080A0008080C0008080E00080A0000080A0200080A0400080A0600080A0800080A0A00080A0C00080A0E00080C0000080C0200080C0400080C0600080C0
310
800080C0A00080C0C00080C0E00080E0000080E0200080E0400080E0600080E0800080E0A00080E0C00080E0E000C0000000C0002000C0004000C0006000C0008000C000A000C000C000C000E000C0200000C0202000C0204000C0206000C0208000C020A000C020C000C020E000C0400000C0402000C0404000C0406000C0
310
408000C040A000C040C000C040E000C0600000C0602000C0604000C0606000C0608000C060A000C060C000C060E000C0800000C0802000C0804000C0806000C0808000C080A000C080C000C080E000C0A00000C0A02000C0A04000C0A06000C0A08000C0A0A000C0A0C000C0A0E000C0C00000C0C02000C0C04000C0C06000
310
C0C08000C0C0A000F0FBFF00A4A0A000808080000000FF0000FF000000FFFF00FF000000FF00FF00FFFF0000FFFFFF00A4A4A4A4A4A4A4A4A4A4A4A4A4A4A4A4A4A4A4A4A4A4A4A4A4A4A4A4A4A4A4A4A4A4A4A4A4A4A4A4A4A4A4A4A4A4A4A4A4A4A4A4A4A4A4A4A4A4A4A4A4A4A4A4A4A4A4A4A4A4A4A4A4A4A4A4A4A4A4
310
A4A4A4A4A4A4A4A4A4A4A4A4A4A4A4A4A4A4A4A4A4A4A4A4A4A4A4A4A4A4A4A4A4A4A4A4A4A4A4A4A4A4A4A4A4A4A4A4A4A4A4A4A4A4A4A4A4A4A4A4A4A4A4A4A4A4A4A4A4A4A4A4A4A4A4A4A4A4A4A4A4A4A4A4A4A4A4A4A4A4A4A4A4A4A4A4A4A4A4A4A4A4A4A4A4A4A4A4A4A4A4A4A4A4A4A4A4A4A4A4A4A4A4A4A4A4A4
310
A4A4A4A4A4A4A4A4A4A4A4A4A4A4A4A4A4A4A4A4A4A4A4A4A4A4A4A4A4A4A4A4A4A4A4A4A4A4A4A4A4A4A4A4A4A4A4A4A4A4A4A4A4A4A4A4A4A4A4A4A4A4A4A4A4A4A4A4A4A4A4A4A4A4A4A4A4A4A4A4A4A4A4A4A4A4A4A4A4A4A4A4A4A4A4A4A4A4A4A4A4A4A4A4A4A4A4A4A4A4A4A4A4A4A4A4A4A4A4A4A4A4A4A4A4A4A4
310
A4A4A4A4A4A4A4A4A4A4A4A4A4A4A4A4A4A4A4A4A4A4A4A4A4A4A4A4A4A4A4A4A4A4A4A4A4A4A4A4A4A4A4A4A4A4A4A4A4A4A4A4A4A4A4A4A4A4A4A4A4A4A4A4A4A4A4A4A4A4A4A4A4A4A4A4A4A4A4A4A4A4A4A4A4A4A4A4A4A4A4A4A4A4A4A4A4A4A4A4A4A4A4A4A4A4A4A4A4A4A4A4A4A4A4A4F9F9F9F9F9F9F9F9F9F9F9
310
F9F9F9F9F9F9F9F9F9F9F9F9F9F9F9F9F9F9F9A4A4F9F9F9F9F9F9F9F9F9F9F9F9F9F9F9F9F9F9F9F9F9F9F9F9F9F9F9F9F9F9A4A4F9F9F9F9F9F9F9F9F9F9F9F9F9F9F9F9F9F9F9F9F9F9F9F9F9F9F9F9F9F9A4A4F9A4A4A4A4A4A4A4A4A4A4A4A4A4A4A4A4A4A4A4A4A4A4A4A4A4A4A4A4F9A4A4A4A4A4A4A4A4A4A4A4A4
310
A4A4A4A4A4A4A4A4A4A4A4A4A4A4A4A4A4A4A4A4A4A4A4A4A4A4A4A4A4A4A4A4A4A4A4A4A4A4A4A4A4A4A4A4A4A4A4A4A4A4A4A4A4A4A4A4A4A4A4A4A4A4A4A4A4A4A4A4A4A4A4A4A4A4A4A4A4A4A4A4A4A4A4A4A4A4A4A4A4A4A4A4A4A4A4A4A4A4A4A4A4A4A4A4A4A4A4A4A4A4A4A4A4A4A4A4A4A4A4A4A4A4A4A4A4A4A4
310
A4A4A4A4A4A4A4A4A4A4A4A4A4A4A4A4A4A4A4A4A4A4A4A4A4A4A4A4A4A4A4A4A4A4A4A4A4A4A4A4A4A4A4A4A4A4A4A4A4A4A4A4A4A4A4A4A4A4A4A4A4A4A4A4A4A4A4A4A4A4A4A4A4A4A4A4A4A4A4A4A4A4A4A4A4A4A4A4A4A4A4A4A4A4A4A4A4A4A4A4A4A4A4A4A4A4A4A4A4A4A4A4A4A4A4A4A4A4A4A4A4A4A4A4A4A4A4
310
A4A4A4A4A4A4A4A4A4A4A4A4A4A4A4A4A4A4A4A4A4A4A4A4A4A4A4A4A4A4A4A4A4A4A4A4A4A4A4A4A4A4A4A4A4A4A4A4A4A4A4A4A4A4A4A4A4A4A4A4A4A4A4A4A4A4A4A4A4A4A4A4A4A4A4A4A4A4A4A4A4A4A4A4A4A4A4A4A4A4A4A4A4A4A4A4A4A4A4A4A4A4A4A4A4A4A4A4A4A4A4A4A4A4A4A4A4A4A4A4A4A4A4A4A4A4A4
310
A4A4A4A4A4A4A4A4A4A4A4A4A4A4A4A4A4A4A4A4A4A4A4A4A4A4A4A4A4A4A4A4A4A4A4A4A4A4A4A4A4A4A4A4A4A4A4A4A4A4A4A4A4A4A4A4
1001
ACAD
1000
DesignCenter Data
1002
{
1070
     1
1070
     4
1002
}
  0
BLOCK_RECORD
  5
AA8
330
1
100
AcDbSymbolTableRecord
100
AcDbBlockTableRecord
  2
_CLOSED
340
0
  0
BLOCK_RECORD
  5
B79
330
1
100
AcDbSymbolTableRecord
100
AcDbBlockTableRecord
  2
nota revisoes
340
0
1001
ACAD
1000
DesignCenter Data
1002
{
1070
     1
1070
     4
1002
}
  0
BLOCK_RECORD
  5
B8E
330
1
100
AcDbSymbolTableRecord
100
AcDbBlockTableRecord
  2
a3l
340
0
1001
ACAD
1000
DesignCenter Data
1002
{
1070
     1
1070
     4
1002
}
  0
BLOCK_RECORD
  5
B9E
330
1
100
AcDbSymbolTableRecord
100
AcDbBlockTableRecord
  2
legenda desenvolvimento
340
0
1001
ACAD
1000
DesignCenter Data
1002
{
1070
     1
1070
     4
1002
}
  0
BLOCK_RECORD
  5
10B3
330
1
100
AcDbSymbolTableRecord
100
AcDbBlockTableRecord
  2
SW_CENTERMARKSYMBOL_0
340
0
  0
ENDTAB
  0
ENDSEC
  0
SECTION
  2
BLOCKS
  0
BLOCK
  5
20
330
1F
100
AcDbEntity
  8
0
100
AcDbBlockBegin
  2
*Model_Space
 70
     0
 10
0.0
 20
0.0
 30
0.0
  3
*Model_Space
  1

  0
ENDBLK
  5
21
330
1F
100
AcDbEntity
  8
0
100
AcDbBlockEnd
  0
BLOCK
  5
1C
330
1B
100
AcDbEntity
 67
     1
  8
0
100
AcDbBlockBegin
  2
*Paper_Space
 70
     0
 10
0.0
 20
0.0
 30
0.0
  3
*Paper_Space
  1

  0
ENDBLK
  5
1D
330
1B
100
AcDbEntity
 67
     1
  8
0
100
AcDbBlockEnd
  0
BLOCK
  5
24
330
23
100
AcDbEntity
 67
     1
  8
0
100
AcDbBlockBegin
  2
*Paper_Space0
 70
     0
 10
0.0
 20
0.0
 30
0.0
  3
*Paper_Space0
  1

  0
ENDBLK
  5
25
330
23
100
AcDbEntity
 67
     1
  8
0
100
AcDbBlockEnd
  0
BLOCK
  5
91B
330
919
100
AcDbEntity
  8
0
100
AcDbBlockBegin
  2
_DotSmall
 70
     0
 10
0.0
 20
0.0
 30
0.0
  3
_DotSmall
  1

  0
LWPOLYLINE
  5
91A
330
919
100
AcDbEntity
  8
0
  6
ByBlock
 62
     0
100
AcDbPolyline
 90
        2
 70
     1
 43
0.5
 10
-0.0625
 20
0.0
 42
1.0
 10
0.0625
 20
0.0
 42
1.0
  0
ENDBLK
  5
91C
330
919
100
AcDbEntity
  8
0
100
AcDbBlockEnd
  0
BLOCK
  5
92A
330
922
100
AcDbEntity
  8
0
100
AcDbBlockBegin
  2
base para cotas
 70
     0
 10
0.0
 20
0.0
 30
0.0
  3
base para cotas
  1

  0
LINE
  5
B36
330
922
100
AcDbEntity
  8
cotas
100
AcDbLine
 10
0.0
 20
-30.0
 30
0.0
 11
327.1260136525398
 21
-30.0
 31
0.0
  0
LINE
  5
B37
330
922
100
AcDbEntity
  8
cotas
100
AcDbLine
 10
0.0
 20
-25.0
 30
0.0
 11
327.1260136525398
 21
-25.0
 31
0.0
  0
LINE
  5
B38
330
922
100
AcDbEntity
  8
cotas
100
AcDbLine
 10
0.0
 20
-20.0
 30
0.0
 11
327.1260136525398
 21
-20.0
 31
0.0
  0
LINE
  5
B39
330
922
100
AcDbEntity
  8
cotas
100
AcDbLine
 10
0.0
 20
-15.0
 30
0.0
 11
327.1260136525398
 21
-15.0
 31
0.0
  0
LINE
  5
B3A
330
922
100
AcDbEntity
  8
cotas
100
AcDbLine
 10
0.0
 20
-10.0
 30
0.0
 11
327.1260136525398
 21
-10.0
 31
0.0
  0
LINE
  5
B3B
330
922
100
AcDbEntity
  8
cotas
100
AcDbLine
 10
0.0
 20
0.0
 30
0.0
 11
0.0
 21
-30.0
 31
0.0
  0
LINE
  5
B3C
330
922
100
AcDbEntity
  8
cotas
100
AcDbLine
 10
327.1260136525398
 20
-30.0
 30
0.0
 11
327.1260136525398
 21
0.0
 31
0.0
  0
ENDBLK
  5
92B
330
922
100
AcDbEntity
  8
0
100
AcDbBlockEnd
  0
BLOCK
  5
AAD
330
AA8
100
AcDbEntity
  8
0
100
AcDbBlockBegin
  2
_CLOSED
 70
     0
 10
0.0
 20
0.0
 30
0.0
  3
_CLOSED
  1

  0
LINE
  5
AA9
330
AA8
100
AcDbEntity
  8
0
100
AcDbLine
 10
-1.0
 20
0.166667
 30
0.0
 11
0.0
 21
0.0
 31
0.0
  0
LINE
  5
AAA
330
AA8
100
AcDbEntity
  8
0
100
AcDbLine
 10
0.0
 20
0.0
 30
0.0
 11
-1.0
 21
-0.166667
 31
0.0
  0
LINE
  5
AAB
330
AA8
100
AcDbEntity
  8
0
100
AcDbLine
 10
-1.0
 20
0.166667
 30
0.0
 11
-1.0
 21
-0.166667
 31
0.0
  0
LINE
  5
AAC
330
AA8
100
AcDbEntity
  8
0
100
AcDbLine
 10
0.0
 20
0.0
 30
0.0
 11
-1.0
 21
0.0
 31
0.0
  0
ENDBLK
  5
AAE
330
AA8
100
AcDbEntity
  8
0
100
AcDbBlockEnd
  0
BLOCK
  5
B7C
330
B79
100
AcDbEntity
  8
0
100
AcDbBlockBegin
  2
nota revisoes
 70
     0
 10
0.0
 20
0.0
 30
0.0
  3
nota revisoes
  1

  0
CIRCLE
  5
B7A
330
B79
100
AcDbEntity
  8
4
100
AcDbCircle
 10
0.0
 20
0.0
 30
0.0
 40
13.69426055101189
  0
TEXT
  5
B7B
330
B79
100
AcDbEntity
  8
4
100
AcDbText
 10
-5.496248358154345
 20
-5.354545554066362
 30
0.0
 40
12.0
  1
1
  7
SANINDUSA
 72
     1
 11
-0.249774214433728
 21
-5.354545554066362
 31
0.0
100
AcDbText
  0
ENDBLK
  5
B7D
330
B79
100
AcDbEntity
  8
0
100
AcDbBlockEnd
  0
BLOCK
  5
B9C
330
B8E
100
AcDbEntity
  8
0
100
AcDbBlockBegin
  2
a3l
 70
     0
 10
0.0
 20
0.0
 30
0.0
  3
a3l
  1

  0
LINE
  5
B8F
330
B8E
100
AcDbEntity
  8
1
100
AcDbLine
 10
-364.2925296599447
 20
-362.1188951399395
 30
0.0
 11
-364.2925296599447
 21
-65.11889513993946
 31
0.0
  0
LINE
  5
B90
330
B8E
100
AcDbEntity
  8
4
100
AcDbLine
 10
-369.2925296599447
 20
-357.1188951399395
 30
0.0
 11
-369.2925296599447
 21
-70.11889513993946
 31
0.0
  0
LINE
  5
B91
330
B8E
100
AcDbEntity
  8
1
100
AcDbLine
 10
-784.2925296599446
 20
-65.11889513993946
 30
0.0
 11
-784.2925296599446
 21
-362.1188951399395
 31
0.0
  0
LINE
  5
B92
330
B8E
100
AcDbEntity
  8
4
100
AcDbLine
 10
-759.2925296599446
 20
-357.1188951399395
 30
0.0
 11
-759.2925296599446
 21
-70.11889513993946
 31
0.0
  0
LINE
  5
B93
330
B8E
100
AcDbEntity
  8
1
100
AcDbLine
 10
-784.2925296599446
 20
-362.1188951399395
 30
0.0
 11
-364.2925296599447
 21
-362.1188951399395
 31
0.0
  0
LINE
  5
B94
330
B8E
100
AcDbEntity
  8
4
100
AcDbLine
 10
-759.2925296599446
 20
-357.1188951399395
 30
0.0
 11
-369.2925296599447
 21
-357.1188951399395
 31
0.0
  0
LINE
  5
B95
330
B8E
100
AcDbEntity
  8
1
100
AcDbLine
 10
-654.2925296599446
 20
-357.1188951399395
 30
0.0
 11
-654.2925296599446
 21
-362.1188951399395
 31
0.0
  0
LINE
  5
B96
330
B8E
100
AcDbEntity
  8
1
100
AcDbLine
 10
-364.2925296599447
 20
-65.11889513993946
 30
0.0
 11
-784.2925296599446
 21
-65.11889513993946
 31
0.0
  0
LINE
  5
B97
330
B8E
100
AcDbEntity
  8
4
100
AcDbLine
 10
-369.2925296599447
 20
-70.11889513993946
 30
0.0
 11
-759.2925296599446
 21
-70.11889513993946
 31
0.0
  0
LINE
  5
B98
330
B8E
100
AcDbEntity
  8
1
100
AcDbLine
 10
-654.2925296599446
 20
-65.11889513993946
 30
0.0
 11
-654.2925296599446
 21
-70.11889513993946
 31
0.0
  0
LINE
  5
B99
330
B8E
100
AcDbEntity
  8
1
100
AcDbLine
 10
-549.2925296599446
 20
-70.11889513993946
 30
0.0
 11
-549.2925296599446
 21
-65.11889513993946
 31
0.0
  0
LINE
  5
B9A
330
B8E
100
AcDbEntity
  8
1
100
AcDbLine
 10
-369.2925296599447
 20
-65.11889513993946
 30
0.0
 11
-364.2925296599447
 21
-65.11889513993946
 31
0.0
  0
LINE
  5
B9B
330
B8E
100
AcDbEntity
  8
1
100
AcDbLine
 10
-549.2925296599446
 20
-357.1188951399395
 30
0.0
 11
-549.2925296599446
 21
-362.1188951399395
 31
0.0
  0
ENDBLK
  5
B9D
330
B8E
100
AcDbEntity
  8
0
100
AcDbBlockEnd
  0
BLOCK
  5
C13
330
B9E
100
AcDbEntity
  8
0
100
AcDbBlockBegin
  2
legenda desenvolvimento
 70
     2
 10
0.0
 20
0.0
 30
0.0
  3
legenda desenvolvimento
  1

  0
ATTDEF
  5
B9F
330
B9E
100
AcDbEntity
  8
1
100
AcDbText
 10
-108.606245802552
 20
55.5
 30
0.0
 40
4.0
  1
XXXXXXXXXXXXXX
 41
0.8
  7
SANINDUSA
 72
     4
 11
-87.5
 21
57.5
 31
0.0
100
AcDbAttributeDefinition
  3
Nome do Produto:
  2
PRODUTO
 70
     0
  0
ATTDEF
  5
BA0
330
B9E
100
AcDbEntity
  8
1
100
AcDbText
 10
-97.9997966101695
 20
41.25
 30
0.0
 40
3.0
  1
XXXXXXXXX
 41
0.8
  7
futura
 72
     4
 11
-87.5
 21
42.75
 31
0.0
100
AcDbAttributeDefinition
  3
Nome da Peça:
  2
PECA
 70
     0
  0
ATTDEF
  5
BA1
330
B9E
100
AcDbEntity
  8
1
100
AcDbText
 10
-133.4422431161853
 20
21.11745296763252
 30
0.0
 40
2.5
  1
X
 41
0.8
  7
SANINDUSA
 72
     4
 11
-132.5
 21
22.36745296763252
 31
0.0
100
AcDbAttributeDefinition
  3
Cod. TESTE:
  2
TESTE
 70
     0
  0
ATTDEF
  5
BA2
330
B9E
100
AcDbEntity
  8
1
100
AcDbText
 10
-124.3844862323707
 20
21.11745296763252
 30
0.0
 40
2.5
  1
XX
 41
0.8
  7
SANINDUSA
 72
     4
 11
-122.5
 21
22.36745296763252
 31
0.0
100
AcDbAttributeDefinition
  3
Cod. Ano:
  2
ANO
 70
     0
  0
ATTDEF
  5
BA3
330
B9E
100
AcDbEntity
  8
1
100
AcDbText
 10
-112.526889953052
 20
21.11745296763252
 30
0.0
 40
2.5
  1
XXX
 41
0.8
  7
SANINDUSA
 72
     4
 11
-109.700160604496
 21
22.36745296763252
 31
0.0
100
AcDbAttributeDefinition
  3
Cod. Sequência:
  2
SEQUENCIA
 70
     0
  0
ATTDEF
  5
BA4
330
B9E
100
AcDbEntity
  8
1
100
AcDbText
 10
-99.35382430979316
 20
21.11745296763252
 30
0.0
 40
2.5
  1
XX
 41
0.8
  7
SANINDUSA
 72
     4
 11
-97.46933807742244
 21
22.36745296763252
 31
0.0
100
AcDbAttributeDefinition
  3
Cod. Tipo:
  2
TIPO
 70
     0
  0
ATTDEF
  5
BA5
330
B9E
100
AcDbEntity
  8
1
100
AcDbText
 10
-87.42035911468438
 20
21.11745296763252
 30
0.0
 40
2.5
  1
XXX
 41
0.8
  7
SANINDUSA
 72
     4
 11
-84.59362976612828
 21
22.36745296763252
 31
0.0
100
AcDbAttributeDefinition
  3
Cod. Produto:
  2
PRODUTO
 70
     0
  0
ATTDEF
  5
BA6
330
B9E
100
AcDbEntity
  8
1
100
AcDbText
 10
-74.62051971917853
 20
21.11745296763252
 30
0.0
 40
2.5
  1
XXX
 41
0.8
  7
SANINDUSA
 72
     4
 11
-71.79379037062244
 21
22.36745296763252
 31
0.0
100
AcDbAttributeDefinition
  3
Cod. Peça:
  2
PECA
 70
     0
  0
ATTDEF
  5
BA7
330
B9E
100
AcDbEntity
  8
1
100
AcDbText
 10
-61.10603446650329
 20
21.11745296763252
 30
0.0
 40
2.5
  1
XX
 41
0.8
  7
SANINDUSA
 72
     4
 11
-59.22154823413257
 21
22.36745296763252
 31
0.0
100
AcDbAttributeDefinition
  3
Cod. Revisão:
  2
REV
 70
     0
  0
ATTDEF
  5
BA8
330
B9E
100
AcDbEntity
  8
1
100
AcDbText
 10
-48.43615325006194
 20
21.11745296763252
 30
0.0
 40
2.5
  1
XX
 41
0.8
  7
SANINDUSA
 72
     4
 11
-46.55166701769121
 21
22.36745296763252
 31
0.0
100
AcDbAttributeDefinition
  3
Cod. Alteração:
  2
ALT
 70
     0
  0
ATTDEF
  5
BA9
330
B9E
100
AcDbEntity
  8
1
100
AcDbText
 10
-35.19086635325722
 20
23.98875083948959
 30
0.0
 40
3.0
  1
1/XXX
 41
0.8
  7
SANINDUSA
 72
     4
 11
-30.0
 21
25.25
 31
0.0
100
AcDbAttributeDefinition
  3
Escala geral:
  2
ESCALA
 70
     0
  0
ATTDEF
  5
BAA
330
B9E
100
AcDbEntity
  8
1
100
AcDbText
 10
-15.65345869711215
 20
23.75
 30
0.0
 40
3.0
  1
XXXXX
 41
0.8
  7
SANINDUSA
 72
     4
 11
-10.0
 21
25.25
 31
0.0
100
AcDbAttributeDefinition
  3
Folha:
  2
FOLHA
 70
     0
  0
ATTDEF
  5
BAB
330
B9E
100
AcDbEntity
  8
1
100
AcDbText
 10
-178.5146998822042
 20
56.9531347542807
 30
0.0
 40
2.0
  1
xx
 41
0.8
  7
SANINDUSA
 72
     4
 11
-177.2123493113513
 21
57.70330265219877
 31
0.0
100
AcDbAttributeDefinition
  3
revisão
  2
REV.
 70
     0
  0
ATTDEF
  5
BAC
330
B9E
100
AcDbEntity
  8
1
100
AcDbText
 10
-172.7849640077129
 20
56.9531347542807
 30
0.0
 40
2.0
  1
xx
 41
0.8
  7
SANINDUSA
 72
     4
 11
-171.48261343686
 21
57.70330265219877
 31
0.0
100
AcDbAttributeDefinition
  3
alteração
  2
ALT.
 70
     0
  0
ATTDEF
  5
BAD
330
B9E
100
AcDbEntity
  8
1
100
AcDbText
 10
-168.007199951307
 20
56.70330265219877
 30
0.0
 40
2.0
  1
xx/xx/xxxx
 41
0.8
  7
SANINDUSA
 11
-168.007199951307
 21
57.70330265219877
 31
0.0
100
AcDbAttributeDefinition
  3
data
  2
DATA
 70
     0
 74
     2
  0
ATTDEF
  5
BAE
330
B9E
100
AcDbEntity
  8
1
100
AcDbText
 10
-168.5396372253371
 20
13.15916722632639
 30
0.0
 40
2.0
  1
XX/XX/XXXX
 41
0.8
  7
SANINDUSA
 72
     4
 11
-161.5099528734231
 21
14.0
 31
0.0
100
AcDbAttributeDefinition
  3
Data projecto
  2
DATA_PROJ
 70
     0
  0
ATTDEF
  5
BAF
330
B9E
100
AcDbEntity
  8
1
100
AcDbText
 10
-150.8658110728766
 20
13.24983210208193
 30
0.0
 40
2.0
  1
xxxxxxxx
 41
0.8
  7
SANINDUSA
 72
     4
 11
-145.6564087894649
 21
14.0
 31
0.0
100
AcDbAttributeDefinition
  3
nome de quem projectou
  2
NOME
 70
     0
  0
ATTDEF
  5
BB0
330
B9E
100
AcDbEntity
  8
1
100
AcDbText
 10
-168.5396372253371
 20
9.159167226326394
 30
0.0
 40
2.0
  1
XX/XX/XXXX
 41
0.8
  7
SANINDUSA
 72
     4
 11
-161.5099528734231
 21
10.0
 31
0.0
100
AcDbAttributeDefinition
  3
Data desenhou
  2
DATA_DES
 70
     0
  0
ATTDEF
  5
BB1
330
B9E
100
AcDbEntity
  8
1
100
AcDbText
 10
-151.516986358303
 20
9.249832102081933
 30
0.0
 40
2.0
  1
xxxxxxxxx
 41
0.8
  7
SANINDUSA
 72
     4
 11
-145.6564087894649
 21
10.0
 31
0.0
100
AcDbAttributeDefinition
  3
nome
  2
NOME
 70
     0
  0
ATTDEF
  5
BB2
330
B9E
100
AcDbEntity
  8
1
100
AcDbText
 10
-127.2924214135946
 20
14.1979876583216
 30
0.0
 40
2.0
  1
Vitreous China
 41
0.8
  7
SANINDUSA
 72
     4
 11
-119.231709526422
 21
15.22216495852308
 31
0.0
100
AcDbAttributeDefinition
  3
Nome do Material:
  2
MATERIAL
 70
     0
  0
ATTDEF
  5
BB3
330
B9E
100
AcDbEntity
  8
1
100
AcDbText
 10
-103.1563452122093
 20
14.38019043949261
 30
0.0
 40
2.0
  1
Branco
 41
0.8
  7
SANINDUSA
 72
     4
 11
-99.33418268702462
 21
15.35937109765245
 31
0.0
100
AcDbAttributeDefinition
  3
cor da peça
  2
COR
 70
     0
  0
ATTDEF
  5
BB4
330
B9E
100
AcDbEntity
  8
1
100
AcDbText
 10
-116.7235057085292
 20
5.975822699798522
 30
0.0
 40
2.0
  1
Vidrado
 41
0.8
  7
SANINDUSA
 72
     4
 11
-112.5
 21
7.0
 31
0.0
100
AcDbAttributeDefinition
  3
Tipo de acabamento:
  2
ACABAMENTO
 70
     0
  0
ATTDEF
  5
BB5
330
B9E
100
AcDbEntity
  8
1
100
AcDbText
 10
-79.18527869967246
 20
16.65066409850533
 30
0.0
 40
2.0
  1
XXXXXXX
 41
0.8
  7
SANINDUSA
 72
     4
 11
-73.90871724903445
 21
17.65066409850533
 31
0.0
100
AcDbAttributeDefinition
  3
Normas
  2
NORMAS
 70
     0
  0
ATTDEF
  5
BB6
330
B9E
100
AcDbEntity
  8
1
100
AcDbText
 10
-30.55312290127603
 20
14.0
 30
0.0
 40
2.0
  1
XXXXXXXXXXXXXX
 41
0.8
  7
SANINDUSA
 72
     4
 11
-20.0
 21
15.0
 31
0.0
100
AcDbAttributeDefinition
  3
Substitui o desenho:
  2
SUBSTITUI
 70
     0
  0
ATTDEF
  5
BB7
330
B9E
100
AcDbEntity
  8
1
100
AcDbText
 10
-31.30691739422431
 20
6.0
 30
0.0
 40
2.0
  1
XXXXXXXXXXXXXXX
 41
0.8
  7
SANINDUSA
 72
     4
 11
-20.0
 21
7.0
 31
0.0
100
AcDbAttributeDefinition
  3
Substituido por:
  2
SUBSTITUIDO
 70
     0
  0
ATTDEF
  5
BB8
330
B9E
100
AcDbEntity
  8
1
100
AcDbText
 10
-110.0220608548302
 20
1.478208457928303
 30
0.0
 40
2.0
  1
XXXXXXXXXXXXXXXXXXXXXXXXXXXXXXXXXX
 41
0.8
  7
SANINDUSA
 11
-110.0220608548302
 21
2.478208457928303
 31
0.0
100
AcDbAttributeDefinition
  3
Localização do desenho:
  2
LOC-DWG
 70
     0
 74
     2
  0
LINE
  5
BB9
330
B9E
100
AcDbEntity
  8
3
100
AcDbLine
 10
-135.0
 20
4.0
 30
0.0
 11
0.0000000000004547
 21
4.0
 31
0.0
  0
LINE
  5
BBA
330
B9E
100
AcDbEntity
  8
3
100
AcDbLine
 10
-90.00000000000046
 20
12.0
 30
0.0
 11
-135.0
 21
12.0
 31
0.0
  0
LINE
  5
BBB
330
B9E
100
AcDbEntity
  8
3
100
AcDbLine
 10
-135.0
 20
32.5
 30
0.0
 11
-40.0
 21
32.5
 31
0.0
  0
TEXT
  5
BBC
330
B9E
100
AcDbEntity
  8
1
100
AcDbText
 10
-134.0
 20
1.25
 30
0.0
 40
2.0
  1
Localização do des.:
 41
0.8
  7
SANINDUSA
 11
-134.0
 21
2.25
 31
0.0
100
AcDbText
 73
     2
  0
LINE
  5
BBD
330
B9E
100
AcDbEntity
  8
3
100
AcDbLine
 10
-180.0
 20
65.0
 30
0.0
 11
0.0
 21
65.0
 31
0.0
  0
LINE
  5
BBE
330
B9E
100
AcDbEntity
  8
leg fin
100
AcDbLine
 10
-40.0
 20
25.05956924886846
 30
0.0
 11
-135.0
 21
25.05956924886846
 31
0.0
  0
LINE
  5
BBF
330
B9E
100
AcDbEntity
  8
leg fin
100
AcDbLine
 10
-40.0
 20
28.5
 30
0.0
 11
-135.0
 21
28.5
 31
0.0
  0
LINE
  5
BC0
330
B9E
100
AcDbEntity
  8
3
100
AcDbLine
 10
-135.0
 20
50.0
 30
0.0
 11
-40.0
 21
50.0
 31
0.0
  0
TEXT
  5
BC1
330
B9E
100
AcDbEntity
  8
1
100
AcDbText
 10
-134.0
 20
29.75
 30
0.0
 40
2.0
  1
Desenho nº:
 41
0.8
  7
SANINDUSA
 11
-134.0
 21
30.75
 31
0.0
100
AcDbText
 73
     2
  0
TEXT
  5
BC2
330
B9E
100
AcDbEntity
  8
1
100
AcDbText
 10
-134.0
 20
9.25
 30
0.0
 40
2.0
  1
Acabamento:
 41
0.8
  7
SANINDUSA
 11
-134.0
 21
10.25
 31
0.0
100
AcDbText
 73
     2
  0
LINE
  5
BC3
330
B9E
100
AcDbEntity
  8
3
100
AcDbLine
 10
-180.0
 20
20.0
 30
0.0
 11
0.0
 21
20.0
 31
0.0
  0
LINE
  5
BC4
330
B9E
100
AcDbEntity
  8
1
100
AcDbLine
 10
-174.5810776056337
 20
55.5
 30
0.0
 11
-174.5810776056337
 21
65.0
 31
0.0
  0
LINE
  5
BC5
330
B9E
100
AcDbEntity
  8
1
100
AcDbLine
 10
-168.9210461879161
 20
55.5
 30
0.0
 11
-168.9210461879161
 21
65.0
 31
0.0
  0
LINE
  5
BC6
330
B9E
100
AcDbEntity
  8
1
100
AcDbLine
 10
-154.0988595589306
 20
55.5
 30
0.0
 11
-154.0988595589306
 21
65.0
 31
0.0
  0
LINE
  5
BC7
330
B9E
100
AcDbEntity
  8
3
100
AcDbLine
 10
-180.0
 20
65.0
 30
0.0
 11
-180.0
 21
0.0
 31
0.0
  0
LINE
  5
BC8
330
B9E
100
AcDbEntity
  8
3
100
AcDbLine
 10
-135.0
 20
0.0
 30
0.0
 11
-135.0
 21
65.0
 31
0.0
  0
TEXT
  5
BC9
330
B9E
100
AcDbEntity
  8
1
100
AcDbText
 10
-179.0
 20
9.75
 30
0.0
 40
1.5
  1
Des.
 41
0.8
  7
SANINDUSA
 11
-179.0
 21
10.5
 31
0.0
100
AcDbText
 73
     2
  0
LINE
  5
BCA
330
B9E
100
AcDbEntity
  8
1
100
AcDbLine
 10
-168.9210461879161
 20
20.0
 30
0.0
 11
-168.9210461879161
 21
0.0
 31
0.0
  0
LINE
  5
BCB
330
B9E
100
AcDbEntity
  8
1
100
AcDbLine
 10
-154.0988595589306
 20
20.0
 30
0.0
 11
-154.0988595589306
 21
0.0
 31
0.0
  0
LINE
  5
BCC
330
B9E
100
AcDbEntity
  8
1
100
AcDbLine
 10
-180.0
 20
4.0
 30
0.0
 11
-135.0
 21
4.0
 31
0.0
  0
LINE
  5
BCD
330
B9E
100
AcDbEntity
  8
1
100
AcDbLine
 10
-180.0
 20
8.0
 30
0.0
 11
-135.0
 21
8.0
 31
0.0
  0
TEXT
  5
BCE
330
B9E
100
AcDbEntity
  8
1
100
AcDbText
 10
-179.0
 20
1.73257823687436
 30
0.0
 40
1.5
  1
Aprov.
 41
0.8
  7
SANINDUSA
 11
-179.0
 21
2.48257823687436
 31
0.0
100
AcDbText
 73
     2
  0
TEXT
  5
BCF
330
B9E
100
AcDbEntity
  8
1
100
AcDbText
 10
-179.0
 20
5.75
 30
0.0
 40
1.5
  1
Ver.
 41
0.8
  7
SANINDUSA
 11
-179.0
 21
6.5
 31
0.0
100
AcDbText
 73
     2
  0
LINE
  5
BD0
330
B9E
100
AcDbEntity
  8
1
100
AcDbLine
 10
-180.0
 20
16.0
 30
0.0
 11
-135.0
 21
16.0
 31
0.0
  0
LINE
  5
BD1
330
B9E
100
AcDbEntity
  8
1
100
AcDbLine
 10
-180.0
 20
12.0
 30
0.0
 11
-135.0
 21
12.0
 31
0.0
  0
TEXT
  5
BD2
330
B9E
100
AcDbEntity
  8
1
100
AcDbText
 10
-179.0
 20
13.75
 30
0.0
 40
1.5
  1
Proj.
 41
0.8
  7
SANINDUSA
 11
-179.0
 21
14.5
 31
0.0
100
AcDbText
 73
     2
  0
TEXT
  5
BD3
330
B9E
100
AcDbEntity
  8
1
100
AcDbText
 10
-167.9210461879161
 20
17.75
 30
0.0
 40
1.5
  1
Data
 41
0.8
  7
SANINDUSA
 11
-167.9210461879161
 21
18.5
 31
0.0
100
AcDbText
 73
     2
  0
TEXT
  5
BD4
330
B9E
100
AcDbEntity
  8
1
100
AcDbText
 10
-153.0988595589306
 20
17.75
 30
0.0
 40
1.5
  1
Nome
 41
0.8
  7
SANINDUSA
 11
-153.0988595589306
 21
18.5
 31
0.0
100
AcDbText
 73
     2
  0
LINE
  5
BD5
330
B9E
100
AcDbEntity
  8
leg fin
100
AcDbLine
 10
-130.0
 20
20.0
 30
0.0
 11
-130.0
 21
28.5
 31
0.0
  0
TEXT
  5
BD6
330
B9E
100
AcDbEntity
  8
1
100
AcDbText
 10
-134.0
 20
17.25
 30
0.0
 40
2.0
  1
Material:
 41
0.8
  7
SANINDUSA
 11
-134.0
 21
18.25
 31
0.0
100
AcDbText
 73
     2
  0
TEXT
  5
BD7
330
B9E
100
AcDbEntity
  8
1
100
AcDbText
 10
-129.0
 20
26.43288406845113
 30
0.0
 40
1.5
  1
Ano:
 41
0.8
  7
SANINDUSA
 11
-129.0
 21
27.18288406845113
 31
0.0
100
AcDbText
 73
     2
  0
LINE
  5
BD8
330
B9E
100
AcDbEntity
  8
1
100
AcDbLine
 10
-180.0
 20
55.5
 30
0.0
 11
-135.0
 21
55.5
 31
0.0
  0
TEXT
  5
BD9
330
B9E
100
AcDbEntity
  8
1
100
AcDbText
 10
-179.0
 20
52.67772246885193
 30
0.0
 40
1.5
  1
descrição
 41
0.8
  7
SANINDUSA
 11
-179.0
 21
53.42772246885193
 31
0.0
100
AcDbText
 73
     2
  0
TEXT
  5
BDA
330
B9E
100
AcDbEntity
  8
1
100
AcDbText
 10
-134.0
 20
47.25
 30
0.0
 40
2.0
  1
Peça:
 41
0.8
  7
SANINDUSA
 11
-134.0
 21
48.25
 31
0.0
100
AcDbText
 73
     2
  0
LINE
  5
BDB
330
B9E
100
AcDbEntity
  8
1
100
AcDbLine
 10
-180.0
 20
59.5
 30
0.0
 11
-135.0
 21
59.5
 31
0.0
  0
TEXT
  5
BDC
330
B9E
100
AcDbEntity
  8
1
100
AcDbText
 10
-173.5810776056337
 20
62.75
 30
0.0
 40
1.5
  1
Alt.
 41
0.8
  7
SANINDUSA
 11
-173.5810776056337
 21
63.5
 31
0.0
100
AcDbText
 73
     2
  0
TEXT
  5
BDD
330
B9E
100
AcDbEntity
  8
1
100
AcDbText
 10
-179.0
 20
62.75
 30
0.0
 40
1.5
  1
Rev.
 41
0.8
  7
SANINDUSA
 11
-179.0
 21
63.5
 31
0.0
100
AcDbText
 73
     2
  0
TEXT
  5
BDE
330
B9E
100
AcDbEntity
  8
1
100
AcDbText
 10
-167.9210461879161
 20
62.75
 30
0.0
 40
1.5
  1
Data
 41
0.8
  7
SANINDUSA
 11
-167.9210461879161
 21
63.5
 31
0.0
100
AcDbText
 73
     2
  0
TEXT
  5
BDF
330
B9E
100
AcDbEntity
  8
1
100
AcDbText
 10
-153.0988595589306
 20
62.75
 30
0.0
 40
1.5
  1
Nome
 41
0.8
  7
SANINDUSA
 11
-153.0988595589306
 21
63.5
 31
0.0
100
AcDbText
 73
     2
  0
TEXT
  5
BE0
330
B9E
100
AcDbEntity
  8
1
100
AcDbText
 10
-134.0
 20
62.25
 30
0.0
 40
2.0
  1
Produto:
 41
0.8
  7
SANINDUSA
 11
-134.0
 21
63.25
 31
0.0
100
AcDbText
 73
     2
  0
LINE
  5
BE1
330
B9E
100
AcDbEntity
  8
3
100
AcDbLine
 10
-40.0
 20
4.0
 30
0.0
 11
-40.0
 21
65.0
 31
0.0
  0
LWPOLYLINE
  5
BE2
102
{ACAD_REACTORS
330
BEC
102
}
330
B9E
100
AcDbEntity
  8
9
100
AcDbPolyline
 90
       12
 70
     1
 43
0.0
 10
-3.038714600644652
 20
58.90010174665076
 10
-5.726962862472191
 20
58.90010174665076
 10
-5.726962862472191
 20
58.5001017466509
 10
-3.038748516195028
 20
58.5001017466509
 42
-0.4142135623731731
 10
-2.638748516194482
 20
58.1001017466508
 10
-2.638748516194482
 20
57.42799728675596
 10
-5.21497371544865
 20
57.42799728675596
 42
0.4142135623731289
 10
-6.014973715448377
 20
56.627997286756
 10
-6.014973715448377
 20
55.92380871629643
 42
0.4142135623731132
 10
-5.21497371544865
 20
55.12380871629648
 10
-2.23871460064447
 20
55.12380871629648
 10
-2.23871460064447
 20
58.10010174665103
 42
0.4142135623730717
  0
LWPOLYLINE
  5
BE3
102
{ACAD_REACTORS
330
BEC
102
}
330
B9E
100
AcDbEntity
  8
9
100
AcDbPolyline
 90
       20
 70
     1
 43
0.0
 10
-10.01531287095122
 20
57.82799728675581
 10
-10.01531287095122
 20
58.10010174665103
 42
-0.4142135623730744
 10
-9.615312870951584
 20
58.5001017466509
 10
-6.92703069357276
 20
58.5001017466509
 10
-6.92703069357276
 20
58.90010174665076
 10
-9.615346786501959
 20
58.90010174665076
 42
0.4142135623730883
 10
-10.41534678650168
 20
58.1001017466508
 10
-10.41534678650168
 20
57.82796337120567
 42
0.4142135623730717
 10
-9.615346786501959
 20
57.02796337120571
 10
-7.423079531965413
 20
57.02796337120571
 42
-0.4142135623730847
 10
-7.023079531965322
 20
56.62796337120562
 10
-7.023079531965322
 20
55.90786840766487
 42
-0.4142135623730744
 10
-7.423079531965413
 20
55.507868407665
 10
-10.41534678650168
 20
55.507868407665
 10
-10.41534678650168
 20
55.12380871629648
 10
-7.445787917283723
 20
55.12380871629648
 42
0.4114777732064574
 10
-6.645822882998345
 20
55.9163291493976
 10
-6.639238813324936
 20
56.62051771985716
 42
0.4169546541682913
 10
-7.439203847610315
 20
57.42799728675596
 10
-9.615312870951584
 20
57.42799728675596
 42
-0.4142135623731576
  0
LWPOLYLINE
  5
BE4
102
{ACAD_REACTORS
330
BEC
102
}
330
B9E
100
AcDbEntity
  8
9
100
AcDbPolyline
 90
       12
 70
     1
 43
0.0
 10
-14.41561811090378
 20
58.90010174665076
 10
-14.79964388672215
 20
58.90010174665076
 10
-14.79964388672215
 20
55.92380871629643
 42
0.4142135623731133
 10
-13.99964388672242
 20
55.12380871629648
 10
-11.8233508563676
 20
55.12380871629648
 42
0.4142135623730872
 10
-11.02335085636741
 20
55.92380871629643
 10
-11.02335085636741
 20
58.90010174665076
 10
-11.42338477191788
 20
58.90010174665076
 10
-11.42338477191788
 20
55.91567577726095
 42
-0.4131711701795318
 10
-11.82196067063523
 20
55.51567831234956
 10
-14.0141940096214
 20
55.50787335710947
 42
-0.4152567234624407
 10
-14.41561811090378
 20
55.90787082202087
  0
LWPOLYLINE
  5
BE5
102
{ACAD_REACTORS
330
BEC
102
}
330
B9E
100
AcDbEntity
  8
9
100
AcDbPolyline
 90
        6
 70
     1
 43
0.0
 10
-15.80771578768872
 20
55.507868407665
 10
-18.39994912667453
 20
55.507868407665
 42
-0.4142135623731731
 10
-18.79994912667462
 20
55.90786840766487
 10
-18.79994912667462
 20
58.10010174665103
 42
-0.4142135623730744
 10
-18.39994912667453
 20
58.5001017466509
 10
-15.80771578768872
 20
58.5001017466509
  0
LWPOLYLINE
  5
BE6
102
{ACAD_REACTORS
330
BEC
102
}
330
B9E
100
AcDbEntity
  8
9
100
AcDbPolyline
 90
        8
 70
     1
 43
0.0
 10
-15.4236900118708
 20
59.87619128370352
 10
-15.80771578768872
 20
59.87619128370352
 10
-15.80771578768872
 20
58.90010174665076
 10
-18.39176256411201
 20
58.90010174665076
 42
0.4131164467977967
 10
-19.19175694739761
 20
58.1030995310698
 10
-19.1999120763262
 20
55.92680650071542
 42
0.4153115297271718
 10
-18.39991769304061
 20
55.12380871629648
 10
-15.4236900118708
 20
55.12380871629648
  0
LWPOLYLINE
  5
BE7
102
{ACAD_REACTORS
330
BEC
102
}
330
B9E
100
AcDbEntity
  8
9
100
AcDbPolyline
 90
       10
 70
     1
 43
0.0
 10
-20.59201288790928
 20
58.90010174665076
 10
-23.56830591826338
 20
58.90010174665076
 10
-23.56830591826338
 20
55.12380871629648
 10
-23.18424622689509
 20
55.12380871629648
 10
-23.18424622689509
 20
58.5001017466509
 10
-20.59204680345965
 20
58.5001017466509
 42
-0.4142135623730898
 10
-20.19204680345956
 20
58.1001017466508
 10
-20.19204680345956
 20
55.12380871629648
 10
-19.79201288790909
 20
55.12380871629648
 10
-19.79201288790909
 20
58.10010174665103
 42
0.4142135623731132
  0
LWPOLYLINE
  5
BE8
102
{ACAD_REACTORS
330
BEC
102
}
330
B9E
100
AcDbEntity
  8
9
100
AcDbPolyline
 90
        4
 70
     1
 43
0.0
 10
-24.19231812786165
 20
58.90010174665076
 10
-24.57637781922995
 20
58.90010174665076
 10
-24.57637781922995
 20
55.12380871629648
 10
-24.19231812786165
 20
55.12380871629648
  0
LWPOLYLINE
  5
BE9
102
{ACAD_REACTORS
330
BEC
102
}
330
B9E
100
AcDbEntity
  8
9
100
AcDbPolyline
 90
       10
 70
     1
 43
0.0
 10
-28.57661522808212
 20
58.5001017466509
 10
-25.98444972019706
 20
58.5001017466509
 42
-0.4142135623731731
 10
-25.58444972019652
 20
58.1001017466508
 10
-25.58444972019652
 20
55.12380871629648
 10
-25.2004239443786
 20
55.12380871629648
 10
-25.2004239443786
 20
58.10010174665103
 42
0.4142135623730717
 10
-26.00042394437833
 20
58.90010174665076
 10
-28.97664914363259
 20
58.90010174665076
 10
-28.97664914363259
 20
55.12380871629648
 10
-28.57661522808212
 20
55.12380871629648
  0
LWPOLYLINE
  5
BEA
102
{ACAD_REACTORS
330
BEC
102
}
330
B9E
100
AcDbEntity
  8
9
100
AcDbPolyline
 90
       12
 70
     1
 43
0.0
 10
-29.58465321349832
 20
58.10010174665103
 42
0.4142135623730716
 10
-30.3846532134985
 20
58.90010174665076
 10
-33.07296930642724
 20
58.90010174665076
 10
-33.07296930642724
 20
58.5001017466509
 10
-30.38468712904842
 20
58.5001017466509
 42
-0.4142135623730067
 10
-29.98468712904878
 20
58.1001017466508
 10
-29.98468712904878
 20
57.42799728675618
 10
-32.56098015940324
 20
57.42799728675596
 42
0.4142135623731289
 10
-33.36098015940343
 20
56.627997286756
 10
-33.36098015940343
 20
55.92380871629643
 42
0.4142135623731132
 10
-32.56098015940324
 20
55.12380871629648
 10
-29.58465321349832
 20
55.12380871629648
  0
LWPOLYLINE
  5
BEB
102
{ACAD_REACTORS
330
BEC
102
}
330
B9E
100
AcDbEntity
  8
9
100
AcDbPolyline
 90
       20
 70
     1
 43
0.0
 10
-34.7850262845518
 20
57.42799728675596
 10
-36.96125148380543
 20
57.42799728675596
 42
-0.4142135623730898
 10
-37.36125148380552
 20
57.82799728675604
 10
-37.36125148380552
 20
58.10010174665103
 42
-0.4142135623730744
 10
-36.96125148380543
 20
58.5001017466509
 10
-34.27303713752781
 20
58.50010174665067
 10
-34.27303713752781
 20
58.90010174665076
 10
-36.96128539935535
 20
58.90010174665076
 42
0.4142135623731289
 10
-37.76128539935553
 20
58.1001017466508
 10
-37.76128539935553
 20
57.82796337120567
 42
0.4142135623730716
 10
-36.9612853993558
 20
57.02796337120571
 10
-34.76901814481926
 20
57.02796337120571
 42
-0.414213562373168
 10
-34.36901814481962
 20
56.62796337120562
 10
-34.36901814481962
 20
55.90786840766487
 42
-0.4142135623730744
 10
-34.76901814481926
 20
55.507868407665
 10
-37.76128539935553
 20
55.507868407665
 10
-37.76128539935553
 20
55.12380871629648
 10
-34.7850262845518
 20
55.12380871629648
 42
0.4142135623731289
 10
-33.98502628455162
 20
55.92380871629643
 10
-33.98502628455162
 20
56.627997286756
 42
0.4142135623731132
  0
HATCH
  5
BEC
330
B9E
100
AcDbEntity
  8
9
100
AcDbHatch
 10
0.0
 20
0.0
 30
0.0
210
0.0
220
0.0
230
1.0
  2
SOLID
 70
     1
 71
     1
 91
       13
 92
        7
 72
     1
 73
     1
 93
       20
 10
-34.36901814481962
 20
55.90786840766487
 42
-0.414213562372991
 10
-34.76901814481926
 20
55.507868407665
 42
0.0
 10
-37.76128539935553
 20
55.507868407665
 42
0.0
 10
-37.76128539935553
 20
55.12380871629648
 42
0.0
 10
-34.7850262845518
 20
55.12380871629648
 42
0.4142135623731705
 10
-33.98502628455162
 20
55.92380871629666
 42
0.0
 10
-33.98502628455162
 20
56.627997286756
 42
0.4142135623731547
 10
-34.7850262845518
 20
57.42799728675596
 42
0.0
 10
-36.96125148380543
 20
57.42799728675596
 42
-0.4142135623730898
 10
-37.36125148380552
 20
57.82799728675604
 42
0.0
 10
-37.36125148380552
 20
58.1001017466508
 42
-0.4142135623731575
 10
-36.96125148380543
 20
58.5001017466509
 42
0.0
 10
-34.27303713752781
 20
58.50010174665067
 42
0.0
 10
-34.27303713752781
 20
58.90010174665076
 42
0.0
 10
-36.96128539935535
 20
58.90010174665076
 42
0.4142135623731705
 10
-37.76128539935553
 20
58.10010174665058
 42
0.0
 10
-37.76128539935553
 20
57.82796337120544
 42
0.4142135623730299
 10
-36.9612853993558
 20
57.02796337120571
 42
0.0
 10
-34.76901814481926
 20
57.02796337120571
 42
-0.4142135623730015
 10
-34.36901814481962
 20
56.62796337120608
 42
0.0
 97
        1
330
BEB
 92
        7
 72
     1
 73
     1
 93
       12
 10
-33.36098015940343
 20
55.92380871629666
 42
0.4142135623731547
 10
-32.56098015940324
 20
55.12380871629648
 42
0.0
 10
-29.58465321349877
 20
55.12380871629648
 42
0.0
 10
-29.58465321349832
 20
58.10010174665058
 42
0.4142135623731964
 10
-30.3846532134985
 20
58.90010174665076
 42
0.0
 10
-33.07296930642724
 20
58.90010174665076
 42
0.0
 10
-33.07296930642724
 20
58.50010174665067
 42
0.0
 10
-30.38468712904887
 20
58.5001017466509
 42
-0.4142135623732564
 10
-29.98468712904878
 20
58.10010174665103
 42
0.0
 10
-29.98468712904923
 20
57.42799728675596
 42
0.0
 10
-32.56098015940324
 20
57.42799728675596
 42
0.4142135623731705
 10
-33.36098015940343
 20
56.627997286756
 42
0.0
 97
        1
330
BEA
 92
       22
 72
     1
 73
     1
 93
        6
 10
-32.97692046803468
 20
56.62796337120562
 42
-0.4142135623731576
 10
-32.57692046803459
 20
57.02796337120571
 42
0.0
 10
-29.98468712904878
 20
57.02796337120571
 42
0.0
 10
-29.98468712904878
 20
55.507868407665
 42
0.0
 10
-32.57692046803459
 20
55.507868407665
 42
-0.4142135623731731
 10
-32.97692046803468
 20
55.90786840766487
 42
0.0
 97
        1
330
C11
 92
        7
 72
     1
 73
     1
 93
       10
 10
-28.57661522808212
 20
58.5001017466509
 42
0.0
 10
-25.98444972019661
 20
58.5001017466509
 42
-0.4142135623730067
 10
-25.58444972019652
 20
58.10010174665058
 42
0.0
 10
-25.58444972019606
 20
55.12380871629648
 42
0.0
 10
-25.20042394437906
 20
55.12380871629648
 42
0.0
 10
-25.2004239443786
 20
58.1001017466508
 42
0.4142135623731134
 10
-26.00042394437833
 20
58.90010174665076
 42
0.0
 10
-28.97664914363259
 20
58.90010174665076
 42
0.0
 10
-28.97664914363259
 20
55.12380871629648
 42
0.0
 10
-28.57661522808212
 20
55.12380871629648
 42
0.0
 97
        1
330
BE9
 92
        7
 72
     0
 73
     1
 93
        4
 10
-24.57637781922995
 20
55.12380871629648
 10
-24.19231812786165
 20
55.12380871629648
 10
-24.19231812786165
 20
58.90010174665076
 10
-24.57637781922995
 20
58.90010174665076
 97
        1
330
BE8
 92
        7
 72
     0
 73
     1
 93
        4
 10
-24.19231812786165
 20
59.87619128370352
 10
-24.5763778192304
 20
59.87619128370352
 10
-24.5763778192304
 20
59.28412752246913
 10
-24.1923181278612
 20
59.28412752246913
 97
        1
330
C12
 92
        7
 72
     1
 73
     1
 93
       10
 10
-23.18424622689509
 20
58.5001017466509
 42
0.0
 10
-20.59204680345965
 20
58.5001017466509
 42
-0.4142135623730898
 10
-20.19204680345956
 20
58.1001017466508
 42
0.0
 10
-20.19204680345956
 20
55.12380871629648
 42
0.0
 10
-19.79201288790909
 20
55.12380871629648
 42
0.0
 10
-19.79201288790909
 20
58.1001017466508
 42
0.4142135623731547
 10
-20.59201288790928
 20
58.90010174665076
 42
0.0
 10
-23.56830591826338
 20
58.90010174665076
 42
0.0
 10
-23.56830591826338
 20
55.12380871629648
 42
0.0
 10
-23.18424622689463
 20
55.12380871629648
 42
0.0
 97
        1
330
BE7
 92
        7
 72
     1
 73
     1
 93
        8
 10
-19.1999120763262
 20
55.92680650071542
 42
0.4153115297271299
 10
-18.39991769304061
 20
55.12380871629648
 42
0.0
 10
-15.4236900118708
 20
55.12380871629648
 42
0.0
 10
-15.4236900118708
 20
59.87619128370352
 42
0.0
 10
-15.80771578768872
 20
59.87619128370352
 42
0.0
 10
-15.80771578768872
 20
58.90010174665076
 42
0.0
 10
-18.39176256411201
 20
58.90010174665076
 42
0.4131164467977965
 10
-19.19175694739761
 20
58.1030995310698
 42
0.0
 97
        1
330
BE6
 92
       22
 72
     1
 73
     1
 93
        6
 10
-18.79994912667462
 20
58.1001017466508
 42
-0.4142135623731575
 10
-18.39994912667453
 20
58.5001017466509
 42
0.0
 10
-15.80771578768872
 20
58.50010174665067
 42
0.0
 10
-15.80771578768827
 20
55.507868407665
 42
0.0
 10
-18.39994912667453
 20
55.507868407665
 42
-0.4142135623731731
 10
-18.79994912667462
 20
55.90786840766487
 42
0.0
 97
        1
330
BE5
 92
        7
 72
     1
 73
     1
 93
       12
 10
-14.79964388672215
 20
55.92380871629621
 42
0.4142135623729885
 10
-13.99964388672242
 20
55.12380871629648
 42
0.0
 10
-11.8233508563676
 20
55.12380871629648
 42
0.4142135623731289
 10
-11.02335085636741
 20
55.92380871629666
 42
0.0
 10
-11.02335085636741
 20
58.90010174665076
 42
0.0
 10
-11.42338477191788
 20
58.90010174665076
 42
0.0
 10
-11.42338477191788
 20
55.91567577726095
 42
-0.4131711701795319
 10
-11.82196067063523
 20
55.51567831234956
 42
0.0
 10
-14.01419400962095
 20
55.50787335710947
 42
-0.4152567234626918
 10
-14.41561811090378
 20
55.90787082202087
 42
0.0
 10
-14.41561811090378
 20
58.90010174665076
 42
0.0
 10
-14.7996438867226
 20
58.90010174665076
 42
0.0
 97
        1
330
BE4
 92
        7
 72
     1
 73
     1
 93
       20
 10
-7.423079531965413
 20
57.02796337120571
 42
-0.414213562373168
 10
-7.023079531965322
 20
56.62796337120562
 42
0.0
 10
-7.023079531965322
 20
55.90786840766487
 42
-0.4142135623731575
 10
-7.423079531965413
 20
55.507868407665
 42
0.0
 10
-10.41534678650168
 20
55.507868407665
 42
0.0
 10
-10.41534678650168
 20
55.12380871629648
 42
0.0
 10
-7.445787917283723
 20
55.12380871629648
 42
0.4114777732065809
 10
-6.645822882998345
 20
55.91632914939783
 42
0.0
 10
-6.639238813324936
 20
56.62051771985716
 42
0.4169546541682913
 10
-7.439203847610315
 20
57.42799728675596
 42
0.0
 10
-9.615312870951584
 20
57.42799728675596
 42
-0.4142135623729911
 10
-10.01531287095122
 20
57.82799728675581
 42
0.0
 10
-10.01531287095122
 20
58.10010174665103
 42
-0.414213562372991
 10
-9.615312870951584
 20
58.5001017466509
 42
0.0
 10
-6.92703069357276
 20
58.50010174665067
 42
0.0
 10
-6.927030693572305
 20
58.90010174665076
 42
0.0
 10
-9.615346786501959
 20
58.90010174665076
 42
0.4142135623730467
 10
-10.41534678650168
 20
58.10010174665103
 42
0.0
 10
-10.41534678650168
 20
57.82796337120544
 42
0.4142135623730301
 10
-9.615346786501959
 20
57.02796337120571
 42
0.0
 97
        1
330
BE3
 92
        7
 72
     1
 73
     1
 93
       12
 10
-5.21497371544865
 20
57.42799728675596
 42
0.4142135623730871
 10
-6.014973715448377
 20
56.627997286756
 42
0.0
 10
-6.014973715448377
 20
55.92380871629621
 42
0.4142135623730715
 10
-5.21497371544865
 20
55.12380871629648
 42
0.0
 10
-2.23871460064447
 20
55.12380871629648
 42
0.0
 10
-2.23871460064447
 20
58.10010174665058
 42
0.414213562373155
 10
-3.038714600644652
 20
58.90010174665076
 42
0.0
 10
-5.726962862471737
 20
58.90010174665076
 42
0.0
 10
-5.726962862472191
 20
58.5001017466509
 42
0.0
 10
-3.038748516194573
 20
58.5001017466509
 42
-0.4142135623730067
 10
-2.638748516194482
 20
58.10010174665058
 42
0.0
 10
-2.638748516194482
 20
57.42799728675596
 42
0.0
 97
        1
330
BE2
 92
       22
 72
     1
 73
     1
 93
        6
 10
-2.638748516194937
 20
57.02796337120571
 42
0.0
 10
-2.638748516194482
 20
55.50786840766477
 42
0.0
 10
-5.21497371544865
 20
55.507868407665
 42
-0.4142135623731731
 10
-5.614973715448741
 20
55.90786840766509
 42
0.0
 10
-5.614973715448741
 20
56.62796337120562
 42
-0.4142135623731576
 10
-5.21497371544865
 20
57.02796337120571
 42
0.0
 97
        1
330
C0D
 75
     0
 76
     1
 47
0.0407044778999864
 98
       13
 10
-34.18710075113677
 20
56.16907953933765
 10
-33.12851374392494
 20
56.49471602641233
 10
-33.12851374392494
 20
56.49471602641233
 10
-28.77202873835904
 20
57.51232930166111
 10
-24.41554807250941
 20
57.91937341678636
 10
-24.41554807250941
 20
59.384734621186
 10
-23.31624584658039
 20
58.3264175319116
 10
-19.04119127844888
 20
57.75655517324913
 10
-19.04119127844888
 20
57.75655517324913
 10
-14.64399105416578
 20
57.43091868617466
 10
-8.048195057457178
 20
57.22739662861204
 10
-4.017427461911665
 20
57.18669281458665
 10
-4.017427461911665
 20
57.18669281458665
  0
TEXT
  5
BED
330
B9E
100
AcDbEntity
  8
leg fin
100
AcDbText
 10
3.391127401597259
 20
2.107634911895729
 30
0.0
 40
1.5
  1
Este desenho é propriedade da Sanindusa, S.A., e não pode ser copiado nem divulgado sem nossa autorização.
 50
90.0
 41
0.8
  7
SANINDUSA
100
AcDbText
  0
LINE
  5
BEE
330
B9E
100
AcDbEntity
  8
3
100
AcDbLine
 10
-90.0
 20
4.0
 30
0.0
 11
-90.0
 21
12.0
 31
0.0
  0
TEXT
  5
BEF
330
B9E
100
AcDbEntity
  8
1
100
AcDbText
 10
-39.0
 20
9.25
 30
0.0
 40
2.0
  1
Substituido por:
 41
0.8
  7
SANINDUSA
 11
-39.0
 21
10.25
 31
0.0
100
AcDbText
 73
     2
  0
POINT
  5
BF0
330
B9E
100
AcDbEntity
  8
SANINDUSA
100
AcDbPoint
 10
0.0
 20
0.0
 30
0.0
  0
TEXT
  5
BF1
330
B9E
100
AcDbEntity
  8
1
100
AcDbText
 10
-89.0
 20
16.74927010445663
 30
0.0
 40
2.0
  1
Normas:
 41
0.8
  7
SANINDUSA
 11
-89.0
 21
17.74927010445663
 31
0.0
100
AcDbText
 73
     2
  0
LINE
  5
BF2
330
B9E
100
AcDbEntity
  8
3
100
AcDbLine
 10
-90.0
 20
12.0
 30
0.0
 11
-90.0
 21
20.0
 31
0.0
  0
LINE
  5
BF3
330
B9E
100
AcDbEntity
  8
3
100
AcDbLine
 10
-110.546019464768
 20
12.0
 30
0.0
 11
-110.546019464768
 21
20.0
 31
0.0
  0
TEXT
  5
BF4
330
B9E
100
AcDbEntity
  8
1
100
AcDbText
 10
-109.6177520618648
 20
17.25
 30
0.0
 40
2.0
  1
Cor:
 41
0.8
  7
SANINDUSA
 11
-109.6177520618648
 21
18.25
 31
0.0
100
AcDbText
 73
     2
  0
LINE
  5
BF5
330
B9E
100
AcDbEntity
  8
leg fin
100
AcDbLine
 10
-91.42857142857156
 20
20.0
 30
0.0
 11
-91.42857142857156
 21
28.5
 31
0.0
  0
LINE
  5
BF6
330
B9E
100
AcDbEntity
  8
leg fin
100
AcDbLine
 10
-104.2857142857142
 20
20.0
 30
0.0
 11
-104.2857142857142
 21
28.5
 31
0.0
  0
LINE
  5
BF7
330
B9E
100
AcDbEntity
  8
leg fin
100
AcDbLine
 10
-117.1428571428573
 20
20.0
 30
0.0
 11
-117.1428571428573
 21
28.5
 31
0.0
  0
POINT
  5
BF8
330
B9E
100
AcDbEntity
  8
SANINDUSA
100
AcDbPoint
 10
-117.1428571428573
 20
28.5
 30
0.0
  0
POINT
  5
BF9
330
B9E
100
AcDbEntity
  8
SANINDUSA
100
AcDbPoint
 10
-104.2857142857142
 20
28.5
 30
0.0
  0
POINT
  5
BFA
330
B9E
100
AcDbEntity
  8
SANINDUSA
100
AcDbPoint
 10
-91.42857142857156
 20
28.5
 30
0.0
  0
TEXT
  5
BFB
330
B9E
100
AcDbEntity
  8
1
100
AcDbText
 10
-116.200160604496
 20
26.43288406845113
 30
0.0
 40
1.5
  1
Nº Seq.:
 41
0.8
  7
SANINDUSA
 11
-116.200160604496
 21
27.18288406845113
 31
0.0
100
AcDbText
 73
     2
  0
TEXT
  5
BFC
330
B9E
100
AcDbEntity
  8
1
100
AcDbText
 10
-103.2106584078738
 20
26.43288406845113
 30
0.0
 40
1.5
  1
Tipo:
 41
0.8
  7
SANINDUSA
 11
-103.2106584078738
 21
27.18288406845113
 31
0.0
100
AcDbText
 73
     2
  0
TEXT
  5
BFD
330
B9E
100
AcDbEntity
  8
1
100
AcDbText
 10
-90.22114672289353
 20
26.43288406845113
 30
0.0
 40
1.5
  1
Prod.:
 41
0.8
  7
SANINDUSA
 11
-90.22114672289353
 21
27.18288406845113
 31
0.0
100
AcDbText
 73
     2
  0
TEXT
  5
BFE
330
B9E
100
AcDbEntity
  8
1
100
AcDbText
 10
-64.77320576346574
 20
26.43288406845113
 30
0.0
 40
1.5
  1
Rev.:
 41
0.8
  7
SANINDUSA
 11
-64.77320576346574
 21
27.18288406845113
 31
0.0
100
AcDbText
 73
     2
  0
LINE
  5
BFF
330
B9E
100
AcDbEntity
  8
leg fin
100
AcDbLine
 10
-52.85714285714266
 20
20.0
 30
0.0
 11
-52.85714285714266
 21
28.5
 31
0.0
  0
LINE
  5
C00
330
B9E
100
AcDbEntity
  8
leg fin
100
AcDbLine
 10
-65.71428571428578
 20
20.0
 30
0.0
 11
-65.71428571428578
 21
28.5
 31
0.0
  0
LINE
  5
C01
330
B9E
100
AcDbEntity
  8
leg fin
100
AcDbLine
 10
-78.57142857142844
 20
20.0
 30
0.0
 11
-78.57142857142844
 21
28.5
 31
0.0
  0
POINT
  5
C02
330
B9E
100
AcDbEntity
  8
SANINDUSA
100
AcDbPoint
 10
-78.57142857142844
 20
28.5
 30
0.0
  0
POINT
  5
C03
330
B9E
100
AcDbEntity
  8
SANINDUSA
100
AcDbPoint
 10
-65.71428571428578
 20
28.5
 30
0.0
  0
POINT
  5
C04
330
B9E
100
AcDbEntity
  8
SANINDUSA
100
AcDbPoint
 10
-52.85714285714266
 20
28.5
 30
0.0
  0
TEXT
  5
C05
330
B9E
100
AcDbEntity
  8
1
100
AcDbText
 10
-77.61097961686573
 20
26.43288406845113
 30
0.0
 40
1.5
  1
Peça:
 41
0.8
  7
SANINDUSA
 11
-77.61097961686573
 21
27.18288406845113
 31
0.0
100
AcDbText
 73
     2
  0
TEXT
  5
C06
330
B9E
100
AcDbEntity
  8
1
100
AcDbText
 10
-52.06538060077036
 20
26.43288406845113
 30
0.0
 40
1.5
  1
Alt.:
 41
0.8
  7
SANINDUSA
 11
-52.06538060077036
 21
27.18288406845113
 31
0.0
100
AcDbText
 73
     2
  0
LINE
  5
C07
330
B9E
100
AcDbEntity
  8
3
100
AcDbLine
 10
0.0
 20
12.0
 30
0.0
 11
-40.0
 21
12.0
 31
0.0
  0
LINE
  5
C08
330
B9E
100
AcDbEntity
  8
3
100
AcDbLine
 10
-40.0
 20
32.5
 30
0.0
 11
0.0
 21
32.5
 31
0.0
  0
TEXT
  5
C09
330
B9E
100
AcDbEntity
  8
1
100
AcDbText
 10
-19.0
 20
29.75
 30
0.0
 40
2.0
  1
Folha:
 41
0.8
  7
SANINDUSA
 11
-19.0
 21
30.75
 31
0.0
100
AcDbText
 73
     2
  0
LINE
  5
C0A
330
B9E
100
AcDbEntity
  8
3
100
AcDbLine
 10
-20.0
 20
32.5
 30
0.0
 11
-20.0
 21
20.0
 31
0.0
  0
TEXT
  5
C0B
330
B9E
100
AcDbEntity
  8
1
100
AcDbText
 10
-39.0
 20
29.75
 30
0.0
 40
2.0
  1
Escala:
 41
0.8
  7
SANINDUSA
 11
-39.0
 21
30.75
 31
0.0
100
AcDbText
 73
     2
  0
TEXT
  5
C0C
330
B9E
100
AcDbEntity
  8
1
100
AcDbText
 10
-39.0
 20
17.25
 30
0.0
 40
2.0
  1
Substitui:
 41
0.8
  7
SANINDUSA
 11
-39.0
 21
18.25
 31
0.0
100
AcDbText
 73
     2
  0
LWPOLYLINE
  5
C0D
102
{ACAD_REACTORS
330
BEC
102
}
330
B9E
100
AcDbEntity
  8
9
100
AcDbPolyline
 90
        6
 70
     1
 43
0.0
 10
-2.638748516194482
 20
57.02796337120571
 10
-2.638748516194482
 20
55.50786840766477
 10
-5.21497371544865
 20
55.507868407665
 42
-0.4142135623730898
 10
-5.614973715448741
 20
55.90786840766487
 10
-5.614973715448741
 20
56.62796337120562
 42
-0.4142135623731576
 10
-5.21497371544865
 20
57.02796337120571
  0
LINE
  5
C0E
330
B9E
100
AcDbEntity
  8
3
100
AcDbLine
 10
-40.0
 20
50.0
 30
0.0
 11
0.0
 21
50.0
 31
0.0
  0
ATTDEF
  5
C0F
330
B9E
100
AcDbEntity
  8
1
100
AcDbText
 10
-31.30691739422431
 20
40.25
 30
0.0
 40
2.0
  1
XXXXXXXXXXXXXXX
 41
0.8
  7
SANINDUSA
 72
     4
 11
-20.0
 21
41.25
 31
0.0
100
AcDbAttributeDefinition
  3
Observações:
  2
OBS
 70
     0
  0
TEXT
  5
C10
330
B9E
100
AcDbEntity
  8
1
100
AcDbText
 10
-39.0
 20
47.25
 30
0.0
 40
2.0
  1
Observações:
 41
0.8
  7
SANINDUSA
 11
-39.0
 21
48.25
 31
0.0
100
AcDbText
 73
     2
  0
LWPOLYLINE
  5
C11
102
{ACAD_REACTORS
330
BEC
102
}
330
B9E
100
AcDbEntity
  8
9
100
AcDbPolyline
 90
        6
 70
     1
 43
0.0
 10
-29.98468712904878
 20
57.02796337120571
 10
-29.98468712904878
 20
55.507868407665
 10
-32.57692046803459
 20
55.507868407665
 42
-0.4142135623731731
 10
-32.97692046803468
 20
55.90786840766487
 10
-32.97692046803468
 20
56.62796337120562
 42
-0.4142135623731576
 10
-32.57692046803459
 20
57.02796337120571
  0
LWPOLYLINE
  5
C12
102
{ACAD_REACTORS
330
BEC
102
}
330
B9E
100
AcDbEntity
  8
9
100
AcDbPolyline
 90
        4
 70
     1
 43
0.0
 10
-24.19231812786165
 20
59.87619128370352
 10
-24.57637781922995
 20
59.87619128370352
 10
-24.57637781922995
 20
59.28412752246913
 10
-24.19231812786165
 20
59.28412752246913
  0
ENDBLK
  5
C14
330
B9E
100
AcDbEntity
  8
0
100
AcDbBlockEnd
  0
BLOCK
  5
10B4
330
10B3
100
AcDbEntity
  8
0
100
AcDbBlockBegin
  2
SW_CENTERMARKSYMBOL_0
 70
     0
 10
0.0
 20
0.0
 30
0.0
  3
SW_CENTERMARKSYMBOL_0
  1

  0
LINE
  5
10B5
330
10B3
100
AcDbEntity
  8
0
  6
SLD-Solid
 62
     0
370
     0
100
AcDbLine
 10
0.0
 20
0.0
 30
0.0
 11
0.0
 21
0.5000000000000005
 31
0.0
  0
LINE
  5
10B6
330
10B3
100
AcDbEntity
  8
0
  6
SLD-Solid
 62
     0
370
     0
100
AcDbLine
 10
0.0
 20
0.0
 30
0.0
 11
-0.5000000000000005
 21
0.0
 31
0.0
  0
LINE
  5
10B7
330
10B3
100
AcDbEntity
  8
0
  6
SLD-Solid
 62
     0
370
     0
100
AcDbLine
 10
0.0
 20
0.0
 30
0.0
 11
0.0
 21
-0.5000000000000005
 31
0.0
  0
LINE
  5
10B8
330
10B3
100
AcDbEntity
  8
0
  6
SLD-Solid
 62
     0
370
     0
100
AcDbLine
 10
0.0
 20
0.0
 30
0.0
 11
0.5000000000000005
 21
0.0
 31
0.0
  0
LINE
  5
10B9
330
10B3
100
AcDbEntity
  8
0
  6
SLD-Solid
 62
     0
370
     0
100
AcDbLine
 10
0.0
 20
1.0
 30
0.0
 11
0.0
 21
5.199999999999996
 31
0.0
  0
LINE
  5
10BA
330
10B3
100
AcDbEntity
  8
0
  6
SLD-Solid
 62
     0
370
     0
100
AcDbLine
 10
-1.0
 20
0.0
 30
0.0
 11
-5.200000000000009
 21
0.0
 31
0.0
  0
LINE
  5
10BB
330
10B3
100
AcDbEntity
  8
0
  6
SLD-Solid
 62
     0
370
     0
100
AcDbLine
 10
0.0
 20
-1.0
 30
0.0
 11
0.0
 21
-5.199999999999996
 31
0.0
  0
LINE
  5
10BC
330
10B3
100
AcDbEntity
  8
0
  6
SLD-Solid
 62
     0
370
     0
100
AcDbLine
 10
1.0
 20
0.0
 30
0.0
 11
5.199999999999982
 21
0.0
 31
0.0
  0
ENDBLK
  5
10BD
330
10B3
100
AcDbEntity
  8
0
100
AcDbBlockEnd
  0
ENDSEC
  0
SECTION
  2
ENTITIES
  0
SPLINE
  5
13DB
330
1F
100
AcDbEntity
  8
SANINDUSA
100
AcDbSpline
210
0.0
220
0.0
230
1.0
 70
    24
 71
     1
 72
     4
 73
     2
 74
     0
 42
0.0000000001
 43
0.0000000001
 40
0.0
 40
0.0
 40
1.0
 40
1.0
 10
4645.294518965819
 20
2353.065604673933
 30
0.0
 10
4645.294890073883
 20
2353.061362894486
 30
0.0
  0
SPLINE
  5
13DC
330
1F
100
AcDbEntity
  8
SANINDUSA
100
AcDbSpline
210
0.0
220
0.0
230
1.0
 70
    24
 71
     1
 72
     4
 73
     2
 74
     0
 42
0.0000000001
 43
0.0000000001
 40
0.0
 40
0.0
 40
1.0
 40
1.0
 10
4645.364890073716
 20
2353.061362894486
 30
0.0
 10
4645.365764958143
 20
2353.071362884949
 30
0.0
  0
ARC
  5
13DD
330
1F
100
AcDbEntity
  8
SANINDUSA
100
AcDbCircle
 10
4645.289536966969
 20
2353.065180616596
 30
0.0
 40
0.005
100
AcDbArc
 50
4.720609469944332
 51
87.95264733233269
  0
SPLINE
  5
13EE
330
1F
100
AcDbEntity
  8
SANINDUSA
100
AcDbSpline
210
0.0
220
0.0
230
1.0
 70
    24
 71
     3
 72
    29
 73
    25
 74
     0
 42
0.0000000001
 43
0.0000000001
 40
0.0
 40
0.0
 40
0.0
 40
0.0
 40
0.0039062499999999
 40
0.0039062499999999
 40
0.0078124999999998
 40
0.0156249999999998
 40
0.0312499999999999
 40
0.0624999999999999
 40
0.1250000000000001
 40
0.2500000000000001
 40
0.2500000000000001
 40
0.5000000000000001
 40
0.5000000000000001
 40
0.7500000000000001
 40
0.7500000000000001
 40
0.8750000000000001
 40
0.8750000000000001
 40
0.9375
 40
0.9687500000000001
 40
0.9843749999999998
 40
0.9921875
 40
0.99609375
 40
0.99609375
 40
1.0
 40
1.0
 40
1.0
 40
1.0
 10
4645.13239024373
 20
2353.221362890909
 30
0.0
 10
4645.132806901593
 20
2353.221362890909
 30
0.0
 10
4645.133223571709
 20
2353.221362890909
 30
0.0
 10
4645.134056904043
 20
2353.221362890909
 30
0.0
 10
4645.135306902557
 20
2353.221362890909
 30
0.0
 10
4645.138223565829
 20
2353.221362890909
 30
0.0
 10
4645.144056892674
 20
2353.221362890909
 30
0.0
 10
4645.155723547587
 20
2353.221362890909
 30
0.0
 10
4645.179056862327
 20
2353.221362890909
 30
0.0
 10
4645.199056856312
 20
2353.221362890909
 30
0.0
 10
4645.239056851308
 20
2353.221362890909
 30
0.0
 10
4645.265723528196
 20
2353.221362890909
 30
0.0
 10
4645.319056881032
 20
2353.221362890909
 30
0.0
 10
4645.345723558103
 20
2353.221362890909
 30
0.0
 10
4645.385723553395
 20
2353.221362890909
 30
0.0
 10
4645.399056882641
 20
2353.221362890909
 30
0.0
 10
4645.419056869442
 20
2353.221362890909
 30
0.0
 10
4645.429056861352
 20
2353.221362890909
 30
0.0
 10
4645.440723516146
 20
2353.221362890909
 30
0.0
 10
4645.446556842954
 20
2353.221362890909
 30
0.0
 10
4645.449473506215
 20
2353.221362890909
 30
0.0
 10
4645.450723504725
 20
2353.221362890909
 30
0.0
 10
4645.451556837058
 20
2353.221362890909
 30
0.0
 10
4645.451973507015
 20
2353.221362890909
 30
0.0
 10
4645.452390165206
 20
2353.221362890909
 30
0.0
  0
SPLINE
  5
13EF
330
1F
100
AcDbEntity
  8
SANINDUSA
100
AcDbSpline
210
0.0
220
0.0
230
1.0
 70
    24
 71
     3
 72
    32
 73
    28
 74
     0
 42
0.0000000001
 43
0.0000000001
 40
0.0
 40
0.0
 40
0.0
 40
0.0
 40
0.0624999999999998
 40
0.0624999999999998
 40
0.0937499999999989
 40
0.0937499999999989
 40
0.124999999999998
 40
0.124999999999998
 40
0.2499999999999963
 40
0.2499999999999963
 40
0.3124999999999964
 40
0.3124999999999964
 40
0.3749999999999965
 40
0.3749999999999965
 40
0.4999999999999977
 40
0.4999999999999977
 40
0.5624999999999984
 40
0.5624999999999984
 40
0.6249999999999988
 40
0.6249999999999988
 40
0.7499999999999987
 40
0.7499999999999987
 40
0.8124999999999989
 40
0.8124999999999989
 40
0.8749999999999992
 40
0.8749999999999992
 40
1.0
 40
1.0
 40
1.0
 40
1.0
 10
4645.097588989802
 20
2353.221362890909
 30
0.0
 10
4645.097773078623
 20
2353.221362890909
 30
0.0
 10
4645.097854443894
 20
2353.221362890909
 30
0.0
 10
4645.098057463404
 20
2353.221362890909
 30
0.0
 10
4645.098138653121
 20
2353.221362890909
 30
0.0
 10
4645.098328159081
 20
2353.221362890909
 30
0.0
 10
4645.098436709568
 20
2353.221362890909
 30
0.0
 10
4645.099045096208
 20
2353.221362890909
 30
0.0
 10
4645.099735508576
 20
2353.221362890909
 30
0.0
 10
4645.101066085855
 20
2353.221362890909
 30
0.0
 10
4645.101559151645
 20
2353.221362890909
 30
0.0
 10
4645.102646348699
 20
2353.221362890909
 30
0.0
 10
4645.10324258019
 20
2353.221362890909
 30
0.0
 10
4645.105145977455
 20
2353.221362890909
 30
0.0
 10
4645.106576743201
 20
2353.221362890909
 30
0.0
 10
4645.108964256691
 20
2353.221362890909
 30
0.0
 10
4645.109801937961
 20
2353.221362890909
 30
0.0
 10
4645.111555474136
 20
2353.221362890909
 30
0.0
 10
4645.112459608186
 20
2353.221362890909
 30
0.0
 10
4645.115251360418
 20
2353.221362890909
 30
0.0
 10
4645.117217552819
 20
2353.221362890909
 30
0.0
 10
4645.120327734968
 20
2353.221362890909
 30
0.0
 10
4645.121395623021
 20
2353.221362890909
 30
0.0
 10
4645.123541930559
 20
2353.221362890909
 30
0.0
 10
4645.124624926005
 20
2353.221362890909
 30
0.0
 10
4645.127902865465
 20
2353.221362890909
 30
0.0
 10
4645.130126497265
 20
2353.221362890909
 30
0.0
 10
4645.13239024373
 20
2353.221362890909
 30
0.0
  0
SPLINE
  5
13F0
330
1F
100
AcDbEntity
  8
SANINDUSA
100
AcDbSpline
210
0.0
220
0.0
230
1.0
 70
    24
 71
     3
 72
    30
 73
    26
 74
     0
 42
0.0000000001
 43
0.0000000001
 40
0.0
 40
0.0
 40
0.0
 40
0.0
 40
0.0625000000000006
 40
0.0625000000000006
 40
0.1250000000000012
 40
0.1250000000000012
 40
0.2500000000000006
 40
0.2500000000000006
 40
0.3125
 40
0.3125
 40
0.3749999999999995
 40
0.3749999999999995
 40
0.4999999999999992
 40
0.4999999999999992
 40
0.5625
 40
0.5625
 40
0.625000000000001
 40
0.625000000000001
 40
0.7500000000000007
 40
0.7500000000000007
 40
0.8125000000000007
 40
0.8125000000000007
 40
0.875000000000001
 40
0.875000000000001
 40
1.0
 40
1.0
 40
1.0
 40
1.0
 10
4645.452390165206
 20
2353.221362890909
 30
0.0
 10
4645.453521889147
 20
2353.221362890909
 30
0.0
 10
4645.454647777087
 20
2353.221362890909
 30
0.0
 10
4645.456888043865
 20
2353.221362890909
 30
0.0
 10
4645.458004572288
 20
2353.221362890909
 30
0.0
 10
4645.461322782722
 20
2353.221362890909
 30
0.0
 10
4645.463456450044
 20
2353.221362890909
 30
0.0
 10
4645.466543235524
 20
2353.221362890909
 30
0.0
 10
4645.467553056613
 20
2353.221362890909
 30
0.0
 10
4645.4695337627
 20
2353.221362890909
 30
0.0
 10
4645.470507190505
 20
2353.221362890909
 30
0.0
 10
4645.473307557081
 20
2353.221362890909
 30
0.0
 10
4645.475035886668
 20
2353.221362890909
 30
0.0
 10
4645.477421745592
 20
2353.221362890909
 30
0.0
 10
4645.478183054296
 20
2353.221362890909
 30
0.0
 10
4645.479631004871
 20
2353.221362890909
 30
0.0
 10
4645.480307398172
 20
2353.221362890909
 30
0.0
 10
4645.482198606726
 20
2353.221362890909
 30
0.0
 10
4645.483276748191
 20
2353.221362890909
 30
0.0
 10
4645.484614368443
 20
2353.221362890909
 30
0.0
 10
4645.485014190551
 20
2353.221362890909
 30
0.0
 10
4645.48570271757
 20
2353.221362890909
 30
0.0
 10
4645.485993769933
 20
2353.221362890909
 30
0.0
 10
4645.486710316237
 20
2353.221362890909
 30
0.0
 10
4645.486980560352
 20
2353.221362890909
 30
0.0
 10
4645.487033946852
 20
2353.221362890909
 30
0.0
  0
SPLINE
  5
13F1
330
1F
100
AcDbEntity
  8
SANINDUSA
100
AcDbSpline
210
0.0
220
0.0
230
1.0
 70
    24
 71
     3
 72
    10
 73
     6
 74
     0
 42
0.0000000001
 43
0.0000000001
 40
0.0
 40
0.0
 40
0.0
 40
0.0
 40
0.5
 40
0.5
 40
1.0
 40
1.0
 40
1.0
 40
1.0
 10
4645.438074043022
 20
2353.07136289091
 30
0.0
 10
4645.389518032493
 20
2353.07136289091
 30
0.0
 10
4645.340954043946
 20
2353.07136289091
 30
0.0
 10
4645.243825316555
 20
2353.07136289091
 30
0.0
 10
4645.195262293044
 20
2353.07136289091
 30
0.0
 10
4645.146706299449
 20
2353.07136289091
 30
0.0
  0
SPLINE
  5
13F2
330
1F
100
AcDbEntity
  8
SANINDUSA
100
AcDbSpline
210
0.0
220
0.0
230
1.0
 70
    24
 71
     3
 72
    52
 73
    48
 74
     0
 42
0.0000000001
 43
0.0000000001
 40
0.0
 40
0.0
 40
0.0
 40
0.0
 40
0.0039062500000002
 40
0.0039062500000002
 40
0.0078125000000004
 40
0.0078125000000004
 40
0.0156250000000004
 40
0.0156250000000004
 40
0.0312500000000002
 40
0.0312500000000002
 40
0.0468749999999999
 40
0.0468749999999999
 40
0.0546874999999997
 40
0.0546874999999997
 40
0.0624999999999995
 40
0.0624999999999995
 40
0.0937499999999998
 40
0.0937499999999998
 40
0.1015625
 40
0.1015625
 40
0.1093750000000001
 40
0.1093750000000001
 40
0.1250000000000004
 40
0.1250000000000004
 40
0.1406250000000007
 40
0.1406250000000007
 40
0.148437500000001
 40
0.148437500000001
 40
0.1562500000000012
 40
0.1562500000000012
 40
0.1875000000000019
 40
0.1875000000000019
 40
0.2031250000000026
 40
0.2031250000000026
 40
0.2109375000000028
 40
0.2109375000000028
 40
0.2187500000000031
 40
0.2187500000000031
 40
0.2343750000000035
 40
0.2343750000000035
 40
0.2382812500000036
 40
0.2382812500000036
 40
0.2421875000000036
 40
0.2500000000000036
 40
0.5000000000000025
 40
0.5000000000000025
 40
1.0
 40
1.0
 40
1.0
 40
1.0
 10
4645.146706299449
 20
2353.07136289091
 30
0.0
 10
4645.146400518792
 20
2353.07136289091
 30
0.0
 10
4645.146094583561
 20
2353.07136289091
 30
0.0
 10
4645.145484550012
 20
2353.07136289091
 30
0.0
 10
4645.145180251814
 20
2353.07136289091
 30
0.0
 10
4645.144269483455
 20
2353.07136289091
 30
0.0
 10
4645.143665137207
 20
2353.07136289091
 30
0.0
 10
4645.141860449952
 20
2353.07136289091
 30
0.0
 10
4645.140668428401
 20
2353.07136289091
 30
0.0
 10
4645.138306650154
 20
2353.07136289091
 30
0.0
 10
4645.137136873834
 20
2353.07136289091
 30
0.0
 10
4645.135399188704
 20
2353.07136289091
 30
0.0
 10
4645.13482108953
 20
2353.07136289091
 30
0.0
 10
4645.13368143646
 20
2353.07136289091
 30
0.0
 10
4645.133119657683
 20
2353.07136289091
 30
0.0
 10
4645.130350337463
 20
2353.07136289091
 30
0.0
 10
4645.128259234091
 20
2353.07136289091
 30
0.0
 10
4645.125801754167
 20
2353.07136289091
 30
0.0
 10
4645.125318145349
 20
2353.07136289091
 30
0.0
 10
4645.12436695154
 20
2353.07136289091
 30
0.0
 10
4645.123899649337
 20
2353.07136289091
 30
0.0
 10
4645.122538330818
 20
2353.07136289091
 30
0.0
 10
4645.121679165518
 20
2353.07136289091
 30
0.0
 10
4645.120055771523
 20
2353.07136289091
 30
0.0
 10
4645.119291264093
 20
2353.07136289091
 30
0.0
 10
4645.118215639999
 20
2353.07136289091
 30
0.0
 10
4645.117868993072
 20
2353.07136289091
 30
0.0
 10
4645.117200035267
 20
2353.07136289091
 30
0.0
 10
4645.116877065921
 20
2353.07136289091
 30
0.0
 10
4645.115332175736
 20
2353.07136289091
 30
0.0
 10
4645.114334530717
 20
2353.07136289091
 30
0.0
 10
4645.113185765215
 20
2353.07136289091
 30
0.0
 10
4645.112860931141
 20
2353.07136289091
 30
0.0
 10
4645.112463833174
 20
2353.07136289091
 30
0.0
 10
4645.112346638177
 20
2353.07136289091
 30
0.0
 10
4645.112145021747
 20
2353.07136289091
 30
0.0
 10
4645.112060208774
 20
2353.07136289091
 30
0.0
 10
4645.111853215169
 20
2353.07136289091
 30
0.0
 10
4645.111778271195
 20
2353.07136289091
 30
0.0
 10
4645.111764598859
 20
2353.07136289091
 30
0.0
 10
4645.11176561862
 20
2353.07136289091
 30
0.0
 10
4645.111765001143
 20
2353.07136289091
 30
0.0
 10
4645.111764075126
 20
2353.07136289091
 30
0.0
 10
4645.111743408999
 20
2353.07136289091
 30
0.0
 10
4645.111723434816
 20
2353.07136289091
 30
0.0
 10
4645.111672037106
 20
2353.07136289091
 30
0.0
 10
4645.111646841574
 20
2353.07136289091
 30
0.0
 10
4645.11164485324
 20
2353.07136289091
 30
0.0
  0
SPLINE
  5
13F3
330
1F
100
AcDbEntity
  8
SANINDUSA
100
AcDbSpline
210
0.0
220
0.0
230
1.0
 70
     8
 71
     3
 72
    22
 73
    18
 74
     0
 42
0.0000000001
 43
0.0000000001
 40
0.0
 40
0.0
 40
0.0
 40
0.0
 40
0.124999999999998
 40
0.124999999999998
 40
0.2499999999999959
 40
0.2499999999999959
 40
0.3749999999999938
 40
0.3749999999999938
 40
0.4999999999999919
 40
0.4999999999999919
 40
0.7499999999999877
 40
0.7499999999999877
 40
0.87499999999999
 40
0.87499999999999
 40
0.937499999999995
 40
0.937499999999995
 40
1.0
 40
1.0
 40
1.0
 40
1.0
 10
4645.106707791844
 20
2353.075571389942
 30
0.0
 10
4645.106758960136
 20
2353.075252233791
 30
0.0
 10
4645.106839556595
 20
2353.074945540485
 30
0.0
 10
4645.107054832205
 20
2353.074355057873
 30
0.0
 10
4645.107191150735
 20
2353.074069440015
 30
0.0
 10
4645.107505635401
 20
2353.073541161434
 30
0.0
 10
4645.107685158138
 20
2353.073294994762
 30
0.0
 10
4645.108081428169
 20
2353.072842514058
 30
0.0
 10
4645.108294064097
 20
2353.072640499139
 30
0.0
 10
4645.108970517499
 20
2353.072098848738
 30
0.0
 10
4645.109479327003
 20
2353.071821693696
 30
0.0
 10
4645.11027061848
 20
2353.071547341503
 30
0.0
 10
4645.110541560637
 20
2353.071478202678
 30
0.0
 10
4645.110953013756
 20
2353.071409031084
 30
0.0
 10
4645.11109087276
 20
2353.07139173465
 30
0.0
 10
4645.111367558498
 20
2353.071368655927
 30
0.0
 10
4645.111507499298
 20
2353.07136289091
 30
0.0
 10
4645.11164485324
 20
2353.07136289091
 30
0.0
  0
SPLINE
  5
13F4
330
1F
100
AcDbEntity
  8
SANINDUSA
100
AcDbSpline
210
0.0
220
0.0
230
1.0
 70
     8
 71
     3
 72
    22
 73
    18
 74
     0
 42
0.0000000001
 43
0.0000000001
 40
0.0
 40
0.0
 40
0.0
 40
0.0
 40
0.1249999999999975
 40
0.1249999999999975
 40
0.249999999999995
 40
0.249999999999995
 40
0.3749999999999925
 40
0.3749999999999925
 40
0.4999999999999901
 40
0.4999999999999901
 40
0.7499999999999912
 40
0.7499999999999912
 40
0.8749999999999916
 40
0.8749999999999916
 40
0.9374999999999957
 40
0.9374999999999957
 40
1.0
 40
1.0
 40
1.0
 40
1.0
 10
4645.478072538574
 20
2353.075571389942
 30
0.0
 10
4645.478021370283
 20
2353.075252233791
 30
0.0
 10
4645.477940773824
 20
2353.074945540485
 30
0.0
 10
4645.477725498213
 20
2353.074355057873
 30
0.0
 10
4645.477589179683
 20
2353.074069440015
 30
0.0
 10
4645.477274695017
 20
2353.073541161434
 30
0.0
 10
4645.477095172281
 20
2353.073294994762
 30
0.0
 10
4645.476698902249
 20
2353.072842514058
 30
0.0
 10
4645.47648626632
 20
2353.072640499139
 30
0.0
 10
4645.47580981292
 20
2353.072098848738
 30
0.0
 10
4645.475301003414
 20
2353.071821693696
 30
0.0
 10
4645.474509711938
 20
2353.071547341503
 30
0.0
 10
4645.47423876978
 20
2353.071478202678
 30
0.0
 10
4645.473827316663
 20
2353.071409031084
 30
0.0
 10
4645.473689457658
 20
2353.07139173465
 30
0.0
 10
4645.47341277192
 20
2353.071368655927
 30
0.0
 10
4645.47327283112
 20
2353.07136289091
 30
0.0
 10
4645.473135477179
 20
2353.07136289091
 30
0.0
  0
SPLINE
  5
13F5
330
1F
100
AcDbEntity
  8
SANINDUSA
100
AcDbSpline
210
0.0
220
0.0
230
1.0
 70
    24
 71
     3
 72
    46
 73
    42
 74
     0
 42
0.0000000001
 43
0.0000000001
 40
0.0
 40
0.0
 40
0.0
 40
0.0
 40
0.500000000000001
 40
0.500000000000001
 40
0.7500000000000017
 40
0.7578125000000016
 40
0.7617187500000016
 40
0.7617187500000016
 40
0.7656250000000016
 40
0.7656250000000016
 40
0.781250000000001
 40
0.781250000000001
 40
0.8125000000000003
 40
0.8125000000000003
 40
0.8203125000000001
 40
0.8203125000000001
 40
0.8281249999999998
 40
0.8281249999999998
 40
0.8437499999999992
 40
0.8437499999999992
 40
0.8593749999999989
 40
0.8593749999999989
 40
0.8749999999999985
 40
0.8749999999999985
 40
0.906249999999998
 40
0.906249999999998
 40
0.914062499999998
 40
0.914062499999998
 40
0.921874999999998
 40
0.921874999999998
 40
0.9374999999999984
 40
0.9374999999999984
 40
0.9687499999999992
 40
0.9687499999999992
 40
0.9843749999999998
 40
0.9843749999999998
 40
0.9921874999999998
 40
0.9921874999999998
 40
0.99609375
 40
0.99609375
 40
1.0
 40
1.0
 40
1.0
 40
1.0
 10
4645.473135477179
 20
2353.07136289091
 30
0.0
 10
4645.47313348954
 20
2353.07136289091
 30
0.0
 10
4645.473108311017
 20
2353.07136289091
 30
0.0
 10
4645.473056940647
 20
2353.07136289091
 30
0.0
 10
4645.473036976128
 20
2353.07136289091
 30
0.0
 10
4645.47301631796
 20
2353.07136289091
 30
0.0
 10
4645.473015392297
 20
2353.07136289091
 30
0.0
 10
4645.473014775052
 20
2353.07136289091
 30
0.0
 10
4645.473015684525
 20
2353.07136289091
 30
0.0
 10
4645.473004776232
 20
2353.07136289091
 30
0.0
 10
4645.472932128993
 20
2353.07136289091
 30
0.0
 10
4645.472529170269
 20
2353.07136289091
 30
0.0
 10
4645.47201451987
 20
2353.07136289091
 30
0.0
 10
4645.471053476389
 20
2353.07136289091
 30
0.0
 10
4645.470845970218
 20
2353.07136289091
 30
0.0
 10
4645.470403630037
 20
2353.07136289091
 30
0.0
 10
4645.470168355923
 20
2353.07136289091
 30
0.0
 10
4645.469421207645
 20
2353.07136289091
 30
0.0
 10
4645.468868210423
 20
2353.07136289091
 30
0.0
 10
4645.467653486786
 20
2353.07136289091
 30
0.0
 10
4645.466991485587
 20
2353.07136289091
 30
0.0
 10
4645.465555862928
 20
2353.07136289091
 30
0.0
 10
4645.464778779637
 20
2353.07136289091
 30
0.0
 10
4645.46233160788
 20
2353.07136289091
 30
0.0
 10
4645.460532977541
 20
2353.07136289091
 30
0.0
 10
4645.458078536083
 20
2353.07136289091
 30
0.0
 10
4645.457577168297
 20
2353.07136289091
 30
0.0
 10
4645.45655303937
 20
2353.07136289091
 30
0.0
 10
4645.456029450117
 20
2353.07136289091
 30
0.0
 10
4645.454444659123
 20
2353.07136289091
 30
0.0
 10
4645.453364089816
 20
2353.07136289091
 30
0.0
 10
4645.450051796657
 20
2353.07136289091
 30
0.0
 10
4645.447748409546
 20
2353.07136289091
 30
0.0
 10
4645.444152847955
 20
2353.07136289091
 30
0.0
 10
4645.442947034323
 20
2353.07136289091
 30
0.0
 10
4645.441127631445
 20
2353.07136289091
 30
0.0
 10
4645.44051937802
 20
2353.07136289091
 30
0.0
 10
4645.439604300274
 20
2353.07136289091
 30
0.0
 10
4645.439298824391
 20
2353.07136289091
 30
0.0
 10
4645.438686964952
 20
2353.07136289091
 30
0.0
 10
4645.438380455416
 20
2353.07136289091
 30
0.0
 10
4645.438074043022
 20
2353.07136289091
 30
0.0
  0
SPLINE
  5
13F6
330
1F
100
AcDbEntity
  8
SANINDUSA
100
AcDbSpline
210
0.0
220
0.0
230
1.0
 70
     8
 71
     3
 72
    22
 73
    18
 74
     0
 42
0.0000000001
 43
0.0000000001
 40
0.0
 40
0.0
 40
0.0
 40
0.0
 40
0.1250000000000001
 40
0.1250000000000001
 40
0.2500000000000002
 40
0.2500000000000002
 40
0.3750000000000002
 40
0.3750000000000002
 40
0.5000000000000004
 40
0.5000000000000004
 40
0.6250000000000004
 40
0.6250000000000004
 40
0.7500000000000002
 40
0.7500000000000002
 40
0.8750000000000001
 40
0.8750000000000001
 40
1.0
 40
1.0
 40
1.0
 40
1.0
 10
4645.097588989802
 20
2353.221362890909
 30
0.0
 10
4645.097250153249
 20
2353.221362890909
 30
0.0
 10
4645.096915816622
 20
2353.221328799563
 30
0.0
 10
4645.096255979186
 20
2353.221193676931
 30
0.0
 10
4645.095931416186
 20
2353.221091961339
 30
0.0
 10
4645.095316876385
 20
2353.220829338943
 30
0.0
 10
4645.095022982621
 20
2353.220667564346
 30
0.0
 10
4645.094466147901
 20
2353.220282388927
 30
0.0
 10
4645.094211702214
 20
2353.220065006804
 30
0.0
 10
4645.093748962731
 20
2353.219582506669
 30
0.0
 10
4645.093538791054
 20
2353.219313913983
 30
0.0
 10
4645.093180723878
 20
2353.218746132112
 30
0.0
 10
4645.093031737831
 20
2353.218447170386
 30
0.0
 10
4645.092793956377
 20
2353.217819057425
 30
0.0
 10
4645.092706172632
 20
2353.217489740009
 30
0.0
 10
4645.092599639423
 20
2353.216829876138
 30
0.0
 10
4645.092579282676
 20
2353.216495724317
 30
0.0
 10
4645.092593223512
 20
2353.21615717467
 30
0.0
  0
SPLINE
  5
13F7
330
1F
100
AcDbEntity
  8
SANINDUSA
100
AcDbSpline
210
0.0
220
0.0
230
1.0
 70
     8
 71
     3
 72
    22
 73
    18
 74
     0
 42
0.0000000001
 43
0.0000000001
 40
0.0
 40
0.0
 40
0.0
 40
0.0
 40
0.125
 40
0.125
 40
0.25
 40
0.25
 40
0.375
 40
0.375
 40
0.5
 40
0.5
 40
0.625
 40
0.625
 40
0.75
 40
0.75
 40
0.875
 40
0.875
 40
1.0
 40
1.0
 40
1.0
 40
1.0
 10
4645.492187106906
 20
2353.21615717467
 30
0.0
 10
4645.492201047742
 20
2353.216495724317
 30
0.0
 10
4645.492180740958
 20
2353.216831180476
 30
0.0
 10
4645.492072880594
 20
2353.217496018583
 30
0.0
 10
4645.491984604706
 20
2353.217824491673
 30
0.0
 10
4645.491747488846
 20
2353.218449316256
 30
0.0
 10
4645.491597942974
 20
2353.218749617099
 30
0.0
 10
4645.491236003688
 20
2353.219321827692
 30
0.0
 10
4645.491029274353
 20
2353.219585001735
 30
0.0
 10
4645.490566221377
 20
2353.220067201021
 30
0.0
 10
4645.490306503265
 20
2353.220288245512
 30
0.0
 10
4645.489753934205
 20
2353.220669369887
 30
0.0
 10
4645.489461355392
 20
2353.220830530039
 30
0.0
 10
4645.488843557382
 20
2353.22109395276
 30
0.0
 10
4645.488518130521
 20
2353.221195211362
 30
0.0
 10
4645.487863208507
 20
2353.221328803308
 30
0.0
 10
4645.487530177169
 20
2353.221362890909
 30
0.0
 10
4645.487191340615
 20
2353.221362890909
 30
0.0
  0
LINE
  5
13F8
330
1F
100
AcDbEntity
  8
SANINDUSA
100
AcDbLine
 10
4645.364890073716
 20
2353.061362894486
 30
0.0
 11
4645.294890073883
 21
2353.061362894486
 31
0.0
  0
LINE
  5
13FA
330
1F
100
AcDbEntity
  8
SANINDUSA
100
AcDbLine
 10
4645.294828906013
 20
2353.069994630526
 30
0.0
 11
4645.256554090708
 21
2353.071362884949
 31
0.0
  0
SPLINE
  5
13FE
330
1F
100
AcDbEntity
  8
SANINDUSA
100
AcDbSpline
210
0.0
220
0.0
230
1.0
 70
     8
 71
     3
 72
    11
 73
     7
 74
     0
 42
0.0000000001
 43
0.0000000001
 40
0.0
 40
0.0
 40
0.0
 40
0.0
 40
0.0092507923677038
 40
0.0305381856660652
 40
0.0652438579649697
 40
1.0
 40
1.0
 40
1.0
 40
1.0
 10
4644.942891375479
 20
2353.049000006595
 30
0.0
 10
4644.942883954437
 20
2353.049643873282
 30
0.0
 10
4644.942927963532
 20
2353.051760268786
 30
0.0
 10
4644.942892952433
 20
2353.056287956381
 30
0.0
 10
4644.943131028574
 20
2353.125012084801
 30
0.0
 10
4644.943068032498
 20
2353.192268827687
 30
0.0
 10
4644.943007291612
 20
2353.257117852761
 30
0.0
  0
SPLINE
  5
13FF
330
1F
100
AcDbEntity
  8
SANINDUSA
100
AcDbSpline
210
0.0
220
0.0
230
1.0
 70
     8
 71
     3
 72
    12
 73
     8
 74
     0
 42
0.0000000001
 43
0.0000000001
 40
0.0
 40
0.0
 40
0.0
 40
0.0
 40
0.0053765137437719
 40
0.5596587791257975
 40
0.836795219926142
 40
0.9753743050737051
 40
0.9911634847423735
 40
0.9911634847423735
 40
0.9911634847423735
 40
0.9911634847423735
 10
4644.543445841726
 20
2353.25711784438
 30
0.0
 10
4644.543445839977
 20
2353.256744863574
 30
0.0
 10
4644.543445657904
 20
2353.217920080012
 30
0.0
 10
4644.543530399263
 20
2353.159873828313
 30
0.0
 10
4644.543480340955
 20
2353.092573420674
 30
0.0
 10
4644.543655079345
 20
2353.062650668091
 30
0.0
 10
4644.543573707625
 20
2353.05193414087
 30
0.0
 10
4644.543601381516
 20
2353.050839370084
 30
0.0
  0
SPLINE
  5
1400
330
1F
100
AcDbEntity
  8
SANINDUSA
100
AcDbSpline
210
0.0
220
0.0
230
1.0
 70
     8
 71
     3
 72
    17
 73
    13
 74
     0
 42
0.0000000001
 43
0.0000000001
 40
0.0
 40
0.0
 40
0.0
 40
0.0
 40
0.0097521015805032
 40
0.0329927730963553
 40
0.061319590124348
 40
0.124174096408281
 40
0.196521700424014
 40
0.6590274717534253
 40
0.8667980014627303
 40
0.9706392995243337
 40
0.9971000448214329
 40
1.0
 40
1.0
 40
1.0
 40
1.0
 10
4644.583174393829
 20
2353.009820219555
 30
0.0
 10
4644.584214679292
 20
2353.009789389337
 30
0.0
 10
4644.587734115787
 20
2353.00968508624
 30
0.0
 10
4644.594279021118
 20
2353.009697254513
 30
0.0
 10
4644.606488556203
 20
2353.009845429602
 30
0.0
 10
4644.623940445949
 20
2353.009735387503
 30
0.0
 10
4644.68772526547
 20
2353.00972310717
 30
0.0
 10
4644.766972938127
 20
2353.009614167152
 30
0.0
 10
4644.849590514426
 20
2353.009763948178
 30
0.0
 10
4644.885660387881
 20
2353.009762552822
 30
0.0
 10
4644.899882161676
 20
2353.009664776542
 30
0.0
 10
4644.903011836631
 20
2353.00981704166
 30
0.0
 10
4644.903320954498
 20
2353.009832080879
 30
0.0
  0
SPLINE
  5
1401
330
1F
100
AcDbEntity
  8
SANINDUSA
100
AcDbSpline
210
0.0
220
0.0
230
1.0
 70
    24
 71
     3
 72
    20
 73
    16
 74
     0
 42
0.0000000001
 43
0.0000000001
 40
0.0
 40
0.0
 40
0.0
 40
0.0
 40
0.1250000000000029
 40
0.1250000000000029
 40
0.2500000000000059
 40
0.2500000000000059
 40
0.3750000000000088
 40
0.3750000000000088
 40
0.5000000000000118
 40
0.5000000000000118
 40
0.7500000000000058
 40
0.7500000000000058
 40
0.8750000000000028
 40
0.8750000000000028
 40
1.0
 40
1.0
 40
1.0
 40
1.0
 10
4644.938048089612
 20
2353.259117883125
 30
0.0
 10
4644.938251391544
 20
2353.259117883125
 30
0.0
 10
4644.938451210346
 20
2353.259117883125
 30
0.0
 10
4644.938844163555
 20
2353.259117883125
 30
0.0
 10
4644.939039419671
 20
2353.259117883125
 30
0.0
 10
4644.939410098477
 20
2353.259117883125
 30
0.0
 10
4644.939585645764
 20
2353.259117883125
 30
0.0
 10
4644.939917187201
 20
2353.259117883125
 30
0.0
 10
4644.940073018068
 20
2353.259117883125
 30
0.0
 10
4644.940489765748
 20
2353.259117883125
 30
0.0
 10
4644.940710643792
 20
2353.259117883125
 30
0.0
 10
4644.940924048065
 20
2353.259117883125
 30
0.0
 10
4644.940977013599
 20
2353.259117883125
 30
0.0
 10
4644.941041729817
 20
2353.259117883125
 30
0.0
 10
4644.941053913888
 20
2353.259117883125
 30
0.0
 10
4644.941045549386
 20
2353.259117883125
 30
0.0
  0
ARC
  5
1402
330
1F
100
AcDbEntity
  8
SANINDUSA
100
AcDbCircle
 10
4644.941044697706
 20
2353.25711872176
 30
0.0
 40
0.0019991615484063
100
AcDbArc
 50
359.9748477045973
 51
89.9754660964893
  0
SPLINE
  5
1406
330
1F
100
AcDbEntity
  8
SANINDUSA
100
AcDbSpline
210
0.0
220
0.0
230
1.0
 70
    24
 71
     3
 72
    20
 73
    16
 74
     0
 42
0.0000000001
 43
0.0000000001
 40
0.0
 40
0.0
 40
0.0
 40
0.0
 40
0.124999999999997
 40
0.124999999999997
 40
0.249999999999994
 40
0.249999999999994
 40
0.374999999999991
 40
0.374999999999991
 40
0.499999999999988
 40
0.499999999999988
 40
0.749999999999994
 40
0.749999999999994
 40
0.8749999999999969
 40
0.8749999999999969
 40
1.0
 40
1.0
 40
1.0
 40
1.0
 10
4644.545448279024
 20
2353.259117883125
 30
0.0
 10
4644.545439914522
 20
2353.259117883125
 30
0.0
 10
4644.54545212857
 20
2353.259117883125
 30
0.0
 10
4644.545516048496
 20
2353.259117883125
 30
0.0
 10
4644.545568718743
 20
2353.259117883125
 30
0.0
 10
4644.545711387614
 20
2353.259117883125
 30
0.0
 10
4644.545800779243
 20
2353.259117883125
 30
0.0
 10
4644.546015619549
 20
2353.259117883125
 30
0.0
 10
4644.546141722556
 20
2353.259117883125
 30
0.0
 10
4644.546558188091
 20
2353.259117883125
 30
0.0
 10
4644.546898108806
 20
2353.259117883125
 30
0.0
 10
4644.547451194628
 20
2353.259117883125
 30
0.0
 10
4644.547645932429
 20
2353.259117883125
 30
0.0
 10
4644.54804183489
 20
2353.259117883125
 30
0.0
 10
4644.548242436866
 20
2353.259117883125
 30
0.0
 10
4644.548445738799
 20
2353.259117883125
 30
0.0
  0
ARC
  5
1409
330
1F
100
AcDbEntity
  8
SANINDUSA
100
AcDbCircle
 10
4644.545449130704
 20
2353.25711872176
 30
0.0
 40
0.0019991615484063
100
AcDbArc
 50
90.02453390351069
 51
180.0251522954026
  0
SPLINE
  5
140B
330
1F
100
AcDbEntity
  8
SANINDUSA
100
AcDbSpline
210
0.0
220
0.0
230
1.0
 70
    24
 71
     3
 72
     8
 73
     4
 74
     0
 42
0.0000000001
 43
0.0000000001
 40
0.0
 40
0.0
 40
0.0
 40
0.0
 40
1.0
 40
1.0
 40
1.0
 40
1.0
 10
4644.643253677857
 20
2353.059696779452
 30
0.0
 10
4644.643253677857
 20
2353.058328168662
 30
0.0
 10
4644.643253677857
 20
2353.056959557872
 30
0.0
 10
4644.643253677857
 20
2353.055590947082
 30
0.0
  0
CIRCLE
  5
1412
330
1F
100
AcDbEntity
  8
SANINDUSA
100
AcDbCircle
 10
4644.600746914205
 20
2353.189117883125
 30
0.0
 40
0.0175
  0
SPLINE
  5
141C
330
1F
100
AcDbEntity
  8
SANINDUSA
100
AcDbSpline
210
0.0
220
0.0
230
1.0
 70
    24
 71
     3
 72
     8
 73
     4
 74
     0
 42
0.0000000001
 43
0.0000000001
 40
0.0
 40
0.0
 40
0.0
 40
0.0
 40
1.0
 40
1.0
 40
1.0
 40
1.0
 10
4644.903246804644
 20
2353.233250111541
 30
0.0
 10
4644.821580211018
 20
2353.233250111541
 30
0.0
 10
4644.739913617391
 20
2353.233250111541
 30
0.0
 10
4644.658247023766
 20
2353.233250111541
 30
0.0
  0
SPLINE
  5
141E
330
1F
100
AcDbEntity
  8
SANINDUSA
100
AcDbSpline
210
0.0
220
0.0
230
1.0
 70
    24
 71
     3
 72
     8
 73
     4
 74
     0
 42
0.0000000001
 43
0.0000000001
 40
0.0
 40
0.0
 40
0.0
 40
0.0
 40
1.0
 40
1.0
 40
1.0
 40
1.0
 10
4644.918240150553
 20
2353.055590947082
 30
0.0
 10
4644.918240150553
 20
2353.109606748464
 30
0.0
 10
4644.918240150553
 20
2353.163622549846
 30
0.0
 10
4644.918240150553
 20
2353.217638351227
 30
0.0
  0
SPLINE
  5
1421
330
1F
100
AcDbEntity
  8
SANINDUSA
100
AcDbSpline
210
0.0
220
0.0
230
1.0
 70
    24
 71
     3
 72
     8
 73
     4
 74
     0
 42
0.0000000001
 43
0.0000000001
 40
0.0
 40
0.0
 40
0.0
 40
0.0
 40
1.0
 40
1.0
 40
1.0
 40
1.0
 10
4644.658277389184
 20
2353.042263152213
 30
0.0
 10
4644.739923739198
 20
2353.042263152213
 30
0.0
 10
4644.821570089212
 20
2353.042263152213
 30
0.0
 10
4644.903216439225
 20
2353.042263152213
 30
0.0
  0
SPLINE
  5
1424
330
1F
100
AcDbEntity
  8
SANINDUSA
100
AcDbSpline
210
0.0
220
0.0
230
1.0
 70
     8
 71
     3
 72
    45
 73
    41
 74
     0
 42
0.0000000001
 43
0.0000000001
 40
0.0
 40
0.0
 40
0.0
 40
0.0
 40
0.0169292535466829
 40
0.0334799520364306
 40
0.0496520460640813
 40
0.0654454892263298
 40
0.0808602382016687
 40
0.0958962528340704
 40
0.1105534962226333
 40
0.1248319348193715
 40
0.1387315385383557
 40
0.1522522808790052
 40
0.1653941390677441
 40
0.1781570942219885
 40
0.1905411315421109
 40
0.2025462405372378
 40
0.2141724152929508
 40
0.2254196547895161
 40
0.2362879632825686
 40
0.246777350760057
 40
0.2568878334930598
 40
0.3240146231842394
 40
0.3881618389239681
 40
0.4493414229964399
 40
0.5075679332337663
 40
0.5424309213626625
 40
0.5769787457542066
 40
0.6112165659975905
 40
0.6451497128020137
 40
0.6787836878916935
 40
0.7121241636009901
 40
0.7451769821798703
 40
0.7779481548191894
 40
0.8104438604050887
 40
0.8426704440104765
 40
0.8746344151311415
 40
0.9063424456731169
 40
0.9378013676967139
 40
0.9690181709221011
 40
1.0
 40
1.0
 40
1.0
 40
1.0
 10
4644.918240150553
 20
2353.217638351227
 30
0.0
 10
4644.918239201768
 20
2353.217773835295
 30
0.0
 10
4644.918237325414
 20
2353.218041773873
 30
0.0
 10
4644.918222073413
 20
2353.218438909651
 30
0.0
 10
4644.918198490972
 20
2353.218826507346
 30
0.0
 10
4644.918166353879
 20
2353.219204383305
 30
0.0
 10
4644.918126536454
 20
2353.219572381839
 30
0.0
 10
4644.91807961292
 20
2353.219930375741
 30
0.0
 10
4644.918026217895
 20
2353.220278263976
 30
0.0
 10
4644.917966952147
 20
2353.220615970117
 30
0.0
 10
4644.917902405977
 20
2353.220943440623
 30
0.0
 10
4644.917833152379
 20
2353.22126064319
 30
0.0
 10
4644.917759748113
 20
2353.221567565118
 30
0.0
 10
4644.917682732868
 20
2353.221864211727
 30
0.0
 10
4644.917602629017
 20
2353.222150604789
 30
0.0
 10
4644.917519941315
 20
2353.222426781067
 30
0.0
 10
4644.917435156762
 20
2353.2226927907
 30
0.0
 10
4644.91734874431
 20
2353.222948696299
 30
0.0
 10
4644.917261155382
 20
2353.223194569772
 30
0.0
 10
4644.917172821807
 20
2353.223430497396
 30
0.0
 10
4644.916916397431
 20
2353.224084318633
 30
0.0
 10
4644.916441568141
 20
2353.225114448477
 30
0.0
 10
4644.91565893971
 20
2353.226444931868
 30
0.0
 10
4644.914793922693
 20
2353.227636467916
 30
0.0
 10
4644.91397711827
 20
2353.228566445843
 30
0.0
 10
4644.913247409766
 20
2353.229283781664
 30
0.0
 10
4644.912623590534
 20
2353.229832974809
 30
0.0
 10
4644.91197640667
 20
2353.230342612419
 30
0.0
 10
4644.911308276046
 20
2353.230811997351
 30
0.0
 10
4644.910621628095
 20
2353.231240565218
 30
0.0
 10
4644.909918871159
 20
2353.231627903155
 30
0.0
 10
4644.909202390191
 20
2353.231973738747
 30
0.0
 10
4644.908474537091
 20
2353.23227793904
 30
0.0
 10
4644.907737623651
 20
2353.232540496413
 30
0.0
 10
4644.906993914495
 20
2353.232761554463
 30
0.0
 10
4644.906245620687
 20
2353.232941286821
 30
0.0
 10
4644.905494893841
 20
2353.233080316495
 30
0.0
 10
4644.904743820817
 20
2353.233178141166
 30
0.0
 10
4644.903994418752
 20
2353.233238912219
 30
0.0
 10
4644.903495380925
 20
2353.233246387848
 30
0.0
 10
4644.903246804644
 20
2353.233250111541
 30
0.0
  0
SPLINE
  5
1425
330
1F
100
AcDbEntity
  8
SANINDUSA
100
AcDbSpline
210
0.0
220
0.0
230
1.0
 70
     8
 71
     3
 72
    45
 73
    41
 74
     0
 42
0.0000000001
 43
0.0000000001
 40
0.0
 40
0.0
 40
0.0
 40
0.0
 40
0.0123950357697979
 40
0.0250482987688801
 40
0.0379687560683464
 40
0.0511648401941453
 40
0.0646444758772501
 40
0.0784151070721166
 40
0.092483723806752
 40
0.1068568885203378
 40
0.1215407616274537
 40
0.1365411261163612
 40
0.1518634110481448
 40
0.1675127138704689
 40
0.1834938214992836
 40
0.1998112301515733
 40
0.2164691639364399
 40
0.2334715922295526
 40
0.2726088020521283
 40
0.3141846072575914
 40
0.3582144530001017
 40
0.4009995357909533
 40
0.4438951132583422
 40
0.4869022386122384
 40
0.5165537845825181
 40
0.5483347088907575
 40
0.5822521339002368
 40
0.6183118636588886
 40
0.6656058001585322
 40
0.7089857149606949
 40
0.7485200251919309
 40
0.7942523930408925
 40
0.8364348432299845
 40
0.8752539380469585
 40
0.8969982278276532
 40
0.9182802512035468
 40
0.9391583351763088
 40
0.9596941268918735
 40
0.9799522765144194
 40
1.0
 40
1.0
 40
1.0
 40
1.0
 10
4644.903216439225
 20
2353.042263152213
 30
0.0
 10
4644.90331820063
 20
2353.042263393302
 30
0.0
 10
4644.903523843446
 20
2353.042263880501
 30
0.0
 10
4644.903835119773
 20
2353.042270055707
 30
0.0
 10
4644.904152186652
 20
2353.042280638971
 30
0.0
 10
4644.90447487742
 20
2353.042296382206
 30
0.0
 10
4644.904803016193
 20
2353.042317545363
 30
0.0
 10
4644.905136407571
 20
2353.042344528008
 30
0.0
 10
4644.905474838615
 20
2353.042377693834
 30
0.0
 10
4644.905818077456
 20
2353.042417418298
 30
0.0
 10
4644.906165872871
 20
2353.042464074484
 30
0.0
 10
4644.906517953537
 20
2353.042518035928
 30
0.0
 10
4644.906874027703
 20
2353.042579674957
 30
0.0
 10
4644.907233781648
 20
2353.0426493611
 30
0.0
 10
4644.907596882837
 20
2353.042727463694
 30
0.0
 10
4644.907962965197
 20
2353.042814336714
 30
0.0
 10
4644.908331683353
 20
2353.042910372192
 30
0.0
 10
4644.908860876256
 20
2353.043060812285
 30
0.0
 10
4644.909554615729
 20
2353.043287519502
 30
0.0
 10
4644.910408877197
 20
2353.043622400703
 30
0.0
 10
4644.911250983251
 20
2353.04401394924
 30
0.0
 10
4644.912063339984
 20
2353.04445786232
 30
0.0
 10
4644.912831029226
 20
2353.04494624145
 30
0.0
 10
4644.913481540321
 20
2353.045422754508
 30
0.0
 10
4644.914041635576
 20
2353.045886563437
 30
0.0
 10
4644.914532990447
 20
2353.046340128021
 30
0.0
 10
4644.915030880256
 20
2353.0468546127
 30
0.0
 10
4644.915569232748
 20
2353.047481715834
 30
0.0
 10
4644.916104156265
 20
2353.048204902465
 30
0.0
 10
4644.916598959609
 20
2353.049002969516
 30
0.0
 10
4644.917034643002
 20
2353.049842224732
 30
0.0
 10
4644.917407887361
 20
2353.050724279964
 30
0.0
 10
4644.917713817111
 20
2353.051648455353
 30
0.0
 10
4644.917910150748
 20
2353.052432443982
 30
0.0
 10
4644.91803398639
 20
2353.053075106778
 30
0.0
 10
4644.918112249843
 20
2353.053585549412
 30
0.0
 10
4644.918171197599
 20
2353.054092971641
 30
0.0
 10
4644.918211571481
 20
2353.054596596706
 30
0.0
 10
4644.918235891473
 20
2353.055095962008
 30
0.0
 10
4644.918238735808
 20
2353.055426527322
 30
0.0
 10
4644.918240150553
 20
2353.055590947082
 30
0.0
  0
SPLINE
  5
1426
330
1F
100
AcDbEntity
  8
SANINDUSA
100
AcDbSpline
210
0.0
220
0.0
230
1.0
 70
     8
 71
     3
 72
    46
 73
    42
 74
     0
 42
0.0000000001
 43
0.0000000001
 40
0.0
 40
0.0
 40
0.0
 40
0.0
 40
0.0110739005322729
 40
0.0222453128791298
 40
0.0335266140260138
 40
0.0449298332507652
 40
0.0564666287728384
 40
0.0681482693419908
 40
0.0799856205945502
 40
0.0919891359057053
 40
0.104168851389284
 40
0.1165343846439399
 40
0.129094936813947
 40
0.1418592975207868
 40
0.1548358522267083
 40
0.1680325916078591
 40
0.1814571225417239
 40
0.1951166803460072
 40
0.2090181419427058
 40
0.2231680396592827
 40
0.2375725754172406
 40
0.2522376350941307
 40
0.3050866774172995
 40
0.3661825253231441
 40
0.4356420157984763
 40
0.5135431190696367
 40
0.560143719246033
 40
0.5972092451274083
 40
0.6247385964826208
 40
0.6427312864722105
 40
0.7121473585137336
 40
0.7669680064898956
 40
0.7970941668995121
 40
0.8260960990833718
 40
0.853997094405418
 40
0.8808233021375613
 40
0.9066041111334747
 40
0.9313725808386987
 40
0.955165921592555
 40
0.9780260201313481
 40
1.0
 40
1.0
 40
1.0
 40
1.0
 10
4644.643253677857
 20
2353.055590947082
 30
0.0
 10
4644.64325410131
 20
2353.055500189175
 30
0.0
 10
4644.643254951946
 20
2353.055317874188
 30
0.0
 10
4644.643262238748
 20
2353.055042675165
 30
0.0
 10
4644.643274225746
 20
2353.054764967356
 30
0.0
 10
4644.643291586804
 20
2353.054484789542
 30
0.0
 10
4644.643314458067
 20
2353.05420226666
 30
0.0
 10
4644.643343124504
 20
2353.053917512437
 30
0.0
 10
4644.643377832618
 20
2353.053630656325
 30
0.0
 10
4644.643418841058
 20
2353.053341836584
 30
0.0
 10
4644.64346640632
 20
2353.053051202609
 30
0.0
 10
4644.643520786162
 20
2353.052758914711
 30
0.0
 10
4644.643582238129
 20
2353.052465144592
 30
0.0
 10
4644.643651019383
 20
2353.052170075621
 30
0.0
 10
4644.643727386157
 20
2353.051873903146
 30
0.0
 10
4644.643811593264
 20
2353.051576834775
 30
0.0
 10
4644.643903893561
 20
2353.051279090695
 30
0.0
 10
4644.644004537397
 20
2353.05098090377
 30
0.0
 10
4644.644113772022
 20
2353.050682520402
 30
0.0
 10
4644.644231841021
 20
2353.050384198376
 30
0.0
 10
4644.644358983463
 20
2353.050086216185
 30
0.0
 10
4644.644613021106
 20
2353.049532571322
 30
0.0
 10
4644.64505808701
 20
2353.048705161425
 30
0.0
 10
4644.645795210744
 20
2353.047620106937
 30
0.0
 10
4644.646756429099
 20
2353.046505709253
 30
0.0
 10
4644.647766673021
 20
2353.045597513279
 30
0.0
 10
4644.648682153483
 20
2353.044929698559
 30
0.0
 10
4644.649346740187
 20
2353.044508640239
 30
0.0
 10
4644.649858417398
 20
2353.044219712913
 30
0.0
 10
4644.650588143873
 20
2353.043840435978
 30
0.0
 10
4644.651534606199
 20
2353.043423637699
 30
0.0
 10
4644.652621248413
 20
2353.043057850374
 30
0.0
 10
4644.653455204543
 20
2353.042828805404
 30
0.0
 10
4644.654107723897
 20
2353.042676954178
 30
0.0
 10
4644.654749106952
 20
2353.04255262543
 30
0.0
 10
4644.65537739462
 20
2353.042453645692
 30
0.0
 10
4644.655990897804
 20
2353.042377802759
 30
0.0
 10
4644.656588134995
 20
2353.042322764107
 30
0.0
 10
4644.657167842436
 20
2353.042286664168
 30
0.0
 10
4644.657728919345
 20
2353.042266054484
 30
0.0
 10
4644.658096990808
 20
2353.042264106805
 30
0.0
 10
4644.658277389184
 20
2353.042263152213
 30
0.0
  0
SPLINE
  5
1428
330
1F
100
AcDbEntity
  8
SANINDUSA
100
AcDbSpline
210
0.0
220
0.0
230
1.0
 70
     8
 71
     3
 72
    51
 73
    47
 74
     0
 42
0.0000000001
 43
0.0000000001
 40
0.0
 40
0.0
 40
0.0
 40
0.0
 40
0.0149755087363648
 40
0.0300053832991756
 40
0.0450904488492539
 40
0.0602315221693449
 40
0.0754294115839839
 40
0.0906849168823642
 40
0.1059988292441371
 40
0.1213719311683187
 40
0.1368049964051152
 40
0.1522987898908987
 40
0.1678540676860992
 40
0.1834715769163315
 40
0.1991520557165973
 40
0.2148962331785644
 40
0.2307048293011835
 40
0.2465785549443675
 40
0.2625181117860846
 40
0.2785241922826086
 40
0.2945974796322929
 40
0.3107386477425909
 40
0.3269483612006308
 40
0.3432272752472989
 40
0.3595760357548202
 40
0.3759952792080062
 40
0.3924856326891785
 40
0.4090477138669014
 40
0.4256821309883678
 40
0.4423894828757997
 40
0.459170358926767
 40
0.476025339118403
 40
0.4929549940158413
 40
0.551223424394874
 40
0.6124650973867852
 40
0.6766945723591026
 40
0.7439237763091649
 40
0.7656436858183367
 40
0.7890471048694176
 40
0.8141340618899754
 40
0.8409044809790264
 40
0.8693581958929422
 40
0.8994949597519646
 40
0.9313144519540104
 40
0.9648162832953444
 40
1.0
 40
1.0
 40
1.0
 40
1.0
 10
4644.658247023766
 20
2353.233250111541
 30
0.0
 10
4644.658126877717
 20
2353.233249243349
 30
0.0
 10
4644.657886149452
 20
2353.233247503813
 30
0.0
 10
4644.657524625378
 20
2353.233233371028
 30
0.0
 10
4644.65716223599
 20
2353.23321070552
 30
0.0
 10
4644.656799199402
 20
2353.233178598731
 30
0.0
 10
4644.656435737942
 20
2353.233137200299
 30
0.0
 10
4644.65607207803
 20
2353.233086381359
 30
0.0
 10
4644.655708450065
 20
2353.233026094919
 30
0.0
 10
4644.655345088312
 20
2353.232956278972
 30
0.0
 10
4644.654982230777
 20
2353.232876882827
 30
0.0
 10
4644.654620119079
 20
2353.232787860219
 30
0.0
 10
4644.654258998313
 20
2353.232689171388
 30
0.0
 10
4644.653899116902
 20
2353.232580782719
 30
0.0
 10
4644.653540726458
 20
2353.232462667055
 30
0.0
 10
4644.653184081608
 20
2353.232334803811
 30
0.0
 10
4644.652829439846
 20
2353.232197179151
 30
0.0
 10
4644.65247706135
 20
2353.232049786127
 30
0.0
 10
4644.652127208806
 20
2353.231892624844
 30
0.0
 10
4644.65178014723
 20
2353.231725702599
 30
0.0
 10
4644.651436143766
 20
2353.23154903403
 30
0.0
 10
4644.651095467492
 20
2353.231362641253
 30
0.0
 10
4644.650758389214
 20
2353.231166553998
 30
0.0
 10
4644.650425181248
 20
2353.230960809741
 30
0.0
 10
4644.65009611721
 20
2353.230745453831
 30
0.0
 10
4644.64977147178
 20
2353.230520539606
 30
0.0
 10
4644.649451520481
 20
2353.230286128523
 30
0.0
 10
4644.649136539394
 20
2353.230042290216
 30
0.0
 10
4644.648826805095
 20
2353.229789102791
 30
0.0
 10
4644.648522593715
 20
2353.229526652202
 30
0.0
 10
4644.648224183253
 20
2353.229255035062
 30
0.0
 10
4644.647931843667
 20
2353.22897434849
 30
0.0
 10
4644.647413538103
 20
2353.228449429384
 30
0.0
 10
4644.646691712295
 20
2353.227626267514
 30
0.0
 10
4644.645826863732
 20
2353.226432753891
 30
0.0
 10
4644.645044501831
 20
2353.225099730215
 30
0.0
 10
4644.644531310288
 20
2353.22398311966
 30
0.0
 10
4644.644211212809
 20
2353.223142450976
 30
0.0
 10
4644.644029079471
 20
2353.222610625464
 30
0.0
 10
4644.643854639023
 20
2353.22203387106
 30
0.0
 10
4644.643692390699
 20
2353.22141168005
 30
0.0
 10
4644.643547256997
 20
2353.220743840457
 30
0.0
 10
4644.643424222911
 20
2353.220030471789
 30
0.0
 10
4644.643329709361
 20
2353.219272100856
 30
0.0
 10
4644.643265926567
 20
2353.21846972032
 30
0.0
 10
4644.643257826873
 20
2353.217919961526
 30
0.0
 10
4644.643253677857
 20
2353.217638351227
 30
0.0
  0
SPLINE
  5
1429
330
1F
100
AcDbEntity
  8
SANINDUSA
100
AcDbSpline
210
0.0
220
0.0
230
1.0
 70
    24
 71
     3
 72
     8
 73
     4
 74
     0
 42
0.0000000001
 43
0.0000000001
 40
0.0
 40
0.0
 40
0.0
 40
0.0
 40
1.0
 40
1.0
 40
1.0
 40
1.0
 10
4644.643253677857
 20
2353.217638351227
 30
0.0
 10
4644.643253677857
 20
2353.164991160635
 30
0.0
 10
4644.643253677857
 20
2353.112343970044
 30
0.0
 10
4644.643253677857
 20
2353.059696779452
 30
0.0
  0
LINE
  5
142A
330
1F
100
AcDbEntity
  8
SANINDUSA
100
AcDbLine
 10
4644.54844573265
 20
2353.259117883125
 30
0.0
 11
4644.93804809576
 21
2353.259117883125
 31
0.0
  0
SPLINE
  5
142D
330
1F
100
AcDbEntity
  8
SANINDUSA
100
AcDbSpline
210
0.0
220
0.0
230
1.0
 70
     8
 71
     3
 72
    29
 73
    25
 74
     0
 42
0.0000000001
 43
0.0000000001
 40
0.0
 40
0.0
 40
0.0
 40
0.0
 40
0.1249999999999973
 40
0.1249999999999973
 40
0.1874999999999977
 40
0.1874999999999977
 40
0.2499999999999982
 40
0.2499999999999982
 40
0.3749999999999963
 40
0.3749999999999963
 40
0.4374999999999966
 40
0.4374999999999966
 40
0.4999999999999969
 40
0.5624999999999973
 40
0.5624999999999973
 40
0.6249999999999975
 40
0.6249999999999975
 40
0.7499999999999984
 40
0.7499999999999984
 40
0.8124999999999987
 40
0.8124999999999987
 40
0.8749999999999991
 40
0.8749999999999991
 40
1.0
 40
1.0
 40
1.0
 40
1.0
 10
4644.900626230624
 20
2353.206822134973
 30
0.0
 10
4644.901608718964
 20
2353.206815091104
 30
0.0
 10
4644.902575470679
 20
2353.206713206509
 30
0.0
 10
4644.904002798202
 20
2353.206422968256
 30
0.0
 10
4644.904474746612
 20
2353.206303155024
 30
0.0
 10
4644.905410791134
 20
2353.206016204446
 30
0.0
 10
4644.905873069194
 20
2353.205849346042
 30
0.0
 10
4644.907220082004
 20
2353.205288127853
 30
0.0
 10
4644.908074339816
 20
2353.204831091444
 30
0.0
 10
4644.909289676666
 20
2353.204020409871
 30
0.0
 10
4644.909684683109
 20
2353.203728089967
 30
0.0
 10
4644.910436657275
 20
2353.203112767651
 30
0.0
 10
4644.911154534298
 20
2353.202464476912
 30
0.0
 10
4644.911805421292
 20
2353.201751421395
 30
0.0
 10
4644.912422462382
 20
2353.201005648502
 30
0.0
 10
4644.912715400675
 20
2353.200614259256
 30
0.0
 10
4644.913528619366
 20
2353.199409050011
 30
0.0
 10
4644.913985701713
 20
2353.198564214479
 30
0.0
 10
4644.914546497359
 20
2353.197236290737
 30
0.0
 10
4644.914712663093
 20
2353.196782873568
 30
0.0
 10
4644.915000993085
 20
2353.195857489659
 30
0.0
 10
4644.915121440999
 20
2353.195391239109
 30
0.0
 10
4644.915413686179
 20
2353.193982125659
 30
0.0
 10
4644.915517027171
 20
2353.193028997559
 30
0.0
 10
4644.915526443326
 20
2353.192061797164
 30
0.0
  0
SPLINE
  5
142E
330
1F
100
AcDbEntity
  8
SANINDUSA
100
AcDbSpline
210
0.0
220
0.0
230
1.0
 70
     8
 71
     3
 72
    30
 73
    26
 74
     0
 42
0.0000000001
 43
0.0000000001
 40
0.0
 40
0.0
 40
0.0
 40
0.0
 40
0.1249999999999975
 40
0.1249999999999975
 40
0.187499999999997
 40
0.187499999999997
 40
0.2499999999999973
 40
0.2499999999999973
 40
0.3749999999999972
 40
0.3749999999999972
 40
0.4374999999999968
 40
0.4374999999999968
 40
0.4999999999999964
 40
0.4999999999999964
 40
0.6249999999999957
 40
0.6249999999999957
 40
0.6874999999999963
 40
0.6874999999999963
 40
0.7499999999999968
 40
0.7499999999999968
 40
0.8749999999999991
 40
0.8749999999999991
 40
0.9374999999999996
 40
0.9374999999999996
 40
1.0
 40
1.0
 40
1.0
 40
1.0
 10
4644.645967190197
 20
2353.192062919525
 30
0.0
 10
4644.645976616802
 20
2353.193031242236
 30
0.0
 10
4644.646080148771
 20
2353.193982801243
 30
0.0
 10
4644.646370730024
 20
2353.195386023362
 30
0.0
 10
4644.646490300803
 20
2353.195849715522
 30
0.0
 10
4644.646775819893
 20
2353.196768828171
 30
0.0
 10
4644.646942954426
 20
2353.197226791977
 30
0.0
 10
4644.647506291739
 20
2353.198562885198
 30
0.0
 10
4644.647963297749
 20
2353.199406132439
 30
0.0
 10
4644.648768261393
 20
2353.200601337488
 30
0.0
 10
4644.649056630132
 20
2353.200988047492
 30
0.0
 10
4644.649674728664
 20
2353.201737341032
 30
0.0
 10
4644.650004901202
 20
2353.202099867246
 30
0.0
 10
4644.651035019434
 20
2353.203125863062
 30
0.0
 10
4644.651781166467
 20
2353.203737367186
 30
0.0
 10
4644.652989137108
 20
2353.204546292672
 30
0.0
 10
4644.653407464534
 20
2353.204798171501
 30
0.0
 10
4644.654271890781
 20
2353.205262311159
 30
0.0
 10
4644.654712195939
 20
2353.205471559426
 30
0.0
 10
4644.656056630252
 20
2353.206032973035
 30
0.0
 10
4644.656984059053
 20
2353.206319425124
 30
0.0
 10
4644.658422971343
 20
2353.206614374218
 30
0.0
 10
4644.658910518969
 20
2353.206689790783
 30
0.0
 10
4644.659885827759
 20
2353.206792219603
 30
0.0
 10
4644.660375568457
 20
2353.206819698386
 30
0.0
 10
4644.660867414635
 20
2353.206823222937
 30
0.0
  0
SPLINE
  5
1431
330
1F
100
AcDbEntity
  8
SANINDUSA
100
AcDbSpline
210
0.0
220
0.0
230
1.0
 70
     8
 71
     3
 72
    12
 73
     8
 74
     0
 42
0.0000000001
 43
0.0000000001
 40
0.0
 40
0.0
 40
0.0
 40
0.0
 40
0.5
 40
0.5
 40
0.75
 40
0.75
 40
1.0
 40
1.0
 40
1.0
 40
1.0
 10
4644.660867414635
 20
2353.206823222937
 30
0.0
 10
4644.700818733612
 20
2353.206461382464
 30
0.0
 10
4644.740776783314
 20
2353.206278997965
 30
0.0
 10
4644.800723961446
 20
2353.20627870077
 30
0.0
 10
4644.820709249805
 20
2353.206324079135
 30
0.0
 10
4644.860672020083
 20
2353.206505428609
 30
0.0
 10
4644.880650551352
 20
2353.206641394146
 30
0.0
 10
4644.900626230624
 20
2353.206822134973
 30
0.0
  0
SPLINE
  5
1432
330
1F
100
AcDbEntity
  8
SANINDUSA
100
AcDbSpline
210
0.0
220
0.0
230
1.0
 70
     8
 71
     3
 72
    29
 73
    25
 74
     0
 42
0.0000000001
 43
0.0000000001
 40
0.0
 40
0.0
 40
0.0
 40
0.0
 40
0.1250000000000065
 40
0.1250000000000065
 40
0.1875000000000089
 40
0.1875000000000089
 40
0.2500000000000113
 40
0.2500000000000113
 40
0.3750000000000146
 40
0.3750000000000146
 40
0.4375000000000144
 40
0.4375000000000144
 40
0.5000000000000142
 40
0.5625000000000141
 40
0.5625000000000141
 40
0.6250000000000139
 40
0.6250000000000139
 40
0.7500000000000107
 40
0.7500000000000107
 40
0.8125000000000087
 40
0.8125000000000087
 40
0.8750000000000069
 40
0.8750000000000069
 40
1.0
 40
1.0
 40
1.0
 40
1.0
 10
4644.660826111404
 20
2353.066081255781
 30
0.0
 10
4644.65984324545
 20
2353.066088177618
 30
0.0
 10
4644.658876091378
 20
2353.066190164661
 30
0.0
 10
4644.657448132032
 20
2353.066480927472
 30
0.0
 10
4644.656975968269
 20
2353.066600977838
 30
0.0
 10
4644.656039484924
 20
2353.066888540263
 30
0.0
 10
4644.655577248547
 20
2353.067055678913
 30
0.0
 10
4644.654230062015
 20
2353.067617967518
 30
0.0
 10
4644.65337559019
 20
2353.068075953376
 30
0.0
 10
4644.652159851816
 20
2353.068888544367
 30
0.0
 10
4644.651764963597
 20
2353.069181398437
 30
0.0
 10
4644.6510133056
 20
2353.069797752231
 30
0.0
 10
4644.650295642656
 20
2353.070447211051
 30
0.0
 10
4644.649644828112
 20
2353.071161760517
 30
0.0
 10
4644.649027818337
 20
2353.071909221674
 30
0.0
 10
4644.648734949632
 20
2353.072301491113
 30
0.0
 10
4644.647922750663
 20
2353.073508149686
 30
0.0
 10
4644.647466060249
 20
2353.074354292681
 30
0.0
 10
4644.646905736409
 20
2353.075684829379
 30
0.0
 10
4644.646739531685
 20
2353.076139814513
 30
0.0
 10
4644.646451941961
 20
2353.077065911433
 30
0.0
 10
4644.646331808133
 20
2353.077532567073
 30
0.0
 10
4644.646040390528
 20
2353.078943044826
 30
0.0
 10
4644.645937448379
 20
2353.079897279631
 30
0.0
 10
4644.645928396161
 20
2353.080865807867
 30
0.0
  0
SPLINE
  5
1435
330
1F
100
AcDbEntity
  8
SANINDUSA
100
AcDbSpline
210
0.0
220
0.0
230
1.0
 70
     8
 71
     3
 72
    30
 73
    26
 74
     0
 42
0.0000000001
 43
0.0000000001
 40
0.0
 40
0.0
 40
0.0
 40
0.0
 40
0.1250000000000099
 40
0.1250000000000099
 40
0.187500000000013
 40
0.187500000000013
 40
0.250000000000016
 40
0.250000000000016
 40
0.37500000000002
 40
0.37500000000002
 40
0.437500000000021
 40
0.437500000000021
 40
0.5000000000000219
 40
0.5000000000000219
 40
0.6250000000000188
 40
0.6250000000000188
 40
0.6875000000000174
 40
0.6875000000000174
 40
0.7500000000000158
 40
0.7500000000000158
 40
0.8750000000000095
 40
0.8750000000000095
 40
0.9375000000000047
 40
0.9375000000000047
 40
1.0
 40
1.0
 40
1.0
 40
1.0
 10
4644.915565237751
 20
2353.0808669306
 30
0.0
 10
4644.915556173951
 20
2353.079897213401
 30
0.0
 10
4644.915453024184
 20
2353.078944307952
 30
0.0
 10
4644.915163071247
 20
2353.077539130216
 30
0.0
 10
4644.915043719116
 20
2353.07707479694
 30
0.0
 10
4644.914758661473
 20
2353.076154423025
 30
0.0
 10
4644.914591766997
 20
2353.075695805335
 30
0.0
 10
4644.914028928026
 20
2353.074357330251
 30
0.0
 10
4644.913572271684
 20
2353.073512721675
 30
0.0
 10
4644.912767975623
 20
2353.072315737758
 30
0.0
 10
4644.912479853184
 20
2353.071928479098
 30
0.0
 10
4644.911862317322
 20
2353.071178167265
 30
0.0
 10
4644.911532121338
 20
2353.070814784722
 30
0.0
 10
4644.910501905605
 20
2353.069786489175
 30
0.0
 10
4644.909755814758
 20
2353.069173850508
 30
0.0
 10
4644.908548274544
 20
2353.068363615458
 30
0.0
 10
4644.908130724383
 20
2353.06811167242
 30
0.0
 10
4644.907265560951
 20
2353.067646206898
 30
0.0
 10
4644.906824946576
 20
2353.067436426071
 30
0.0
 10
4644.90547978495
 20
2353.066873714257
 30
0.0
 10
4644.904552135828
 20
2353.066586795218
 30
0.0
 10
4644.903113405264
 20
2353.06629145298
 30
0.0
 10
4644.902625534743
 20
2353.066215874567
 30
0.0
 10
4644.901649613174
 20
2353.066113292795
 30
0.0
 10
4644.901159605836
 20
2353.066085811118
 30
0.0
 10
4644.900667534336
 20
2353.066082344001
 30
0.0
  0
SPLINE
  5
1438
330
1F
100
AcDbEntity
  8
SANINDUSA
100
AcDbSpline
210
0.0
220
0.0
230
1.0
 70
     8
 71
     3
 72
     9
 73
     5
 74
     0
 42
0.0000000001
 43
0.0000000001
 40
0.0
 40
0.0
 40
0.0
 40
0.0
 40
0.5000000000000002
 40
1.0
 40
1.0
 40
1.0
 40
1.0
 10
4644.645928396161
 20
2353.080865807867
 30
0.0
 10
4644.646004693266
 20
2353.099390330913
 30
0.0
 10
4644.646089760612
 20
2353.136447734402
 30
0.0
 10
4644.6460310622
 20
2353.173521738316
 30
0.0
 10
4644.645967190197
 20
2353.192062919525
 30
0.0
  0
SPLINE
  5
143A
330
1F
100
AcDbEntity
  8
SANINDUSA
100
AcDbSpline
210
0.0
220
0.0
230
1.0
 70
     8
 71
     3
 72
     9
 73
     5
 74
     0
 42
0.0000000001
 43
0.0000000001
 40
0.0
 40
0.0
 40
0.0
 40
0.0
 40
0.5
 40
1.0
 40
1.0
 40
1.0
 40
1.0
 10
4644.915526443326
 20
2353.192061797164
 30
0.0
 10
4644.915462572118
 20
2353.173520990569
 30
0.0
 10
4644.915403874704
 20
2353.136447735451
 30
0.0
 10
4644.915488941274
 20
2353.099391079897
 30
0.0
 10
4644.915565237751
 20
2353.0808669306
 30
0.0
  0
SPLINE
  5
143B
330
1F
100
AcDbEntity
  8
SANINDUSA
100
AcDbSpline
210
0.0
220
0.0
230
1.0
 70
     8
 71
     3
 72
    12
 73
     8
 74
     0
 42
0.0000000001
 43
0.0000000001
 40
0.0
 40
0.0
 40
0.0
 40
0.0
 40
0.5
 40
0.5
 40
0.75
 40
0.75
 40
1.0
 40
1.0
 40
1.0
 40
1.0
 10
4644.900667534336
 20
2353.066082344001
 30
0.0
 10
4644.860702495605
 20
2353.066444036654
 30
0.0
 10
4644.820730678641
 20
2353.066626177523
 30
0.0
 10
4644.760762778206
 20
2353.066625928053
 30
0.0
 10
4644.74077055613
 20
2353.066580338043
 30
0.0
 10
4644.700794002745
 20
2353.066398511984
 30
0.0
 10
4644.680808614043
 20
2353.066262281568
 30
0.0
 10
4644.660826111404
 20
2353.066081255781
 30
0.0
  0
SPLINE
  5
144C
330
1F
100
AcDbEntity
  8
SANINDUSA
100
AcDbSpline
210
0.0
220
0.0
230
1.0
 70
    11
 71
     3
 72
   132
 73
   128
 74
     0
 42
0.0000000001
 43
0.0000000001
 40
0.0
 40
0.0
 40
0.0
 40
0.0
 40
0.0312499999999985
 40
0.0312499999999985
 40
0.0468749999999977
 40
0.0468749999999977
 40
0.062499999999997
 40
0.062499999999997
 40
0.0937499999999955
 40
0.0937499999999955
 40
0.1015624999999952
 40
0.1015624999999952
 40
0.1093749999999948
 40
0.1093749999999948
 40
0.1249999999999942
 40
0.1249999999999942
 40
0.1406249999999934
 40
0.1406249999999934
 40
0.1484374999999932
 40
0.1484374999999932
 40
0.156249999999993
 40
0.156249999999993
 40
0.1874999999999931
 40
0.1874999999999931
 40
0.2031249999999931
 40
0.2031249999999931
 40
0.2109374999999931
 40
0.2109374999999931
 40
0.2187499999999932
 40
0.2187499999999932
 40
0.2499999999999929
 40
0.2499999999999929
 40
0.2578124999999929
 40
0.2578124999999929
 40
0.2656249999999929
 40
0.2656249999999929
 40
0.2812499999999928
 40
0.2812499999999928
 40
0.3124999999999927
 40
0.3124999999999927
 40
0.3203124999999926
 40
0.3203124999999926
 40
0.3281249999999925
 40
0.3281249999999925
 40
0.3437499999999922
 40
0.3437499999999922
 40
0.359374999999992
 40
0.359374999999992
 40
0.3671874999999919
 40
0.3671874999999919
 40
0.3749999999999918
 40
0.3749999999999918
 40
0.4062499999999918
 40
0.4062499999999918
 40
0.4218749999999917
 40
0.4218749999999917
 40
0.4296874999999916
 40
0.4296874999999916
 40
0.4374999999999915
 40
0.4374999999999915
 40
0.4687499999999915
 40
0.4687499999999915
 40
0.4765624999999914
 40
0.4765624999999914
 40
0.4843749999999913
 40
0.4843749999999913
 40
0.4999999999999912
 40
0.4999999999999912
 40
0.5156249999999912
 40
0.5156249999999912
 40
0.5312499999999911
 40
0.5312499999999911
 40
0.562499999999991
 40
0.562499999999991
 40
0.5781249999999908
 40
0.5781249999999908
 40
0.5859374999999907
 40
0.5859374999999907
 40
0.5937499999999907
 40
0.5937499999999907
 40
0.6249999999999904
 40
0.6249999999999904
 40
0.6328124999999904
 40
0.6328124999999904
 40
0.6406249999999904
 40
0.6406249999999904
 40
0.6562499999999904
 40
0.6562499999999904
 40
0.6874999999999904
 40
0.6874999999999904
 40
0.7031249999999904
 40
0.7031249999999904
 40
0.7187499999999904
 40
0.7187499999999904
 40
0.7343749999999904
 40
0.7343749999999904
 40
0.7499999999999904
 40
0.7499999999999904
 40
0.7812499999999903
 40
0.7812499999999903
 40
0.7968749999999902
 40
0.7968749999999902
 40
0.80468749999999
 40
0.80468749999999
 40
0.81249999999999
 40
0.81249999999999
 40
0.8437499999999905
 40
0.8437499999999905
 40
0.8515624999999907
 40
0.8515624999999907
 40
0.8593749999999909
 40
0.8593749999999909
 40
0.8749999999999914
 40
0.8749999999999914
 40
0.906249999999993
 40
0.906249999999993
 40
0.9140624999999934
 40
0.9140624999999934
 40
0.9218749999999939
 40
0.9218749999999939
 40
0.9374999999999952
 40
0.9374999999999952
 40
0.9531249999999964
 40
0.9531249999999964
 40
0.9687499999999976
 40
0.9687499999999976
 40
1.0
 40
1.0
 40
1.0
 40
1.0
 10
4644.78074682287
 20
2353.10018029934
 30
0.0
 10
4644.783082583573
 20
2353.100180339081
 30
0.0
 10
4644.785382004501
 20
2353.100417097606
 30
0.0
 10
4644.7887784419
 20
2353.101115517028
 30
0.0
 10
4644.789901859735
 20
2353.101406002099
 30
0.0
 10
4644.792130024812
 20
2353.10210533561
 30
0.0
 10
4644.793216826337
 20
2353.102508531693
 30
0.0
 10
4644.796398592428
 20
2353.103872442915
 30
0.0
 10
4644.798415655215
 20
2353.10498603361
 30
0.0
 10
4644.800805685641
 20
2353.106635783269
 30
0.0
 10
4644.801278339023
 20
2353.106979750998
 30
0.0
 10
4644.802202224119
 20
2353.107688044918
 30
0.0
 10
4644.802653631449
 20
2353.108052366585
 30
0.0
 10
4644.803976925953
 20
2353.109175204272
 30
0.0
 10
4644.804817959488
 20
2353.109963521655
 30
0.0
 10
4644.806419417872
 20
2353.111618034755
 30
0.0
 10
4644.807179840177
 20
2353.1124842329
 30
0.0
 10
4644.808259538198
 20
2353.113842415727
 30
0.0
 10
4644.808609263625
 20
2353.114304975003
 30
0.0
 10
4644.809288062602
 20
2353.115250053048
 30
0.0
 10
4644.809617350094
 20
2353.115733059286
 30
0.0
 10
4644.811194592317
 20
2353.118172177342
 30
0.0
 10
4644.812251640035
 20
2353.120219349964
 30
0.0
 10
4644.813539969393
 20
2353.123429364722
 30
0.0
 10
4644.813919514887
 20
2353.124522746046
 30
0.0
 10
4644.814411968382
 20
2353.126198834446
 30
0.0
 10
4644.814563026212
 20
2353.126762982162
 30
0.0
 10
4644.814836360774
 20
2353.127891324749
 30
0.0
 10
4644.814959082908
 20
2353.128456977395
 30
0.0
 10
4644.815504121911
 20
2353.131292525616
 30
0.0
 10
4644.815722637377
 20
2353.133584073582
 30
0.0
 10
4644.815722723484
 20
2353.136477524856
 30
0.0
 10
4644.815708967883
 20
2353.137057678623
 30
0.0
 10
4644.815653385743
 20
2353.138220968955
 30
0.0
 10
4644.815611490418
 20
2353.138803603665
 30
0.0
 10
4644.815445089855
 20
2353.140537269911
 30
0.0
 10
4644.815279743546
 20
2353.141680291971
 30
0.0
 10
4644.814624211763
 20
2353.145071970037
 30
0.0
 10
4644.813976063157
 20
2353.147283596458
 30
0.0
 10
4644.812891556734
 20
2353.149983825525
 30
0.0
 10
4644.812660606124
 20
2353.150520856425
 30
0.0
 10
4644.812175998581
 20
2353.151576614531
 30
0.0
 10
4644.811921771398
 20
2353.15209684403
 30
0.0
 10
4644.811123834989
 20
2353.153634915595
 30
0.0
 10
4644.810544953126
 20
2353.15463019346
 30
0.0
 10
4644.809294038961
 20
2353.156560997008
 30
0.0
 10
4644.808622009739
 20
2353.157496524656
 30
0.0
 10
4644.807542617577
 20
2353.158854054372
 30
0.0
 10
4644.807170907696
 20
2353.159298923785
 30
0.0
 10
4644.806403142985
 20
2353.160173049066
 30
0.0
 10
4644.806006459083
 20
2353.16060283849
 30
0.0
 10
4644.80398375595
 20
2353.16268864557
 30
0.0
 10
4644.80222552083
 20
2353.164175781472
 30
0.0
 10
4644.799381098001
 20
2353.16613823312
 30
0.0
 10
4644.798398200981
 20
2353.166747358237
 30
0.0
 10
4644.796869776671
 20
2353.167590997321
 30
0.0
 10
4644.796350706148
 20
2353.167860684287
 30
0.0
 10
4644.795306325513
 20
2353.168370341668
 30
0.0
 10
4644.79477959196
 20
2353.168611143107
 30
0.0
 10
4644.792123547875
 20
2353.169746067242
 30
0.0
 10
4644.789927758981
 20
2353.17043495074
 30
0.0
 10
4644.787093149886
 20
2353.171018635741
 30
0.0
 10
4644.786521693416
 20
2353.171121375104
 30
0.0
 10
4644.78536951021
 20
2353.171298238924
 30
0.0
 10
4644.784790092931
 20
2353.171372070719
 30
0.0
 10
4644.783057639606
 20
2353.171548267143
 30
0.0
 10
4644.781904376477
 20
2353.171606418438
 30
0.0
 10
4644.779601182341
 20
2353.171606857483
 30
0.0
 10
4644.778451251477
 20
2353.171549140186
 30
0.0
 10
4644.77615474174
 20
2353.171317149315
 30
0.0
 10
4644.775006773604
 20
2353.171142600297
 30
0.0
 10
4644.77157665675
 20
2353.170439583574
 30
0.0
 10
4644.76937544685
 20
2353.169747907163
 30
0.0
 10
4644.766196191727
 20
2353.168390812426
 30
0.0
 10
4644.765157022272
 20
2353.167884778117
 30
0.0
 10
4644.76362980542
 20
2353.167043481807
 30
0.0
 10
4644.763124705387
 20
2353.166748467202
 30
0.0
 10
4644.76213478654
 20
2353.166136446329
 30
0.0
 10
4644.761649301101
 20
2353.165819169159
 30
0.0
 10
4644.759268259446
 20
2353.164177616784
 30
0.0
 10
4644.757510530571
 20
2353.162689423286
 30
0.0
 10
4644.755495351884
 20
2353.160612689674
 30
0.0
 10
4644.755101497802
 20
2353.160186420179
 30
0.0
 10
4644.754332442179
 20
2353.159311690003
 30
0.0
 10
4644.75395757311
 20
2353.158863459371
 30
0.0
 10
4644.752872993143
 20
2353.157500155884
 30
0.0
 10
4644.752198979114
 20
2353.156561825777
 30
0.0
 10
4644.750319735812
 20
2353.153661037206
 30
0.0
 10
4644.749255955952
 20
2353.151613591057
 30
0.0
 10
4644.747951532743
 20
2353.148367396826
 30
0.0
 10
4644.747571163258
 20
2353.147269202802
 30
0.0
 10
4644.746919937337
 20
2353.145053864446
 30
0.0
 10
4644.746648285314
 20
2353.143934723618
 30
0.0
 10
4644.746211726476
 20
2353.141673748675
 30
0.0
 10
4644.74604681811
 20
2353.14053191489
 30
0.0
 10
4644.745825600814
 20
2353.138225159752
 30
0.0
 10
4644.745769653059
 20
2353.137054729013
 30
0.0
 10
4644.745770123545
 20
2353.133575483729
 30
0.0
 10
4644.745989767803
 20
2353.131283574741
 30
0.0
 10
4644.746643265277
 20
2353.127886461026
 30
0.0
 10
4644.746915475638
 20
2353.126760928139
 30
0.0
 10
4644.747408272549
 20
2353.125083250469
 30
0.0
 10
4644.747586081002
 20
2353.124527931333
 30
0.0
 10
4644.747966181856
 20
2353.123432024903
 30
0.0
 10
4644.748168789078
 20
2353.12289034863
 30
0.0
 10
4644.749243775875
 20
2353.120212932622
 30
0.0
 10
4644.750300248424
 20
2353.118169210901
 30
0.0
 10
4644.75187089043
 20
2353.115739489523
 30
0.0
 10
4644.75219763264
 20
2353.115259847309
 30
0.0
 10
4644.752876923205
 20
2353.114313454402
 30
0.0
 10
4644.75322888327
 20
2353.113847672371
 30
0.0
 10
4644.754311888007
 20
2353.112484952212
 30
0.0
 10
4644.755073446747
 20
2353.111617654602
 30
0.0
 10
4644.757474577288
 20
2353.109136976934
 30
0.0
 10
4644.759229432863
 20
2353.107643594148
 30
0.0
 10
4644.761625410336
 20
2353.105987449575
 30
0.0
 10
4644.762114052452
 20
2353.105667494836
 30
0.0
 10
4644.763100702474
 20
2353.105056087718
 30
0.0
 10
4644.763600002431
 20
2353.104763724202
 30
0.0
 10
4644.765115587913
 20
2353.103926115759
 30
0.0
 10
4644.766149516878
 20
2353.103420258719
 30
0.0
 10
4644.768264223073
 20
2353.102513111901
 30
0.0
 10
4644.769344998138
 20
2353.102111817314
 30
0.0
 10
4644.771554547037
 20
2353.101416347706
 30
0.0
 10
4644.772688692258
 20
2353.101121401325
 30
0.0
 10
4644.776104564463
 20
2353.100416986324
 30
0.0
 10
4644.778411062167
 20
2353.100180259598
 30
0.0
 10
4644.78074682287
 20
2353.10018029934
 30
0.0
  0
CIRCLE
  5
144D
330
1F
100
AcDbEntity
  8
SANINDUSA
100
AcDbCircle
 10
4644.78074682287
 20
2353.13618029985
 30
0.0
 40
0.0235
  0
ARC
  5
14EC
330
1F
100
AcDbEntity
  8
SANINDUSA
100
AcDbCircle
 10
4646.291577027793
 20
2353.265531632365
 30
0.0
 40
1.199999999999999
100
AcDbArc
 50
182.3581223916789
 51
189.1082476292431
  0
ARC
  5
14ED
330
1F
100
AcDbEntity
  8
SANINDUSA
100
AcDbCircle
 10
4644.293203302625
 20
2353.265531632365
 30
0.0
 40
1.199999999999999
100
AcDbArc
 50
350.891752370757
 51
357.6418776083211
  0
ARC
  5
1545
330
1F
100
AcDbEntity
  8
SANINDUSA
100
AcDbCircle
 10
4644.583588341411
 20
2353.04981807759
 30
0.0
 40
0.04
100
AcDbArc
 50
178.5369472614551
 51
269.4070532070473
  0
ARC
  5
1546
330
1F
100
AcDbEntity
  8
SANINDUSA
100
AcDbCircle
 10
4644.902907635835
 20
2353.04981807759
 30
0.0
 40
0.04
100
AcDbArc
 50
270.5929467929527
 51
1.463052738544875
  0
ARC
  5
1747
330
1F
100
AcDbEntity
  8
SANINDUSA
100
AcDbCircle
 10
4645.861929260719
 20
2353.216362890909
 30
0.0
 40
0.005
100
AcDbArc
 50
353.926917053693
 51
90.0
  0
ARC
  5
1748
330
1F
100
AcDbEntity
  8
SANINDUSA
100
AcDbCircle
 10
4645.838501452739
 20
2353.076362890909
 30
0.0
 40
0.005
100
AcDbArc
 50
270.0
 51
347.0748005894766
  0
SPLINE
  5
1749
330
1F
100
AcDbEntity
  8
SANINDUSA
100
AcDbSpline
210
0.0
220
0.0
230
1.0
 70
    24
 71
     1
 72
     4
 73
     2
 74
     0
 42
0.0000000001
 43
0.0000000001
 40
0.0
 40
0.0
 40
1.0
 40
1.0
 10
4645.776291080077
 20
2353.071362884949
 30
0.0
 10
4645.7754162031
 20
2353.061362894486
 30
0.0
  0
SPLINE
  5
174A
330
1F
100
AcDbEntity
  8
SANINDUSA
100
AcDbSpline
210
0.0
220
0.0
230
1.0
 70
    24
 71
     1
 72
     4
 73
     2
 74
     0
 42
0.0000000001
 43
0.0000000001
 40
0.0
 40
0.0
 40
1.0
 40
1.0
 10
4645.705416202803
 20
2353.061362894486
 30
0.0
 10
4645.704541310926
 20
2353.071362884949
 30
0.0
  0
SPLINE
  5
174C
330
1F
100
AcDbEntity
  8
SANINDUSA
100
AcDbSpline
210
0.0
220
0.0
230
1.0
 70
    24
 71
     3
 72
    17
 73
    13
 74
     0
 42
0.0000000001
 43
0.0000000001
 40
0.0
 40
0.0
 40
0.0
 40
0.0
 40
0.0078124999999998
 40
0.0078124999999998
 40
0.0156249999999995
 40
0.0312499999999994
 40
0.0624999999999993
 40
0.1249999999999993
 40
0.2499999999999995
 40
0.4999999999999999
 40
0.4999999999999999
 40
1.0
 40
1.0
 40
1.0
 40
1.0
 10
4645.827478543143
 20
2353.221362890909
 30
0.0
 10
4645.826936899019
 20
2353.221362890909
 30
0.0
 10
4645.826395226571
 20
2353.221362890909
 30
0.0
 10
4645.82531189386
 20
2353.221362890909
 30
0.0
 10
4645.823686894791
 20
2353.221362890909
 30
0.0
 10
4645.819895230283
 20
2353.221362890909
 30
0.0
 10
4645.812311901169
 20
2353.221362890909
 30
0.0
 10
4645.797145242698
 20
2353.221362890909
 30
0.0
 10
4645.766811924462
 20
2353.221362890909
 30
0.0
 10
4645.740811934476
 20
2353.221362890909
 30
0.0
 10
4645.688811947935
 20
2353.221362890909
 30
0.0
 10
4645.654145286058
 20
2353.221362890909
 30
0.0
 10
4645.619478616793
 20
2353.221362890909
 30
0.0
  0
SPLINE
  5
174F
330
1F
100
AcDbEntity
  8
SANINDUSA
100
AcDbSpline
210
0.0
220
0.0
230
1.0
 70
    24
 71
     3
 72
    20
 73
    16
 74
     0
 42
0.0000000001
 43
0.0000000001
 40
0.0
 40
0.0
 40
0.0
 40
0.0
 40
0.1250000000000029
 40
0.1250000000000029
 40
0.2500000000000059
 40
0.2500000000000059
 40
0.3750000000000088
 40
0.3750000000000088
 40
0.5000000000000118
 40
0.5000000000000118
 40
0.7500000000000058
 40
0.7500000000000058
 40
0.8750000000000028
 40
0.8750000000000028
 40
1.0
 40
1.0
 40
1.0
 40
1.0
 10
4645.617478616792
 20
2353.219362890909
 30
0.0
 10
4645.617478616792
 20
2353.219362890909
 30
0.0
 10
4645.617478616792
 20
2353.219342438348
 30
0.0
 10
4645.617478616792
 20
2353.219262283181
 30
0.0
 10
4645.617478616792
 20
2353.21920152802
 30
0.0
 10
4645.617478616792
 20
2353.219043474387
 30
0.0
 10
4645.617478616792
 20
2353.218946778296
 30
0.0
 10
4645.617478616792
 20
2353.218718103671
 30
0.0
 10
4645.617478616792
 20
2353.218585476976
 30
0.0
 10
4645.617478616792
 20
2353.21815149762
 30
0.0
 10
4645.617478616792
 20
2353.217802193492
 30
0.0
 10
4645.617478616792
 20
2353.217239851367
 30
0.0
 10
4645.617478616792
 20
2353.217042767514
 30
0.0
 10
4645.617478616792
 20
2353.216643864649
 30
0.0
 10
4645.617478616792
 20
2353.216442590954
 30
0.0
 10
4645.617478616792
 20
2353.216239461166
 30
0.0
  0
ARC
  5
1751
330
1F
100
AcDbEntity
  8
SANINDUSA
100
AcDbCircle
 10
4645.619478616793
 20
2353.219362890909
 30
0.0
 40
0.002
100
AcDbArc
 50
90.0
 51
180.0
  0
SPLINE
  5
1759
330
1F
100
AcDbEntity
  8
SANINDUSA
100
AcDbSpline
210
0.0
220
0.0
230
1.0
 70
    24
 71
     3
 72
    12
 73
     8
 74
     0
 42
0.0000000001
 43
0.0000000001
 40
0.0
 40
0.0
 40
0.0
 40
0.0
 40
0.5000000000000001
 40
0.5000000000000001
 40
0.75
 40
0.75
 40
1.0
 40
1.0
 40
1.0
 40
1.0
 10
4645.617478616792
 20
2353.216239461166
 30
0.0
 10
4645.617478616792
 20
2353.192808913923
 30
0.0
 10
4645.617478616792
 20
2353.169428032659
 30
0.0
 10
4645.617478616792
 20
2353.134431327592
 30
0.0
 10
4645.617478616792
 20
2353.122784020499
 30
0.0
 10
4645.617478616792
 20
2353.099539217749
 30
0.0
 10
4645.617478616792
 20
2353.087939645618
 30
0.0
 10
4645.617478616792
 20
2353.076362890909
 30
0.0
  0
SPLINE
  5
175A
330
1F
100
AcDbEntity
  8
SANINDUSA
100
AcDbSpline
210
0.0
220
0.0
230
1.0
 70
    24
 71
     3
 72
    30
 73
    26
 74
     0
 42
0.0000000001
 43
0.0000000001
 40
0.0
 40
0.0
 40
0.0
 40
0.0
 40
0.0625000000000006
 40
0.0625000000000006
 40
0.1250000000000012
 40
0.1250000000000012
 40
0.2500000000000006
 40
0.2500000000000006
 40
0.3125
 40
0.3125
 40
0.3749999999999995
 40
0.3749999999999995
 40
0.4999999999999992
 40
0.4999999999999992
 40
0.5625
 40
0.5625
 40
0.625000000000001
 40
0.625000000000001
 40
0.7500000000000007
 40
0.7500000000000007
 40
0.8125000000000007
 40
0.8125000000000007
 40
0.875000000000001
 40
0.875000000000001
 40
1.0
 40
1.0
 40
1.0
 40
1.0
 10
4645.861929260719
 20
2353.221362890909
 30
0.0
 10
4645.861751908276
 20
2353.221362890909
 30
0.0
 10
4645.861681172652
 20
2353.221362890909
 30
0.0
 10
4645.861432025852
 20
2353.221362890909
 30
0.0
 10
4645.861253160627
 20
2353.221362890909
 30
0.0
 10
4645.860555845183
 20
2353.221362890909
 30
0.0
 10
4645.859887093626
 20
2353.221362890909
 30
0.0
 10
4645.858588530777
 20
2353.221362890909
 30
0.0
 10
4645.858106035013
 20
2353.221362890909
 30
0.0
 10
4645.857039886614
 20
2353.221362890909
 30
0.0
 10
4645.856453885836
 20
2353.221362890909
 30
0.0
 10
4645.854579710525
 20
2353.221362890909
 30
0.0
 10
4645.853167256873
 20
2353.221362890909
 30
0.0
 10
4645.850805525911
 20
2353.221362890909
 30
0.0
 10
4645.849976570109
 20
2353.221362890909
 30
0.0
 10
4645.84823799947
 20
2353.221362890909
 30
0.0
 10
4645.847340865233
 20
2353.221362890909
 30
0.0
 10
4645.844568710267
 20
2353.221362890909
 30
0.0
 10
4645.842613696722
 20
2353.221362890909
 30
0.0
 10
4645.839517536053
 20
2353.221362890909
 30
0.0
 10
4645.838453695051
 20
2353.221362890909
 30
0.0
 10
4645.836314126341
 20
2353.221362890909
 30
0.0
 10
4645.835233971534
 20
2353.221362890909
 30
0.0
 10
4645.831962984852
 20
2353.221362890909
 30
0.0
 10
4645.829741895955
 20
2353.221362890909
 30
0.0
 10
4645.827478543143
 20
2353.221362890909
 30
0.0
  0
SPLINE
  5
175C
330
1F
100
AcDbEntity
  8
SANINDUSA
100
AcDbSpline
210
0.0
220
0.0
230
1.0
 70
    24
 71
     3
 72
    46
 73
    42
 74
     0
 42
0.0000000001
 43
0.0000000001
 40
0.0
 40
0.0
 40
0.0
 40
0.0
 40
0.500000000000001
 40
0.500000000000001
 40
0.7500000000000017
 40
0.7578125000000016
 40
0.7617187500000016
 40
0.7617187500000016
 40
0.7656250000000016
 40
0.7656250000000016
 40
0.781250000000001
 40
0.781250000000001
 40
0.8125000000000003
 40
0.8125000000000003
 40
0.8203125000000001
 40
0.8203125000000001
 40
0.8281249999999998
 40
0.8281249999999998
 40
0.8437499999999992
 40
0.8437499999999992
 40
0.8593749999999989
 40
0.8593749999999989
 40
0.8749999999999985
 40
0.8749999999999985
 40
0.906249999999998
 40
0.906249999999998
 40
0.914062499999998
 40
0.914062499999998
 40
0.921874999999998
 40
0.921874999999998
 40
0.9374999999999984
 40
0.9374999999999984
 40
0.9687499999999992
 40
0.9687499999999992
 40
0.9843749999999998
 40
0.9843749999999998
 40
0.9921874999999998
 40
0.9921874999999998
 40
0.99609375
 40
0.99609375
 40
1.0
 40
1.0
 40
1.0
 40
1.0
 10
4645.622478616792
 20
2353.07136289091
 30
0.0
 10
4645.661602190219
 20
2353.07136289091
 30
0.0
 10
4645.700725748041
 20
2353.07136289091
 30
0.0
 10
4645.759411075618
 20
2353.07136289091
 30
0.0
 10
4645.779584155421
 20
2353.07136289091
 30
0.0
 10
4645.800062887684
 20
2353.07136289091
 30
0.0
 10
4645.800979845847
 20
2353.07136289091
 30
0.0
 10
4645.801591151279
 20
2353.07136289091
 30
0.0
 10
4645.801896990897
 20
2353.07136289091
 30
0.0
 10
4645.803423817501
 20
2353.07136289091
 30
0.0
 10
4645.804635470933
 20
2353.07136289091
 30
0.0
 10
4645.808242042585
 20
2353.07136289091
 30
0.0
 10
4645.810608676208
 20
2353.07136289091
 30
0.0
 10
4645.8135182163
 20
2353.07136289091
 30
0.0
 10
4645.814095119802
 20
2353.07136289091
 30
0.0
 10
4645.815230914045
 20
2353.07136289091
 30
0.0
 10
4645.815791051433
 20
2353.07136289091
 30
0.0
 10
4645.817448726941
 20
2353.07136289091
 30
0.0
 10
4645.818523640027
 20
2353.07136289091
 30
0.0
 10
4645.820613645702
 20
2353.07136289091
 30
0.0
 10
4645.821628587113
 20
2353.07136289091
 30
0.0
 10
4645.82359705883
 20
2353.07136289091
 30
0.0
 10
4645.82455391057
 20
2353.07136289091
 30
0.0
 10
4645.827266087466
 20
2353.07136289091
 30
0.0
 10
4645.828885037309
 20
2353.07136289091
 30
0.0
 10
4645.83067546055
 20
2353.07136289091
 30
0.0
 10
4645.831021687582
 20
2353.07136289091
 30
0.0
 10
4645.831689934925
 20
2353.07136289091
 30
0.0
 10
4645.832012381827
 20
2353.07136289091
 30
0.0
 10
4645.832932485629
 20
2353.07136289091
 30
0.0
 10
4645.83348689631
 20
2353.07136289091
 30
0.0
 10
4645.834976933193
 20
2353.07136289091
 30
0.0
 10
4645.835741428569
 20
2353.07136289091
 30
0.0
 10
4645.836529205268
 20
2353.07136289091
 30
0.0
 10
4645.836727564293
 20
2353.07136289091
 30
0.0
 10
4645.836931018487
 20
2353.07136289091
 30
0.0
 10
4645.836983108321
 20
2353.07136289091
 30
0.0
 10
4645.837037484175
 20
2353.07136289091
 30
0.0
 10
4645.837051646423
 20
2353.07136289091
 30
0.0
 10
4645.837071976678
 20
2353.07136289091
 30
0.0
 10
4645.837077035126
 20
2353.07136289091
 30
0.0
 10
4645.838501452739
 20
2353.07136289091
 30
0.0
  0
SPLINE
  5
175D
330
1F
100
AcDbEntity
  8
SANINDUSA
100
AcDbSpline
210
0.0
220
0.0
230
1.0
 70
     8
 71
     3
 72
    22
 73
    18
 74
     0
 42
0.0000000001
 43
0.0000000001
 40
0.0
 40
0.0
 40
0.0
 40
0.0
 40
0.1249999999999991
 40
0.1249999999999991
 40
0.2499999999999982
 40
0.2499999999999982
 40
0.3749999999999972
 40
0.3749999999999972
 40
0.4999999999999964
 40
0.4999999999999964
 40
0.749999999999999
 40
0.749999999999999
 40
0.8750000000000014
 40
0.8750000000000014
 40
0.9375000000000007
 40
0.9375000000000007
 40
1.0
 40
1.0
 40
1.0
 40
1.0
 10
4645.617541661636
 20
2353.075571389942
 30
0.0
 10
4645.617592830064
 20
2353.075252228951
 30
0.0
 10
4645.617673427184
 20
2353.07494553106
 30
0.0
 10
4645.617888705024
 20
2353.074355039799
 30
0.0
 10
4645.618025025083
 20
2353.074069418045
 30
0.0
 10
4645.618339513024
 20
2353.073541133142
 30
0.0
 10
4645.618519038079
 20
2353.073294963294
 30
0.0
 10
4645.618915311071
 20
2353.072842479602
 30
0.0
 10
4645.619127948418
 20
2353.072640463783
 30
0.0
 10
4645.619804405658
 20
2353.072098812594
 30
0.0
 10
4645.620313229105
 20
2353.071821660206
 30
0.0
 10
4645.62110444718
 20
2353.071547335083
 30
0.0
 10
4645.621375335934
 20
2353.071478206557
 30
0.0
 10
4645.621786793153
 20
2353.071409031553
 30
0.0
 10
4645.621924645275
 20
2353.0713917354
 30
0.0
 10
4645.622201328303
 20
2353.07136865597
 30
0.0
 10
4645.622341264961
 20
2353.07136289091
 30
0.0
 10
4645.622478616792
 20
2353.07136289091
 30
0.0
  0
SPLINE
  5
175F
330
1F
100
AcDbEntity
  8
SANINDUSA
100
AcDbSpline
210
0.0
220
0.0
230
1.0
 70
     8
 71
     3
 72
     8
 73
     4
 74
     0
 42
0.0000000001
 43
0.0000000001
 40
0.0
 40
0.0
 40
0.0
 40
0.0
 40
1.0
 40
1.0
 40
1.0
 40
1.0
 10
4645.617478616792
 20
2353.076362890909
 30
0.0
 10
4645.617478616792
 20
2353.076097395531
 30
0.0
 10
4645.617499629808
 20
2353.075833561764
 30
0.0
 10
4645.617541661636
 20
2353.075571389942
 30
0.0
  0
LINE
  5
1760
330
1F
100
AcDbEntity
  8
SANINDUSA
100
AcDbLine
 10
4645.705416202803
 20
2353.061362894486
 30
0.0
 11
4645.7754162031
 21
2353.061362894486
 31
0.0
  0
ARC
  5
1764
330
1F
100
AcDbEntity
  8
SANINDUSA
100
AcDbCircle
 10
4644.673684517804
 20
2353.343246427317
 30
0.0
 40
1.199999999999999
100
AcDbArc
 50
347.0933659434229
 51
353.9050113946051
  0
SPLINE
  5
1FCF
330
1F
100
AcDbEntity
  8
SANINDUSA
100
AcDbSpline
210
0.0
220
0.0
230
1.0
 70
     8
 71
     3
 72
    12
 73
     8
 74
     0
 42
0.0000000001
 43
0.0000000001
 40
0.0
 40
0.0
 40
0.0
 40
0.0
 40
0.5
 40
0.5
 40
0.75
 40
0.75
 40
1.0
 40
1.0
 40
1.0
 40
1.0
 10
4646.263779144692
 20
2353.075493101422
 30
0.0
 10
4646.269070617722
 20
2353.098670810547
 30
0.0
 10
4646.273691493376
 20
2353.121997239799
 30
0.0
 10
4646.279599459011
 20
2353.157164191178
 30
0.0
 10
4646.281397794443
 20
2353.168913137262
 30
0.0
 10
4646.284650676945
 20
2353.192454678588
 30
0.0
 10
4646.286105479151
 20
2353.204248766038
 30
0.0
 10
4646.287388329612
 20
2353.216066212755
 30
0.0
  0
SPLINE
  5
1FD0
330
1F
100
AcDbEntity
  8
SANINDUSA
100
AcDbSpline
210
0.0
220
0.0
230
1.0
 70
     8
 71
     3
 72
    12
 73
     8
 74
     0
 42
0.0000000001
 43
0.0000000001
 40
0.0281690446902286
 40
0.0281690446902286
 40
0.0281690446902286
 40
0.0281690446902286
 40
0.3522829845349785
 40
0.3522829845349785
 40
0.7250967468173838
 40
0.7250967468173838
 40
0.9606017461842967
 40
0.9606017461842967
 40
0.9606017461842967
 40
0.9606017461842967
 10
4646.254910736764
 20
2353.081605853542
 30
0.0
 10
4646.25826440809
 20
2353.096519225013
 30
0.0
 10
4646.261338236551
 20
2353.111493559215
 30
0.0
 10
4646.267339301992
 20
2353.14380550418
 30
0.0
 10
4646.27017497123
 20
2353.161161367521
 30
0.0
 10
4646.274182807863
 20
2353.189558026915
 30
0.0
 10
4646.275583290304
 20
2353.200571617892
 30
0.0
 10
4646.276832491474
 20
2353.211605853542
 30
0.0
  0
LINE
  5
1FD1
330
1F
100
AcDbEntity
  8
SANINDUSA
100
AcDbLine
 10
4646.196914496552
 20
2353.109843386119
 30
0.0
 11
4646.18441449604
 21
2353.098977301453
 31
0.0
  0
SPLINE
  5
1FD2
330
1F
100
AcDbEntity
  8
SANINDUSA
100
AcDbSpline
210
0.0
220
0.0
230
1.0
 70
     8
 71
     3
 72
    66
 73
    62
 74
     0
 42
0.0000000001
 43
0.0000000001
 40
0.0
 40
0.0
 40
0.0
 40
0.0
 40
0.0312499999999997
 40
0.0312499999999997
 40
0.0624999999999995
 40
0.0624999999999995
 40
0.1249999999999991
 40
0.1249999999999991
 40
0.1562499999999988
 40
0.1562499999999988
 40
0.1718749999999987
 40
0.1718749999999987
 40
0.1874999999999985
 40
0.1874999999999985
 40
0.2499999999999984
 40
0.2499999999999984
 40
0.2656249999999983
 40
0.2656249999999983
 40
0.2812499999999983
 40
0.2812499999999983
 40
0.3124999999999985
 40
0.3124999999999985
 40
0.3749999999999985
 40
0.3749999999999985
 40
0.4062499999999985
 40
0.4062499999999985
 40
0.4374999999999985
 40
0.4374999999999985
 40
0.4687499999999985
 40
0.4687499999999985
 40
0.4999999999999984
 40
0.4999999999999984
 40
0.5624999999999992
 40
0.5624999999999992
 40
0.5937499999999996
 40
0.5937499999999996
 40
0.6093749999999995
 40
0.6093749999999995
 40
0.6249999999999993
 40
0.6249999999999993
 40
0.6875
 40
0.6875
 40
0.703125
 40
0.703125
 40
0.71875
 40
0.71875
 40
0.75
 40
0.75
 40
0.8125
 40
0.8125
 40
0.8281249999999998
 40
0.8281249999999998
 40
0.8437499999999996
 40
0.8437499999999996
 40
0.8749999999999998
 40
0.8749999999999998
 40
0.9062499999999998
 40
0.9062499999999998
 40
0.9374999999999998
 40
0.9374999999999998
 40
1.0
 40
1.0
 40
1.0
 40
1.0
 10
4646.125488157313
 20
2353.109344709539
 30
0.0
 10
4646.125488138062
 20
2353.109344726274
 30
0.0
 10
4646.125546048523
 20
2353.109343067828
 30
0.0
 10
4646.125778417192
 20
2353.109336441706
 30
0.0
 10
4646.125953162969
 20
2353.109331465478
 30
0.0
 10
4646.126656687923
 20
2353.109311725643
 30
0.0
 10
4646.127348660524
 20
2353.109292558962
 30
0.0
 10
4646.128706169139
 20
2353.109257235899
 30
0.0
 10
4646.129212336163
 20
2353.109244366365
 30
0.0
 10
4646.130053827028
 20
2353.109223747313
 30
0.0
 10
4646.130348902608
 20
2353.109216635856
 30
0.0
 10
4646.130961019276
 20
2353.109202176914
 30
0.0
 10
4646.131278342333
 20
2353.109194821821
 30
0.0
 10
4646.13292011557
 20
2353.10915760486
 30
0.0
 10
4646.134408458741
 20
2353.109126413163
 30
0.0
 10
4646.136485363117
 20
2353.10908861563
 30
0.0
 10
4646.136911665926
 20
2353.109081116351
 30
0.0
 10
4646.137786461431
 20
2353.109066316827
 30
0.0
 10
4646.138234703431
 20
2353.109059023026
 30
0.0
 10
4646.139598043258
 20
2353.109037788643
 30
0.0
 10
4646.14053639281
 20
2353.109024414433
 30
0.0
 10
4646.143437228991
 20
2353.10898741089
 30
0.0
 10
4646.145484692655
 20
2353.108966886669
 30
0.0
 10
4646.148730902406
 20
2353.108945460805
 30
0.0
 10
4646.14982903106
 20
2353.108939978975
 30
0.0
 10
4646.152044297138
 20
2353.108932652975
 30
0.0
 10
4646.153163400299
 20
2353.108930795257
 30
0.0
 10
4646.155424297541
 20
2353.108930920987
 30
0.0
 10
4646.156566091288
 20
2353.108932904067
 30
0.0
 10
4646.158872764533
 20
2353.108940947151
 30
0.0
 10
4646.16004314071
 20
2353.108947058921
 30
0.0
 10
4646.163522162526
 20
2353.108971329575
 30
0.0
 10
4646.16581392633
 20
2353.108995398808
 30
0.0
 10
4646.169210825986
 20
2353.109042497452
 30
0.0
 10
4646.170336288149
 20
2353.109060029557
 30
0.0
 10
4646.17201386051
 20
2353.109088965519
 30
0.0
 10
4646.172569125224
 20
2353.109099015106
 30
0.0
 10
4646.173664938769
 20
2353.1091197424
 30
0.0
 10
4646.174206569418
 20
2353.109130438619
 30
0.0
 10
4646.176883761041
 20
2353.109185438766
 30
0.0
 10
4646.178927315006
 20
2353.109234308556
 30
0.0
 10
4646.181356837518
 20
2353.109299152184
 30
0.0
 10
4646.18183644051
 20
2353.109312307954
 30
0.0
 10
4646.182782756016
 20
2353.109338930591
 30
0.0
 10
4646.183248489591
 20
2353.109352371712
 30
0.0
 10
4646.184611076273
 20
2353.109392609494
 30
0.0
 10
4646.185478289996
 20
2353.109419457252
 30
0.0
 10
4646.187958729258
 20
2353.109499182016
 30
0.0
 10
4646.189451970593
 20
2353.109551264521
 30
0.0
 10
4646.191107957176
 20
2353.10961191919
 30
0.0
 10
4646.191427876883
 20
2353.109623802793
 30
0.0
 10
4646.192039219414
 20
2353.109646781266
 30
0.0
 10
4646.19233155221
 20
2353.109657909337
 30
0.0
 10
4646.193169072954
 20
2353.109690125417
 30
0.0
 10
4646.193674877452
 20
2353.109710045913
 30
0.0
 10
4646.194581930216
 20
2353.109746314202
 30
0.0
 10
4646.194983183288
 20
2353.109762662783
 30
0.0
 10
4646.195678580709
 20
2353.109791300853
 30
0.0
 10
4646.195973495794
 20
2353.10980362334
 30
0.0
 10
4646.196677834825
 20
2353.109833234761
 30
0.0
 10
4646.19691453629
 20
2353.109843420665
 30
0.0
 10
4646.196914496552
 20
2353.109843386119
 30
0.0
  0
LINE
  5
1FD4
330
1F
100
AcDbEntity
  8
SANINDUSA
100
AcDbLine
 10
4646.137414496041
 20
2353.098977301453
 30
0.0
 11
4646.125488157313
 21
2353.109344709539
 31
0.0
  0
LINE
  5
1FD5
330
1F
100
AcDbEntity
  8
SANINDUSA
100
AcDbLine
 10
4646.18441449604
 20
2353.098977301453
 30
0.0
 11
4646.137414496041
 21
2353.098977301453
 31
0.0
  0
LINE
  5
1FD6
330
1F
100
AcDbEntity
  8
SANINDUSA
100
AcDbLine
 10
4646.18441449604
 20
2353.098977301453
 30
0.0
 11
4646.18441449604
 21
2353.061605853542
 31
0.0
  0
LINE
  5
1FD7
330
1F
100
AcDbEntity
  8
SANINDUSA
100
AcDbLine
 10
4646.18441449604
 20
2353.061605853542
 30
0.0
 11
4646.19591449604
 21
2353.061605853542
 31
0.0
  0
LINE
  5
1FD8
330
1F
100
AcDbEntity
  8
SANINDUSA
100
AcDbLine
 10
4646.19591449604
 20
2353.061605853542
 30
0.0
 11
4646.198516148279
 21
2353.0913428747
 31
0.0
  0
SPLINE
  5
1FD9
330
1F
100
AcDbEntity
  8
SANINDUSA
100
AcDbSpline
210
0.0
220
0.0
230
1.0
 70
     8
 71
     3
 72
    28
 73
    24
 74
     0
 42
0.0000000001
 43
0.0000000001
 40
0.0
 40
0.0
 40
0.0
 40
0.0
 40
0.1250000000000014
 40
0.1250000000000014
 40
0.1875000000000021
 40
0.1875000000000021
 40
0.2500000000000027
 40
0.2500000000000027
 40
0.3749999999999988
 40
0.3749999999999988
 40
0.4374999999999952
 40
0.4374999999999952
 40
0.4999999999999917
 40
0.4999999999999917
 40
0.6249999999999844
 40
0.6249999999999844
 40
0.6874999999999862
 40
0.6874999999999862
 40
0.7499999999999878
 40
0.7499999999999878
 40
0.8749999999999939
 40
0.8749999999999939
 40
1.0
 40
1.0
 40
1.0
 40
1.0
 10
4646.207845177482
 20
2353.100451267929
 30
0.0
 10
4646.207249219671
 20
2353.100413472923
 30
0.0
 10
4646.206665637353
 20
2353.100323300121
 30
0.0
 10
4646.205808049775
 20
2353.100112764236
 30
0.0
 10
4646.205525169856
 20
2353.100029962085
 30
0.0
 10
4646.204965459765
 20
2353.09983875294
 30
0.0
 10
4646.204687477958
 20
2353.099729819459
 30
0.0
 10
4646.203871325691
 20
2353.09936694784
 30
0.0
 10
4646.203355995977
 20
2353.099080084868
 30
0.0
 10
4646.20262474482
 20
2353.098584577023
 30
0.0
 10
4646.202387993567
 20
2353.09840847339
 30
0.0
 10
4646.201928754332
 20
2353.098033983421
 30
0.0
 10
4646.201705256284
 20
2353.097834526387
 30
0.0
 10
4646.201067724208
 20
2353.097212176706
 30
0.0
 10
4646.200684417845
 20
2353.096764630823
 30
0.0
 10
4646.200170551579
 20
2353.09604550051
 30
0.0
 10
4646.200009505088
 20
2353.095797774829
 30
0.0
 10
4646.199708383115
 20
2353.095285911595
 30
0.0
 10
4646.199568171334
 20
2353.095021159515
 30
0.0
 10
4646.199187506421
 20
2353.094217808189
 30
0.0
 10
4646.198983572072
 20
2353.09366535363
 30
0.0
 10
4646.198673945486
 20
2353.092527159195
 30
0.0
 10
4646.198568193772
 20
2353.091937757412
 30
0.0
 10
4646.198516148279
 20
2353.0913428747
 30
0.0
  0
SPLINE
  5
1FDA
330
1F
100
AcDbEntity
  8
SANINDUSA
100
AcDbSpline
210
0.0
220
0.0
230
1.0
 70
     8
 71
     3
 72
     8
 73
     4
 74
     0
 42
0.0000000001
 43
0.0000000001
 40
0.0
 40
0.0
 40
0.0
 40
0.0
 40
1.0
 40
1.0
 40
1.0
 40
1.0
 10
4646.207845177482
 20
2353.100451267929
 30
0.0
 10
4646.212747775422
 20
2353.100762185437
 30
0.0
 10
4646.217650081783
 20
2353.101116939327
 30
0.0
 10
4646.222552095537
 20
2353.101515683912
 30
0.0
  0
SPLINE
  5
1FDB
330
1F
100
AcDbEntity
  8
SANINDUSA
100
AcDbSpline
210
0.0
220
0.0
230
1.0
 70
     8
 71
     3
 72
    16
 73
    12
 74
     0
 42
0.0000000001
 43
0.0000000001
 40
0.0
 40
0.0
 40
0.0
 40
0.0
 40
0.2499999999999947
 40
0.2499999999999947
 40
0.4999999999999895
 40
0.4999999999999895
 40
0.6249999999999902
 40
0.6249999999999902
 40
0.7499999999999908
 40
0.7499999999999908
 40
1.0
 40
1.0
 40
1.0
 40
1.0
 10
4646.222552095537
 20
2353.101515683912
 30
0.0
 10
4646.223535761935
 20
2353.101595698303
 30
0.0
 10
4646.224501208974
 20
2353.101747110502
 30
0.0
 10
4646.226397168953
 20
2353.10218683425
 30
0.0
 10
4646.227327678158
 20
2353.102475160433
 30
0.0
 10
4646.228696639035
 20
2353.103012684721
 30
0.0
 10
4646.229150245078
 20
2353.103210365225
 30
0.0
 10
4646.230035735169
 20
2353.103635870603
 30
0.0
 10
4646.230468370207
 20
2353.103863814119
 30
0.0
 10
4646.231736625136
 20
2353.104592195649
 30
0.0
 10
4646.232542749604
 20
2353.105136952112
 30
0.0
 10
4646.233309371657
 20
2353.105741063062
 30
0.0
  0
SPLINE
  5
1FDC
330
1F
100
AcDbEntity
  8
SANINDUSA
100
AcDbSpline
210
0.0
220
0.0
230
1.0
 70
     8
 71
     3
 72
    32
 73
    28
 74
     0
 42
0.0000000001
 43
0.0000000001
 40
0.0
 40
0.0
 40
0.0
 40
0.0
 40
0.125
 40
0.125
 40
0.1874999999999993
 40
0.1874999999999993
 40
0.2499999999999986
 40
0.2499999999999986
 40
0.37499999999999
 40
0.37499999999999
 40
0.4374999999999897
 40
0.4374999999999897
 40
0.4999999999999895
 40
0.4999999999999895
 40
0.5624999999999893
 40
0.5624999999999893
 40
0.624999999999989
 40
0.624999999999989
 40
0.749999999999988
 40
0.749999999999988
 40
0.8124999999999909
 40
0.8124999999999909
 40
0.8749999999999939
 40
0.8749999999999939
 40
0.9374999999999968
 40
0.9374999999999968
 40
1.0
 40
1.0
 40
1.0
 40
1.0
 10
4646.24140102099
 20
2353.10198836541
 30
0.0
 10
4646.241384856842
 20
2353.102451246043
 30
0.0
 10
4646.241305965022
 20
2353.102901176456
 30
0.0
 10
4646.241095942911
 20
2353.103557143705
 30
0.0
 10
4646.241009764509
 20
2353.103773490208
 30
0.0
 10
4646.240811089762
 20
2353.104186781632
 30
0.0
 10
4646.240698238579
 20
2353.104385309118
 30
0.0
 10
4646.240319547525
 20
2353.104956779555
 30
0.0
 10
4646.240009676352
 20
2353.105307879649
 30
0.0
 10
4646.239490223103
 20
2353.105754397593
 30
0.0
 10
4646.239307132681
 20
2353.10589125447
 30
0.0
 10
4646.238920649687
 20
2353.106140492831
 30
0.0
 10
4646.238716891486
 20
2353.106252706865
 30
0.0
 10
4646.238301430456
 20
2353.106445547995
 30
0.0
 10
4646.238088237717
 20
2353.106527238301
 30
0.0
 10
4646.237650976831
 20
2353.106661290674
 30
0.0
 10
4646.237425412615
 20
2353.106713871141
 30
0.0
 10
4646.23674236877
 20
2353.106823684936
 30
0.0
 10
4646.236285884888
 20
2353.106833653388
 30
0.0
 10
4646.235599483037
 20
2353.106754080285
 30
0.0
 10
4646.235371355809
 20
2353.106711403489
 30
0.0
 10
4646.234928397354
 20
2353.106596623012
 30
0.0
 10
4646.234711840314
 20
2353.106524361662
 30
0.0
 10
4646.234288580543
 20
2353.106350066727
 30
0.0
 10
4646.234080702776
 20
2353.106247298705
 30
0.0
 10
4646.233681939068
 20
2353.106014266648
 30
0.0
 10
4646.233491264719
 20
2353.105884397824
 30
0.0
 10
4646.233309371657
 20
2353.105741063062
 30
0.0
  0
SPLINE
  5
1FDD
330
1F
100
AcDbEntity
  8
SANINDUSA
100
AcDbSpline
210
0.0
220
0.0
230
1.0
 70
     8
 71
     3
 72
    34
 73
    30
 74
     0
 42
0.0000000001
 43
0.0000000001
 40
0.0
 40
0.0
 40
0.0
 40
0.0
 40
0.0933908950169628
 40
0.0933908950169628
 40
0.1233190192665489
 40
0.1233190192665489
 40
0.1393654527125453
 40
0.1393654527125453
 40
0.1554118861585416
 40
0.1554118861585416
 40
0.1779839222405922
 40
0.1779839222405922
 40
0.2231279944046934
 40
0.2231279944046934
 40
0.2479490442738944
 40
0.2479490442738944
 40
0.264987364978979
 40
0.264987364978979
 40
0.2820256856840636
 40
0.2820256856840636
 40
0.3161023270942328
 40
0.3161023270942328
 40
0.3579107806036853
 40
0.3579107806036853
 40
0.4329347046136296
 40
0.4329347046136296
 40
0.5125731426892379
 40
0.5125731426892379
 40
0.5789224039306548
 40
0.5789224039306548
 40
0.5789224039306548
 40
0.5789224039306548
 10
4646.251394929261
 20
2353.102337360377
 30
0.0
 10
4646.251359155055
 20
2353.103361799572
 30
0.0
 10
4646.251216403717
 20
2353.104393746885
 30
0.0
 10
4646.250893275506
 20
2353.105709136004
 30
0.0
 10
4646.250804594965
 20
2353.106024713022
 30
0.0
 10
4646.250653689805
 20
2353.106502009724
 30
0.0
 10
4646.250596037736
 20
2353.106673811286
 30
0.0
 10
4646.250477078942
 20
2353.107008149148
 30
0.0
 10
4646.250414849911
 20
2353.107173680371
 30
0.0
 10
4646.250258185581
 20
2353.107569172525
 30
0.0
 10
4646.250160959159
 20
2353.107797962365
 30
0.0
 10
4646.249850474116
 20
2353.108480558164
 30
0.0
 10
4646.249622835752
 20
2353.10892091795
 30
0.0
 10
4646.249237063257
 20
2353.109584888267
 30
0.0
 10
4646.24909390233
 20
2353.109816483426
 30
0.0
 10
4646.248842679318
 20
2353.110199309403
 30
0.0
 10
4646.248734242997
 20
2353.110357975467
 30
0.0
 10
4646.248515320164
 20
2353.110665439064
 30
0.0
 10
4646.248403390575
 20
2353.110816483034
 30
0.0
 10
4646.248060159996
 20
2353.111262037114
 30
0.0
 10
4646.247821449416
 20
2353.111548995813
 30
0.0
 10
4646.247266702214
 20
2353.112167792207
 30
0.0
 10
4646.246945435437
 20
2353.112495076742
 30
0.0
 10
4646.2459984833
 20
2353.113374088002
 30
0.0
 10
4646.245349024408
 20
2353.113883233248
 30
0.0
 10
4646.243928125172
 20
2353.114819872597
 30
0.0
 10
4646.2431442084
 20
2353.115242702204
 30
0.0
 10
4646.241673329447
 20
2353.115876777426
 30
0.0
 10
4646.240983694806
 20
2353.116116310058
 30
0.0
 10
4646.240278296118
 20
2353.116304887187
 30
0.0
  0
LINE
  5
1FDF
330
1F
100
AcDbEntity
  8
SANINDUSA
100
AcDbLine
 10
4646.242462001684
 20
2353.071605853542
 30
0.0
 11
4646.24140102099
 21
2353.10198836541
 31
0.0
  0
LINE
  5
1FE0
330
1F
100
AcDbEntity
  8
SANINDUSA
100
AcDbLine
 10
4646.252118889431
 20
2353.081605853542
 30
0.0
 11
4646.251394929261
 21
2353.102337360377
 31
0.0
  0
LINE
  5
1FE1
330
1F
100
AcDbEntity
  8
SANINDUSA
100
AcDbLine
 10
4646.258904502126
 20
2353.071605853542
 30
0.0
 11
4646.242462001684
 21
2353.071605853542
 31
0.0
  0
LINE
  5
1FE2
330
1F
100
AcDbEntity
  8
SANINDUSA
100
AcDbLine
 10
4646.254910736764
 20
2353.081605853542
 30
0.0
 11
4646.252118889431
 21
2353.081605853542
 31
0.0
  0
SPLINE
  5
1FE3
330
1F
100
AcDbEntity
  8
SANINDUSA
100
AcDbSpline
210
0.0
220
0.0
230
1.0
 70
     8
 71
     3
 72
    14
 73
    10
 74
     0
 42
0.0000000001
 43
0.0000000001
 40
0.0
 40
0.0
 40
0.0
 40
0.0
 40
0.25
 40
0.25
 40
0.5
 40
0.5
 40
0.75
 40
0.75
 40
1.0
 40
1.0
 40
1.0
 40
1.0
 10
4646.258904476208
 20
2353.071605853542
 30
0.0
 10
4646.259470814789
 20
2353.071605853542
 30
0.0
 10
4646.260021226658
 20
2353.071699373717
 30
0.0
 10
4646.261090209978
 20
2353.072073378016
 30
0.0
 10
4646.261578992262
 20
2353.072343494344
 30
0.0
 10
4646.262464367837
 20
2353.07304944308
 30
0.0
 10
4646.262836624694
 20
2353.073465936456
 30
0.0
 10
4646.263439106642
 20
2353.074424539995
 30
0.0
 10
4646.263653069484
 20
2353.074940867037
 30
0.0
 10
4646.263779121476
 20
2353.07549299973
 30
0.0
  0
LINE
  5
1FE4
330
1F
100
AcDbEntity
  8
SANINDUSA
100
AcDbLine
 10
4646.272365835474
 20
2353.221605853542
 30
0.0
 11
4646.282417535455
 21
2353.221605853542
 31
0.0
  0
LINE
  5
1FE5
330
1F
100
AcDbEntity
  8
SANINDUSA
100
AcDbLine
 10
4646.272365835474
 20
2353.211605853542
 30
0.0
 11
4646.276832491474
 21
2353.211605853542
 31
0.0
  0
SPLINE
  5
1FE6
330
1F
100
AcDbEntity
  8
SANINDUSA
100
AcDbSpline
210
0.0
220
0.0
230
1.0
 70
     8
 71
     3
 72
    22
 73
    18
 74
     0
 42
0.0000000001
 43
0.0000000001
 40
0.0
 40
0.0
 40
0.0
 40
0.0
 40
0.125
 40
0.125
 40
0.2499999999999999
 40
0.2499999999999999
 40
0.3749999999999999
 40
0.3749999999999999
 40
0.4999999999999999
 40
0.4999999999999999
 40
0.6249999999999999
 40
0.6249999999999999
 40
0.75
 40
0.75
 40
0.875
 40
0.875
 40
1.0
 40
1.0
 40
1.0
 40
1.0
 10
4646.272365835474
 20
2353.221605853542
 30
0.0
 10
4646.271432709994
 20
2353.221605853542
 30
0.0
 10
4646.270473857489
 20
2353.221532931117
 30
0.0
 10
4646.268539456371
 20
2353.221221713272
 30
0.0
 10
4646.267564036199
 20
2353.220983269469
 30
0.0
 10
4646.26563940935
 20
2353.22033268983
 30
0.0
 10
4646.264690407155
 20
2353.219920477043
 30
0.0
 10
4646.262864517244
 20
2353.218929172104
 30
0.0
 10
4646.261987860279
 20
2353.218350115289
 30
0.0
 10
4646.260348799163
 20
2353.217047819987
 30
0.0
 10
4646.259586581926
 20
2353.216324730011
 30
0.0
 10
4646.258208235527
 20
2353.214770149472
 30
0.0
 10
4646.257592192942
 20
2353.213938875701
 30
0.0
 10
4646.25652343757
 20
2353.212211101316
 30
0.0
 10
4646.256070696042
 20
2353.211314817283
 30
0.0
 10
4646.255330311162
 20
2353.209500817706
 30
0.0
 10
4646.255042552298
 20
2353.208583260817
 30
0.0
 10
4646.254831643679
 20
2353.207674282977
 30
0.0
  0
SPLINE
  5
1FE7
330
1F
100
AcDbEntity
  8
SANINDUSA
100
AcDbSpline
210
0.0
220
0.0
230
1.0
 70
     8
 71
     3
 72
    22
 73
    18
 74
     0
 42
0.0000000001
 43
0.0000000001
 40
0.0
 40
0.0
 40
0.0
 40
0.0
 40
0.1310263779130999
 40
0.1310263779130999
 40
0.2362100778931042
 40
0.2362100778931042
 40
0.3967666971195285
 40
0.3967666971195285
 40
0.4970392585618217
 40
0.4970392585618217
 40
0.6294608938506685
 40
0.6294608938506685
 40
0.7300185970152672
 40
0.7300185970152672
 40
0.8921080365806425
 40
0.8921080365806425
 40
1.0
 40
1.0
 40
1.0
 40
1.0
 10
4646.272365835474
 20
2353.211605853542
 30
0.0
 10
4646.271933831037
 20
2353.211605853542
 30
0.0
 10
4646.271481708701
 20
2353.211569883219
 30
0.0
 10
4646.270673351044
 20
2353.211433251654
 30
0.0
 10
4646.270304857398
 20
2353.211344951469
 30
0.0
 10
4646.26939584848
 20
2353.211056523166
 30
0.0
 10
4646.268852343019
 20
2353.210817635784
 30
0.0
 10
4646.268019061619
 20
2353.210331975561
 30
0.0
 10
4646.267705660146
 20
2353.210118871725
 30
0.0
 10
4646.267030839257
 20
2353.209587266434
 30
0.0
 10
4646.266667307396
 20
2353.209241734644
 30
0.0
 10
4646.266104551727
 20
2353.208599023615
 30
0.0
 10
4646.265878322505
 20
2353.208300836886
 30
0.0
 10
4646.265355990567
 20
2353.207505673784
 30
0.0
 10
4646.265093812669
 20
2353.206987059265
 30
0.0
 10
4646.264760568529
 20
2353.20611542424
 30
0.0
 10
4646.264653264453
 20
2353.205760567202
 30
0.0
 10
4646.264572861342
 20
2353.205414044402
 30
0.0
  0
ARC
  5
1FE8
330
1F
100
AcDbEntity
  8
SANINDUSA
100
AcDbCircle
 10
4645.085885523957
 20
2353.478902911976
 30
0.0
 40
1.199999999999999
100
AcDbArc
 50
342.5195279360432
 51
346.9369080354157
  0
ARC
  5
1FE9
330
1F
100
AcDbEntity
  8
SANINDUSA
100
AcDbCircle
 10
4645.085885523957
 20
2353.478902911976
 30
0.0
 40
1.209999999999999
100
AcDbArc
 50
342.5623491336499
 51
346.9369080354157
  0
SPLINE
  5
1FEA
330
1F
100
AcDbEntity
  8
SANINDUSA
100
AcDbSpline
210
0.0
220
0.0
230
1.0
 70
     8
 71
     3
 72
    22
 73
    18
 74
     0
 42
0.0000000001
 43
0.0000000001
 40
0.0
 40
0.0
 40
0.0
 40
0.0
 40
0.2500000000000169
 40
0.2500000000000169
 40
0.3125000000000162
 40
0.3125000000000162
 40
0.3750000000000155
 40
0.3750000000000155
 40
0.5000000000000125
 40
0.5000000000000125
 40
0.6250000000000094
 40
0.6250000000000094
 40
0.7500000000000063
 40
0.7500000000000063
 40
0.8750000000000031
 40
0.8750000000000031
 40
1.0
 40
1.0
 40
1.0
 40
1.0
 10
4646.2217413432
 20
2353.111482763758
 30
0.0
 10
4646.222733631558
 20
2353.111563479485
 30
0.0
 10
4646.223689440474
 20
2353.111787150427
 30
0.0
 10
4646.224839445817
 20
2353.11224212762
 30
0.0
 10
4646.225068001122
 20
2353.112342529769
 30
0.0
 10
4646.225513732297
 20
2353.112558491427
 30
0.0
 10
4646.225731460871
 20
2353.112674190892
 30
0.0
 10
4646.226369571905
 20
2353.113043939812
 30
0.0
 10
4646.226774959924
 20
2353.113320519216
 30
0.0
 10
4646.227545490549
 20
2353.1139341489
 30
0.0
 10
4646.227913006928
 20
2353.114274241216
 30
0.0
 10
4646.228585409835
 20
2353.114996383275
 30
0.0
 10
4646.228892464972
 20
2353.115379437634
 30
0.0
 10
4646.229449048169
 20
2353.116188935592
 30
0.0
 10
4646.229699568296
 20
2353.116617457538
 30
0.0
 10
4646.230135440178
 20
2353.117510596291
 30
0.0
 10
4646.230319260317
 20
2353.11797124134
 30
0.0
 10
4646.230468784704
 20
2353.118446036307
 30
0.0
  0
ARC
  5
1FEB
330
1F
100
AcDbEntity
  8
SANINDUSA
100
AcDbCircle
 10
4646.155502877314
 20
2353.925793186725
 30
0.0
 40
0.8169999995820935
100
AcDbArc
 50
272.9054200635057
 51
274.6503728588161
  0
ARC
  5
1FEC
330
1F
100
AcDbEntity
  8
SANINDUSA
100
AcDbCircle
 10
4646.058965385123
 20
2353.216605853543
 30
0.0
 40
0.005
100
AcDbArc
 50
12.61494057686429
 51
90.0
  0
LINE
  5
1FED
330
1F
100
AcDbEntity
  8
SANINDUSA
100
AcDbLine
 10
4646.039976912766
 20
2353.221605853542
 30
0.0
 11
4646.058965385123
 21
2353.221605853542
 31
0.0
  0
LINE
  5
1FEE
330
1F
100
AcDbEntity
  8
SANINDUSA
100
AcDbLine
 10
4646.047976912767
 20
2353.211605853542
 30
0.0
 11
4646.054967496043
 21
2353.211605853542
 31
0.0
  0
ARC
  5
1FEF
330
1F
100
AcDbEntity
  8
SANINDUSA
100
AcDbCircle
 10
4646.039976912766
 20
2353.219605853542
 30
0.0
 40
0.0020000000000001
100
AcDbArc
 50
90.0
 51
180.0
  0
LINE
  5
1FF0
330
1F
100
AcDbEntity
  8
SANINDUSA
100
AcDbLine
 10
4646.037976912767
 20
2353.219605853542
 30
0.0
 11
4646.037976912767
 21
2353.076605853542
 31
0.0
  0
LINE
  5
1FF1
330
1F
100
AcDbEntity
  8
SANINDUSA
100
AcDbLine
 10
4646.047976912767
 20
2353.211605853542
 30
0.0
 11
4646.047976912767
 21
2353.081605853542
 31
0.0
  0
ARC
  5
1FF2
330
1F
100
AcDbEntity
  8
SANINDUSA
100
AcDbCircle
 10
4646.042976912767
 20
2353.076605853542
 30
0.0
 40
0.005
100
AcDbArc
 50
180.0
 51
270.0
  0
LINE
  5
1FF3
330
1F
100
AcDbEntity
  8
SANINDUSA
100
AcDbLine
 10
4646.062976912766
 20
2353.071605853542
 30
0.0
 11
4646.042976912767
 21
2353.071605853542
 31
0.0
  0
LINE
  5
1FF4
330
1F
100
AcDbEntity
  8
SANINDUSA
100
AcDbLine
 10
4646.053320025018
 20
2353.081605853542
 30
0.0
 11
4646.047976912767
 21
2353.081605853542
 31
0.0
  0
LINE
  5
1FF5
330
1F
100
AcDbEntity
  8
SANINDUSA
100
AcDbLine
 10
4646.062976912766
 20
2353.071605853542
 30
0.0
 11
4646.065157462955
 21
2353.134048641042
 31
0.0
  0
LINE
  5
1FF6
330
1F
100
AcDbEntity
  8
SANINDUSA
100
AcDbLine
 10
4646.053320025018
 20
2353.081605853542
 30
0.0
 11
4646.055163554685
 21
2353.134397636009
 31
0.0
  0
ARC
  5
1FF7
330
1F
100
AcDbEntity
  8
SANINDUSA
100
AcDbCircle
 10
4646.070154417091
 20
2353.133874143559
 30
0.0
 40
0.005
100
AcDbArc
 50
16.54044759104766
 51
177.9999999962464
  0
ARC
  5
1FF8
330
1F
100
AcDbEntity
  8
SANINDUSA
100
AcDbCircle
 10
4646.070154417091
 20
2353.133874143559
 30
0.0
 40
0.015
100
AcDbArc
 50
86.73543079140669
 51
177.9999999962464
  0
SPLINE
  5
1FFA
330
1F
100
AcDbEntity
  8
SANINDUSA
100
AcDbSpline
210
0.0
220
0.0
230
1.0
 70
     8
 71
     3
 72
    26
 73
    22
 74
     0
 42
0.0000000001
 43
0.0000000001
 40
0.0
 40
0.0
 40
0.0
 40
0.0
 40
0.1249999999999994
 40
0.1249999999999994
 40
0.2499999999999988
 40
0.2499999999999988
 40
0.3124999999999986
 40
0.3124999999999986
 40
0.3749999999999982
 40
0.3749999999999982
 40
0.4999999999999984
 40
0.4999999999999984
 40
0.6249999999999984
 40
0.6249999999999984
 40
0.7499999999999984
 40
0.7499999999999984
 40
0.8124999999999989
 40
0.8124999999999989
 40
0.8749999999999992
 40
0.8749999999999992
 40
1.0
 40
1.0
 40
1.0
 40
1.0
 10
4646.08128215856
 20
2353.114644852837
 30
0.0
 10
4646.081585450522
 20
2353.113686630692
 30
0.0
 10
4646.081956682903
 20
2353.11276336759
 30
0.0
 10
4646.082829396118
 20
2353.110983861309
 30
0.0
 10
4646.083330889872
 20
2353.110127624777
 30
0.0
 10
4646.08418328528
 20
2353.108894805063
 30
0.0
 10
4646.084485354894
 20
2353.108491212087
 30
0.0
 10
4646.085113956231
 20
2353.107714037737
 30
0.0
 10
4646.085441233625
 20
2353.107339152983
 30
0.0
 10
4646.086461172094
 20
2353.106254736017
 30
0.0
 10
4646.087191732146
 20
2353.105585222202
 30
0.0
 10
4646.088754806855
 20
2353.104353850763
 30
0.0
 10
4646.089593836609
 20
2353.103789254659
 30
0.0
 10
4646.091324215597
 20
2353.102804686185
 30
0.0
 10
4646.092219738276
 20
2353.102380174328
 30
0.0
 10
4646.093608075053
 20
2353.101844066356
 30
0.0
 10
4646.094078393654
 20
2353.101682209334
 30
0.0
 10
4646.095034416868
 20
2353.101392871718
 30
0.0
 10
4646.095521588204
 20
2353.101265138351
 30
0.0
 10
4646.09698959125
 20
2353.100938891631
 30
0.0
 10
4646.097980242621
 20
2353.100795516436
 30
0.0
 10
4646.098982967588
 20
2353.100726826294
 30
0.0
  0
SPLINE
  5
1FFB
330
1F
100
AcDbEntity
  8
SANINDUSA
100
AcDbSpline
210
0.0
220
0.0
230
1.0
 70
     8
 71
     3
 72
     8
 73
     4
 74
     0
 42
0.0000000001
 43
0.0000000001
 40
0.0
 40
0.0
 40
0.0
 40
0.0
 40
1.0
 40
1.0
 40
1.0
 40
1.0
 10
4646.098982967588
 20
2353.100726826294
 30
0.0
 10
4646.103958276967
 20
2353.100386000331
 30
0.0
 10
4646.108933285488
 20
2353.100090405504
 30
0.0
 10
4646.113907994232
 20
2353.099839879927
 30
0.0
  0
SPLINE
  5
1FFC
330
1F
100
AcDbEntity
  8
SANINDUSA
100
AcDbSpline
210
0.0
220
0.0
230
1.0
 70
     8
 71
     3
 72
    28
 73
    24
 74
     0
 42
0.0000000001
 43
0.0000000001
 40
0.0
 40
0.0
 40
0.0
 40
0.0
 40
0.1249999999999948
 40
0.1249999999999948
 40
0.1874999999999949
 40
0.1874999999999949
 40
0.2499999999999952
 40
0.2499999999999952
 40
0.3749999999999943
 40
0.3749999999999943
 40
0.4374999999999924
 40
0.4374999999999924
 40
0.4999999999999926
 40
0.4999999999999926
 40
0.6249999999999931
 40
0.6249999999999931
 40
0.6874999999999934
 40
0.6874999999999934
 40
0.7499999999999936
 40
0.7499999999999936
 40
0.8749999999999968
 40
0.8749999999999968
 40
1.0
 40
1.0
 40
1.0
 40
1.0
 10
4646.123366980111
 20
2353.090724093856
 30
0.0
 10
4646.123314461208
 20
2353.091324387668
 30
0.0
 10
4646.123208931721
 20
2353.091910809107
 30
0.0
 10
4646.12297444788
 20
2353.092770503159
 30
0.0
 10
4646.122883508655
 20
2353.093053723974
 30
0.0
 10
4646.122675694736
 20
2353.093613378535
 30
0.0
 10
4646.122558197697
 20
2353.093891069871
 30
0.0
 10
4646.122169967385
 20
2353.094703992221
 30
0.0
 10
4646.121866163001
 20
2353.095215604261
 30
0.0
 10
4646.121345068493
 20
2353.095938926347
 30
0.0
 10
4646.121160405863
 20
2353.096172639554
 30
0.0
 10
4646.120768700928
 20
2353.096624973678
 30
0.0
 10
4646.120560649965
 20
2353.09684444629
 30
0.0
 10
4646.119913916164
 20
2353.097467854202
 30
0.0
 10
4646.119450629239
 20
2353.097840313778
 30
0.0
 10
4646.118708467452
 20
2353.098335580648
 30
0.0
 10
4646.118453161391
 20
2353.098490036217
 30
0.0
 10
4646.11792629445
 20
2353.098777120319
 30
0.0
 10
4646.117654891036
 20
2353.098909463513
 30
0.0
 10
4646.116832663954
 20
2353.099265730818
 30
0.0
 10
4646.116268590061
 20
2353.099452264078
 30
0.0
 10
4646.115108884926
 20
2353.099724295051
 30
0.0
 10
4646.114509818404
 20
2353.099809572153
 30
0.0
 10
4646.113907994232
 20
2353.099839879927
 30
0.0
  0
LINE
  5
1FFD
330
1F
100
AcDbEntity
  8
SANINDUSA
100
AcDbLine
 10
4646.123366980111
 20
2353.090724093856
 30
0.0
 11
4646.125914496041
 21
2353.061605853542
 31
0.0
  0
LINE
  5
1FFE
330
1F
100
AcDbEntity
  8
SANINDUSA
100
AcDbLine
 10
4646.125914496041
 20
2353.061605853542
 30
0.0
 11
4646.137414496041
 21
2353.061605853542
 31
0.0
  0
LINE
  5
1FFF
330
1F
100
AcDbEntity
  8
SANINDUSA
100
AcDbLine
 10
4646.137414496041
 20
2353.061605853542
 30
0.0
 11
4646.137414496041
 21
2353.098977301453
 31
0.0
  0
ARC
  5
2000
330
1F
100
AcDbEntity
  8
SANINDUSA
100
AcDbCircle
 10
4646.155502877314
 20
2353.925793186725
 30
0.0
 40
0.8169999995820935
100
AcDbArc
 50
266.081162565244
 51
267.8946097280725
  0
SPLINE
  5
2001
330
1F
100
AcDbEntity
  8
SANINDUSA
100
AcDbSpline
210
0.0
220
0.0
230
1.0
 70
     8
 71
     3
 72
    22
 73
    18
 74
     0
 42
0.0000000001
 43
0.0000000001
 40
0.0
 40
0.0
 40
0.0
 40
0.0
 40
0.2499999999999967
 40
0.2499999999999967
 40
0.312499999999998
 40
0.312499999999998
 40
0.3749999999999993
 40
0.3749999999999993
 40
0.4999999999999995
 40
0.4999999999999995
 40
0.6249999999999996
 40
0.6249999999999996
 40
0.7499999999999997
 40
0.7499999999999997
 40
0.8749999999999998
 40
0.8749999999999998
 40
1.0
 40
1.0
 40
1.0
 40
1.0
 10
4646.090815996081
 20
2353.117662458199
 30
0.0
 10
4646.091119288043
 20
2353.116704236053
 30
0.0
 10
4646.091556229936
 20
2353.115814784073
 30
0.0
 10
4646.092266559441
 20
2353.114787434312
 30
0.0
 10
4646.092417594248
 20
2353.114585637824
 30
0.0
 10
4646.092731894917
 20
2353.114197050649
 30
0.0
 10
4646.092895533614
 20
2353.114009608271
 30
0.0
 10
4646.093405502848
 20
2353.113467399789
 30
0.0
 10
4646.093770782874
 20
2353.113132642881
 30
0.0
 10
4646.094552320229
 20
2353.112516957162
 30
0.0
 10
4646.094971835106
 20
2353.11223465911
 30
0.0
 10
4646.095837024599
 20
2353.111742374872
 30
0.0
 10
4646.096284785939
 20
2353.111530118944
 30
0.0
 10
4646.097210343791
 20
2353.111172713629
 30
0.0
 10
4646.097691043729
 20
2353.111026975409
 30
0.0
 10
4646.098669712426
 20
2353.110809477596
 30
0.0
 10
4646.099165038111
 20
2353.110737789998
 30
0.0
 10
4646.099666400595
 20
2353.110703444928
 30
0.0
  0
ARC
  5
2002
330
1F
100
AcDbEntity
  8
SANINDUSA
100
AcDbCircle
 10
4647.234876498647
 20
2353.479775101542
 30
0.0
 40
1.200000000000031
100
AcDbArc
 50
192.6149405768643
 51
197.5633757456514
  0
ARC
  5
2003
330
1F
100
AcDbEntity
  8
SANINDUSA
100
AcDbCircle
 10
4647.234876498647
 20
2353.479775101542
 30
0.0
 40
1.21
100
AcDbArc
 50
196.5404475910476
 51
197.5633757456514
  0
ARC
  5
2004
330
1F
100
AcDbEntity
  8
SANINDUSA
100
AcDbCircle
 10
4647.234876498647
 20
2353.479775101542
 30
0.0
 40
1.21
100
AcDbArc
 50
192.8046405718562
 51
195.8721663429869
  0
LINE
  5
200D
330
1F
100
AcDbEntity
  8
SANINDUSA
100
AcDbLine
 10
4646.18441449604
 20
2353.061605853542
 30
0.0
 11
4646.137414496041
 21
2353.061605853542
 31
0.0
  0
SPLINE
  5
201F
330
1F
100
AcDbEntity
  8
SANINDUSA
100
AcDbSpline
210
0.0
220
0.0
230
1.0
 70
    24
 71
     3
 72
    38
 73
    34
 74
     0
 42
0.0000000001
 43
0.0000000001
 40
0.0
 40
0.0
 40
0.0
 40
0.0
 40
0.0103174833183028
 40
0.0206203748242367
 40
0.0309146039938184
 40
0.0412061152755454
 40
0.0515008578260516
 40
0.061804775205075
 40
0.0721237951187826
 40
0.0824638192995324
 40
0.0928307136074111
 40
0.1032302984345182
 40
0.1136683394870768
 40
0.1241505390132662
 40
0.1346825275364284
 40
0.1452698561442704
 40
0.2167552535012388
 40
0.288567847017966
 40
0.3570833974088457
 40
0.4266713016515653
 40
0.4926342035558185
 40
0.5587820940123648
 40
0.6200873098302708
 40
0.6826160129679592
 40
0.7375921532578872
 40
0.7967032295204745
 40
0.843968442410844
 40
0.901683941316052
 40
0.9283090325241415
 40
0.951452270089859
 40
0.9711143099021356
 40
0.9872962311572941
 40
1.0
 40
1.0
 40
1.0
 40
1.0
 10
4646.272365835474
 20
2353.221605853542
 30
0.0
 10
4646.272364827978
 20
2353.221605853542
 30
0.0
 10
4646.27236281441
 20
2353.221605853542
 30
0.0
 10
4646.272346669195
 20
2353.221605853542
 30
0.0
 10
4646.272320909962
 20
2353.221605853542
 30
0.0
 10
4646.272284598423
 20
2353.221605853542
 30
0.0
 10
4646.272237985784
 20
2353.221605853542
 30
0.0
 10
4646.272181004828
 20
2353.221605853542
 30
0.0
 10
4646.272113673722
 20
2353.221605853542
 30
0.0
 10
4646.272035987778
 20
2353.221605853542
 30
0.0
 10
4646.27194794849
 20
2353.221605853542
 30
0.0
 10
4646.271849555733
 20
2353.221605853542
 30
0.0
 10
4646.271740809859
 20
2353.221605853542
 30
0.0
 10
4646.271621711117
 20
2353.221605853542
 30
0.0
 10
4646.271492259823
 20
2353.221605853542
 30
0.0
 10
4646.27108472106
 20
2353.221605853542
 30
0.0
 10
4646.270229730694
 20
2353.221605853542
 30
0.0
 10
4646.268649753655
 20
2353.221605853542
 30
0.0
 10
4646.266741414261
 20
2353.221605853542
 30
0.0
 10
4646.264599442406
 20
2353.221605853542
 30
0.0
 10
4646.262259453815
 20
2353.221605853542
 30
0.0
 10
4646.259836248779
 20
2353.221605853542
 30
0.0
 10
4646.257333375104
 20
2353.221605853542
 30
0.0
 10
4646.254900450415
 20
2353.221605853542
 30
0.0
 10
4646.252452205038
 20
2353.221605853542
 30
0.0
 10
4646.250197103902
 20
2353.221605853542
 30
0.0
 10
4646.247901197879
 20
2353.221605853542
 30
0.0
 10
4646.246061379376
 20
2353.221605853542
 30
0.0
 10
4646.244559519629
 20
2353.221605853542
 30
0.0
 10
4646.243589077419
 20
2353.221605853542
 30
0.0
 10
4646.242764442528
 20
2353.221605853542
 30
0.0
 10
4646.242085580914
 20
2353.221605853542
 30
0.0
 10
4646.241681542638
 20
2353.221605853542
 30
0.0
 10
4646.241503848808
 20
2353.221605853542
 30
0.0
  0
SPLINE
  5
2021
330
1F
100
AcDbEntity
  8
SANINDUSA
100
AcDbSpline
210
0.0
220
0.0
230
1.0
 70
    24
 71
     3
 72
    41
 73
    37
 74
     0
 42
0.0000000001
 43
0.0000000001
 40
0.0
 40
0.0
 40
0.0
 40
0.0
 40
0.015127358495999
 40
0.0301931462743294
 40
0.0452048640852404
 40
0.0601700939807198
 40
0.0750964888553075
 40
0.0899917614616474
 40
0.1048636729736095
 40
0.1197200211776432
 40
0.1345686283795616
 40
0.1494173291190772
 40
0.1642739577879201
 40
0.1791463362491329
 40
0.1940422615550917
 40
0.2089694938600185
 40
0.2239357446192181
 40
0.2389486651620944
 40
0.2540158357194203
 40
0.3170519413629656
 40
0.3793609804482392
 40
0.4415366340129072
 40
0.5041763757755837
 40
0.5666498761139027
 40
0.6283827405119165
 40
0.6899852823138649
 40
0.7520716582231869
 40
0.7799160212979195
 40
0.8075570990622175
 40
0.8350493788599724
 40
0.8624482357805767
 40
0.8898096121385952
 40
0.9171896799877846
 40
0.9446444966547906
 40
0.9722296637665422
 40
1.0
 40
1.0
 40
1.0
 40
1.0
 10
4646.079456444664
 20
2353.221605853542
 30
0.0
 10
4646.079296117705
 20
2353.221605853542
 30
0.0
 10
4646.078976116345
 20
2353.221605853542
 30
0.0
 10
4646.078497249229
 20
2353.221605853542
 30
0.0
 10
4646.07802057479
 20
2353.221605853542
 30
0.0
 10
4646.077546093361
 20
2353.221605853542
 30
0.0
 10
4646.077073805313
 20
2353.221605853542
 30
0.0
 10
4646.076603711022
 20
2353.221605853542
 30
0.0
 10
4646.076135810875
 20
2353.221605853542
 30
0.0
 10
4646.075670105265
 20
2353.221605853542
 30
0.0
 10
4646.075206594583
 20
2353.221605853542
 30
0.0
 10
4646.074745279217
 20
2353.221605853542
 30
0.0
 10
4646.074286159559
 20
2353.221605853542
 30
0.0
 10
4646.073829235937
 20
2353.221605853542
 30
0.0
 10
4646.073374508879
 20
2353.221605853542
 30
0.0
 10
4646.072921978064
 20
2353.221605853542
 30
0.0
 10
4646.072471646273
 20
2353.221605853542
 30
0.0
 10
4646.072023504556
 20
2353.221605853542
 30
0.0
 10
4646.071105057789
 20
2353.221605853542
 30
0.0
 10
4646.069751481855
 20
2353.221605853542
 30
0.0
 10
4646.068033564415
 20
2353.221605853542
 30
0.0
 10
4646.066426173526
 20
2353.221605853542
 30
0.0
 10
4646.064939570085
 20
2353.221605853542
 30
0.0
 10
4646.063587733088
 20
2353.221605853542
 30
0.0
 10
4646.062392463405
 20
2353.221605853542
 30
0.0
 10
4646.061362721048
 20
2353.221605853542
 30
0.0
 10
4646.060661962633
 20
2353.221605853542
 30
0.0
 10
4646.060198699179
 20
2353.221605853542
 30
0.0
 10
4646.05990804463
 20
2353.221605853542
 30
0.0
 10
4646.059656163427
 20
2353.221605853542
 30
0.0
 10
4646.059443026933
 20
2353.221605853542
 30
0.0
 10
4646.059268709808
 20
2353.221605853542
 30
0.0
 10
4646.059132967547
 20
2353.221605853542
 30
0.0
 10
4646.059036720942
 20
2353.221605853542
 30
0.0
 10
4646.058976513859
 20
2353.221605853542
 30
0.0
 10
4646.058969102965
 20
2353.221605853542
 30
0.0
 10
4646.058965385123
 20
2353.221605853542
 30
0.0
  0
SPLINE
  5
2026
330
1F
100
AcDbEntity
  8
SANINDUSA
100
AcDbSpline
210
0.0
220
0.0
230
1.0
 70
    24
 71
     3
 72
     8
 73
     4
 74
     0
 42
0.0000000001
 43
0.0000000001
 40
0.0
 40
0.0
 40
0.0
 40
0.0
 40
1.0
 40
1.0
 40
1.0
 40
1.0
 10
4646.241503848808
 20
2353.221605853542
 30
0.0
 10
4646.240077194625
 20
2353.221605853542
 30
0.0
 10
4646.238650540443
 20
2353.221605853542
 30
0.0
 10
4646.237223886259
 20
2353.221605853542
 30
0.0
  0
SPLINE
  5
2027
330
1F
100
AcDbEntity
  8
SANINDUSA
100
AcDbSpline
210
0.0
220
0.0
230
1.0
 70
    24
 71
     3
 72
     8
 73
     4
 74
     0
 42
0.0000000001
 43
0.0000000001
 40
0.0
 40
0.0
 40
0.0
 40
0.0
 40
1.0
 40
1.0
 40
1.0
 40
1.0
 10
4646.237223886259
 20
2353.221605853542
 30
0.0
 10
4646.184634739061
 20
2353.221605853542
 30
0.0
 10
4646.132045591862
 20
2353.221605853542
 30
0.0
 10
4646.079456444664
 20
2353.221605853542
 30
0.0
  0
LINE
  5
202A
330
1F
100
AcDbEntity
  8
SANINDUSA
100
AcDbLine
 10
4646.222474185143
 20
2353.071605853542
 30
0.0
 11
4646.242462001684
 21
2353.071605853542
 31
0.0
  0
LINE
  5
202B
330
1F
100
AcDbEntity
  8
SANINDUSA
100
AcDbLine
 10
4646.062976912766
 20
2353.071605853542
 30
0.0
 11
4646.067973866901
 21
2353.071605853542
 31
0.0
  0
SPLINE
  5
202C
330
1F
100
AcDbEntity
  8
SANINDUSA
100
AcDbSpline
210
0.0
220
0.0
230
1.0
 70
    24
 71
     3
 72
    16
 73
    12
 74
     0
 42
0.0000000001
 43
0.0000000001
 40
0.0
 40
0.0
 40
0.0
 40
0.0
 40
0.2500000000000039
 40
0.2500000000000039
 40
0.3750000000000033
 40
0.3750000000000033
 40
0.5000000000000027
 40
0.5000000000000027
 40
0.7500000000000014
 40
0.7500000000000014
 40
1.0
 40
1.0
 40
1.0
 40
1.0
 10
4646.07974913428
 20
2353.071605853542
 30
0.0
 10
4646.080079285733
 20
2353.071605853542
 30
0.0
 10
4646.080403921255
 20
2353.071605853542
 30
0.0
 10
4646.080882937098
 20
2353.071605853542
 30
0.0
 10
4646.081041276318
 20
2353.071605853542
 30
0.0
 10
4646.081355228291
 20
2353.071605853542
 30
0.0
 10
4646.081511265733
 20
2353.071605853542
 30
0.0
 10
4646.081965155025
 20
2353.071605853542
 30
0.0
 10
4646.082252183787
 20
2353.071605853542
 30
0.0
 10
4646.082795393576
 20
2353.071605853542
 30
0.0
 10
4646.083052296112
 20
2353.071605853542
 30
0.0
 10
4646.083285548132
 20
2353.071605853542
 30
0.0
  0
LINE
  5
202D
330
1F
100
AcDbEntity
  8
SANINDUSA
100
AcDbLine
 10
4646.196789382676
 20
2353.071605853542
 30
0.0
 11
4646.222474185143
 21
2353.071605853542
 31
0.0
  0
LINE
  5
202E
330
1F
100
AcDbEntity
  8
SANINDUSA
100
AcDbLine
 10
4646.067973866901
 20
2353.071605853542
 30
0.0
 11
4646.07974913428
 21
2353.071605853542
 31
0.0
  0
LINE
  5
202F
330
1F
100
AcDbEntity
  8
SANINDUSA
100
AcDbLine
 10
4646.125039609406
 20
2353.071605853542
 30
0.0
 11
4646.083285548132
 21
2353.071605853542
 31
0.0
  0
ARC
  5
2052
330
1F
100
AcDbEntity
  8
SANINDUSA
100
AcDbCircle
 10
4646.282410803659
 20
2353.216590767095
 30
0.0
 40
0.0050150909645836
100
AcDbArc
 50
354.1185571442623
 51
89.92309140692061
  0
ENDSEC
  0
SECTION
  2
OBJECTS
  0
DICTIONARY
  5
C
330
0
100
AcDbDictionary
281
     1
  3
ACAD_2007HEADERVARS_RT
350
228F
  3
ACAD_BACKGROUND
350
222E
  3
ACAD_COLOR
350
EE6
  3
ACAD_GROUP
350
D
  3
ACAD_LAYOUT
350
1A
  3
ACAD_MATERIAL
350
EE5
  3
ACAD_MLEADERSTYLE
350
10A8
  3
ACAD_MLINESTYLE
350
17
  3
ACAD_PLOTSETTINGS
350
19
  3
ACAD_PLOTSTYLENAME
350
E
  3
ACAD_SCALELIST
350
1096
  3
ACAD_TABLESTYLE
350
EE7
  3
ACAD_VISUALSTYLE
350
1082
  3
ACDB_RECOMPOSE_DATA
350
228D
  3
AcDbVariableDictionary
350
3D
  3
AEC_PROPERTY_SET_DEFS
350
13D7
  3
ASE_INDEX_DICTIONARY
350
1066
  3
Autodesk_PNP
350
10B2
  3
DWGPROPS
350
228E
  0
DICTIONARY
  5
2245
330
8
100
AcDbDictionary
280
     1
281
     1
  0
DICTIONARY
  5
1051
330
2
100
AcDbDictionary
280
     1
281
     1
  3
ACAD_LAYERFILTERS
360
1065
  3
ACAD_LAYERSTATES
360
1242
  3
ACLYDICTIONARY
360
1064
  0
DICTIONARY
  5
21CA
330
10
100
AcDbDictionary
280
     1
281
     1
  3
ADSK_XREC_LAYER_RECONCILED
360
21CB
  0
DICTIONARY
  5
21CC
330
2F
100
AcDbDictionary
280
     1
281
     1
  3
ADSK_XREC_LAYER_RECONCILED
360
21CD
  0
DICTIONARY
  5
21CE
330
30
100
AcDbDictionary
280
     1
281
     1
  3
ADSK_XREC_LAYER_RECONCILED
360
21CF
  0
DICTIONARY
  5
21D0
330
31
100
AcDbDictionary
280
     1
281
     1
  3
ADSK_XREC_LAYER_RECONCILED
360
21D1
  0
DICTIONARY
  5
21D2
330
32
100
AcDbDictionary
280
     1
281
     1
  3
ADSK_XREC_LAYER_RECONCILED
360
21D3
  0
DICTIONARY
  5
21D4
330
33
100
AcDbDictionary
280
     1
281
     1
  3
ADSK_XREC_LAYER_RECONCILED
360
21D5
  0
DICTIONARY
  5
21D6
330
34
100
AcDbDictionary
280
     1
281
     1
  3
ADSK_XREC_LAYER_RECONCILED
360
21D7
  0
DICTIONARY
  5
21D8
330
35
100
AcDbDictionary
280
     1
281
     1
  3
ADSK_XREC_LAYER_RECONCILED
360
21D9
  0
DICTIONARY
  5
21DA
330
36
100
AcDbDictionary
280
     1
281
     1
  3
ADSK_XREC_LAYER_RECONCILED
360
21DB
  0
DICTIONARY
  5
21DC
330
37
100
AcDbDictionary
280
     1
281
     1
  3
ADSK_XREC_LAYER_RECONCILED
360
21DD
  0
DICTIONARY
  5
21DE
330
5D6
100
AcDbDictionary
280
     1
281
     1
  3
ADSK_XREC_LAYER_RECONCILED
360
21DF
  0
DICTIONARY
  5
21E0
330
8AF
100
AcDbDictionary
280
     1
281
     1
  3
ADSK_XREC_LAYER_RECONCILED
360
21E1
  0
DICTIONARY
  5
21E2
330
8F8
100
AcDbDictionary
280
     1
281
     1
  3
ADSK_XREC_LAYER_RECONCILED
360
21E3
  0
DICTIONARY
  5
21E4
330
91D
100
AcDbDictionary
280
     1
281
     1
  3
ADSK_XREC_LAYER_RECONCILED
360
21E5
  0
DICTIONARY
  5
21E6
330
C7B
100
AcDbDictionary
280
     1
281
     1
  3
ADSK_XREC_LAYER_RECONCILED
360
21E7
  0
DICTIONARY
  5
21E8
330
1060
100
AcDbDictionary
280
     1
281
     1
  3
ADSK_XREC_LAYER_RECONCILED
360
21E9
  0
DICTIONARY
  5
228F
102
{ACAD_REACTORS
330
C
102
}
330
C
100
AcDbDictionary
281
     1
  3
DIMJOGANG
350
2290
  0
DICTIONARY
  5
222E
102
{ACAD_REACTORS
330
C
102
}
330
C
100
AcDbDictionary
281
     1
  0
DICTIONARY
  5
EE6
102
{ACAD_REACTORS
330
C
102
}
330
C
100
AcDbDictionary
281
     1
  0
DICTIONARY
  5
D
102
{ACAD_REACTORS
330
C
102
}
330
C
100
AcDbDictionary
281
     1
  0
DICTIONARY
  5
1A
102
{ACAD_REACTORS
330
C
102
}
330
C
100
AcDbDictionary
281
     1
  3
Layout1
350
1E
  3
Layout2
350
26
  3
Model
350
22
  0
DICTIONARY
  5
EE5
102
{ACAD_REACTORS
330
C
102
}
330
C
100
AcDbDictionary
281
     1
  3
ByBlock
350
1072
  3
ByLayer
350
106A
  3
Global
350
107A
  0
DICTIONARY
  5
10A8
102
{ACAD_REACTORS
330
C
102
}
330
C
100
AcDbDictionary
281
     1
  3
Standard
350
10A9
  0
DICTIONARY
  5
17
102
{ACAD_REACTORS
330
C
102
}
330
C
100
AcDbDictionary
281
     1
  3
Standard
350
18
  0
DICTIONARY
  5
19
102
{ACAD_REACTORS
330
C
102
}
330
C
100
AcDbDictionary
281
     1
  0
ACDBDICTIONARYWDFLT
  5
E
102
{ACAD_REACTORS
330
C
102
}
330
C
100
AcDbDictionary
281
     1
  3
Normal
350
F
100
AcDbDictionaryWithDefault
340
F
  0
DICTIONARY
  5
1096
102
{ACAD_REACTORS
330
C
102
}
330
C
100
AcDbDictionary
281
     1
  3
A0
350
1097
  3
A1
350
1098
  3
A2
350
1099
  3
A3
350
109A
  3
A4
350
109B
  3
A5
350
109C
  3
A6
350
109D
  3
A7
350
109E
  3
A8
350
109F
  3
A9
350
10A0
  3
B0
350
10A1
  3
B1
350
10A2
  3
B2
350
10A3
  3
B3
350
10A4
  3
B4
350
10A5
  3
B5
350
10A6
  3
B6
350
10A7
  0
DICTIONARY
  5
EE7
102
{ACAD_REACTORS
330
C
102
}
330
C
100
AcDbDictionary
281
     1
  3
Standard
350
EE8
  0
DICTIONARY
  5
1082
102
{ACAD_REACTORS
330
C
102
}
330
C
100
AcDbDictionary
281
     1
  3
2dWireframe
350
1088
  3
3D Hidden
350
108A
  3
3dWireframe
350
1089
  3
Basic
350
1087
  3
Brighten
350
108E
  3
ColorChange
350
1092
  3
Conceptual
350
108B
  3
Dim
350
108D
  3
EdgeColorOff
350
1095
  3
Facepattern
350
1091
  3
Flat
350
1083
  3
FlatWithEdges
350
1084
  3
Gouraud
350
1085
  3
GouraudWithEdges
350
1086
  3
JitterOff
350
1093
  3
Linepattern
350
1090
  3
OverhangOff
350
1094
  3
Realistic
350
108C
  3
Thicken
350
108F
  0
XRECORD
  5
228D
102
{ACAD_REACTORS
330
C
102
}
330
C
100
AcDbXrecord
280
     1
 90
        1
330
EE8
  0
DICTIONARY
  5
3D
102
{ACAD_REACTORS
330
C
102
}
330
C
100
AcDbDictionary
281
     1
  3
CANNOSCALE
350
227F
  3
CMLEADERSTYLE
350
227E
  3
CTABLESTYLE
350
1049
  3
DIMASSOC
350
3F
  3
HIDETEXT
350
3E
  3
INDEXCTL
350
2281
  3
SORTENTS
350
2280
  3
XCLIPFRAME
350
228B
  0
DICTIONARY
  5
13D7
102
{ACAD_REACTORS
330
C
102
}
330
C
100
AcDbDictionary
281
     1
  0
DICTIONARY
  5
1066
102
{ACAD_REACTORS
330
C
102
}
330
C
100
AcDbDictionary
281
     1
  3
ASEBlockHierarchyIndexRecord
350
1067
1001
DCO15
1040
1602247867.484
  0
DICTIONARY
  5
10B2
102
{ACAD_REACTORS
330
C
102
}
330
C
100
AcDbDictionary
281
     1
  0
XRECORD
  5
228E
102
{ACAD_REACTORS
330
C
102
}
330
C
100
AcDbXrecord
280
     1
  1
DWGPROPS COOKIE
  2

  3

  4

  6

  7

  8
Julio
  9

300
=
301
=
302
=
303
=
304
=
305
=
306
=
307
=
308
=
309
=
 40
0.0322090277777778
 41
2455313.409987512
 42
2456111.751447477
  1

 90
        0
  0
DICTIONARY
  5
1065
102
{ACAD_REACTORS
330
1051
102
}
330
1051
100
AcDbDictionary
281
     1
  0
DICTIONARY
  5
1242
102
{ACAD_REACTORS
330
1051
102
}
330
1051
100
AcDbDictionary
281
     1
  0
DICTIONARY
  5
1064
102
{ACAD_REACTORS
330
1051
102
}
330
1051
100
AcDbDictionary
281
     1
1001
ACAD
1000
<All
  0
XRECORD
  5
21CB
102
{ACAD_REACTORS
330
21CA
102
}
330
21CA
100
AcDbXrecord
280
     1
290
     1
  0
XRECORD
  5
21CD
102
{ACAD_REACTORS
330
21CC
102
}
330
21CC
100
AcDbXrecord
280
     1
290
     1
  0
XRECORD
  5
21CF
102
{ACAD_REACTORS
330
21CE
102
}
330
21CE
100
AcDbXrecord
280
     1
290
     1
  0
XRECORD
  5
21D1
102
{ACAD_REACTORS
330
21D0
102
}
330
21D0
100
AcDbXrecord
280
     1
290
     1
  0
XRECORD
  5
21D3
102
{ACAD_REACTORS
330
21D2
102
}
330
21D2
100
AcDbXrecord
280
     1
290
     1
  0
XRECORD
  5
21D5
102
{ACAD_REACTORS
330
21D4
102
}
330
21D4
100
AcDbXrecord
280
     1
290
     1
  0
XRECORD
  5
21D7
102
{ACAD_REACTORS
330
21D6
102
}
330
21D6
100
AcDbXrecord
280
     1
290
     1
  0
XRECORD
  5
21D9
102
{ACAD_REACTORS
330
21D8
102
}
330
21D8
100
AcDbXrecord
280
     1
290
     1
  0
XRECORD
  5
21DB
102
{ACAD_REACTORS
330
21DA
102
}
330
21DA
100
AcDbXrecord
280
     1
290
     1
  0
XRECORD
  5
21DD
102
{ACAD_REACTORS
330
21DC
102
}
330
21DC
100
AcDbXrecord
280
     1
290
     1
  0
XRECORD
  5
21DF
102
{ACAD_REACTORS
330
21DE
102
}
330
21DE
100
AcDbXrecord
280
     1
290
     1
  0
XRECORD
  5
21E1
102
{ACAD_REACTORS
330
21E0
102
}
330
21E0
100
AcDbXrecord
280
     1
290
     1
  0
XRECORD
  5
21E3
102
{ACAD_REACTORS
330
21E2
102
}
330
21E2
100
AcDbXrecord
280
     1
290
     1
  0
XRECORD
  5
21E5
102
{ACAD_REACTORS
330
21E4
102
}
330
21E4
100
AcDbXrecord
280
     1
290
     1
  0
XRECORD
  5
21E7
102
{ACAD_REACTORS
330
21E6
102
}
330
21E6
100
AcDbXrecord
280
     1
290
     1
  0
XRECORD
  5
21E9
102
{ACAD_REACTORS
330
21E8
102
}
330
21E8
100
AcDbXrecord
280
     1
290
     1
  0
XRECORD
  5
2290
102
{ACAD_REACTORS
330
228F
102
}
330
228F
100
AcDbXrecord
280
     1
 40
1.570796326794896
  0
LAYOUT
  5
1E
102
{ACAD_XDICTIONARY
360
2291
102
}
102
{ACAD_REACTORS
330
1A
102
}
330
1A
100
AcDbPlotSettings
  1

  2
Ploter HP500
  4

  6

 40
0.0
 41
0.0
 42
0.0
 43
0.0
 44
0.0
 45
0.0
 46
0.0
 47
0.0
 48
0.0
 49
0.0
140
0.0
141
0.0
142
1.0
143
1.0
 70
   688
 72
     0
 73
     0
 74
     5
  7
sanindusa.ctb
 75
    16
147
1.0
148
0.0
149
0.0
100
AcDbLayout
  1
Layout1
 70
     1
 71
     1
 10
0.0
 20
0.0
 11
420.0
 21
297.0
 12
0.0
 22
0.0
 32
0.0
 14
1.000000000000000E+20
 24
1.000000000000000E+20
 34
1.000000000000000E+20
 15
-1.000000000000000E+20
 25
-1.000000000000000E+20
 35
-1.000000000000000E+20
146
0.0
 13
0.0
 23
0.0
 33
0.0
 16
1.0
 26
0.0
 36
0.0
 17
0.0
 27
1.0
 37
0.0
 76
     0
330
1B
  0
LAYOUT
  5
26
102
{ACAD_XDICTIONARY
360
2295
102
}
102
{ACAD_REACTORS
330
1A
102
}
330
1A
100
AcDbPlotSettings
  1

  2
Ploter HP500
  4

  6

 40
0.0
 41
0.0
 42
0.0
 43
0.0
 44
0.0
 45
0.0
 46
0.0
 47
0.0
 48
0.0
 49
0.0
140
0.0
141
0.0
142
1.0
143
1.0
 70
   688
 72
     0
 73
     0
 74
     5
  7
sanindusa.ctb
 75
    16
147
1.0
148
0.0
149
0.0
100
AcDbLayout
  1
Layout2
 70
     1
 71
     2
 10
0.0
 20
0.0
 11
12.0
 21
9.0
 12
0.0
 22
0.0
 32
0.0
 14
0.0
 24
0.0
 34
0.0
 15
0.0
 25
0.0
 35
0.0
146
0.0
 13
0.0
 23
0.0
 33
0.0
 16
1.0
 26
0.0
 36
0.0
 17
0.0
 27
1.0
 37
0.0
 76
     0
330
23
  0
LAYOUT
  5
22
102
{ACAD_XDICTIONARY
360
2293
102
}
102
{ACAD_REACTORS
330
1A
102
}
330
1A
100
AcDbPlotSettings
  1

  2
Ploter HP500
  4
User268
  6

 40
4.995333194732666
 41
16.97565841674804
 42
4.995330810546875
 43
16.97567749023437
 44
209.9733276367187
 45
296.9259948730469
 46
0.0
 47
0.0
 48
0.0
 49
0.0
140
0.0
141
0.0
142
1.0
143
1.0
 70
 11952
 72
     1
 73
     1
 74
     0
  7
sanindusa.ctb
 75
     0
147
1.0
148
-427.5957866592534
149
7.362384574453926
100
AcDbLayout
  1
Model
 70
     1
 71
     0
 10
0.0
 20
0.0
 11
12.0
 21
9.0
 12
0.0
 22
0.0
 32
0.0
 14
0.0
 24
0.0
 34
0.0
 15
0.0
 25
0.0
 35
0.0
146
0.0
 13
0.0
 23
0.0
 33
0.0
 16
1.0
 26
0.0
 36
0.0
 17
0.0
 27
1.0
 37
0.0
 76
     0
330
1F
331
1068
  0
MATERIAL
  5
1072
102
{ACAD_XDICTIONARY
360
1073
102
}
102
{ACAD_REACTORS
330
EE5
102
}
330
EE5
100
AcDbMaterial
  1
ByBlock
 72
     0
 43
0.0008202099737533
 43
0.0
 43
0.0
 43
0.0
 43
0.0
 43
0.0008202099737533
 43
0.0
 43
0.0
 43
0.0
 43
0.0
 43
1.0
 43
0.0
 43
0.0
 43
0.0
 43
0.0
 43
1.0
 77
     0
 47
0.0008202099737533
 47
0.0
 47
0.0
 47
0.0
 47
0.0
 47
0.0008202099737533
 47
0.0
 47
0.0
 47
0.0
 47
0.0
 47
1.0
 47
0.0
 47
0.0
 47
0.0
 47
0.0
 47
1.0
171
     0
 49
0.0008202099737533
 49
0.0
 49
0.0
 49
0.0
 49
0.0
 49
0.0008202099737533
 49
0.0
 49
0.0
 49
0.0
 49
0.0
 49
1.0
 49
0.0
 49
0.0
 49
0.0
 49
0.0
 49
1.0
175
     0
142
0.0008202099737533
142
0.0
142
0.0
142
0.0
142
0.0
142
0.0008202099737533
142
0.0
142
0.0
142
0.0
142
0.0
142
1.0
142
0.0
142
0.0
142
0.0
142
0.0
142
1.0
179
     0
144
0.0008202099737533
144
0.0
144
0.0
144
0.0
144
0.0
144
0.0008202099737533
144
0.0
144
0.0
144
0.0
144
0.0
144
1.0
144
0.0
144
0.0
144
0.0
144
0.0
144
1.0
147
0.0008202099737533
147
0.0
147
0.0
147
0.0
147
0.0
147
0.0008202099737533
147
0.0
147
0.0
147
0.0
147
0.0
147
1.0
147
0.0
147
0.0
147
0.0
147
0.0
147
1.0
  0
MATERIAL
  5
106A
102
{ACAD_XDICTIONARY
360
106B
102
}
102
{ACAD_REACTORS
330
EE5
102
}
330
EE5
100
AcDbMaterial
  1
ByLayer
 72
     0
 43
0.0008202099737533
 43
0.0
 43
0.0
 43
0.0
 43
0.0
 43
0.0008202099737533
 43
0.0
 43
0.0
 43
0.0
 43
0.0
 43
1.0
 43
0.0
 43
0.0
 43
0.0
 43
0.0
 43
1.0
 77
     0
 47
0.0008202099737533
 47
0.0
 47
0.0
 47
0.0
 47
0.0
 47
0.0008202099737533
 47
0.0
 47
0.0
 47
0.0
 47
0.0
 47
1.0
 47
0.0
 47
0.0
 47
0.0
 47
0.0
 47
1.0
171
     0
 49
0.0008202099737533
 49
0.0
 49
0.0
 49
0.0
 49
0.0
 49
0.0008202099737533
 49
0.0
 49
0.0
 49
0.0
 49
0.0
 49
1.0
 49
0.0
 49
0.0
 49
0.0
 49
0.0
 49
1.0
175
     0
142
0.0008202099737533
142
0.0
142
0.0
142
0.0
142
0.0
142
0.0008202099737533
142
0.0
142
0.0
142
0.0
142
0.0
142
1.0
142
0.0
142
0.0
142
0.0
142
0.0
142
1.0
179
     0
144
0.0008202099737533
144
0.0
144
0.0
144
0.0
144
0.0
144
0.0008202099737533
144
0.0
144
0.0
144
0.0
144
0.0
144
1.0
144
0.0
144
0.0
144
0.0
144
0.0
144
1.0
147
0.0008202099737533
147
0.0
147
0.0
147
0.0
147
0.0
147
0.0008202099737533
147
0.0
147
0.0
147
0.0
147
0.0
147
1.0
147
0.0
147
0.0
147
0.0
147
0.0
147
1.0
  0
MATERIAL
  5
107A
102
{ACAD_XDICTIONARY
360
107B
102
}
102
{ACAD_REACTORS
330
EE5
102
}
330
EE5
100
AcDbMaterial
  1
Global
 72
     0
 43
0.0008202099737533
 43
0.0
 43
0.0
 43
0.0
 43
0.0
 43
0.0008202099737533
 43
0.0
 43
0.0
 43
0.0
 43
0.0
 43
1.0
 43
0.0
 43
0.0
 43
0.0
 43
0.0
 43
1.0
 77
     0
 47
0.0008202099737533
 47
0.0
 47
0.0
 47
0.0
 47
0.0
 47
0.0008202099737533
 47
0.0
 47
0.0
 47
0.0
 47
0.0
 47
1.0
 47
0.0
 47
0.0
 47
0.0
 47
0.0
 47
1.0
171
     0
 49
0.0008202099737533
 49
0.0
 49
0.0
 49
0.0
 49
0.0
 49
0.0008202099737533
 49
0.0
 49
0.0
 49
0.0
 49
0.0
 49
1.0
 49
0.0
 49
0.0
 49
0.0
 49
0.0
 49
1.0
175
     0
142
0.0008202099737533
142
0.0
142
0.0
142
0.0
142
0.0
142
0.0008202099737533
142
0.0
142
0.0
142
0.0
142
0.0
142
1.0
142
0.0
142
0.0
142
0.0
142
0.0
142
1.0
179
     0
144
0.0008202099737533
144
0.0
144
0.0
144
0.0
144
0.0
144
0.0008202099737533
144
0.0
144
0.0
144
0.0
144
0.0
144
1.0
144
0.0
144
0.0
144
0.0
144
0.0
144
1.0
147
0.0008202099737533
147
0.0
147
0.0
147
0.0
147
0.0
147
0.0008202099737533
147
0.0
147
0.0
147
0.0
147
0.0
147
1.0
147
0.0
147
0.0
147
0.0
147
0.0
147
1.0
  0
MLEADERSTYLE
  5
10A9
102
{ACAD_REACTORS
330
10A8
102
}
330
10A8
100
AcDbMLeaderStyle
170
     2
171
     1
172
     0
 90
        2
 40
0.0
 41
0.0
173
     1
 91
-1056964608
340
14
 92
       -2
290
     1
 42
2.0
291
     1
 43
0.36
  3
Standard
 44
4.0
300

342
11
174
     1
178
     6
175
     1
176
     0
 93
-1056964608
 45
4.0
292
     0
297
     0
 46
4.0
 94
-1056964608
 47
1.0
 49
1.0
140
1.0
293
     1
141
0.0
294
     1
177
     0
142
1.0
295
     0
296
     0
143
0.125
1001
ACAD_MLEADERVER
1070
     2
  0
MLINESTYLE
  5
18
102
{ACAD_REACTORS
330
17
102
}
330
17
100
AcDbMlineStyle
  2
STANDARD
 70
     0
  3

 62
   256
 51
90.0
 52
90.0
 71
     2
 49
0.5
 62
   256
  6
BYLAYER
 49
-0.5
 62
   256
  6
BYLAYER
  0
ACDBPLACEHOLDER
  5
F
102
{ACAD_REACTORS
330
E
102
}
330
E
  0
SCALE
  5
1097
102
{ACAD_REACTORS
330
1096
102
}
330
1096
100
AcDbScale
 70
     0
300
1:1
140
1.0
141
1.0
290
     1
  0
SCALE
  5
1098
102
{ACAD_REACTORS
330
1096
102
}
330
1096
100
AcDbScale
 70
     0
300
1:2
140
1.0
141
2.0
290
     0
  0
SCALE
  5
1099
102
{ACAD_REACTORS
330
1096
102
}
330
1096
100
AcDbScale
 70
     0
300
1:4
140
1.0
141
4.0
290
     0
  0
SCALE
  5
109A
102
{ACAD_REACTORS
330
1096
102
}
330
1096
100
AcDbScale
 70
     0
300
1:5
140
1.0
141
5.0
290
     0
  0
SCALE
  5
109B
102
{ACAD_REACTORS
330
1096
102
}
330
1096
100
AcDbScale
 70
     0
300
1:8
140
1.0
141
8.0
290
     0
  0
SCALE
  5
109C
102
{ACAD_REACTORS
330
1096
102
}
330
1096
100
AcDbScale
 70
     0
300
1:10
140
1.0
141
10.0
290
     0
  0
SCALE
  5
109D
102
{ACAD_REACTORS
330
1096
102
}
330
1096
100
AcDbScale
 70
     0
300
1:16
140
1.0
141
16.0
290
     0
  0
SCALE
  5
109E
102
{ACAD_REACTORS
330
1096
102
}
330
1096
100
AcDbScale
 70
     0
300
1:20
140
1.0
141
20.0
290
     0
  0
SCALE
  5
109F
102
{ACAD_REACTORS
330
1096
102
}
330
1096
100
AcDbScale
 70
     0
300
1:30
140
1.0
141
30.0
290
     0
  0
SCALE
  5
10A0
102
{ACAD_REACTORS
330
1096
102
}
330
1096
100
AcDbScale
 70
     0
300
1:40
140
1.0
141
40.0
290
     0
  0
SCALE
  5
10A1
102
{ACAD_REACTORS
330
1096
102
}
330
1096
100
AcDbScale
 70
     0
300
1:50
140
1.0
141
50.0
290
     0
  0
SCALE
  5
10A2
102
{ACAD_REACTORS
330
1096
102
}
330
1096
100
AcDbScale
 70
     0
300
1:100
140
1.0
141
100.0
290
     0
  0
SCALE
  5
10A3
102
{ACAD_REACTORS
330
1096
102
}
330
1096
100
AcDbScale
 70
     0
300
2:1
140
2.0
141
1.0
290
     0
  0
SCALE
  5
10A4
102
{ACAD_REACTORS
330
1096
102
}
330
1096
100
AcDbScale
 70
     0
300
4:1
140
4.0
141
1.0
290
     0
  0
SCALE
  5
10A5
102
{ACAD_REACTORS
330
1096
102
}
330
1096
100
AcDbScale
 70
     0
300
8:1
140
8.0
141
1.0
290
     0
  0
SCALE
  5
10A6
102
{ACAD_REACTORS
330
1096
102
}
330
1096
100
AcDbScale
 70
     0
300
10:1
140
10.0
141
1.0
290
     0
  0
SCALE
  5
10A7
102
{ACAD_REACTORS
330
1096
102
}
330
1096
100
AcDbScale
 70
     0
300
100:1
140
100.0
141
1.0
290
     0
  0
TABLESTYLE
  5
EE8
102
{ACAD_XDICTIONARY
360
223F
102
}
102
{ACAD_REACTORS
330
EE7
102
}
330
EE7
100
AcDbTableStyle
  3
Standard
 70
     0
 71
     0
 40
1.5
 41
1.5
280
     0
281
     0
  7
Standard
140
4.5
170
     2
 62
     0
 63
     7
283
     0
274
    -2
284
     1
 64
     0
275
    -2
285
     1
 65
     0
276
    -2
286
     1
 66
     0
277
    -2
287
     1
 67
     0
278
    -2
288
     1
 68
     0
279
    -2
289
     1
 69
     0
  7
Standard
140
6.0
170
     5
 62
     0
 63
     7
283
     0
274
    -2
284
     1
 64
     0
275
    -2
285
     1
 65
     0
276
    -2
286
     1
 66
     0
277
    -2
287
     1
 67
     0
278
    -2
288
     1
 68
     0
279
    -2
289
     1
 69
     0
  7
Standard
140
4.5
170
     5
 62
     0
 63
     7
283
     0
274
    -2
284
     1
 64
     0
275
    -2
285
     1
 65
     0
276
    -2
286
     1
 66
     0
277
    -2
287
     1
 67
     0
278
    -2
288
     1
 68
     0
279
    -2
289
     1
 69
     0
  0
VISUALSTYLE
  5
1088
102
{ACAD_XDICTIONARY
360
22A5
102
}
102
{ACAD_REACTORS
330
1082
102
}
330
1082
100
AcDbVisualStyle
  2
2dWireframe
 70
     4
 71
     0
 72
     2
 73
     0
 90
        0
 40
-0.6
 41
-30.0
 62
     5
 63
     7
 74
     1
 91
        4
 64
     7
 65
   257
 75
     1
175
     1
 42
1.0
 92
        0
 66
   257
 43
1.0
 76
     1
 77
     6
 78
     2
 67
     7
 79
     5
170
     0
171
     0
290
     0
174
     0
 93
        1
 44
0.0
173
     0
291
     0
 45
0.0
1001
ACAD
1000
AcDbSavedByObjectVersion
1070
     0
  0
VISUALSTYLE
  5
108A
102
{ACAD_XDICTIONARY
360
22A9
102
}
102
{ACAD_REACTORS
330
1082
102
}
330
1082
100
AcDbVisualStyle
  2
3D Hidden
 70
     6
 71
     1
 72
     2
 73
     2
 90
        0
 40
-0.6
 41
-30.0
 62
     5
 63
     7
 74
     2
 91
        2
 64
     7
 65
   257
 75
     2
175
     1
 42
179.0
 92
        0
 66
   257
 43
1.0
 76
     1
 77
     6
 78
     2
 67
     7
 79
     3
170
     0
171
     0
290
     0
174
     0
 93
        1
 44
0.0
173
     0
291
     0
 45
0.0
1001
ACAD
1000
AcDbSavedByObjectVersion
1070
     0
  0
VISUALSTYLE
  5
1089
102
{ACAD_XDICTIONARY
360
22A7
102
}
102
{ACAD_REACTORS
330
1082
102
}
330
1082
100
AcDbVisualStyle
  2
3dWireframe
 70
     5
 71
     0
 72
     2
 73
     0
 90
        0
 40
-0.6
 41
-30.0
 62
     5
 63
     7
 74
     1
 91
        4
 64
     7
 65
   257
 75
     1
175
     1
 42
1.0
 92
        0
 66
   257
 43
1.0
 76
     1
 77
     6
 78
     2
 67
     7
 79
     5
170
     0
171
     0
290
     0
174
     0
 93
        1
 44
0.0
173
     0
291
     0
 45
0.0
1001
ACAD
1000
AcDbSavedByObjectVersion
1070
     0
  0
VISUALSTYLE
  5
1087
102
{ACAD_XDICTIONARY
360
22A3
102
}
102
{ACAD_REACTORS
330
1082
102
}
330
1082
100
AcDbVisualStyle
  2
Basic
 70
     7
 71
     1
 72
     0
 73
     1
 90
        0
 40
-0.6
 41
-30.0
 62
     5
 63
     7
 74
     0
 91
        4
 64
     7
 65
   257
 75
     1
175
     1
 42
1.0
 92
        8
 66
     7
 43
1.0
 76
     1
 77
     6
 78
     2
 67
     7
 79
     5
170
     0
171
     0
290
     0
174
     0
 93
        1
 44
0.0
173
     0
291
     1
 45
0.0
1001
ACAD
1000
AcDbSavedByObjectVersion
1070
     0
  0
VISUALSTYLE
  5
108E
102
{ACAD_XDICTIONARY
360
22B1
102
}
102
{ACAD_REACTORS
330
1082
102
}
330
1082
100
AcDbVisualStyle
  2
Brighten
 70
    12
 71
     2
 72
     2
 73
     0
 90
        0
 40
-0.6
 41
-30.0
 62
     5
 63
     7
 74
     1
 91
        4
 64
     7
 65
   257
 75
     1
175
     1
 42
1.0
 92
        8
 66
     7
 43
1.0
 76
     1
 77
     6
 78
     2
 67
     7
 79
     5
170
     0
171
     0
290
     0
174
     0
 93
        1
 44
50.0
173
     0
291
     1
 45
0.0
1001
ACAD
1000
AcDbSavedByObjectVersion
1070
     0
  0
VISUALSTYLE
  5
1092
102
{ACAD_XDICTIONARY
360
22B9
102
}
102
{ACAD_REACTORS
330
1082
102
}
330
1082
100
AcDbVisualStyle
  2
ColorChange
 70
    16
 71
     2
 72
     2
 73
     3
 90
        0
 40
-0.6
 41
-30.0
 62
     5
 63
     8
 74
     1
 91
        4
 64
     7
 65
   257
 75
     1
175
     1
 42
1.0
 92
        8
 66
     8
 43
1.0
 76
     1
 77
     6
 78
     2
 67
     7
 79
     5
170
     0
171
     0
290
     0
174
     0
 93
        1
 44
0.0
173
     0
291
     1
 45
0.0
1001
ACAD
1000
AcDbSavedByObjectVersion
1070
     0
  0
VISUALSTYLE
  5
108B
102
{ACAD_XDICTIONARY
360
22AB
102
}
102
{ACAD_REACTORS
330
1082
102
}
330
1082
100
AcDbVisualStyle
  2
Conceptual
 70
     9
 71
     3
 72
     2
 73
     0
 90
        0
 40
-0.6
 41
-30.0
 62
     5
 63
     7
 74
     2
 91
        2
 64
     7
 65
   257
 75
     1
175
     1
 42
179.0
 92
        8
 66
     7
 43
1.0
 76
     1
 77
     6
 78
     2
 67
     7
 79
     3
170
     0
171
     0
290
     0
174
     0
 93
        1
 44
0.0
173
     0
291
     0
 45
0.0
1001
ACAD
1000
AcDbSavedByObjectVersion
1070
     0
  0
VISUALSTYLE
  5
108D
102
{ACAD_XDICTIONARY
360
22AF
102
}
102
{ACAD_REACTORS
330
1082
102
}
330
1082
100
AcDbVisualStyle
  2
Dim
 70
    11
 71
     2
 72
     2
 73
     0
 90
        0
 40
-0.6
 41
-30.0
 62
     5
 63
     7
 74
     1
 91
        4
 64
     7
 65
   257
 75
     1
175
     1
 42
1.0
 92
        8
 66
     7
 43
1.0
 76
     1
 77
     6
 78
     2
 67
     7
 79
     5
170
     0
171
     0
290
     0
174
     0
 93
        1
 44
-50.0
173
     0
291
     1
 45
0.0
1001
ACAD
1000
AcDbSavedByObjectVersion
1070
     0
  0
VISUALSTYLE
  5
1095
102
{ACAD_XDICTIONARY
360
22BF
102
}
102
{ACAD_REACTORS
330
1082
102
}
330
1082
100
AcDbVisualStyle
  2
EdgeColorOff
 70
    22
 71
     2
 72
     2
 73
     0
 90
        0
 40
-0.6
 41
-30.0
 62
     5
 63
     7
 74
     1
 91
        4
 64
     7
 65
   257
 75
     1
175
     1
 42
1.0
 92
        8
 66
     7
 43
1.0
 76
     1
 77
     6
 78
     2
 67
     7
 79
     5
170
     0
171
     0
290
     0
174
     0
 93
        1
 44
0.0
173
     0
291
     1
 45
0.0
1001
ACAD
1000
AcDbSavedByObjectVersion
1070
     0
  0
VISUALSTYLE
  5
1091
102
{ACAD_XDICTIONARY
360
22B7
102
}
102
{ACAD_REACTORS
330
1082
102
}
330
1082
100
AcDbVisualStyle
  2
Facepattern
 70
    15
 71
     2
 72
     2
 73
     0
 90
        0
 40
-0.6
 41
-30.0
 62
     5
 63
     7
 74
     1
 91
        4
 64
     7
 65
   257
 75
     1
175
     1
 42
1.0
 92
        8
 66
     7
 43
1.0
 76
     1
 77
     6
 78
     2
 67
     7
 79
     5
170
     0
171
     0
290
     0
174
     0
 93
        1
 44
0.0
173
     0
291
     1
 45
0.0
1001
ACAD
1000
AcDbSavedByObjectVersion
1070
     0
  0
VISUALSTYLE
  5
1083
102
{ACAD_XDICTIONARY
360
229B
102
}
102
{ACAD_REACTORS
330
1082
102
}
330
1082
100
AcDbVisualStyle
  2
Flat
 70
     0
 71
     2
 72
     1
 73
     1
 90
        2
 40
-0.6
 41
30.0
 62
     5
 63
     7
 74
     0
 91
        4
 64
     7
 65
   257
 75
     1
175
     1
 42
1.0
 92
        8
 66
     7
 43
1.0
 76
     1
 77
     6
 78
     2
 67
     7
 79
     5
170
     0
171
     0
290
     0
174
     0
 93
       13
 44
0.0
173
     0
291
     1
 45
0.0
1001
ACAD
1000
AcDbSavedByObjectVersion
1070
     0
  0
VISUALSTYLE
  5
1084
102
{ACAD_XDICTIONARY
360
229D
102
}
102
{ACAD_REACTORS
330
1082
102
}
330
1082
100
AcDbVisualStyle
  2
FlatWithEdges
 70
     1
 71
     2
 72
     1
 73
     1
 90
        2
 40
-0.6
 41
30.0
 62
     5
 63
     7
 74
     1
 91
        4
 64
     7
 65
   257
 75
     1
175
     1
 42
1.0
 92
        0
 66
   257
 43
1.0
 76
     1
 77
     6
 78
     2
 67
     7
 79
     5
170
     0
171
     0
290
     0
174
     0
 93
       13
 44
0.0
173
     0
291
     1
 45
0.0
1001
ACAD
1000
AcDbSavedByObjectVersion
1070
     0
  0
VISUALSTYLE
  5
1085
102
{ACAD_XDICTIONARY
360
229F
102
}
102
{ACAD_REACTORS
330
1082
102
}
330
1082
100
AcDbVisualStyle
  2
Gouraud
 70
     2
 71
     2
 72
     2
 73
     1
 90
        2
 40
-0.6
 41
30.0
 62
     5
 63
     7
 74
     0
 91
        4
 64
     7
 65
   257
 75
     1
175
     1
 42
1.0
 92
        0
 66
     7
 43
1.0
 76
     1
 77
     6
 78
     2
 67
     7
 79
     5
170
     0
171
     0
290
     0
174
     0
 93
       13
 44
0.0
173
     0
291
     1
 45
0.0
1001
ACAD
1000
AcDbSavedByObjectVersion
1070
     0
  0
VISUALSTYLE
  5
1086
102
{ACAD_XDICTIONARY
360
22A1
102
}
102
{ACAD_REACTORS
330
1082
102
}
330
1082
100
AcDbVisualStyle
  2
GouraudWithEdges
 70
     3
 71
     2
 72
     2
 73
     1
 90
        2
 40
-0.6
 41
30.0
 62
     5
 63
     7
 74
     1
 91
        4
 64
     7
 65
   257
 75
     1
175
     1
 42
1.0
 92
        0
 66
   257
 43
1.0
 76
     1
 77
     6
 78
     2
 67
     7
 79
     5
170
     0
171
     0
290
     0
174
     0
 93
       13
 44
0.0
173
     0
291
     1
 45
0.0
1001
ACAD
1000
AcDbSavedByObjectVersion
1070
     0
  0
VISUALSTYLE
  5
1093
102
{ACAD_XDICTIONARY
360
22BB
102
}
102
{ACAD_REACTORS
330
1082
102
}
330
1082
100
AcDbVisualStyle
  2
JitterOff
 70
    20
 71
     2
 72
     2
 73
     0
 90
        0
 40
-0.6
 41
-30.0
 62
     5
 63
     7
 74
     1
 91
        4
 64
     7
 65
   257
 75
     1
175
     1
 42
1.0
 92
       10
 66
     7
 43
1.0
 76
     1
 77
     6
 78
     2
 67
     7
 79
     5
170
     0
171
     0
290
     0
174
     0
 93
        1
 44
0.0
173
     0
291
     1
 45
0.0
1001
ACAD
1000
AcDbSavedByObjectVersion
1070
     0
  0
VISUALSTYLE
  5
1090
102
{ACAD_XDICTIONARY
360
22B5
102
}
102
{ACAD_REACTORS
330
1082
102
}
330
1082
100
AcDbVisualStyle
  2
Linepattern
 70
    14
 71
     2
 72
     2
 73
     0
 90
        0
 40
-0.6
 41
-30.0
 62
     5
 63
     7
 74
     1
 91
        4
 64
     7
 65
   257
 75
     7
175
     7
 42
1.0
 92
        8
 66
     7
 43
1.0
 76
     1
 77
     6
 78
     2
 67
     7
 79
     5
170
     0
171
     0
290
     0
174
     0
 93
        1
 44
0.0
173
     0
291
     1
 45
0.0
1001
ACAD
1000
AcDbSavedByObjectVersion
1070
     0
  0
VISUALSTYLE
  5
1094
102
{ACAD_XDICTIONARY
360
22BD
102
}
102
{ACAD_REACTORS
330
1082
102
}
330
1082
100
AcDbVisualStyle
  2
OverhangOff
 70
    21
 71
     2
 72
     2
 73
     0
 90
        0
 40
-0.6
 41
-30.0
 62
     5
 63
     7
 74
     1
 91
        4
 64
     7
 65
   257
 75
     1
175
     1
 42
1.0
 92
        9
 66
     7
 43
1.0
 76
     1
 77
     6
 78
     2
 67
     7
 79
     5
170
     0
171
     0
290
     0
174
     0
 93
        1
 44
0.0
173
     0
291
     1
 45
0.0
1001
ACAD
1000
AcDbSavedByObjectVersion
1070
     0
  0
VISUALSTYLE
  5
108C
102
{ACAD_XDICTIONARY
360
22AD
102
}
102
{ACAD_REACTORS
330
1082
102
}
330
1082
100
AcDbVisualStyle
  2
Realistic
 70
     8
 71
     2
 72
     2
 73
     0
 90
        0
 40
-0.6
 41
-30.0
 62
     5
 63
     7
 74
     1
 91
        0
 64
     7
 65
   257
 75
     1
175
     1
 42
1.0
 92
        8
 66
     8
 43
1.0
 76
     1
 77
     6
 78
     2
 67
     7
 79
     5
170
     0
171
     0
290
     0
174
     0
 93
       13
 44
0.0
173
     0
291
     0
 45
0.0
1001
ACAD
1000
AcDbSavedByObjectVersion
1070
     0
  0
VISUALSTYLE
  5
108F
102
{ACAD_XDICTIONARY
360
22B3
102
}
102
{ACAD_REACTORS
330
1082
102
}
330
1082
100
AcDbVisualStyle
  2
Thicken
 70
    13
 71
     2
 72
     2
 73
     0
 90
        0
 40
-0.6
 41
-30.0
 62
     5
 63
     7
 74
     1
 91
        4
 64
     7
 65
   257
 75
     1
175
     1
 42
1.0
 92
       12
 66
     7
 43
1.0
 76
     1
 77
     6
 78
     2
 67
     7
 79
     5
170
     0
171
     0
290
     0
174
     0
 93
        1
 44
0.0
173
     0
291
     1
 45
0.0
1001
ACAD
1000
AcDbSavedByObjectVersion
1070
     0
  0
DICTIONARYVAR
  5
227F
102
{ACAD_REACTORS
330
3D
102
}
330
3D
100
DictionaryVariables
280
     0
  1
1:1
  0
DICTIONARYVAR
  5
227E
102
{ACAD_REACTORS
330
3D
102
}
330
3D
100
DictionaryVariables
280
     0
  1
STANDARD
  0
DICTIONARYVAR
  5
1049
102
{ACAD_REACTORS
330
3D
102
}
330
3D
100
DictionaryVariables
280
     0
  1
STANDARD
  0
DICTIONARYVAR
  5
3F
102
{ACAD_REACTORS
330
3D
102
}
330
3D
100
DictionaryVariables
280
     0
  1
2
  0
DICTIONARYVAR
  5
3E
102
{ACAD_REACTORS
330
3D
102
}
330
3D
100
DictionaryVariables
280
     0
  1
1
  0
DICTIONARYVAR
  5
2281
102
{ACAD_REACTORS
330
3D
102
}
330
3D
100
DictionaryVariables
280
     0
  1
0
  0
DICTIONARYVAR
  5
2280
102
{ACAD_REACTORS
330
3D
102
}
330
3D
100
DictionaryVariables
280
     0
  1
127
  0
DICTIONARYVAR
  5
228B
102
{ACAD_REACTORS
330
3D
102
}
330
3D
100
DictionaryVariables
280
     0
  1
2
  0
XRECORD
  5
1067
102
{ACAD_REACTORS
330
1066
102
}
330
1066
100
AcDbXrecord
280
     1
  0
DICTIONARY
  5
2291
330
1E
100
AcDbDictionary
280
     1
281
     1
  3
ACAD_XREC_ROUNDTRIP
360
2292
  0
DICTIONARY
  5
2295
330
26
100
AcDbDictionary
280
     1
281
     1
  3
ACAD_XREC_ROUNDTRIP
360
2296
  0
DICTIONARY
  5
2293
330
22
100
AcDbDictionary
280
     1
281
     1
  3
ACAD_XREC_ROUNDTRIP
360
2294
  0
DICTIONARY
  5
1073
330
1072
100
AcDbDictionary
280
     1
281
     1
  3
ACAD_XREC_ROUNDTRIP
360
2299
  3
BUMPTILE
360
1075
  3
DIFFUSETILE
360
1074
  3
OPACITYTILE
360
1078
  3
REFLECTIONTILE
360
1077
  3
REFRACTIONTILE
360
1079
  3
SPECULARTILE
360
1076
  0
DICTIONARY
  5
106B
330
106A
100
AcDbDictionary
280
     1
281
     1
  3
ACAD_XREC_ROUNDTRIP
360
2298
  3
BUMPTILE
360
106D
  3
DIFFUSETILE
360
106C
  3
OPACITYTILE
360
1070
  3
REFLECTIONTILE
360
106F
  3
REFRACTIONTILE
360
1071
  3
SPECULARTILE
360
106E
  0
DICTIONARY
  5
107B
330
107A
100
AcDbDictionary
280
     1
281
     1
  3
ACAD_XREC_ROUNDTRIP
360
229A
  3
BUMPTILE
360
107D
  3
DIFFUSETILE
360
107C
  3
OPACITYTILE
360
1080
  3
REFLECTIONTILE
360
107F
  3
REFRACTIONTILE
360
1081
  3
SPECULARTILE
360
107E
  0
DICTIONARY
  5
223F
330
EE8
100
AcDbDictionary
280
     1
281
     1
  3
ACAD_ROUNDTRIP_2008_TABLESTYLE_CELLSTYLEMAP
360
228C
  3
ACAD_XREC_ROUNDTRIP
360
2297
  0
DICTIONARY
  5
22A5
330
1088
100
AcDbDictionary
280
     1
281
     1
  3
ACAD_XREC_ROUNDTRIP
360
22A6
  0
DICTIONARY
  5
22A9
330
108A
100
AcDbDictionary
280
     1
281
     1
  3
ACAD_XREC_ROUNDTRIP
360
22AA
  0
DICTIONARY
  5
22A7
330
1089
100
AcDbDictionary
280
     1
281
     1
  3
ACAD_XREC_ROUNDTRIP
360
22A8
  0
DICTIONARY
  5
22A3
330
1087
100
AcDbDictionary
280
     1
281
     1
  3
ACAD_XREC_ROUNDTRIP
360
22A4
  0
DICTIONARY
  5
22B1
330
108E
100
AcDbDictionary
280
     1
281
     1
  3
ACAD_XREC_ROUNDTRIP
360
22B2
  0
DICTIONARY
  5
22B9
330
1092
100
AcDbDictionary
280
     1
281
     1
  3
ACAD_XREC_ROUNDTRIP
360
22BA
  0
DICTIONARY
  5
22AB
330
108B
100
AcDbDictionary
280
     1
281
     1
  3
ACAD_XREC_ROUNDTRIP
360
22AC
  0
DICTIONARY
  5
22AF
330
108D
100
AcDbDictionary
280
     1
281
     1
  3
ACAD_XREC_ROUNDTRIP
360
22B0
  0
DICTIONARY
  5
22BF
330
1095
100
AcDbDictionary
280
     1
281
     1
  3
ACAD_XREC_ROUNDTRIP
360
22C0
  0
DICTIONARY
  5
22B7
330
1091
100
AcDbDictionary
280
     1
281
     1
  3
ACAD_XREC_ROUNDTRIP
360
22B8
  0
DICTIONARY
  5
229B
330
1083
100
AcDbDictionary
280
     1
281
     1
  3
ACAD_XREC_ROUNDTRIP
360
229C
  0
DICTIONARY
  5
229D
330
1084
100
AcDbDictionary
280
     1
281
     1
  3
ACAD_XREC_ROUNDTRIP
360
229E
  0
DICTIONARY
  5
229F
330
1085
100
AcDbDictionary
280
     1
281
     1
  3
ACAD_XREC_ROUNDTRIP
360
22A0
  0
DICTIONARY
  5
22A1
330
1086
100
AcDbDictionary
280
     1
281
     1
  3
ACAD_XREC_ROUNDTRIP
360
22A2
  0
DICTIONARY
  5
22BB
330
1093
100
AcDbDictionary
280
     1
281
     1
  3
ACAD_XREC_ROUNDTRIP
360
22BC
  0
DICTIONARY
  5
22B5
330
1090
100
AcDbDictionary
280
     1
281
     1
  3
ACAD_XREC_ROUNDTRIP
360
22B6
  0
DICTIONARY
  5
22BD
330
1094
100
AcDbDictionary
280
     1
281
     1
  3
ACAD_XREC_ROUNDTRIP
360
22BE
  0
DICTIONARY
  5
22AD
330
108C
100
AcDbDictionary
280
     1
281
     1
  3
ACAD_XREC_ROUNDTRIP
360
22AE
  0
DICTIONARY
  5
22B3
330
108F
100
AcDbDictionary
280
     1
281
     1
  3
ACAD_XREC_ROUNDTRIP
360
22B4
  0
XRECORD
  5
2292
102
{ACAD_REACTORS
330
2291
102
}
330
2291
100
AcDbXrecord
280
     1
102
SHADEPLOT
 70
     0
102
SHADEPLOTRESLEVEL
 70
     2
102
SHADEPLOTCUSTOMDPI
 70
   300
  0
XRECORD
  5
2296
102
{ACAD_REACTORS
330
2295
102
}
330
2295
100
AcDbXrecord
280
     1
102
SHADEPLOT
 70
     0
102
SHADEPLOTRESLEVEL
 70
     2
102
SHADEPLOTCUSTOMDPI
 70
   300
  0
XRECORD
  5
2294
102
{ACAD_REACTORS
330
2293
102
}
330
2293
100
AcDbXrecord
280
     1
102
SHADEPLOT
 70
     0
102
SHADEPLOTRESLEVEL
 70
     2
102
SHADEPLOTCUSTOMDPI
 70
   300
  0
XRECORD
  5
2299
102
{ACAD_REACTORS
330
1073
102
}
330
1073
100
AcDbXrecord
280
     1
102
MATERIAL
148
0.0
149
0.0
149
0.0
 93
        0
 94
      127
282
     0
 72
     0
 77
     0
171
     0
175
     0
179
     0
273
     0
  0
XRECORD
  5
1075
102
{ACAD_REACTORS
330
1073
102
}
330
1073
100
AcDbXrecord
280
     1
270
     1
271
     1
  0
XRECORD
  5
1074
102
{ACAD_REACTORS
330
1073
102
}
330
1073
100
AcDbXrecord
280
     1
270
     1
271
     1
  0
XRECORD
  5
1078
102
{ACAD_REACTORS
330
1073
102
}
330
1073
100
AcDbXrecord
280
     1
270
     1
271
     1
  0
XRECORD
  5
1077
102
{ACAD_REACTORS
330
1073
102
}
330
1073
100
AcDbXrecord
280
     1
270
     1
271
     1
  0
XRECORD
  5
1079
102
{ACAD_REACTORS
330
1073
102
}
330
1073
100
AcDbXrecord
280
     1
270
     1
271
     1
  0
XRECORD
  5
1076
102
{ACAD_REACTORS
330
1073
102
}
330
1073
100
AcDbXrecord
280
     1
270
     1
271
     1
  0
XRECORD
  5
2298
102
{ACAD_REACTORS
330
106B
102
}
330
106B
100
AcDbXrecord
280
     1
102
MATERIAL
148
0.0
149
0.0
149
0.0
 93
        0
 94
      127
282
     0
 72
     0
 77
     0
171
     0
175
     0
179
     0
273
     0
  0
XRECORD
  5
106D
102
{ACAD_REACTORS
330
106B
102
}
330
106B
100
AcDbXrecord
280
     1
270
     1
271
     1
  0
XRECORD
  5
106C
102
{ACAD_REACTORS
330
106B
102
}
330
106B
100
AcDbXrecord
280
     1
270
     1
271
     1
  0
XRECORD
  5
1070
102
{ACAD_REACTORS
330
106B
102
}
330
106B
100
AcDbXrecord
280
     1
270
     1
271
     1
  0
XRECORD
  5
106F
102
{ACAD_REACTORS
330
106B
102
}
330
106B
100
AcDbXrecord
280
     1
270
     1
271
     1
  0
XRECORD
  5
1071
102
{ACAD_REACTORS
330
106B
102
}
330
106B
100
AcDbXrecord
280
     1
270
     1
271
     1
  0
XRECORD
  5
106E
102
{ACAD_REACTORS
330
106B
102
}
330
106B
100
AcDbXrecord
280
     1
270
     1
271
     1
  0
XRECORD
  5
229A
102
{ACAD_REACTORS
330
107B
102
}
330
107B
100
AcDbXrecord
280
     1
102
MATERIAL
148
0.0
149
0.0
149
0.0
 93
        0
 94
      127
282
     0
 72
     0
 77
     0
171
     0
175
     0
179
     0
273
     0
  0
XRECORD
  5
107D
102
{ACAD_REACTORS
330
107B
102
}
330
107B
100
AcDbXrecord
280
     1
270
     1
271
     1
  0
XRECORD
  5
107C
102
{ACAD_REACTORS
330
107B
102
}
330
107B
100
AcDbXrecord
280
     1
270
     1
271
     1
  0
XRECORD
  5
1080
102
{ACAD_REACTORS
330
107B
102
}
330
107B
100
AcDbXrecord
280
     1
270
     1
271
     1
  0
XRECORD
  5
107F
102
{ACAD_REACTORS
330
107B
102
}
330
107B
100
AcDbXrecord
280
     1
270
     1
271
     1
  0
XRECORD
  5
1081
102
{ACAD_REACTORS
330
107B
102
}
330
107B
100
AcDbXrecord
280
     1
270
     1
271
     1
  0
XRECORD
  5
107E
102
{ACAD_REACTORS
330
107B
102
}
330
107B
100
AcDbXrecord
280
     1
270
     1
271
     1
  0
CELLSTYLEMAP
  5
228C
102
{ACAD_REACTORS
330
223F
102
}
330
223F
100
AcDbCellStyleMap
 90
        3
300
CELLSTYLE
  1
TABLEFORMAT_BEGIN
 90
        5
170
     1
 91
        0
 92
    32768
 62
   257
 93
        1
300
CONTENTFORMAT
  1
CONTENTFORMAT_BEGIN
 90
        0
 91
        0
 92
        4
 93
        0
300

 40
0.0
140
1.0
 94
        5
 62
     0
340
11
144
6.0
309
CONTENTFORMAT_END
171
     1
301
MARGIN
  1
CELLMARGIN_BEGIN
 40
1.5
 40
1.5
 40
1.5
 40
1.5
 40
0.18
 40
0.18
309
CELLMARGIN_END
 94
        6
 95
        1
302
GRIDFORMAT
  1
GRIDFORMAT_BEGIN
 90
        0
 91
        1
 62
     0
 92
       -2
340
0
 93
        0
 40
0.045
309
GRIDFORMAT_END
 95
        2
302
GRIDFORMAT
  1
GRIDFORMAT_BEGIN
 90
        0
 91
        1
 62
     0
 92
       -2
340
0
 93
        0
 40
0.045
309
GRIDFORMAT_END
 95
        4
302
GRIDFORMAT
  1
GRIDFORMAT_BEGIN
 90
        0
 91
        1
 62
     0
 92
       -2
340
0
 93
        0
 40
0.045
309
GRIDFORMAT_END
 95
        8
302
GRIDFORMAT
  1
GRIDFORMAT_BEGIN
 90
        0
 91
        1
 62
     0
 92
       -2
340
0
 93
        0
 40
0.045
309
GRIDFORMAT_END
 95
       16
302
GRIDFORMAT
  1
GRIDFORMAT_BEGIN
 90
        0
 91
        1
 62
     0
 92
       -2
340
0
 93
        0
 40
0.045
309
GRIDFORMAT_END
 95
       32
302
GRIDFORMAT
  1
GRIDFORMAT_BEGIN
 90
        0
 91
        1
 62
     0
 92
       -2
340
0
 93
        0
 40
0.045
309
GRIDFORMAT_END
309
TABLEFORMAT_END
  1
CELLSTYLE_BEGIN
 90
        1
 91
        1
300
_TITLE
309
CELLSTYLE_END
300
CELLSTYLE
  1
TABLEFORMAT_BEGIN
 90
        5
170
     1
 91
        0
 92
        0
 62
   257
 93
        1
300
CONTENTFORMAT
  1
CONTENTFORMAT_BEGIN
 90
        0
 91
        0
 92
        4
 93
        0
300

 40
0.0
140
1.0
 94
        5
 62
     0
340
11
144
4.5
309
CONTENTFORMAT_END
171
     1
301
MARGIN
  1
CELLMARGIN_BEGIN
 40
1.5
 40
1.5
 40
1.5
 40
1.5
 40
0.18
 40
0.18
309
CELLMARGIN_END
 94
        6
 95
        1
302
GRIDFORMAT
  1
GRIDFORMAT_BEGIN
 90
        0
 91
        1
 62
     0
 92
       -2
340
0
 93
        0
 40
0.045
309
GRIDFORMAT_END
 95
        2
302
GRIDFORMAT
  1
GRIDFORMAT_BEGIN
 90
        0
 91
        1
 62
     0
 92
       -2
340
0
 93
        0
 40
0.045
309
GRIDFORMAT_END
 95
        4
302
GRIDFORMAT
  1
GRIDFORMAT_BEGIN
 90
        0
 91
        1
 62
     0
 92
       -2
340
0
 93
        0
 40
0.045
309
GRIDFORMAT_END
 95
        8
302
GRIDFORMAT
  1
GRIDFORMAT_BEGIN
 90
        0
 91
        1
 62
     0
 92
       -2
340
0
 93
        0
 40
0.045
309
GRIDFORMAT_END
 95
       16
302
GRIDFORMAT
  1
GRIDFORMAT_BEGIN
 90
        0
 91
        1
 62
     0
 92
       -2
340
0
 93
        0
 40
0.045
309
GRIDFORMAT_END
 95
       32
302
GRIDFORMAT
  1
GRIDFORMAT_BEGIN
 90
        0
 91
        1
 62
     0
 92
       -2
340
0
 93
        0
 40
0.045
309
GRIDFORMAT_END
309
TABLEFORMAT_END
  1
CELLSTYLE_BEGIN
 90
        2
 91
        1
300
_HEADER
309
CELLSTYLE_END
300
CELLSTYLE
  1
TABLEFORMAT_BEGIN
 90
        5
170
     1
 91
        0
 92
        0
 62
   257
 93
        1
300
CONTENTFORMAT
  1
CONTENTFORMAT_BEGIN
 90
        0
 91
        0
 92
        4
 93
        0
300

 40
0.0
140
1.0
 94
        2
 62
     0
340
11
144
4.5
309
CONTENTFORMAT_END
171
     1
301
MARGIN
  1
CELLMARGIN_BEGIN
 40
1.5
 40
1.5
 40
1.5
 40
1.5
 40
0.18
 40
0.18
309
CELLMARGIN_END
 94
        6
 95
        1
302
GRIDFORMAT
  1
GRIDFORMAT_BEGIN
 90
        0
 91
        1
 62
     0
 92
       -2
340
0
 93
        0
 40
0.045
309
GRIDFORMAT_END
 95
        2
302
GRIDFORMAT
  1
GRIDFORMAT_BEGIN
 90
        0
 91
        1
 62
     0
 92
       -2
340
0
 93
        0
 40
0.045
309
GRIDFORMAT_END
 95
        4
302
GRIDFORMAT
  1
GRIDFORMAT_BEGIN
 90
        0
 91
        1
 62
     0
 92
       -2
340
0
 93
        0
 40
0.045
309
GRIDFORMAT_END
 95
        8
302
GRIDFORMAT
  1
GRIDFORMAT_BEGIN
 90
        0
 91
        1
 62
     0
 92
       -2
340
0
 93
        0
 40
0.045
309
GRIDFORMAT_END
 95
       16
302
GRIDFORMAT
  1
GRIDFORMAT_BEGIN
 90
        0
 91
        1
 62
     0
 92
       -2
340
0
 93
        0
 40
0.045
309
GRIDFORMAT_END
 95
       32
302
GRIDFORMAT
  1
GRIDFORMAT_BEGIN
 90
        0
 91
        1
 62
     0
 92
       -2
340
0
 93
        0
 40
0.045
309
GRIDFORMAT_END
309
TABLEFORMAT_END
  1
CELLSTYLE_BEGIN
 90
        3
 91
        2
300
_DATA
309
CELLSTYLE_END
  0
XRECORD
  5
2297
102
{ACAD_REACTORS
330
223F
102
}
330
223F
100
AcDbXrecord
280
     1
102
ACAD_ROUNDTRIP_PRE2007_TABLESTYLE
 90
        4
 91
        0
  1

 92
        4
 93
        0
  2

 94
        4
 95
        0
  3

  0
XRECORD
  5
22A6
102
{ACAD_REACTORS
330
22A5
102
}
330
22A5
100
AcDbXrecord
280
     1
102
RTVSPropertyOp0
 70
     1
102
RTVSPropertyOp1
 70
     1
102
RTVSPropertyOp2
 70
     1
102
RTVSPropertyOp3
 70
     1
102
RTVSPropertyOp4
 70
     1
102
RTVSPropertyOp5
 70
     1
102
RTVSPropertyOp6
 70
     1
102
RTVSPropertyOp7
 70
     1
102
RTVSPropertyOp8
 70
     1
102
RTVSPropertyOp9
 70
     1
102
RTVSPropertyOp10
 70
     1
102
RTVSPropertyOp11
 70
     1
102
RTVSPropertyOp12
 70
     1
102
RTVSPropertyOp13
 70
     1
102
RTVSPropertyOp14
 70
     1
102
RTVSPropertyOp15
 70
     1
102
RTVSPropertyOp16
 70
     1
102
RTVSPropertyOp17
 70
     1
102
RTVSPropertyOp18
 70
     1
102
RTVSPropertyOp19
 70
     1
102
RTVSPropertyOp20
 70
     1
102
RTVSPropertyOp21
 70
     1
102
RTVSPropertyOp22
 70
     1
102
RTVSPropertyOp23
 70
     1
102
RTVSPropertyOp24
 70
     1
102
RTVSPropertyOp25
 70
     1
102
RTVSPropertyOp26
 70
     1
102
RTVSPropertyOp27
 70
     1
  0
XRECORD
  5
22AA
102
{ACAD_REACTORS
330
22A9
102
}
330
22A9
100
AcDbXrecord
280
     1
102
RTVSPropertyOp0
 70
     1
102
RTVSPropertyOp1
 70
     1
102
RTVSPropertyOp2
 70
     1
102
RTVSPropertyOp3
 70
     1
102
RTVSPropertyOp4
 70
     1
102
RTVSPropertyOp5
 70
     1
102
RTVSPropertyOp6
 70
     1
102
RTVSPropertyOp7
 70
     1
102
RTVSPropertyOp8
 70
     1
102
RTVSPropertyOp9
 70
     1
102
RTVSPropertyOp10
 70
     1
102
RTVSPropertyOp11
 70
     1
102
RTVSPropertyOp12
 70
     1
102
RTVSPropertyOp13
 70
     1
102
RTVSPropertyOp14
 70
     1
102
RTVSPropertyOp15
 70
     1
102
RTVSPropertyOp16
 70
     1
102
RTVSPropertyOp17
 70
     1
102
RTVSPropertyOp18
 70
     1
102
RTVSPropertyOp19
 70
     1
102
RTVSPropertyOp20
 70
     1
102
RTVSPropertyOp21
 70
     1
102
RTVSPropertyOp22
 70
     1
102
RTVSPropertyOp23
 70
     1
102
RTVSPropertyOp24
 70
     1
102
RTVSPropertyOp25
 70
     1
102
RTVSPropertyOp26
 70
     1
102
RTVSPropertyOp27
 70
     1
  0
XRECORD
  5
22A8
102
{ACAD_REACTORS
330
22A7
102
}
330
22A7
100
AcDbXrecord
280
     1
102
RTVSPropertyOp0
 70
     1
102
RTVSPropertyOp1
 70
     1
102
RTVSPropertyOp2
 70
     1
102
RTVSPropertyOp3
 70
     1
102
RTVSPropertyOp4
 70
     1
102
RTVSPropertyOp5
 70
     1
102
RTVSPropertyOp6
 70
     1
102
RTVSPropertyOp7
 70
     1
102
RTVSPropertyOp8
 70
     1
102
RTVSPropertyOp9
 70
     1
102
RTVSPropertyOp10
 70
     1
102
RTVSPropertyOp11
 70
     1
102
RTVSPropertyOp12
 70
     1
102
RTVSPropertyOp13
 70
     1
102
RTVSPropertyOp14
 70
     1
102
RTVSPropertyOp15
 70
     1
102
RTVSPropertyOp16
 70
     1
102
RTVSPropertyOp17
 70
     1
102
RTVSPropertyOp18
 70
     1
102
RTVSPropertyOp19
 70
     1
102
RTVSPropertyOp20
 70
     1
102
RTVSPropertyOp21
 70
     1
102
RTVSPropertyOp22
 70
     1
102
RTVSPropertyOp23
 70
     1
102
RTVSPropertyOp24
 70
     1
102
RTVSPropertyOp25
 70
     1
102
RTVSPropertyOp26
 70
     1
102
RTVSPropertyOp27
 70
     1
  0
XRECORD
  5
22A4
102
{ACAD_REACTORS
330
22A3
102
}
330
22A3
100
AcDbXrecord
280
     1
102
RTVSPropertyOp0
 70
     1
102
RTVSPropertyOp1
 70
     1
102
RTVSPropertyOp2
 70
     1
102
RTVSPropertyOp3
 70
     1
102
RTVSPropertyOp4
 70
     1
102
RTVSPropertyOp5
 70
     1
102
RTVSPropertyOp6
 70
     1
102
RTVSPropertyOp7
 70
     1
102
RTVSPropertyOp8
 70
     1
102
RTVSPropertyOp9
 70
     1
102
RTVSPropertyOp10
 70
     1
102
RTVSPropertyOp11
 70
     1
102
RTVSPropertyOp12
 70
     1
102
RTVSPropertyOp13
 70
     1
102
RTVSPropertyOp14
 70
     1
102
RTVSPropertyOp15
 70
     1
102
RTVSPropertyOp16
 70
     1
102
RTVSPropertyOp17
 70
     1
102
RTVSPropertyOp18
 70
     1
102
RTVSPropertyOp19
 70
     1
102
RTVSPropertyOp20
 70
     1
102
RTVSPropertyOp21
 70
     1
102
RTVSPropertyOp22
 70
     1
102
RTVSPropertyOp23
 70
     1
102
RTVSPropertyOp24
 70
     1
102
RTVSPropertyOp25
 70
     1
102
RTVSPropertyOp26
 70
     1
102
RTVSPropertyOp27
 70
     1
  0
XRECORD
  5
22B2
102
{ACAD_REACTORS
330
22B1
102
}
330
22B1
100
AcDbXrecord
280
     1
102
RTVSPropertyOp0
 70
     1
102
RTVSPropertyOp1
 70
     1
102
RTVSPropertyOp2
 70
     1
102
RTVSPropertyOp3
 70
     1
102
RTVSPropertyOp4
 70
     1
102
RTVSPropertyOp5
 70
     1
102
RTVSPropertyOp6
 70
     1
102
RTVSPropertyOp7
 70
     1
102
RTVSPropertyOp8
 70
     1
102
RTVSPropertyOp9
 70
     1
102
RTVSPropertyOp10
 70
     1
102
RTVSPropertyOp11
 70
     1
102
RTVSPropertyOp12
 70
     1
102
RTVSPropertyOp13
 70
     1
102
RTVSPropertyOp14
 70
     1
102
RTVSPropertyOp15
 70
     1
102
RTVSPropertyOp16
 70
     1
102
RTVSPropertyOp17
 70
     1
102
RTVSPropertyOp18
 70
     1
102
RTVSPropertyOp19
 70
     1
102
RTVSPropertyOp20
 70
     1
102
RTVSPropertyOp21
 70
     1
102
RTVSPropertyOp22
 70
     1
102
RTVSPropertyOp23
 70
     1
102
RTVSPropertyOp24
 70
     1
102
RTVSPropertyOp25
 70
     1
102
RTVSPropertyOp26
 70
     1
102
RTVSPropertyOp27
 70
     1
  0
XRECORD
  5
22BA
102
{ACAD_REACTORS
330
22B9
102
}
330
22B9
100
AcDbXrecord
280
     1
102
RTVSPropertyOp0
 70
     1
102
RTVSPropertyOp1
 70
     1
102
RTVSPropertyOp2
 70
     1
102
RTVSPropertyOp3
 70
     1
102
RTVSPropertyOp4
 70
     1
102
RTVSPropertyOp5
 70
     1
102
RTVSPropertyOp6
 70
     1
102
RTVSPropertyOp7
 70
     1
102
RTVSPropertyOp8
 70
     1
102
RTVSPropertyOp9
 70
     1
102
RTVSPropertyOp10
 70
     1
102
RTVSPropertyOp11
 70
     1
102
RTVSPropertyOp12
 70
     1
102
RTVSPropertyOp13
 70
     1
102
RTVSPropertyOp14
 70
     1
102
RTVSPropertyOp15
 70
     1
102
RTVSPropertyOp16
 70
     1
102
RTVSPropertyOp17
 70
     1
102
RTVSPropertyOp18
 70
     1
102
RTVSPropertyOp19
 70
     1
102
RTVSPropertyOp20
 70
     1
102
RTVSPropertyOp21
 70
     1
102
RTVSPropertyOp22
 70
     1
102
RTVSPropertyOp23
 70
     1
102
RTVSPropertyOp24
 70
     1
102
RTVSPropertyOp25
 70
     1
102
RTVSPropertyOp26
 70
     1
102
RTVSPropertyOp27
 70
     1
  0
XRECORD
  5
22AC
102
{ACAD_REACTORS
330
22AB
102
}
330
22AB
100
AcDbXrecord
280
     1
102
RTVSPropertyOp0
 70
     1
102
RTVSPropertyOp1
 70
     1
102
RTVSPropertyOp2
 70
     1
102
RTVSPropertyOp3
 70
     1
102
RTVSPropertyOp4
 70
     1
102
RTVSPropertyOp5
 70
     1
102
RTVSPropertyOp6
 70
     1
102
RTVSPropertyOp7
 70
     1
102
RTVSPropertyOp8
 70
     1
102
RTVSPropertyOp9
 70
     1
102
RTVSPropertyOp10
 70
     1
102
RTVSPropertyOp11
 70
     1
102
RTVSPropertyOp12
 70
     1
102
RTVSPropertyOp13
 70
     1
102
RTVSPropertyOp14
 70
     1
102
RTVSPropertyOp15
 70
     1
102
RTVSPropertyOp16
 70
     1
102
RTVSPropertyOp17
 70
     1
102
RTVSPropertyOp18
 70
     1
102
RTVSPropertyOp19
 70
     1
102
RTVSPropertyOp20
 70
     1
102
RTVSPropertyOp21
 70
     1
102
RTVSPropertyOp22
 70
     1
102
RTVSPropertyOp23
 70
     1
102
RTVSPropertyOp24
 70
     1
102
RTVSPropertyOp25
 70
     1
102
RTVSPropertyOp26
 70
     1
102
RTVSPropertyOp27
 70
     1
  0
XRECORD
  5
22B0
102
{ACAD_REACTORS
330
22AF
102
}
330
22AF
100
AcDbXrecord
280
     1
102
RTVSPropertyOp0
 70
     1
102
RTVSPropertyOp1
 70
     1
102
RTVSPropertyOp2
 70
     1
102
RTVSPropertyOp3
 70
     1
102
RTVSPropertyOp4
 70
     1
102
RTVSPropertyOp5
 70
     1
102
RTVSPropertyOp6
 70
     1
102
RTVSPropertyOp7
 70
     1
102
RTVSPropertyOp8
 70
     1
102
RTVSPropertyOp9
 70
     1
102
RTVSPropertyOp10
 70
     1
102
RTVSPropertyOp11
 70
     1
102
RTVSPropertyOp12
 70
     1
102
RTVSPropertyOp13
 70
     1
102
RTVSPropertyOp14
 70
     1
102
RTVSPropertyOp15
 70
     1
102
RTVSPropertyOp16
 70
     1
102
RTVSPropertyOp17
 70
     1
102
RTVSPropertyOp18
 70
     1
102
RTVSPropertyOp19
 70
     1
102
RTVSPropertyOp20
 70
     1
102
RTVSPropertyOp21
 70
     1
102
RTVSPropertyOp22
 70
     1
102
RTVSPropertyOp23
 70
     1
102
RTVSPropertyOp24
 70
     1
102
RTVSPropertyOp25
 70
     1
102
RTVSPropertyOp26
 70
     1
102
RTVSPropertyOp27
 70
     1
  0
XRECORD
  5
22C0
102
{ACAD_REACTORS
330
22BF
102
}
330
22BF
100
AcDbXrecord
280
     1
102
RTVSPropertyOp0
 70
     0
102
RTVSPropertyOp1
 70
     0
102
RTVSPropertyOp2
 70
     0
102
RTVSPropertyOp3
 70
     0
102
RTVSPropertyOp4
 70
     0
102
RTVSPropertyOp5
 70
     0
102
RTVSPropertyOp6
 70
     0
102
RTVSPropertyOp7
 70
     0
102
RTVSPropertyOp8
 70
     0
102
RTVSPropertyOp9
 70
     0
102
RTVSPropertyOp10
 70
     0
102
RTVSPropertyOp11
 70
     0
102
RTVSPropertyOp12
 70
     0
102
RTVSPropertyOp13
 70
     0
102
RTVSPropertyOp14
 70
     2
102
RTVSPropertyOp15
 70
     0
102
RTVSPropertyOp16
 70
     0
102
RTVSPropertyOp17
 70
     0
102
RTVSPropertyOp18
 70
     0
102
RTVSPropertyOp19
 70
     0
102
RTVSPropertyOp20
 70
     0
102
RTVSPropertyOp21
 70
     0
102
RTVSPropertyOp22
 70
     0
102
RTVSPropertyOp23
 70
     0
102
RTVSPropertyOp24
 70
     0
102
RTVSPropertyOp25
 70
     0
102
RTVSPropertyOp26
 70
     0
102
RTVSPropertyOp27
 70
     0
  0
XRECORD
  5
22B8
102
{ACAD_REACTORS
330
22B7
102
}
330
22B7
100
AcDbXrecord
280
     1
102
RTVSPropertyOp0
 70
     1
102
RTVSPropertyOp1
 70
     1
102
RTVSPropertyOp2
 70
     1
102
RTVSPropertyOp3
 70
     1
102
RTVSPropertyOp4
 70
     1
102
RTVSPropertyOp5
 70
     1
102
RTVSPropertyOp6
 70
     1
102
RTVSPropertyOp7
 70
     1
102
RTVSPropertyOp8
 70
     1
102
RTVSPropertyOp9
 70
     1
102
RTVSPropertyOp10
 70
     1
102
RTVSPropertyOp11
 70
     1
102
RTVSPropertyOp12
 70
     1
102
RTVSPropertyOp13
 70
     1
102
RTVSPropertyOp14
 70
     1
102
RTVSPropertyOp15
 70
     1
102
RTVSPropertyOp16
 70
     1
102
RTVSPropertyOp17
 70
     1
102
RTVSPropertyOp18
 70
     1
102
RTVSPropertyOp19
 70
     1
102
RTVSPropertyOp20
 70
     1
102
RTVSPropertyOp21
 70
     1
102
RTVSPropertyOp22
 70
     1
102
RTVSPropertyOp23
 70
     1
102
RTVSPropertyOp24
 70
     1
102
RTVSPropertyOp25
 70
     1
102
RTVSPropertyOp26
 70
     1
102
RTVSPropertyOp27
 70
     1
  0
XRECORD
  5
229C
102
{ACAD_REACTORS
330
229B
102
}
330
229B
100
AcDbXrecord
280
     1
102
RTVSPropertyOp0
 70
     1
102
RTVSPropertyOp1
 70
     1
102
RTVSPropertyOp2
 70
     1
102
RTVSPropertyOp3
 70
     1
102
RTVSPropertyOp4
 70
     1
102
RTVSPropertyOp5
 70
     1
102
RTVSPropertyOp6
 70
     1
102
RTVSPropertyOp7
 70
     1
102
RTVSPropertyOp8
 70
     1
102
RTVSPropertyOp9
 70
     1
102
RTVSPropertyOp10
 70
     1
102
RTVSPropertyOp11
 70
     1
102
RTVSPropertyOp12
 70
     1
102
RTVSPropertyOp13
 70
     1
102
RTVSPropertyOp14
 70
     1
102
RTVSPropertyOp15
 70
     1
102
RTVSPropertyOp16
 70
     1
102
RTVSPropertyOp17
 70
     1
102
RTVSPropertyOp18
 70
     1
102
RTVSPropertyOp19
 70
     1
102
RTVSPropertyOp20
 70
     1
102
RTVSPropertyOp21
 70
     1
102
RTVSPropertyOp22
 70
     1
102
RTVSPropertyOp23
 70
     1
102
RTVSPropertyOp24
 70
     1
102
RTVSPropertyOp25
 70
     1
102
RTVSPropertyOp26
 70
     1
102
RTVSPropertyOp27
 70
     1
  0
XRECORD
  5
229E
102
{ACAD_REACTORS
330
229D
102
}
330
229D
100
AcDbXrecord
280
     1
102
RTVSPropertyOp0
 70
     1
102
RTVSPropertyOp1
 70
     1
102
RTVSPropertyOp2
 70
     1
102
RTVSPropertyOp3
 70
     1
102
RTVSPropertyOp4
 70
     1
102
RTVSPropertyOp5
 70
     1
102
RTVSPropertyOp6
 70
     1
102
RTVSPropertyOp7
 70
     1
102
RTVSPropertyOp8
 70
     1
102
RTVSPropertyOp9
 70
     1
102
RTVSPropertyOp10
 70
     1
102
RTVSPropertyOp11
 70
     1
102
RTVSPropertyOp12
 70
     1
102
RTVSPropertyOp13
 70
     1
102
RTVSPropertyOp14
 70
     1
102
RTVSPropertyOp15
 70
     1
102
RTVSPropertyOp16
 70
     1
102
RTVSPropertyOp17
 70
     1
102
RTVSPropertyOp18
 70
     1
102
RTVSPropertyOp19
 70
     1
102
RTVSPropertyOp20
 70
     1
102
RTVSPropertyOp21
 70
     1
102
RTVSPropertyOp22
 70
     1
102
RTVSPropertyOp23
 70
     1
102
RTVSPropertyOp24
 70
     1
102
RTVSPropertyOp25
 70
     1
102
RTVSPropertyOp26
 70
     1
102
RTVSPropertyOp27
 70
     1
  0
XRECORD
  5
22A0
102
{ACAD_REACTORS
330
229F
102
}
330
229F
100
AcDbXrecord
280
     1
102
RTVSPropertyOp0
 70
     1
102
RTVSPropertyOp1
 70
     1
102
RTVSPropertyOp2
 70
     1
102
RTVSPropertyOp3
 70
     1
102
RTVSPropertyOp4
 70
     1
102
RTVSPropertyOp5
 70
     1
102
RTVSPropertyOp6
 70
     1
102
RTVSPropertyOp7
 70
     1
102
RTVSPropertyOp8
 70
     1
102
RTVSPropertyOp9
 70
     1
102
RTVSPropertyOp10
 70
     1
102
RTVSPropertyOp11
 70
     1
102
RTVSPropertyOp12
 70
     1
102
RTVSPropertyOp13
 70
     1
102
RTVSPropertyOp14
 70
     1
102
RTVSPropertyOp15
 70
     1
102
RTVSPropertyOp16
 70
     1
102
RTVSPropertyOp17
 70
     1
102
RTVSPropertyOp18
 70
     1
102
RTVSPropertyOp19
 70
     1
102
RTVSPropertyOp20
 70
     1
102
RTVSPropertyOp21
 70
     1
102
RTVSPropertyOp22
 70
     1
102
RTVSPropertyOp23
 70
     1
102
RTVSPropertyOp24
 70
     1
102
RTVSPropertyOp25
 70
     1
102
RTVSPropertyOp26
 70
     1
102
RTVSPropertyOp27
 70
     1
  0
XRECORD
  5
22A2
102
{ACAD_REACTORS
330
22A1
102
}
330
22A1
100
AcDbXrecord
280
     1
102
RTVSPropertyOp0
 70
     1
102
RTVSPropertyOp1
 70
     1
102
RTVSPropertyOp2
 70
     1
102
RTVSPropertyOp3
 70
     1
102
RTVSPropertyOp4
 70
     1
102
RTVSPropertyOp5
 70
     1
102
RTVSPropertyOp6
 70
     1
102
RTVSPropertyOp7
 70
     1
102
RTVSPropertyOp8
 70
     1
102
RTVSPropertyOp9
 70
     1
102
RTVSPropertyOp10
 70
     1
102
RTVSPropertyOp11
 70
     1
102
RTVSPropertyOp12
 70
     1
102
RTVSPropertyOp13
 70
     1
102
RTVSPropertyOp14
 70
     1
102
RTVSPropertyOp15
 70
     1
102
RTVSPropertyOp16
 70
     1
102
RTVSPropertyOp17
 70
     1
102
RTVSPropertyOp18
 70
     1
102
RTVSPropertyOp19
 70
     1
102
RTVSPropertyOp20
 70
     1
102
RTVSPropertyOp21
 70
     1
102
RTVSPropertyOp22
 70
     1
102
RTVSPropertyOp23
 70
     1
102
RTVSPropertyOp24
 70
     1
102
RTVSPropertyOp25
 70
     1
102
RTVSPropertyOp26
 70
     1
102
RTVSPropertyOp27
 70
     1
  0
XRECORD
  5
22BC
102
{ACAD_REACTORS
330
22BB
102
}
330
22BB
100
AcDbXrecord
280
     1
102
RTVSPropertyOp0
 70
     0
102
RTVSPropertyOp1
 70
     0
102
RTVSPropertyOp2
 70
     0
102
RTVSPropertyOp3
 70
     0
102
RTVSPropertyOp4
 70
     0
102
RTVSPropertyOp5
 70
     0
102
RTVSPropertyOp6
 70
     0
102
RTVSPropertyOp7
 70
     0
102
RTVSPropertyOp8
 70
     0
102
RTVSPropertyOp9
 70
     0
102
RTVSPropertyOp10
 70
     0
102
RTVSPropertyOp11
 70
     0
102
RTVSPropertyOp12
 70
     0
102
RTVSPropertyOp13
 70
     0
102
RTVSPropertyOp14
 70
     2
102
RTVSPropertyOp15
 70
     0
102
RTVSPropertyOp16
 70
     0
102
RTVSPropertyOp17
 70
     0
102
RTVSPropertyOp18
 70
     0
102
RTVSPropertyOp19
 70
     0
102
RTVSPropertyOp20
 70
     0
102
RTVSPropertyOp21
 70
     0
102
RTVSPropertyOp22
 70
     0
102
RTVSPropertyOp23
 70
     0
102
RTVSPropertyOp24
 70
     0
102
RTVSPropertyOp25
 70
     0
102
RTVSPropertyOp26
 70
     0
102
RTVSPropertyOp27
 70
     0
  0
XRECORD
  5
22B6
102
{ACAD_REACTORS
330
22B5
102
}
330
22B5
100
AcDbXrecord
280
     1
102
RTVSPropertyOp0
 70
     1
102
RTVSPropertyOp1
 70
     1
102
RTVSPropertyOp2
 70
     1
102
RTVSPropertyOp3
 70
     1
102
RTVSPropertyOp4
 70
     1
102
RTVSPropertyOp5
 70
     1
102
RTVSPropertyOp6
 70
     1
102
RTVSPropertyOp7
 70
     1
102
RTVSPropertyOp8
 70
     1
102
RTVSPropertyOp9
 70
     1
102
RTVSPropertyOp10
 70
     1
102
RTVSPropertyOp11
 70
     1
102
RTVSPropertyOp12
 70
     1
102
RTVSPropertyOp13
 70
     1
102
RTVSPropertyOp14
 70
     1
102
RTVSPropertyOp15
 70
     1
102
RTVSPropertyOp16
 70
     1
102
RTVSPropertyOp17
 70
     1
102
RTVSPropertyOp18
 70
     1
102
RTVSPropertyOp19
 70
     1
102
RTVSPropertyOp20
 70
     1
102
RTVSPropertyOp21
 70
     1
102
RTVSPropertyOp22
 70
     1
102
RTVSPropertyOp23
 70
     1
102
RTVSPropertyOp24
 70
     1
102
RTVSPropertyOp25
 70
     1
102
RTVSPropertyOp26
 70
     1
102
RTVSPropertyOp27
 70
     1
  0
XRECORD
  5
22BE
102
{ACAD_REACTORS
330
22BD
102
}
330
22BD
100
AcDbXrecord
280
     1
102
RTVSPropertyOp0
 70
     0
102
RTVSPropertyOp1
 70
     0
102
RTVSPropertyOp2
 70
     0
102
RTVSPropertyOp3
 70
     0
102
RTVSPropertyOp4
 70
     0
102
RTVSPropertyOp5
 70
     0
102
RTVSPropertyOp6
 70
     0
102
RTVSPropertyOp7
 70
     0
102
RTVSPropertyOp8
 70
     0
102
RTVSPropertyOp9
 70
     0
102
RTVSPropertyOp10
 70
     0
102
RTVSPropertyOp11
 70
     0
102
RTVSPropertyOp12
 70
     0
102
RTVSPropertyOp13
 70
     0
102
RTVSPropertyOp14
 70
     2
102
RTVSPropertyOp15
 70
     0
102
RTVSPropertyOp16
 70
     0
102
RTVSPropertyOp17
 70
     0
102
RTVSPropertyOp18
 70
     0
102
RTVSPropertyOp19
 70
     0
102
RTVSPropertyOp20
 70
     0
102
RTVSPropertyOp21
 70
     0
102
RTVSPropertyOp22
 70
     0
102
RTVSPropertyOp23
 70
     0
102
RTVSPropertyOp24
 70
     0
102
RTVSPropertyOp25
 70
     0
102
RTVSPropertyOp26
 70
     0
102
RTVSPropertyOp27
 70
     0
  0
XRECORD
  5
22AE
102
{ACAD_REACTORS
330
22AD
102
}
330
22AD
100
AcDbXrecord
280
     1
102
RTVSPropertyOp0
 70
     1
102
RTVSPropertyOp1
 70
     1
102
RTVSPropertyOp2
 70
     1
102
RTVSPropertyOp3
 70
     1
102
RTVSPropertyOp4
 70
     1
102
RTVSPropertyOp5
 70
     1
102
RTVSPropertyOp6
 70
     1
102
RTVSPropertyOp7
 70
     1
102
RTVSPropertyOp8
 70
     1
102
RTVSPropertyOp9
 70
     1
102
RTVSPropertyOp10
 70
     1
102
RTVSPropertyOp11
 70
     1
102
RTVSPropertyOp12
 70
     1
102
RTVSPropertyOp13
 70
     1
102
RTVSPropertyOp14
 70
     1
102
RTVSPropertyOp15
 70
     1
102
RTVSPropertyOp16
 70
     1
102
RTVSPropertyOp17
 70
     1
102
RTVSPropertyOp18
 70
     1
102
RTVSPropertyOp19
 70
     1
102
RTVSPropertyOp20
 70
     1
102
RTVSPropertyOp21
 70
     1
102
RTVSPropertyOp22
 70
     1
102
RTVSPropertyOp23
 70
     1
102
RTVSPropertyOp24
 70
     1
102
RTVSPropertyOp25
 70
     1
102
RTVSPropertyOp26
 70
     1
102
RTVSPropertyOp27
 70
     1
  0
XRECORD
  5
22B4
102
{ACAD_REACTORS
330
22B3
102
}
330
22B3
100
AcDbXrecord
280
     1
102
RTVSPropertyOp0
 70
     1
102
RTVSPropertyOp1
 70
     1
102
RTVSPropertyOp2
 70
     1
102
RTVSPropertyOp3
 70
     1
102
RTVSPropertyOp4
 70
     1
102
RTVSPropertyOp5
 70
     1
102
RTVSPropertyOp6
 70
     1
102
RTVSPropertyOp7
 70
     1
102
RTVSPropertyOp8
 70
     1
102
RTVSPropertyOp9
 70
     1
102
RTVSPropertyOp10
 70
     1
102
RTVSPropertyOp11
 70
     1
102
RTVSPropertyOp12
 70
     1
102
RTVSPropertyOp13
 70
     1
102
RTVSPropertyOp14
 70
     1
102
RTVSPropertyOp15
 70
     1
102
RTVSPropertyOp16
 70
     1
102
RTVSPropertyOp17
 70
     1
102
RTVSPropertyOp18
 70
     1
102
RTVSPropertyOp19
 70
     1
102
RTVSPropertyOp20
 70
     1
102
RTVSPropertyOp21
 70
     1
102
RTVSPropertyOp22
 70
     1
102
RTVSPropertyOp23
 70
     1
102
RTVSPropertyOp24
 70
     1
102
RTVSPropertyOp25
 70
     1
102
RTVSPropertyOp26
 70
     1
102
RTVSPropertyOp27
 70
     1
  0
ENDSEC
  0
EOF
