  0
SECTION
  2
HEADER
  9
$ACADVER
  1
AC1015
  9
$ACADMAINTVER
 70
    20
  9
$DWGCODEPAGE
  3
ANSI_1252
  9
$INSBASE
 10
0.0
 20
0.0
 30
0.0
  9
$EXTMIN
 10
4042.245010758734
 20
1680.946080140112
 30
0.0
  9
$EXTMAX
 10
4044.819007380271
 20
1681.810080136389
 30
0.0
  9
$LIMMIN
 10
0.0
 20
0.0
  9
$LIMMAX
 10
420.0
 20
297.0
  9
$ORTHOMODE
 70
     1
  9
$REGENMODE
 70
     1
  9
$FILLMODE
 70
     1
  9
$QTEXTMODE
 70
     0
  9
$MIRRTEXT
 70
     1
  9
$LTSCALE
 40
1.0
  9
$ATTMODE
 70
     1
  9
$TEXTSIZE
 40
2.5
  9
$TRACEWID
 40
1.0
  9
$TEXTSTYLE
  7
SANINDUSA
  9
$CLAYER
  8
0
  9
$CELTYPE
  6
ByLayer
  9
$CECOLOR
 62
   256
  9
$CELTSCALE
 40
1.0
  9
$DISPSILH
 70
     0
  9
$DIMSCALE
 40
10.0
  9
$DIMASZ
 40
2.0
  9
$DIMEXO
 40
1.0
  9
$DIMDLI
 40
1.0
  9
$DIMRND
 40
0.0
  9
$DIMDLE
 40
0.0
  9
$DIMEXE
 40
1.0
  9
$DIMTP
 40
0.0
  9
$DIMTM
 40
0.0
  9
$DIMTXT
 40
2.0
  9
$DIMCEN
 40
0.0
  9
$DIMTSZ
 40
0.0
  9
$DIMTOL
 70
     0
  9
$DIMLIM
 70
     0
  9
$DIMTIH
 70
     0
  9
$DIMTOH
 70
     0
  9
$DIMSE1
 70
     0
  9
$DIMSE2
 70
     0
  9
$DIMTAD
 70
     1
  9
$DIMZIN
 70
     8
  9
$DIMBLK
  1

  9
$DIMASO
 70
     1
  9
$DIMSHO
 70
     1
  9
$DIMPOST
  1

  9
$DIMAPOST
  1

  9
$DIMALT
 70
     0
  9
$DIMALTD
 70
     3
  9
$DIMALTF
 40
0.03937007874016
  9
$DIMLFAC
 40
1.0
  9
$DIMTOFL
 70
     1
  9
$DIMTVP
 40
0.0
  9
$DIMTIX
 70
     0
  9
$DIMSOXD
 70
     0
  9
$DIMSAH
 70
     0
  9
$DIMBLK1
  1

  9
$DIMBLK2
  1

  9
$DIMSTYLE
  2
SANINDUSA
  9
$DIMCLRD
 70
   256
  9
$DIMCLRE
 70
   256
  9
$DIMCLRT
 70
   256
  9
$DIMTFAC
 40
1.0
  9
$DIMGAP
 40
1.0
  9
$DIMJUST
 70
     0
  9
$DIMSD1
 70
     0
  9
$DIMSD2
 70
     0
  9
$DIMTOLJ
 70
     0
  9
$DIMTZIN
 70
     8
  9
$DIMALTZ
 70
     0
  9
$DIMALTTZ
 70
     0
  9
$DIMUPT
 70
     0
  9
$DIMDEC
 70
     0
  9
$DIMTDEC
 70
     0
  9
$DIMALTU
 70
     2
  9
$DIMALTTD
 70
     3
  9
$DIMTXSTY
  7
SANINDUSA
  9
$DIMAUNIT
 70
     0
  9
$DIMADEC
 70
     1
  9
$DIMALTRND
 40
0.0
  9
$DIMAZIN
 70
     0
  9
$DIMDSEP
 70
    44
  9
$DIMATFIT
 70
     3
  9
$DIMFRAC
 70
     0
  9
$DIMLDRBLK
  1

  9
$DIMLUNIT
 70
     2
  9
$DIMLWD
 70
    -1
  9
$DIMLWE
 70
    -1
  9
$DIMTMOVE
 70
     0
  9
$LUNITS
 70
     2
  9
$LUPREC
 70
     4
  9
$SKETCHINC
 40
1.0
  9
$FILLETRAD
 40
0.0
  9
$AUNITS
 70
     0
  9
$AUPREC
 70
     0
  9
$MENU
  1
.
  9
$ELEVATION
 40
0.0
  9
$PELEVATION
 40
0.0
  9
$THICKNESS
 40
0.0
  9
$LIMCHECK
 70
     0
  9
$CHAMFERA
 40
10.0
  9
$CHAMFERB
 40
10.0
  9
$CHAMFERC
 40
20.0
  9
$CHAMFERD
 40
0.0
  9
$SKPOLY
 70
     0
  9
$TDCREATE
 40
2455097.482888091
  9
$TDUCREATE
 40
2455097.441221424
  9
$TDUPDATE
 40
2455296.528019560
  9
$TDUUPDATE
 40
2455296.486352894
  9
$TDINDWG
 40
0.1159092940
  9
$TDUSRTIMER
 40
0.1159092940
  9
$USRTIMER
 70
     1
  9
$ANGBASE
 50
0.0
  9
$ANGDIR
 70
     0
  9
$PDMODE
 70
     0
  9
$PDSIZE
 40
0.0
  9
$PLINEWID
 40
0.0
  9
$SPLFRAME
 70
     0
  9
$SPLINETYPE
 70
     6
  9
$SPLINESEGS
 70
     8
  9
$HANDSEED
  5
23D5
  9
$SURFTAB1
 70
     6
  9
$SURFTAB2
 70
     6
  9
$SURFTYPE
 70
     6
  9
$SURFU
 70
     6
  9
$SURFV
 70
     6
  9
$UCSBASE
  2

  9
$UCSNAME
  2

  9
$UCSORG
 10
0.0
 20
0.0
 30
0.0
  9
$UCSXDIR
 10
1.0
 20
0.0
 30
0.0
  9
$UCSYDIR
 10
0.0
 20
1.0
 30
0.0
  9
$UCSORTHOREF
  2

  9
$UCSORTHOVIEW
 70
     0
  9
$UCSORGTOP
 10
0.0
 20
0.0
 30
0.0
  9
$UCSORGBOTTOM
 10
0.0
 20
0.0
 30
0.0
  9
$UCSORGLEFT
 10
0.0
 20
0.0
 30
0.0
  9
$UCSORGRIGHT
 10
0.0
 20
0.0
 30
0.0
  9
$UCSORGFRONT
 10
0.0
 20
0.0
 30
0.0
  9
$UCSORGBACK
 10
0.0
 20
0.0
 30
0.0
  9
$PUCSBASE
  2

  9
$PUCSNAME
  2

  9
$PUCSORG
 10
0.0
 20
0.0
 30
0.0
  9
$PUCSXDIR
 10
1.0
 20
0.0
 30
0.0
  9
$PUCSYDIR
 10
0.0
 20
1.0
 30
0.0
  9
$PUCSORTHOREF
  2

  9
$PUCSORTHOVIEW
 70
     0
  9
$PUCSORGTOP
 10
0.0
 20
0.0
 30
0.0
  9
$PUCSORGBOTTOM
 10
0.0
 20
0.0
 30
0.0
  9
$PUCSORGLEFT
 10
0.0
 20
0.0
 30
0.0
  9
$PUCSORGRIGHT
 10
0.0
 20
0.0
 30
0.0
  9
$PUCSORGFRONT
 10
0.0
 20
0.0
 30
0.0
  9
$PUCSORGBACK
 10
0.0
 20
0.0
 30
0.0
  9
$USERI1
 70
     0
  9
$USERI2
 70
     0
  9
$USERI3
 70
     0
  9
$USERI4
 70
     0
  9
$USERI5
 70
     0
  9
$USERR1
 40
0.0
  9
$USERR2
 40
0.0
  9
$USERR3
 40
0.0
  9
$USERR4
 40
0.0
  9
$USERR5
 40
0.0
  9
$WORLDVIEW
 70
     1
  9
$SHADEDGE
 70
     3
  9
$SHADEDIF
 70
    70
  9
$TILEMODE
 70
     1
  9
$MAXACTVP
 70
    64
  9
$PINSBASE
 10
0.0
 20
0.0
 30
0.0
  9
$PLIMCHECK
 70
     0
  9
$PEXTMIN
 10
1.000000000000000E+20
 20
1.000000000000000E+20
 30
1.000000000000000E+20
  9
$PEXTMAX
 10
-1.000000000000000E+20
 20
-1.000000000000000E+20
 30
-1.000000000000000E+20
  9
$PLIMMIN
 10
0.0
 20
0.0
  9
$PLIMMAX
 10
420.0
 20
297.0
  9
$UNITMODE
 70
     0
  9
$VISRETAIN
 70
     1
  9
$PLINEGEN
 70
     0
  9
$PSLTSCALE
 70
     1
  9
$TREEDEPTH
 70
  3020
  9
$CMLSTYLE
  2
Standard
  9
$CMLJUST
 70
     0
  9
$CMLSCALE
 40
20.0
  9
$PROXYGRAPHICS
 70
     1
  9
$MEASUREMENT
 70
     1
  9
$CELWEIGHT
370
    -1
  9
$ENDCAPS
280
     0
  9
$JOINSTYLE
280
     0
  9
$LWDISPLAY
290
     0
  9
$INSUNITS
 70
     4
  9
$HYPERLINKBASE
  1

  9
$STYLESHEET
  1
sanindusa.ctb
  9
$XEDIT
290
     1
  9
$CEPSNTYPE
380
     0
  9
$PSTYLEMODE
290
     1
  9
$FINGERPRINTGUID
  2
{8196CC40-0EE2-49E3-BEBB-B13ED8E560F1}
  9
$VERSIONGUID
  2
{8AC3CBC2-DEE7-4109-82F4-B46EACB464EB}
  9
$EXTNAMES
290
     1
  9
$PSVPSCALE
 40
0.0
  9
$OLESTARTUP
290
     0
  0
ENDSEC
  0
SECTION
  2
CLASSES
  0
CLASS
  1
ACDBDICTIONARYWDFLT
  2
AcDbDictionaryWithDefault
  3
ObjectDBX Classes
 90
        0
280
     0
281
     0
  0
CLASS
  1
ACDBPLACEHOLDER
  2
AcDbPlaceHolder
  3
ObjectDBX Classes
 90
        0
280
     0
281
     0
  0
CLASS
  1
LAYOUT
  2
AcDbLayout
  3
ObjectDBX Classes
 90
        0
280
     0
281
     0
  0
CLASS
  1
DICTIONARYVAR
  2
AcDbDictionaryVar
  3
ObjectDBX Classes
 90
        0
280
     0
281
     0
  0
CLASS
  1
DIMASSOC
  2
AcDbDimAssoc
  3
"AcDbDimAssoc|Product Desc:     AcDim ARX App For Dimension|Company:          Autodesk, Inc.|WEB Address:      www.autodesk.com"
 90
    32768
280
     0
281
     0
  0
CLASS
  1
TABLESTYLE
  2
AcDbTableStyle
  3
ObjectDBX Classes
 90
     4095
280
     0
281
     0
  0
CLASS
  1
MATERIAL
  2
AcDbMaterial
  3
ObjectDBX Classes
 90
     1153
280
     0
281
     0
  0
CLASS
  1
VISUALSTYLE
  2
AcDbVisualStyle
  3
ObjectDBX Classes
 90
     4095
280
     0
281
     0
  0
CLASS
  1
SCALE
  2
AcDbScale
  3
ObjectDBX Classes
 90
     1153
280
     0
281
     0
  0
CLASS
  1
MLEADERSTYLE
  2
AcDbMLeaderStyle
  3
ACDB_MLEADERSTYLE_CLASS
 90
     4095
280
     0
281
     0
  0
CLASS
  1
AEC_REFEDIT_STATUS_TRACKER
  2
AecDbRefEditStatusTracker
  3
AecArchBase60|Product Desc: Autodesk Architectural Desktop 2007 |Company: Autodesk,Inc. |WEB Address: www.autodesk.com
 90
    32897
280
     0
281
     0
  0
CLASS
  1
NPOCOLLECTION
  2
AcDbImpNonPersistentObjectsCollection
  3
ObjectDBX Classes
 90
    33921
280
     0
281
     0
  0
CLASS
  1
SORTENTSTABLE
  2
AcDbSortentsTable
  3
ObjectDBX Classes
 90
        0
280
     0
281
     0
  0
CLASS
  1
CELLSTYLEMAP
  2
AcDbCellStyleMap
  3
ObjectDBX Classes
 90
     1152
280
     0
281
     0
  0
CLASS
  1
SOLID_BACKGROUND
  2
AcDbSolidBackground
  3
SCENEOE
 90
    36863
280
     0
281
     0
  0
ENDSEC
  0
SECTION
  2
TABLES
  0
TABLE
  2
VPORT
  5
8
102
{ACAD_XDICTIONARY
360
21A2
102
}
330
0
100
AcDbSymbolTable
 70
     1
  0
VPORT
  5
1068
330
8
100
AcDbSymbolTableRecord
100
AcDbViewportTableRecord
  2
*Active
 70
     0
 10
0.0
 20
0.0
 11
1.0
 21
1.0
 12
4043.531990771966
 22
1681.378080138251
 13
0.0
 23
0.0
 14
10.0
 24
10.0
 15
10.0
 25
10.0
 16
0.0
 26
0.0
 36
1.0
 17
0.0
 27
0.0
 37
0.0
 40
1.580041842074281
 41
1.635233160621761
 42
50.0
 43
0.0
 44
0.0
 50
0.0
 51
0.0
 71
     0
 72
   100
 73
     1
 74
     2
 75
     0
 76
     0
 77
     0
 78
     0
281
     0
 65
     1
110
0.0
120
0.0
130
0.0
111
1.0
121
0.0
131
0.0
112
0.0
122
1.0
132
0.0
 79
     0
146
0.0
  0
ENDTAB
  0
TABLE
  2
LTYPE
  5
5
330
0
100
AcDbSymbolTable
 70
     5
  0
LTYPE
  5
14
330
5
100
AcDbSymbolTableRecord
100
AcDbLinetypeTableRecord
  2
ByBlock
 70
     0
  3

 72
    65
 73
     0
 40
0.0
  0
LTYPE
  5
15
330
5
100
AcDbSymbolTableRecord
100
AcDbLinetypeTableRecord
  2
ByLayer
 70
     0
  3

 72
    65
 73
     0
 40
0.0
  0
LTYPE
  5
16
330
5
100
AcDbSymbolTableRecord
100
AcDbLinetypeTableRecord
  2
Continuous
 70
     0
  3
Solid line
 72
    65
 73
     0
 40
0.0
  0
LTYPE
  5
2D
330
5
100
AcDbSymbolTableRecord
100
AcDbLinetypeTableRecord
  2
DASHDOT
 70
     0
  3
Dash dot __ . __ . __ . __ . __ . __ . __ . __
 72
    65
 73
     4
 40
25.4
 49
12.7
 74
     0
 49
-6.349999999999999
 74
     0
 49
0.0
 74
     0
 49
-6.349999999999999
 74
     0
  0
LTYPE
  5
2E
330
5
100
AcDbSymbolTableRecord
100
AcDbLinetypeTableRecord
  2
HIDDEN
 70
     0
  3
Hidden __ __ __ __ __ __ __ __ __ __ __ __ __ _
 72
    65
 73
     2
 40
9.524999999999998
 49
6.349999999999999
 74
     0
 49
-3.174999999999999
 74
     0
  0
LTYPE
  5
C75
330
5
100
AcDbSymbolTableRecord
100
AcDbLinetypeTableRecord
  2
AM_ISO02W050
 70
     0
  3
__ __ __ __ __ __ __ __ __ __ __ __ __ __ __
 72
    65
 73
     2
 40
7.5
 49
6.0
 74
     0
 49
-1.5
 74
     0
  0
LTYPE
  5
C76
330
5
100
AcDbSymbolTableRecord
100
AcDbLinetypeTableRecord
  2
AM_ISO08W050
 70
     0
  3
____ . ____ . ____ . ____ . ____ . ____ . ____
 72
    65
 73
     4
 40
18.0
 49
12.0
 74
     0
 49
-1.5
 74
     0
 49
3.0
 74
     0
 49
-1.5
 74
     0
  0
ENDTAB
  0
TABLE
  2
LAYER
  5
2
102
{ACAD_XDICTIONARY
360
1051
102
}
330
0
100
AcDbSymbolTable
 70
    18
  0
LAYER
  5
10
102
{ACAD_XDICTIONARY
360
2138
102
}
330
2
100
AcDbSymbolTableRecord
100
AcDbLayerTableRecord
  2
0
 70
     0
 62
     7
  6
Continuous
370
    -3
390
F
  0
LAYER
  5
2F
102
{ACAD_XDICTIONARY
360
213A
102
}
330
2
100
AcDbSymbolTableRecord
100
AcDbLayerTableRecord
  2
1
 70
     0
 62
     1
  6
Continuous
370
    -3
390
F
  0
LAYER
  5
30
102
{ACAD_XDICTIONARY
360
213C
102
}
330
2
100
AcDbSymbolTableRecord
100
AcDbLayerTableRecord
  2
2
 70
     0
 62
     2
  6
Continuous
370
    -3
390
F
  0
LAYER
  5
31
102
{ACAD_XDICTIONARY
360
213E
102
}
330
2
100
AcDbSymbolTableRecord
100
AcDbLayerTableRecord
  2
3
 70
     0
 62
     3
  6
Continuous
370
    -3
390
F
  0
LAYER
  5
32
102
{ACAD_XDICTIONARY
360
2140
102
}
330
2
100
AcDbSymbolTableRecord
100
AcDbLayerTableRecord
  2
4
 70
     0
 62
     4
  6
Continuous
370
    -3
390
F
  0
LAYER
  5
33
102
{ACAD_XDICTIONARY
360
2142
102
}
330
2
100
AcDbSymbolTableRecord
100
AcDbLayerTableRecord
  2
5
 70
     0
 62
     5
  6
Continuous
370
    -3
390
F
  0
LAYER
  5
34
102
{ACAD_XDICTIONARY
360
2144
102
}
330
2
100
AcDbSymbolTableRecord
100
AcDbLayerTableRecord
  2
6
 70
     0
 62
     6
  6
Continuous
370
    -3
390
F
  0
LAYER
  5
35
102
{ACAD_XDICTIONARY
360
2146
102
}
330
2
100
AcDbSymbolTableRecord
100
AcDbLayerTableRecord
  2
7
 70
     0
 62
     7
  6
Continuous
370
    -3
390
F
  0
LAYER
  5
36
102
{ACAD_XDICTIONARY
360
2148
102
}
330
2
100
AcDbSymbolTableRecord
100
AcDbLayerTableRecord
  2
cen
 70
     0
 62
     7
  6
DASHDOT
370
    -3
390
F
  0
LAYER
  5
37
102
{ACAD_XDICTIONARY
360
214A
102
}
330
2
100
AcDbSymbolTableRecord
100
AcDbLayerTableRecord
  2
hid
 70
     0
 62
     7
  6
HIDDEN
370
    -3
390
F
  0
LAYER
  5
5D6
102
{ACAD_XDICTIONARY
360
214C
102
}
330
2
100
AcDbSymbolTableRecord
100
AcDbLayerTableRecord
  2
hatch
 70
     0
 62
     9
  6
Continuous
370
    -3
390
F
  0
LAYER
  5
8AF
102
{ACAD_XDICTIONARY
360
214E
102
}
330
2
100
AcDbSymbolTableRecord
100
AcDbLayerTableRecord
  2
9
 70
     0
 62
     9
  6
Continuous
370
    -3
390
F
  0
LAYER
  5
8F8
102
{ACAD_XDICTIONARY
360
2150
102
}
330
2
100
AcDbSymbolTableRecord
100
AcDbLayerTableRecord
  2
leg fin
 70
     0
 62
     9
  6
Continuous
370
    -3
390
F
  0
LAYER
  5
91D
102
{ACAD_XDICTIONARY
360
2152
102
}
330
2
100
AcDbSymbolTableRecord
100
AcDbLayerTableRecord
  2
cotas
 70
     0
 62
     1
  6
Continuous
370
    -3
390
F
  0
LAYER
  5
92F
330
2
100
AcDbSymbolTableRecord
100
AcDbLayerTableRecord
  2
Defpoints
 70
     0
 62
     7
  6
Continuous
290
     0
370
    -3
390
F
  0
LAYER
  5
C7B
102
{ACAD_XDICTIONARY
360
2154
102
}
330
2
100
AcDbSymbolTableRecord
100
AcDbLayerTableRecord
  2
SANINDUSA
 70
     0
 62
     3
  6
Continuous
370
    -3
390
F
  0
LAYER
  5
1060
102
{ACAD_XDICTIONARY
360
2156
102
}
330
2
100
AcDbSymbolTableRecord
100
AcDbLayerTableRecord
  2
hid1
 70
     0
 62
     9
  6
HIDDEN
370
    -3
390
F
1001
AcAecLayerStandard
1000

1000

  0
LAYER
  5
1DDF
102
{ACAD_XDICTIONARY
360
2158
102
}
330
2
100
AcDbSymbolTableRecord
100
AcDbLayerTableRecord
  2
INDUSA
 70
     0
 62
     3
  6
Continuous
370
    -3
390
F
  0
ENDTAB
  0
TABLE
  2
STYLE
  5
3
330
0
100
AcDbSymbolTable
 70
     4
  0
STYLE
  5
11
330
3
100
AcDbSymbolTableRecord
100
AcDbTextStyleTableRecord
  2
Standard
 70
     0
 40
0.0
 41
1.0
 50
0.0
 71
     0
 42
2.5
  3
Avgardn.ttf
  4

1001
ACAD
1000
AvantGarde Bk BT
1071
       34
  0
STYLE
  5
2C
330
3
100
AcDbSymbolTableRecord
100
AcDbTextStyleTableRecord
  2

 70
     1
 40
0.0
 41
1.0
 50
0.0
 71
     0
 42
2.5
  3
ltypeshp.shx
  4

  0
STYLE
  5
91F
330
3
100
AcDbSymbolTableRecord
100
AcDbTextStyleTableRecord
  2
SANINDUSA
 70
     0
 40
0.0
 41
1.0
 50
0.0
 71
     0
 42
2.5
  3
verdana.TTF
  4

1001
ACAD
1000
Verdana
1071
       34
  0
STYLE
  5
C7C
330
3
100
AcDbSymbolTableRecord
100
AcDbTextStyleTableRecord
  2
futura
 70
     0
 40
0.0
 41
1.0
 50
0.0
 71
     0
 42
2.5
  3
ZURCHN.TTF
  4

1001
ACAD
1000
Zurich BT
1071
       34
  0
ENDTAB
  0
TABLE
  2
VIEW
  5
6
330
0
100
AcDbSymbolTable
 70
     0
  0
ENDTAB
  0
TABLE
  2
UCS
  5
7
330
0
100
AcDbSymbolTable
 70
     0
  0
ENDTAB
  0
TABLE
  2
APPID
  5
9
330
0
100
AcDbSymbolTable
 70
    16
  0
APPID
  5
12
330
9
100
AcDbSymbolTableRecord
100
AcDbRegAppTableRecord
  2
ACAD
 70
     0
  0
APPID
  5
3A
330
9
100
AcDbSymbolTableRecord
100
AcDbRegAppTableRecord
  2
DCO15
 70
     0
  0
APPID
  5
EEE
330
9
100
AcDbSymbolTableRecord
100
AcDbRegAppTableRecord
  2
ACAD_DSTYLE_DIMTEXT_FILL
 70
     0
  0
APPID
  5
EEF
330
9
100
AcDbSymbolTableRecord
100
AcDbRegAppTableRecord
  2
ACAD_DSTYLE_DIMEXT_LENGTH
 70
     0
  0
APPID
  5
EF0
330
9
100
AcDbSymbolTableRecord
100
AcDbRegAppTableRecord
  2
ACAD_DSTYLE_DIMEXT_ENABLED
 70
     0
  0
APPID
  5
EF1
330
9
100
AcDbSymbolTableRecord
100
AcDbRegAppTableRecord
  2
ACAD_DSTYLE_DIM_LINETYPE
 70
     0
  0
APPID
  5
EF2
330
9
100
AcDbSymbolTableRecord
100
AcDbRegAppTableRecord
  2
ACAD_DSTYLE_DIM_EXT1_LINETYPE
 70
     0
  0
APPID
  5
EF3
330
9
100
AcDbSymbolTableRecord
100
AcDbRegAppTableRecord
  2
ACAD_DSTYLE_DIM_EXT2_LINETYPE
 70
     0
  0
APPID
  5
FAF
330
9
100
AcDbSymbolTableRecord
100
AcDbRegAppTableRecord
  2
ACAD_DSTYLE_DIMJOGGED_JOGANGLE_SYMBOL
 70
     0
  0
APPID
  5
1013
330
9
100
AcDbSymbolTableRecord
100
AcDbRegAppTableRecord
  2
ACAD_DSTYLE_DIMARC_LENGTH_SYMBOL
 70
     0
  0
APPID
  5
1061
330
9
100
AcDbSymbolTableRecord
100
AcDbRegAppTableRecord
  2
AcAecLayerStandard
 70
     0
  0
APPID
  5
1778
330
9
100
AcDbSymbolTableRecord
100
AcDbRegAppTableRecord
  2
ACAD_EXEMPT_FROM_CAD_STANDARDS
 70
     0
  0
APPID
  5
1799
330
9
100
AcDbSymbolTableRecord
100
AcDbRegAppTableRecord
  2
ACAD_DSTYLE_DIMJAG
 70
     0
  0
APPID
  5
179A
330
9
100
AcDbSymbolTableRecord
100
AcDbRegAppTableRecord
  2
ACAD_DSTYLE_DIMTALN
 70
     0
  0
APPID
  5
1905
330
9
100
AcDbSymbolTableRecord
100
AcDbRegAppTableRecord
  2
ACAD_DSTYLE_DIMRADIAL_EXTENSION
 70
     0
  0
APPID
  5
21D4
330
9
100
AcDbSymbolTableRecord
100
AcDbRegAppTableRecord
  2
ACAD_MLEADERVER
 70
     0
  0
ENDTAB
  0
TABLE
  2
DIMSTYLE
  5
A
330
0
100
AcDbSymbolTable
 70
     4
100
AcDbDimStyleTable
 71
     1
340
921
  0
DIMSTYLE
105
45
330
A
100
AcDbSymbolTableRecord
100
AcDbDimStyleTableRecord
  2
STANDARD
 70
     0
289
     0
340
11
  0
DIMSTYLE
105
921
330
A
100
AcDbSymbolTableRecord
100
AcDbDimStyleTableRecord
  2
SANINDUSA
 70
     0
 40
10.0
 41
2.0
 42
1.0
 43
1.0
 44
1.0
 73
     0
 74
     0
 77
     1
 78
     8
140
2.0
141
0.0
143
0.03937007874016
147
1.0
171
     3
172
     1
176
   256
177
   256
178
   256
179
     1
271
     0
272
     0
274
     3
278
    44
283
     0
284
     8
340
91F
371
    -1
372
    -1
1001
ACAD_DSTYLE_DIMJAG
1070
   388
1040
1.5
1001
ACAD_DSTYLE_DIMTALN
1070
   392
1070
     0
1001
ACAD_DSTYLE_DIMJOGGED_JOGANGLE_SYMBOL
1070
   384
1040
1.570796326794896
  0
DIMSTYLE
105
C7D
330
A
100
AcDbSymbolTableRecord
100
AcDbDimStyleTableRecord
  2
AM_ISO
 70
     0
  4
"
 41
2.5
 42
1.0
 43
10.0
 44
1.0
 47
0.1
 48
0.1
 73
     0
 74
     0
 77
     1
 78
     8
 79
     2
140
3.5
141
0.0
143
0.0393701
146
0.71
147
1.5
172
     1
176
   256
177
   256
178
     2
271
     2
272
     3
274
     4
283
     0
284
     8
340
11
371
    -1
372
    -1
  0
DIMSTYLE
105
10B3
330
A
100
AcDbSymbolTableRecord
100
AcDbDimStyleTableRecord
  2
ISO-25
 70
     0
 41
2.5
 42
0.625
 43
3.75
 44
1.25
 73
     0
 74
     0
 77
     1
 78
     8
140
2.5
141
2.5
143
0.03937007874016
147
0.625
171
     3
172
     1
271
     2
272
     2
274
     3
278
    44
283
     0
284
     8
340
11
  0
ENDTAB
  0
TABLE
  2
BLOCK_RECORD
  5
1
330
0
100
AcDbSymbolTable
 70
    26
  0
BLOCK_RECORD
  5
1F
102
{ACAD_XDICTIONARY
360
176C
102
}
330
1
100
AcDbSymbolTableRecord
100
AcDbBlockTableRecord
  2
*Model_Space
340
22
  0
BLOCK_RECORD
  5
1B
330
1
100
AcDbSymbolTableRecord
100
AcDbBlockTableRecord
  2
*Paper_Space
340
1E
  0
BLOCK_RECORD
  5
23
330
1
100
AcDbSymbolTableRecord
100
AcDbBlockTableRecord
  2
*Paper_Space0
340
26
  0
BLOCK_RECORD
  5
919
330
1
100
AcDbSymbolTableRecord
100
AcDbBlockTableRecord
  2
_DotSmall
340
0
  0
BLOCK_RECORD
  5
922
330
1
100
AcDbSymbolTableRecord
100
AcDbBlockTableRecord
  2
base para cotas
340
0
310
2800000020000000200000000100080000000000000400000000000000000000000000000000000000000000000080000080000000808000800000008000800080800000C0C0C000C0DCC000F0CAA6000020400000206000002080000020A0000020C0000020E00000400000004020000040400000406000004080000040A0
310
000040C0000040E00000600000006020000060400000606000006080000060A0000060C0000060E00000800000008020000080400000806000008080000080A0000080C0000080E00000A0000000A0200000A0400000A0600000A0800000A0A00000A0C00000A0E00000C0000000C0200000C0400000C0600000C0800000C0
310
A00000C0C00000C0E00000E0000000E0200000E0400000E0600000E0800000E0A00000E0C00000E0E00040000000400020004000400040006000400080004000A0004000C0004000E00040200000402020004020400040206000402080004020A0004020C0004020E000404000004040200040404000404060004040800040
310
40A0004040C0004040E00040600000406020004060400040606000406080004060A0004060C0004060E00040800000408020004080400040806000408080004080A0004080C0004080E00040A0000040A0200040A0400040A0600040A0800040A0A00040A0C00040A0E00040C0000040C0200040C0400040C0600040C08000
310
40C0A00040C0C00040C0E00040E0000040E0200040E0400040E0600040E0800040E0A00040E0C00040E0E00080000000800020008000400080006000800080008000A0008000C0008000E00080200000802020008020400080206000802080008020A0008020C0008020E00080400000804020008040400080406000804080
310
008040A0008040C0008040E00080600000806020008060400080606000806080008060A0008060C0008060E00080800000808020008080400080806000808080008080A0008080C0008080E00080A0000080A0200080A0400080A0600080A0800080A0A00080A0C00080A0E00080C0000080C0200080C0400080C0600080C0
310
800080C0A00080C0C00080C0E00080E0000080E0200080E0400080E0600080E0800080E0A00080E0C00080E0E000C0000000C0002000C0004000C0006000C0008000C000A000C000C000C000E000C0200000C0202000C0204000C0206000C0208000C020A000C020C000C020E000C0400000C0402000C0404000C0406000C0
310
408000C040A000C040C000C040E000C0600000C0602000C0604000C0606000C0608000C060A000C060C000C060E000C0800000C0802000C0804000C0806000C0808000C080A000C080C000C080E000C0A00000C0A02000C0A04000C0A06000C0A08000C0A0A000C0A0C000C0A0E000C0C00000C0C02000C0C04000C0C06000
310
C0C08000C0C0A000F0FBFF00A4A0A000808080000000FF0000FF000000FFFF00FF000000FF00FF00FFFF0000FFFFFF00A4A4A4A4A4A4A4A4A4A4A4A4A4A4A4A4A4A4A4A4A4A4A4A4A4A4A4A4A4A4A4A4A4A4A4A4A4A4A4A4A4A4A4A4A4A4A4A4A4A4A4A4A4A4A4A4A4A4A4A4A4A4A4A4A4A4A4A4A4A4A4A4A4A4A4A4A4A4A4
310
A4A4A4A4A4A4A4A4A4A4A4A4A4A4A4A4A4A4A4A4A4A4A4A4A4A4A4A4A4A4A4A4A4A4A4A4A4A4A4A4A4A4A4A4A4A4A4A4A4A4A4A4A4A4A4A4A4A4A4A4A4A4A4A4A4A4A4A4A4A4A4A4A4A4A4A4A4A4A4A4A4A4A4A4A4A4A4A4A4A4A4A4A4A4A4A4A4A4A4A4A4A4A4A4A4A4A4A4A4A4A4A4A4A4A4A4A4A4A4A4A4A4A4A4A4A4A4
310
A4A4A4A4A4A4A4A4A4A4A4A4A4A4A4A4A4A4A4A4A4A4A4A4A4A4A4A4A4A4A4A4A4A4A4A4A4A4A4A4A4A4A4A4A4A4A4A4A4A4A4A4A4A4A4A4A4A4A4A4A4A4A4A4A4A4A4A4A4A4A4A4A4A4A4A4A4A4A4A4A4A4A4A4A4A4A4A4A4A4A4A4A4A4A4A4A4A4A4A4A4A4A4A4A4A4A4A4A4A4A4A4A4A4A4A4A4A4A4A4A4A4A4A4A4A4A4
310
A4A4A4A4A4A4A4A4A4A4A4A4A4A4A4A4A4A4A4A4A4A4A4A4A4A4A4A4A4A4A4A4A4A4A4A4A4A4A4A4A4A4A4A4A4A4A4A4A4A4A4A4A4A4A4A4A4A4A4A4A4A4A4A4A4A4A4A4A4A4A4A4A4A4A4A4A4A4A4A4A4A4A4A4A4A4A4A4A4A4A4A4A4A4A4A4A4A4A4A4A4A4A4A4A4A4A4A4A4A4A4A4A4A4A4A4F9F9F9F9F9F9F9F9F9F9F9
310
F9F9F9F9F9F9F9F9F9F9F9F9F9F9F9F9F9F9F9A4A4F9F9F9F9F9F9F9F9F9F9F9F9F9F9F9F9F9F9F9F9F9F9F9F9F9F9F9F9F9F9A4A4F9F9F9F9F9F9F9F9F9F9F9F9F9F9F9F9F9F9F9F9F9F9F9F9F9F9F9F9F9F9A4A4F9A4A4A4A4A4A4A4A4A4A4A4A4A4A4A4A4A4A4A4A4A4A4A4A4A4A4A4A4F9A4A4A4A4A4A4A4A4A4A4A4A4
310
A4A4A4A4A4A4A4A4A4A4A4A4A4A4A4A4A4A4A4A4A4A4A4A4A4A4A4A4A4A4A4A4A4A4A4A4A4A4A4A4A4A4A4A4A4A4A4A4A4A4A4A4A4A4A4A4A4A4A4A4A4A4A4A4A4A4A4A4A4A4A4A4A4A4A4A4A4A4A4A4A4A4A4A4A4A4A4A4A4A4A4A4A4A4A4A4A4A4A4A4A4A4A4A4A4A4A4A4A4A4A4A4A4A4A4A4A4A4A4A4A4A4A4A4A4A4A4
310
A4A4A4A4A4A4A4A4A4A4A4A4A4A4A4A4A4A4A4A4A4A4A4A4A4A4A4A4A4A4A4A4A4A4A4A4A4A4A4A4A4A4A4A4A4A4A4A4A4A4A4A4A4A4A4A4A4A4A4A4A4A4A4A4A4A4A4A4A4A4A4A4A4A4A4A4A4A4A4A4A4A4A4A4A4A4A4A4A4A4A4A4A4A4A4A4A4A4A4A4A4A4A4A4A4A4A4A4A4A4A4A4A4A4A4A4A4A4A4A4A4A4A4A4A4A4A4
310
A4A4A4A4A4A4A4A4A4A4A4A4A4A4A4A4A4A4A4A4A4A4A4A4A4A4A4A4A4A4A4A4A4A4A4A4A4A4A4A4A4A4A4A4A4A4A4A4A4A4A4A4A4A4A4A4A4A4A4A4A4A4A4A4A4A4A4A4A4A4A4A4A4A4A4A4A4A4A4A4A4A4A4A4A4A4A4A4A4A4A4A4A4A4A4A4A4A4A4A4A4A4A4A4A4A4A4A4A4A4A4A4A4A4A4A4A4A4A4A4A4A4A4A4A4A4A4
310
A4A4A4A4A4A4A4A4A4A4A4A4A4A4A4A4A4A4A4A4A4A4A4A4A4A4A4A4A4A4A4A4A4A4A4A4A4A4A4A4A4A4A4A4A4A4A4A4A4A4A4A4A4A4A4A4
1001
ACAD
1000
DesignCenter Data
1002
{
1070
     1
1070
     4
1002
}
  0
BLOCK_RECORD
  5
AA8
330
1
100
AcDbSymbolTableRecord
100
AcDbBlockTableRecord
  2
_CLOSED
340
0
  0
BLOCK_RECORD
  5
B79
330
1
100
AcDbSymbolTableRecord
100
AcDbBlockTableRecord
  2
nota revisoes
340
0
1001
ACAD
1000
DesignCenter Data
1002
{
1070
     1
1070
     4
1002
}
  0
BLOCK_RECORD
  5
B8E
330
1
100
AcDbSymbolTableRecord
100
AcDbBlockTableRecord
  2
a3l
340
0
1001
ACAD
1000
DesignCenter Data
1002
{
1070
     1
1070
     4
1002
}
  0
BLOCK_RECORD
  5
B9E
330
1
100
AcDbSymbolTableRecord
100
AcDbBlockTableRecord
  2
legenda desenvolvimento
340
0
1001
ACAD
1000
DesignCenter Data
1002
{
1070
     1
1070
     4
1002
}
  0
BLOCK_RECORD
  5
1DE0
330
1
100
AcDbSymbolTableRecord
100
AcDbBlockTableRecord
  2
bib. sifões
340
0
1001
ACAD
1000
DesignCenter Data
1002
{
1070
     1
1070
     4
1002
}
  0
ENDTAB
  0
ENDSEC
  0
SECTION
  2
BLOCKS
  0
BLOCK
  5
20
330
1F
100
AcDbEntity
  8
0
100
AcDbBlockBegin
  2
*Model_Space
 70
     0
 10
0.0
 20
0.0
 30
0.0
  3
*Model_Space
  1

  0
ENDBLK
  5
21
330
1F
100
AcDbEntity
  8
0
100
AcDbBlockEnd
  0
BLOCK
  5
1C
330
1B
100
AcDbEntity
 67
     1
  8
0
100
AcDbBlockBegin
  2
*Paper_Space
 70
     0
 10
0.0
 20
0.0
 30
0.0
  3
*Paper_Space
  1

  0
ENDBLK
  5
1D
330
1B
100
AcDbEntity
 67
     1
  8
0
100
AcDbBlockEnd
  0
BLOCK
  5
24
330
23
100
AcDbEntity
 67
     1
  8
0
100
AcDbBlockBegin
  2
*Paper_Space0
 70
     0
 10
0.0
 20
0.0
 30
0.0
  3
*Paper_Space0
  1

  0
ENDBLK
  5
25
330
23
100
AcDbEntity
 67
     1
  8
0
100
AcDbBlockEnd
  0
BLOCK
  5
91B
330
919
100
AcDbEntity
  8
0
100
AcDbBlockBegin
  2
_DotSmall
 70
     0
 10
0.0
 20
0.0
 30
0.0
  3
_DotSmall
  1

  0
LWPOLYLINE
  5
91A
330
919
100
AcDbEntity
  8
0
  6
ByBlock
 62
     0
100
AcDbPolyline
 90
        2
 70
     1
 43
0.5
 10
-0.0625
 20
0.0
 42
1.0
 10
0.0625
 20
0.0
 42
1.0
  0
ENDBLK
  5
91C
330
919
100
AcDbEntity
  8
0
100
AcDbBlockEnd
  0
BLOCK
  5
92A
330
922
100
AcDbEntity
  8
0
100
AcDbBlockBegin
  2
base para cotas
 70
     0
 10
0.0
 20
0.0
 30
0.0
  3
base para cotas
  1

  0
LINE
  5
B36
330
922
100
AcDbEntity
  8
cotas
100
AcDbLine
 10
0.0
 20
-30.0
 30
0.0
 11
327.1260136525398
 21
-30.0
 31
0.0
  0
LINE
  5
B37
330
922
100
AcDbEntity
  8
cotas
100
AcDbLine
 10
0.0
 20
-25.0
 30
0.0
 11
327.1260136525398
 21
-25.0
 31
0.0
  0
LINE
  5
B38
330
922
100
AcDbEntity
  8
cotas
100
AcDbLine
 10
0.0
 20
-20.0
 30
0.0
 11
327.1260136525398
 21
-20.0
 31
0.0
  0
LINE
  5
B39
330
922
100
AcDbEntity
  8
cotas
100
AcDbLine
 10
0.0
 20
-15.0
 30
0.0
 11
327.1260136525398
 21
-15.0
 31
0.0
  0
LINE
  5
B3A
330
922
100
AcDbEntity
  8
cotas
100
AcDbLine
 10
0.0
 20
-10.0
 30
0.0
 11
327.1260136525398
 21
-10.0
 31
0.0
  0
LINE
  5
B3B
330
922
100
AcDbEntity
  8
cotas
100
AcDbLine
 10
0.0
 20
0.0
 30
0.0
 11
0.0
 21
-30.0
 31
0.0
  0
LINE
  5
B3C
330
922
100
AcDbEntity
  8
cotas
100
AcDbLine
 10
327.1260136525398
 20
-30.0
 30
0.0
 11
327.1260136525398
 21
0.0
 31
0.0
  0
ENDBLK
  5
92B
330
922
100
AcDbEntity
  8
0
100
AcDbBlockEnd
  0
BLOCK
  5
AAD
330
AA8
100
AcDbEntity
  8
0
100
AcDbBlockBegin
  2
_CLOSED
 70
     0
 10
0.0
 20
0.0
 30
0.0
  3
_CLOSED
  1

  0
LINE
  5
AA9
330
AA8
100
AcDbEntity
  8
0
100
AcDbLine
 10
-1.0
 20
0.166667
 30
0.0
 11
0.0
 21
0.0
 31
0.0
  0
LINE
  5
AAA
330
AA8
100
AcDbEntity
  8
0
100
AcDbLine
 10
0.0
 20
0.0
 30
0.0
 11
-1.0
 21
-0.166667
 31
0.0
  0
LINE
  5
AAB
330
AA8
100
AcDbEntity
  8
0
100
AcDbLine
 10
-1.0
 20
0.166667
 30
0.0
 11
-1.0
 21
-0.166667
 31
0.0
  0
LINE
  5
AAC
330
AA8
100
AcDbEntity
  8
0
100
AcDbLine
 10
0.0
 20
0.0
 30
0.0
 11
-1.0
 21
0.0
 31
0.0
  0
ENDBLK
  5
AAE
330
AA8
100
AcDbEntity
  8
0
100
AcDbBlockEnd
  0
BLOCK
  5
B7C
330
B79
100
AcDbEntity
  8
0
100
AcDbBlockBegin
  2
nota revisoes
 70
     0
 10
0.0
 20
0.0
 30
0.0
  3
nota revisoes
  1

  0
CIRCLE
  5
B7A
330
B79
100
AcDbEntity
  8
4
100
AcDbCircle
 10
0.0
 20
0.0
 30
0.0
 40
13.69426055101189
  0
TEXT
  5
B7B
330
B79
100
AcDbEntity
  8
4
100
AcDbText
 10
-5.496248358154345
 20
-5.354545554066362
 30
0.0
 40
12.0
  1
1
  7
SANINDUSA
 72
     1
 11
-0.249774214433728
 21
-5.354545554066362
 31
0.0
100
AcDbText
  0
ENDBLK
  5
B7D
330
B79
100
AcDbEntity
  8
0
100
AcDbBlockEnd
  0
BLOCK
  5
B9C
330
B8E
100
AcDbEntity
  8
0
100
AcDbBlockBegin
  2
a3l
 70
     0
 10
0.0
 20
0.0
 30
0.0
  3
a3l
  1

  0
LINE
  5
B8F
330
B8E
100
AcDbEntity
  8
1
100
AcDbLine
 10
-364.2925296599447
 20
-362.1188951399395
 30
0.0
 11
-364.2925296599447
 21
-65.11889513993946
 31
0.0
  0
LINE
  5
B90
330
B8E
100
AcDbEntity
  8
4
100
AcDbLine
 10
-369.2925296599447
 20
-357.1188951399395
 30
0.0
 11
-369.2925296599447
 21
-70.11889513993946
 31
0.0
  0
LINE
  5
B91
330
B8E
100
AcDbEntity
  8
1
100
AcDbLine
 10
-784.2925296599446
 20
-65.11889513993946
 30
0.0
 11
-784.2925296599446
 21
-362.1188951399395
 31
0.0
  0
LINE
  5
B92
330
B8E
100
AcDbEntity
  8
4
100
AcDbLine
 10
-759.2925296599446
 20
-357.1188951399395
 30
0.0
 11
-759.2925296599446
 21
-70.11889513993946
 31
0.0
  0
LINE
  5
B93
330
B8E
100
AcDbEntity
  8
1
100
AcDbLine
 10
-784.2925296599446
 20
-362.1188951399395
 30
0.0
 11
-364.2925296599447
 21
-362.1188951399395
 31
0.0
  0
LINE
  5
B94
330
B8E
100
AcDbEntity
  8
4
100
AcDbLine
 10
-759.2925296599446
 20
-357.1188951399395
 30
0.0
 11
-369.2925296599447
 21
-357.1188951399395
 31
0.0
  0
LINE
  5
B95
330
B8E
100
AcDbEntity
  8
1
100
AcDbLine
 10
-654.2925296599446
 20
-357.1188951399395
 30
0.0
 11
-654.2925296599446
 21
-362.1188951399395
 31
0.0
  0
LINE
  5
B96
330
B8E
100
AcDbEntity
  8
1
100
AcDbLine
 10
-364.2925296599447
 20
-65.11889513993946
 30
0.0
 11
-784.2925296599446
 21
-65.11889513993946
 31
0.0
  0
LINE
  5
B97
330
B8E
100
AcDbEntity
  8
4
100
AcDbLine
 10
-369.2925296599447
 20
-70.11889513993946
 30
0.0
 11
-759.2925296599446
 21
-70.11889513993946
 31
0.0
  0
LINE
  5
B98
330
B8E
100
AcDbEntity
  8
1
100
AcDbLine
 10
-654.2925296599446
 20
-65.11889513993946
 30
0.0
 11
-654.2925296599446
 21
-70.11889513993946
 31
0.0
  0
LINE
  5
B99
330
B8E
100
AcDbEntity
  8
1
100
AcDbLine
 10
-549.2925296599446
 20
-70.11889513993946
 30
0.0
 11
-549.2925296599446
 21
-65.11889513993946
 31
0.0
  0
LINE
  5
B9A
330
B8E
100
AcDbEntity
  8
1
100
AcDbLine
 10
-369.2925296599447
 20
-65.11889513993946
 30
0.0
 11
-364.2925296599447
 21
-65.11889513993946
 31
0.0
  0
LINE
  5
B9B
330
B8E
100
AcDbEntity
  8
1
100
AcDbLine
 10
-549.2925296599446
 20
-357.1188951399395
 30
0.0
 11
-549.2925296599446
 21
-362.1188951399395
 31
0.0
  0
ENDBLK
  5
B9D
330
B8E
100
AcDbEntity
  8
0
100
AcDbBlockEnd
  0
BLOCK
  5
C13
330
B9E
100
AcDbEntity
  8
0
100
AcDbBlockBegin
  2
legenda desenvolvimento
 70
     2
 10
0.0
 20
0.0
 30
0.0
  3
legenda desenvolvimento
  1

  0
ATTDEF
  5
B9F
330
B9E
100
AcDbEntity
  8
1
100
AcDbText
 10
-108.606245802552
 20
55.5
 30
0.0
 40
4.0
  1
XXXXXXXXXXXXXX
 41
0.8
  7
SANINDUSA
 72
     4
 11
-87.5
 21
57.5
 31
0.0
100
AcDbAttributeDefinition
  3
Nome do Produto:
  2
PRODUTO
 70
     0
  0
ATTDEF
  5
BA0
330
B9E
100
AcDbEntity
  8
1
100
AcDbText
 10
-97.9997966101695
 20
41.25
 30
0.0
 40
3.0
  1
XXXXXXXXX
 41
0.8
  7
futura
 72
     4
 11
-87.5
 21
42.75
 31
0.0
100
AcDbAttributeDefinition
  3
Nome da Peça:
  2
PECA
 70
     0
  0
ATTDEF
  5
BA1
330
B9E
100
AcDbEntity
  8
1
100
AcDbText
 10
-133.4422431161853
 20
21.11745296763252
 30
0.0
 40
2.5
  1
X
 41
0.8
  7
SANINDUSA
 72
     4
 11
-132.5
 21
22.36745296763252
 31
0.0
100
AcDbAttributeDefinition
  3
Cod. TESTE:
  2
TESTE
 70
     0
  0
ATTDEF
  5
BA2
330
B9E
100
AcDbEntity
  8
1
100
AcDbText
 10
-124.3844862323707
 20
21.11745296763252
 30
0.0
 40
2.5
  1
XX
 41
0.8
  7
SANINDUSA
 72
     4
 11
-122.5
 21
22.36745296763252
 31
0.0
100
AcDbAttributeDefinition
  3
Cod. Ano:
  2
ANO
 70
     0
  0
ATTDEF
  5
BA3
330
B9E
100
AcDbEntity
  8
1
100
AcDbText
 10
-112.526889953052
 20
21.11745296763252
 30
0.0
 40
2.5
  1
XXX
 41
0.8
  7
SANINDUSA
 72
     4
 11
-109.700160604496
 21
22.36745296763252
 31
0.0
100
AcDbAttributeDefinition
  3
Cod. Sequência:
  2
SEQUENCIA
 70
     0
  0
ATTDEF
  5
BA4
330
B9E
100
AcDbEntity
  8
1
100
AcDbText
 10
-99.35382430979316
 20
21.11745296763252
 30
0.0
 40
2.5
  1
XX
 41
0.8
  7
SANINDUSA
 72
     4
 11
-97.46933807742244
 21
22.36745296763252
 31
0.0
100
AcDbAttributeDefinition
  3
Cod. Tipo:
  2
TIPO
 70
     0
  0
ATTDEF
  5
BA5
330
B9E
100
AcDbEntity
  8
1
100
AcDbText
 10
-87.42035911468438
 20
21.11745296763252
 30
0.0
 40
2.5
  1
XXX
 41
0.8
  7
SANINDUSA
 72
     4
 11
-84.59362976612828
 21
22.36745296763252
 31
0.0
100
AcDbAttributeDefinition
  3
Cod. Produto:
  2
PRODUTO
 70
     0
  0
ATTDEF
  5
BA6
330
B9E
100
AcDbEntity
  8
1
100
AcDbText
 10
-74.62051971917853
 20
21.11745296763252
 30
0.0
 40
2.5
  1
XXX
 41
0.8
  7
SANINDUSA
 72
     4
 11
-71.79379037062244
 21
22.36745296763252
 31
0.0
100
AcDbAttributeDefinition
  3
Cod. Peça:
  2
PECA
 70
     0
  0
ATTDEF
  5
BA7
330
B9E
100
AcDbEntity
  8
1
100
AcDbText
 10
-61.10603446650329
 20
21.11745296763252
 30
0.0
 40
2.5
  1
XX
 41
0.8
  7
SANINDUSA
 72
     4
 11
-59.22154823413257
 21
22.36745296763252
 31
0.0
100
AcDbAttributeDefinition
  3
Cod. Revisão:
  2
REV
 70
     0
  0
ATTDEF
  5
BA8
330
B9E
100
AcDbEntity
  8
1
100
AcDbText
 10
-48.43615325006194
 20
21.11745296763252
 30
0.0
 40
2.5
  1
XX
 41
0.8
  7
SANINDUSA
 72
     4
 11
-46.55166701769121
 21
22.36745296763252
 31
0.0
100
AcDbAttributeDefinition
  3
Cod. Alteração:
  2
ALT
 70
     0
  0
ATTDEF
  5
BA9
330
B9E
100
AcDbEntity
  8
1
100
AcDbText
 10
-35.19086635325722
 20
23.98875083948959
 30
0.0
 40
3.0
  1
1/XXX
 41
0.8
  7
SANINDUSA
 72
     4
 11
-30.0
 21
25.25
 31
0.0
100
AcDbAttributeDefinition
  3
Escala geral:
  2
ESCALA
 70
     0
  0
ATTDEF
  5
BAA
330
B9E
100
AcDbEntity
  8
1
100
AcDbText
 10
-15.65345869711215
 20
23.75
 30
0.0
 40
3.0
  1
XXXXX
 41
0.8
  7
SANINDUSA
 72
     4
 11
-10.0
 21
25.25
 31
0.0
100
AcDbAttributeDefinition
  3
Folha:
  2
FOLHA
 70
     0
  0
ATTDEF
  5
BAB
330
B9E
100
AcDbEntity
  8
1
100
AcDbText
 10
-178.5146998822042
 20
56.9531347542807
 30
0.0
 40
2.0
  1
xx
 41
0.8
  7
SANINDUSA
 72
     4
 11
-177.2123493113513
 21
57.70330265219877
 31
0.0
100
AcDbAttributeDefinition
  3
revisão
  2
REV.
 70
     0
  0
ATTDEF
  5
BAC
330
B9E
100
AcDbEntity
  8
1
100
AcDbText
 10
-172.7849640077129
 20
56.9531347542807
 30
0.0
 40
2.0
  1
xx
 41
0.8
  7
SANINDUSA
 72
     4
 11
-171.48261343686
 21
57.70330265219877
 31
0.0
100
AcDbAttributeDefinition
  3
alteração
  2
ALT.
 70
     0
  0
ATTDEF
  5
BAD
330
B9E
100
AcDbEntity
  8
1
100
AcDbText
 10
-168.007199951307
 20
56.70330265219877
 30
0.0
 40
2.0
  1
xx/xx/xxxx
 41
0.8
  7
SANINDUSA
 11
-168.007199951307
 21
57.70330265219877
 31
0.0
100
AcDbAttributeDefinition
  3
data
  2
DATA
 70
     0
 74
     2
  0
ATTDEF
  5
BAE
330
B9E
100
AcDbEntity
  8
1
100
AcDbText
 10
-168.5396372253371
 20
13.15916722632639
 30
0.0
 40
2.0
  1
XX/XX/XXXX
 41
0.8
  7
SANINDUSA
 72
     4
 11
-161.5099528734231
 21
14.0
 31
0.0
100
AcDbAttributeDefinition
  3
Data projecto
  2
DATA_PROJ
 70
     0
  0
ATTDEF
  5
BAF
330
B9E
100
AcDbEntity
  8
1
100
AcDbText
 10
-150.8658110728766
 20
13.24983210208193
 30
0.0
 40
2.0
  1
xxxxxxxx
 41
0.8
  7
SANINDUSA
 72
     4
 11
-145.6564087894649
 21
14.0
 31
0.0
100
AcDbAttributeDefinition
  3
nome de quem projectou
  2
NOME
 70
     0
  0
ATTDEF
  5
BB0
330
B9E
100
AcDbEntity
  8
1
100
AcDbText
 10
-168.5396372253371
 20
9.159167226326394
 30
0.0
 40
2.0
  1
XX/XX/XXXX
 41
0.8
  7
SANINDUSA
 72
     4
 11
-161.5099528734231
 21
10.0
 31
0.0
100
AcDbAttributeDefinition
  3
Data desenhou
  2
DATA_DES
 70
     0
  0
ATTDEF
  5
BB1
330
B9E
100
AcDbEntity
  8
1
100
AcDbText
 10
-151.516986358303
 20
9.249832102081933
 30
0.0
 40
2.0
  1
xxxxxxxxx
 41
0.8
  7
SANINDUSA
 72
     4
 11
-145.6564087894649
 21
10.0
 31
0.0
100
AcDbAttributeDefinition
  3
nome
  2
NOME
 70
     0
  0
ATTDEF
  5
BB2
330
B9E
100
AcDbEntity
  8
1
100
AcDbText
 10
-127.2924214135946
 20
14.1979876583216
 30
0.0
 40
2.0
  1
Vitreous China
 41
0.8
  7
SANINDUSA
 72
     4
 11
-119.231709526422
 21
15.22216495852308
 31
0.0
100
AcDbAttributeDefinition
  3
Nome do Material:
  2
MATERIAL
 70
     0
  0
ATTDEF
  5
BB3
330
B9E
100
AcDbEntity
  8
1
100
AcDbText
 10
-103.1563452122093
 20
14.38019043949261
 30
0.0
 40
2.0
  1
Branco
 41
0.8
  7
SANINDUSA
 72
     4
 11
-99.33418268702462
 21
15.35937109765245
 31
0.0
100
AcDbAttributeDefinition
  3
cor da peça
  2
COR
 70
     0
  0
ATTDEF
  5
BB4
330
B9E
100
AcDbEntity
  8
1
100
AcDbText
 10
-116.7235057085292
 20
5.975822699798522
 30
0.0
 40
2.0
  1
Vidrado
 41
0.8
  7
SANINDUSA
 72
     4
 11
-112.5
 21
7.0
 31
0.0
100
AcDbAttributeDefinition
  3
Tipo de acabamento:
  2
ACABAMENTO
 70
     0
  0
ATTDEF
  5
BB5
330
B9E
100
AcDbEntity
  8
1
100
AcDbText
 10
-79.18527869967246
 20
16.65066409850533
 30
0.0
 40
2.0
  1
XXXXXXX
 41
0.8
  7
SANINDUSA
 72
     4
 11
-73.90871724903445
 21
17.65066409850533
 31
0.0
100
AcDbAttributeDefinition
  3
Normas
  2
NORMAS
 70
     0
  0
ATTDEF
  5
BB6
330
B9E
100
AcDbEntity
  8
1
100
AcDbText
 10
-30.55312290127603
 20
14.0
 30
0.0
 40
2.0
  1
XXXXXXXXXXXXXX
 41
0.8
  7
SANINDUSA
 72
     4
 11
-20.0
 21
15.0
 31
0.0
100
AcDbAttributeDefinition
  3
Substitui o desenho:
  2
SUBSTITUI
 70
     0
  0
ATTDEF
  5
BB7
330
B9E
100
AcDbEntity
  8
1
100
AcDbText
 10
-31.30691739422431
 20
6.0
 30
0.0
 40
2.0
  1
XXXXXXXXXXXXXXX
 41
0.8
  7
SANINDUSA
 72
     4
 11
-20.0
 21
7.0
 31
0.0
100
AcDbAttributeDefinition
  3
Substituido por:
  2
SUBSTITUIDO
 70
     0
  0
ATTDEF
  5
BB8
330
B9E
100
AcDbEntity
  8
1
100
AcDbText
 10
-110.0220608548302
 20
1.478208457928303
 30
0.0
 40
2.0
  1
XXXXXXXXXXXXXXXXXXXXXXXXXXXXXXXXXX
 41
0.8
  7
SANINDUSA
 11
-110.0220608548302
 21
2.478208457928303
 31
0.0
100
AcDbAttributeDefinition
  3
Localização do desenho:
  2
LOC-DWG
 70
     0
 74
     2
  0
LINE
  5
BB9
330
B9E
100
AcDbEntity
  8
3
100
AcDbLine
 10
-135.0
 20
4.0
 30
0.0
 11
0.0000000000004547
 21
4.0
 31
0.0
  0
LINE
  5
BBA
330
B9E
100
AcDbEntity
  8
3
100
AcDbLine
 10
-90.00000000000046
 20
12.0
 30
0.0
 11
-135.0
 21
12.0
 31
0.0
  0
LINE
  5
BBB
330
B9E
100
AcDbEntity
  8
3
100
AcDbLine
 10
-135.0
 20
32.5
 30
0.0
 11
-40.0
 21
32.5
 31
0.0
  0
TEXT
  5
BBC
330
B9E
100
AcDbEntity
  8
1
100
AcDbText
 10
-134.0
 20
1.25
 30
0.0
 40
2.0
  1
Localização do des.:
 41
0.8
  7
SANINDUSA
 11
-134.0
 21
2.25
 31
0.0
100
AcDbText
 73
     2
  0
LINE
  5
BBD
330
B9E
100
AcDbEntity
  8
3
100
AcDbLine
 10
-180.0
 20
65.0
 30
0.0
 11
0.0
 21
65.0
 31
0.0
  0
LINE
  5
BBE
330
B9E
100
AcDbEntity
  8
leg fin
100
AcDbLine
 10
-40.0
 20
25.05956924886846
 30
0.0
 11
-135.0
 21
25.05956924886846
 31
0.0
  0
LINE
  5
BBF
330
B9E
100
AcDbEntity
  8
leg fin
100
AcDbLine
 10
-40.0
 20
28.5
 30
0.0
 11
-135.0
 21
28.5
 31
0.0
  0
LINE
  5
BC0
330
B9E
100
AcDbEntity
  8
3
100
AcDbLine
 10
-135.0
 20
50.0
 30
0.0
 11
-40.0
 21
50.0
 31
0.0
  0
TEXT
  5
BC1
330
B9E
100
AcDbEntity
  8
1
100
AcDbText
 10
-134.0
 20
29.75
 30
0.0
 40
2.0
  1
Desenho nº:
 41
0.8
  7
SANINDUSA
 11
-134.0
 21
30.75
 31
0.0
100
AcDbText
 73
     2
  0
TEXT
  5
BC2
330
B9E
100
AcDbEntity
  8
1
100
AcDbText
 10
-134.0
 20
9.25
 30
0.0
 40
2.0
  1
Acabamento:
 41
0.8
  7
SANINDUSA
 11
-134.0
 21
10.25
 31
0.0
100
AcDbText
 73
     2
  0
LINE
  5
BC3
330
B9E
100
AcDbEntity
  8
3
100
AcDbLine
 10
-180.0
 20
20.0
 30
0.0
 11
0.0
 21
20.0
 31
0.0
  0
LINE
  5
BC4
330
B9E
100
AcDbEntity
  8
1
100
AcDbLine
 10
-174.5810776056337
 20
55.5
 30
0.0
 11
-174.5810776056337
 21
65.0
 31
0.0
  0
LINE
  5
BC5
330
B9E
100
AcDbEntity
  8
1
100
AcDbLine
 10
-168.9210461879161
 20
55.5
 30
0.0
 11
-168.9210461879161
 21
65.0
 31
0.0
  0
LINE
  5
BC6
330
B9E
100
AcDbEntity
  8
1
100
AcDbLine
 10
-154.0988595589306
 20
55.5
 30
0.0
 11
-154.0988595589306
 21
65.0
 31
0.0
  0
LINE
  5
BC7
330
B9E
100
AcDbEntity
  8
3
100
AcDbLine
 10
-180.0
 20
65.0
 30
0.0
 11
-180.0
 21
0.0
 31
0.0
  0
LINE
  5
BC8
330
B9E
100
AcDbEntity
  8
3
100
AcDbLine
 10
-135.0
 20
0.0
 30
0.0
 11
-135.0
 21
65.0
 31
0.0
  0
TEXT
  5
BC9
330
B9E
100
AcDbEntity
  8
1
100
AcDbText
 10
-179.0
 20
9.75
 30
0.0
 40
1.5
  1
Des.
 41
0.8
  7
SANINDUSA
 11
-179.0
 21
10.5
 31
0.0
100
AcDbText
 73
     2
  0
LINE
  5
BCA
330
B9E
100
AcDbEntity
  8
1
100
AcDbLine
 10
-168.9210461879161
 20
20.0
 30
0.0
 11
-168.9210461879161
 21
0.0
 31
0.0
  0
LINE
  5
BCB
330
B9E
100
AcDbEntity
  8
1
100
AcDbLine
 10
-154.0988595589306
 20
20.0
 30
0.0
 11
-154.0988595589306
 21
0.0
 31
0.0
  0
LINE
  5
BCC
330
B9E
100
AcDbEntity
  8
1
100
AcDbLine
 10
-180.0
 20
4.0
 30
0.0
 11
-135.0
 21
4.0
 31
0.0
  0
LINE
  5
BCD
330
B9E
100
AcDbEntity
  8
1
100
AcDbLine
 10
-180.0
 20
8.0
 30
0.0
 11
-135.0
 21
8.0
 31
0.0
  0
TEXT
  5
BCE
330
B9E
100
AcDbEntity
  8
1
100
AcDbText
 10
-179.0
 20
1.73257823687436
 30
0.0
 40
1.5
  1
Aprov.
 41
0.8
  7
SANINDUSA
 11
-179.0
 21
2.48257823687436
 31
0.0
100
AcDbText
 73
     2
  0
TEXT
  5
BCF
330
B9E
100
AcDbEntity
  8
1
100
AcDbText
 10
-179.0
 20
5.75
 30
0.0
 40
1.5
  1
Ver.
 41
0.8
  7
SANINDUSA
 11
-179.0
 21
6.5
 31
0.0
100
AcDbText
 73
     2
  0
LINE
  5
BD0
330
B9E
100
AcDbEntity
  8
1
100
AcDbLine
 10
-180.0
 20
16.0
 30
0.0
 11
-135.0
 21
16.0
 31
0.0
  0
LINE
  5
BD1
330
B9E
100
AcDbEntity
  8
1
100
AcDbLine
 10
-180.0
 20
12.0
 30
0.0
 11
-135.0
 21
12.0
 31
0.0
  0
TEXT
  5
BD2
330
B9E
100
AcDbEntity
  8
1
100
AcDbText
 10
-179.0
 20
13.75
 30
0.0
 40
1.5
  1
Proj.
 41
0.8
  7
SANINDUSA
 11
-179.0
 21
14.5
 31
0.0
100
AcDbText
 73
     2
  0
TEXT
  5
BD3
330
B9E
100
AcDbEntity
  8
1
100
AcDbText
 10
-167.9210461879161
 20
17.75
 30
0.0
 40
1.5
  1
Data
 41
0.8
  7
SANINDUSA
 11
-167.9210461879161
 21
18.5
 31
0.0
100
AcDbText
 73
     2
  0
TEXT
  5
BD4
330
B9E
100
AcDbEntity
  8
1
100
AcDbText
 10
-153.0988595589306
 20
17.75
 30
0.0
 40
1.5
  1
Nome
 41
0.8
  7
SANINDUSA
 11
-153.0988595589306
 21
18.5
 31
0.0
100
AcDbText
 73
     2
  0
LINE
  5
BD5
330
B9E
100
AcDbEntity
  8
leg fin
100
AcDbLine
 10
-130.0
 20
20.0
 30
0.0
 11
-130.0
 21
28.5
 31
0.0
  0
TEXT
  5
BD6
330
B9E
100
AcDbEntity
  8
1
100
AcDbText
 10
-134.0
 20
17.25
 30
0.0
 40
2.0
  1
Material:
 41
0.8
  7
SANINDUSA
 11
-134.0
 21
18.25
 31
0.0
100
AcDbText
 73
     2
  0
TEXT
  5
BD7
330
B9E
100
AcDbEntity
  8
1
100
AcDbText
 10
-129.0
 20
26.43288406845113
 30
0.0
 40
1.5
  1
Ano:
 41
0.8
  7
SANINDUSA
 11
-129.0
 21
27.18288406845113
 31
0.0
100
AcDbText
 73
     2
  0
LINE
  5
BD8
330
B9E
100
AcDbEntity
  8
1
100
AcDbLine
 10
-180.0
 20
55.5
 30
0.0
 11
-135.0
 21
55.5
 31
0.0
  0
TEXT
  5
BD9
330
B9E
100
AcDbEntity
  8
1
100
AcDbText
 10
-179.0
 20
52.67772246885193
 30
0.0
 40
1.5
  1
descrição
 41
0.8
  7
SANINDUSA
 11
-179.0
 21
53.42772246885193
 31
0.0
100
AcDbText
 73
     2
  0
TEXT
  5
BDA
330
B9E
100
AcDbEntity
  8
1
100
AcDbText
 10
-134.0
 20
47.25
 30
0.0
 40
2.0
  1
Peça:
 41
0.8
  7
SANINDUSA
 11
-134.0
 21
48.25
 31
0.0
100
AcDbText
 73
     2
  0
LINE
  5
BDB
330
B9E
100
AcDbEntity
  8
1
100
AcDbLine
 10
-180.0
 20
59.5
 30
0.0
 11
-135.0
 21
59.5
 31
0.0
  0
TEXT
  5
BDC
330
B9E
100
AcDbEntity
  8
1
100
AcDbText
 10
-173.5810776056337
 20
62.75
 30
0.0
 40
1.5
  1
Alt.
 41
0.8
  7
SANINDUSA
 11
-173.5810776056337
 21
63.5
 31
0.0
100
AcDbText
 73
     2
  0
TEXT
  5
BDD
330
B9E
100
AcDbEntity
  8
1
100
AcDbText
 10
-179.0
 20
62.75
 30
0.0
 40
1.5
  1
Rev.
 41
0.8
  7
SANINDUSA
 11
-179.0
 21
63.5
 31
0.0
100
AcDbText
 73
     2
  0
TEXT
  5
BDE
330
B9E
100
AcDbEntity
  8
1
100
AcDbText
 10
-167.9210461879161
 20
62.75
 30
0.0
 40
1.5
  1
Data
 41
0.8
  7
SANINDUSA
 11
-167.9210461879161
 21
63.5
 31
0.0
100
AcDbText
 73
     2
  0
TEXT
  5
BDF
330
B9E
100
AcDbEntity
  8
1
100
AcDbText
 10
-153.0988595589306
 20
62.75
 30
0.0
 40
1.5
  1
Nome
 41
0.8
  7
SANINDUSA
 11
-153.0988595589306
 21
63.5
 31
0.0
100
AcDbText
 73
     2
  0
TEXT
  5
BE0
330
B9E
100
AcDbEntity
  8
1
100
AcDbText
 10
-134.0
 20
62.25
 30
0.0
 40
2.0
  1
Produto:
 41
0.8
  7
SANINDUSA
 11
-134.0
 21
63.25
 31
0.0
100
AcDbText
 73
     2
  0
LINE
  5
BE1
330
B9E
100
AcDbEntity
  8
3
100
AcDbLine
 10
-40.0
 20
4.0
 30
0.0
 11
-40.0
 21
65.0
 31
0.0
  0
LWPOLYLINE
  5
BE2
102
{ACAD_REACTORS
330
BEC
102
}
330
B9E
100
AcDbEntity
  8
9
100
AcDbPolyline
 90
       12
 70
     1
 43
0.0
 10
-3.038714600644652
 20
58.90010174665076
 10
-5.726962862472191
 20
58.90010174665076
 10
-5.726962862472191
 20
58.5001017466509
 10
-3.038748516195028
 20
58.5001017466509
 42
-0.4142135623731731
 10
-2.638748516194482
 20
58.1001017466508
 10
-2.638748516194482
 20
57.42799728675596
 10
-5.21497371544865
 20
57.42799728675596
 42
0.4142135623731289
 10
-6.014973715448377
 20
56.627997286756
 10
-6.014973715448377
 20
55.92380871629643
 42
0.4142135623731132
 10
-5.21497371544865
 20
55.12380871629648
 10
-2.23871460064447
 20
55.12380871629648
 10
-2.23871460064447
 20
58.10010174665103
 42
0.4142135623730717
  0
LWPOLYLINE
  5
BE3
102
{ACAD_REACTORS
330
BEC
102
}
330
B9E
100
AcDbEntity
  8
9
100
AcDbPolyline
 90
       20
 70
     1
 43
0.0
 10
-10.01531287095122
 20
57.82799728675581
 10
-10.01531287095122
 20
58.10010174665103
 42
-0.4142135623730744
 10
-9.615312870951584
 20
58.5001017466509
 10
-6.92703069357276
 20
58.5001017466509
 10
-6.92703069357276
 20
58.90010174665076
 10
-9.615346786501959
 20
58.90010174665076
 42
0.4142135623730883
 10
-10.41534678650168
 20
58.1001017466508
 10
-10.41534678650168
 20
57.82796337120567
 42
0.4142135623730717
 10
-9.615346786501959
 20
57.02796337120571
 10
-7.423079531965413
 20
57.02796337120571
 42
-0.4142135623730847
 10
-7.023079531965322
 20
56.62796337120562
 10
-7.023079531965322
 20
55.90786840766487
 42
-0.4142135623730744
 10
-7.423079531965413
 20
55.507868407665
 10
-10.41534678650168
 20
55.507868407665
 10
-10.41534678650168
 20
55.12380871629648
 10
-7.445787917283723
 20
55.12380871629648
 42
0.4114777732064574
 10
-6.645822882998345
 20
55.9163291493976
 10
-6.639238813324936
 20
56.62051771985716
 42
0.4169546541682913
 10
-7.439203847610315
 20
57.42799728675596
 10
-9.615312870951584
 20
57.42799728675596
 42
-0.4142135623731576
  0
LWPOLYLINE
  5
BE4
102
{ACAD_REACTORS
330
BEC
102
}
330
B9E
100
AcDbEntity
  8
9
100
AcDbPolyline
 90
       12
 70
     1
 43
0.0
 10
-14.41561811090378
 20
58.90010174665076
 10
-14.79964388672215
 20
58.90010174665076
 10
-14.79964388672215
 20
55.92380871629643
 42
0.4142135623731133
 10
-13.99964388672242
 20
55.12380871629648
 10
-11.8233508563676
 20
55.12380871629648
 42
0.4142135623730872
 10
-11.02335085636741
 20
55.92380871629643
 10
-11.02335085636741
 20
58.90010174665076
 10
-11.42338477191788
 20
58.90010174665076
 10
-11.42338477191788
 20
55.91567577726095
 42
-0.4131711701795318
 10
-11.82196067063523
 20
55.51567831234956
 10
-14.0141940096214
 20
55.50787335710947
 42
-0.4152567234624407
 10
-14.41561811090378
 20
55.90787082202087
  0
LWPOLYLINE
  5
BE5
102
{ACAD_REACTORS
330
BEC
102
}
330
B9E
100
AcDbEntity
  8
9
100
AcDbPolyline
 90
        6
 70
     1
 43
0.0
 10
-15.80771578768872
 20
55.507868407665
 10
-18.39994912667453
 20
55.507868407665
 42
-0.4142135623731731
 10
-18.79994912667462
 20
55.90786840766487
 10
-18.79994912667462
 20
58.10010174665103
 42
-0.4142135623730744
 10
-18.39994912667453
 20
58.5001017466509
 10
-15.80771578768872
 20
58.5001017466509
  0
LWPOLYLINE
  5
BE6
102
{ACAD_REACTORS
330
BEC
102
}
330
B9E
100
AcDbEntity
  8
9
100
AcDbPolyline
 90
        8
 70
     1
 43
0.0
 10
-15.4236900118708
 20
59.87619128370352
 10
-15.80771578768872
 20
59.87619128370352
 10
-15.80771578768872
 20
58.90010174665076
 10
-18.39176256411201
 20
58.90010174665076
 42
0.4131164467977967
 10
-19.19175694739761
 20
58.1030995310698
 10
-19.1999120763262
 20
55.92680650071542
 42
0.4153115297271718
 10
-18.39991769304061
 20
55.12380871629648
 10
-15.4236900118708
 20
55.12380871629648
  0
LWPOLYLINE
  5
BE7
102
{ACAD_REACTORS
330
BEC
102
}
330
B9E
100
AcDbEntity
  8
9
100
AcDbPolyline
 90
       10
 70
     1
 43
0.0
 10
-20.59201288790928
 20
58.90010174665076
 10
-23.56830591826338
 20
58.90010174665076
 10
-23.56830591826338
 20
55.12380871629648
 10
-23.18424622689509
 20
55.12380871629648
 10
-23.18424622689509
 20
58.5001017466509
 10
-20.59204680345965
 20
58.5001017466509
 42
-0.4142135623730898
 10
-20.19204680345956
 20
58.1001017466508
 10
-20.19204680345956
 20
55.12380871629648
 10
-19.79201288790909
 20
55.12380871629648
 10
-19.79201288790909
 20
58.10010174665103
 42
0.4142135623731132
  0
LWPOLYLINE
  5
BE8
102
{ACAD_REACTORS
330
BEC
102
}
330
B9E
100
AcDbEntity
  8
9
100
AcDbPolyline
 90
        4
 70
     1
 43
0.0
 10
-24.19231812786165
 20
58.90010174665076
 10
-24.57637781922995
 20
58.90010174665076
 10
-24.57637781922995
 20
55.12380871629648
 10
-24.19231812786165
 20
55.12380871629648
  0
LWPOLYLINE
  5
BE9
102
{ACAD_REACTORS
330
BEC
102
}
330
B9E
100
AcDbEntity
  8
9
100
AcDbPolyline
 90
       10
 70
     1
 43
0.0
 10
-28.57661522808212
 20
58.5001017466509
 10
-25.98444972019706
 20
58.5001017466509
 42
-0.4142135623731731
 10
-25.58444972019652
 20
58.1001017466508
 10
-25.58444972019652
 20
55.12380871629648
 10
-25.2004239443786
 20
55.12380871629648
 10
-25.2004239443786
 20
58.10010174665103
 42
0.4142135623730717
 10
-26.00042394437833
 20
58.90010174665076
 10
-28.97664914363259
 20
58.90010174665076
 10
-28.97664914363259
 20
55.12380871629648
 10
-28.57661522808212
 20
55.12380871629648
  0
LWPOLYLINE
  5
BEA
102
{ACAD_REACTORS
330
BEC
102
}
330
B9E
100
AcDbEntity
  8
9
100
AcDbPolyline
 90
       12
 70
     1
 43
0.0
 10
-29.58465321349832
 20
58.10010174665103
 42
0.4142135623730716
 10
-30.3846532134985
 20
58.90010174665076
 10
-33.07296930642724
 20
58.90010174665076
 10
-33.07296930642724
 20
58.5001017466509
 10
-30.38468712904842
 20
58.5001017466509
 42
-0.4142135623730067
 10
-29.98468712904878
 20
58.1001017466508
 10
-29.98468712904878
 20
57.42799728675618
 10
-32.56098015940324
 20
57.42799728675596
 42
0.4142135623731289
 10
-33.36098015940343
 20
56.627997286756
 10
-33.36098015940343
 20
55.92380871629643
 42
0.4142135623731132
 10
-32.56098015940324
 20
55.12380871629648
 10
-29.58465321349832
 20
55.12380871629648
  0
LWPOLYLINE
  5
BEB
102
{ACAD_REACTORS
330
BEC
102
}
330
B9E
100
AcDbEntity
  8
9
100
AcDbPolyline
 90
       20
 70
     1
 43
0.0
 10
-34.7850262845518
 20
57.42799728675596
 10
-36.96125148380543
 20
57.42799728675596
 42
-0.4142135623730898
 10
-37.36125148380552
 20
57.82799728675604
 10
-37.36125148380552
 20
58.10010174665103
 42
-0.4142135623730744
 10
-36.96125148380543
 20
58.5001017466509
 10
-34.27303713752781
 20
58.50010174665067
 10
-34.27303713752781
 20
58.90010174665076
 10
-36.96128539935535
 20
58.90010174665076
 42
0.4142135623731289
 10
-37.76128539935553
 20
58.1001017466508
 10
-37.76128539935553
 20
57.82796337120567
 42
0.4142135623730716
 10
-36.9612853993558
 20
57.02796337120571
 10
-34.76901814481926
 20
57.02796337120571
 42
-0.414213562373168
 10
-34.36901814481962
 20
56.62796337120562
 10
-34.36901814481962
 20
55.90786840766487
 42
-0.4142135623730744
 10
-34.76901814481926
 20
55.507868407665
 10
-37.76128539935553
 20
55.507868407665
 10
-37.76128539935553
 20
55.12380871629648
 10
-34.7850262845518
 20
55.12380871629648
 42
0.4142135623731289
 10
-33.98502628455162
 20
55.92380871629643
 10
-33.98502628455162
 20
56.627997286756
 42
0.4142135623731132
  0
HATCH
  5
BEC
330
B9E
100
AcDbEntity
  8
9
100
AcDbHatch
 10
0.0
 20
0.0
 30
0.0
210
0.0
220
0.0
230
1.0
  2
SOLID
 70
     1
 71
     1
 91
       13
 92
        7
 72
     1
 73
     1
 93
       20
 10
-34.36901814481962
 20
55.90786840766487
 42
-0.414213562372991
 10
-34.76901814481926
 20
55.507868407665
 42
0.0
 10
-37.76128539935553
 20
55.507868407665
 42
0.0
 10
-37.76128539935553
 20
55.12380871629648
 42
0.0
 10
-34.7850262845518
 20
55.12380871629648
 42
0.4142135623731705
 10
-33.98502628455162
 20
55.92380871629666
 42
0.0
 10
-33.98502628455162
 20
56.627997286756
 42
0.4142135623731547
 10
-34.7850262845518
 20
57.42799728675596
 42
0.0
 10
-36.96125148380543
 20
57.42799728675596
 42
-0.4142135623730898
 10
-37.36125148380552
 20
57.82799728675604
 42
0.0
 10
-37.36125148380552
 20
58.1001017466508
 42
-0.4142135623731575
 10
-36.96125148380543
 20
58.5001017466509
 42
0.0
 10
-34.27303713752781
 20
58.50010174665067
 42
0.0
 10
-34.27303713752781
 20
58.90010174665076
 42
0.0
 10
-36.96128539935535
 20
58.90010174665076
 42
0.4142135623731705
 10
-37.76128539935553
 20
58.10010174665058
 42
0.0
 10
-37.76128539935553
 20
57.82796337120544
 42
0.4142135623730299
 10
-36.9612853993558
 20
57.02796337120571
 42
0.0
 10
-34.76901814481926
 20
57.02796337120571
 42
-0.4142135623730015
 10
-34.36901814481962
 20
56.62796337120608
 42
0.0
 97
        1
330
BEB
 92
        7
 72
     1
 73
     1
 93
       12
 10
-33.36098015940343
 20
55.92380871629666
 42
0.4142135623731547
 10
-32.56098015940324
 20
55.12380871629648
 42
0.0
 10
-29.58465321349877
 20
55.12380871629648
 42
0.0
 10
-29.58465321349832
 20
58.10010174665058
 42
0.4142135623731964
 10
-30.3846532134985
 20
58.90010174665076
 42
0.0
 10
-33.07296930642724
 20
58.90010174665076
 42
0.0
 10
-33.07296930642724
 20
58.50010174665067
 42
0.0
 10
-30.38468712904887
 20
58.5001017466509
 42
-0.4142135623732564
 10
-29.98468712904878
 20
58.10010174665103
 42
0.0
 10
-29.98468712904923
 20
57.42799728675596
 42
0.0
 10
-32.56098015940324
 20
57.42799728675596
 42
0.4142135623731705
 10
-33.36098015940343
 20
56.627997286756
 42
0.0
 97
        1
330
BEA
 92
       22
 72
     1
 73
     1
 93
        6
 10
-32.97692046803468
 20
56.62796337120562
 42
-0.4142135623731576
 10
-32.57692046803459
 20
57.02796337120571
 42
0.0
 10
-29.98468712904878
 20
57.02796337120571
 42
0.0
 10
-29.98468712904878
 20
55.507868407665
 42
0.0
 10
-32.57692046803459
 20
55.507868407665
 42
-0.4142135623731731
 10
-32.97692046803468
 20
55.90786840766487
 42
0.0
 97
        1
330
C11
 92
        7
 72
     1
 73
     1
 93
       10
 10
-28.57661522808212
 20
58.5001017466509
 42
0.0
 10
-25.98444972019661
 20
58.5001017466509
 42
-0.4142135623730067
 10
-25.58444972019652
 20
58.10010174665058
 42
0.0
 10
-25.58444972019606
 20
55.12380871629648
 42
0.0
 10
-25.20042394437906
 20
55.12380871629648
 42
0.0
 10
-25.2004239443786
 20
58.1001017466508
 42
0.4142135623731134
 10
-26.00042394437833
 20
58.90010174665076
 42
0.0
 10
-28.97664914363259
 20
58.90010174665076
 42
0.0
 10
-28.97664914363259
 20
55.12380871629648
 42
0.0
 10
-28.57661522808212
 20
55.12380871629648
 42
0.0
 97
        1
330
BE9
 92
        7
 72
     0
 73
     1
 93
        4
 10
-24.57637781922995
 20
55.12380871629648
 10
-24.19231812786165
 20
55.12380871629648
 10
-24.19231812786165
 20
58.90010174665076
 10
-24.57637781922995
 20
58.90010174665076
 97
        1
330
BE8
 92
        7
 72
     0
 73
     1
 93
        4
 10
-24.19231812786165
 20
59.87619128370352
 10
-24.5763778192304
 20
59.87619128370352
 10
-24.5763778192304
 20
59.28412752246913
 10
-24.1923181278612
 20
59.28412752246913
 97
        1
330
C12
 92
        7
 72
     1
 73
     1
 93
       10
 10
-23.18424622689509
 20
58.5001017466509
 42
0.0
 10
-20.59204680345965
 20
58.5001017466509
 42
-0.4142135623730898
 10
-20.19204680345956
 20
58.1001017466508
 42
0.0
 10
-20.19204680345956
 20
55.12380871629648
 42
0.0
 10
-19.79201288790909
 20
55.12380871629648
 42
0.0
 10
-19.79201288790909
 20
58.1001017466508
 42
0.4142135623731547
 10
-20.59201288790928
 20
58.90010174665076
 42
0.0
 10
-23.56830591826338
 20
58.90010174665076
 42
0.0
 10
-23.56830591826338
 20
55.12380871629648
 42
0.0
 10
-23.18424622689463
 20
55.12380871629648
 42
0.0
 97
        1
330
BE7
 92
        7
 72
     1
 73
     1
 93
        8
 10
-19.1999120763262
 20
55.92680650071542
 42
0.4153115297271299
 10
-18.39991769304061
 20
55.12380871629648
 42
0.0
 10
-15.4236900118708
 20
55.12380871629648
 42
0.0
 10
-15.4236900118708
 20
59.87619128370352
 42
0.0
 10
-15.80771578768872
 20
59.87619128370352
 42
0.0
 10
-15.80771578768872
 20
58.90010174665076
 42
0.0
 10
-18.39176256411201
 20
58.90010174665076
 42
0.4131164467977965
 10
-19.19175694739761
 20
58.1030995310698
 42
0.0
 97
        1
330
BE6
 92
       22
 72
     1
 73
     1
 93
        6
 10
-18.79994912667462
 20
58.1001017466508
 42
-0.4142135623731575
 10
-18.39994912667453
 20
58.5001017466509
 42
0.0
 10
-15.80771578768872
 20
58.50010174665067
 42
0.0
 10
-15.80771578768827
 20
55.507868407665
 42
0.0
 10
-18.39994912667453
 20
55.507868407665
 42
-0.4142135623731731
 10
-18.79994912667462
 20
55.90786840766487
 42
0.0
 97
        1
330
BE5
 92
        7
 72
     1
 73
     1
 93
       12
 10
-14.79964388672215
 20
55.92380871629621
 42
0.4142135623729885
 10
-13.99964388672242
 20
55.12380871629648
 42
0.0
 10
-11.8233508563676
 20
55.12380871629648
 42
0.4142135623731289
 10
-11.02335085636741
 20
55.92380871629666
 42
0.0
 10
-11.02335085636741
 20
58.90010174665076
 42
0.0
 10
-11.42338477191788
 20
58.90010174665076
 42
0.0
 10
-11.42338477191788
 20
55.91567577726095
 42
-0.4131711701795319
 10
-11.82196067063523
 20
55.51567831234956
 42
0.0
 10
-14.01419400962095
 20
55.50787335710947
 42
-0.4152567234626918
 10
-14.41561811090378
 20
55.90787082202087
 42
0.0
 10
-14.41561811090378
 20
58.90010174665076
 42
0.0
 10
-14.7996438867226
 20
58.90010174665076
 42
0.0
 97
        1
330
BE4
 92
        7
 72
     1
 73
     1
 93
       20
 10
-7.423079531965413
 20
57.02796337120571
 42
-0.414213562373168
 10
-7.023079531965322
 20
56.62796337120562
 42
0.0
 10
-7.023079531965322
 20
55.90786840766487
 42
-0.4142135623731575
 10
-7.423079531965413
 20
55.507868407665
 42
0.0
 10
-10.41534678650168
 20
55.507868407665
 42
0.0
 10
-10.41534678650168
 20
55.12380871629648
 42
0.0
 10
-7.445787917283723
 20
55.12380871629648
 42
0.4114777732065809
 10
-6.645822882998345
 20
55.91632914939783
 42
0.0
 10
-6.639238813324936
 20
56.62051771985716
 42
0.4169546541682913
 10
-7.439203847610315
 20
57.42799728675596
 42
0.0
 10
-9.615312870951584
 20
57.42799728675596
 42
-0.4142135623729911
 10
-10.01531287095122
 20
57.82799728675581
 42
0.0
 10
-10.01531287095122
 20
58.10010174665103
 42
-0.414213562372991
 10
-9.615312870951584
 20
58.5001017466509
 42
0.0
 10
-6.92703069357276
 20
58.50010174665067
 42
0.0
 10
-6.927030693572305
 20
58.90010174665076
 42
0.0
 10
-9.615346786501959
 20
58.90010174665076
 42
0.4142135623730467
 10
-10.41534678650168
 20
58.10010174665103
 42
0.0
 10
-10.41534678650168
 20
57.82796337120544
 42
0.4142135623730301
 10
-9.615346786501959
 20
57.02796337120571
 42
0.0
 97
        1
330
BE3
 92
        7
 72
     1
 73
     1
 93
       12
 10
-5.21497371544865
 20
57.42799728675596
 42
0.4142135623730871
 10
-6.014973715448377
 20
56.627997286756
 42
0.0
 10
-6.014973715448377
 20
55.92380871629621
 42
0.4142135623730715
 10
-5.21497371544865
 20
55.12380871629648
 42
0.0
 10
-2.23871460064447
 20
55.12380871629648
 42
0.0
 10
-2.23871460064447
 20
58.10010174665058
 42
0.414213562373155
 10
-3.038714600644652
 20
58.90010174665076
 42
0.0
 10
-5.726962862471737
 20
58.90010174665076
 42
0.0
 10
-5.726962862472191
 20
58.5001017466509
 42
0.0
 10
-3.038748516194573
 20
58.5001017466509
 42
-0.4142135623730067
 10
-2.638748516194482
 20
58.10010174665058
 42
0.0
 10
-2.638748516194482
 20
57.42799728675596
 42
0.0
 97
        1
330
BE2
 92
       22
 72
     1
 73
     1
 93
        6
 10
-2.638748516194937
 20
57.02796337120571
 42
0.0
 10
-2.638748516194482
 20
55.50786840766477
 42
0.0
 10
-5.21497371544865
 20
55.507868407665
 42
-0.4142135623731731
 10
-5.614973715448741
 20
55.90786840766509
 42
0.0
 10
-5.614973715448741
 20
56.62796337120562
 42
-0.4142135623731576
 10
-5.21497371544865
 20
57.02796337120571
 42
0.0
 97
        1
330
C0D
 75
     0
 76
     1
 47
0.0407044778999864
 98
       13
 10
-34.18710075113677
 20
56.16907953933765
 10
-33.12851374392494
 20
56.49471602641233
 10
-33.12851374392494
 20
56.49471602641233
 10
-28.77202873835904
 20
57.51232930166111
 10
-24.41554807250941
 20
57.91937341678636
 10
-24.41554807250941
 20
59.384734621186
 10
-23.31624584658039
 20
58.3264175319116
 10
-19.04119127844888
 20
57.75655517324913
 10
-19.04119127844888
 20
57.75655517324913
 10
-14.64399105416578
 20
57.43091868617466
 10
-8.048195057457178
 20
57.22739662861204
 10
-4.017427461911665
 20
57.18669281458665
 10
-4.017427461911665
 20
57.18669281458665
  0
TEXT
  5
BED
330
B9E
100
AcDbEntity
  8
leg fin
100
AcDbText
 10
3.391127401597259
 20
2.107634911895729
 30
0.0
 40
1.5
  1
Este desenho é propriedade da Sanindusa, S.A., e não pode ser copiado nem divulgado sem nossa autorização.
 50
90.0
 41
0.8
  7
SANINDUSA
100
AcDbText
  0
LINE
  5
BEE
330
B9E
100
AcDbEntity
  8
3
100
AcDbLine
 10
-90.0
 20
4.0
 30
0.0
 11
-90.0
 21
12.0
 31
0.0
  0
TEXT
  5
BEF
330
B9E
100
AcDbEntity
  8
1
100
AcDbText
 10
-39.0
 20
9.25
 30
0.0
 40
2.0
  1
Substituido por:
 41
0.8
  7
SANINDUSA
 11
-39.0
 21
10.25
 31
0.0
100
AcDbText
 73
     2
  0
POINT
  5
BF0
330
B9E
100
AcDbEntity
  8
SANINDUSA
100
AcDbPoint
 10
0.0
 20
0.0
 30
0.0
  0
TEXT
  5
BF1
330
B9E
100
AcDbEntity
  8
1
100
AcDbText
 10
-89.0
 20
16.74927010445663
 30
0.0
 40
2.0
  1
Normas:
 41
0.8
  7
SANINDUSA
 11
-89.0
 21
17.74927010445663
 31
0.0
100
AcDbText
 73
     2
  0
LINE
  5
BF2
330
B9E
100
AcDbEntity
  8
3
100
AcDbLine
 10
-90.0
 20
12.0
 30
0.0
 11
-90.0
 21
20.0
 31
0.0
  0
LINE
  5
BF3
330
B9E
100
AcDbEntity
  8
3
100
AcDbLine
 10
-110.546019464768
 20
12.0
 30
0.0
 11
-110.546019464768
 21
20.0
 31
0.0
  0
TEXT
  5
BF4
330
B9E
100
AcDbEntity
  8
1
100
AcDbText
 10
-109.6177520618648
 20
17.25
 30
0.0
 40
2.0
  1
Cor:
 41
0.8
  7
SANINDUSA
 11
-109.6177520618648
 21
18.25
 31
0.0
100
AcDbText
 73
     2
  0
LINE
  5
BF5
330
B9E
100
AcDbEntity
  8
leg fin
100
AcDbLine
 10
-91.42857142857156
 20
20.0
 30
0.0
 11
-91.42857142857156
 21
28.5
 31
0.0
  0
LINE
  5
BF6
330
B9E
100
AcDbEntity
  8
leg fin
100
AcDbLine
 10
-104.2857142857142
 20
20.0
 30
0.0
 11
-104.2857142857142
 21
28.5
 31
0.0
  0
LINE
  5
BF7
330
B9E
100
AcDbEntity
  8
leg fin
100
AcDbLine
 10
-117.1428571428573
 20
20.0
 30
0.0
 11
-117.1428571428573
 21
28.5
 31
0.0
  0
POINT
  5
BF8
330
B9E
100
AcDbEntity
  8
SANINDUSA
100
AcDbPoint
 10
-117.1428571428573
 20
28.5
 30
0.0
  0
POINT
  5
BF9
330
B9E
100
AcDbEntity
  8
SANINDUSA
100
AcDbPoint
 10
-104.2857142857142
 20
28.5
 30
0.0
  0
POINT
  5
BFA
330
B9E
100
AcDbEntity
  8
SANINDUSA
100
AcDbPoint
 10
-91.42857142857156
 20
28.5
 30
0.0
  0
TEXT
  5
BFB
330
B9E
100
AcDbEntity
  8
1
100
AcDbText
 10
-116.200160604496
 20
26.43288406845113
 30
0.0
 40
1.5
  1
Nº Seq.:
 41
0.8
  7
SANINDUSA
 11
-116.200160604496
 21
27.18288406845113
 31
0.0
100
AcDbText
 73
     2
  0
TEXT
  5
BFC
330
B9E
100
AcDbEntity
  8
1
100
AcDbText
 10
-103.2106584078738
 20
26.43288406845113
 30
0.0
 40
1.5
  1
Tipo:
 41
0.8
  7
SANINDUSA
 11
-103.2106584078738
 21
27.18288406845113
 31
0.0
100
AcDbText
 73
     2
  0
TEXT
  5
BFD
330
B9E
100
AcDbEntity
  8
1
100
AcDbText
 10
-90.22114672289353
 20
26.43288406845113
 30
0.0
 40
1.5
  1
Prod.:
 41
0.8
  7
SANINDUSA
 11
-90.22114672289353
 21
27.18288406845113
 31
0.0
100
AcDbText
 73
     2
  0
TEXT
  5
BFE
330
B9E
100
AcDbEntity
  8
1
100
AcDbText
 10
-64.77320576346574
 20
26.43288406845113
 30
0.0
 40
1.5
  1
Rev.:
 41
0.8
  7
SANINDUSA
 11
-64.77320576346574
 21
27.18288406845113
 31
0.0
100
AcDbText
 73
     2
  0
LINE
  5
BFF
330
B9E
100
AcDbEntity
  8
leg fin
100
AcDbLine
 10
-52.85714285714266
 20
20.0
 30
0.0
 11
-52.85714285714266
 21
28.5
 31
0.0
  0
LINE
  5
C00
330
B9E
100
AcDbEntity
  8
leg fin
100
AcDbLine
 10
-65.71428571428578
 20
20.0
 30
0.0
 11
-65.71428571428578
 21
28.5
 31
0.0
  0
LINE
  5
C01
330
B9E
100
AcDbEntity
  8
leg fin
100
AcDbLine
 10
-78.57142857142844
 20
20.0
 30
0.0
 11
-78.57142857142844
 21
28.5
 31
0.0
  0
POINT
  5
C02
330
B9E
100
AcDbEntity
  8
SANINDUSA
100
AcDbPoint
 10
-78.57142857142844
 20
28.5
 30
0.0
  0
POINT
  5
C03
330
B9E
100
AcDbEntity
  8
SANINDUSA
100
AcDbPoint
 10
-65.71428571428578
 20
28.5
 30
0.0
  0
POINT
  5
C04
330
B9E
100
AcDbEntity
  8
SANINDUSA
100
AcDbPoint
 10
-52.85714285714266
 20
28.5
 30
0.0
  0
TEXT
  5
C05
330
B9E
100
AcDbEntity
  8
1
100
AcDbText
 10
-77.61097961686573
 20
26.43288406845113
 30
0.0
 40
1.5
  1
Peça:
 41
0.8
  7
SANINDUSA
 11
-77.61097961686573
 21
27.18288406845113
 31
0.0
100
AcDbText
 73
     2
  0
TEXT
  5
C06
330
B9E
100
AcDbEntity
  8
1
100
AcDbText
 10
-52.06538060077036
 20
26.43288406845113
 30
0.0
 40
1.5
  1
Alt.:
 41
0.8
  7
SANINDUSA
 11
-52.06538060077036
 21
27.18288406845113
 31
0.0
100
AcDbText
 73
     2
  0
LINE
  5
C07
330
B9E
100
AcDbEntity
  8
3
100
AcDbLine
 10
0.0
 20
12.0
 30
0.0
 11
-40.0
 21
12.0
 31
0.0
  0
LINE
  5
C08
330
B9E
100
AcDbEntity
  8
3
100
AcDbLine
 10
-40.0
 20
32.5
 30
0.0
 11
0.0
 21
32.5
 31
0.0
  0
TEXT
  5
C09
330
B9E
100
AcDbEntity
  8
1
100
AcDbText
 10
-19.0
 20
29.75
 30
0.0
 40
2.0
  1
Folha:
 41
0.8
  7
SANINDUSA
 11
-19.0
 21
30.75
 31
0.0
100
AcDbText
 73
     2
  0
LINE
  5
C0A
330
B9E
100
AcDbEntity
  8
3
100
AcDbLine
 10
-20.0
 20
32.5
 30
0.0
 11
-20.0
 21
20.0
 31
0.0
  0
TEXT
  5
C0B
330
B9E
100
AcDbEntity
  8
1
100
AcDbText
 10
-39.0
 20
29.75
 30
0.0
 40
2.0
  1
Escala:
 41
0.8
  7
SANINDUSA
 11
-39.0
 21
30.75
 31
0.0
100
AcDbText
 73
     2
  0
TEXT
  5
C0C
330
B9E
100
AcDbEntity
  8
1
100
AcDbText
 10
-39.0
 20
17.25
 30
0.0
 40
2.0
  1
Substitui:
 41
0.8
  7
SANINDUSA
 11
-39.0
 21
18.25
 31
0.0
100
AcDbText
 73
     2
  0
LWPOLYLINE
  5
C0D
102
{ACAD_REACTORS
330
BEC
102
}
330
B9E
100
AcDbEntity
  8
9
100
AcDbPolyline
 90
        6
 70
     1
 43
0.0
 10
-2.638748516194482
 20
57.02796337120571
 10
-2.638748516194482
 20
55.50786840766477
 10
-5.21497371544865
 20
55.507868407665
 42
-0.4142135623730898
 10
-5.614973715448741
 20
55.90786840766487
 10
-5.614973715448741
 20
56.62796337120562
 42
-0.4142135623731576
 10
-5.21497371544865
 20
57.02796337120571
  0
LINE
  5
C0E
330
B9E
100
AcDbEntity
  8
3
100
AcDbLine
 10
-40.0
 20
50.0
 30
0.0
 11
0.0
 21
50.0
 31
0.0
  0
ATTDEF
  5
C0F
330
B9E
100
AcDbEntity
  8
1
100
AcDbText
 10
-31.30691739422431
 20
40.25
 30
0.0
 40
2.0
  1
XXXXXXXXXXXXXXX
 41
0.8
  7
SANINDUSA
 72
     4
 11
-20.0
 21
41.25
 31
0.0
100
AcDbAttributeDefinition
  3
Observações:
  2
OBS
 70
     0
  0
TEXT
  5
C10
330
B9E
100
AcDbEntity
  8
1
100
AcDbText
 10
-39.0
 20
47.25
 30
0.0
 40
2.0
  1
Observações:
 41
0.8
  7
SANINDUSA
 11
-39.0
 21
48.25
 31
0.0
100
AcDbText
 73
     2
  0
LWPOLYLINE
  5
C11
102
{ACAD_REACTORS
330
BEC
102
}
330
B9E
100
AcDbEntity
  8
9
100
AcDbPolyline
 90
        6
 70
     1
 43
0.0
 10
-29.98468712904878
 20
57.02796337120571
 10
-29.98468712904878
 20
55.507868407665
 10
-32.57692046803459
 20
55.507868407665
 42
-0.4142135623731731
 10
-32.97692046803468
 20
55.90786840766487
 10
-32.97692046803468
 20
56.62796337120562
 42
-0.4142135623731576
 10
-32.57692046803459
 20
57.02796337120571
  0
LWPOLYLINE
  5
C12
102
{ACAD_REACTORS
330
BEC
102
}
330
B9E
100
AcDbEntity
  8
9
100
AcDbPolyline
 90
        4
 70
     1
 43
0.0
 10
-24.19231812786165
 20
59.87619128370352
 10
-24.57637781922995
 20
59.87619128370352
 10
-24.57637781922995
 20
59.28412752246913
 10
-24.19231812786165
 20
59.28412752246913
  0
ENDBLK
  5
C14
330
B9E
100
AcDbEntity
  8
0
100
AcDbBlockEnd
  0
BLOCK
  5
1EB4
330
1DE0
100
AcDbEntity
  8
0
100
AcDbBlockBegin
  2
bib. sifões
 70
     0
 10
0.0
 20
0.0
 30
0.0
  3
bib. sifões
  1

  0
LINE
  5
1DE1
330
1DE0
100
AcDbEntity
  8
SANINDUSA
  6
Continuous
100
AcDbLine
 10
4150.214765526224
 20
1678.921708130307
 30
0.0
 11
4150.214765526224
 21
1678.821710932421
 31
0.0
  0
LINE
  5
1DE2
330
1DE0
100
AcDbEntity
  8
SANINDUSA
  6
HIDDEN
100
AcDbLine
 10
4150.171010955892
 20
1678.721456867183
 30
0.0
 11
4150.171010955892
 21
1678.633209531364
 31
0.0
  0
LINE
  5
1DE3
330
1DE0
100
AcDbEntity
  8
SANINDUSA
  6
HIDDEN
100
AcDbLine
 10
4150.257010955892
 20
1678.633209531364
 30
0.0
 11
4150.257010955892
 21
1678.744630580145
 31
0.0
  0
LINE
  5
1DE4
330
1DE0
100
AcDbEntity
  8
SANINDUSA
  6
HIDDEN
100
AcDbLine
 10
4150.259010955891
 20
1678.636941582172
 30
0.0
 11
4150.259010955891
 21
1678.744630583096
 31
0.0
  0
LINE
  5
1DE5
330
1DE0
100
AcDbEntity
  8
SANINDUSA
  6
HIDDEN
100
AcDbLine
 10
4150.171010955892
 20
1678.633209531364
 30
0.0
 11
4150.257010955892
 21
1678.633209531364
 31
0.0
  0
LINE
  5
1DE6
330
1DE0
100
AcDbEntity
  8
SANINDUSA
  6
HIDDEN
100
AcDbLine
 10
4150.169010955891
 20
1678.636941582172
 30
0.0
 11
4150.170010955892
 21
1678.633209531364
 31
0.0
  0
LINE
  5
1DE7
330
1DE0
100
AcDbEntity
  8
SANINDUSA
  6
HIDDEN
100
AcDbLine
 10
4150.170010955892
 20
1678.633209531364
 30
0.0
 11
4150.171010955892
 21
1678.633209531364
 31
0.0
  0
LINE
  5
1DE8
330
1DE0
100
AcDbEntity
  8
SANINDUSA
  6
HIDDEN
100
AcDbLine
 10
4150.257010955892
 20
1678.633209531364
 30
0.0
 11
4150.258010955891
 21
1678.633209531364
 31
0.0
  0
LINE
  5
1DE9
330
1DE0
100
AcDbEntity
  8
SANINDUSA
  6
HIDDEN
100
AcDbLine
 10
4150.258010955891
 20
1678.633209531364
 30
0.0
 11
4150.259010955891
 21
1678.636941582172
 31
0.0
  0
ARC
  5
1DEA
330
1DE0
100
AcDbEntity
  8
SANINDUSA
  6
HIDDEN
100
AcDbCircle
 10
4150.185010955891
 20
1678.863209531364
 30
0.0
 40
0.056
100
AcDbArc
 50
100.2865606110578
 51
180.0
  0
ARC
  5
1DEB
330
1DE0
100
AcDbEntity
  8
SANINDUSA
  6
HIDDEN
100
AcDbCircle
 10
4150.185010955891
 20
1678.863209531364
 30
0.0
 40
0.0539999999999999
100
AcDbArc
 50
90.0
 51
180.0
  0
LINE
  5
1DEC
330
1DE0
100
AcDbEntity
  8
SANINDUSA
  6
HIDDEN
100
AcDbLine
 10
4150.131010955891
 20
1678.787486354191
 30
0.0
 11
4150.131010955891
 21
1678.820738953313
 31
0.0
  0
LINE
  5
1DED
330
1DE0
100
AcDbEntity
  8
SANINDUSA
  6
HIDDEN
100
AcDbLine
 10
4150.129010955891
 20
1678.787486354191
 30
0.0
 11
4150.129010955891
 21
1678.820738953315
 31
0.0
  0
LINE
  5
1DEE
330
1DE0
100
AcDbEntity
  8
SANINDUSA
  6
HIDDEN
100
AcDbLine
 10
4150.131010955891
 20
1678.863209531364
 30
0.0
 11
4150.131010955891
 21
1678.820738953313
 31
0.0
  0
LINE
  5
1DEF
330
1DE0
100
AcDbEntity
  8
SANINDUSA
  6
HIDDEN
100
AcDbLine
 10
4150.129010955891
 20
1678.863209531364
 30
0.0
 11
4150.129010955891
 21
1678.820738953313
 31
0.0
  0
LINE
  5
1DF0
330
1DE0
100
AcDbEntity
  8
SANINDUSA
  6
HIDDEN
100
AcDbLine
 10
4150.131010955891
 20
1678.820738953313
 30
0.0
 11
4150.131010955895
 21
1678.820738953313
 31
0.0
  0
LINE
  5
1DF1
330
1DE0
100
AcDbEntity
  8
SANINDUSA
  6
HIDDEN
100
AcDbLine
 10
4150.255010955891
 20
1678.806209531364
 30
0.0
 11
4150.255010955891
 21
1678.804209531364
 31
0.0
  0
LINE
  5
1DF2
330
1DE0
100
AcDbEntity
  8
SANINDUSA
  6
HIDDEN
100
AcDbLine
 10
4150.225010955892
 20
1678.804820992727
 30
0.0
 11
4150.225010955892
 21
1678.806209531364
 31
0.0
  0
LINE
  5
1DF3
330
1DE0
100
AcDbEntity
  8
SANINDUSA
  6
HIDDEN
100
AcDbLine
 10
4150.223694754641
 20
1678.802586375373
 30
0.0
 11
4150.252224033724
 21
1678.760287901035
 31
0.0
  0
LINE
  5
1DF4
330
1DE0
100
AcDbEntity
  8
SANINDUSA
  6
HIDDEN
100
AcDbLine
 10
4150.225352880747
 20
1678.80370260692
 30
0.0
 11
4150.253882107955
 21
1678.761406288199
 31
0.0
  0
ARC
  5
1DF5
330
1DE0
100
AcDbEntity
  8
SANINDUSA
  6
HIDDEN
100
AcDbCircle
 10
4150.227010955891
 20
1678.804820992727
 30
0.0
 40
0.0020000000000001
100
AcDbArc
 50
180.0
 51
214.0000000001545
  0
ARC
  5
1DF6
330
1DE0
100
AcDbEntity
  8
SANINDUSA
  6
HIDDEN
100
AcDbCircle
 10
4150.229011131766
 20
1678.744630603597
 30
0.0
 40
0.0299998176965208
100
AcDbArc
 50
0.0
 51
33.99999865963669
  0
ARC
  5
1DF7
330
1DE0
100
AcDbEntity
  8
SANINDUSA
  6
HIDDEN
100
AcDbCircle
 10
4150.229011161154
 20
1678.744630623594
 30
0.0
 40
0.0279997830701829
100
AcDbArc
 50
0.0
 51
33.99999523654892
  0
LINE
  5
1DF8
330
1DE0
100
AcDbEntity
  8
SANINDUSA
  6
HIDDEN
100
AcDbLine
 10
4150.255010955891
 20
1678.804209531364
 30
0.0
 11
4150.259010955891
 21
1678.804209531364
 31
0.0
  0
LINE
  5
1DF9
330
1DE0
100
AcDbEntity
  8
SANINDUSA
  6
HIDDEN
100
AcDbLine
 10
4150.259010955891
 20
1678.808209531364
 30
0.0
 11
4150.223010955891
 21
1678.808209531364
 31
0.0
  0
LINE
  5
1DFA
330
1DE0
100
AcDbEntity
  8
SANINDUSA
  6
HIDDEN
100
AcDbLine
 10
4150.255010955891
 20
1678.806209531364
 30
0.0
 11
4150.225010955892
 21
1678.806209531364
 31
0.0
  0
LINE
  5
1DFB
330
1DE0
100
AcDbEntity
  8
SANINDUSA
  6
HIDDEN
100
AcDbLine
 10
4150.223010955891
 20
1678.808184030223
 30
0.0
 11
4150.223010955891
 21
1678.808209531364
 31
0.0
  0
LINE
  5
1DFC
330
1DE0
100
AcDbEntity
  8
SANINDUSA
  6
HIDDEN
100
AcDbLine
 10
4150.216010955892
 20
1678.935209531364
 30
0.0
 11
4150.259010955891
 21
1678.935209531364
 31
0.0
  0
LINE
  5
1DFD
330
1DE0
100
AcDbEntity
  8
SANINDUSA
  6
HIDDEN
100
AcDbLine
 10
4150.216010955892
 20
1678.937209531364
 30
0.0
 11
4150.255010955891
 21
1678.937209531364
 31
0.0
  0
LINE
  5
1DFE
330
1DE0
100
AcDbEntity
  8
SANINDUSA
  6
HIDDEN
100
AcDbLine
 10
4150.214010955891
 20
1678.933209531364
 30
0.0
 11
4150.214010955891
 21
1678.922209531364
 31
0.0
  0
LINE
  5
1DFF
330
1DE0
100
AcDbEntity
  8
SANINDUSA
  6
HIDDEN
100
AcDbLine
 10
4150.212010955891
 20
1678.933209531364
 30
0.0
 11
4150.212010955891
 21
1678.922209531364
 31
0.0
  0
LINE
  5
1E00
330
1DE0
100
AcDbEntity
  8
SANINDUSA
  6
HIDDEN
100
AcDbLine
 10
4150.190010955891
 20
1678.936209531364
 30
0.0
 11
4150.190010955891
 21
1678.932209531364
 31
0.0
  0
LINE
  5
1E01
330
1DE0
100
AcDbEntity
  8
SANINDUSA
  6
HIDDEN
100
AcDbLine
 10
4150.175010955892
 20
1678.936209531364
 30
0.0
 11
4150.175010955892
 21
1678.932209531364
 31
0.0
  0
LINE
  5
1E02
330
1DE0
100
AcDbEntity
  8
SANINDUSA
  6
HIDDEN
100
AcDbLine
 10
4150.190010955891
 20
1678.919209531364
 30
0.0
 11
4150.209010955891
 21
1678.919209531364
 31
0.0
  0
LINE
  5
1E03
330
1DE0
100
AcDbEntity
  8
SANINDUSA
  6
HIDDEN
100
AcDbLine
 10
4150.185010955891
 20
1678.917209531364
 30
0.0
 11
4150.209010955891
 21
1678.917209531364
 31
0.0
  0
LINE
  5
1E04
330
1DE0
100
AcDbEntity
  8
SANINDUSA
  6
HIDDEN
100
AcDbLine
 10
4150.190010955891
 20
1678.932209531364
 30
0.0
 11
4150.175010955892
 21
1678.932209531364
 31
0.0
  0
LINE
  5
1E05
330
1DE0
100
AcDbEntity
  8
SANINDUSA
  6
HIDDEN
100
AcDbLine
 10
4150.175010955892
 20
1678.924209531364
 30
0.0
 11
4150.190010955891
 21
1678.924209531364
 31
0.0
  0
LINE
  5
1E06
330
1DE0
100
AcDbEntity
  8
SANINDUSA
  6
HIDDEN
100
AcDbLine
 10
4150.190010955891
 20
1678.924210140583
 30
0.0
 11
4150.175010955892
 21
1678.924210140583
 31
0.0
  0
LINE
  5
1E07
330
1DE0
100
AcDbEntity
  8
SANINDUSA
  6
HIDDEN
100
AcDbLine
 10
4150.175010955892
 20
1678.932098849282
 30
0.0
 11
4150.175010955892
 21
1678.924331107506
 31
0.0
  0
LINE
  5
1E08
330
1DE0
100
AcDbEntity
  8
SANINDUSA
  6
HIDDEN
100
AcDbLine
 10
4150.175010955892
 20
1678.932208922145
 30
0.0
 11
4150.175010955892
 21
1678.932209531364
 31
0.0
  0
LINE
  5
1E09
330
1DE0
100
AcDbEntity
  8
SANINDUSA
  6
HIDDEN
100
AcDbLine
 10
4150.175010955892
 20
1678.932098849282
 30
0.0
 11
4150.175010955892
 21
1678.932208922145
 31
0.0
  0
LINE
  5
1E0A
330
1DE0
100
AcDbEntity
  8
SANINDUSA
  6
HIDDEN
100
AcDbLine
 10
4150.175010955892
 20
1678.924209531364
 30
0.0
 11
4150.175010955892
 21
1678.924210140583
 31
0.0
  0
LINE
  5
1E0B
330
1DE0
100
AcDbEntity
  8
SANINDUSA
  6
HIDDEN
100
AcDbLine
 10
4150.175010955892
 20
1678.924210140583
 30
0.0
 11
4150.175010955892
 21
1678.924331107506
 31
0.0
  0
LINE
  5
1E0C
330
1DE0
100
AcDbEntity
  8
SANINDUSA
  6
HIDDEN
100
AcDbLine
 10
4150.175010955892
 20
1678.924209531364
 30
0.0
 11
4150.175010955892
 21
1678.91830944062
 31
0.0
  0
LINE
  5
1E0D
330
1DE0
100
AcDbEntity
  8
SANINDUSA
  6
HIDDEN
100
AcDbLine
 10
4150.190010955891
 20
1678.932098849282
 30
0.0
 11
4150.190010955891
 21
1678.924331107506
 31
0.0
  0
LINE
  5
1E0E
330
1DE0
100
AcDbEntity
  8
SANINDUSA
  6
HIDDEN
100
AcDbLine
 10
4150.190010955891
 20
1678.932208922145
 30
0.0
 11
4150.190010955891
 21
1678.932209531364
 31
0.0
  0
LINE
  5
1E0F
330
1DE0
100
AcDbEntity
  8
SANINDUSA
  6
HIDDEN
100
AcDbLine
 10
4150.190010955891
 20
1678.932098849282
 30
0.0
 11
4150.190010955891
 21
1678.932208922145
 31
0.0
  0
LINE
  5
1E10
330
1DE0
100
AcDbEntity
  8
SANINDUSA
  6
HIDDEN
100
AcDbLine
 10
4150.190010955891
 20
1678.924209531364
 30
0.0
 11
4150.190010955891
 21
1678.924210140583
 31
0.0
  0
LINE
  5
1E11
330
1DE0
100
AcDbEntity
  8
SANINDUSA
  6
HIDDEN
100
AcDbLine
 10
4150.190010955891
 20
1678.924210140583
 30
0.0
 11
4150.190010955891
 21
1678.924331107506
 31
0.0
  0
LINE
  5
1E12
330
1DE0
100
AcDbEntity
  8
SANINDUSA
  6
HIDDEN
100
AcDbLine
 10
4150.190010955891
 20
1678.924209531364
 30
0.0
 11
4150.190010955891
 21
1678.919209531364
 31
0.0
  0
ARC
  5
1E13
330
1DE0
100
AcDbEntity
  8
SANINDUSA
  6
HIDDEN
100
AcDbCircle
 10
4150.209010955891
 20
1678.922209531364
 30
0.0
 40
0.003
100
AcDbArc
 50
270.0
 51
0.0
  0
ARC
  5
1E14
330
1DE0
100
AcDbEntity
  8
SANINDUSA
  6
HIDDEN
100
AcDbCircle
 10
4150.209010955891
 20
1678.922209531364
 30
0.0
 40
0.005
100
AcDbArc
 50
270.0
 51
0.0
  0
LINE
  5
1E15
330
1DE0
100
AcDbEntity
  8
SANINDUSA
  6
HIDDEN
100
AcDbLine
 10
4150.175010955892
 20
1678.936209531364
 30
0.0
 11
4150.190010955891
 21
1678.936209531364
 31
0.0
  0
ARC
  5
1E16
330
1DE0
100
AcDbEntity
  8
SANINDUSA
  6
HIDDEN
100
AcDbCircle
 10
4150.216010955892
 20
1678.933209531364
 30
0.0
 40
0.002
100
AcDbArc
 50
90.0
 51
180.0
  0
ARC
  5
1E17
330
1DE0
100
AcDbEntity
  8
SANINDUSA
  6
HIDDEN
100
AcDbCircle
 10
4150.216010955892
 20
1678.933209531364
 30
0.0
 40
0.0040000000000001
100
AcDbArc
 50
90.0
 51
180.0
  0
LINE
  5
1E18
330
1DE0
100
AcDbEntity
  8
SANINDUSA
  6
HIDDEN
100
AcDbLine
 10
4150.259010955891
 20
1678.939209531364
 30
0.0
 11
4150.255010955891
 21
1678.939209531364
 31
0.0
  0
LINE
  5
1E19
330
1DE0
100
AcDbEntity
  8
SANINDUSA
  6
HIDDEN
100
AcDbLine
 10
4150.255010955891
 20
1678.939209531364
 30
0.0
 11
4150.255010955891
 21
1678.937209531364
 31
0.0
  0
LINE
  5
1E1A
330
1DE0
100
AcDbEntity
  8
SANINDUSA
  6
HIDDEN
100
AcDbLine
 10
4150.259010955891
 20
1678.939209531364
 30
0.0
 11
4150.259010955891
 21
1678.935209531364
 31
0.0
  0
LINE
  5
1E1B
330
1DE0
100
AcDbEntity
  8
SANINDUSA
  6
HIDDEN
100
AcDbLine
 10
4150.259010955891
 20
1678.808209531364
 30
0.0
 11
4150.259010955891
 21
1678.804209531364
 31
0.0
  0
LINE
  5
1E1C
330
1DE0
100
AcDbEntity
  8
SANINDUSA
  6
HIDDEN
100
AcDbLine
 10
4150.223010955891
 20
1678.808184030223
 30
0.0
 11
4150.223010955891
 21
1678.804823071434
 31
0.0
  0
ARC
  5
1E1D
330
1DE0
100
AcDbEntity
  8
SANINDUSA
  6
HIDDEN
100
AcDbCircle
 10
4150.227010955891
 20
1678.804823071434
 30
0.0
 40
0.004
100
AcDbArc
 50
180.0
 51
213.9986946280517
  0
LINE
  5
1E1E
330
1DE0
100
AcDbEntity
  8
SANINDUSA
  6
HIDDEN
100
AcDbLine
 10
4150.169010955891
 20
1678.721456867183
 30
0.0
 11
4150.169010955891
 21
1678.636941582172
 31
0.0
  0
ARC
  5
1E1F
330
1DE0
100
AcDbEntity
  8
SANINDUSA
  6
HIDDEN
100
AcDbCircle
 10
4150.149010955892
 20
1678.721456867183
 30
0.0
 40
0.02
100
AcDbArc
 50
0.0
 51
37.28570792801806
  0
LINE
  5
1E20
330
1DE0
100
AcDbEntity
  8
SANINDUSA
  6
HIDDEN
100
AcDbLine
 10
4150.13309846357
 20
1678.77537055508
 30
0.0
 11
4150.164923448214
 21
1678.733572666294
 31
0.0
  0
ARC
  5
1E21
330
1DE0
100
AcDbEntity
  8
SANINDUSA
  6
HIDDEN
100
AcDbCircle
 10
4150.149010955892
 20
1678.787486354191
 30
0.0
 40
0.02
100
AcDbArc
 50
180.0
 51
217.2857079280181
  0
ARC
  5
1E22
330
1DE0
100
AcDbEntity
  8
SANINDUSA
  6
HIDDEN
100
AcDbCircle
 10
4150.149010955892
 20
1678.721456867183
 30
0.0
 40
0.022
100
AcDbArc
 50
0.0
 51
37.28570792801806
  0
LINE
  5
1E23
330
1DE0
100
AcDbEntity
  8
SANINDUSA
  6
HIDDEN
100
AcDbLine
 10
4150.134689712801
 20
1678.776582134991
 30
0.0
 11
4150.166514697445
 21
1678.734784246205
 31
0.0
  0
ARC
  5
1E24
330
1DE0
100
AcDbEntity
  8
SANINDUSA
  6
HIDDEN
100
AcDbCircle
 10
4150.149010955892
 20
1678.787486354191
 30
0.0
 40
0.018
100
AcDbArc
 50
180.0
 51
217.2857079280181
  0
LINE
  5
1E25
330
1DE0
100
AcDbEntity
  8
SANINDUSA
100
AcDbLine
 10
4150.239010955892
 20
1678.801709531364
 30
0.0
 11
4150.259056398702
 21
1678.80216510961
 31
0.0
  0
LINE
  5
1E26
330
1DE0
100
AcDbEntity
  8
SANINDUSA
100
AcDbLine
 10
4150.259056398702
 20
1678.941253953118
 30
0.0
 11
4150.239010955892
 21
1678.941709531364
 31
0.0
  0
LINE
  5
1E27
330
1DE0
100
AcDbEntity
  8
SANINDUSA
100
AcDbLine
 10
4150.239010955892
 20
1678.806209531364
 30
0.0
 11
4150.239010955892
 21
1678.801709531364
 31
0.0
  0
LINE
  5
1E28
330
1DE0
100
AcDbEntity
  8
SANINDUSA
100
AcDbLine
 10
4150.239010955892
 20
1678.941709531364
 30
0.0
 11
4150.239010955892
 21
1678.937209531364
 31
0.0
  0
LINE
  5
1E29
330
1DE0
100
AcDbEntity
  8
SANINDUSA
100
AcDbLine
 10
4150.261010955892
 20
1678.930209531364
 30
0.0
 11
4150.261010955892
 21
1678.923524381822
 31
0.0
  0
LINE
  5
1E2A
330
1DE0
100
AcDbEntity
  8
SANINDUSA
100
AcDbLine
 10
4150.261010955892
 20
1678.819894680906
 30
0.0
 11
4150.261010955892
 21
1678.813209531364
 31
0.0
  0
LINE
  5
1E2B
330
1DE0
100
AcDbEntity
  8
SANINDUSA
100
AcDbLine
 10
4150.261010955892
 20
1678.804164593281
 30
0.0
 11
4150.261010955892
 21
1678.813209531364
 31
0.0
  0
LINE
  5
1E2C
330
1DE0
100
AcDbEntity
  8
SANINDUSA
100
AcDbLine
 10
4150.259010955891
 20
1678.812209531364
 30
0.0
 11
4150.259010955891
 21
1678.804164593281
 31
0.0
  0
LINE
  5
1E2D
330
1DE0
100
AcDbEntity
  8
SANINDUSA
100
AcDbLine
 10
4150.259010955891
 20
1678.804164593281
 30
0.0
 11
4150.254033677297
 21
1678.804051473313
 31
0.0
  0
LINE
  5
1E2E
330
1DE0
100
AcDbEntity
  8
SANINDUSA
100
AcDbLine
 10
4150.241010955891
 20
1678.804778487876
 30
0.0
 11
4150.241010955891
 21
1678.806209531364
 31
0.0
  0
LINE
  5
1E2F
330
1DE0
100
AcDbEntity
  8
SANINDUSA
100
AcDbLine
 10
4150.253010955892
 20
1678.805051215148
 30
0.0
 11
4150.253010955892
 21
1678.806209531364
 31
0.0
  0
LINE
  5
1E30
330
1DE0
100
AcDbEntity
  8
SANINDUSA
100
AcDbLine
 10
4150.251010955892
 20
1678.806209531364
 30
0.0
 11
4150.251010955892
 21
1678.804960306058
 31
0.0
  0
LINE
  5
1E31
330
1DE0
100
AcDbEntity
  8
SANINDUSA
100
AcDbLine
 10
4150.249010955891
 20
1678.804960306058
 30
0.0
 11
4150.249010955891
 21
1678.806209531364
 31
0.0
  0
LINE
  5
1E32
330
1DE0
100
AcDbEntity
  8
SANINDUSA
100
AcDbLine
 10
4150.247010955892
 20
1678.806209531364
 30
0.0
 11
4150.247010955892
 21
1678.804869396967
 31
0.0
  0
LINE
  5
1E33
330
1DE0
100
AcDbEntity
  8
SANINDUSA
100
AcDbLine
 10
4150.245010955891
 20
1678.804869396967
 30
0.0
 11
4150.245010955891
 21
1678.806209531364
 31
0.0
  0
LINE
  5
1E34
330
1DE0
100
AcDbEntity
  8
SANINDUSA
100
AcDbLine
 10
4150.243010955892
 20
1678.806209531364
 30
0.0
 11
4150.243010955892
 21
1678.804778487876
 31
0.0
  0
LINE
  5
1E35
330
1DE0
100
AcDbEntity
  8
SANINDUSA
100
AcDbLine
 10
4150.254329117287
 20
1678.820012595705
 30
0.0
 11
4150.259010955891
 21
1678.812209531364
 31
0.0
  0
LINE
  5
1E36
330
1DE0
100
AcDbEntity
  8
SANINDUSA
100
AcDbLine
 10
4150.261010955892
 20
1678.813209531364
 30
0.0
 11
4150.258016290748
 21
1678.819947527938
 31
0.0
  0
LINE
  5
1E37
330
1DE0
100
AcDbEntity
  8
SANINDUSA
100
AcDbLine
 10
4150.259010955891
 20
1678.939254469447
 30
0.0
 11
4150.259010955891
 21
1678.931209531364
 31
0.0
  0
LINE
  5
1E38
330
1DE0
100
AcDbEntity
  8
SANINDUSA
100
AcDbLine
 10
4150.261010955892
 20
1678.930209531364
 30
0.0
 11
4150.261010955892
 21
1678.939254469447
 31
0.0
  0
LINE
  5
1E39
330
1DE0
100
AcDbEntity
  8
SANINDUSA
100
AcDbLine
 10
4150.259010955891
 20
1678.931209531364
 30
0.0
 11
4150.254329117287
 21
1678.923406467023
 31
0.0
  0
LINE
  5
1E3A
330
1DE0
100
AcDbEntity
  8
SANINDUSA
100
AcDbLine
 10
4150.258016290748
 20
1678.92347153479
 30
0.0
 11
4150.261010955892
 21
1678.930209531364
 31
0.0
  0
LINE
  5
1E3B
330
1DE0
100
AcDbEntity
  8
SANINDUSA
100
AcDbLine
 10
4150.254033677297
 20
1678.939367589415
 30
0.0
 11
4150.259010955891
 21
1678.939254469447
 31
0.0
  0
LINE
  5
1E3C
330
1DE0
100
AcDbEntity
  8
SANINDUSA
100
AcDbLine
 10
4150.241010955891
 20
1678.937209531364
 30
0.0
 11
4150.241010955891
 21
1678.938640574853
 31
0.0
  0
LINE
  5
1E3D
330
1DE0
100
AcDbEntity
  8
SANINDUSA
100
AcDbLine
 10
4150.243010955892
 20
1678.938640574853
 30
0.0
 11
4150.243010955892
 21
1678.937209531364
 31
0.0
  0
LINE
  5
1E3E
330
1DE0
100
AcDbEntity
  8
SANINDUSA
100
AcDbLine
 10
4150.245010955891
 20
1678.937209531364
 30
0.0
 11
4150.245010955891
 21
1678.938549665762
 31
0.0
  0
LINE
  5
1E3F
330
1DE0
100
AcDbEntity
  8
SANINDUSA
100
AcDbLine
 10
4150.247010955892
 20
1678.938549665762
 30
0.0
 11
4150.247010955892
 21
1678.937209531364
 31
0.0
  0
LINE
  5
1E40
330
1DE0
100
AcDbEntity
  8
SANINDUSA
100
AcDbLine
 10
4150.249010955891
 20
1678.937209531364
 30
0.0
 11
4150.249010955891
 21
1678.938458756671
 31
0.0
  0
LINE
  5
1E41
330
1DE0
100
AcDbEntity
  8
SANINDUSA
100
AcDbLine
 10
4150.251010955892
 20
1678.938458756671
 30
0.0
 11
4150.251010955892
 21
1678.937209531364
 31
0.0
  0
LINE
  5
1E42
330
1DE0
100
AcDbEntity
  8
SANINDUSA
100
AcDbLine
 10
4150.253010955892
 20
1678.937209531364
 30
0.0
 11
4150.253010955892
 21
1678.93836784758
 31
0.0
  0
ARC
  5
1E43
330
1DE0
100
AcDbEntity
  8
SANINDUSA
100
AcDbCircle
 10
4150.242010955891
 20
1678.804778487876
 30
0.0
 40
0.0010000000000002
100
AcDbArc
 50
180.0
 51
0.0
  0
ARC
  5
1E44
330
1DE0
100
AcDbEntity
  8
SANINDUSA
100
AcDbCircle
 10
4150.246010955892
 20
1678.804869396967
 30
0.0
 40
0.0010000000000002
100
AcDbArc
 50
180.0
 51
0.0
  0
ARC
  5
1E45
330
1DE0
100
AcDbEntity
  8
SANINDUSA
100
AcDbCircle
 10
4150.250010955891
 20
1678.804960306058
 30
0.0
 40
0.0010000000000002
100
AcDbArc
 50
180.0
 51
0.0
  0
ARC
  5
1E46
330
1DE0
100
AcDbEntity
  8
SANINDUSA
100
AcDbCircle
 10
4150.254010955891
 20
1678.805051215148
 30
0.0
 40
0.0010000000000002
100
AcDbArc
 50
180.0
 51
271.301952672039
  0
ARC
  5
1E47
330
1DE0
100
AcDbEntity
  8
SANINDUSA
100
AcDbCircle
 10
4150.250010955891
 20
1678.938458756671
 30
0.0
 40
0.0010000000000002
100
AcDbArc
 50
0.0
 51
180.0
  0
ARC
  5
1E48
330
1DE0
100
AcDbEntity
  8
SANINDUSA
100
AcDbCircle
 10
4150.242010955891
 20
1678.938640574853
 30
0.0
 40
0.0010000000000002
100
AcDbArc
 50
0.0
 51
180.0
  0
LINE
  5
1E49
330
1DE0
100
AcDbEntity
  8
SANINDUSA
100
AcDbLine
 10
4150.241010955891
 20
1678.938640574853
 30
0.0
 11
4150.241010955891
 21
1678.937209531364
 31
0.0
  0
ARC
  5
1E4A
330
1DE0
100
AcDbEntity
  8
SANINDUSA
100
AcDbCircle
 10
4150.246010955892
 20
1678.938549665762
 30
0.0
 40
0.0010000000000002
100
AcDbArc
 50
0.0
 51
180.0
  0
LINE
  5
1E4B
330
1DE0
100
AcDbEntity
  8
SANINDUSA
100
AcDbLine
 10
4150.243010955892
 20
1678.937209531364
 30
0.0
 11
4150.243010955892
 21
1678.938640574853
 31
0.0
  0
LINE
  5
1E4C
330
1DE0
100
AcDbEntity
  8
SANINDUSA
100
AcDbLine
 10
4150.245010955891
 20
1678.938549665762
 30
0.0
 11
4150.245010955891
 21
1678.937209531364
 31
0.0
  0
LINE
  5
1E4D
330
1DE0
100
AcDbEntity
  8
SANINDUSA
100
AcDbLine
 10
4150.247010955892
 20
1678.937209531364
 30
0.0
 11
4150.247010955892
 21
1678.938549665762
 31
0.0
  0
LINE
  5
1E4E
330
1DE0
100
AcDbEntity
  8
SANINDUSA
100
AcDbLine
 10
4150.249010955891
 20
1678.938458756671
 30
0.0
 11
4150.249010955891
 21
1678.937209531364
 31
0.0
  0
ARC
  5
1E4F
330
1DE0
100
AcDbEntity
  8
SANINDUSA
100
AcDbCircle
 10
4150.254010955891
 20
1678.93836784758
 30
0.0
 40
0.0010000000000002
100
AcDbArc
 50
88.69804732796104
 51
180.0
  0
LINE
  5
1E50
330
1DE0
100
AcDbEntity
  8
SANINDUSA
100
AcDbLine
 10
4150.251010955892
 20
1678.937209531364
 30
0.0
 11
4150.251010955892
 21
1678.938458756671
 31
0.0
  0
LINE
  5
1E51
330
1DE0
100
AcDbEntity
  8
SANINDUSA
100
AcDbLine
 10
4150.253010955892
 20
1678.93836784758
 30
0.0
 11
4150.253010955892
 21
1678.937209531364
 31
0.0
  0
ARC
  5
1E52
330
1DE0
100
AcDbEntity
  8
SANINDUSA
100
AcDbCircle
 10
4150.259010955891
 20
1678.939254469447
 30
0.0
 40
0.002
100
AcDbArc
 50
0.0
 51
88.69804732796104
  0
ARC
  5
1E53
330
1DE0
100
AcDbEntity
  8
SANINDUSA
100
AcDbCircle
 10
4150.259010955891
 20
1678.804164593281
 30
0.0
 40
0.002
100
AcDbArc
 50
271.301952672039
 51
0.0
  0
LINE
  5
1E54
330
1DE0
100
AcDbEntity
  8
SANINDUSA
  6
Continuous
100
AcDbLine
 10
4150.7442175241
 20
1678.876336833596
 30
0.0
 11
4150.7442175241
 21
1678.77633963571
 31
0.0
  0
LINE
  5
1E55
330
1DE0
100
AcDbEntity
  8
SANINDUSA
100
AcDbLine
 10
4150.75124156398
 20
1678.756338234653
 30
0.0
 11
4150.771287006789
 21
1678.756793812899
 31
0.0
  0
LINE
  5
1E56
330
1DE0
100
AcDbEntity
  8
SANINDUSA
100
AcDbLine
 10
4150.771287006789
 20
1678.895882656407
 30
0.0
 11
4150.75124156398
 21
1678.896338234653
 31
0.0
  0
LINE
  5
1E57
330
1DE0
100
AcDbEntity
  8
SANINDUSA
100
AcDbLine
 10
4150.75124156398
 20
1678.763374360006
 30
0.0
 11
4150.75124156398
 21
1678.756338234653
 31
0.0
  0
LINE
  5
1E58
330
1DE0
100
AcDbEntity
  8
SANINDUSA
100
AcDbLine
 10
4150.75124156398
 20
1678.896338234653
 30
0.0
 11
4150.75124156398
 21
1678.8893021093
 31
0.0
  0
LINE
  5
1E59
330
1DE0
100
AcDbEntity
  8
SANINDUSA
100
AcDbLine
 10
4150.773241563979
 20
1678.884838234653
 30
0.0
 11
4150.773241563979
 21
1678.877849178232
 31
0.0
  0
LINE
  5
1E5A
330
1DE0
100
AcDbEntity
  8
SANINDUSA
100
AcDbLine
 10
4150.773241563979
 20
1678.774827291073
 30
0.0
 11
4150.773241563979
 21
1678.767838234653
 31
0.0
  0
LINE
  5
1E5B
330
1DE0
100
AcDbEntity
  8
SANINDUSA
100
AcDbLine
 10
4150.773241563979
 20
1678.758793296569
 30
0.0
 11
4150.773241563979
 21
1678.767838234653
 31
0.0
  0
LINE
  5
1E5C
330
1DE0
100
AcDbEntity
  8
SANINDUSA
100
AcDbLine
 10
4150.77124156398
 20
1678.766838234652
 30
0.0
 11
4150.77124156398
 21
1678.758793296569
 31
0.0
  0
LINE
  5
1E5D
330
1DE0
100
AcDbEntity
  8
SANINDUSA
100
AcDbLine
 10
4150.77124156398
 20
1678.758793296569
 30
0.0
 11
4150.766264285385
 21
1678.758680176601
 31
0.0
  0
LINE
  5
1E5E
330
1DE0
100
AcDbEntity
  8
SANINDUSA
100
AcDbLine
 10
4150.75324156398
 20
1678.759407191164
 30
0.0
 11
4150.75324156398
 21
1678.76244739799
 31
0.0
  0
LINE
  5
1E5F
330
1DE0
100
AcDbEntity
  8
SANINDUSA
100
AcDbLine
 10
4150.755241563979
 20
1678.761488228269
 30
0.0
 11
4150.755241563979
 21
1678.759407191164
 31
0.0
  0
LINE
  5
1E60
330
1DE0
100
AcDbEntity
  8
SANINDUSA
100
AcDbLine
 10
4150.766375429884
 20
1678.774948458146
 30
0.0
 11
4150.77124156398
 21
1678.766838234652
 31
0.0
  0
LINE
  5
1E61
330
1DE0
100
AcDbEntity
  8
SANINDUSA
100
AcDbLine
 10
4150.773241563979
 20
1678.767838234653
 30
0.0
 11
4150.770110761366
 21
1678.774882540531
 31
0.0
  0
LINE
  5
1E62
330
1DE0
100
AcDbEntity
  8
SANINDUSA
100
AcDbLine
 10
4150.77124156398
 20
1678.893883172736
 30
0.0
 11
4150.77124156398
 21
1678.885838234653
 31
0.0
  0
LINE
  5
1E63
330
1DE0
100
AcDbEntity
  8
SANINDUSA
100
AcDbLine
 10
4150.773241563979
 20
1678.884838234653
 30
0.0
 11
4150.773241563979
 21
1678.893883172736
 31
0.0
  0
LINE
  5
1E64
330
1DE0
100
AcDbEntity
  8
SANINDUSA
100
AcDbLine
 10
4150.77124156398
 20
1678.885838234653
 30
0.0
 11
4150.766375429884
 21
1678.87772801116
 31
0.0
  0
LINE
  5
1E65
330
1DE0
100
AcDbEntity
  8
SANINDUSA
100
AcDbLine
 10
4150.770110761366
 20
1678.877793928774
 30
0.0
 11
4150.773241563979
 21
1678.884838234653
 31
0.0
  0
LINE
  5
1E66
330
1DE0
100
AcDbEntity
  8
SANINDUSA
100
AcDbLine
 10
4150.766264285385
 20
1678.893996292704
 30
0.0
 11
4150.77124156398
 21
1678.893883172736
 31
0.0
  0
LINE
  5
1E67
330
1DE0
100
AcDbEntity
  8
SANINDUSA
100
AcDbLine
 10
4150.75324156398
 20
1678.890229071316
 30
0.0
 11
4150.75324156398
 21
1678.893269278141
 31
0.0
  0
LINE
  5
1E68
330
1DE0
100
AcDbEntity
  8
SANINDUSA
100
AcDbLine
 10
4150.755241563979
 20
1678.893269278141
 30
0.0
 11
4150.755241563979
 21
1678.891188241037
 31
0.0
  0
ARC
  5
1E69
330
1DE0
100
AcDbEntity
  8
SANINDUSA
100
AcDbCircle
 10
4150.754241563979
 20
1678.759407191164
 30
0.0
 40
0.0010000000000002
100
AcDbArc
 50
180.0
 51
0.0
  0
ARC
  5
1E6A
330
1DE0
100
AcDbEntity
  8
SANINDUSA
100
AcDbCircle
 10
4150.758241563979
 20
1678.759498100255
 30
0.0
 40
0.0010000000000002
100
AcDbArc
 50
180.5639344929805
 51
343.1500899781539
  0
ARC
  5
1E6B
330
1DE0
100
AcDbEntity
  8
SANINDUSA
100
AcDbCircle
 10
4150.76224156398
 20
1678.759589009346
 30
0.0
 40
0.0010000000000002
100
AcDbArc
 50
202.3816772040879
 51
337.6183227959121
  0
ARC
  5
1E6C
330
1DE0
100
AcDbEntity
  8
SANINDUSA
100
AcDbCircle
 10
4150.76624156398
 20
1678.759679918437
 30
0.0
 40
0.0010000000000002
100
AcDbArc
 50
208.1436502311436
 51
271.301952672039
  0
ARC
  5
1E6D
330
1DE0
100
AcDbEntity
  8
SANINDUSA
100
AcDbCircle
 10
4150.76224156398
 20
1678.893087459959
 30
0.0
 40
0.0010000000000002
100
AcDbArc
 50
22.38167719204172
 51
157.6183228079583
  0
ARC
  5
1E6E
330
1DE0
100
AcDbEntity
  8
SANINDUSA
100
AcDbCircle
 10
4150.754241563979
 20
1678.893269278141
 30
0.0
 40
0.0010000000000002
100
AcDbArc
 50
0.0
 51
180.0
  0
LINE
  5
1E6F
330
1DE0
100
AcDbEntity
  8
SANINDUSA
100
AcDbLine
 10
4150.75324156398
 20
1678.893269278141
 30
0.0
 11
4150.75324156398
 21
1678.890229071316
 31
0.0
  0
ARC
  5
1E70
330
1DE0
100
AcDbEntity
  8
SANINDUSA
100
AcDbCircle
 10
4150.758241563979
 20
1678.89317836905
 30
0.0
 40
0.0010000000000002
100
AcDbArc
 50
16.84991000937786
 51
179.4360655200464
  0
LINE
  5
1E71
330
1DE0
100
AcDbEntity
  8
SANINDUSA
100
AcDbLine
 10
4150.755241563979
 20
1678.891188241037
 30
0.0
 11
4150.755241563979
 21
1678.893269278141
 31
0.0
  0
ARC
  5
1E72
330
1DE0
100
AcDbEntity
  8
SANINDUSA
100
AcDbCircle
 10
4150.76624156398
 20
1678.892996550868
 30
0.0
 40
0.0010000000000002
100
AcDbArc
 50
88.69804732796104
 51
151.8563497803436
  0
ARC
  5
1E73
330
1DE0
100
AcDbEntity
  8
SANINDUSA
100
AcDbCircle
 10
4150.77124156398
 20
1678.893883172736
 30
0.0
 40
0.002
100
AcDbArc
 50
0.0
 51
88.69804732796104
  0
ARC
  5
1E74
330
1DE0
100
AcDbEntity
  8
SANINDUSA
100
AcDbCircle
 10
4150.77124156398
 20
1678.758793296569
 30
0.0
 40
0.002
100
AcDbArc
 50
271.301952672039
 51
0.0
  0
LINE
  5
1E75
330
1DE0
100
AcDbEntity
  8
SANINDUSA
100
AcDbLine
 10
4150.758942316498
 20
1678.891018234653
 30
0.0
 11
4150.758942316498
 21
1678.87759683857
 31
0.0
  0
LINE
  5
1E76
330
1DE0
100
AcDbEntity
  8
SANINDUSA
100
AcDbLine
 10
4150.758942316498
 20
1678.775079630735
 30
0.0
 11
4150.758942316498
 21
1678.761658234652
 31
0.0
  0
LINE
  5
1E77
330
1DE0
100
AcDbEntity
  8
SANINDUSA
100
AcDbLine
 10
4150.752621563979
 20
1678.881218234653
 30
0.0
 11
4150.752621563979
 21
1678.877485295879
 31
0.0
  0
LINE
  5
1E78
330
1DE0
100
AcDbEntity
  8
SANINDUSA
100
AcDbLine
 10
4150.752621563979
 20
1678.775191173426
 30
0.0
 11
4150.752621563979
 21
1678.771458234653
 31
0.0
  0
LINE
  5
1E79
330
1DE0
100
AcDbEntity
  8
SANINDUSA
100
AcDbLine
 10
4150.748652316497
 20
1678.880728234653
 30
0.0
 11
4150.748652316497
 21
1678.877415250336
 31
0.0
  0
LINE
  5
1E7A
330
1DE0
100
AcDbEntity
  8
SANINDUSA
100
AcDbLine
 10
4150.748652316497
 20
1678.77526121897
 30
0.0
 11
4150.748652316497
 21
1678.771948234652
 31
0.0
  0
LINE
  5
1E7B
330
1DE0
100
AcDbEntity
  8
SANINDUSA
100
AcDbLine
 10
4150.487041563979
 20
1678.778318234653
 30
0.0
 11
4150.487041563979
 21
1678.874358234653
 31
0.0
  0
LINE
  5
1E7C
330
1DE0
100
AcDbEntity
  8
SANINDUSA
100
AcDbLine
 10
4150.487531563979
 20
1678.873868234653
 30
0.0
 11
4150.487531563979
 21
1678.778808234653
 31
0.0
  0
LINE
  5
1E7D
330
1DE0
100
AcDbEntity
  8
SANINDUSA
100
AcDbLine
 10
4150.726497409652
 20
1678.877833663713
 30
0.0
 11
4150.755102622318
 21
1678.89109163651
 31
0.0
  0
LINE
  5
1E7E
330
1DE0
100
AcDbEntity
  8
SANINDUSA
100
AcDbLine
 10
4150.741673422561
 20
1678.874155270007
 30
0.0
 11
4150.747959351853
 21
1678.880441199298
 31
0.0
  0
LINE
  5
1E7F
330
1DE0
100
AcDbEntity
  8
SANINDUSA
100
AcDbLine
 10
4150.487531563979
 20
1678.873868234653
 30
0.0
 11
4150.740980457917
 21
1678.873868234653
 31
0.0
  0
LINE
  5
1E80
330
1DE0
100
AcDbEntity
  8
SANINDUSA
100
AcDbLine
 10
4150.495245965236
 20
1678.877788234653
 30
0.0
 11
4150.726291359465
 21
1678.877788234653
 31
0.0
  0
ARC
  5
1E81
330
1DE0
100
AcDbEntity
  8
SANINDUSA
100
AcDbCircle
 10
4150.495245965236
 20
1678.842955275477
 30
0.0
 40
0.0348329591759133
100
AcDbArc
 50
90.0
 51
102.9810230690099
  0
ARC
  5
1E82
330
1DE0
100
AcDbEntity
  8
SANINDUSA
100
AcDbCircle
 10
4150.487531563979
 20
1678.876420583756
 30
0.0
 40
0.0004900000000001
100
AcDbArc
 50
102.9810230690099
 51
180.0
  0
LINE
  5
1E83
330
1DE0
100
AcDbEntity
  8
SANINDUSA
100
AcDbLine
 10
4150.487041563979
 20
1678.874358234653
 30
0.0
 11
4150.487041563979
 21
1678.876420583756
 31
0.0
  0
ARC
  5
1E84
330
1DE0
100
AcDbEntity
  8
SANINDUSA
100
AcDbCircle
 10
4150.487531563979
 20
1678.874358234653
 30
0.0
 40
0.00049
100
AcDbArc
 50
180.0
 51
270.0
  0
ARC
  5
1E85
330
1DE0
100
AcDbEntity
  8
SANINDUSA
100
AcDbCircle
 10
4150.740980457917
 20
1678.874848234652
 30
0.0
 40
0.00098
100
AcDbArc
 50
270.0
 51
315.0000000000092
  0
ARC
  5
1E86
330
1DE0
100
AcDbEntity
  8
SANINDUSA
100
AcDbCircle
 10
4150.726291359465
 20
1678.878278234653
 30
0.0
 40
0.00049
100
AcDbArc
 50
270.0
 51
294.8668271162652
  0
ARC
  5
1E87
330
1DE0
100
AcDbEntity
  8
SANINDUSA
100
AcDbCircle
 10
4150.770261563979
 20
1678.892488234653
 30
0.0
 40
0.0009800000000001
100
AcDbArc
 50
0.0
 51
90.0
  0
ARC
  5
1E88
330
1DE0
100
AcDbEntity
  8
SANINDUSA
100
AcDbCircle
 10
4150.75792749327
 20
1678.892488234653
 30
0.0
 40
0.0009799999999999
100
AcDbArc
 50
90.0
 51
135.0000000000092
  0
LINE
  5
1E89
330
1DE0
100
AcDbEntity
  8
SANINDUSA
100
AcDbLine
 10
4150.758942316498
 20
1678.891018234653
 30
0.0
 11
4150.770261563979
 21
1678.891018234653
 31
0.0
  0
LINE
  5
1E8A
330
1DE0
100
AcDbEntity
  8
SANINDUSA
100
AcDbLine
 10
4150.75792749327
 20
1678.893468234653
 30
0.0
 11
4150.770261563979
 21
1678.893468234653
 31
0.0
  0
ARC
  5
1E8B
330
1DE0
100
AcDbEntity
  8
SANINDUSA
100
AcDbCircle
 10
4150.748652316497
 20
1678.879748234653
 30
0.0
 40
0.00098
100
AcDbArc
 50
90.0
 51
135.0000000000092
  0
LINE
  5
1E8C
330
1DE0
100
AcDbEntity
  8
SANINDUSA
100
AcDbLine
 10
4150.752106940239
 20
1678.884588787684
 30
0.0
 11
4150.752106940239
 21
1678.883202858393
 31
0.0
  0
LINE
  5
1E8D
330
1DE0
100
AcDbEntity
  8
SANINDUSA
100
AcDbLine
 10
4150.752131563979
 20
1678.880728234653
 30
0.0
 11
4150.748652316497
 21
1678.880728234653
 31
0.0
  0
ARC
  5
1E8E
330
1DE0
100
AcDbEntity
  8
SANINDUSA
100
AcDbCircle
 10
4150.752131563979
 20
1678.881218234653
 30
0.0
 40
0.0004900000000001
100
AcDbArc
 50
270.0
 51
0.0
  0
LINE
  5
1E8F
330
1DE0
100
AcDbEntity
  8
SANINDUSA
100
AcDbLine
 10
4150.752621563979
 20
1678.882485270007
 30
0.0
 11
4150.752621563979
 21
1678.881218234653
 31
0.0
  0
ARC
  5
1E90
330
1DE0
100
AcDbEntity
  8
SANINDUSA
100
AcDbCircle
 10
4150.752131563979
 20
1678.882485270007
 30
0.0
 40
0.0004900000000001
100
AcDbArc
 50
0.0
 51
44.99999999999078
  0
LINE
  5
1E91
330
1DE0
100
AcDbEntity
  8
SANINDUSA
100
AcDbLine
 10
4150.752106940239
 20
1678.883202858393
 30
0.0
 11
4150.752478046302
 21
1678.88283175233
 31
0.0
  0
ARC
  5
1E92
330
1DE0
100
AcDbEntity
  8
SANINDUSA
100
AcDbCircle
 10
4150.752799904885
 20
1678.883895823039
 30
0.0
 40
0.00098
100
AcDbArc
 50
135.0000000000092
 51
224.9999999999908
  0
ARC
  5
1E93
330
1DE0
100
AcDbEntity
  8
SANINDUSA
100
AcDbCircle
 10
4150.758942316498
 20
1678.890038234653
 30
0.0
 40
0.0009799999999999
100
AcDbArc
 50
90.0
 51
135.0000000000092
  0
ARC
  5
1E94
330
1DE0
100
AcDbEntity
  8
SANINDUSA
100
AcDbCircle
 10
4150.75489657213
 20
1678.89153620745
 30
0.0
 40
0.00049
100
AcDbArc
 50
294.8668271162652
 51
315.0000000000092
  0
LINE
  5
1E95
330
1DE0
100
AcDbEntity
  8
SANINDUSA
100
AcDbLine
 10
4150.755243054454
 20
1678.891189725127
 30
0.0
 11
4150.757234528625
 21
1678.893181199298
 31
0.0
  0
LINE
  5
1E96
330
1DE0
100
AcDbEntity
  8
SANINDUSA
100
AcDbLine
 10
4150.752106940239
 20
1678.884588787684
 30
0.0
 11
4150.758249351853
 21
1678.890731199298
 31
0.0
  0
ARC
  5
1E97
330
1DE0
100
AcDbEntity
  8
SANINDUSA
100
AcDbCircle
 10
4150.770261563979
 20
1678.891998234653
 30
0.0
 40
0.0009800000000001
100
AcDbArc
 50
270.0
 51
0.0
  0
LINE
  5
1E98
330
1DE0
100
AcDbEntity
  8
SANINDUSA
100
AcDbLine
 10
4150.77124156398
 20
1678.892488234653
 30
0.0
 11
4150.77124156398
 21
1678.891998234653
 31
0.0
  0
LINE
  5
1E99
330
1DE0
100
AcDbEntity
  8
SANINDUSA
100
AcDbLine
 10
4150.726497409652
 20
1678.774842805592
 30
0.0
 11
4150.755102622318
 21
1678.761584832795
 31
0.0
  0
LINE
  5
1E9A
330
1DE0
100
AcDbEntity
  8
SANINDUSA
100
AcDbLine
 10
4150.747959351853
 20
1678.772235270007
 30
0.0
 11
4150.741673422561
 21
1678.778521199298
 31
0.0
  0
LINE
  5
1E9B
330
1DE0
100
AcDbEntity
  8
SANINDUSA
100
AcDbLine
 10
4150.740980457917
 20
1678.778808234653
 30
0.0
 11
4150.487531563979
 21
1678.778808234653
 31
0.0
  0
LINE
  5
1E9C
330
1DE0
100
AcDbEntity
  8
SANINDUSA
100
AcDbLine
 10
4150.726291359465
 20
1678.774888234652
 30
0.0
 11
4150.495245965236
 21
1678.774888234652
 31
0.0
  0
ARC
  5
1E9D
330
1DE0
100
AcDbEntity
  8
SANINDUSA
100
AcDbCircle
 10
4150.495245965236
 20
1678.809721193829
 30
0.0
 40
0.0348329591759133
100
AcDbArc
 50
257.0189769309901
 51
270.0
  0
ARC
  5
1E9E
330
1DE0
100
AcDbEntity
  8
SANINDUSA
100
AcDbCircle
 10
4150.487531563979
 20
1678.77625588555
 30
0.0
 40
0.00049
100
AcDbArc
 50
180.0
 51
257.0189769309901
  0
ARC
  5
1E9F
330
1DE0
100
AcDbEntity
  8
SANINDUSA
100
AcDbCircle
 10
4150.487531563979
 20
1678.778318234653
 30
0.0
 40
0.00049
100
AcDbArc
 50
90.0
 51
180.0
  0
LINE
  5
1EA0
330
1DE0
100
AcDbEntity
  8
SANINDUSA
100
AcDbLine
 10
4150.487041563979
 20
1678.77625588555
 30
0.0
 11
4150.487041563979
 21
1678.778318234653
 31
0.0
  0
ARC
  5
1EA1
330
1DE0
100
AcDbEntity
  8
SANINDUSA
100
AcDbCircle
 10
4150.740980457917
 20
1678.777828234653
 30
0.0
 40
0.00098
100
AcDbArc
 50
44.99999999999078
 51
90.0
  0
ARC
  5
1EA2
330
1DE0
100
AcDbEntity
  8
SANINDUSA
100
AcDbCircle
 10
4150.770261563979
 20
1678.760188234653
 30
0.0
 40
0.0009800000000001
100
AcDbArc
 50
270.0
 51
0.0
  0
LINE
  5
1EA3
330
1DE0
100
AcDbEntity
  8
SANINDUSA
100
AcDbLine
 10
4150.757234528625
 20
1678.759495270007
 30
0.0
 11
4150.755243054454
 21
1678.761486744178
 31
0.0
  0
LINE
  5
1EA4
330
1DE0
100
AcDbEntity
  8
SANINDUSA
100
AcDbLine
 10
4150.770261563979
 20
1678.761658234652
 30
0.0
 11
4150.758942316498
 21
1678.761658234652
 31
0.0
  0
ARC
  5
1EA5
330
1DE0
100
AcDbEntity
  8
SANINDUSA
100
AcDbCircle
 10
4150.758942316498
 20
1678.762638234653
 30
0.0
 40
0.00098
100
AcDbArc
 50
224.9999999999908
 51
270.0
  0
ARC
  5
1EA6
330
1DE0
100
AcDbEntity
  8
SANINDUSA
100
AcDbCircle
 10
4150.75489657213
 20
1678.761140261856
 30
0.0
 40
0.00049
100
AcDbArc
 50
44.99999999999078
 51
65.13317288373476
  0
ARC
  5
1EA7
330
1DE0
100
AcDbEntity
  8
SANINDUSA
100
AcDbCircle
 10
4150.748652316497
 20
1678.772928234653
 30
0.0
 40
0.00098
100
AcDbArc
 50
224.9999999999908
 51
270.0
  0
LINE
  5
1EA8
330
1DE0
100
AcDbEntity
  8
SANINDUSA
100
AcDbLine
 10
4150.752106940239
 20
1678.769473610912
 30
0.0
 11
4150.752106940239
 21
1678.768087681621
 31
0.0
  0
ARC
  5
1EA9
330
1DE0
100
AcDbEntity
  8
SANINDUSA
100
AcDbCircle
 10
4150.752799904885
 20
1678.768780646267
 30
0.0
 40
0.0009799999999999
100
AcDbArc
 50
135.0000000000092
 51
224.9999999999908
  0
LINE
  5
1EAA
330
1DE0
100
AcDbEntity
  8
SANINDUSA
100
AcDbLine
 10
4150.752478046302
 20
1678.769844716975
 30
0.0
 11
4150.752106940239
 21
1678.769473610912
 31
0.0
  0
ARC
  5
1EAB
330
1DE0
100
AcDbEntity
  8
SANINDUSA
100
AcDbCircle
 10
4150.752131563979
 20
1678.770191199298
 30
0.0
 40
0.0004900000000001
100
AcDbArc
 50
315.0000000000092
 51
0.0
  0
LINE
  5
1EAC
330
1DE0
100
AcDbEntity
  8
SANINDUSA
100
AcDbLine
 10
4150.752621563979
 20
1678.771458234653
 30
0.0
 11
4150.752621563979
 21
1678.770191199298
 31
0.0
  0
ARC
  5
1EAD
330
1DE0
100
AcDbEntity
  8
SANINDUSA
100
AcDbCircle
 10
4150.752131563979
 20
1678.771458234653
 30
0.0
 40
0.00049
100
AcDbArc
 50
0.0
 51
90.0
  0
LINE
  5
1EAE
330
1DE0
100
AcDbEntity
  8
SANINDUSA
100
AcDbLine
 10
4150.748652316497
 20
1678.771948234652
 30
0.0
 11
4150.752131563979
 21
1678.771948234652
 31
0.0
  0
LINE
  5
1EAF
330
1DE0
100
AcDbEntity
  8
SANINDUSA
100
AcDbLine
 10
4150.758249351853
 20
1678.761945270007
 30
0.0
 11
4150.752106940239
 21
1678.768087681621
 31
0.0
  0
LINE
  5
1EB0
330
1DE0
100
AcDbEntity
  8
SANINDUSA
100
AcDbLine
 10
4150.77124156398
 20
1678.760678234653
 30
0.0
 11
4150.77124156398
 21
1678.760188234653
 31
0.0
  0
ARC
  5
1EB1
330
1DE0
100
AcDbEntity
  8
SANINDUSA
100
AcDbCircle
 10
4150.770261563979
 20
1678.760678234653
 30
0.0
 40
0.0009800000000001
100
AcDbArc
 50
0.0
 51
90.0
  0
LINE
  5
1EB2
330
1DE0
100
AcDbEntity
  8
SANINDUSA
100
AcDbLine
 10
4150.770261563979
 20
1678.759208234653
 30
0.0
 11
4150.75792749327
 21
1678.759208234653
 31
0.0
  0
ARC
  5
1EB3
330
1DE0
100
AcDbEntity
  8
SANINDUSA
100
AcDbCircle
 10
4150.75792749327
 20
1678.760188234653
 30
0.0
 40
0.00098
100
AcDbArc
 50
224.9999999999908
 51
270.0
  0
ENDBLK
  5
1EB5
330
1DE0
100
AcDbEntity
  8
0
100
AcDbBlockEnd
  0
ENDSEC
  0
SECTION
  2
ENTITIES
  0
LWPOLYLINE
  5
141B
330
1F
100
AcDbEntity
  8
SANINDUSA
100
AcDbPolyline
 90
       13
 70
   128
 43
0.0
 10
4042.749279780802
 20
1681.779556538104
 10
4042.749229057249
 20
1681.782462800978
 10
4042.749179093656
 20
1681.785324896811
 10
4042.749130784091
 20
1681.7880927577
 10
4042.749084948119
 20
1681.790718103884
 10
4042.749042420205
 20
1681.793154860972
 10
4042.749003915605
 20
1681.795360530852
 10
4042.748970134673
 20
1681.797296430109
 10
4042.748941628751
 20
1681.798928762911
 10
4042.748918934282
 20
1681.800228919028
 10
4042.748902438697
 20
1681.801174248694
 10
4042.748892425117
 20
1681.801748122214
 10
4042.748889072355
 20
1681.801940526007
  0
ARC
  5
141C
330
1F
100
AcDbEntity
  8
SANINDUSA
100
AcDbCircle
 10
4042.756887846959
 20
1681.802080136389
 30
0.0
 40
0.0080000000000001
100
AcDbArc
 50
90.0
 51
180.9999999966945
  0
LINE
  5
141D
330
1F
100
AcDbEntity
  8
SANINDUSA
100
AcDbLine
 10
4042.756887851772
 20
1681.810080136298
 30
0.0
 11
4043.106315685925
 21
1681.810080136298
 31
0.0
  0
LWPOLYLINE
  5
1420
330
1F
100
AcDbEntity
  8
SANINDUSA
100
AcDbPolyline
 90
       13
 70
   128
 43
0.0
 10
4043.11431446534
 20
1681.801940526007
 10
4043.11431111258
 20
1681.801748122214
 10
4043.114301099
 20
1681.801174248694
 10
4043.114284588512
 20
1681.800228919028
 10
4043.114261894044
 20
1681.798928762911
 10
4043.114233403024
 20
1681.797296430109
 10
4043.114199607191
 20
1681.795360530852
 10
4043.114161117491
 20
1681.793154860972
 10
4043.114118574676
 20
1681.790718103884
 10
4043.114072753605
 20
1681.7880927577
 10
4043.11402444404
 20
1681.785324896811
 10
4043.113974480447
 20
1681.782462800978
 10
4043.113923756894
 20
1681.779556538104
  0
ARC
  5
1422
330
1F
100
AcDbEntity
  8
SANINDUSA
100
AcDbCircle
 10
4043.106315687107
 20
1681.802080136389
 30
0.0
 40
0.0080000000000001
100
AcDbArc
 50
359.0000000033055
 51
90.0
  0
LINE
  5
1427
330
1F
100
AcDbEntity
  8
SANINDUSA
100
AcDbLine
 10
4042.74941089612
 20
1681.772045220373
 30
0.0
 11
4042.749279780802
 21
1681.779556538104
 31
0.0
  0
LINE
  5
1428
330
1F
100
AcDbEntity
  8
SANINDUSA
100
AcDbLine
 10
4043.113923756894
 20
1681.779556538104
 30
0.0
 11
4043.113792641577
 21
1681.772045220373
 31
0.0
  0
LINE
  5
142B
330
1F
100
AcDbEntity
  8
SANINDUSA
100
AcDbLine
 10
4043.105793862161
 20
1681.77008011484
 30
0.0
 11
4042.757409675536
 21
1681.77008011484
 31
0.0
  0
LINE
  5
142D
330
1F
100
AcDbEntity
  8
SANINDUSA
100
AcDbLine
 10
4042.757409675536
 20
1681.77008011484
 30
0.0
 11
4042.751410587248
 21
1681.77008011484
 31
0.0
  0
ARC
  5
142E
330
1F
100
AcDbEntity
  8
SANINDUSA
100
AcDbCircle
 10
4042.751410584939
 20
1681.772080136389
 30
0.0
 40
0.0019999999999999
100
AcDbArc
 50
180.9999999966945
 51
270.0
  0
ARC
  5
142F
330
1F
100
AcDbEntity
  8
SANINDUSA
100
AcDbCircle
 10
4043.111792949127
 20
1681.772080136389
 30
0.0
 40
0.0020000000000001
100
AcDbArc
 50
270.0
 51
359.0000000033055
  0
LINE
  5
1430
330
1F
100
AcDbEntity
  8
SANINDUSA
100
AcDbLine
 10
4043.111792950448
 20
1681.77008011484
 30
0.0
 11
4043.105793862161
 21
1681.77008011484
 31
0.0
  0
ARC
  5
1435
330
1F
100
AcDbEntity
  8
SANINDUSA
100
AcDbCircle
 10
4042.751532770393
 20
1681.766080136389
 30
0.0
 40
0.0020000000000002
100
AcDbArc
 50
90.0
 51
180.9999999966945
  0
LINE
  5
1436
330
1F
100
AcDbEntity
  8
SANINDUSA
100
AcDbLine
 10
4042.75153277677
 20
1681.768080140589
 30
0.0
 11
4042.757531850155
 21
1681.768080140589
 31
0.0
  0
LINE
  5
1439
330
1F
100
AcDbEntity
  8
SANINDUSA
100
AcDbLine
 10
4042.757531850155
 20
1681.768080140589
 30
0.0
 11
4043.105671672639
 21
1681.768080140589
 31
0.0
  0
LINE
  5
143C
330
1F
100
AcDbEntity
  8
SANINDUSA
100
AcDbLine
 10
4043.105671672639
 20
1681.768080140589
 30
0.0
 11
4043.111670760927
 21
1681.768080140589
 31
0.0
  0
ARC
  5
143D
330
1F
100
AcDbEntity
  8
SANINDUSA
100
AcDbCircle
 10
4043.111670763673
 20
1681.766080136389
 30
0.0
 40
0.0020000000000002
100
AcDbArc
 50
359.0000000033055
 51
90.0
  0
LINE
  5
1442
330
1F
100
AcDbEntity
  8
SANINDUSA
100
AcDbLine
 10
4042.756567461905
 20
1681.363045225976
 30
0.0
 11
4042.74953307074
 21
1681.766045238016
 31
0.0
  0
LINE
  5
1444
330
1F
100
AcDbEntity
  8
SANINDUSA
100
AcDbLine
 10
4043.113670452055
 20
1681.766045238016
 30
0.0
 11
4043.10663606089
 21
1681.363045225976
 31
0.0
  0
ARC
  5
1445
330
1F
100
AcDbEntity
  8
SANINDUSA
100
AcDbCircle
 10
4042.753462645477
 20
1681.770080136389
 30
0.0
 40
0.002
100
AcDbArc
 50
270.0
 51
329.9999999972802
  0
ARC
  5
144A
330
1F
100
AcDbEntity
  8
SANINDUSA
100
AcDbCircle
 10
4043.109740888588
 20
1681.770080136389
 30
0.0
 40
0.0020000000000001
100
AcDbArc
 50
210.0000000027197
 51
270.0
  0
ARC
  5
144D
330
1F
100
AcDbEntity
  8
SANINDUSA
100
AcDbCircle
 10
4043.106276786973
 20
1681.768080136389
 30
0.0
 40
0.0019999999999999
100
AcDbArc
 50
30.00000000271977
 51
90.0
  0
ARC
  5
144F
330
1F
100
AcDbEntity
  8
SANINDUSA
100
AcDbCircle
 10
4042.756926747093
 20
1681.768080136389
 30
0.0
 40
0.0020000000000001
100
AcDbArc
 50
90.0
 51
149.9999999972802
  0
LINE
  5
1450
330
1F
100
AcDbEntity
  8
SANINDUSA
100
AcDbLine
 10
4043.098637281474
 20
1681.361080135344
 30
0.0
 11
4042.764566241321
 21
1681.361080135344
 31
0.0
  0
LINE
  5
1453
330
1F
100
AcDbEntity
  8
SANINDUSA
100
AcDbLine
 10
4042.764566241321
 20
1681.361080135344
 30
0.0
 11
4042.758567167935
 21
1681.361080135344
 31
0.0
  0
ARC
  5
1454
330
1F
100
AcDbEntity
  8
SANINDUSA
100
AcDbCircle
 10
4042.758567161559
 20
1681.363080136389
 30
0.0
 40
0.0020000000000002
100
AcDbArc
 50
180.9999999966945
 51
270.0
  0
LINE
  5
1455
330
1F
100
AcDbEntity
  8
SANINDUSA
100
AcDbLine
 10
4043.104636369761
 20
1681.361080135344
 30
0.0
 11
4043.098637281474
 21
1681.361080135344
 31
0.0
  0
ARC
  5
1456
330
1F
100
AcDbEntity
  8
SANINDUSA
100
AcDbCircle
 10
4043.104636372507
 20
1681.363080136389
 30
0.0
 40
0.0020000000000002
100
AcDbArc
 50
270.0
 51
359.0000000033055
  0
SPLINE
  5
1457
330
1F
100
AcDbEntity
  8
SANINDUSA
100
AcDbSpline
210
0.0
220
0.0
230
1.0
 70
    24
 71
     3
 72
    25
 73
    21
 74
     0
 42
0.0000000001
 43
0.0000000001
 40
0.0
 40
0.0
 40
0.0
 40
0.0
 40
0.0630409181479993
 40
0.1266892684316464
 40
0.180519055943846
 40
0.2343489879893156
 40
0.2897410657126691
 40
0.3451332599703665
 40
0.3989113221644291
 40
0.4526900205089019
 40
0.5080279351993527
 40
0.5633664818781674
 40
0.6171647265780896
 40
0.6709629207314255
 40
0.7263236962636974
 40
0.78168378940045
 40
0.8354816275659187
 40
0.8892788211122571
 40
0.9446394152830119
 40
1.0
 40
1.0
 40
1.0
 40
1.0
 10
4043.097866205988
 20
1681.356080140112
 30
0.0
 10
4043.097783279305
 20
1681.356080140112
 30
0.0
 10
4043.097616626899
 20
1681.356080140112
 30
0.0
 10
4043.096555472498
 20
1681.356080140112
 30
0.0
 10
4043.095028742749
 20
1681.356080140112
 30
0.0
 10
4043.093087659965
 20
1681.356080140112
 30
0.0
 10
4043.090649203342
 20
1681.356080140112
 30
0.0
 10
4043.087746884402
 20
1681.356080140112
 30
0.0
 10
4043.084435233239
 20
1681.356080140112
 30
0.0
 10
4043.080721299546
 20
1681.356080140112
 30
0.0
 10
4043.076580373087
 20
1681.356080140112
 30
0.0
 10
4043.072075649003
 20
1681.356080140112
 30
0.0
 10
4043.06728789184
 20
1681.356080140112
 30
0.0
 10
4043.062213590807
 20
1681.356080140112
 30
0.0
 10
4043.056831873558
 20
1681.356080140112
 30
0.0
 10
4043.051228794547
 20
1681.356080140112
 30
0.0
 10
4043.045501264257
 20
1681.356080140112
 30
0.0
 10
4043.039639371484
 20
1681.356080140112
 30
0.0
 10
4043.033624368063
 20
1681.356080140112
 30
0.0
 10
4043.029538397668
 20
1681.356080140112
 30
0.0
 10
4043.027495412644
 20
1681.356080140112
 30
0.0
  0
SPLINE
  5
145C
330
1F
100
AcDbEntity
  8
SANINDUSA
100
AcDbSpline
210
0.0
220
0.0
230
1.0
 70
    24
 71
     3
 72
    21
 73
    17
 74
     0
 42
0.0000000001
 43
0.0000000001
 40
0.0
 40
0.0
 40
0.0
 40
0.0
 40
0.0633600076627058
 40
0.1267199070262787
 40
0.1994546095725586
 40
0.2724208605985162
 40
0.3451555879033204
 40
0.41782001234598
 40
0.4907161754196687
 40
0.5633815931855139
 40
0.6360750486266626
 40
0.7089999705099325
 40
0.7816924638512052
 40
0.8543848237339437
 40
0.9273084669318208
 40
1.0
 40
1.0
 40
1.0
 40
1.0
 10
4042.765337331709
 20
1681.356080140112
 30
0.0
 10
4042.765421448259
 20
1681.356080140112
 30
0.0
 10
4042.765589681216
 20
1681.356080140112
 30
0.0
 10
4042.766758875816
 20
1681.356080140112
 30
0.0
 10
4042.768739042705
 20
1681.356080140112
 30
0.0
 10
4042.771677754264
 20
1681.356080140112
 30
0.0
 10
4042.775426424978
 20
1681.356080140112
 30
0.0
 10
4042.779971834617
 20
1681.356080140112
 30
0.0
 10
4042.785226324592
 20
1681.356080140112
 30
0.0
 10
4042.791128156403
 20
1681.356080140112
 30
0.0
 10
4042.79762370811
 20
1681.356080140112
 30
0.0
 10
4042.804610793742
 20
1681.356080140112
 30
0.0
 10
4042.812004591724
 20
1681.356080140112
 30
0.0
 10
4042.819722511431
 20
1681.356080140112
 30
0.0
 10
4042.827653489023
 20
1681.356080140112
 30
0.0
 10
4042.833026101018
 20
1681.356080140112
 30
0.0
 10
4042.835708125052
 20
1681.356080140112
 30
0.0
  0
SPLINE
  5
1464
330
1F
100
AcDbEntity
  8
SANINDUSA
100
AcDbSpline
210
0.0
220
0.0
230
1.0
 70
     8
 71
     3
 72
    14
 73
    10
 74
     0
 42
0.0000000001
 43
0.0000000001
 40
0.0
 40
0.0
 40
0.0
 40
0.0
 40
0.1400812045550186
 40
0.2800812474492147
 40
0.4200321064105788
 40
0.5599656531733788
 40
0.7065788123844995
 40
0.8532447067956145
 40
1.0
 40
1.0
 40
1.0
 40
1.0
 10
4042.756757541117
 20
1681.352707649706
 30
0.0
 10
4042.757724802643
 20
1681.333645817073
 30
0.0
 10
4042.759658765272
 20
1681.295533196042
 30
0.0
 10
4042.763594363555
 20
1681.238436406187
 30
0.0
 10
4042.768287809265
 20
1681.181418626823
 30
0.0
 10
4042.773895665044
 20
1681.123577318876
 30
0.0
 10
4042.78046514628
 20
1681.064917245056
 30
0.0
 10
4042.787968309268
 20
1681.005430562753
 30
0.0
 10
4042.7937233659
 20
1680.965867634686
 30
0.0
 10
4042.796601770934
 20
1680.946080143689
 30
0.0
  0
SPLINE
  5
146C
330
1F
100
AcDbEntity
  8
SANINDUSA
100
AcDbSpline
210
0.0
220
0.0
230
1.0
 70
     8
 71
     3
 72
    14
 73
    10
 74
     0
 42
0.0000000001
 43
0.0000000001
 40
0.0
 40
0.0
 40
0.0
 40
0.0
 40
0.1400812045929249
 40
0.2800812475250052
 40
0.4200321065242405
 40
0.5599656533249068
 40
0.7065788125757013
 40
0.8532447093227
 40
0.9999999999999998
 40
0.9999999999999998
 40
0.9999999999999998
 40
0.9999999999999998
 10
4043.106445996579
 20
1681.352707649706
 30
0.0
 10
4043.105478735059
 20
1681.333645817072
 30
0.0
 10
4043.103544772438
 20
1681.29553319604
 30
0.0
 10
4043.099609174085
 20
1681.238436406194
 30
0.0
 10
4043.094915728642
 20
1681.181418626796
 30
0.0
 10
4043.089307871849
 20
1681.12357731898
 30
0.0
 10
4043.082738394541
 20
1681.064917244335
 30
0.0
 10
4043.075235216618
 20
1681.005430564004
 30
0.0
 10
4043.069480167827
 20
1680.965867634885
 30
0.0
 10
4043.066601766763
 20
1680.946080143689
 30
0.0
  0
LINE
  5
147A
330
1F
100
AcDbEntity
  8
SANINDUSA
100
AcDbLine
 10
4043.066601766763
 20
1680.946080143689
 30
0.0
 11
4043.007194107887
 21
1680.946080143689
 31
0.0
  0
LINE
  5
147B
330
1F
100
AcDbEntity
  8
SANINDUSA
100
AcDbLine
 10
4043.007194107887
 20
1680.946080143689
 30
0.0
 11
4042.931601768848
 21
1680.946080143689
 31
0.0
  0
LINE
  5
147C
330
1F
100
AcDbEntity
  8
SANINDUSA
100
AcDbLine
 10
4042.85600942981
 20
1680.946080143689
 30
0.0
 11
4042.931601768848
 21
1680.946080143689
 31
0.0
  0
LINE
  5
147D
330
1F
100
AcDbEntity
  8
SANINDUSA
100
AcDbLine
 10
4042.796601770934
 20
1680.946080143689
 30
0.0
 11
4042.85600942981
 21
1680.946080143689
 31
0.0
  0
SPLINE
  5
1484
330
1F
100
AcDbEntity
  8
SANINDUSA
100
AcDbSpline
210
0.0
220
0.0
230
1.0
 70
    24
 71
     3
 72
    13
 73
     9
 74
     0
 42
0.0000000001
 43
0.0000000001
 40
0.0
 40
0.0
 40
0.0
 40
0.0
 40
0.0406080920326923
 40
0.2500058521597321
 40
0.5000004425460679
 40
0.8826247086515037
 40
0.9218182356351109
 40
1.0
 40
1.0
 40
1.0
 40
1.0
 10
4042.835708125052
 20
1681.356080140112
 30
0.0
 10
4042.838304019931
 20
1681.356080140112
 30
0.0
 10
4042.854285783143
 20
1681.356080140112
 30
0.0
 10
4042.886250092893
 20
1681.356080140112
 30
0.0
 10
4042.940080830866
 20
1681.356080140112
 30
0.0
 10
4042.983030628651
 20
1681.356080140112
 30
0.0
 10
4043.014994268527
 20
1681.356080140112
 30
0.0
 10
4043.022497579658
 20
1681.356080140112
 30
0.0
 10
4043.027495412644
 20
1681.356080140112
 30
0.0
  0
ARC
  5
1485
330
1F
100
AcDbEntity
  8
SANINDUSA
100
AcDbCircle
 10
4042.765027346153
 20
1681.348080152674
 30
0.0
 40
0.007999987438471
100
AcDbArc
 50
89.9999169102735
 51
159.6127328024149
  0
ARC
  5
1486
330
1F
100
AcDbEntity
  8
SANINDUSA
100
AcDbCircle
 10
4043.0981762025
 20
1681.34808018576
 30
0.0
 40
0.0079999543523302
100
AcDbArc
 50
20.38072677267592
 51
90.0001615416445
  0
ARC
  5
149E
330
1F
100
AcDbEntity
  8
SANINDUSA
100
AcDbCircle
 10
4043.098454666056
 20
1681.353080136389
 30
0.0
 40
0.008
100
AcDbArc
 50
357.3312427253186
 51
90.0
  0
ARC
  5
149F
330
1F
100
AcDbEntity
  8
SANINDUSA
100
AcDbCircle
 10
4042.764748868011
 20
1681.353080136389
 30
0.0
 40
0.0079999999999999
100
AcDbArc
 50
90.0
 51
182.6687572746815
  0
ARC
  5
14A4
330
1F
100
AcDbEntity
  8
SANINDUSA
100
AcDbCircle
 10
4042.765031840373
 20
1681.348079451539
 30
0.0
 40
0.0080044444386234
100
AcDbArc
 50
159.6192351722248
 51
183.01662131185
  0
SPLINE
  5
158A
330
1F
100
AcDbEntity
  8
SANINDUSA
100
AcDbSpline
210
0.0
220
0.0
230
1.0
 70
    24
 71
     1
 72
     4
 73
     2
 74
     0
 42
0.0000000001
 43
0.0000000001
 40
0.0
 40
0.0
 40
1.0
 40
1.0
 10
4042.61043859551
 20
1681.585671795343
 30
0.0
 10
4042.61043859551
 20
1681.697998372648
 30
0.0
  0
SPLINE
  5
158B
330
1F
100
AcDbEntity
  8
SANINDUSA
100
AcDbSpline
210
0.0
220
0.0
230
1.0
 70
    24
 71
     1
 72
     4
 73
     2
 74
     0
 42
0.0000000001
 43
0.0000000001
 40
0.0
 40
0.0
 40
1.0
 40
1.0
 10
4042.245010758734
 20
1681.697998372648
 30
0.0
 10
4042.245010758734
 20
1681.585671795343
 30
0.0
  0
SPLINE
  5
158C
330
1F
100
AcDbEntity
  8
SANINDUSA
100
AcDbSpline
210
0.0
220
0.0
230
1.0
 70
    24
 71
     1
 72
     4
 73
     2
 74
     0
 42
0.0000000001
 43
0.0000000001
 40
0.0
 40
0.0
 40
1.0
 40
1.0
 10
4042.25339476297
 20
1681.555671809051
 30
0.0
 10
4042.602054591275
 20
1681.555671809051
 30
0.0
  0
SPLINE
  5
158D
330
1F
100
AcDbEntity
  8
SANINDUSA
100
AcDbSpline
210
0.0
220
0.0
230
1.0
 70
     8
 71
     3
 72
    22
 73
    18
 74
     0
 42
0.0000000001
 43
0.0000000001
 40
0.0
 40
0.0
 40
0.0
 40
0.0
 40
0.0404425491065014
 40
0.1806160478407919
 40
0.3344739355961437
 40
0.3887239552357079
 40
0.4298629044485677
 40
0.4699769638188814
 40
0.5134245699169814
 40
0.5666912763869886
 40
0.6261985315264164
 40
0.6908039102511676
 40
0.7602340848273914
 40
0.8327492219651549
 40
0.9069665152346678
 40
0.9820139991898463
 40
1.0
 40
1.0
 40
1.0
 40
1.0
 10
4042.245229731299
 20
1681.565703807209
 30
0.0
 10
4042.245234049281
 20
1681.565569242873
 30
0.0
 10
4042.245253333356
 20
1681.5649682798
 30
0.0
 10
4042.245296020682
 20
1681.564128582565
 30
0.0
 10
4042.245343001888
 20
1681.563395725599
 30
0.0
 10
4042.245421644259
 20
1681.562727444988
 30
0.0
 10
4042.245504339933
 20
1681.562220380283
 30
0.0
 10
4042.245646491044
 20
1681.561593889853
 30
0.0
 10
4042.245901754453
 20
1681.560797094153
 30
0.0
 10
4042.246319692648
 20
1681.559871582874
 30
0.0
 10
4042.2469466001
 20
1681.558877230338
 30
0.0
 10
4042.247795100404
 20
1681.557902641162
 30
0.0
 10
4042.248864452735
 20
1681.557026520532
 30
0.0
 10
4042.250130277532
 20
1681.556314092196
 30
0.0
 10
4042.251540009966
 20
1681.555856908516
 30
0.0
 10
4042.252654019502
 20
1681.555646079435
 30
0.0
 10
4042.253274132543
 20
1681.555691341097
 30
0.0
 10
4042.253394017912
 20
1681.555700091455
 30
0.0
  0
SPLINE
  5
158E
330
1F
100
AcDbEntity
  8
SANINDUSA
100
AcDbSpline
210
0.0
220
0.0
230
1.0
 70
     8
 71
     3
 72
    23
 73
    19
 74
     0
 42
0.0000000001
 43
0.0000000001
 40
0.0
 40
0.0
 40
0.0
 40
0.0
 40
0.0562569691377818
 40
0.1265082859546412
 40
0.1920702986086868
 40
0.2535749836173131
 40
0.3112389467881208
 40
0.3649979576733699
 40
0.4144499181551331
 40
0.4586167936331979
 40
0.4965402427133283
 40
0.5306006207424007
 40
0.5667713657225978
 40
0.6100766421134245
 40
0.6710045935685107
 40
0.7756010414090576
 40
0.9045753541333493
 40
1.0
 40
1.0
 40
1.0
 40
1.0
 10
4042.602055485345
 20
1681.555703205798
 30
0.0
 10
4042.602457395107
 20
1681.555708049048
 30
0.0
 10
4042.603361192731
 20
1681.555718940345
 30
0.0
 10
4042.604695952392
 20
1681.556079141293
 30
0.0
 10
4042.605982087189
 20
1681.556655612362
 30
0.0
 10
4042.607075056213
 20
1681.557398141755
 30
0.0
 10
4042.607973856578
 20
1681.558242573531
 30
0.0
 10
4042.608682270593
 20
1681.559139988807
 30
0.0
 10
4042.60920907168
 20
1681.560035053534
 30
0.0
 10
4042.609570775638
 20
1681.560867004806
 30
0.0
 10
4042.609798844083
 20
1681.561585323119
 30
0.0
 10
4042.60993449512
 20
1681.562170098553
 30
0.0
 10
4042.610015058394
 20
1681.56264231677
 30
0.0
 10
4042.610069801714
 20
1681.563074218134
 30
0.0
 10
4042.610117746933
 20
1681.56358769938
 30
0.0
 10
4042.61016278157
 20
1681.564289983915
 30
0.0
 10
4042.610205318325
 20
1681.565202779951
 30
0.0
 10
4042.610230671728
 20
1681.566015849786
 30
0.0
 10
4042.610241453147
 20
1681.566361604069
 30
0.0
  0
SPLINE
  5
158F
330
1F
100
AcDbEntity
  8
SANINDUSA
100
AcDbSpline
210
0.0
220
0.0
230
1.0
 70
     8
 71
     3
 72
    13
 73
     9
 74
     0
 42
0.0000000001
 43
0.0000000001
 40
0.0
 40
0.0
 40
0.0
 40
0.0
 40
0.5386541730556355
 40
0.8079777410949924
 40
0.9426386663660808
 40
0.976303802010516
 40
0.9971107516639804
 40
0.9999999999999998
 40
0.9999999999999998
 40
0.9999999999999998
 40
0.9999999999999998
 10
4042.253202478386
 20
1681.476953936551
 30
0.0
 10
4042.253235959401
 20
1681.420318743505
 30
0.0
 10
4042.253286180704
 20
1681.335366323877
 30
0.0
 10
4042.253450515195
 20
1681.236259034727
 30
0.0
 10
4042.25338047589
 20
1681.190240272767
 30
0.0
 10
4042.253493608909
 20
1681.170358165285
 30
0.0
 10
4042.253396104698
 20
1681.164323474706
 30
0.0
 10
4042.25352006258
 20
1681.161834970842
 30
0.0
 10
4042.253535176612
 20
1681.16153155062
 30
0.0
  0
SPLINE
  5
1590
330
1F
100
AcDbEntity
  8
SANINDUSA
100
AcDbSpline
210
0.0
220
0.0
230
1.0
 70
     8
 71
     3
 72
    11
 73
     7
 74
     0
 42
0.0000000001
 43
0.0000000001
 40
0.0
 40
0.0
 40
0.0
 40
0.0
 40
0.0015138675926812
 40
0.0159642956576323
 40
0.0331389978894289
 40
1.0
 40
1.0
 40
1.0
 40
1.0
 10
4042.601919482446
 20
1681.161531192992
 30
0.0
 10
4042.601929808289
 20
1681.161729996628
 30
0.0
 10
4042.602038698128
 20
1681.163826454759
 30
0.0
 10
4042.601972809382
 20
1681.168187065827
 30
0.0
 10
4042.602528899972
 20
1681.299460183828
 30
0.0
 10
4042.602411028978
 20
1681.428863745557
 30
0.0
 10
4042.602295215226
 20
1681.556008783911
 30
0.0
  0
SPLINE
  5
1591
330
1F
100
AcDbEntity
  8
SANINDUSA
100
AcDbSpline
210
0.0
220
0.0
230
1.0
 70
     8
 71
     3
 72
    33
 73
    29
 74
     0
 42
0.0000000001
 43
0.0000000001
 40
0.0
 40
0.0
 40
0.0
 40
0.0
 40
0.0212217279620351
 40
0.0609774832505312
 40
0.0991549751290863
 40
0.1393219976331671
 40
0.1797617443934909
 40
0.2204470523259055
 40
0.2613267980574318
 40
0.3023392704636773
 40
0.3434153058586088
 40
0.3844573772544618
 40
0.4253943160734264
 40
0.4661615654333821
 40
0.5067100224206581
 40
0.5468891018353258
 40
0.5870211189145147
 40
0.6275155077194343
 40
0.6683085009326191
 40
0.7093241508010058
 40
0.7504755612960194
 40
0.7916587136464322
 40
0.8327568611547832
 40
0.8736816704692945
 40
0.9143562076077072
 40
0.9544676107921244
 40
0.9940215051838826
 40
1.0
 40
1.0
 40
1.0
 40
1.0
 10
4042.253425310351
 20
1681.161528972719
 30
0.0
 10
4042.253445305234
 20
1681.160658402835
 30
0.0
 10
4042.253502757563
 20
1681.158156949578
 30
0.0
 10
4042.253822338595
 20
1681.154098133225
 30
0.0
 10
4042.254449639938
 20
1681.149291034326
 30
0.0
 10
4042.255390127243
 20
1681.144505245411
 30
0.0
 10
4042.256649928506
 20
1681.139687551211
 30
0.0
 10
4042.258217422204
 20
1681.134929968077
 30
0.0
 10
4042.260086087491
 20
1681.130257169999
 30
0.0
 10
4042.262248727285
 20
1681.125695150801
 30
0.0
 10
4042.26469481094
 20
1681.121270991445
 30
0.0
 10
4042.267411352183
 20
1681.117011193396
 30
0.0
 10
4042.270383130805
 20
1681.112940993676
 30
0.0
 10
4042.273593973487
 20
1681.109082884907
 30
0.0
 10
4042.277023391934
 20
1681.105460284969
 30
0.0
 10
4042.28066026134
 20
1681.102084324694
 30
0.0
 10
4042.284500880211
 20
1681.098945849887
 30
0.0
 10
4042.288550128801
 20
1681.096038194561
 30
0.0
 10
4042.292802810851
 20
1681.093368285648
 30
0.0
 10
4042.297236625011
 20
1681.090954451573
 30
0.0
 10
4042.301826260689
 20
1681.088813694642
 30
0.0
 10
4042.306543577809
 20
1681.086962027138
 30
0.0
 10
4042.311358793644
 20
1681.085411827702
 30
0.0
 10
4042.31624212942
 20
1681.084175716812
 30
0.0
 10
4042.321154246708
 20
1681.083253186169
 30
0.0
 10
4042.326060578835
 20
1681.082681452669
 30
0.0
 10
4042.329567070951
 20
1681.082416184863
 30
0.0
 10
4042.331434697506
 20
1681.082368441708
 30
0.0
 10
4042.33167992065
 20
1681.082362172935
 30
0.0
  0
SPLINE
  5
1592
330
1F
100
AcDbEntity
  8
SANINDUSA
100
AcDbSpline
210
0.0
220
0.0
230
1.0
 70
     8
 71
     3
 72
    32
 73
    28
 74
     0
 42
0.0000000001
 43
0.0000000001
 40
0.0
 40
0.0
 40
0.0
 40
0.0
 40
0.0376826189144798
 40
0.0761863849323989
 40
0.1176764646990736
 40
0.1578511964409357
 40
0.1983886873309165
 40
0.2392151671344744
 40
0.2802535169611437
 40
0.3214156184506424
 40
0.362593019865615
 40
0.4036735659849428
 40
0.4445700022493042
 40
0.4852064777397458
 40
0.5254710398189828
 40
0.5655274599361185
 40
0.6059176624589925
 40
0.646580643217281
 40
0.6874617554938284
 40
0.7284966621453634
 40
0.7696141259629146
 40
0.8107228921053055
 40
0.8517466861726196
 40
0.8926243403372204
 40
0.9333056668592721
 40
0.9729962725059236
 40
0.9999999999999998
 40
0.9999999999999998
 40
0.9999999999999998
 40
0.9999999999999998
 10
4042.523774365879
 20
1681.082363096807
 30
0.0
 10
4042.525318927042
 20
1681.082436301814
 30
0.0
 10
4042.528441707111
 20
1681.082584307046
 30
0.0
 10
4042.533244861501
 20
1681.08310662609
 30
0.0
 10
4042.538107539928
 20
1681.083940116536
 30
0.0
 10
4042.542987380596
 20
1681.08510542051
 30
0.0
 10
4042.547759215639
 20
1681.08656362091
 30
0.0
 10
4042.552464481946
 20
1681.088327878013
 30
0.0
 10
4042.557074678796
 20
1681.090390997856
 30
0.0
 10
4042.561560603115
 20
1681.092743195065
 30
0.0
 10
4042.56589267113
 20
1681.095371381807
 30
0.0
 10
4042.570042541451
 20
1681.098259782939
 30
0.0
 10
4042.57398420781
 20
1681.101390896643
 30
0.0
 10
4042.57769364804
 20
1681.104744343612
 30
0.0
 10
4042.581154592228
 20
1681.108305730289
 30
0.0
 10
4042.584376258328
 20
1681.112071430957
 30
0.0
 10
4042.587365945679
 20
1681.11604429839
 30
0.0
 10
4042.590120624606
 20
1681.120224165048
 30
0.0
 10
4042.592623019004
 20
1681.124590305753
 30
0.0
 10
4042.594857005687
 20
1681.129120508473
 30
0.0
 10
4042.596807690171
 20
1681.133789855129
 30
0.0
 10
4042.598462300578
 20
1681.138571735394
 30
0.0
 10
4042.599809552662
 20
1681.143438820247
 30
0.0
 10
4042.600844781301
 20
1681.148364155911
 30
0.0
 10
4042.601547286604
 20
1681.153291880408
 30
0.0
 10
4042.601918536933
 20
1681.157684800457
 30
0.0
 10
4042.601997020372
 20
1681.160420267759
 30
0.0
 10
4042.602028797364
 20
1681.16152782533
 30
0.0
  0
SPLINE
  5
1593
330
1F
100
AcDbEntity
  8
SANINDUSA
100
AcDbSpline
210
0.0
220
0.0
230
1.0
 70
     8
 71
     3
 72
    15
 73
    11
 74
     0
 42
0.0000000001
 43
0.0000000001
 40
0.0
 40
0.0
 40
0.0
 40
0.0
 40
0.0180384517228522
 40
0.0519842644658382
 40
0.1865285561889665
 40
0.4391243276651629
 40
0.6911999805248526
 40
0.9430757365713635
 40
0.9853037775697448
 40
1.0
 40
1.0
 40
1.0
 40
1.0
 10
4042.331682379342
 20
1681.082432983253
 30
0.0
 10
4042.332837052604
 20
1681.08240429752
 30
0.0
 10
4042.336164657494
 20
1681.082321629296
 30
0.0
 10
4042.348108485376
 20
1681.082259108723
 30
0.0
 10
4042.37506834375
 20
1681.081906682764
 30
0.0
 10
4042.415997834949
 20
1681.081774807682
 30
0.0
 10
4042.464441231198
 20
1681.081768941329
 30
0.0
 10
4042.499408959119
 20
1681.082252508027
 30
0.0
 10
4042.519183664754
 20
1681.082297341612
 30
0.0
 10
4042.522826762458
 20
1681.082414743399
 30
0.0
 10
4042.523767306454
 20
1681.082445053194
 30
0.0
  0
LINE
  5
1594
330
1F
100
AcDbEntity
  8
SANINDUSA
100
AcDbLine
 10
4042.602438594199
 20
1681.70299836788
 30
0.0
 11
4042.605438138343
 21
1681.70299836788
 31
0.0
  0
ARC
  5
1595
330
1F
100
AcDbEntity
  8
SANINDUSA
100
AcDbCircle
 10
4042.605437741598
 20
1681.697998735866
 30
0.0
 40
0.0049996320296237
100
AcDbArc
 50
359.9958375277825
 51
89.99545330619028
  0
LINE
  5
1598
330
1F
100
AcDbEntity
  8
SANINDUSA
100
AcDbLine
 10
4042.253010760045
 20
1681.70299836788
 30
0.0
 11
4042.602438594199
 21
1681.70299836788
 31
0.0
  0
LINE
  5
159B
330
1F
100
AcDbEntity
  8
SANINDUSA
100
AcDbLine
 10
4042.250011215902
 20
1681.70299836788
 30
0.0
 11
4042.253010760045
 21
1681.70299836788
 31
0.0
  0
ARC
  5
159D
330
1F
100
AcDbEntity
  8
SANINDUSA
100
AcDbCircle
 10
4042.250011597675
 20
1681.697998750834
 30
0.0
 40
0.0049996170596361
100
AcDbArc
 50
90.00437512094967
 51
180.0043340320509
  0
CIRCLE
  5
15A4
330
1F
100
AcDbEntity
  8
SANINDUSA
100
AcDbCircle
 10
4042.427724675307
 20
1681.632998359866
 30
0.0
 40
0.025
  0
ELLIPSE
  5
15A5
330
1F
100
AcDbEntity
  8
SANINDUSA
100
AcDbEllipse
 10
4042.245395985101
 20
1681.585671802437
 30
0.0
 11
0.0
 21
0.022
 31
0.0
210
0.0
220
0.0
230
0.9999999999999998
 40
0.0174550649282165
 41
1.570796326794896
 42
2.680291637948067
  0
ELLIPSE
  5
15A6
330
1F
100
AcDbEntity
  8
SANINDUSA
100
AcDbEllipse
 10
4042.610053365513
 20
1681.585671802437
 30
0.0
 11
0.0
 21
0.0219999999999999
 31
0.0
210
0.0
220
0.0
230
1.0
 40
0.0174550649282295
 41
3.663085665821339
 42
4.712388980384683
  0
SPLINE
  5
15A8
330
1F
100
AcDbEntity
  8
SANINDUSA
100
AcDbSpline
210
0.0
220
0.0
230
1.0
 70
    24
 71
     1
 72
     4
 73
     2
 74
     0
 42
0.0000000001
 43
0.0000000001
 40
0.0
 40
0.0
 40
1.0
 40
1.0
 10
4042.25322769115
 20
1681.476744426225
 30
0.0
 10
4042.253163273431
 20
1681.555687142346
 30
0.0
  0
CIRCLE
  5
15A9
330
1F
100
AcDbEntity
  8
SANINDUSA
100
AcDbCircle
 10
4042.505224675307
 20
1681.474178359866
 30
0.0
 40
0.0077500000000001
  0
CIRCLE
  5
15AD
330
1F
100
AcDbEntity
  8
SANINDUSA
100
AcDbCircle
 10
4042.350224675307
 20
1681.474178359866
 30
0.0
 40
0.0077500000000001
  0
LINE
  5
15B8
330
1F
100
AcDbEntity
  8
SANINDUSA
100
AcDbLine
 10
4042.467724675296
 20
1681.424198105742
 30
0.0
 11
4042.387724678016
 21
1681.424198105742
 31
0.0
  0
ARC
  5
15B9
330
1F
100
AcDbEntity
  8
SANINDUSA
100
AcDbCircle
 10
4042.387724675307
 20
1681.346594011517
 30
0.0
 40
0.0776040942777705
100
AcDbArc
 50
90.0
 51
180.0
  0
ARC
  5
15BB
330
1F
100
AcDbEntity
  8
SANINDUSA
100
AcDbCircle
 10
4042.467724675307
 20
1681.346594011517
 30
0.0
 40
0.0776040942777705
100
AcDbArc
 50
0.0
 51
90.0
  0
LINE
  5
15BD
330
1F
100
AcDbEntity
  8
SANINDUSA
100
AcDbLine
 10
4042.545328768886
 20
1681.346594011221
 30
0.0
 11
4042.545328768886
 21
1681.161592034433
 31
0.0
  0
LINE
  5
15BF
330
1F
100
AcDbEntity
  8
SANINDUSA
100
AcDbLine
 10
4042.310120577908
 20
1681.346594011221
 30
0.0
 11
4042.310120577908
 21
1681.161592034433
 31
0.0
  0
ARC
  5
15C1
330
1F
100
AcDbEntity
  8
SANINDUSA
100
AcDbCircle
 10
4042.522724675307
 20
1681.161592041242
 30
0.0
 40
0.0226040942777706
100
AcDbArc
 50
270.7193395047926
 51
359.9999999869725
  0
ARC
  5
15C3
330
1F
100
AcDbEntity
  8
SANINDUSA
100
AcDbCircle
 10
4042.332724675307
 20
1681.161592041242
 30
0.0
 40
0.0226040942777705
100
AcDbArc
 50
180.0000000130275
 51
269.2806604952074
  0
ARC
  5
15C5
330
1F
100
AcDbEntity
  8
SANINDUSA
100
AcDbCircle
 10
4042.427724675307
 20
1688.727995678374
 30
0.0
 40
7.58960409427777
100
AcDbArc
 50
269.2806604952074
 51
270.7193395047926
  0
SPLINE
  5
15F4
330
1F
100
AcDbEntity
  8
SANINDUSA
100
AcDbSpline
210
0.0
220
0.0
230
1.0
 70
     8
 71
     3
 72
    13
 73
     9
 74
     0
 42
0.0000000001
 43
0.0000000001
 40
0.0
 40
0.0
 40
0.0
 40
0.0
 40
0.1289146638101826
 40
0.2581457790425682
 40
0.3873076217867014
 40
0.5859723821202318
 40
0.7846630481570176
 40
1.0
 40
1.0
 40
1.0
 40
1.0
 10
4042.475218032471
 20
1681.358337694589
 30
0.0
 10
4042.475309279603
 20
1681.355294636619
 30
0.0
 10
4042.475491997854
 20
1681.349201050775
 30
0.0
 10
4042.475805927049
 20
1681.339962335165
 30
0.0
 10
4042.476197254022
 20
1681.329078962493
 30
0.0
 10
4042.476667993343
 20
1681.316569767794
 30
0.0
 10
4042.477231716226
 20
1681.302065775537
 30
0.0
 10
4042.477623327735
 20
1681.292312364044
 30
0.0
 10
4042.477827006004
 20
1681.287239586745
 30
0.0
  0
SPLINE
  5
15F8
330
1F
100
AcDbEntity
  8
SANINDUSA
100
AcDbSpline
210
0.0
220
0.0
230
1.0
 70
     8
 71
     3
 72
    13
 73
     9
 74
     0
 42
0.0000000001
 43
0.0000000001
 40
0.0
 40
0.0
 40
0.0
 40
0.0
 40
0.1289146620372267
 40
0.2581457783531929
 40
0.3873076203725345
 40
0.5859723829730551
 40
0.7846630483245764
 40
1.0
 40
1.0
 40
1.0
 40
1.0
 10
4042.380231316186
 20
1681.358337694589
 30
0.0
 10
4042.3801400713
 20
1681.355294636597
 30
0.0
 10
4042.379957357545
 20
1681.349201050641
 30
0.0
 10
4042.379643422569
 20
1681.339962335271
 30
0.0
 10
4042.379252101751
 20
1681.329078962337
 30
0.0
 10
4042.378781353741
 20
1681.316569767957
 30
0.0
 10
4042.378217636212
 20
1681.302065775489
 30
0.0
 10
4042.377826024667
 20
1681.292312364031
 30
0.0
 10
4042.377622346378
 20
1681.287239586745
 30
0.0
  0
SPLINE
  5
15FB
330
1F
100
AcDbEntity
  8
SANINDUSA
100
AcDbSpline
210
0.0
220
0.0
230
1.0
 70
     8
 71
     3
 72
    18
 73
    14
 74
     0
 42
0.0000000001
 43
0.0000000001
 40
0.0
 40
0.0
 40
0.0
 40
0.0
 40
0.0132330127379547
 40
0.0266046493838
 40
0.0362707623945051
 40
0.045906954421122
 40
0.0626182636506272
 40
0.1094611735428585
 40
0.2136211024152049
 40
0.3182228746046718
 40
0.545495940679226
 40
0.7730253281439014
 40
0.9999999999999998
 40
0.9999999999999998
 40
0.9999999999999998
 40
0.9999999999999998
 10
4042.391930337049
 20
1681.39409126788
 30
0.0
 10
4042.391770276391
 20
1681.394149007451
 30
0.0
 10
4042.391448478343
 20
1681.394265091451
 30
0.0
 10
4042.39089664859
 20
1681.394285078495
 30
0.0
 10
4042.390366514108
 20
1681.3941475184
 30
0.0
 10
4042.389821157901
 20
1681.393867823405
 30
0.0
 10
4042.388903812788
 20
1681.393105905734
 30
0.0
 10
4042.387512823341
 20
1681.391095118544
 30
0.0
 10
4042.386024929238
 20
1681.387997239653
 30
0.0
 10
4042.384208634611
 20
1681.382672121496
 30
0.0
 10
4042.382226366368
 20
1681.375792814234
 30
0.0
 10
4042.380614458405
 20
1681.367257620873
 30
0.0
 10
4042.380358926301
 20
1681.361308583113
 30
0.0
 10
4042.380231316186
 20
1681.358337694589
 30
0.0
  0
SPLINE
  5
15FC
330
1F
100
AcDbEntity
  8
SANINDUSA
100
AcDbSpline
210
0.0
220
0.0
230
1.0
 70
     8
 71
     3
 72
    18
 73
    14
 74
     0
 42
0.0000000001
 43
0.0000000001
 40
0.0
 40
0.0
 40
0.0
 40
0.0
 40
0.0132330902167612
 40
0.0266046503322367
 40
0.0362708504431789
 40
0.0459069717286606
 40
0.0626182976126337
 40
0.1094612301215998
 40
0.2136211469467104
 40
0.3182228993380061
 40
0.5454959691965651
 40
0.7730253425681881
 40
1.0
 40
1.0
 40
1.0
 40
1.0
 10
4042.463519010211
 20
1681.39409126788
 30
0.0
 10
4042.463679072881
 20
1681.394149007555
 30
0.0
 10
4042.464000873102
 20
1681.394265091088
 30
0.0
 10
4042.464552701426
 20
1681.394285077437
 30
0.0
 10
4042.46508283682
 20
1681.394147520227
 30
0.0
 10
4042.465628191498
 20
1681.393867821408
 30
0.0
 10
4042.46654553832
 20
1681.393105907189
 30
0.0
 10
4042.46793652947
 20
1681.391095118386
 30
0.0
 10
4042.469424422624
 20
1681.387997240036
 30
0.0
 10
4042.471240711712
 20
1681.382672120529
 30
0.0
 10
4042.47322298817
 20
1681.375792814886
 30
0.0
 10
4042.474834892965
 20
1681.367257620775
 30
0.0
 10
4042.475090423259
 20
1681.361308583078
 30
0.0
 10
4042.475218032471
 20
1681.358337694589
 30
0.0
  0
SPLINE
  5
15FE
330
1F
100
AcDbEntity
  8
SANINDUSA
100
AcDbSpline
210
0.0
220
0.0
230
1.0
 70
     8
 71
     3
 72
    17
 73
    13
 74
     0
 42
0.0000000001
 43
0.0000000001
 40
0.0
 40
0.0
 40
0.0
 40
0.0
 40
0.0951717808593384
 40
0.190231159278968
 40
0.2951938361504284
 40
0.4001914077717196
 40
0.5021825034925446
 40
0.6041689251056961
 40
0.7032447410127344
 40
0.8022196515538261
 40
0.901080077523675
 40
1.0
 40
1.0
 40
1.0
 40
1.0
 10
4042.377622346378
 20
1681.287239586745
 30
0.0
 10
4042.377604371256
 20
1681.285264365012
 30
0.0
 10
4042.37756844224
 20
1681.281316254377
 30
0.0
 10
4042.378611112282
 20
1681.27505868833
 30
0.0
 10
4042.380700513134
 20
1681.268752245899
 30
0.0
 10
4042.383889489804
 20
1681.262720136324
 30
0.0
 10
4042.388017510859
 20
1681.257363073665
 30
0.0
 10
4042.39287751598
 20
1681.252833549276
 30
0.0
 10
4042.398355876708
 20
1681.249204803598
 30
0.0
 10
4042.4043050089
 20
1681.246552186809
 30
0.0
 10
4042.410656672156
 20
1681.244928258988
 30
0.0
 10
4042.414977674206
 20
1681.244775255698
 30
0.0
 10
4042.417138825155
 20
1681.244698731039
 30
0.0
  0
SPLINE
  5
1600
330
1F
100
AcDbEntity
  8
SANINDUSA
100
AcDbSpline
210
0.0
220
0.0
230
1.0
 70
     8
 71
     3
 72
    17
 73
    13
 74
     0
 42
0.0000000001
 43
0.0000000001
 40
0.0
 40
0.0
 40
0.0
 40
0.0
 40
0.0951717835323441
 40
0.1902311687956103
 40
0.2951938483067451
 40
0.4001914225685884
 40
0.5021824864237573
 40
0.6041689002614524
 40
0.703244807014361
 40
0.8022196747820464
 40
0.9010801032381062
 40
1.0
 40
1.0
 40
1.0
 40
1.0
 10
4042.477827006004
 20
1681.287239586745
 30
0.0
 10
4042.477844980939
 20
1681.285264364979
 30
0.0
 10
4042.477880909581
 20
1681.281316254192
 30
0.0
 10
4042.476838236631
 20
1681.275058688567
 30
0.0
 10
4042.474748836843
 20
1681.268752245728
 30
0.0
 10
4042.471559859335
 20
1681.262720137511
 30
0.0
 10
4042.467431842573
 20
1681.257363073146
 30
0.0
 10
4042.462571837392
 20
1681.252833546604
 30
0.0
 10
4042.457093472152
 20
1681.249204806577
 30
0.0
 10
4042.451144341089
 20
1681.246552185742
 30
0.0
 10
4042.444792678856
 20
1681.244928259348
 30
0.0
 10
4042.440471677514
 20
1681.24477525581
 30
0.0
 10
4042.438310527227
 20
1681.244698731039
 30
0.0
  0
SPLINE
  5
1602
330
1F
100
AcDbEntity
  8
SANINDUSA
100
AcDbSpline
210
0.0
220
0.0
230
1.0
 70
    24
 71
     1
 72
     4
 73
     2
 74
     0
 42
0.0000000001
 43
0.0000000001
 40
0.0
 40
0.0
 40
1.0
 40
1.0
 10
4042.417138825155
 20
1681.244698731039
 30
0.0
 10
4042.427724677122
 20
1681.244732318256
 30
0.0
  0
SPLINE
  5
1603
330
1F
100
AcDbEntity
  8
SANINDUSA
100
AcDbSpline
210
0.0
220
0.0
230
1.0
 70
    24
 71
     1
 72
     4
 73
     2
 74
     0
 42
0.0000000001
 43
0.0000000001
 40
0.0
 40
0.0
 40
1.0
 40
1.0
 10
4042.438310527227
 20
1681.244698731039
 30
0.0
 10
4042.427724677122
 20
1681.244732318256
 30
0.0
  0
SPLINE
  5
1604
330
1F
100
AcDbEntity
  8
SANINDUSA
100
AcDbSpline
210
0.0
220
0.0
230
1.0
 70
     8
 71
     3
 72
    16
 73
    12
 74
     0
 42
0.0000000001
 43
0.0000000001
 40
0.0
 40
0.0
 40
0.0
 40
0.0
 40
0.0682416239338406
 40
0.1851819226452008
 40
0.3022152177393029
 40
0.4191619127303802
 40
0.5423377592208672
 40
0.6656111899528953
 40
0.788793624661254
 40
0.8943963386950015
 40
1.0
 40
1.0
 40
1.0
 40
1.0
 10
4042.47222281339
 20
1681.327342865799
 30
0.0
 10
4042.472316071557
 20
1681.327442232589
 30
0.0
 10
4042.472569138904
 20
1681.327711876427
 30
0.0
 10
4042.472957871239
 20
1681.328813585171
 30
0.0
 10
4042.47338007453
 20
1681.33083770522
 30
0.0
 10
4042.473777291583
 20
1681.333693372801
 30
0.0
 10
4042.474147177748
 20
1681.337397223088
 30
0.0
 10
4042.474487524201
 20
1681.341962614045
 30
0.0
 10
4042.474776318857
 20
1681.347060343657
 30
0.0
 10
4042.475021268669
 20
1681.352500209662
 30
0.0
 10
4042.475152444342
 20
1681.356391860462
 30
0.0
 10
4042.475218032471
 20
1681.358337694589
 30
0.0
  0
SPLINE
  5
1605
330
1F
100
AcDbEntity
  8
SANINDUSA
100
AcDbSpline
210
0.0
220
0.0
230
1.0
 70
     8
 71
     3
 72
    16
 73
    12
 74
     0
 42
0.0000000001
 43
0.0000000001
 40
0.0
 40
0.0
 40
0.0
 40
0.0
 40
0.1026770604511608
 40
0.2053561210429443
 40
0.3174767702959864
 40
0.429593920694405
 40
0.5418087945193957
 40
0.6540089352463382
 40
0.764358992827831
 40
0.8746950229729854
 40
1.0
 40
1.0
 40
1.0
 40
1.0
 10
4042.456165189839
 20
1681.34272220153
 30
0.0
 10
4042.457005266114
 20
1681.342683684983
 30
0.0
 10
4042.458685435029
 20
1681.34260665114
 30
0.0
 10
4042.461217325523
 20
1681.341985450043
 30
0.0
 10
4042.463687154694
 20
1681.340954886767
 30
0.0
 10
4042.466016047812
 20
1681.339478390547
 30
0.0
 10
4042.468055252959
 20
1681.337619915408
 30
0.0
 10
4042.469750443593
 20
1681.335451492868
 30
0.0
 10
4042.471026754685
 20
1681.333027165018
 30
0.0
 10
4042.47195159673
 20
1681.330314171284
 30
0.0
 10
4042.472128658588
 20
1681.328374375725
 30
0.0
 10
4042.47222281339
 20
1681.327342865799
 30
0.0
  0
SPLINE
  5
1607
330
1F
100
AcDbEntity
  8
SANINDUSA
100
AcDbSpline
210
0.0
220
0.0
230
1.0
 70
     8
 71
     3
 72
    16
 73
    12
 74
     0
 42
0.0000000001
 43
0.0000000001
 40
0.0
 40
0.0
 40
0.0
 40
0.0
 40
0.1026770219386559
 40
0.2053560772058983
 40
0.3174766680286333
 40
0.4295937783746621
 40
0.5418086366782127
 40
0.6540088193662937
 40
0.764359009886549
 40
0.8746950117542359
 40
1.0
 40
1.0
 40
1.0
 40
1.0
 10
4042.399284156955
 20
1681.34272220153
 30
0.0
 10
4042.398444081153
 20
1681.342683684954
 30
0.0
 10
4042.396763912912
 20
1681.342606651037
 30
0.0
 10
4042.394232023625
 20
1681.341985450291
 30
0.0
 10
4042.391762196021
 20
1681.340954886639
 30
0.0
 10
4042.389433304718
 20
1681.339478390361
 30
0.0
 10
4042.387394100307
 20
1681.337619915029
 30
0.0
 10
4042.385698910629
 20
1681.335451491433
 30
0.0
 10
4042.38442258989
 20
1681.333027167463
 30
0.0
 10
4042.38349775511
 20
1681.33031417037
 30
0.0
 10
4042.383320693615
 20
1681.328374375517
 30
0.0
 10
4042.383226538992
 20
1681.327342865799
 30
0.0
  0
SPLINE
  5
1608
330
1F
100
AcDbEntity
  8
SANINDUSA
100
AcDbSpline
210
0.0
220
0.0
230
1.0
 70
     8
 71
     3
 72
    16
 73
    12
 74
     0
 42
0.0000000001
 43
0.0000000001
 40
0.0
 40
0.0
 40
0.0
 40
0.0
 40
0.0682416246559185
 40
0.1851819235358311
 40
0.3022152172004469
 40
0.4191619129538904
 40
0.5423377586012516
 40
0.6656111894284417
 40
0.7887936243678202
 40
0.8943963388819248
 40
1.0
 40
1.0
 40
1.0
 40
1.0
 10
4042.383226538992
 20
1681.327342865799
 30
0.0
 10
4042.383133279844
 20
1681.327442232589
 30
0.0
 10
4042.382880209834
 20
1681.327711876425
 30
0.0
 10
4042.38249147497
 20
1681.328813585152
 30
0.0
 10
4042.382069283449
 20
1681.330837705253
 30
0.0
 10
4042.381672055563
 20
1681.333693372768
 30
0.0
 10
4042.381302178704
 20
1681.337397223112
 30
0.0
 10
4042.380961828474
 20
1681.341962614043
 30
0.0
 10
4042.38067303387
 20
1681.347060343669
 30
0.0
 10
4042.380428077658
 20
1681.352500209641
 30
0.0
 10
4042.38029690354
 20
1681.356391860459
 30
0.0
 10
4042.380231316186
 20
1681.358337694589
 30
0.0
  0
SPLINE
  5
160A
330
1F
100
AcDbEntity
  8
SANINDUSA
100
AcDbSpline
210
0.0
220
0.0
230
1.0
 70
     8
 71
     3
 72
    13
 73
     9
 74
     0
 42
0.0000000001
 43
0.0000000001
 40
0.0
 40
0.0
 40
0.0
 40
0.0
 40
0.0000016156438018
 40
0.1399993879348061
 40
0.3174922594019617
 40
0.4950652206242543
 40
0.7474560920364196
 40
1.0
 40
1.0
 40
1.0
 40
1.0
 10
4042.427724677122
 20
1681.395081481241
 30
0.0
 10
4042.427724696991
 20
1681.395081481241
 30
0.0
 10
4042.429446325189
 20
1681.395081481318
 30
0.0
 10
4042.433351213623
 20
1681.39503590229
 30
0.0
 10
4042.439398399976
 20
1681.394822011752
 30
0.0
 10
4042.446718753125
 20
1681.394496760258
 30
0.0
 10
4042.454804773049
 20
1681.39420819834
 30
0.0
 10
4042.460613677632
 20
1681.394130252575
 30
0.0
 10
4042.463519010211
 20
1681.39409126788
 30
0.0
  0
SPLINE
  5
160B
330
1F
100
AcDbEntity
  8
SANINDUSA
100
AcDbSpline
210
0.0
220
0.0
230
1.0
 70
     8
 71
     3
 72
    13
 73
     9
 74
     0
 42
0.0000000001
 43
0.0000000001
 40
0.0
 40
0.0
 40
0.0
 40
0.0
 40
0.0000017166212245
 40
0.1399994127895893
 40
0.317492301801817
 40
0.4950652304519391
 40
0.7474560434255221
 40
1.0
 40
1.0
 40
1.0
 40
1.0
 10
4042.427724677122
 20
1681.395081481241
 30
0.0
 10
4042.427724656013
 20
1681.395081481241
 30
0.0
 10
4042.426003027194
 20
1681.395081481323
 30
0.0
 10
4042.422098137536
 20
1681.395035902236
 30
0.0
 10
4042.416050951145
 20
1681.394822011799
 30
0.0
 10
4042.408730597514
 20
1681.39449676026
 30
0.0
 10
4042.400644576809
 20
1681.394208198286
 30
0.0
 10
4042.394835670903
 20
1681.394130252562
 30
0.0
 10
4042.391930337049
 20
1681.39409126788
 30
0.0
  0
SPLINE
  5
160C
330
1F
100
AcDbEntity
  8
SANINDUSA
100
AcDbSpline
210
0.0
220
0.0
230
1.0
 70
    24
 71
     3
 72
    10
 73
     6
 74
     0
 42
0.0000000001
 43
0.0000000001
 40
0.0
 40
0.0
 40
0.0
 40
0.0
 40
0.5755914396758634
 40
0.7923462430002691
 40
1.0
 40
1.0
 40
1.0
 40
1.0
 10
4042.427724677122
 20
1681.34272220153
 30
0.0
 10
4042.422258067235
 20
1681.34272220153
 30
0.0
 10
4042.414732854892
 20
1681.34272220153
 30
0.0
 10
4042.405257391008
 20
1681.34272220153
 30
0.0
 10
4042.4012465655
 20
1681.34272220153
 30
0.0
 10
4042.399284156955
 20
1681.34272220153
 30
0.0
  0
SPLINE
  5
160D
330
1F
100
AcDbEntity
  8
SANINDUSA
100
AcDbSpline
210
0.0
220
0.0
230
1.0
 70
    24
 71
     3
 72
    10
 73
     6
 74
     0
 42
0.0000000001
 43
0.0000000001
 40
0.0
 40
0.0
 40
0.0
 40
0.0
 40
0.5755915241995045
 40
0.792346253881483
 40
0.9999999999999998
 40
0.9999999999999998
 40
0.9999999999999998
 40
0.9999999999999998
 10
4042.427724677122
 20
1681.34272220153
 30
0.0
 10
4042.433191286399
 20
1681.34272220153
 30
0.0
 10
4042.4407164969
 20
1681.34272220153
 30
0.0
 10
4042.450191958262
 20
1681.34272220153
 30
0.0
 10
4042.454202781914
 20
1681.34272220153
 30
0.0
 10
4042.456165189839
 20
1681.34272220153
 30
0.0
  0
LINE
  5
1624
330
1F
100
AcDbEntity
  8
SANINDUSA
100
AcDbLine
 10
4044.209799572959
 20
1681.780080164908
 30
0.0
 11
4044.219126328959
 21
1681.780080164908
 31
0.0
  0
LINE
  5
1625
330
1F
100
AcDbEntity
  8
SANINDUSA
100
AcDbLine
 10
4044.223949387802
 20
1681.798080111979
 30
0.0
 11
4044.219126328959
 21
1681.780080164908
 31
0.0
  0
LINE
  5
1626
330
1F
100
AcDbEntity
  8
SANINDUSA
100
AcDbLine
 10
4044.223949387802
 20
1681.798080111979
 30
0.0
 11
4044.209799572959
 21
1681.798080111979
 31
0.0
  0
LINE
  5
1627
330
1F
100
AcDbEntity
  8
SANINDUSA
100
AcDbLine
 10
4044.209799572959
 20
1681.798080111979
 30
0.0
 11
4044.209799572959
 21
1681.780080164908
 31
0.0
  0
ARC
  5
1628
330
1F
100
AcDbEntity
  8
SANINDUSA
100
AcDbCircle
 10
4044.199799586456
 20
1681.772080136389
 30
0.0
 40
0.0019999999999999
100
AcDbArc
 50
180.0
 51
270.0
  0
LINE
  5
1629
330
1F
100
AcDbEntity
  8
SANINDUSA
100
AcDbLine
 10
4044.197799578443
 20
1681.805080141066
 30
0.0
 11
4044.197799578443
 21
1681.772080148695
 31
0.0
  0
ARC
  5
162A
330
1F
100
AcDbEntity
  8
SANINDUSA
100
AcDbCircle
 10
4044.202799586456
 20
1681.805080136389
 30
0.0
 40
0.005
100
AcDbArc
 50
90.0
 51
180.0
  0
LINE
  5
162B
330
1F
100
AcDbEntity
  8
SANINDUSA
100
AcDbLine
 10
4044.241799578204
 20
1681.810080136298
 30
0.0
 11
4044.202799573674
 21
1681.810080136298
 31
0.0
  0
ARC
  5
162C
330
1F
100
AcDbEntity
  8
SANINDUSA
100
AcDbCircle
 10
4044.241799586456
 20
1681.809080136389
 30
0.0
 40
0.0010000000000002
100
AcDbArc
 50
0.0
 51
90.0
  0
LINE
  5
162D
330
1F
100
AcDbEntity
  8
SANINDUSA
100
AcDbLine
 10
4044.242799595131
 20
1681.799080158709
 30
0.0
 11
4044.242799595131
 21
1681.809080149172
 31
0.0
  0
ARC
  5
162E
330
1F
100
AcDbEntity
  8
SANINDUSA
100
AcDbCircle
 10
4044.241799586456
 20
1681.799080136389
 30
0.0
 40
0.0010000000000002
100
AcDbArc
 50
270.0
 51
0.0
  0
LINE
  5
162F
330
1F
100
AcDbEntity
  8
SANINDUSA
100
AcDbLine
 10
4044.241799578204
 20
1681.798080111979
 30
0.0
 11
4044.238138809933
 21
1681.798080111979
 31
0.0
  0
ARC
  5
1630
330
1F
100
AcDbEntity
  8
SANINDUSA
100
AcDbCircle
 10
4044.238138798784
 20
1681.793080136389
 30
0.0
 40
0.0050000000000002
100
AcDbArc
 50
90.0
 51
165.0000000030343
  0
LINE
  5
1631
330
1F
100
AcDbEntity
  8
SANINDUSA
100
AcDbLine
 10
4044.233309164776
 20
1681.794374252795
 30
0.0
 11
4044.2266608925
 21
1681.769562508105
 31
0.0
  0
ARC
  5
1632
330
1F
100
AcDbEntity
  8
SANINDUSA
100
AcDbCircle
 10
4044.224729034096
 20
1681.770080136389
 30
0.0
 40
0.0020000000000002
100
AcDbArc
 50
270.0
 51
345.0000000030343
  0
LINE
  5
1633
330
1F
100
AcDbEntity
  8
SANINDUSA
100
AcDbLine
 10
4044.224729046359
 20
1681.768080140589
 30
0.0
 11
4044.218263700737
 21
1681.768080140589
 31
0.0
  0
ARC
  5
1634
330
1F
100
AcDbEntity
  8
SANINDUSA
100
AcDbCircle
 10
4044.218263688072
 20
1681.770080136389
 30
0.0
 40
0.0019999999999999
100
AcDbArc
 50
210.0000000027197
 51
270.0
  0
ARC
  5
1635
330
1F
100
AcDbEntity
  8
SANINDUSA
100
AcDbCircle
 10
4044.214799586455
 20
1681.768080136389
 30
0.0
 40
0.0019999999999999
100
AcDbArc
 50
30.00000000271977
 51
90.0
  0
LINE
  5
1636
330
1F
100
AcDbEntity
  8
SANINDUSA
100
AcDbLine
 10
4044.214799597993
 20
1681.77008011484
 30
0.0
 11
4044.199799582496
 21
1681.77008011484
 31
0.0
  0
ARC
  5
1637
330
1F
100
AcDbEntity
  8
SANINDUSA
100
AcDbCircle
 10
4044.293799586456
 20
1681.809080136389
 30
0.0
 40
0.0009999999999999
100
AcDbArc
 50
90.0
 51
180.0
  0
LINE
  5
1639
330
1F
100
AcDbEntity
  8
SANINDUSA
100
AcDbLine
 10
4044.241799578204
 20
1681.810080136298
 30
0.0
 11
4044.293799579277
 21
1681.810080136298
 31
0.0
  0
LINE
  5
163B
330
1F
100
AcDbEntity
  8
SANINDUSA
100
AcDbLine
 10
4044.292799592152
 20
1681.809080149172
 30
0.0
 11
4044.292799592152
 21
1681.799080158709
 31
0.0
  0
ARC
  5
163C
330
1F
100
AcDbEntity
  8
SANINDUSA
100
AcDbCircle
 10
4044.293799586456
 20
1681.799080136389
 30
0.0
 40
0.0010000000000002
100
AcDbArc
 50
180.0
 51
270.0
  0
LINE
  5
163D
330
1F
100
AcDbEntity
  8
SANINDUSA
100
AcDbLine
 10
4044.293799579277
 20
1681.798080111979
 30
0.0
 11
4044.241799578204
 21
1681.798080111979
 31
0.0
  0
ARC
  5
163E
330
1F
100
AcDbEntity
  8
SANINDUSA
100
AcDbCircle
 10
4044.315126143884
 20
1681.780080136389
 30
0.0
 40
0.0180000000000001
100
AcDbArc
 50
0.0
 51
58.56268220601556
  0
LINE
  5
163F
330
1F
100
AcDbEntity
  8
SANINDUSA
100
AcDbLine
 10
4044.328629434242
 20
1681.780080164908
 30
0.0
 11
4044.324514314665
 21
1681.795437957285
 31
0.0
  0
LINE
  5
1640
330
1F
100
AcDbEntity
  8
SANINDUSA
100
AcDbLine
 10
4044.328629434242
 20
1681.780080164908
 30
0.0
 11
4044.333126142754
 21
1681.780080164908
 31
0.0
  0
ARC
  5
1641
330
1F
100
AcDbEntity
  8
SANINDUSA
100
AcDbCircle
 10
4044.332956163077
 20
1681.768080136389
 30
0.0
 40
0.0020000000000001
100
AcDbArc
 50
90.0
 51
149.9999999972802
  0
ARC
  5
1642
330
1F
100
AcDbEntity
  8
SANINDUSA
100
AcDbCircle
 10
4044.329492061462
 20
1681.770080136389
 30
0.0
 40
0.0019999999999999
100
AcDbArc
 50
270.0
 51
329.9999999972802
  0
ARC
  5
1643
330
1F
100
AcDbEntity
  8
SANINDUSA
100
AcDbCircle
 10
4044.323026715438
 20
1681.770080136389
 30
0.0
 40
0.0019999999999999
100
AcDbArc
 50
194.9999999969657
 51
270.0
  0
LINE
  5
1644
330
1F
100
AcDbEntity
  8
SANINDUSA
100
AcDbLine
 10
4044.3210948707
 20
1681.769562508105
 30
0.0
 11
4044.314446583523
 21
1681.794374252795
 31
0.0
  0
ARC
  5
1645
330
1F
100
AcDbEntity
  8
SANINDUSA
100
AcDbCircle
 10
4044.309616950749
 20
1681.793080136389
 30
0.0
 40
0.005
100
AcDbArc
 50
14.99999999696573
 51
90.0
  0
ARC
  5
1646
330
1F
100
AcDbEntity
  8
SANINDUSA
100
AcDbCircle
 10
4044.315126143884
 20
1681.780080136389
 30
0.0
 40
0.0300000000000001
100
AcDbArc
 50
359.0000000033055
 51
90.0
  0
LINE
  5
1647
330
1F
100
AcDbEntity
  8
SANINDUSA
100
AcDbLine
 10
4044.344990462198
 20
1681.772045220373
 30
0.0
 11
4044.345121577515
 21
1681.779556538104
 31
0.0
  0
ARC
  5
1648
330
1F
100
AcDbEntity
  8
SANINDUSA
100
AcDbCircle
 10
4044.342990768551
 20
1681.772080136389
 30
0.0
 40
0.0020000000000001
100
AcDbArc
 50
270.0
 51
359.0000000033055
  0
LINE
  5
1649
330
1F
100
AcDbEntity
  8
SANINDUSA
100
AcDbLine
 10
4044.309616953268
 20
1681.798080111979
 30
0.0
 11
4044.293799579277
 21
1681.798080111979
 31
0.0
  0
LINE
  5
164A
330
1F
100
AcDbEntity
  8
SANINDUSA
100
AcDbLine
 10
4044.329492062463
 20
1681.768080140589
 30
0.0
 11
4044.323026716842
 21
1681.768080140589
 31
0.0
  0
LINE
  5
164B
330
1F
100
AcDbEntity
  8
SANINDUSA
100
AcDbLine
 10
4044.315126150979
 20
1681.810080136298
 30
0.0
 11
4044.293799579277
 21
1681.810080136298
 31
0.0
  0
LINE
  5
164C
330
1F
100
AcDbEntity
  8
SANINDUSA
100
AcDbLine
 10
4044.342990771069
 20
1681.77008011484
 30
0.0
 11
4044.332956165209
 21
1681.77008011484
 31
0.0
  0
SPLINE
  5
165A
330
1F
100
AcDbEntity
  8
SANINDUSA
100
AcDbSpline
210
0.0
220
0.0
230
1.0
 70
    24
 71
     3
 72
    11
 73
     7
 74
     0
 42
0.0000000001
 43
0.0000000001
 40
0.0
 40
0.0
 40
0.0
 40
0.0
 40
0.1647238090882321
 40
0.4401177338810915
 40
0.7201810952118898
 40
1.0
 40
1.0
 40
1.0
 40
1.0
 10
4044.323026716842
 20
1681.768080140589
 30
0.0
 10
4044.323001146827
 20
1681.768080140589
 30
0.0
 10
4044.322932827518
 20
1681.768080140589
 30
0.0
 10
4044.322200643897
 20
1681.768080140589
 30
0.0
 10
4044.320731415347
 20
1681.768080140589
 30
0.0
 10
4044.319355868527
 20
1681.768080140589
 30
0.0
 10
4044.318668395414
 20
1681.768080140589
 30
0.0
  0
LINE
  5
1664
330
1F
100
AcDbEntity
  8
SANINDUSA
100
AcDbLine
 10
4044.228689566387
 20
1681.768080140589
 30
0.0
 11
4044.224729046359
 21
1681.768080140589
 31
0.0
  0
LINE
  5
1666
330
1F
100
AcDbEntity
  8
SANINDUSA
100
AcDbLine
 10
4044.318668395414
 20
1681.768080140589
 30
0.0
 11
4044.31406618668
 21
1681.768080140589
 31
0.0
  0
SPLINE
  5
166D
330
1F
100
AcDbEntity
  8
SANINDUSA
100
AcDbSpline
210
0.0
220
0.0
230
1.0
 70
    24
 71
     3
 72
    11
 73
     7
 74
     0
 42
0.0000000001
 43
0.0000000001
 40
0.0
 40
0.0
 40
0.0
 40
0.0
 40
0.1647246786535601
 40
0.4401176769612255
 40
0.7201803760186
 40
1.0
 40
1.0
 40
1.0
 40
1.0
 10
4044.235009566082
 20
1681.768080140589
 30
0.0
 10
4044.234562033258
 20
1681.768080140589
 30
0.0
 10
4044.233366297993
 20
1681.768080140589
 30
0.0
 10
4044.231511024537
 20
1681.768080140589
 30
0.0
 10
4044.229707460861
 20
1681.768080140589
 30
0.0
 10
4044.229028766326
 20
1681.768080140589
 30
0.0
 10
4044.228689566387
 20
1681.768080140589
 30
0.0
  0
SPLINE
  5
166F
330
1F
100
AcDbEntity
  8
SANINDUSA
100
AcDbSpline
210
0.0
220
0.0
230
1.0
 70
    24
 71
     3
 72
    11
 73
     7
 74
     0
 42
0.0000000001
 43
0.0000000001
 40
0.0
 40
0.0
 40
0.0
 40
0.0
 40
0.1646583220610785
 40
0.4400833485773875
 40
0.7201615702818625
 40
1.0
 40
1.0
 40
1.0
 40
1.0
 10
4044.31406618668
 20
1681.768080140589
 30
0.0
 10
4044.313883315187
 20
1681.768080140589
 30
0.0
 10
4044.313394553383
 20
1681.768080140589
 30
0.0
 10
4044.312050900798
 20
1681.768080140589
 30
0.0
 10
4044.310036402012
 20
1681.768080140589
 30
0.0
 10
4044.308509364069
 20
1681.768080140589
 30
0.0
 10
4044.307746172084
 20
1681.768080140589
 30
0.0
  0
LINE
  5
1670
330
1F
100
AcDbEntity
  8
SANINDUSA
100
AcDbLine
 10
4044.307746172084
 20
1681.768080140589
 30
0.0
 11
4044.235009566082
 21
1681.768080140589
 31
0.0
  0
LINE
  5
1671
330
1F
100
AcDbEntity
  8
SANINDUSA
100
AcDbLine
 10
4044.236799582971
 20
1681.361080135344
 30
0.0
 11
4044.236799582971
 21
1681.37308012986
 31
0.0
  0
LINE
  5
1672
330
1F
100
AcDbEntity
  8
SANINDUSA
100
AcDbLine
 10
4044.236799582971
 20
1681.361080135344
 30
0.0
 11
4044.204799577727
 21
1681.361080135344
 31
0.0
  0
ARC
  5
1673
330
1F
100
AcDbEntity
  8
SANINDUSA
100
AcDbCircle
 10
4044.204799586456
 20
1681.363080136389
 30
0.0
 40
0.0020000000000002
100
AcDbArc
 50
180.0
 51
270.0
  0
LINE
  5
1674
330
1F
100
AcDbEntity
  8
SANINDUSA
100
AcDbLine
 10
4044.202799573674
 20
1681.363080139397
 30
0.0
 11
4044.202799573674
 21
1681.766080106734
 31
0.0
  0
ARC
  5
1675
330
1F
100
AcDbEntity
  8
SANINDUSA
100
AcDbCircle
 10
4044.204799586456
 20
1681.766080136389
 30
0.0
 40
0.0020000000000002
100
AcDbArc
 50
90.0
 51
180.0
  0
LINE
  5
1676
330
1F
100
AcDbEntity
  8
SANINDUSA
100
AcDbLine
 10
4044.204799577727
 20
1681.768080140589
 30
0.0
 11
4044.20679958178
 21
1681.768080140589
 31
0.0
  0
ARC
  5
1677
330
1F
100
AcDbEntity
  8
SANINDUSA
100
AcDbCircle
 10
4044.206799586456
 20
1681.770080136389
 30
0.0
 40
0.0019999999999999
100
AcDbArc
 50
270.0
 51
329.9999999972802
  0
ARC
  5
1678
330
1F
100
AcDbEntity
  8
SANINDUSA
100
AcDbCircle
 10
4044.210263688071
 20
1681.768080136389
 30
0.0
 40
0.0020000000000001
100
AcDbArc
 50
90.0
 51
149.9999999972802
  0
LINE
  5
1679
330
1F
100
AcDbEntity
  8
SANINDUSA
100
AcDbLine
 10
4044.210263684525
 20
1681.77008011484
 30
0.0
 11
4044.212799593939
 21
1681.77008011484
 31
0.0
  0
ARC
  5
167A
330
1F
100
AcDbEntity
  8
SANINDUSA
100
AcDbCircle
 10
4044.212799586456
 20
1681.768080136389
 30
0.0
 40
0.0020000000000002
100
AcDbArc
 50
0.0
 51
90.0
  0
LINE
  5
167B
330
1F
100
AcDbEntity
  8
SANINDUSA
100
AcDbLine
 10
4044.214799597993
 20
1681.37308012986
 30
0.0
 11
4044.214799597993
 21
1681.768080140589
 31
0.0
  0
LINE
  5
167C
330
1F
100
AcDbEntity
  8
SANINDUSA
100
AcDbLine
 10
4044.236799582971
 20
1681.37308012986
 30
0.0
 11
4044.214799597993
 21
1681.37308012986
 31
0.0
  0
LINE
  5
167D
330
1F
100
AcDbEntity
  8
SANINDUSA
100
AcDbLine
 10
4044.298799589409
 20
1681.37308012986
 30
0.0
 11
4044.298799589409
 21
1681.361080135344
 31
0.0
  0
LINE
  5
167E
330
1F
100
AcDbEntity
  8
SANINDUSA
100
AcDbLine
 10
4044.236799582971
 20
1681.37308012986
 30
0.0
 11
4044.298799589409
 21
1681.37308012986
 31
0.0
  0
LINE
  5
167F
330
1F
100
AcDbEntity
  8
SANINDUSA
100
AcDbLine
 10
4044.236799582971
 20
1681.361080135344
 30
0.0
 11
4044.298799589409
 21
1681.361080135344
 31
0.0
  0
ARC
  5
1680
330
1F
100
AcDbEntity
  8
SANINDUSA
100
AcDbCircle
 10
4044.334902274601
 20
1681.768080136389
 30
0.0
 40
0.0019999999999999
100
AcDbArc
 50
90.0
 51
179.0000000033055
  0
ARC
  5
1681
330
1F
100
AcDbEntity
  8
SANINDUSA
100
AcDbCircle
 10
4044.337474606396
 20
1681.768080136389
 30
0.0
 40
0.0019999999999999
100
AcDbArc
 50
30.00000000271977
 51
90.0
  0
ARC
  5
1682
330
1F
100
AcDbEntity
  8
SANINDUSA
100
AcDbCircle
 10
4044.340938708011
 20
1681.770080136389
 30
0.0
 40
0.0020000000000001
100
AcDbArc
 50
210.0000000027197
 51
270.0
  0
ARC
  5
1683
330
1F
100
AcDbEntity
  8
SANINDUSA
100
AcDbCircle
 10
4044.342868583096
 20
1681.766080136389
 30
0.0
 40
0.0020000000000002
100
AcDbArc
 50
359.0000000033055
 51
90.0
  0
LINE
  5
1684
330
1F
100
AcDbEntity
  8
SANINDUSA
100
AcDbLine
 10
4044.337833881511
 20
1681.363045225976
 30
0.0
 11
4044.344868272676
 21
1681.766045238016
 31
0.0
  0
ARC
  5
1685
330
1F
100
AcDbEntity
  8
SANINDUSA
100
AcDbCircle
 10
4044.335834191929
 20
1681.363080136389
 30
0.0
 40
0.0020000000000002
100
AcDbArc
 50
270.0
 51
359.0000000033055
  0
LINE
  5
1686
330
1F
100
AcDbEntity
  8
SANINDUSA
100
AcDbLine
 10
4044.326007217302
 20
1681.37308012986
 30
0.0
 11
4044.332902580633
 21
1681.768115068911
 31
0.0
  0
LINE
  5
1687
330
1F
100
AcDbEntity
  8
SANINDUSA
100
AcDbLine
 10
4044.326007217302
 20
1681.37308012986
 30
0.0
 11
4044.298799589409
 21
1681.37308012986
 31
0.0
  0
LINE
  5
1688
330
1F
100
AcDbEntity
  8
SANINDUSA
100
AcDbLine
 10
4044.334902271762
 20
1681.77008011484
 30
0.0
 11
4044.337474599614
 21
1681.77008011484
 31
0.0
  0
LINE
  5
1689
330
1F
100
AcDbEntity
  8
SANINDUSA
100
AcDbLine
 10
4044.340938702359
 20
1681.768080140589
 30
0.0
 11
4044.342868581547
 21
1681.768080140589
 31
0.0
  0
LINE
  5
168A
330
1F
100
AcDbEntity
  8
SANINDUSA
100
AcDbLine
 10
4044.335834190382
 20
1681.361080135344
 30
0.0
 11
4044.298799589409
 21
1681.361080135344
 31
0.0
  0
ARC
  5
168F
330
1F
100
AcDbEntity
  8
SANINDUSA
100
AcDbCircle
 10
4044.199799586456
 20
1681.363080136389
 30
0.0
 40
0.0020000000000002
100
AcDbArc
 50
180.0
 51
270.0
  0
LINE
  5
1691
330
1F
100
AcDbEntity
  8
SANINDUSA
100
AcDbLine
 10
4044.197799578443
 20
1681.363080139397
 30
0.0
 11
4044.197799578443
 21
1681.766080106734
 31
0.0
  0
ARC
  5
1698
330
1F
100
AcDbEntity
  8
SANINDUSA
100
AcDbCircle
 10
4044.199799586456
 20
1681.766080136389
 30
0.0
 40
0.0020000000000002
100
AcDbArc
 50
90.0
 51
180.0
  0
LINE
  5
1699
330
1F
100
AcDbEntity
  8
SANINDUSA
100
AcDbLine
 10
4044.199799582496
 20
1681.768080140589
 30
0.0
 11
4044.201799586548
 21
1681.768080140589
 31
0.0
  0
ARC
  5
169A
330
1F
100
AcDbEntity
  8
SANINDUSA
100
AcDbCircle
 10
4044.201799586455
 20
1681.770080136389
 30
0.0
 40
0.0020000000000001
100
AcDbArc
 50
270.0
 51
329.9999999972802
  0
ARC
  5
169C
330
1F
100
AcDbEntity
  8
SANINDUSA
100
AcDbCircle
 10
4044.205263688072
 20
1681.768080136389
 30
0.0
 40
0.0020000000000001
100
AcDbArc
 50
90.0
 51
149.9999999972802
  0
SPLINE
  5
169D
330
1F
100
AcDbEntity
  8
SANINDUSA
100
AcDbSpline
210
0.0
220
0.0
230
1.0
 70
     8
 71
     3
 72
    12
 73
     8
 74
     0
 42
0.0000000001
 43
0.0000000001
 40
0.0
 40
0.0
 40
0.0
 40
0.0
 40
0.2470197295498338
 40
0.4369591813170063
 40
0.6269380717349895
 40
0.8134504304571279
 40
1.0
 40
1.0
 40
1.0
 40
1.0
 10
4044.798891201748
 20
1681.254440839527
 30
0.0
 10
4044.795798365174
 20
1681.229753613515
 30
0.0
 10
4044.790327371665
 20
1681.186083781607
 30
0.0
 10
4044.781134136028
 20
1681.123608487579
 30
0.0
 10
4044.772066216602
 20
1681.067282648376
 30
0.0
 10
4044.762293641614
 20
1681.011419297433
 30
0.0
 10
4044.755160401707
 20
1680.974527748487
 30
0.0
 10
4044.751593426003
 20
1680.956080134152
 30
0.0
  0
SPLINE
  5
169E
330
1F
100
AcDbEntity
  8
SANINDUSA
100
AcDbSpline
210
0.0
220
0.0
230
1.0
 70
    24
 71
     3
 72
    10
 73
     6
 74
     0
 42
0.0000000001
 43
0.0000000001
 40
0.0
 40
0.0
 40
0.0
 40
0.0
 40
0.3640964075853267
 40
0.8842524671842818
 40
0.9999999999999998
 40
0.9999999999999998
 40
0.9999999999999998
 40
0.9999999999999998
 10
4044.771261349453
 20
1681.315170521973
 30
0.0
 10
4044.775403286098
 20
1681.31480814993
 30
0.0
 10
4044.785462483662
 20
1681.313928085293
 30
0.0
 10
4044.796838418617
 20
1681.312932834067
 30
0.0
 10
4044.804072414986
 20
1681.312299932672
 30
0.0
 10
4044.80538915111
 20
1681.312184731601
 30
0.0
  0
SPLINE
  5
169F
330
1F
100
AcDbEntity
  8
SANINDUSA
100
AcDbSpline
210
0.0
220
0.0
230
1.0
 70
     8
 71
     3
 72
     9
 73
     5
 74
     0
 42
0.0000000001
 43
0.0000000001
 40
0.0
 40
0.0
 40
0.0
 40
0.0
 40
0.5553349664571734
 40
1.0
 40
1.0
 40
1.0
 40
1.0
 10
4044.80538915111
 20
1681.312184731601
 30
0.0
 10
4044.80604135765
 20
1681.318457177245
 30
0.0
 10
4044.807215795741
 20
1681.329752064155
 30
0.0
 10
4044.808316281989
 20
1681.341054386987
 30
0.0
 10
4044.808805629744
 20
1681.346080134748
 30
0.0
  0
LINE
  5
16A0
330
1F
100
AcDbEntity
  8
SANINDUSA
100
AcDbLine
 10
4044.808805629744
 20
1681.346080134748
 30
0.0
 11
4044.792292192711
 21
1681.346080134748
 31
0.0
  0
ARC
  5
16A1
330
1F
100
AcDbEntity
  8
SANINDUSA
100
AcDbCircle
 10
4044.792292203168
 20
1681.326080136389
 30
0.0
 40
0.02
100
AcDbArc
 50
90.0
 51
175.0000000037089
  0
LINE
  5
16A2
330
1F
100
AcDbEntity
  8
SANINDUSA
100
AcDbLine
 10
4044.772368297114
 20
1681.327823246954
 30
0.0
 11
4044.771261349453
 21
1681.315170521973
 31
0.0
  0
SPLINE
  5
16A3
330
1F
100
AcDbEntity
  8
SANINDUSA
100
AcDbSpline
210
0.0
220
0.0
230
1.0
 70
     8
 71
     3
 72
    17
 73
    13
 74
     0
 42
0.0000000001
 43
0.0000000001
 40
0.0
 40
0.0
 40
0.0
 40
0.0
 40
0.095121996806062
 40
0.190399686684837
 40
0.2936144607125328
 40
0.3974213768420781
 40
0.5005157204220549
 40
0.5992070058887382
 40
0.6977560452210187
 40
0.7961819980656026
 40
0.8945036230149348
 40
0.9999999999999998
 40
0.9999999999999998
 40
0.9999999999999998
 40
0.9999999999999998
 10
4044.798891201748
 20
1681.254440839527
 30
0.0
 10
4044.797311412205
 20
1681.251847954989
 30
0.0
 10
4044.794149247361
 20
1681.246657941951
 30
0.0
 10
4044.788449043664
 20
1681.239204232569
 30
0.0
 10
4044.781976507372
 20
1681.232042723622
 30
0.0
 10
4044.774699485868
 20
1681.225313970609
 30
0.0
 10
4044.766899505368
 20
1681.219450732368
 30
0.0
 10
4044.759032559565
 20
1681.21398241139
 30
0.0
 10
4044.751157301639
 20
1681.208788811506
 30
0.0
 10
4044.743149260501
 20
1681.203825963577
 30
0.0
 10
4044.734828532599
 20
1681.198950740497
 30
0.0
 10
4044.729104284215
 20
1681.195865997773
 30
0.0
 10
4044.726141408219
 20
1681.194269332229
 30
0.0
  0
LINE
  5
16A4
330
1F
100
AcDbEntity
  8
SANINDUSA
100
AcDbLine
 10
4044.734459161891
 20
1680.956080134152
 30
0.0
 11
4044.726141408219
 21
1681.194269332229
 31
0.0
  0
LINE
  5
16A5
330
1F
100
AcDbEntity
  8
SANINDUSA
100
AcDbLine
 10
4044.762406364216
 20
1681.328694815872
 30
0.0
 11
4044.760427847637
 21
1681.306080143093
 31
0.0
  0
ARC
  5
16A6
330
1F
100
AcDbEntity
  8
SANINDUSA
100
AcDbCircle
 10
4044.792292203168
 20
1681.326080136389
 30
0.0
 40
0.0300000000000001
100
AcDbArc
 50
90.0
 51
175.0000000037089
  0
LINE
  5
16A7
330
1F
100
AcDbEntity
  8
SANINDUSA
100
AcDbLine
 10
4044.811007365717
 20
1681.356080140112
 30
0.0
 11
4044.792292192711
 21
1681.356080140112
 31
0.0
  0
ARC
  5
16A8
330
1F
100
AcDbEntity
  8
SANINDUSA
100
AcDbCircle
 10
4044.811007380272
 20
1681.348080136389
 30
0.0
 40
0.0080000000000001
100
AcDbArc
 50
354.5176136277841
 51
90.0
  0
SPLINE
  5
16A9
330
1F
100
AcDbEntity
  8
SANINDUSA
100
AcDbSpline
210
0.0
220
0.0
230
1.0
 70
     8
 71
     3
 72
    15
 73
    11
 74
     0
 42
0.0000000001
 43
0.0000000001
 40
0.0
 40
0.0
 40
0.0
 40
0.0
 40
0.1220024635006682
 40
0.2440235767365872
 40
0.3757303308562244
 40
0.5074606633748266
 40
0.6305570535625793
 40
0.7536534467606803
 40
0.8768267045861774
 40
1.0
 40
1.0
 40
1.0
 40
1.0
 10
4044.818970784677
 20
1681.34731581354
 30
0.0
 10
4044.817335762012
 20
1681.330896123794
 30
0.0
 10
4044.814065466745
 20
1681.298054234328
 30
0.0
 10
4044.808238281623
 20
1681.247570423891
 30
0.0
 10
4044.801640192958
 20
1681.195855625414
 30
0.0
 10
4044.794316684449
 20
1681.14409128401
 30
0.0
 10
4044.78650833895
 20
1681.093576183348
 30
0.0
 10
4044.778247760068
 20
1681.044306546218
 30
0.0
 10
4044.769414321257
 20
1680.995124859568
 30
0.0
 10
4044.76300628547
 20
1680.962428383978
 30
0.0
 10
4044.759802267089
 20
1680.946080143689
 30
0.0
  0
LINE
  5
16AA
330
1F
100
AcDbEntity
  8
SANINDUSA
100
AcDbLine
 10
4044.759802267089
 20
1680.946080143689
 30
0.0
 11
4044.724802270665
 21
1680.946080143689
 31
0.0
  0
LINE
  5
16AB
330
1F
100
AcDbEntity
  8
SANINDUSA
100
AcDbLine
 10
4044.724802270665
 20
1680.946080143689
 30
0.0
 11
4044.716309785976
 21
1681.189273088364
 31
0.0
  0
SPLINE
  5
16AC
330
1F
100
AcDbEntity
  8
SANINDUSA
100
AcDbSpline
210
0.0
220
0.0
230
1.0
 70
     8
 71
     3
 72
     9
 73
     5
 74
     0
 42
0.0000000001
 43
0.0000000001
 40
0.0
 40
0.0
 40
0.0
 40
0.0
 40
0.5000418722371119
 40
1.0
 40
1.0
 40
1.0
 40
1.0
 10
4044.716309785976
 20
1681.189273088364
 30
0.0
 10
4044.71008655449
 20
1681.186346492626
 30
0.0
 10
4044.697641133756
 20
1681.180493791281
 30
0.0
 10
4044.684726702198
 20
1681.175765152319
 30
0.0
 10
4044.678270027175
 20
1681.173401030837
 30
0.0
  0
ARC
  5
16AD
330
1F
100
AcDbEntity
  8
SANINDUSA
100
AcDbCircle
 10
4044.684868174965
 20
1681.154520762263
 30
0.0
 40
0.0200000000000001
100
AcDbArc
 50
109.2631324099292
 51
172.0000000000825
  0
LINE
  5
16AE
330
1F
100
AcDbEntity
  8
SANINDUSA
100
AcDbLine
 10
4044.646988153591
 20
1681.028696376024
 30
0.0
 11
4044.665062815083
 21
1681.157304224683
 31
0.0
  0
ARC
  5
16AF
330
1F
100
AcDbEntity
  8
SANINDUSA
100
AcDbCircle
 10
4044.55885430078
 20
1681.041082779522
 30
0.0
 40
0.0890000000000002
100
AcDbArc
 50
269.6804982312201
 51
352.0000000000826
  0
LINE
  5
16B0
330
1F
100
AcDbEntity
  8
SANINDUSA
100
AcDbLine
 10
4044.558112076216
 20
1680.952085651463
 30
0.0
 11
4044.558358007512
 21
1680.95208416328
 31
0.0
  0
ARC
  5
16B1
330
1F
100
AcDbEntity
  8
SANINDUSA
100
AcDbCircle
 10
4044.558692878694
 20
1681.041083756321
 30
0.0
 40
0.0890000000000001
100
AcDbArc
 50
190.000000001223
 51
269.6260925085057
  0
LINE
  5
16B2
330
1F
100
AcDbEntity
  8
SANINDUSA
100
AcDbLine
 10
4044.4638561794
 20
1681.066398832141
 30
0.0
 11
4044.471044989435
 21
1681.02562906885
 31
0.0
  0
ARC
  5
16B3
330
1F
100
AcDbEntity
  8
SANINDUSA
100
AcDbCircle
 10
4044.453023294662
 20
1681.064488698813
 30
0.0
 40
0.011
100
AcDbArc
 50
10.00000000122301
 51
87.9999999962464
  0
LINE
  5
16B4
330
1F
100
AcDbEntity
  8
SANINDUSA
100
AcDbLine
 10
4044.453407190873
 20
1681.075481998859
 30
0.0
 11
4044.40748549266
 21
1681.077085617124
 31
0.0
  0
LINE
  5
16B5
330
1F
100
AcDbEntity
  8
SANINDUSA
100
AcDbLine
 10
4044.40748549266
 20
1681.077085617124
 30
0.0
 11
4044.407799586787
 21
1681.086080136834
 31
0.0
  0
LINE
  5
16B6
330
1F
100
AcDbEntity
  8
SANINDUSA
100
AcDbLine
 10
4044.453721284999
 20
1681.084476514845
 30
0.0
 11
4044.407799586787
 21
1681.086080136834
 31
0.0
  0
ARC
  5
16B7
330
1F
100
AcDbEntity
  8
SANINDUSA
100
AcDbCircle
 10
4044.453023294662
 20
1681.064488698813
 30
0.0
 40
0.02
100
AcDbArc
 50
10.00000000122301
 51
87.9999999962464
  0
LINE
  5
16B8
330
1F
100
AcDbEntity
  8
SANINDUSA
100
AcDbLine
 10
4044.472719449683
 20
1681.067961665927
 30
0.0
 11
4044.479908257856
 21
1681.027191902636
 31
0.0
  0
ARC
  5
16B9
330
1F
100
AcDbEntity
  8
SANINDUSA
100
AcDbCircle
 10
4044.558692878694
 20
1681.041083756321
 30
0.0
 40
0.0800000000000001
100
AcDbArc
 50
190.000000001223
 51
269.6260925085057
  0
LINE
  5
16BA
330
1F
100
AcDbEntity
  8
SANINDUSA
100
AcDbLine
 10
4044.55817080905
 20
1680.961085459819
 30
0.0
 11
4044.558408194472
 21
1680.96108402335
 31
0.0
  0
ARC
  5
16BB
330
1F
100
AcDbEntity
  8
SANINDUSA
100
AcDbCircle
 10
4044.55885430078
 20
1681.041082779522
 30
0.0
 40
0.0800000000000001
100
AcDbArc
 50
269.6804982312201
 51
352.0000000000826
  0
LINE
  5
16BC
330
1F
100
AcDbEntity
  8
SANINDUSA
100
AcDbLine
 10
4044.638075739278
 20
1681.029948930381
 30
0.0
 11
4044.656065628066
 21
1681.157953628464
 31
0.0
  0
ARC
  5
16BD
330
1F
100
AcDbEntity
  8
SANINDUSA
100
AcDbCircle
 10
4044.685773675317
 20
1681.153778435521
 30
0.0
 40
0.0300000000000002
100
AcDbArc
 50
109.3575738946195
 51
172.0000000000825
  0
SPLINE
  5
16BE
330
1F
100
AcDbEntity
  8
SANINDUSA
100
AcDbSpline
210
0.0
220
0.0
230
1.0
 70
     8
 71
     3
 72
    22
 73
    18
 74
     0
 42
0.0000000001
 43
0.0000000001
 40
0.0
 40
0.0
 40
0.0
 40
0.0
 40
0.0801788781384426
 40
0.1603559199817332
 40
0.2405684789941538
 40
0.3208544107213675
 40
0.4012523177697129
 40
0.4818021116980697
 40
0.5624512305488445
 40
0.6174500527061648
 40
0.67208579209287
 40
0.7265068839047943
 40
0.7808477110620409
 40
0.8352371486042621
 40
0.8898073318955439
 40
0.9447198757005789
 40
1.0
 40
1.0
 40
1.0
 40
1.0
 10
4044.675829798116
 20
1681.182082484601
 30
0.0
 10
4044.680480173985
 20
1681.183782437079
 30
0.0
 10
4044.689780819218
 20
1681.187182303102
 30
0.0
 10
4044.703434304588
 20
1681.193049446614
 30
0.0
 10
4044.716842265191
 20
1681.199465816436
 30
0.0
 10
4044.729961235705
 20
1681.206483911195
 30
0.0
 10
4044.742791746311
 20
1681.214062827394
 30
0.0
 10
4044.755250905721
 20
1681.22226273599
 30
0.0
 10
4044.766218738339
 20
1681.229906515445
 30
0.0
 10
4044.774995232521
 20
1681.237752516616
 30
0.0
 10
4044.781826019661
 20
1681.24525500693
 30
0.0
 10
4044.787843520775
 20
1681.253374238444
 30
0.0
 10
4044.793004949465
 20
1681.262044562885
 30
0.0
 10
4044.797275181257
 20
1681.271198236477
 30
0.0
 10
4044.8006041451
 20
1681.280768552459
 30
0.0
 10
4044.802991250372
 20
1681.290683330145
 30
0.0
 10
4044.803781865258
 20
1681.297445821758
 30
0.0
 10
4044.804178491368
 20
1681.300838346718
 30
0.0
  0
SPLINE
  5
16BF
330
1F
100
AcDbEntity
  8
SANINDUSA
100
AcDbSpline
210
0.0
220
0.0
230
1.0
 70
    24
 71
     1
 72
     4
 73
     2
 74
     0
 42
0.0000000001
 43
0.0000000001
 40
0.0
 40
0.0
 40
1.0
 40
1.0
 10
4044.804178491368
 20
1681.300838346718
 30
0.0
 10
4044.804329678549
 20
1681.302239219783
 30
0.0
  0
SPLINE
  5
16C0
330
1F
100
AcDbEntity
  8
SANINDUSA
100
AcDbSpline
210
0.0
220
0.0
230
1.0
 70
    24
 71
     3
 72
    11
 73
     7
 74
     0
 42
0.0000000001
 43
0.0000000001
 40
0.0
 40
0.0
 40
0.0
 40
0.0
 40
0.1049276574065283
 40
0.4846999551339639
 40
0.8644722823311328
 40
1.0
 40
1.0
 40
1.0
 40
1.0
 10
4044.760427847637
 20
1681.306080143093
 30
0.0
 10
4044.761963352631
 20
1681.30594579847
 30
0.0
 10
4044.769056422464
 20
1681.305325210588
 30
0.0
 10
4044.781707064766
 20
1681.304218461686
 30
0.0
 10
4044.794805502586
 20
1681.303072489128
 30
0.0
 10
4044.802346373741
 20
1681.302412738952
 30
0.0
 10
4044.804329678549
 20
1681.302239219783
 30
0.0
  0
LINE
  5
16C1
330
1F
100
AcDbEntity
  8
SANINDUSA
100
AcDbLine
 10
4044.751593426003
 20
1680.956080134152
 30
0.0
 11
4044.734459161891
 21
1680.956080134152
 31
0.0
  0
SPLINE
  5
16C4
330
1F
100
AcDbEntity
  8
SANINDUSA
100
AcDbSpline
210
0.0
220
0.0
230
1.0
 70
    24
 71
     3
 72
     9
 73
     5
 74
     0
 42
0.0000000001
 43
0.0000000001
 40
0.0
 40
0.0
 40
0.0
 40
0.0
 40
0.1522787035510399
 40
1.0
 40
1.0
 40
1.0
 40
1.0
 10
4044.443948328628
 20
1681.313088591336
 30
0.0
 10
4044.445156230405
 20
1681.313194270473
 30
0.0
 10
4044.45308840837
 20
1681.31388825548
 30
0.0
 10
4044.46102058749
 20
1681.31458222729
 30
0.0
 10
4044.467744864657
 20
1681.315170521973
 30
0.0
  0
LINE
  5
16C6
330
1F
100
AcDbEntity
  8
SANINDUSA
100
AcDbLine
 10
4044.554779496177
 20
1681.306080143093
 30
0.0
 11
4044.570259571208
 21
1681.306080143093
 31
0.0
  0
LINE
  5
16C7
330
1F
100
AcDbEntity
  8
SANINDUSA
100
AcDbLine
 10
4044.570259571208
 20
1681.306080143093
 30
0.0
 11
4044.739205911889
 21
1681.306080143093
 31
0.0
  0
SPLINE
  5
16C8
330
1F
100
AcDbEntity
  8
SANINDUSA
100
AcDbSpline
210
0.0
220
0.0
230
1.0
 70
    24
 71
     3
 72
    16
 73
    12
 74
     0
 42
0.0000000001
 43
0.0000000001
 40
0.0
 40
0.0
 40
0.0
 40
0.0
 40
0.1082595891805078
 40
0.2165183356128434
 40
0.3247768128795704
 40
0.4330343202561906
 40
0.5413173714012271
 40
0.6496006717468502
 40
0.7578607365494943
 40
0.8661204107067977
 40
1.0
 40
1.0
 40
1.0
 40
1.0
 10
4044.739205911889
 20
1681.306080143093
 30
0.0
 10
4044.740365393678
 20
1681.306080451243
 30
0.0
 10
4044.742684348232
 20
1681.306081067541
 30
0.0
 10
4044.746066078448
 20
1681.306080647423
 30
0.0
 10
4044.749248931619
 20
1681.306079168286
 30
0.0
 10
4044.752153118318
 20
1681.306080140605
 30
0.0
 10
4044.754681467975
 20
1681.306079965776
 30
0.0
 10
4044.756782603701
 20
1681.306079692561
 30
0.0
 10
4044.758362485032
 20
1681.306080334302
 30
0.0
 10
4044.759540009901
 20
1681.306079595942
 30
0.0
 10
4044.759726624572
 20
1681.306079689199
 30
0.0
 10
4044.759829804434
 20
1681.306079740761
 30
0.0
  0
SPLINE
  5
16CC
330
1F
100
AcDbEntity
  8
SANINDUSA
100
AcDbSpline
210
0.0
220
0.0
230
1.0
 70
    24
 71
     3
 72
    10
 73
     6
 74
     0
 42
0.0000000001
 43
0.0000000001
 40
0.0
 40
0.0
 40
0.0
 40
0.0
 40
0.0605544335774432
 40
0.8659895582223869
 40
1.0
 40
1.0
 40
1.0
 40
1.0
 10
4044.444203935697
 20
1681.303072760938
 30
0.0
 10
4044.444897777224
 20
1681.303133463298
 30
0.0
 10
4044.454820411821
 20
1681.304001568356
 30
0.0
 10
4044.46627855738
 20
1681.305004013681
 30
0.0
 10
4044.477042857717
 20
1681.305945798903
 30
0.0
 10
4044.478578368335
 20
1681.306080143093
 30
0.0
  0
SPLINE
  5
16CD
330
1F
100
AcDbEntity
  8
SANINDUSA
100
AcDbSpline
210
0.0
220
0.0
230
1.0
 70
    24
 71
     3
 72
    13
 73
     9
 74
     0
 42
0.0000000001
 43
0.0000000001
 40
0.0
 40
0.0
 40
0.0
 40
0.0
 40
0.1657467975172413
 40
0.3314935787064602
 40
0.5020293527530035
 40
0.6725651371096086
 40
0.8357328398524934
 40
1.0
 40
1.0
 40
1.0
 40
1.0
 10
4044.478578368335
 20
1681.306080143093
 30
0.0
 10
4044.478628659606
 20
1681.306080152246
 30
0.0
 10
4044.478729242146
 20
1681.306080170552
 30
0.0
 10
4044.479544263305
 20
1681.3060801222
 30
0.0
 10
4044.480859680169
 20
1681.306079922803
 30
0.0
 10
4044.482711108774
 20
1681.306080057811
 30
0.0
 10
4044.485000762204
 20
1681.306080156297
 30
0.0
 10
4044.486895476819
 20
1681.306079988736
 30
0.0
 10
4044.487846015154
 20
1681.306079904674
 30
0.0
  0
SPLINE
  5
16CF
330
1F
100
AcDbEntity
  8
SANINDUSA
100
AcDbSpline
210
0.0
220
0.0
230
1.0
 70
    24
 71
     3
 72
     9
 73
     5
 74
     0
 42
0.0000000001
 43
0.0000000001
 40
0.0
 40
0.0
 40
0.0
 40
0.0
 40
0.4981919702437939
 40
1.0
 40
1.0
 40
1.0
 40
1.0
 10
4044.487885874829
 20
1681.306079889773
 30
0.0
 10
4044.488952293519
 20
1681.306079922148
 30
0.0
 10
4044.491092871354
 20
1681.306079987133
 30
0.0
 10
4044.493688286119
 20
1681.306080081059
 30
0.0
 10
4044.494990686088
 20
1681.306080128191
 30
0.0
  0
SPLINE
  5
16D0
330
1F
100
AcDbEntity
  8
SANINDUSA
100
AcDbSpline
210
0.0
220
0.0
230
1.0
 70
    24
 71
     3
 72
     9
 73
     5
 74
     0
 42
0.0000000001
 43
0.0000000001
 40
0.0
 40
0.0
 40
0.0
 40
0.0
 40
0.4980397817210002
 40
1.0
 40
1.0
 40
1.0
 40
1.0
 10
4044.494990686088
 20
1681.306080128191
 30
0.0
 10
4044.496412297404
 20
1681.306080028996
 30
0.0
 10
4044.499266710585
 20
1681.306079829824
 30
0.0
 10
4044.502550247778
 20
1681.306079929265
 30
0.0
 10
4044.504198452823
 20
1681.30607997918
 30
0.0
  0
SPLINE
  5
16D1
330
1F
100
AcDbEntity
  8
SANINDUSA
100
AcDbSpline
210
0.0
220
0.0
230
1.0
 70
    24
 71
     1
 72
     4
 73
     2
 74
     0
 42
0.0000000001
 43
0.0000000001
 40
0.0
 40
0.0
 40
1.0
 40
1.0
 10
4044.504198452823
 20
1681.30607997918
 30
0.0
 10
4044.510004053026
 20
1681.30608011329
 30
0.0
  0
SPLINE
  5
16D2
330
1F
100
AcDbEntity
  8
SANINDUSA
100
AcDbSpline
210
0.0
220
0.0
230
1.0
 70
     8
 71
     3
 72
    15
 73
    11
 74
     0
 42
0.0000000001
 43
0.0000000001
 40
0.0
 40
0.0
 40
0.0
 40
0.0
 40
0.1331982920849501
 40
0.2663964701807911
 40
0.4034645515088286
 40
0.5405329986700056
 40
0.6542098986761723
 40
0.7678859449550598
 40
0.8839422741370828
 40
1.0
 40
1.0
 40
1.0
 40
1.0
 10
4044.510003986902
 20
1681.30608011329
 30
0.0
 10
4044.511734301767
 20
1681.306080034823
 30
0.0
 10
4044.51519493002
 20
1681.306079877888
 30
0.0
 10
4044.520789813581
 20
1681.306080253844
 30
0.0
 10
4044.526656423516
 20
1681.306079228859
 30
0.0
 10
4044.532436972647
 20
1681.306080643766
 30
0.0
 10
4044.537993880873
 20
1681.306093835367
 30
0.0
 10
4044.543312847428
 20
1681.306106007511
 30
0.0
 10
4044.548725522103
 20
1681.306089585428
 30
0.0
 10
4044.552377790109
 20
1681.30608329055
 30
0.0
 10
4044.554203935101
 20
1681.306080143093
 30
0.0
  0
LINE
  5
16D5
330
1F
100
AcDbEntity
  8
SANINDUSA
100
AcDbLine
 10
4044.224523320927
 20
1681.311036775945
 30
0.0
 11
4044.435203932359
 21
1681.303399036763
 31
0.0
  0
LINE
  5
16D6
330
1F
100
AcDbEntity
  8
SANINDUSA
100
AcDbLine
 10
4044.223299577965
 20
1681.346080134748
 30
0.0
 11
4044.224523320927
 21
1681.311036775945
 31
0.0
  0
LINE
  5
16D7
330
1F
100
AcDbEntity
  8
SANINDUSA
100
AcDbLine
 10
4044.223299577965
 20
1681.346080134748
 30
0.0
 11
4044.207799598708
 21
1681.346080134748
 31
0.0
  0
LINE
  5
16D8
330
1F
100
AcDbEntity
  8
SANINDUSA
100
AcDbLine
 10
4044.207799598708
 20
1681.306052873967
 30
0.0
 11
4044.207799598708
 21
1681.346080134748
 31
0.0
  0
LINE
  5
16D9
330
1F
100
AcDbEntity
  8
SANINDUSA
100
AcDbLine
 10
4044.207799598708
 20
1681.306052873967
 30
0.0
 11
4044.435270473495
 21
1681.298109422563
 31
0.0
  0
SPLINE
  5
16DA
330
1F
100
AcDbEntity
  8
SANINDUSA
100
AcDbSpline
210
0.0
220
0.0
230
1.0
 70
    24
 71
     1
 72
     4
 73
     2
 74
     0
 42
0.0000000001
 43
0.0000000001
 40
0.0
 40
0.0
 40
1.0
 40
1.0
 10
4044.435270473495
 20
1681.298109422563
 30
0.0
 10
4044.435205608739
 20
1681.302285517691
 30
0.0
  0
ARC
  5
16DB
330
1F
100
AcDbEntity
  8
SANINDUSA
100
AcDbCircle
 10
4044.328227654534
 20
1681.022871672041
 30
0.0
 40
0.219870538520815
100
AcDbArc
 50
0.8371322541337015
 51
41.98207921027187
  0
ARC
  5
16DC
330
1F
100
AcDbEntity
  8
SANINDUSA
100
AcDbCircle
 10
4044.486886096265
 20
1681.179848603155
 30
0.0
 40
0.0110000000000001
100
AcDbArc
 50
272.0000000037536
 51
295.7742184850772
  0
LINE
  5
16DD
330
1F
100
AcDbEntity
  8
SANINDUSA
100
AcDbLine
 10
4044.407799586787
 20
1681.166080135046
 30
0.0
 11
4044.48726999028
 21
1681.168855304955
 31
0.0
  0
LINE
  5
16DE
330
1F
100
AcDbEntity
  8
SANINDUSA
100
AcDbLine
 10
4044.407799586787
 20
1681.166080135046
 30
0.0
 11
4044.40748549266
 21
1681.175074654756
 31
0.0
  0
LINE
  5
16DF
330
1F
100
AcDbEntity
  8
SANINDUSA
100
AcDbLine
 10
4044.40748549266
 20
1681.175074654756
 30
0.0
 11
4044.4638715872
 21
1681.177043697922
 31
0.0
  0
ARC
  5
16E0
330
1F
100
AcDbEntity
  8
SANINDUSA
100
AcDbCircle
 10
4044.463522593883
 20
1681.187037608028
 30
0.0
 40
0.01
100
AcDbArc
 50
272.0000000037536
 51
36.54675254500544
  0
LINE
  5
16E1
330
1F
100
AcDbEntity
  8
SANINDUSA
100
AcDbLine
 10
4044.435811475053
 20
1681.288090522526
 30
0.0
 11
4044.197799578443
 21
1681.296402092217
 31
0.0
  0
LINE
  5
16E2
330
1F
100
AcDbEntity
  8
SANINDUSA
100
AcDbLine
 10
4044.197799578443
 20
1681.296402092217
 30
0.0
 11
4044.197799578443
 21
1681.361080135344
 31
0.0
  0
LINE
  5
16E3
330
1F
100
AcDbEntity
  8
SANINDUSA
100
AcDbLine
 10
4044.197799578443
 20
1681.361080135344
 30
0.0
 11
4044.207799598708
 21
1681.361080135344
 31
0.0
  0
LINE
  5
16E4
330
1F
100
AcDbEntity
  8
SANINDUSA
100
AcDbLine
 10
4044.207799598708
 20
1681.361080135344
 30
0.0
 11
4044.207799598708
 21
1681.359080131291
 31
0.0
  0
LINE
  5
16E5
330
1F
100
AcDbEntity
  8
SANINDUSA
100
AcDbLine
 10
4044.207799598708
 20
1681.359080131291
 30
0.0
 11
4044.215299591555
 21
1681.359080131291
 31
0.0
  0
LINE
  5
16E6
330
1F
100
AcDbEntity
  8
SANINDUSA
100
AcDbLine
 10
4044.215299591555
 20
1681.356080140112
 30
0.0
 11
4044.215299591555
 21
1681.359080131291
 31
0.0
  0
LINE
  5
16E7
330
1F
100
AcDbEntity
  8
SANINDUSA
100
AcDbLine
 10
4044.235299572481
 20
1681.356080140112
 30
0.0
 11
4044.215299591555
 21
1681.356080140112
 31
0.0
  0
LINE
  5
16E8
330
1F
100
AcDbEntity
  8
SANINDUSA
100
AcDbLine
 10
4044.235299572481
 20
1681.346080134748
 30
0.0
 11
4044.235299572481
 21
1681.356080140112
 31
0.0
  0
LINE
  5
16E9
330
1F
100
AcDbEntity
  8
SANINDUSA
100
AcDbLine
 10
4044.235299572481
 20
1681.346080134748
 30
0.0
 11
4044.233299598231
 21
1681.346080134748
 31
0.0
  0
LINE
  5
16EA
330
1F
100
AcDbEntity
  8
SANINDUSA
100
AcDbLine
 10
4044.234186127915
 20
1681.320693041323
 30
0.0
 11
4044.233299598231
 21
1681.346080134748
 31
0.0
  0
LINE
  5
16EB
330
1F
100
AcDbEntity
  8
SANINDUSA
100
AcDbLine
 10
4044.443948328628
 20
1681.313088591336
 30
0.0
 11
4044.234186127915
 21
1681.320693041323
 31
0.0
  0
LINE
  5
16EC
330
1F
100
AcDbEntity
  8
SANINDUSA
100
AcDbLine
 10
4044.467744864657
 20
1681.315170521973
 30
0.0
 11
4044.466637894644
 21
1681.327823246954
 31
0.0
  0
ARC
  5
16ED
330
1F
100
AcDbEntity
  8
SANINDUSA
100
AcDbCircle
 10
4044.446713999584
 20
1681.326080136389
 30
0.0
 40
0.02
100
AcDbArc
 50
4.999999996291114
 51
90.0
  0
LINE
  5
16EE
330
1F
100
AcDbEntity
  8
SANINDUSA
100
AcDbLine
 10
4044.446713999047
 20
1681.346080134748
 30
0.0
 11
4044.300299584999
 21
1681.346080134748
 31
0.0
  0
LINE
  5
16EF
330
1F
100
AcDbEntity
  8
SANINDUSA
100
AcDbLine
 10
4044.300299584999
 20
1681.356080140112
 30
0.0
 11
4044.300299584999
 21
1681.346080134748
 31
0.0
  0
LINE
  5
16F0
330
1F
100
AcDbEntity
  8
SANINDUSA
100
AcDbLine
 10
4044.320299580826
 20
1681.356080140112
 30
0.0
 11
4044.300299584999
 21
1681.356080140112
 31
0.0
  0
LINE
  5
16F1
330
1F
100
AcDbEntity
  8
SANINDUSA
100
AcDbLine
 10
4044.320299580826
 20
1681.359080131291
 30
0.0
 11
4044.320299580826
 21
1681.356080140112
 31
0.0
  0
LINE
  5
16F2
330
1F
100
AcDbEntity
  8
SANINDUSA
100
AcDbLine
 10
4044.320299580826
 20
1681.359080131291
 30
0.0
 11
4044.327799588574
 21
1681.359080131291
 31
0.0
  0
LINE
  5
16F3
330
1F
100
AcDbEntity
  8
SANINDUSA
100
AcDbLine
 10
4044.327799588574
 20
1681.359080131291
 30
0.0
 11
4044.327799588574
 21
1681.361080135344
 31
0.0
  0
LINE
  5
16F4
330
1F
100
AcDbEntity
  8
SANINDUSA
100
AcDbLine
 10
4044.327799588574
 20
1681.361080135344
 30
0.0
 11
4044.334139332309
 21
1681.361080135344
 31
0.0
  0
ARC
  5
16F5
330
1F
100
AcDbEntity
  8
SANINDUSA
100
AcDbCircle
 10
4044.334139332419
 20
1681.356080136389
 30
0.0
 40
0.0050000000000002
100
AcDbArc
 50
30.00000000271977
 51
90.0
  0
ARC
  5
16F6
330
1F
100
AcDbEntity
  8
SANINDUSA
100
AcDbCircle
 10
4044.342799586456
 20
1681.361080136389
 30
0.0
 40
0.005
100
AcDbArc
 50
210.0000000027197
 51
270.0
  0
LINE
  5
16F7
330
1F
100
AcDbEntity
  8
SANINDUSA
100
AcDbLine
 10
4044.446713999047
 20
1681.356080140112
 30
0.0
 11
4044.342799589171
 21
1681.356080140112
 31
0.0
  0
ARC
  5
16F8
330
1F
100
AcDbEntity
  8
SANINDUSA
100
AcDbCircle
 10
4044.446713999584
 20
1681.326080136389
 30
0.0
 40
0.03
100
AcDbArc
 50
4.999999996291114
 51
90.0
  0
LINE
  5
16F9
330
1F
100
AcDbEntity
  8
SANINDUSA
100
AcDbLine
 10
4044.478578368335
 20
1681.306080143093
 30
0.0
 11
4044.476599840581
 21
1681.328694815872
 31
0.0
  0
SPLINE
  5
16FA
330
1F
100
AcDbEntity
  8
SANINDUSA
100
AcDbSpline
210
0.0
220
0.0
230
1.0
 70
     8
 71
     3
 72
    18
 73
    14
 74
     0
 42
0.0000000001
 43
0.0000000001
 40
0.0
 40
0.0
 40
0.0
 40
0.0
 40
0.0844948037978556
 40
0.1689894226564559
 40
0.2692556122973668
 40
0.3698799184447393
 40
0.4705049474234812
 40
0.5707721223801841
 40
0.6710797947670095
 40
0.7717460395299555
 40
0.8724117216483843
 40
0.9727186501006659
 40
1.0
 40
1.0
 40
1.0
 40
1.0
 10
4044.444203935697
 20
1681.303072760938
 30
0.0
 10
4044.444289468451
 20
1681.298916359016
 30
0.0
 10
4044.444460533773
 20
1681.290603564268
 30
0.0
 10
4044.44591468271
 20
1681.277424769996
 30
0.0
 10
4044.448481258409
 20
1681.263611164211
 30
0.0
 10
4044.452431518002
 20
1681.249299119853
 30
0.0
 10
4044.457549605604
 20
1681.235363718047
 30
0.0
 10
4044.4638118312
 20
1681.221918991964
 30
0.0
 10
4044.471211054198
 20
1681.209063084744
 30
0.0
 10
4044.47967060557
 20
1681.196854869298
 30
0.0
 10
4044.489121101553
 20
1681.185399781148
 30
0.0
 10
4044.496957577762
 20
1681.177338277895
 30
0.0
 10
4044.501597837673
 20
1681.173114037902
 30
0.0
 10
4044.502590033475
 20
1681.172210796861
 30
0.0
  0
SPLINE
  5
16FB
330
1F
100
AcDbEntity
  8
SANINDUSA
100
AcDbSpline
210
0.0
220
0.0
230
1.0
 70
    24
 71
     1
 72
     4
 73
     2
 74
     0
 42
0.0000000001
 43
0.0000000001
 40
0.0
 40
0.0
 40
1.0
 40
1.0
 10
4044.502590033475
 20
1681.172210796861
 30
0.0
 10
4044.505716465081
 20
1681.168947632549
 30
0.0
  0
ARC
  5
16FC
330
1F
100
AcDbEntity
  8
SANINDUSA
100
AcDbCircle
 10
4044.328227654534
 20
1681.022871672041
 30
0.0
 40
0.2298705385208233
100
AcDbArc
 50
0.8007122787788457
 51
39.45489434091339
  0
LINE
  5
16FD
330
1F
100
AcDbEntity
  8
SANINDUSA
100
AcDbLine
 10
4044.558075744792
 20
1681.026084023653
 30
0.0
 11
4044.548074726148
 21
1681.026084023653
 31
0.0
  0
SPLINE
  5
16FE
330
1F
100
AcDbEntity
  8
SANINDUSA
100
AcDbSpline
210
0.0
220
0.0
230
1.0
 70
     8
 71
     3
 72
    15
 73
    11
 74
     0
 42
0.0000000001
 43
0.0000000001
 40
0.0
 40
0.0
 40
0.0
 40
0.0
 40
0.1369013636774643
 40
0.2735203932713441
 40
0.4100446304775323
 40
0.5538247973868482
 40
0.6979230089559002
 40
0.8425693166425231
 40
0.9211471249938593
 40
1.0
 40
1.0
 40
1.0
 40
1.0
 10
4044.471556306018
 20
1681.192992392121
 30
0.0
 10
4044.468842663826
 20
1681.196827087369
 30
0.0
 10
4044.463420975833
 20
1681.204488569505
 30
0.0
 10
4044.456430977425
 20
1681.216715988708
 30
0.0
 10
4044.450222390142
 20
1681.229609315754
 30
0.0
 10
4044.444962400927
 20
1681.243199894196
 30
0.0
 10
4044.4407182557
 20
1681.257431116032
 30
0.0
 10
4044.438111217269
 20
1681.269770744151
 30
0.0
 10
4044.436570671837
 20
1681.28002067701
 30
0.0
 10
4044.436064835251
 20
1681.28539744255
 30
0.0
 10
4044.435811475053
 20
1681.288090522526
 30
0.0
  0
SPLINE
  5
170B
330
1F
100
AcDbEntity
  8
SANINDUSA
100
AcDbSpline
210
0.0
220
0.0
230
1.0
 70
    24
 71
     3
 72
    10
 73
     6
 74
     0
 42
0.0000000001
 43
0.0000000001
 40
0.0
 40
0.0
 40
0.0
 40
0.0
 40
0.1386391611615246
 40
0.6931957102079083
 40
1.0
 40
1.0
 40
1.0
 40
1.0
 10
4044.197799578443
 20
1680.986080135344
 30
0.0
 10
4044.197799578443
 20
1680.989425977513
 30
0.0
 10
4044.197799578443
 20
1681.006155186048
 30
0.0
 10
4044.197799578443
 20
1681.030288641951
 30
0.0
 10
4044.197799578443
 20
1681.051076256158
 30
0.0
 10
4044.197799578443
 20
1681.058480504094
 30
0.0
  0
SPLINE
  5
170C
330
1F
100
AcDbEntity
  8
SANINDUSA
100
AcDbSpline
210
0.0
220
0.0
230
1.0
 70
     8
 71
     3
 72
    22
 73
    18
 74
     0
 42
0.0000000001
 43
0.0000000001
 40
0.0
 40
0.0
 40
0.0
 40
0.0
 40
0.0603589414390788
 40
0.1208631966592375
 40
0.1812220047066291
 40
0.250583081909248
 40
0.3201651251226536
 40
0.3895279313392721
 40
0.4590396212730151
 40
0.5287711715007396
 40
0.5982847579754854
 40
0.6682060837881274
 40
0.7383488250303261
 40
0.8082708559688043
 40
0.8721247476273239
 40
0.9361463678614351
 40
0.9999999999999998
 40
0.9999999999999998
 40
0.9999999999999998
 40
0.9999999999999998
 10
4044.197799578443
 20
1681.058480504094
 30
0.0
 10
4044.197805776298
 20
1681.056217272938
 30
0.0
 10
4044.197818186933
 20
1681.05168536191
 30
0.0
 10
4044.197914574882
 20
1681.044926204006
 30
0.0
 10
4044.198071296345
 20
1681.037943097142
 30
0.0
 10
4044.198302649831
 20
1681.030830243152
 30
0.0
 10
4044.198604756451
 20
1681.023712797498
 30
0.0
 10
4044.19895736493
 20
1681.016991034117
 30
0.0
 10
4044.199349630605
 20
1681.010767677521
 30
0.0
 10
4044.199766339198
 20
1681.005103404342
 30
0.0
 10
4044.200195086804
 20
1681.000059132408
 30
0.0
 10
4044.200621455058
 20
1680.995725639203
 30
0.0
 10
4044.201033351709
 20
1680.992137955248
 30
0.0
 10
4044.201408095715
 20
1680.98942224137
 30
0.0
 10
4044.201735794712
 20
1680.987576080982
 30
0.0
 10
4044.202020434462
 20
1680.986444130056
 30
0.0
 10
4044.202175108171
 20
1680.986305068431
 30
0.0
 10
4044.20225234343
 20
1680.986235628961
 30
0.0
  0
SPLINE
  5
170D
330
1F
100
AcDbEntity
  8
SANINDUSA
100
AcDbSpline
210
0.0
220
0.0
230
1.0
 70
    24
 71
     1
 72
     4
 73
     2
 74
     0
 42
0.0000000001
 43
0.0000000001
 40
0.0
 40
0.0
 40
1.0
 40
1.0
 10
4044.202251806988
 20
1680.98623561406
 30
0.0
 10
4044.202799573674
 20
1680.986254747151
 30
0.0
  0
LINE
  5
170E
330
1F
100
AcDbEntity
  8
SANINDUSA
100
AcDbLine
 10
4044.202799573674
 20
1680.986254747151
 30
0.0
 11
4044.202799573674
 21
1680.95108013892
 31
0.0
  0
SPLINE
  5
170F
330
1F
100
AcDbEntity
  8
SANINDUSA
100
AcDbSpline
210
0.0
220
0.0
230
1.0
 70
    24
 71
     3
 72
    13
 73
     9
 74
     0
 42
0.0000000001
 43
0.0000000001
 40
0.0
 40
0.0
 40
0.0
 40
0.0
 40
0.1821267098064204
 40
0.3643494451980749
 40
0.5230964228542576
 40
0.6819092764330163
 40
0.8409212591490986
 40
1.0
 40
1.0
 40
1.0
 40
1.0
 10
4044.197799578443
 20
1680.946080143689
 30
0.0
 10
4044.198372026606
 20
1680.946652557907
 30
0.0
 10
4044.199517224756
 20
1680.947797688147
 30
0.0
 10
4044.200767104448
 20
1680.949047627381
 30
0.0
 10
4044.201701756207
 20
1680.949982310048
 30
0.0
 10
4044.2023309411
 20
1680.950611503442
 30
0.0
 10
4044.202726393655
 20
1680.951006981984
 30
0.0
 10
4044.202775176922
 20
1680.951055749863
 30
0.0
 10
4044.202799573674
 20
1680.95108013892
 30
0.0
  0
LINE
  5
1710
330
1F
100
AcDbEntity
  8
SANINDUSA
100
AcDbLine
 10
4044.197799578443
 20
1680.946080143689
 30
0.0
 11
4044.197799578443
 21
1680.986080135344
 31
0.0
  0
LINE
  5
1711
330
1F
100
AcDbEntity
  8
SANINDUSA
100
AcDbLine
 10
4044.239246949686
 20
1680.987527514933
 30
0.0
 11
4044.237974181904
 21
1680.95108013892
 31
0.0
  0
LINE
  5
1713
330
1F
100
AcDbEntity
  8
SANINDUSA
100
AcDbLine
 10
4044.202799573674
 20
1680.986254747151
 30
0.0
 11
4044.239246949686
 21
1680.987527514933
 31
0.0
  0
SPLINE
  5
1715
330
1F
100
AcDbEntity
  8
SANINDUSA
100
AcDbSpline
210
0.0
220
0.0
230
1.0
 70
    24
 71
     1
 72
     4
 73
     2
 74
     0
 42
0.0000000001
 43
0.0000000001
 40
0.0
 40
0.0
 40
1.0
 40
1.0
 10
4044.237974181904
 20
1680.95108013892
 30
0.0
 10
4044.237955078616
 20
1680.950532863973
 30
0.0
  0
SPLINE
  5
1716
330
1F
100
AcDbEntity
  8
SANINDUSA
100
AcDbSpline
210
0.0
220
0.0
230
1.0
 70
     8
 71
     3
 72
    22
 73
    18
 74
     0
 42
0.0000000001
 43
0.0000000001
 40
0.0
 40
0.0
 40
0.0
 40
0.0
 40
0.0618896390526194
 40
0.1239321731796832
 40
0.1858220178886202
 40
0.2560701936522039
 40
0.3265420607612254
 40
0.3967894841056905
 40
0.4670207579816241
 40
0.5374768890977825
 40
0.6077060926370864
 40
0.6776634750531681
 40
0.7478457460633576
 40
0.8178012840775259
 40
0.8784848747099777
 40
0.9393162806993156
 40
1.0
 40
1.0
 40
1.0
 40
1.0
 10
4044.237955078616
 20
1680.950532863973
 30
0.0
 10
4044.238020137457
 20
1680.950458149556
 30
0.0
 10
4044.238150415866
 20
1680.950308536144
 30
0.0
 10
4044.239213527179
 20
1680.950034484846
 30
0.0
 10
4044.240971022378
 20
1680.949715478667
 30
0.0
 10
4044.243603890482
 20
1680.949345682097
 30
0.0
 10
4044.247147115153
 20
1680.948933561598
 30
0.0
 10
4044.25145478691
 20
1680.948505066786
 30
0.0
 10
4044.256497451016
 20
1680.948072431299
 30
0.0
 10
4044.26218648422
 20
1680.94765040156
 30
0.0
 10
4044.268446269831
 20
1680.9472528714
 30
0.0
 10
4044.27521377309
 20
1680.94689541814
 30
0.0
 10
4044.282382498845
 20
1680.946589188596
 30
0.0
 10
4044.289544792906
 20
1680.946354860876
 30
0.0
 10
4044.296571695856
 20
1680.946196342837
 30
0.0
 10
4044.303366679693
 20
1680.946098966913
 30
0.0
 10
4044.307923013437
 20
1680.946086413011
 30
0.0
 10
4044.310198411479
 20
1680.946080143689
 30
0.0
  0
SPLINE
  5
1717
330
1F
100
AcDbEntity
  8
SANINDUSA
100
AcDbSpline
210
0.0
220
0.0
230
1.0
 70
    24
 71
     3
 72
    10
 73
     6
 74
     0
 42
0.0000000001
 43
0.0000000001
 40
0.0
 40
0.0
 40
0.0
 40
0.0
 40
0.1421083680971082
 40
0.7105420460553785
 40
1.0
 40
1.0
 40
1.0
 40
1.0
 10
4044.2377995999
 20
1680.946080143689
 30
0.0
 10
4044.241229092215
 20
1680.946080143689
 30
0.0
 10
4044.258376558753
 20
1680.946080143689
 30
0.0
 10
4044.282509495835
 20
1680.946080143689
 30
0.0
 10
4044.303212940818
 20
1680.946080143689
 30
0.0
 10
4044.310198411479
 20
1680.946080143689
 30
0.0
  0
LINE
  5
1718
330
1F
100
AcDbEntity
  8
SANINDUSA
100
AcDbLine
 10
4044.2377995999
 20
1680.946080143689
 30
0.0
 11
4044.197799578443
 21
1680.946080143689
 31
0.0
  0
LINE
  5
1720
330
1F
100
AcDbEntity
  8
SANINDUSA
100
AcDbLine
 10
4044.197799578443
 20
1681.275419305204
 30
0.0
 11
4044.197799578443
 21
1681.296402092217
 31
0.0
  0
LINE
  5
1723
330
1F
100
AcDbEntity
  8
SANINDUSA
100
AcDbLine
 10
4044.300299584999
 20
1681.356080140112
 30
0.0
 11
4044.235299572481
 21
1681.356080140112
 31
0.0
  0
LINE
  5
1724
330
1F
100
AcDbEntity
  8
SANINDUSA
100
AcDbLine
 10
4044.235299572481
 20
1681.346080134748
 30
0.0
 11
4044.300299584999
 21
1681.346080134748
 31
0.0
  0
LINE
  5
172C
330
1F
100
AcDbEntity
  8
SANINDUSA
100
AcDbLine
 10
4044.724035442008
 20
1680.946080143689
 30
0.0
 11
4044.724802270665
 21
1680.946080143689
 31
0.0
  0
ELLIPSE
  5
1746
330
1F
100
AcDbEntity
  8
SANINDUSA
100
AcDbEllipse
 10
4044.311824077526
 20
1681.060104627459
 30
0.0
 11
0.0725771264764399
 21
0.0725771264764393
 31
0.0
210
0.0
220
0.0
230
1.0
 40
0.0000102582692018
 41
1.537139968011392
 42
3.141581653329168
  0
LINE
  5
1754
330
1F
100
AcDbEntity
  8
SANINDUSA
100
AcDbLine
 10
4044.554203935101
 20
1681.356080140112
 30
0.0
 11
4044.446713999047
 21
1681.356080140112
 31
0.0
  0
SPLINE
  5
1756
330
1F
100
AcDbEntity
  8
SANINDUSA
100
AcDbSpline
210
0.0
220
0.0
230
1.0
 70
    24
 71
     3
 72
    16
 73
    12
 74
     0
 42
0.0000000001
 43
0.0000000001
 40
0.0
 40
0.0
 40
0.0
 40
0.0
 40
0.1049692398567994
 40
0.2167986578498959
 40
0.328627628703041
 40
0.4404795243843211
 40
0.5523313051135199
 40
0.6642503035792278
 40
0.7761694152751378
 40
0.8880843781720441
 40
0.9999999999999998
 40
0.9999999999999998
 40
0.9999999999999998
 40
0.9999999999999998
 10
4044.724035442008
 20
1680.946080143689
 30
0.0
 10
4044.723879496954
 20
1680.946080143689
 30
0.0
 10
4044.723557415183
 20
1680.946080143689
 30
0.0
 10
4044.721716127946
 20
1680.946080143689
 30
0.0
 10
4044.718866302128
 20
1680.946080143689
 30
0.0
 10
4044.714988490031
 20
1680.946080143689
 30
0.0
 10
4044.710255519945
 20
1680.946080143689
 30
0.0
 10
4044.704761405076
 20
1680.946080143689
 30
0.0
 10
4044.698690445833
 20
1680.946080143689
 30
0.0
 10
4044.692198899487
 20
1680.946080143689
 30
0.0
 10
4044.687713616642
 20
1680.946080143689
 30
0.0
 10
4044.685470968619
 20
1680.946080143689
 30
0.0
  0
SPLINE
  5
1757
330
1F
100
AcDbEntity
  8
SANINDUSA
100
AcDbSpline
210
0.0
220
0.0
230
1.0
 70
    24
 71
     3
 72
    17
 73
    13
 74
     0
 42
0.0000000001
 43
0.0000000001
 40
0.0
 40
0.0
 40
0.0
 40
0.0
 40
0.0877053124290585
 40
0.1754104559744703
 40
0.2656634119983943
 40
0.3559163531054867
 40
0.4436219581541318
 40
0.5313274854802949
 40
0.6215819579074364
 40
0.7118364732582993
 40
0.8545693083852615
 40
1.0
 40
1.0
 40
1.0
 40
1.0
 10
4044.197799578443
 20
1681.275419305204
 30
0.0
 10
4044.197799578443
 20
1681.27430528005
 30
0.0
 10
4044.197799578443
 20
1681.272077231887
 30
0.0
 10
4044.197799578443
 20
1681.268212969825
 30
0.0
 10
4044.197799578443
 20
1681.263974528237
 30
0.0
 10
4044.197799578443
 20
1681.259390938159
 30
0.0
 10
4044.197799578443
 20
1681.254553318687
 30
0.0
 10
4044.197799578443
 20
1681.249455978135
 30
0.0
 10
4044.197799578443
 20
1681.244077630156
 30
0.0
 10
4044.197799578443
 20
1681.237362917695
 30
0.0
 10
4044.197799578443
 20
1681.229217331722
 30
0.0
 10
4044.197799578443
 20
1681.222857489952
 30
0.0
 10
4044.197799578443
 20
1681.219647797881
 30
0.0
  0
LINE
  5
1758
330
1F
100
AcDbEntity
  8
SANINDUSA
100
AcDbLine
 10
4044.197799578443
 20
1681.058480504094
 30
0.0
 11
4044.197799578443
 21
1681.07463013594
 31
0.0
  0
LINE
  5
1759
330
1F
100
AcDbEntity
  8
SANINDUSA
100
AcDbLine
 10
4044.685470968619
 20
1680.946080143689
 30
0.0
 11
4044.310198426379
 21
1680.946080143689
 31
0.0
  0
LINE
  5
175D
330
1F
100
AcDbEntity
  8
SANINDUSA
100
AcDbLine
 10
4044.791691705717
 20
1681.356080140112
 30
0.0
 11
4044.739205911889
 21
1681.356080140112
 31
0.0
  0
LINE
  5
175F
330
1F
100
AcDbEntity
  8
SANINDUSA
100
AcDbLine
 10
4044.739205911889
 20
1681.356080140112
 30
0.0
 11
4044.554203935101
 21
1681.356080140112
 31
0.0
  0
LINE
  5
176B
330
1F
100
AcDbEntity
  8
SANINDUSA
100
AcDbLine
 10
4044.212799573673
 20
1680.976597858705
 30
0.0
 11
4044.228878790937
 21
1680.977159356183
 31
0.0
  0
LINE
  5
176E
330
1F
100
AcDbEntity
  8
SANINDUSA
100
AcDbLine
 10
4044.212799573673
 20
1680.976597858705
 30
0.0
 11
4044.212799573673
 21
1680.96108013892
 31
0.0
  0
LINE
  5
176F
330
1F
100
AcDbEntity
  8
SANINDUSA
100
AcDbLine
 10
4044.228878790937
 20
1680.977159356183
 30
0.0
 11
4044.228317293458
 21
1680.96108013892
 31
0.0
  0
LINE
  5
177F
330
1F
100
AcDbEntity
  8
SANINDUSA
100
AcDbLine
 10
4044.202799573674
 20
1680.95108013892
 30
0.0
 11
4044.237974181904
 21
1680.95108013892
 31
0.0
  0
LINE
  5
1780
330
1F
100
AcDbEntity
  8
SANINDUSA
100
AcDbLine
 10
4044.212799573673
 20
1680.96108013892
 30
0.0
 11
4044.228317293458
 21
1680.96108013892
 31
0.0
  0
LINE
  5
1F2A
330
1F
100
AcDbEntity
  8
SANINDUSA
100
AcDbLine
 10
4044.40748549266
 20
1681.175072229852
 30
0.0
 11
4044.40748549266
 21
1681.077085617124
 31
0.0
  0
LINE
  5
1F2B
330
1F
100
AcDbEntity
  8
SANINDUSA
100
AcDbLine
 10
4044.414509532539
 20
1681.05608013594
 30
0.0
 11
4044.434554975349
 21
1681.056535714185
 31
0.0
  0
LINE
  5
1F2C
330
1F
100
AcDbEntity
  8
SANINDUSA
100
AcDbLine
 10
4044.434554975349
 20
1681.195624557694
 30
0.0
 11
4044.414509532539
 21
1681.19608013594
 31
0.0
  0
LINE
  5
1F2D
330
1F
100
AcDbEntity
  8
SANINDUSA
100
AcDbLine
 10
4044.414509532539
 20
1681.063116261293
 30
0.0
 11
4044.414509532539
 21
1681.05608013594
 31
0.0
  0
LINE
  5
1F2E
330
1F
100
AcDbEntity
  8
SANINDUSA
100
AcDbLine
 10
4044.414509532539
 20
1681.19608013594
 30
0.0
 11
4044.414509532539
 21
1681.189044010587
 31
0.0
  0
LINE
  5
1F2F
330
1F
100
AcDbEntity
  8
SANINDUSA
100
AcDbLine
 10
4044.436509532539
 20
1681.18458013594
 30
0.0
 11
4044.436509532539
 21
1681.177591079519
 31
0.0
  0
LINE
  5
1F30
330
1F
100
AcDbEntity
  8
SANINDUSA
100
AcDbLine
 10
4044.436509532539
 20
1681.07456919236
 30
0.0
 11
4044.436509532539
 21
1681.06758013594
 31
0.0
  0
LINE
  5
1F31
330
1F
100
AcDbEntity
  8
SANINDUSA
100
AcDbLine
 10
4044.436509532539
 20
1681.058535197857
 30
0.0
 11
4044.436509532539
 21
1681.06758013594
 31
0.0
  0
LINE
  5
1F32
330
1F
100
AcDbEntity
  8
SANINDUSA
100
AcDbLine
 10
4044.43450953254
 20
1681.06658013594
 30
0.0
 11
4044.43450953254
 21
1681.058535197857
 31
0.0
  0
LINE
  5
1F33
330
1F
100
AcDbEntity
  8
SANINDUSA
100
AcDbLine
 10
4044.43450953254
 20
1681.058535197857
 30
0.0
 11
4044.429532253945
 21
1681.058422077889
 31
0.0
  0
LINE
  5
1F34
330
1F
100
AcDbEntity
  8
SANINDUSA
100
AcDbLine
 10
4044.41650953254
 20
1681.059149092451
 30
0.0
 11
4044.41650953254
 21
1681.062189299277
 31
0.0
  0
LINE
  5
1F35
330
1F
100
AcDbEntity
  8
SANINDUSA
100
AcDbLine
 10
4044.41850953254
 20
1681.061230129556
 30
0.0
 11
4044.41850953254
 21
1681.059149092451
 31
0.0
  0
LINE
  5
1F36
330
1F
100
AcDbEntity
  8
SANINDUSA
100
AcDbLine
 10
4044.429643398443
 20
1681.074690359433
 30
0.0
 11
4044.43450953254
 21
1681.06658013594
 31
0.0
  0
LINE
  5
1F37
330
1F
100
AcDbEntity
  8
SANINDUSA
100
AcDbLine
 10
4044.436509532539
 20
1681.06758013594
 30
0.0
 11
4044.433378729927
 21
1681.074624441819
 31
0.0
  0
LINE
  5
1F38
330
1F
100
AcDbEntity
  8
SANINDUSA
100
AcDbLine
 10
4044.43450953254
 20
1681.193625074023
 30
0.0
 11
4044.43450953254
 21
1681.18558013594
 31
0.0
  0
LINE
  5
1F39
330
1F
100
AcDbEntity
  8
SANINDUSA
100
AcDbLine
 10
4044.436509532539
 20
1681.18458013594
 30
0.0
 11
4044.436509532539
 21
1681.193625074023
 31
0.0
  0
LINE
  5
1F3A
330
1F
100
AcDbEntity
  8
SANINDUSA
100
AcDbLine
 10
4044.43450953254
 20
1681.18558013594
 30
0.0
 11
4044.429643398443
 21
1681.177469912447
 31
0.0
  0
LINE
  5
1F3B
330
1F
100
AcDbEntity
  8
SANINDUSA
100
AcDbLine
 10
4044.433378729927
 20
1681.177535830061
 30
0.0
 11
4044.436509532539
 21
1681.18458013594
 31
0.0
  0
LINE
  5
1F3C
330
1F
100
AcDbEntity
  8
SANINDUSA
100
AcDbLine
 10
4044.429532253945
 20
1681.193738193991
 30
0.0
 11
4044.43450953254
 21
1681.193625074023
 31
0.0
  0
ARC
  5
1F3F
330
1F
100
AcDbEntity
  8
SANINDUSA
100
AcDbCircle
 10
4044.417509532539
 20
1681.059149092451
 30
0.0
 40
0.0010000000000002
100
AcDbArc
 50
180.0
 51
0.0
  0
ARC
  5
1F40
330
1F
100
AcDbEntity
  8
SANINDUSA
100
AcDbCircle
 10
4044.421509532539
 20
1681.059240001542
 30
0.0
 40
0.0010000000000002
100
AcDbArc
 50
180.5639344932369
 51
343.1500899857064
  0
ARC
  5
1F41
330
1F
100
AcDbEntity
  8
SANINDUSA
100
AcDbCircle
 10
4044.42550953254
 20
1681.059330910633
 30
0.0
 40
0.0010000000000002
100
AcDbArc
 50
202.3816772040879
 51
337.6183227959121
  0
ARC
  5
1F42
330
1F
100
AcDbEntity
  8
SANINDUSA
100
AcDbCircle
 10
4044.429509532539
 20
1681.059421819724
 30
0.0
 40
0.0010000000000002
100
AcDbArc
 50
208.1436502311436
 51
271.3019526784989
  0
ARC
  5
1F43
330
1F
100
AcDbEntity
  8
SANINDUSA
100
AcDbCircle
 10
4044.42550953254
 20
1681.192829361247
 30
0.0
 40
0.0010000000000002
100
AcDbArc
 50
22.38167719204172
 51
157.6183228079583
  0
ARC
  5
1F44
330
1F
100
AcDbEntity
  8
SANINDUSA
100
AcDbCircle
 10
4044.417509532539
 20
1681.193011179428
 30
0.0
 40
0.0010000000000002
100
AcDbArc
 50
0.0
 51
180.0
  0
LINE
  5
1F45
330
1F
100
AcDbEntity
  8
SANINDUSA
100
AcDbLine
 10
4044.41650953254
 20
1681.193011179428
 30
0.0
 11
4044.41650953254
 21
1681.189970972603
 31
0.0
  0
ARC
  5
1F46
330
1F
100
AcDbEntity
  8
SANINDUSA
100
AcDbCircle
 10
4044.421509532539
 20
1681.192920270338
 30
0.0
 40
0.0010000000000002
100
AcDbArc
 50
16.84991001429362
 51
179.43606551979
  0
LINE
  5
1F47
330
1F
100
AcDbEntity
  8
SANINDUSA
100
AcDbLine
 10
4044.41850953254
 20
1681.190930142324
 30
0.0
 11
4044.41850953254
 21
1681.193011179428
 31
0.0
  0
ARC
  5
1F48
330
1F
100
AcDbEntity
  8
SANINDUSA
100
AcDbCircle
 10
4044.429509532539
 20
1681.192738452156
 30
0.0
 40
0.0010000000000002
100
AcDbArc
 50
88.69804732150106
 51
151.8563497803436
  0
ARC
  5
1F49
330
1F
100
AcDbEntity
  8
SANINDUSA
100
AcDbCircle
 10
4044.43450953254
 20
1681.193625074023
 30
0.0
 40
0.002
100
AcDbArc
 50
0.0
 51
88.69804732150106
  0
ARC
  5
1F4A
330
1F
100
AcDbEntity
  8
SANINDUSA
100
AcDbCircle
 10
4044.43450953254
 20
1681.058535197857
 30
0.0
 40
0.002
100
AcDbArc
 50
271.3019526784989
 51
0.0
  0
LINE
  5
1F4D
330
1F
100
AcDbEntity
  8
SANINDUSA
100
AcDbLine
 10
4044.415889532539
 20
1681.18096013594
 30
0.0
 11
4044.415889532539
 21
1681.177227197166
 31
0.0
  0
LINE
  5
1F4E
330
1F
100
AcDbEntity
  8
SANINDUSA
100
AcDbLine
 10
4044.415889532539
 20
1681.074933074713
 30
0.0
 11
4044.415889532539
 21
1681.07120013594
 31
0.0
  0
LINE
  5
1F51
330
1F
100
AcDbEntity
  8
SANINDUSA
100
AcDbLine
 10
4044.15030953254
 20
1681.07806013594
 30
0.0
 11
4044.15030953254
 21
1681.17410013594
 31
0.0
  0
LINE
  5
1F53
330
1F
100
AcDbEntity
  8
SANINDUSA
100
AcDbLine
 10
4044.389765378213
 20
1681.177575565001
 30
0.0
 11
4044.418370590878
 21
1681.190833537797
 31
0.0
  0
LINE
  5
1F54
330
1F
100
AcDbEntity
  8
SANINDUSA
100
AcDbLine
 10
4044.404941391121
 20
1681.173897171294
 30
0.0
 11
4044.411227320413
 21
1681.180183100585
 31
0.0
  0
LINE
  5
1F55
330
1F
100
AcDbEntity
  8
SANINDUSA
100
AcDbLine
 10
4044.150799532539
 20
1681.17361013594
 30
0.0
 11
4044.404248426476
 21
1681.17361013594
 31
0.0
  0
LINE
  5
1F56
330
1F
100
AcDbEntity
  8
SANINDUSA
100
AcDbLine
 10
4044.158513933797
 20
1681.17753013594
 30
0.0
 11
4044.389559328025
 21
1681.17753013594
 31
0.0
  0
ARC
  5
1F57
330
1F
100
AcDbEntity
  8
SANINDUSA
100
AcDbCircle
 10
4044.158513933797
 20
1681.142697176764
 30
0.0
 40
0.0348329591759133
100
AcDbArc
 50
90.0
 51
102.981023076842
  0
ARC
  5
1F58
330
1F
100
AcDbEntity
  8
SANINDUSA
100
AcDbCircle
 10
4044.150799532539
 20
1681.176162485043
 30
0.0
 40
0.0004900000000001
100
AcDbArc
 50
102.981023076842
 51
180.0
  0
LINE
  5
1F59
330
1F
100
AcDbEntity
  8
SANINDUSA
100
AcDbLine
 10
4044.15030953254
 20
1681.17410013594
 30
0.0
 11
4044.15030953254
 21
1681.176162485043
 31
0.0
  0
ARC
  5
1F5A
330
1F
100
AcDbEntity
  8
SANINDUSA
100
AcDbCircle
 10
4044.150799532539
 20
1681.17410013594
 30
0.0
 40
0.00049
100
AcDbArc
 50
180.0
 51
270.0
  0
ARC
  5
1F5B
330
1F
100
AcDbEntity
  8
SANINDUSA
100
AcDbCircle
 10
4044.404248426476
 20
1681.17459013594
 30
0.0
 40
0.00098
100
AcDbArc
 50
270.0
 51
315.0
  0
ARC
  5
1F5D
330
1F
100
AcDbEntity
  8
SANINDUSA
100
AcDbCircle
 10
4044.433529532539
 20
1681.19223013594
 30
0.0
 40
0.0009800000000001
100
AcDbArc
 50
0.0
 51
90.0
  0
ARC
  5
1F5E
330
1F
100
AcDbEntity
  8
SANINDUSA
100
AcDbCircle
 10
4044.421195461831
 20
1681.19223013594
 30
0.0
 40
0.0009799999999999
100
AcDbArc
 50
90.0
 51
135.0
  0
LINE
  5
1F5F
330
1F
100
AcDbEntity
  8
SANINDUSA
100
AcDbLine
 10
4044.422210285058
 20
1681.19076013594
 30
0.0
 11
4044.433529532539
 21
1681.19076013594
 31
0.0
  0
LINE
  5
1F60
330
1F
100
AcDbEntity
  8
SANINDUSA
100
AcDbLine
 10
4044.421195461831
 20
1681.19321013594
 30
0.0
 11
4044.433529532539
 21
1681.19321013594
 31
0.0
  0
ARC
  5
1F61
330
1F
100
AcDbEntity
  8
SANINDUSA
100
AcDbCircle
 10
4044.411920285059
 20
1681.17949013594
 30
0.0
 40
0.00098
100
AcDbArc
 50
90.0
 51
135.0
  0
LINE
  5
1F63
330
1F
100
AcDbEntity
  8
SANINDUSA
100
AcDbLine
 10
4044.41539953254
 20
1681.18047013594
 30
0.0
 11
4044.411920285059
 21
1681.18047013594
 31
0.0
  0
ARC
  5
1F64
330
1F
100
AcDbEntity
  8
SANINDUSA
100
AcDbCircle
 10
4044.41539953254
 20
1681.18096013594
 30
0.0
 40
0.0004900000000001
100
AcDbArc
 50
270.0
 51
0.0
  0
LINE
  5
1F65
330
1F
100
AcDbEntity
  8
SANINDUSA
100
AcDbLine
 10
4044.415889532539
 20
1681.182227171294
 30
0.0
 11
4044.415889532539
 21
1681.18096013594
 31
0.0
  0
ARC
  5
1F66
330
1F
100
AcDbEntity
  8
SANINDUSA
100
AcDbCircle
 10
4044.41539953254
 20
1681.182227171294
 30
0.0
 40
0.0004900000000001
100
AcDbArc
 50
0.0
 51
45.0
  0
LINE
  5
1F67
330
1F
100
AcDbEntity
  8
SANINDUSA
100
AcDbLine
 10
4044.415374908799
 20
1681.182944759681
 30
0.0
 11
4044.415746014863
 21
1681.182573653617
 31
0.0
  0
ARC
  5
1F68
330
1F
100
AcDbEntity
  8
SANINDUSA
100
AcDbCircle
 10
4044.416067873444
 20
1681.183637724326
 30
0.0
 40
0.00098
100
AcDbArc
 50
135.0
 51
225.0
  0
ARC
  5
1F69
330
1F
100
AcDbEntity
  8
SANINDUSA
100
AcDbCircle
 10
4044.422210285058
 20
1681.18978013594
 30
0.0
 40
0.0009799999999999
100
AcDbArc
 50
90.0
 51
135.0
  0
ARC
  5
1F6A
330
1F
100
AcDbEntity
  8
SANINDUSA
100
AcDbCircle
 10
4044.418164540691
 20
1681.191278108737
 30
0.0
 40
0.00049
100
AcDbArc
 50
294.8668271169591
 51
315.0
  0
LINE
  5
1F6B
330
1F
100
AcDbEntity
  8
SANINDUSA
100
AcDbLine
 10
4044.418511023014
 20
1681.190931626414
 30
0.0
 11
4044.420502497185
 21
1681.192923100585
 31
0.0
  0
LINE
  5
1F6C
330
1F
100
AcDbEntity
  8
SANINDUSA
100
AcDbLine
 10
4044.415374908799
 20
1681.184330688972
 30
0.0
 11
4044.421517320413
 21
1681.190473100586
 31
0.0
  0
ARC
  5
1F6D
330
1F
100
AcDbEntity
  8
SANINDUSA
100
AcDbCircle
 10
4044.433529532539
 20
1681.19174013594
 30
0.0
 40
0.0009800000000001
100
AcDbArc
 50
270.0
 51
0.0
  0
LINE
  5
1F6E
330
1F
100
AcDbEntity
  8
SANINDUSA
100
AcDbLine
 10
4044.43450953254
 20
1681.19223013594
 30
0.0
 11
4044.43450953254
 21
1681.19174013594
 31
0.0
  0
LINE
  5
1F6F
330
1F
100
AcDbEntity
  8
SANINDUSA
100
AcDbLine
 10
4044.389765378213
 20
1681.07458470688
 30
0.0
 11
4044.418370590878
 21
1681.061326734083
 31
0.0
  0
LINE
  5
1F70
330
1F
100
AcDbEntity
  8
SANINDUSA
100
AcDbLine
 10
4044.411227320413
 20
1681.071977171295
 30
0.0
 11
4044.404941391121
 21
1681.078263100585
 31
0.0
  0
LINE
  5
1F71
330
1F
100
AcDbEntity
  8
SANINDUSA
100
AcDbLine
 10
4044.404248426476
 20
1681.07855013594
 30
0.0
 11
4044.150799532539
 21
1681.07855013594
 31
0.0
  0
LINE
  5
1F72
330
1F
100
AcDbEntity
  8
SANINDUSA
100
AcDbLine
 10
4044.389559328025
 20
1681.07463013594
 30
0.0
 11
4044.158513933797
 21
1681.07463013594
 31
0.0
  0
ARC
  5
1F73
330
1F
100
AcDbEntity
  8
SANINDUSA
100
AcDbCircle
 10
4044.158513933797
 20
1681.109463095116
 30
0.0
 40
0.0348329591759133
100
AcDbArc
 50
257.018976923158
 51
270.0
  0
ARC
  5
1F74
330
1F
100
AcDbEntity
  8
SANINDUSA
100
AcDbCircle
 10
4044.150799532539
 20
1681.075997786837
 30
0.0
 40
0.00049
100
AcDbArc
 50
180.0
 51
257.018976923158
  0
ARC
  5
1F75
330
1F
100
AcDbEntity
  8
SANINDUSA
100
AcDbCircle
 10
4044.150799532539
 20
1681.07806013594
 30
0.0
 40
0.00049
100
AcDbArc
 50
90.0
 51
180.0
  0
LINE
  5
1F76
330
1F
100
AcDbEntity
  8
SANINDUSA
100
AcDbLine
 10
4044.15030953254
 20
1681.075997786837
 30
0.0
 11
4044.15030953254
 21
1681.07806013594
 31
0.0
  0
ARC
  5
1F77
330
1F
100
AcDbEntity
  8
SANINDUSA
100
AcDbCircle
 10
4044.404248426476
 20
1681.07757013594
 30
0.0
 40
0.00098
100
AcDbArc
 50
45.0
 51
90.0
  0
ARC
  5
1F78
330
1F
100
AcDbEntity
  8
SANINDUSA
100
AcDbCircle
 10
4044.433529532539
 20
1681.05993013594
 30
0.0
 40
0.0009800000000001
100
AcDbArc
 50
270.0
 51
0.0
  0
LINE
  5
1F79
330
1F
100
AcDbEntity
  8
SANINDUSA
100
AcDbLine
 10
4044.420502497185
 20
1681.059237171294
 30
0.0
 11
4044.418511023014
 21
1681.061228645466
 31
0.0
  0
LINE
  5
1F7A
330
1F
100
AcDbEntity
  8
SANINDUSA
100
AcDbLine
 10
4044.433529532539
 20
1681.06140013594
 30
0.0
 11
4044.422210285058
 21
1681.06140013594
 31
0.0
  0
ARC
  5
1F7B
330
1F
100
AcDbEntity
  8
SANINDUSA
100
AcDbCircle
 10
4044.422210285058
 20
1681.06238013594
 30
0.0
 40
0.00098
100
AcDbArc
 50
225.0
 51
270.0
  0
ARC
  5
1F7C
330
1F
100
AcDbEntity
  8
SANINDUSA
100
AcDbCircle
 10
4044.418164540691
 20
1681.060882163143
 30
0.0
 40
0.00049
100
AcDbArc
 50
45.0
 51
65.13317288304083
  0
ARC
  5
1F7D
330
1F
100
AcDbEntity
  8
SANINDUSA
100
AcDbCircle
 10
4044.411920285059
 20
1681.07267013594
 30
0.0
 40
0.00098
100
AcDbArc
 50
225.0
 51
270.0
  0
ARC
  5
1F7F
330
1F
100
AcDbEntity
  8
SANINDUSA
100
AcDbCircle
 10
4044.416067873444
 20
1681.068522547554
 30
0.0
 40
0.0009799999999999
100
AcDbArc
 50
135.0
 51
225.0
  0
LINE
  5
1F80
330
1F
100
AcDbEntity
  8
SANINDUSA
100
AcDbLine
 10
4044.415746014863
 20
1681.069586618263
 30
0.0
 11
4044.415374908799
 21
1681.0692155122
 31
0.0
  0
ARC
  5
1F81
330
1F
100
AcDbEntity
  8
SANINDUSA
100
AcDbCircle
 10
4044.41539953254
 20
1681.069933100586
 30
0.0
 40
0.0004900000000001
100
AcDbArc
 50
315.0
 51
0.0
  0
LINE
  5
1F82
330
1F
100
AcDbEntity
  8
SANINDUSA
100
AcDbLine
 10
4044.415889532539
 20
1681.07120013594
 30
0.0
 11
4044.415889532539
 21
1681.069933100586
 31
0.0
  0
ARC
  5
1F83
330
1F
100
AcDbEntity
  8
SANINDUSA
100
AcDbCircle
 10
4044.41539953254
 20
1681.07120013594
 30
0.0
 40
0.00049
100
AcDbArc
 50
0.0
 51
90.0
  0
LINE
  5
1F84
330
1F
100
AcDbEntity
  8
SANINDUSA
100
AcDbLine
 10
4044.411920285059
 20
1681.07169013594
 30
0.0
 11
4044.41539953254
 21
1681.07169013594
 31
0.0
  0
LINE
  5
1F85
330
1F
100
AcDbEntity
  8
SANINDUSA
100
AcDbLine
 10
4044.421517320413
 20
1681.061687171294
 30
0.0
 11
4044.415374908799
 21
1681.067829582908
 31
0.0
  0
LINE
  5
1F86
330
1F
100
AcDbEntity
  8
SANINDUSA
100
AcDbLine
 10
4044.43450953254
 20
1681.06042013594
 30
0.0
 11
4044.43450953254
 21
1681.05993013594
 31
0.0
  0
ARC
  5
1F87
330
1F
100
AcDbEntity
  8
SANINDUSA
100
AcDbCircle
 10
4044.433529532539
 20
1681.06042013594
 30
0.0
 40
0.0009800000000001
100
AcDbArc
 50
0.0
 51
90.0
  0
LINE
  5
1F88
330
1F
100
AcDbEntity
  8
SANINDUSA
100
AcDbLine
 10
4044.433529532539
 20
1681.05895013594
 30
0.0
 11
4044.421195461831
 21
1681.05895013594
 31
0.0
  0
ARC
  5
1F89
330
1F
100
AcDbEntity
  8
SANINDUSA
100
AcDbCircle
 10
4044.421195461831
 20
1681.05993013594
 30
0.0
 40
0.00098
100
AcDbArc
 50
225.0
 51
270.0
  0
LINE
  5
1F8A
330
1F
100
AcDbEntity
  8
SANINDUSA
100
AcDbLine
 10
4044.197799578443
 20
1681.17753013594
 30
0.0
 11
4044.197799578443
 21
1681.219647797881
 31
0.0
  0
ARC
  5
22EB
330
1F
100
AcDbEntity
  8
SANINDUSA
100
AcDbCircle
 10
4043.965786906027
 20
1681.348080140112
 30
0.0
 40
0.0080000000000004
100
AcDbArc
 50
354.9685715553362
 51
90.0
  0
SPLINE
  5
22EC
330
1F
100
AcDbEntity
  8
SANINDUSA
100
AcDbSpline
210
0.0
220
0.0
230
1.0
 70
     8
 71
     3
 72
    13
 73
     9
 74
     0
 42
0.0000000001
 43
0.0000000001
 40
0.0
 40
0.0
 40
0.0
 40
0.0
 40
0.1699946204471902
 40
0.3398790847304363
 40
0.5097083169893484
 40
0.6795371156324278
 40
0.8494205166301163
 40
1.0
 40
1.0
 40
1.0
 40
1.0
 10
4043.914581771055
 20
1680.946080143689
 30
0.0
 10
4043.918973022805
 20
1680.968648924603
 30
0.0
 10
4043.927752680781
 20
1681.013771861908
 30
0.0
 10
4043.939437182118
 20
1681.08171660234
 30
0.0
 10
4043.950036167955
 20
1681.14981434291
 30
0.0
 10
4043.959406471025
 20
1681.218091618327
 30
0.0
 10
4043.967400878297
 20
1681.283924143297
 30
0.0
 10
4043.971679922421
 20
1681.327055391971
 30
0.0
 10
4043.973756079953
 20
1681.347378522735
 30
0.0
  0
SPLINE
  5
22ED
330
1F
100
AcDbEntity
  8
SANINDUSA
100
AcDbSpline
210
0.0
220
0.0
230
1.0
 70
    24
 71
     3
 72
    21
 73
    17
 74
     0
 42
0.0000000001
 43
0.0000000001
 40
0.0
 40
0.0
 40
0.0
 40
0.0
 40
0.0634634224156717
 40
0.1269271720749212
 40
0.1996622297371252
 40
0.2726289305036996
 40
0.3453643033552927
 40
0.4180282784498323
 40
0.4909243947660749
 40
0.5635894076200272
 40
0.636248344139661
 40
0.7091382959163683
 40
0.7817962905335382
 40
0.8544541957676367
 40
0.927343054175022
 40
1.0
 40
1.0
 40
1.0
 40
1.0
 10
4043.893985445658
 20
1681.356080140112
 30
0.0
 10
4043.896328015029
 20
1681.356080140112
 30
0.0
 10
4043.901013165849
 20
1681.356080140112
 30
0.0
 10
4043.908306096078
 20
1681.356080140112
 30
0.0
 10
4043.915780843313
 20
1681.356080140112
 30
0.0
 10
4043.923305720269
 20
1681.356080140112
 30
0.0
 10
4043.930457968577
 20
1681.356080140112
 30
0.0
 10
4043.937129570595
 20
1681.356080140112
 30
0.0
 10
4043.943253162162
 20
1681.356080140112
 30
0.0
 10
4043.948757753532
 20
1681.356080140112
 30
0.0
 10
4043.953549319918
 20
1681.356080140112
 30
0.0
 10
4043.957589562015
 20
1681.356080140112
 30
0.0
 10
4043.960835214155
 20
1681.356080140112
 30
0.0
 10
4043.963192626459
 20
1681.356080140112
 30
0.0
 10
4043.964747911462
 20
1681.356080140112
 30
0.0
 10
4043.965026724237
 20
1681.356080140112
 30
0.0
 10
4043.965165908494
 20
1681.356080140112
 30
0.0
  0
SPLINE
  5
22EE
330
1F
100
AcDbEntity
  8
SANINDUSA
100
AcDbSpline
210
0.0
220
0.0
230
1.0
 70
    24
 71
     3
 72
    11
 73
     7
 74
     0
 42
0.0000000001
 43
0.0000000001
 40
0.0
 40
0.0
 40
0.0
 40
0.0
 40
0.716085474505089
 40
0.8580426038927871
 40
0.9290216626498652
 40
1.0
 40
1.0
 40
1.0
 40
1.0
 10
4043.497579108039
 20
1681.356080140112
 30
0.0
 10
4043.592199409572
 20
1681.356080140112
 30
0.0
 10
4043.705577285259
 20
1681.356080140112
 30
0.0
 10
4043.82833397064
 20
1681.356080140112
 30
0.0
 10
4043.865849175206
 20
1681.356080140112
 30
0.0
 10
4043.884606720616
 20
1681.356080140112
 30
0.0
 10
4043.893985445658
 20
1681.356080140112
 30
0.0
  0
SPLINE
  5
22EF
330
1F
100
AcDbEntity
  8
SANINDUSA
100
AcDbSpline
210
0.0
220
0.0
230
1.0
 70
     8
 71
     3
 72
    16
 73
    12
 74
     0
 42
0.0000000001
 43
0.0000000001
 40
0.0
 40
0.0
 40
0.0
 40
0.0
 40
0.2499999999999995
 40
0.2499999999999995
 40
0.499999999999999
 40
0.499999999999999
 40
0.6249999999999992
 40
0.6249999999999992
 40
0.7499999999999995
 40
0.7499999999999995
 40
1.0
 40
1.0
 40
1.0
 40
1.0
 10
4043.493249268104
 20
1681.358579650159
 30
0.0
 10
4043.493468621937
 20
1681.358199817439
 30
0.0
 10
4043.493734622397
 20
1681.35785395869
 30
0.0
 10
4043.49434798362
 20
1681.357239807246
 30
0.0
 10
4043.494700445549
 20
1681.356968951282
 30
0.0
 10
4043.495264382281
 20
1681.35664289162
 30
0.0
 10
4043.495459273953
 20
1681.356546476322
 30
0.0
 10
4043.495863182659
 20
1681.356378714011
 30
0.0
 10
4043.496073085351
 20
1681.356307343314
 30
0.0
 10
4043.496705976529
 20
1681.356137624678
 30
0.0
 10
4043.497137557696
 20
1681.356080140112
 30
0.0
 10
4043.497579112211
 20
1681.356080140112
 30
0.0
  0
SPLINE
  5
22F0
330
1F
100
AcDbEntity
  8
SANINDUSA
100
AcDbSpline
210
0.0
220
0.0
230
1.0
 70
    24
 71
     3
 72
     8
 73
     4
 74
     0
 42
0.0000000001
 43
0.0000000001
 40
0.1334243586295754
 40
0.1334243586295754
 40
0.1334243586295754
 40
0.1334243586295754
 40
0.1363397469954868
 40
0.1363397469954868
 40
0.1363397469954868
 40
0.1363397469954868
 10
4043.486003469868
 20
1681.361080140112
 30
0.0
 10
4043.486975265969
 20
1681.361080140112
 30
0.0
 10
4043.487947062072
 20
1681.361080140112
 30
0.0
 10
4043.488918858173
 20
1681.361080140112
 30
0.0
  0
LINE
  5
22F1
330
1F
100
AcDbEntity
  8
SANINDUSA
100
AcDbLine
 10
4043.352579112212
 20
1681.352707645981
 30
0.0
 11
4043.352579112212
 21
1681.361080140001
 31
0.0
  0
ARC
  5
22F2
330
1F
100
AcDbEntity
  8
SANINDUSA
100
AcDbCircle
 10
4043.488918858173
 20
1681.356080140112
 30
0.0
 40
0.005
100
AcDbArc
 50
30.00000001574406
 51
90.0
  0
LINE
  5
22F3
330
1F
100
AcDbEntity
  8
SANINDUSA
100
AcDbLine
 10
4043.352579112212
 20
1681.361080140001
 30
0.0
 11
4043.486003468792
 21
1681.361080140001
 31
0.0
  0
SPLINE
  5
22F4
330
1F
100
AcDbEntity
  8
SANINDUSA
100
AcDbSpline
210
0.0
220
0.0
230
1.0
 70
    24
 71
     3
 72
    10
 73
     6
 74
     0
 42
0.0000000001
 43
0.0000000001
 40
0.0
 40
0.0
 40
0.0
 40
0.0
 40
0.0892080648460562
 40
0.5000113154724112
 40
1.0
 40
1.0
 40
1.0
 40
1.0
 10
4043.965165908494
 20
1681.356080140112
 30
0.0
 10
4043.965202041714
 20
1681.356080140112
 30
0.0
 10
4043.965404568451
 20
1681.356080140112
 30
0.0
 10
4043.965702339295
 20
1681.356080140112
 30
0.0
 10
4043.965756950114
 20
1681.356080140112
 30
0.0
 10
4043.965786929289
 20
1681.356080140112
 30
0.0
  0
SPLINE
  5
22F5
330
1F
100
AcDbEntity
  8
SANINDUSA
100
AcDbSpline
210
0.0
220
0.0
230
1.0
 70
     8
 71
     3
 72
    42
 73
    38
 74
     0
 42
0.0000000001
 43
0.0000000001
 40
0.0
 40
0.0
 40
0.0
 40
0.0
 40
0.2499999999999996
 40
0.2499999999999996
 40
0.4999999999999992
 40
0.4999999999999992
 40
0.749999999999999
 40
0.749999999999999
 40
0.8749999999999984
 40
0.8749999999999984
 40
0.9374999999999982
 40
0.9374999999999982
 40
0.968749999999998
 40
0.968749999999998
 40
0.984374999999998
 40
0.984374999999998
 40
0.9921874999999982
 40
0.9921874999999982
 40
0.9960937499999985
 40
0.9960937499999985
 40
0.9980468749999984
 40
0.9980468749999984
 40
0.9990234374999984
 40
0.9990234374999984
 40
0.9995117187499984
 40
0.9995117187499984
 40
0.9997558593749984
 40
0.9997558593749984
 40
0.9998779296874984
 40
0.9998779296874984
 40
0.9999389648437485
 40
0.9999389648437485
 40
0.9999542236328114
 40
0.9999542236328114
 40
0.9999694824218741
 40
0.9999694824218741
 40
1.0
 40
1.0
 40
1.0
 40
1.0
 10
4043.472057453492
 20
1681.298931198182
 30
0.0
 10
4043.500897724435
 20
1681.299173792084
 30
0.0
 10
4043.529737285751
 20
1681.299511173629
 30
0.0
 10
4043.587415110438
 20
1681.300291472968
 30
0.0
 10
4043.616253188928
 20
1681.300734322677
 30
0.0
 10
4043.673928772459
 20
1681.301656572009
 30
0.0
 10
4043.702766278698
 20
1681.302135896516
 30
0.0
 10
4043.746022723991
 20
1681.302843540804
 30
0.0
 10
4043.760441572563
 20
1681.303077376107
 30
0.0
 10
4043.782069924261
 20
1681.303423255359
 30
0.0
 10
4043.789279389351
 20
1681.303537649203
 30
0.0
 10
4043.800093587645
 20
1681.303709218225
 30
0.0
 10
4043.803698322648
 20
1681.303766270434
 30
0.0
 10
4043.80910539383
 20
1681.30385382152
 30
0.0
 10
4043.810907747642
 20
1681.303883210232
 30
0.0
 10
4043.813611234763
 20
1681.30393003339
 30
0.0
 10
4043.814512391397
 20
1681.303946001901
 30
0.0
 10
4043.815864081913
 20
1681.303972746822
 30
0.0
 10
4043.81631463912
 20
1681.303982057511
 30
0.0
 10
4043.816990436148
 20
1681.303998460214
 30
0.0
 10
4043.817215696175
 20
1681.304004282794
 30
0.0
 10
4043.817553555146
 20
1681.304014968531
 30
0.0
 10
4043.817666170251
 20
1681.304018816544
 30
0.0
 10
4043.817835068916
 20
1681.304026095765
 30
0.0
 10
4043.817891364995
 20
1681.304028740578
 30
0.0
 10
4043.817975790498
 20
1681.304033877404
 30
0.0
 10
4043.818003929749
 20
1681.304035751986
 30
0.0
 10
4043.818046123316
 20
1681.304039525703
 30
0.0
 10
4043.81806018604
 20
1681.304040896575
 30
0.0
 10
4043.818081265169
 20
1681.30404389265
 30
0.0
 10
4043.81808837788
 20
1681.304044881615
 30
0.0
 10
4043.81809696538
 20
1681.304047458882
 30
0.0
 10
4043.818098717792
 20
1681.304047986341
 30
0.0
 10
4043.818101650518
 20
1681.304050059167
 30
0.0
 10
4043.818100508796
 20
1681.304052047451
 30
0.0
 10
4043.818095702767
 20
1681.304054348752
 30
0.0
 10
4043.818092185712
 20
1681.304055047167
 30
0.0
 10
4043.818088712423
 20
1681.304055769446
 30
0.0
  0
SPLINE
  5
22F6
330
1F
100
AcDbEntity
  8
SANINDUSA
100
AcDbSpline
210
0.0
220
0.0
230
1.0
 70
     8
 71
     3
 72
    38
 73
    34
 74
     0
 42
0.0000000001
 43
0.0000000001
 40
0.0
 40
0.0
 40
0.0
 40
0.0
 40
0.000244140625
 40
0.000244140625
 40
0.00048828125
 40
0.00048828125
 40
0.0009765624999999
 40
0.0009765624999999
 40
0.0019531249999999
 40
0.0019531249999999
 40
0.0039062499999998
 40
0.0039062499999998
 40
0.0078125000000001
 40
0.0078125000000001
 40
0.0156250000000001
 40
0.0156250000000001
 40
0.0312500000000003
 40
0.0312500000000003
 40
0.0625000000000001
 40
0.0625000000000001
 40
0.1249999999999997
 40
0.1249999999999997
 40
0.1562499999999997
 40
0.1562499999999997
 40
0.1874999999999998
 40
0.1874999999999998
 40
0.2499999999999998
 40
0.2499999999999998
 40
0.5000000000000002
 40
0.5000000000000002
 40
0.75
 40
0.75
 40
1.0
 40
1.0
 40
1.0
 40
1.0
 10
4043.818160255684
 20
1681.304010039349
 30
0.0
 10
4043.818147340215
 20
1681.303984928993
 30
0.0
 10
4043.818126345955
 20
1681.303965061642
 30
0.0
 10
4043.818082108878
 20
1681.303930543027
 30
0.0
 10
4043.818058264668
 20
1681.303915868629
 30
0.0
 10
4043.817984436478
 20
1681.303875284024
 30
0.0
 10
4043.817932659023
 20
1681.303853152029
 30
0.0
 10
4043.817775542737
 20
1681.30379239433
 30
0.0
 10
4043.817667910737
 20
1681.303759662456
 30
0.0
 10
4043.817343275414
 20
1681.303668968397
 30
0.0
 10
4043.817124006403
 20
1681.303619399476
 30
0.0
 10
4043.816464523216
 20
1681.30347994794
 30
0.0
 10
4043.816022000494
 20
1681.30340088903
 30
0.0
 10
4043.814693031486
 20
1681.303174070678
 30
0.0
 10
4043.813804409817
 20
1681.303038985763
 30
0.0
 10
4043.811137749388
 20
1681.302643568902
 30
0.0
 10
4043.809357775035
 20
1681.302396305804
 30
0.0
 10
4043.804016894313
 20
1681.301661912258
 30
0.0
 10
4043.800454451013
 20
1681.301186451486
 30
0.0
 10
4043.789766614239
 20
1681.299765108809
 30
0.0
 10
4043.782640091818
 20
1681.298828856153
 30
0.0
 10
4043.771950138789
 20
1681.297428246498
 30
0.0
 10
4043.768386719556
 20
1681.296962342655
 30
0.0
 10
4043.761259922447
 20
1681.296032182941
 30
0.0
 10
4043.757696099619
 20
1681.295571452118
 30
0.0
 10
4043.747004917195
 20
1681.294190158159
 30
0.0
 10
4043.739877637746
 20
1681.293272082679
 30
0.0
 10
4043.704241653617
 20
1681.288698670529
 30
0.0
 10
4043.675734191088
 20
1681.285094088248
 30
0.0
 10
4043.618710137465
 20
1681.278071679686
 30
0.0
 10
4043.590192433195
 20
1681.274653682833
 30
0.0
 10
4043.533152389764
 20
1681.268089273546
 30
0.0
 10
4043.504628159843
 20
1681.264942520618
 30
0.0
 10
4043.476093941967
 20
1681.261976002053
 30
0.0
  0
SPLINE
  5
22F7
330
1F
100
AcDbEntity
  8
SANINDUSA
100
AcDbSpline
210
0.0
220
0.0
230
1.0
 70
     8
 71
     3
 72
    38
 73
    34
 74
     0
 42
0.0000000001
 43
0.0000000001
 40
0.0
 40
0.0
 40
0.0
 40
0.0
 40
0.1249999999999998
 40
0.1249999999999998
 40
0.1874999999999996
 40
0.1874999999999996
 40
0.2187499999999996
 40
0.2187499999999996
 40
0.2499999999999996
 40
0.2499999999999996
 40
0.3750000000000003
 40
0.3750000000000003
 40
0.4375000000000006
 40
0.4375000000000006
 40
0.4687500000000005
 40
0.4687500000000005
 40
0.5000000000000002
 40
0.5000000000000002
 40
0.625
 40
0.625
 40
0.6875
 40
0.6875
 40
0.71875
 40
0.71875
 40
0.75
 40
0.75
 40
0.8750000000000001
 40
0.8750000000000001
 40
0.9375000000000001
 40
0.9375000000000001
 40
0.96875
 40
0.96875
 40
1.0
 40
1.0
 40
1.0
 40
1.0
 10
4043.408765947957
 20
1681.235369612272
 30
0.0
 10
4043.408748759917
 20
1681.239563777403
 30
0.0
 10
4043.409143449984
 20
1681.243682659862
 30
0.0
 10
4043.410324140873
 20
1681.249753337909
 30
0.0
 10
4043.410816547136
 20
1681.251758821592
 30
0.0
 10
4043.411706227941
 20
1681.254739407084
 30
0.0
 10
4043.412028011115
 20
1681.255728320753
 30
0.0
 10
4043.412723058585
 20
1681.257696726268
 30
0.0
 10
4043.413097629612
 20
1681.258679211195
 30
0.0
 10
4043.415081185617
 20
1681.263516602056
 30
0.0
 10
4043.41702153876
 20
1681.267164515841
 30
0.0
 10
4043.420439832011
 20
1681.272317358123
 30
0.0
 10
4043.421664515681
 20
1681.273981407799
 30
0.0
 10
4043.423632175646
 20
1681.276395381161
 30
0.0
 10
4043.424309873318
 20
1681.277186331143
 30
0.0
 10
4043.425709847078
 20
1681.27874021038
 30
0.0
 10
4043.42643382557
 20
1681.279504652834
 30
0.0
 10
4043.430121597396
 20
1681.283209607488
 30
0.0
 10
4043.433315399112
 20
1681.285835887863
 30
0.0
 10
4043.438456916716
 20
1681.289288802951
 30
0.0
 10
4043.440229655822
 20
1681.290358093596
 30
0.0
 10
4043.442979152735
 20
1681.291836663185
 30
0.0
 10
4043.443910743293
 20
1681.292308588068
 30
0.0
 10
4043.445804794489
 20
1681.293209619182
 30
0.0
 10
4043.446765467288
 20
1681.293637676589
 30
0.0
 10
4043.451587309268
 20
1681.295645274447
 30
0.0
 10
4043.455546823859
 20
1681.296851707964
 30
0.0
 10
4043.461634502579
 20
1681.298080060609
 30
0.0
 10
4043.463688641714
 20
1681.298391930548
 30
0.0
 10
4043.466808270461
 20
1681.298709248417
 30
0.0
 10
4043.467856417349
 20
1681.298789967812
 30
0.0
 10
4043.469955583398
 20
1681.298899436402
 30
0.0
 10
4043.471006067675
 20
1681.298928270934
 30
0.0
 10
4043.472057453492
 20
1681.298931198182
 30
0.0
  0
LINE
  5
22F8
330
1F
100
AcDbEntity
  8
SANINDUSA
100
AcDbLine
 10
4043.352579112212
 20
1680.946080143689
 30
0.0
 11
4043.914581771055
 21
1680.946080143689
 31
0.0
  0
SPLINE
  5
22F9
330
1F
100
AcDbEntity
  8
SANINDUSA
100
AcDbSpline
210
0.0
220
0.0
230
1.0
 70
    24
 71
     3
 72
     8
 73
     4
 74
     0
 42
0.0000000001
 43
0.0000000001
 40
0.0081839633701121
 40
0.0081839633701121
 40
0.0081839633701121
 40
0.0081839633701121
 40
1.0
 40
1.0
 40
1.0
 40
1.0
 10
4043.352579112212
 20
1681.352707646027
 30
0.0
 10
4043.352579112212
 20
1681.216475827506
 30
0.0
 10
4043.352579112212
 20
1681.080959916012
 30
0.0
 10
4043.352579112212
 20
1680.946080140112
 30
0.0
  0
SPLINE
  5
22FA
330
1F
100
AcDbEntity
  8
SANINDUSA
100
AcDbSpline
210
0.0
220
0.0
230
1.0
 70
     8
 71
     3
 72
    34
 73
    30
 74
     0
 42
0.0000000001
 43
0.0000000001
 40
0.0
 40
0.0
 40
0.0
 40
0.0
 40
0.0624999999999997
 40
0.0624999999999997
 40
0.1249999999999993
 40
0.1249999999999993
 40
0.2499999999999988
 40
0.2499999999999988
 40
0.3124999999999991
 40
0.3124999999999991
 40
0.3749999999999995
 40
0.3749999999999995
 40
0.5000000000000002
 40
0.5000000000000002
 40
0.5312500000000004
 40
0.5312500000000004
 40
0.5625000000000006
 40
0.5625000000000006
 40
0.6250000000000001
 40
0.6250000000000001
 40
0.7499999999999992
 40
0.7499999999999992
 40
0.7812499999999988
 40
0.7812499999999988
 40
0.8124999999999985
 40
0.8124999999999985
 40
0.8749999999999989
 40
0.8749999999999989
 40
1.0
 40
1.0
 40
1.0
 40
1.0
 10
4043.476093941967
 20
1681.261976002053
 30
0.0
 10
4043.475180393278
 20
1681.261881026288
 30
0.0
 10
4043.474269775221
 20
1681.261744491576
 30
0.0
 10
4043.472475559582
 20
1681.261393025215
 30
0.0
 10
4043.471591682164
 20
1681.261178370301
 30
0.0
 10
4043.468978582619
 20
1681.260420986258
 30
0.0
 10
4043.467287605466
 20
1681.259765682579
 30
0.0
 10
4043.464828559385
 20
1681.258554637081
 30
0.0
 10
4043.46402089561
 20
1681.258111635545
 30
0.0
 10
4043.462462169342
 20
1681.257166028955
 30
0.0
 10
4043.461707113772
 20
1681.256661645276
 30
0.0
 10
4043.45951318671
 20
1681.25505592839
 30
0.0
 10
4043.458145016922
 20
1681.253862726358
 30
0.0
 10
4043.456555469491
 20
1681.252214426454
 30
0.0
 10
4043.456243241837
 20
1681.251876359783
 30
0.0
 10
4043.45563672677
 20
1681.251190641521
 30
0.0
 10
4043.45534174714
 20
1681.250842313593
 30
0.0
 10
4043.454481218023
 20
1681.249781204088
 30
0.0
 10
4043.453940032611
 20
1681.249052326919
 30
0.0
 10
4043.452412326394
 20
1681.246802381447
 30
0.0
 10
4043.451520918501
 20
1681.245218484921
 30
0.0
 10
4043.450570952899
 20
1681.243130127938
 30
0.0
 10
4043.450389469938
 20
1681.24270737907
 30
0.0
 10
4043.450046418165
 20
1681.241858872573
 30
0.0
 10
4043.449884403562
 20
1681.24143215901
 30
0.0
 10
4043.449426500848
 20
1681.240144740102
 30
0.0
 10
4043.449158701646
 20
1681.239276770015
 30
0.0
 10
4043.448466528128
 20
1681.236644103084
 30
0.0
 10
4043.448152492469
 20
1681.234850878101
 30
0.0
 10
4043.44799296171
 20
1681.233017735172
 30
0.0
  0
SPLINE
  5
22FB
330
1F
100
AcDbEntity
  8
SANINDUSA
100
AcDbSpline
210
0.0
220
0.0
230
1.0
 70
     8
 71
     3
 72
    19
 73
    15
 74
     0
 42
0.0000000001
 43
0.0000000001
 40
0.0
 40
0.0
 40
0.0
 40
0.0
 40
0.0000975757722404
 40
0.0002170464496874
 40
0.0004243243625635
 40
0.0010933138377861
 40
0.0042143970878244
 40
0.016605889490028
 40
0.0660966178526014
 40
0.165045776219446
 40
0.263999268676829
 40
0.5093265030839952
 40
0.7546696209262118
 40
0.9999999999999998
 40
0.9999999999999998
 40
0.9999999999999998
 40
0.9999999999999998
 10
4043.40458258898
 20
1680.946080140112
 30
0.0
 10
4043.40459010138
 20
1681.007980443671
 30
0.0
 10
4043.40460681188
 20
1681.00798113354
 30
0.0
 10
4043.404635993161
 20
1681.007997121283
 30
0.0
 10
4043.404688625665
 20
1681.008052299941
 30
0.0
 10
4043.404816144983
 20
1681.008332148882
 30
0.0
 10
4043.405052306922
 20
1681.009536612946
 30
0.0
 10
4043.405545791555
 20
1681.014430648037
 30
0.0
 10
4043.406121579567
 20
1681.026587235423
 30
0.0
 10
4043.406760438859
 20
1681.045298683369
 30
0.0
 10
4043.407466438771
 20
1681.078858486577
 30
0.0
 10
4043.408192983847
 20
1681.123553787674
 30
0.0
 10
4043.40865847509
 20
1681.179421547756
 30
0.0
 10
4043.4087301246
 20
1681.216720579185
 30
0.0
 10
4043.408765948424
 20
1681.235369610725
 30
0.0
  0
LINE
  5
22FC
330
1F
100
AcDbEntity
  8
SANINDUSA
100
AcDbLine
 10
4043.44799296171
 20
1681.233017735172
 30
0.0
 11
4043.40458258898
 21
1680.946080140112
 31
0.0
  0
ARC
  5
22FD
330
1F
100
AcDbEntity
  8
SANINDUSA
100
AcDbCircle
 10
4043.354579120225
 20
1681.772080132813
 30
0.0
 40
0.0019999999999999
100
AcDbArc
 50
180.0
 51
270.0
  0
LINE
  5
22FE
330
1F
100
AcDbEntity
  8
SANINDUSA
100
AcDbLine
 10
4043.352579112212
 20
1681.80508013749
 30
0.0
 11
4043.352579112212
 21
1681.772080145119
 31
0.0
  0
ARC
  5
22FF
330
1F
100
AcDbEntity
  8
SANINDUSA
100
AcDbCircle
 10
4043.357579120224
 20
1681.805080132813
 30
0.0
 40
0.005
100
AcDbArc
 50
90.0
 51
180.0
  0
LINE
  5
2300
330
1F
100
AcDbEntity
  8
SANINDUSA
100
AcDbLine
 10
4043.396579111973
 20
1681.810080132721
 30
0.0
 11
4043.357579107443
 21
1681.810080132721
 31
0.0
  0
LINE
  5
2301
330
1F
100
AcDbEntity
  8
SANINDUSA
100
AcDbLine
 10
4043.396579111973
 20
1681.810080132721
 30
0.0
 11
4043.448579113046
 21
1681.810080132721
 31
0.0
  0
ARC
  5
2302
330
1F
100
AcDbEntity
  8
SANINDUSA
100
AcDbCircle
 10
4043.469905677653
 20
1681.780080132813
 30
0.0
 40
0.0300000000000001
100
AcDbArc
 50
358.999999990278
 51
90.0
  0
LINE
  5
2303
330
1F
100
AcDbEntity
  8
SANINDUSA
100
AcDbLine
 10
4043.499769995967
 20
1681.772045216797
 30
0.0
 11
4043.499901111284
 21
1681.779556534527
 31
0.0
  0
ARC
  5
2304
330
1F
100
AcDbEntity
  8
SANINDUSA
100
AcDbCircle
 10
4043.49777030232
 20
1681.772080132813
 30
0.0
 40
0.0020000000000001
100
AcDbArc
 50
270.0
 51
358.999999990278
  0
LINE
  5
2305
330
1F
100
AcDbEntity
  8
SANINDUSA
100
AcDbLine
 10
4043.469905684749
 20
1681.810080132721
 30
0.0
 11
4043.448579113046
 21
1681.810080132721
 31
0.0
  0
LINE
  5
2306
330
1F
100
AcDbEntity
  8
SANINDUSA
100
AcDbLine
 10
4043.359579111496
 20
1681.768080137013
 30
0.0
 11
4043.36157911555
 21
1681.768080137013
 31
0.0
  0
ARC
  5
2307
330
1F
100
AcDbEntity
  8
SANINDUSA
100
AcDbCircle
 10
4043.497648116865
 20
1681.766080132813
 30
0.0
 40
0.0020000000000002
100
AcDbArc
 50
358.999999990278
 51
90.0
  0
LINE
  5
2308
330
1F
100
AcDbEntity
  8
SANINDUSA
100
AcDbLine
 10
4043.49261341528
 20
1681.3630452224
 30
0.0
 11
4043.499647806445
 21
1681.76604523444
 31
0.0
  0
LINE
  5
2309
330
1F
100
AcDbEntity
  8
SANINDUSA
100
AcDbLine
 10
4043.361579120225
 20
1681.768080132813
 30
0.0
 11
4043.497648115316
 21
1681.768080137013
 31
0.0
  0
LINE
  5
230A
330
1F
100
AcDbEntity
  8
SANINDUSA
100
AcDbLine
 10
4043.352579112212
 20
1681.363080135821
 30
0.0
 11
4043.352579112212
 21
1681.766080103158
 31
0.0
  0
LINE
  5
230B
330
1F
100
AcDbEntity
  8
SANINDUSA
100
AcDbLine
 10
4043.356579120318
 20
1681.768080137013
 30
0.0
 11
4043.359579111496
 21
1681.768080137013
 31
0.0
  0
ARC
  5
230C
330
1F
100
AcDbEntity
  8
SANINDUSA
100
AcDbCircle
 10
4043.354579120225
 20
1681.766080132813
 30
0.0
 40
0.0020000000000002
100
AcDbArc
 50
90.0
 51
180.0
  0
LINE
  5
230D
330
1F
100
AcDbEntity
  8
SANINDUSA
100
AcDbLine
 10
4043.354579116265
 20
1681.768080137013
 30
0.0
 11
4043.356579120318
 21
1681.768080137013
 31
0.0
  0
ARC
  5
230E
330
1F
100
AcDbEntity
  8
SANINDUSA
100
AcDbCircle
 10
4043.356579120226
 20
1681.770080132813
 30
0.0
 40
0.0020000000000001
100
AcDbArc
 50
270.0
 51
329.9999999842559
  0
ARC
  5
230F
330
1F
100
AcDbEntity
  8
SANINDUSA
100
AcDbCircle
 10
4043.360043221841
 20
1681.768080132813
 30
0.0
 40
0.0020000000000001
100
AcDbArc
 50
90.0
 51
149.9999999842559
  0
LINE
  5
2310
330
1F
100
AcDbEntity
  8
SANINDUSA
100
AcDbLine
 10
4043.354579120225
 20
1681.770080132813
 30
0.0
 11
4043.49777030232
 21
1681.770080132813
 31
0.0
  0
ARC
  5
2311
330
1F
100
AcDbEntity
  8
SANINDUSA
100
AcDbCircle
 10
4043.492254141715
 20
1681.768080128613
 30
0.0
 40
0.0019999999999999
100
AcDbArc
 50
30.00000001574406
 51
90.0
  0
ARC
  5
2312
330
1F
100
AcDbEntity
  8
SANINDUSA
100
AcDbCircle
 10
4043.495718243329
 20
1681.770080128613
 30
0.0
 40
0.0020000000000001
100
AcDbArc
 50
210.0000000157441
 51
270.0
  0
ENDSEC
  0
SECTION
  2
OBJECTS
  0
DICTIONARY
  5
C
330
0
100
AcDbDictionary
281
     1
  3
ACAD_2007HEADERVARS_RT
350
23A1
  3
ACAD_BACKGROUND
350
2358
  3
ACAD_COLOR
350
EE6
  3
ACAD_GROUP
350
D
  3
ACAD_LAYOUT
350
1A
  3
ACAD_MATERIAL
350
EE5
  3
ACAD_MLEADERSTYLE
350
10A8
  3
ACAD_MLINESTYLE
350
17
  3
ACAD_PLOTSETTINGS
350
19
  3
ACAD_PLOTSTYLENAME
350
E
  3
ACAD_SCALELIST
350
1096
  3
ACAD_TABLESTYLE
350
EE7
  3
ACAD_VISUALSTYLE
350
1082
  3
ACDB_RECOMPOSE_DATA
350
239F
  3
AcDbVariableDictionary
350
3D
  3
AEC_PROPERTY_SET_DEFS
350
140F
  3
ASE_INDEX_DICTIONARY
350
1066
  3
Autodesk_PNP
350
10B2
  3
DWGPROPS
350
23A0
  0
DICTIONARY
  5
21A2
330
8
100
AcDbDictionary
280
     1
281
     1
  0
DICTIONARY
  5
1051
330
2
100
AcDbDictionary
280
     1
281
     1
  3
ACAD_LAYERFILTERS
360
1065
  3
ACAD_LAYERSTATES
360
22BC
  3
ACLYDICTIONARY
360
1064
  0
DICTIONARY
  5
2138
330
10
100
AcDbDictionary
280
     1
281
     1
  3
ADSK_XREC_LAYER_RECONCILED
360
2139
  0
DICTIONARY
  5
213A
330
2F
100
AcDbDictionary
280
     1
281
     1
  3
ADSK_XREC_LAYER_RECONCILED
360
213B
  0
DICTIONARY
  5
213C
330
30
100
AcDbDictionary
280
     1
281
     1
  3
ADSK_XREC_LAYER_RECONCILED
360
213D
  0
DICTIONARY
  5
213E
330
31
100
AcDbDictionary
280
     1
281
     1
  3
ADSK_XREC_LAYER_RECONCILED
360
213F
  0
DICTIONARY
  5
2140
330
32
100
AcDbDictionary
280
     1
281
     1
  3
ADSK_XREC_LAYER_RECONCILED
360
2141
  0
DICTIONARY
  5
2142
330
33
100
AcDbDictionary
280
     1
281
     1
  3
ADSK_XREC_LAYER_RECONCILED
360
2143
  0
DICTIONARY
  5
2144
330
34
100
AcDbDictionary
280
     1
281
     1
  3
ADSK_XREC_LAYER_RECONCILED
360
2145
  0
DICTIONARY
  5
2146
330
35
100
AcDbDictionary
280
     1
281
     1
  3
ADSK_XREC_LAYER_RECONCILED
360
2147
  0
DICTIONARY
  5
2148
330
36
100
AcDbDictionary
280
     1
281
     1
  3
ADSK_XREC_LAYER_RECONCILED
360
2149
  0
DICTIONARY
  5
214A
330
37
100
AcDbDictionary
280
     1
281
     1
  3
ADSK_XREC_LAYER_RECONCILED
360
214B
  0
DICTIONARY
  5
214C
330
5D6
100
AcDbDictionary
280
     1
281
     1
  3
ADSK_XREC_LAYER_RECONCILED
360
214D
  0
DICTIONARY
  5
214E
330
8AF
100
AcDbDictionary
280
     1
281
     1
  3
ADSK_XREC_LAYER_RECONCILED
360
214F
  0
DICTIONARY
  5
2150
330
8F8
100
AcDbDictionary
280
     1
281
     1
  3
ADSK_XREC_LAYER_RECONCILED
360
2151
  0
DICTIONARY
  5
2152
330
91D
100
AcDbDictionary
280
     1
281
     1
  3
ADSK_XREC_LAYER_RECONCILED
360
2153
  0
DICTIONARY
  5
2154
330
C7B
100
AcDbDictionary
280
     1
281
     1
  3
ADSK_XREC_LAYER_RECONCILED
360
2155
  0
DICTIONARY
  5
2156
330
1060
100
AcDbDictionary
280
     1
281
     1
  3
ADSK_XREC_LAYER_RECONCILED
360
2157
  0
DICTIONARY
  5
2158
330
1DDF
100
AcDbDictionary
280
     1
281
     1
  3
ADSK_XREC_LAYER_RECONCILED
360
2159
  0
DICTIONARY
  5
176C
330
1F
100
AcDbDictionary
280
     1
281
     1
  3
ACAD_SORTENTS
360
176D
  0
DICTIONARY
  5
23A1
102
{ACAD_REACTORS
330
C
102
}
330
C
100
AcDbDictionary
281
     1
  3
DIMJOGANG
350
23A2
  0
DICTIONARY
  5
2358
102
{ACAD_REACTORS
330
C
102
}
330
C
100
AcDbDictionary
281
     1
  0
DICTIONARY
  5
EE6
102
{ACAD_REACTORS
330
C
102
}
330
C
100
AcDbDictionary
281
     1
  0
DICTIONARY
  5
D
102
{ACAD_REACTORS
330
C
102
}
330
C
100
AcDbDictionary
281
     1
  0
DICTIONARY
  5
1A
102
{ACAD_REACTORS
330
C
102
}
330
C
100
AcDbDictionary
281
     1
  3
Layout1
350
1E
  3
Layout2
350
26
  3
Model
350
22
  0
DICTIONARY
  5
EE5
102
{ACAD_REACTORS
330
C
102
}
330
C
100
AcDbDictionary
281
     1
  3
ByBlock
350
1072
  3
ByLayer
350
106A
  3
Global
350
107A
  0
DICTIONARY
  5
10A8
102
{ACAD_REACTORS
330
C
102
}
330
C
100
AcDbDictionary
281
     1
  3
Standard
350
10A9
  0
DICTIONARY
  5
17
102
{ACAD_REACTORS
330
C
102
}
330
C
100
AcDbDictionary
281
     1
  3
Standard
350
18
  0
DICTIONARY
  5
19
102
{ACAD_REACTORS
330
C
102
}
330
C
100
AcDbDictionary
281
     1
  0
ACDBDICTIONARYWDFLT
  5
E
102
{ACAD_REACTORS
330
C
102
}
330
C
100
AcDbDictionary
281
     1
  3
Normal
350
F
100
AcDbDictionaryWithDefault
340
F
  0
DICTIONARY
  5
1096
102
{ACAD_REACTORS
330
C
102
}
330
C
100
AcDbDictionary
281
     1
  3
A0
350
1097
  3
A1
350
1098
  3
A2
350
1099
  3
A3
350
109A
  3
A4
350
109B
  3
A5
350
109C
  3
A6
350
109D
  3
A7
350
109E
  3
A8
350
109F
  3
A9
350
10A0
  3
B0
350
10A1
  3
B1
350
10A2
  3
B2
350
10A3
  3
B3
350
10A4
  3
B4
350
10A5
  3
B5
350
10A6
  3
B6
350
10A7
  0
DICTIONARY
  5
EE7
102
{ACAD_REACTORS
330
C
102
}
330
C
100
AcDbDictionary
281
     1
  3
Standard
350
EE8
  0
DICTIONARY
  5
1082
102
{ACAD_REACTORS
330
C
102
}
330
C
100
AcDbDictionary
281
     1
  3
2dWireframe
350
1088
  3
3D Hidden
350
108A
  3
3dWireframe
350
1089
  3
Basic
350
1087
  3
Brighten
350
108E
  3
ColorChange
350
1092
  3
Conceptual
350
108B
  3
Dim
350
108D
  3
EdgeColorOff
350
1095
  3
Facepattern
350
1091
  3
Flat
350
1083
  3
FlatWithEdges
350
1084
  3
Gouraud
350
1085
  3
GouraudWithEdges
350
1086
  3
JitterOff
350
1093
  3
Linepattern
350
1090
  3
OverhangOff
350
1094
  3
Realistic
350
108C
  3
Thicken
350
108F
  0
XRECORD
  5
239F
102
{ACAD_REACTORS
330
C
102
}
330
C
100
AcDbXrecord
280
     1
 90
        1
330
EE8
  0
DICTIONARY
  5
3D
102
{ACAD_REACTORS
330
C
102
}
330
C
100
AcDbDictionary
281
     1
  3
CANNOSCALE
350
21DA
  3
CMLEADERSTYLE
350
21D9
  3
CTABLESTYLE
350
1049
  3
DIMASSOC
350
3F
  3
HIDETEXT
350
3E
  3
INDEXCTL
350
21DC
  3
SORTENTS
350
21DB
  3
XCLIPFRAME
350
239D
  0
DICTIONARY
  5
140F
102
{ACAD_REACTORS
330
C
102
}
330
C
100
AcDbDictionary
281
     1
  0
DICTIONARY
  5
1066
102
{ACAD_REACTORS
330
C
102
}
330
C
100
AcDbDictionary
281
     1
  3
ASEBlockHierarchyIndexRecord
350
1067
1001
DCO15
1040
1602247867.484
  0
DICTIONARY
  5
10B2
102
{ACAD_REACTORS
330
C
102
}
330
C
100
AcDbDictionary
281
     1
  0
XRECORD
  5
23A0
102
{ACAD_REACTORS
330
C
102
}
330
C
100
AcDbXrecord
280
     1
  1
DWGPROPS COOKIE
  2

  3

  4

  6

  7

  8
Julio
  9

300
=
301
=
302
=
303
=
304
=
305
=
306
=
307
=
308
=
309
=
 40
0.1159089351851852
 41
2455097.482888091
 42
2455296.52801956
  1

 90
        0
  0
DICTIONARY
  5
1065
102
{ACAD_REACTORS
330
1051
102
}
330
1051
100
AcDbDictionary
281
     1
  0
DICTIONARY
  5
22BC
102
{ACAD_REACTORS
330
1051
102
}
330
1051
100
AcDbDictionary
281
     1
  0
DICTIONARY
  5
1064
102
{ACAD_REACTORS
330
1051
102
}
330
1051
100
AcDbDictionary
281
     1
1001
ACAD
1000
<All
  0
XRECORD
  5
2139
102
{ACAD_REACTORS
330
2138
102
}
330
2138
100
AcDbXrecord
280
     1
290
     1
  0
XRECORD
  5
213B
102
{ACAD_REACTORS
330
213A
102
}
330
213A
100
AcDbXrecord
280
     1
290
     1
  0
XRECORD
  5
213D
102
{ACAD_REACTORS
330
213C
102
}
330
213C
100
AcDbXrecord
280
     1
290
     1
  0
XRECORD
  5
213F
102
{ACAD_REACTORS
330
213E
102
}
330
213E
100
AcDbXrecord
280
     1
290
     1
  0
XRECORD
  5
2141
102
{ACAD_REACTORS
330
2140
102
}
330
2140
100
AcDbXrecord
280
     1
290
     1
  0
XRECORD
  5
2143
102
{ACAD_REACTORS
330
2142
102
}
330
2142
100
AcDbXrecord
280
     1
290
     1
  0
XRECORD
  5
2145
102
{ACAD_REACTORS
330
2144
102
}
330
2144
100
AcDbXrecord
280
     1
290
     1
  0
XRECORD
  5
2147
102
{ACAD_REACTORS
330
2146
102
}
330
2146
100
AcDbXrecord
280
     1
290
     1
  0
XRECORD
  5
2149
102
{ACAD_REACTORS
330
2148
102
}
330
2148
100
AcDbXrecord
280
     1
290
     1
  0
XRECORD
  5
214B
102
{ACAD_REACTORS
330
214A
102
}
330
214A
100
AcDbXrecord
280
     1
290
     1
  0
XRECORD
  5
214D
102
{ACAD_REACTORS
330
214C
102
}
330
214C
100
AcDbXrecord
280
     1
290
     1
  0
XRECORD
  5
214F
102
{ACAD_REACTORS
330
214E
102
}
330
214E
100
AcDbXrecord
280
     1
290
     1
  0
XRECORD
  5
2151
102
{ACAD_REACTORS
330
2150
102
}
330
2150
100
AcDbXrecord
280
     1
290
     1
  0
XRECORD
  5
2153
102
{ACAD_REACTORS
330
2152
102
}
330
2152
100
AcDbXrecord
280
     1
290
     1
  0
XRECORD
  5
2155
102
{ACAD_REACTORS
330
2154
102
}
330
2154
100
AcDbXrecord
280
     1
290
     1
  0
XRECORD
  5
2157
102
{ACAD_REACTORS
330
2156
102
}
330
2156
100
AcDbXrecord
280
     1
290
     1
  0
XRECORD
  5
2159
102
{ACAD_REACTORS
330
2158
102
}
330
2158
100
AcDbXrecord
280
     1
290
     1
  0
SORTENTSTABLE
  5
176D
102
{ACAD_REACTORS
330
176C
102
}
330
176C
100
AcDbSortentsTable
330
1F
331
1F6E
  5
1F70
331
1F2F
  5
1F31
331
1F6A
  5
1F6C
331
1F2B
  5
1F2D
331
1710
  5
1711
331
176F
  5
1713
331
1F66
  5
1F68
331
176B
  5
1716
331
170C
  5
170C
331
1605
  5
1605
331
164C
  5
164C
331
168F
  5
168F
331
1592
  5
1592
331
1420
  5
1420
331
1648
  5
1648
331
1F5E
  5
1F60
331
175F
  5
1763
331
1F5A
  5
1F5C
331
16FC
  5
16FC
331
16F8
  5
16F8
331
1757
  5
175A
331
1F56
  5
1F58
331
16F4
  5
16F4
331
16F0
  5
16F0
331
16C6
  5
16C6
331
141C
  5
141C
331
1644
  5
1644
331
158E
  5
158E
331
1457
  5
1457
331
1687
  5
1687
331
1640
  5
1640
331
158A
  5
158A
331
1453
  5
1453
331
1683
  5
1683
331
163C
  5
163C
331
15C5
  5
15C5
331
144F
  5
144F
331
167F
  5
167F
331
16BE
  5
16BE
331
15C1
  5
15C1
331
167B
  5
167B
331
16BA
  5
16BA
331
1F4E
  5
1F50
331
1F4A
  5
1F4C
331
1F89
  5
1F8B
331
16EC
  5
16EC
331
16E8
  5
16E8
331
1F46
  5
1F48
331
1F85
  5
1F87
331
1F42
  5
1F44
331
1F81
  5
1F83
331
16E4
  5
16E4
331
16E0
  5
16E0
331
1634
  5
1634
331
16B6
  5
16B6
331
149E
  5
149E
331
15BD
  5
15BD
331
1677
  5
1677
331
1630
  5
1630
331
15B9
  5
15B9
331
1673
  5
1673
331
16B2
  5
16B2
331
162C
  5
162C
331
1486
  5
1486
331
166F
  5
166F
331
16AE
  5
16AE
331
15AD
  5
15AD
331
16AA
  5
16AA
331
15A9
  5
15A9
331
1628
  5
1628
331
1F7D
  5
1F7F
331
1F3A
  5
1F3C
331
1723
  5
1726
331
1F79
  5
1F7B
331
16DC
  5
16DC
331
16D8
  5
16D8
331
1F36
  5
1F38
331
1F75
  5
1F77
331
1F32
  5
1F34
331
1F71
  5
1F73
331
16D0
  5
16D0
331
15A5
  5
15A5
331
1624
  5
1624
331
16A6
  5
16A6
331
147A
  5
147A
331
16A2
  5
16A2
331
160C
  5
160C
331
142F
  5
142F
331
169E
  5
169E
331
159D
  5
159D
331
142B
  5
142B
331
169A
  5
169A
331
1608
  5
1608
331
1717
  5
171A
331
1F6D
  5
1F6F
331
1F2E
  5
1F30
331
1713
  5
1715
331
1F69
  5
1F6B
331
1F2A
  5
1F2C
331
176E
  5
170F
331
170F
  5
1710
331
1F65
  5
1F67
331
170B
  5
170B
331
1F61
  5
1F63
331
1604
  5
1604
331
1427
  5
1427
331
1600
  5
1600
331
15FC
  5
15FC
331
164B
  5
164B
331
1595
  5
1595
331
16CD
  5
16CD
331
1591
  5
1591
331
168A
  5
168A
331
15F8
  5
15F8
331
1F5D
  5
1F5F
331
1F59
  5
1F5B
331
16FB
  5
16FB
331
16F7
  5
16F7
331
1756
  5
1759
331
1F55
  5
1F57
331
16F3
  5
16F3
331
1F51
  5
1F53
331
1647
  5
1647
331
141B
  5
141B
331
15F4
  5
15F4
331
1643
  5
1643
331
158D
  5
158D
331
1456
  5
1456
331
1686
  5
1686
331
163F
  5
163F
331
1682
  5
1682
331
16C1
  5
16C1
331
163B
  5
163B
331
167E
  5
167E
331
16BD
  5
16BD
331
144A
  5
144A
331
167A
  5
167A
331
16B9
  5
16B9
331
1F4D
  5
1F4F
331
1746
  5
1749
331
16EF
  5
16EF
331
1F49
  5
1F4B
331
1F88
  5
1F8A
331
16EB
  5
16EB
331
16E7
  5
16E7
331
1F45
  5
1F47
331
1F84
  5
1F86
331
1F41
  5
1F43
331
1F80
  5
1F82
331
16E3
  5
16E3
331
1637
  5
1637
331
1633
  5
1633
331
1676
  5
1676
331
16B5
  5
16B5
331
162F
  5
162F
331
15B8
  5
15B8
331
1672
  5
1672
331
16B1
  5
16B1
331
1442
  5
1442
331
162B
  5
162B
331
1485
  5
1485
331
16AD
  5
16AD
331
16A9
  5
16A9
331
15A8
  5
15A8
331
1F7C
  5
1F7E
331
16DF
  5
16DF
331
1F39
  5
1F3B
331
1F78
  5
1F7A
331
16DB
  5
16DB
331
16D7
  5
16D7
331
1F35
  5
1F37
331
1F74
  5
1F76
331
1F31
  5
1F33
331
1F70
  5
1F72
331
1627
  5
1627
331
15A4
  5
15A4
331
147D
  5
147D
331
1436
  5
1436
331
1666
  5
1666
331
16A5
  5
16A5
331
16A1
  5
16A1
331
142E
  5
142E
331
169D
  5
169D
331
160B
  5
160B
331
165A
  5
165A
331
1699
  5
1699
331
1598
  5
1598
331
1716
  5
1719
331
1F6C
  5
1F6E
331
1F2D
  5
1F2F
331
1F68
  5
1F6A
331
170E
  5
170E
331
1F64
  5
1F66
331
1F60
  5
1F62
331
1607
  5
1607
331
1603
  5
1603
331
1691
  5
1691
331
164A
  5
164A
331
1422
  5
1422
331
1594
  5
1594
331
16CC
  5
16CC
331
15FB
  5
15FB
331
1590
  5
1590
331
1689
  5
1689
331
16C8
  5
16C8
331
16FE
  5
16FE
331
175D
  5
1761
331
1F58
  5
1F5A
331
16FA
  5
16FA
331
1759
  5
175D
331
16F6
  5
16F6
331
1F54
  5
1F56
331
16F2
  5
16F2
331
1646
  5
1646
331
1642
  5
1642
331
158C
  5
158C
331
1455
  5
1455
331
1685
  5
1685
331
16C4
  5
16C4
331
163E
  5
163E
331
1681
  5
1681
331
16C0
  5
16C0
331
15C3
  5
15C3
331
14A4
  5
14A4
331
144D
  5
144D
331
167D
  5
167D
331
16BC
  5
16BC
331
1679
  5
1679
331
16B8
  5
16B8
331
16EE
  5
16EE
331
1F87
  5
1F89
331
16EA
  5
16EA
331
1F48
  5
1F4A
331
16E6
  5
16E6
331
1F44
  5
1F46
331
1F83
  5
1F85
331
1F40
  5
1F42
331
16E2
  5
16E2
331
15BF
  5
15BF
331
1636
  5
1636
331
1632
  5
1632
331
15BB
  5
15BB
331
1445
  5
1445
331
1675
  5
1675
331
16B4
  5
16B4
331
162E
  5
162E
331
1671
  5
1671
331
16B0
  5
16B0
331
1484
  5
1484
331
166D
  5
166D
331
143D
  5
143D
331
16AC
  5
16AC
331
162A
  5
162A
331
1439
  5
1439
331
16A8
  5
16A8
331
1F7F
  5
1F81
331
1F3C
  5
1F3E
331
1F7B
  5
1F7D
331
16DE
  5
16DE
331
1F77
  5
1F79
331
16DA
  5
16DA
331
1F38
  5
1F3A
331
16D6
  5
16D6
331
1780
  5
1781
331
1F34
  5
1F36
331
1F73
  5
1F75
331
1F30
  5
1F32
331
16D2
  5
16D2
331
1626
  5
1626
331
1435
  5
1435
331
147C
  5
147C
331
16A4
  5
16A4
331
16A0
  5
16A0
331
142D
  5
142D
331
146C
  5
146C
331
169C
  5
169C
331
159B
  5
159B
331
160A
  5
160A
331
1698
  5
1698
331
1F6F
  5
1F71
331
1715
  5
1718
331
1F6B
  5
1F6D
331
1F2C
  5
1F2E
331
1711
  5
1712
331
1F67
  5
1F69
331
170D
  5
170D
331
1F63
  5
1F65
331
1464
  5
1464
331
1602
  5
1602
331
15FE
  5
15FE
331
16CF
  5
16CF
331
1593
  5
1593
331
145C
  5
145C
331
1649
  5
1649
331
1688
  5
1688
331
1F5F
  5
1F61
331
1F5B
  5
1F5D
331
16FD
  5
16FD
331
16F9
  5
16F9
331
1758
  5
175B
331
1F57
  5
1F59
331
16F5
  5
16F5
331
1754
  5
1757
331
1F53
  5
1F55
331
16F1
  5
16F1
331
16C7
  5
16C7
331
141D
  5
141D
331
1645
  5
1645
331
158F
  5
158F
331
1641
  5
1641
331
158B
  5
158B
331
1454
  5
1454
331
1684
  5
1684
331
163D
  5
163D
331
1680
  5
1680
331
16BF
  5
16BF
331
1450
  5
1450
331
167C
  5
167C
331
16BB
  5
16BB
331
1639
  5
1639
331
1678
  5
1678
331
1F8A
  5
175C
331
16ED
  5
16ED
331
16E9
  5
16E9
331
1F47
  5
1F49
331
1F86
  5
1F88
331
16E5
  5
16E5
331
172C
  5
172F
331
1F43
  5
1F45
331
1F82
  5
1F84
331
16E1
  5
16E1
331
16B7
  5
16B7
331
149F
  5
149F
331
1635
  5
1635
331
1631
  5
1631
331
1444
  5
1444
331
1674
  5
1674
331
16B3
  5
16B3
331
162D
  5
162D
331
1670
  5
1670
331
16AF
  5
16AF
331
143C
  5
143C
331
16AB
  5
16AB
331
1629
  5
1629
331
1F3F
  5
1F41
331
1F3B
  5
1F3D
331
1724
  5
1727
331
1F7A
  5
1F7C
331
16DD
  5
16DD
331
1720
  5
1723
331
16D9
  5
16D9
331
1F37
  5
1F39
331
1F76
  5
1F78
331
16D5
  5
16D5
331
177F
  5
1780
331
1F33
  5
1F35
331
1F72
  5
1F74
331
1718
  5
171B
331
16D1
  5
16D1
331
16A7
  5
16A7
331
15A6
  5
15A6
331
1625
  5
1625
331
147B
  5
147B
331
1664
  5
1664
331
16A3
  5
16A3
331
160D
  5
160D
331
169F
  5
169F
331
1430
  5
1430
331
1428
  5
1428
  0
XRECORD
  5
23A2
102
{ACAD_REACTORS
330
23A1
102
}
330
23A1
100
AcDbXrecord
280
     1
 40
1.570796326794896
  0
LAYOUT
  5
1E
102
{ACAD_XDICTIONARY
360
23A3
102
}
102
{ACAD_REACTORS
330
1A
102
}
330
1A
100
AcDbPlotSettings
  1

  2
Ploter HP500
  4

  6

 40
0.0
 41
0.0
 42
0.0
 43
0.0
 44
0.0
 45
0.0
 46
0.0
 47
0.0
 48
0.0
 49
0.0
140
0.0
141
0.0
142
1.0
143
1.0
 70
   688
 72
     0
 73
     0
 74
     5
  7
sanindusa.ctb
 75
    16
147
1.0
148
0.0
149
0.0
100
AcDbLayout
  1
Layout1
 70
     1
 71
     1
 10
0.0
 20
0.0
 11
420.0
 21
297.0
 12
0.0
 22
0.0
 32
0.0
 14
1.000000000000000E+20
 24
1.000000000000000E+20
 34
1.000000000000000E+20
 15
-1.000000000000000E+20
 25
-1.000000000000000E+20
 35
-1.000000000000000E+20
146
0.0
 13
0.0
 23
0.0
 33
0.0
 16
1.0
 26
0.0
 36
0.0
 17
0.0
 27
1.0
 37
0.0
 76
     0
330
1B
  0
LAYOUT
  5
26
102
{ACAD_XDICTIONARY
360
23A7
102
}
102
{ACAD_REACTORS
330
1A
102
}
330
1A
100
AcDbPlotSettings
  1

  2
Ploter HP500
  4

  6

 40
0.0
 41
0.0
 42
0.0
 43
0.0
 44
0.0
 45
0.0
 46
0.0
 47
0.0
 48
0.0
 49
0.0
140
0.0
141
0.0
142
1.0
143
1.0
 70
   688
 72
     0
 73
     0
 74
     5
  7
sanindusa.ctb
 75
    16
147
1.0
148
0.0
149
0.0
100
AcDbLayout
  1
Layout2
 70
     1
 71
     2
 10
0.0
 20
0.0
 11
12.0
 21
9.0
 12
0.0
 22
0.0
 32
0.0
 14
0.0
 24
0.0
 34
0.0
 15
0.0
 25
0.0
 35
0.0
146
0.0
 13
0.0
 23
0.0
 33
0.0
 16
1.0
 26
0.0
 36
0.0
 17
0.0
 27
1.0
 37
0.0
 76
     0
330
23
  0
LAYOUT
  5
22
102
{ACAD_XDICTIONARY
360
23A5
102
}
102
{ACAD_REACTORS
330
1A
102
}
330
1A
100
AcDbPlotSettings
  1

  2
Ploter HP500
  4
User268
  6

 40
4.995333194732666
 41
16.97565841674804
 42
4.995330810546875
 43
16.97567749023437
 44
209.9733276367187
 45
296.9259948730469
 46
0.0
 47
0.0
 48
0.0
 49
0.0
140
0.0
141
0.0
142
1.0
143
1.0
 70
 11952
 72
     1
 73
     1
 74
     0
  7
sanindusa.ctb
 75
     0
147
1.0
148
-427.5957866592534
149
7.362384574453926
100
AcDbLayout
  1
Model
 70
     1
 71
     0
 10
0.0
 20
0.0
 11
12.0
 21
9.0
 12
0.0
 22
0.0
 32
0.0
 14
0.0
 24
0.0
 34
0.0
 15
0.0
 25
0.0
 35
0.0
146
0.0
 13
0.0
 23
0.0
 33
0.0
 16
1.0
 26
0.0
 36
0.0
 17
0.0
 27
1.0
 37
0.0
 76
     0
330
1F
331
1068
  0
MATERIAL
  5
1072
102
{ACAD_XDICTIONARY
360
1073
102
}
102
{ACAD_REACTORS
330
EE5
102
}
330
EE5
100
AcDbMaterial
  1
ByBlock
 72
     0
 43
0.0008202099737533
 43
0.0
 43
0.0
 43
0.0
 43
0.0
 43
0.0008202099737533
 43
0.0
 43
0.0
 43
0.0
 43
0.0
 43
1.0
 43
0.0
 43
0.0
 43
0.0
 43
0.0
 43
1.0
 77
     0
 47
0.0008202099737533
 47
0.0
 47
0.0
 47
0.0
 47
0.0
 47
0.0008202099737533
 47
0.0
 47
0.0
 47
0.0
 47
0.0
 47
1.0
 47
0.0
 47
0.0
 47
0.0
 47
0.0
 47
1.0
171
     0
 49
0.0008202099737533
 49
0.0
 49
0.0
 49
0.0
 49
0.0
 49
0.0008202099737533
 49
0.0
 49
0.0
 49
0.0
 49
0.0
 49
1.0
 49
0.0
 49
0.0
 49
0.0
 49
0.0
 49
1.0
175
     0
142
0.0008202099737533
142
0.0
142
0.0
142
0.0
142
0.0
142
0.0008202099737533
142
0.0
142
0.0
142
0.0
142
0.0
142
1.0
142
0.0
142
0.0
142
0.0
142
0.0
142
1.0
179
     0
144
0.0008202099737533
144
0.0
144
0.0
144
0.0
144
0.0
144
0.0008202099737533
144
0.0
144
0.0
144
0.0
144
0.0
144
1.0
144
0.0
144
0.0
144
0.0
144
0.0
144
1.0
147
0.0008202099737533
147
0.0
147
0.0
147
0.0
147
0.0
147
0.0008202099737533
147
0.0
147
0.0
147
0.0
147
0.0
147
1.0
147
0.0
147
0.0
147
0.0
147
0.0
147
1.0
  0
MATERIAL
  5
106A
102
{ACAD_XDICTIONARY
360
106B
102
}
102
{ACAD_REACTORS
330
EE5
102
}
330
EE5
100
AcDbMaterial
  1
ByLayer
 72
     0
 43
0.0008202099737533
 43
0.0
 43
0.0
 43
0.0
 43
0.0
 43
0.0008202099737533
 43
0.0
 43
0.0
 43
0.0
 43
0.0
 43
1.0
 43
0.0
 43
0.0
 43
0.0
 43
0.0
 43
1.0
 77
     0
 47
0.0008202099737533
 47
0.0
 47
0.0
 47
0.0
 47
0.0
 47
0.0008202099737533
 47
0.0
 47
0.0
 47
0.0
 47
0.0
 47
1.0
 47
0.0
 47
0.0
 47
0.0
 47
0.0
 47
1.0
171
     0
 49
0.0008202099737533
 49
0.0
 49
0.0
 49
0.0
 49
0.0
 49
0.0008202099737533
 49
0.0
 49
0.0
 49
0.0
 49
0.0
 49
1.0
 49
0.0
 49
0.0
 49
0.0
 49
0.0
 49
1.0
175
     0
142
0.0008202099737533
142
0.0
142
0.0
142
0.0
142
0.0
142
0.0008202099737533
142
0.0
142
0.0
142
0.0
142
0.0
142
1.0
142
0.0
142
0.0
142
0.0
142
0.0
142
1.0
179
     0
144
0.0008202099737533
144
0.0
144
0.0
144
0.0
144
0.0
144
0.0008202099737533
144
0.0
144
0.0
144
0.0
144
0.0
144
1.0
144
0.0
144
0.0
144
0.0
144
0.0
144
1.0
147
0.0008202099737533
147
0.0
147
0.0
147
0.0
147
0.0
147
0.0008202099737533
147
0.0
147
0.0
147
0.0
147
0.0
147
1.0
147
0.0
147
0.0
147
0.0
147
0.0
147
1.0
  0
MATERIAL
  5
107A
102
{ACAD_XDICTIONARY
360
107B
102
}
102
{ACAD_REACTORS
330
EE5
102
}
330
EE5
100
AcDbMaterial
  1
Global
 72
     0
 43
0.0008202099737533
 43
0.0
 43
0.0
 43
0.0
 43
0.0
 43
0.0008202099737533
 43
0.0
 43
0.0
 43
0.0
 43
0.0
 43
1.0
 43
0.0
 43
0.0
 43
0.0
 43
0.0
 43
1.0
 77
     0
 47
0.0008202099737533
 47
0.0
 47
0.0
 47
0.0
 47
0.0
 47
0.0008202099737533
 47
0.0
 47
0.0
 47
0.0
 47
0.0
 47
1.0
 47
0.0
 47
0.0
 47
0.0
 47
0.0
 47
1.0
171
     0
 49
0.0008202099737533
 49
0.0
 49
0.0
 49
0.0
 49
0.0
 49
0.0008202099737533
 49
0.0
 49
0.0
 49
0.0
 49
0.0
 49
1.0
 49
0.0
 49
0.0
 49
0.0
 49
0.0
 49
1.0
175
     0
142
0.0008202099737533
142
0.0
142
0.0
142
0.0
142
0.0
142
0.0008202099737533
142
0.0
142
0.0
142
0.0
142
0.0
142
1.0
142
0.0
142
0.0
142
0.0
142
0.0
142
1.0
179
     0
144
0.0008202099737533
144
0.0
144
0.0
144
0.0
144
0.0
144
0.0008202099737533
144
0.0
144
0.0
144
0.0
144
0.0
144
1.0
144
0.0
144
0.0
144
0.0
144
0.0
144
1.0
147
0.0008202099737533
147
0.0
147
0.0
147
0.0
147
0.0
147
0.0008202099737533
147
0.0
147
0.0
147
0.0
147
0.0
147
1.0
147
0.0
147
0.0
147
0.0
147
0.0
147
1.0
  0
MLEADERSTYLE
  5
10A9
102
{ACAD_REACTORS
330
10A8
102
}
330
10A8
100
AcDbMLeaderStyle
170
     2
171
     1
172
     0
 90
        2
 40
0.0
 41
0.0
173
     1
 91
-1056964608
340
14
 92
       -2
290
     1
 42
2.0
291
     1
 43
0.36
  3
Standard
 44
4.0
300

342
11
174
     1
178
     6
175
     1
176
     0
 93
-1056964608
 45
4.0
292
     0
297
     0
 46
4.0
 94
-1056964608
 47
1.0
 49
1.0
140
1.0
293
     1
141
0.0
294
     1
177
     0
142
1.0
295
     0
296
     0
143
0.125
1001
ACAD_MLEADERVER
1070
     2
  0
MLINESTYLE
  5
18
102
{ACAD_REACTORS
330
17
102
}
330
17
100
AcDbMlineStyle
  2
STANDARD
 70
     0
  3

 62
   256
 51
90.0
 52
90.0
 71
     2
 49
0.5
 62
   256
  6
BYLAYER
 49
-0.5
 62
   256
  6
BYLAYER
  0
ACDBPLACEHOLDER
  5
F
102
{ACAD_REACTORS
330
E
102
}
330
E
  0
SCALE
  5
1097
102
{ACAD_REACTORS
330
1096
102
}
330
1096
100
AcDbScale
 70
     0
300
1:1
140
1.0
141
1.0
290
     1
  0
SCALE
  5
1098
102
{ACAD_REACTORS
330
1096
102
}
330
1096
100
AcDbScale
 70
     0
300
1:2
140
1.0
141
2.0
290
     0
  0
SCALE
  5
1099
102
{ACAD_REACTORS
330
1096
102
}
330
1096
100
AcDbScale
 70
     0
300
1:4
140
1.0
141
4.0
290
     0
  0
SCALE
  5
109A
102
{ACAD_REACTORS
330
1096
102
}
330
1096
100
AcDbScale
 70
     0
300
1:5
140
1.0
141
5.0
290
     0
  0
SCALE
  5
109B
102
{ACAD_REACTORS
330
1096
102
}
330
1096
100
AcDbScale
 70
     0
300
1:8
140
1.0
141
8.0
290
     0
  0
SCALE
  5
109C
102
{ACAD_REACTORS
330
1096
102
}
330
1096
100
AcDbScale
 70
     0
300
1:10
140
1.0
141
10.0
290
     0
  0
SCALE
  5
109D
102
{ACAD_REACTORS
330
1096
102
}
330
1096
100
AcDbScale
 70
     0
300
1:16
140
1.0
141
16.0
290
     0
  0
SCALE
  5
109E
102
{ACAD_REACTORS
330
1096
102
}
330
1096
100
AcDbScale
 70
     0
300
1:20
140
1.0
141
20.0
290
     0
  0
SCALE
  5
109F
102
{ACAD_REACTORS
330
1096
102
}
330
1096
100
AcDbScale
 70
     0
300
1:30
140
1.0
141
30.0
290
     0
  0
SCALE
  5
10A0
102
{ACAD_REACTORS
330
1096
102
}
330
1096
100
AcDbScale
 70
     0
300
1:40
140
1.0
141
40.0
290
     0
  0
SCALE
  5
10A1
102
{ACAD_REACTORS
330
1096
102
}
330
1096
100
AcDbScale
 70
     0
300
1:50
140
1.0
141
50.0
290
     0
  0
SCALE
  5
10A2
102
{ACAD_REACTORS
330
1096
102
}
330
1096
100
AcDbScale
 70
     0
300
1:100
140
1.0
141
100.0
290
     0
  0
SCALE
  5
10A3
102
{ACAD_REACTORS
330
1096
102
}
330
1096
100
AcDbScale
 70
     0
300
2:1
140
2.0
141
1.0
290
     0
  0
SCALE
  5
10A4
102
{ACAD_REACTORS
330
1096
102
}
330
1096
100
AcDbScale
 70
     0
300
4:1
140
4.0
141
1.0
290
     0
  0
SCALE
  5
10A5
102
{ACAD_REACTORS
330
1096
102
}
330
1096
100
AcDbScale
 70
     0
300
8:1
140
8.0
141
1.0
290
     0
  0
SCALE
  5
10A6
102
{ACAD_REACTORS
330
1096
102
}
330
1096
100
AcDbScale
 70
     0
300
10:1
140
10.0
141
1.0
290
     0
  0
SCALE
  5
10A7
102
{ACAD_REACTORS
330
1096
102
}
330
1096
100
AcDbScale
 70
     0
300
100:1
140
100.0
141
1.0
290
     0
  0
TABLESTYLE
  5
EE8
102
{ACAD_XDICTIONARY
360
219C
102
}
102
{ACAD_REACTORS
330
EE7
102
}
330
EE7
100
AcDbTableStyle
  3
Standard
 70
     0
 71
     0
 40
1.5
 41
1.5
280
     0
281
     0
  7
Standard
140
4.5
170
     2
 62
     0
 63
     7
283
     0
274
    -2
284
     1
 64
     0
275
    -2
285
     1
 65
     0
276
    -2
286
     1
 66
     0
277
    -2
287
     1
 67
     0
278
    -2
288
     1
 68
     0
279
    -2
289
     1
 69
     0
  7
Standard
140
6.0
170
     5
 62
     0
 63
     7
283
     0
274
    -2
284
     1
 64
     0
275
    -2
285
     1
 65
     0
276
    -2
286
     1
 66
     0
277
    -2
287
     1
 67
     0
278
    -2
288
     1
 68
     0
279
    -2
289
     1
 69
     0
  7
Standard
140
4.5
170
     5
 62
     0
 63
     7
283
     0
274
    -2
284
     1
 64
     0
275
    -2
285
     1
 65
     0
276
    -2
286
     1
 66
     0
277
    -2
287
     1
 67
     0
278
    -2
288
     1
 68
     0
279
    -2
289
     1
 69
     0
  0
VISUALSTYLE
  5
1088
102
{ACAD_XDICTIONARY
360
23B7
102
}
102
{ACAD_REACTORS
330
1082
102
}
330
1082
100
AcDbVisualStyle
  2
2dWireframe
 70
     4
 71
     0
 72
     2
 73
     0
 90
        0
 40
-0.6
 41
-30.0
 62
     5
 63
     7
 74
     1
 91
        4
 64
     7
 65
   257
 75
     1
175
     1
 42
1.0
 92
        0
 66
   257
 43
1.0
 76
     1
 77
     6
 78
     2
 67
     7
 79
     5
170
     0
171
     0
290
     0
174
     0
 93
        1
 44
0.0
173
     0
291
     0
 45
0.0
1001
ACAD
1000
AcDbSavedByObjectVersion
1070
     0
  0
VISUALSTYLE
  5
108A
102
{ACAD_XDICTIONARY
360
23BB
102
}
102
{ACAD_REACTORS
330
1082
102
}
330
1082
100
AcDbVisualStyle
  2
3D Hidden
 70
     6
 71
     1
 72
     2
 73
     2
 90
        0
 40
-0.6
 41
-30.0
 62
     5
 63
     7
 74
     2
 91
        2
 64
     7
 65
   257
 75
     2
175
     1
 42
179.0
 92
        0
 66
   257
 43
1.0
 76
     1
 77
     6
 78
     2
 67
     7
 79
     3
170
     0
171
     0
290
     0
174
     0
 93
        1
 44
0.0
173
     0
291
     0
 45
0.0
1001
ACAD
1000
AcDbSavedByObjectVersion
1070
     0
  0
VISUALSTYLE
  5
1089
102
{ACAD_XDICTIONARY
360
23B9
102
}
102
{ACAD_REACTORS
330
1082
102
}
330
1082
100
AcDbVisualStyle
  2
3dWireframe
 70
     5
 71
     0
 72
     2
 73
     0
 90
        0
 40
-0.6
 41
-30.0
 62
     5
 63
     7
 74
     1
 91
        4
 64
     7
 65
   257
 75
     1
175
     1
 42
1.0
 92
        0
 66
   257
 43
1.0
 76
     1
 77
     6
 78
     2
 67
     7
 79
     5
170
     0
171
     0
290
     0
174
     0
 93
        1
 44
0.0
173
     0
291
     0
 45
0.0
1001
ACAD
1000
AcDbSavedByObjectVersion
1070
     0
  0
VISUALSTYLE
  5
1087
102
{ACAD_XDICTIONARY
360
23B5
102
}
102
{ACAD_REACTORS
330
1082
102
}
330
1082
100
AcDbVisualStyle
  2
Basic
 70
     7
 71
     1
 72
     0
 73
     1
 90
        0
 40
-0.6
 41
-30.0
 62
     5
 63
     7
 74
     0
 91
        4
 64
     7
 65
   257
 75
     1
175
     1
 42
1.0
 92
        8
 66
     7
 43
1.0
 76
     1
 77
     6
 78
     2
 67
     7
 79
     5
170
     0
171
     0
290
     0
174
     0
 93
        1
 44
0.0
173
     0
291
     1
 45
0.0
1001
ACAD
1000
AcDbSavedByObjectVersion
1070
     0
  0
VISUALSTYLE
  5
108E
102
{ACAD_XDICTIONARY
360
23C3
102
}
102
{ACAD_REACTORS
330
1082
102
}
330
1082
100
AcDbVisualStyle
  2
Brighten
 70
    12
 71
     2
 72
     2
 73
     0
 90
        0
 40
-0.6
 41
-30.0
 62
     5
 63
     7
 74
     1
 91
        4
 64
     7
 65
   257
 75
     1
175
     1
 42
1.0
 92
        8
 66
     7
 43
1.0
 76
     1
 77
     6
 78
     2
 67
     7
 79
     5
170
     0
171
     0
290
     0
174
     0
 93
        1
 44
50.0
173
     0
291
     1
 45
0.0
1001
ACAD
1000
AcDbSavedByObjectVersion
1070
     0
  0
VISUALSTYLE
  5
1092
102
{ACAD_XDICTIONARY
360
23CB
102
}
102
{ACAD_REACTORS
330
1082
102
}
330
1082
100
AcDbVisualStyle
  2
ColorChange
 70
    16
 71
     2
 72
     2
 73
     3
 90
        0
 40
-0.6
 41
-30.0
 62
     5
 63
     8
 74
     1
 91
        4
 64
     7
 65
   257
 75
     1
175
     1
 42
1.0
 92
        8
 66
     8
 43
1.0
 76
     1
 77
     6
 78
     2
 67
     7
 79
     5
170
     0
171
     0
290
     0
174
     0
 93
        1
 44
0.0
173
     0
291
     1
 45
0.0
1001
ACAD
1000
AcDbSavedByObjectVersion
1070
     0
  0
VISUALSTYLE
  5
108B
102
{ACAD_XDICTIONARY
360
23BD
102
}
102
{ACAD_REACTORS
330
1082
102
}
330
1082
100
AcDbVisualStyle
  2
Conceptual
 70
     9
 71
     3
 72
     2
 73
     0
 90
        0
 40
-0.6
 41
-30.0
 62
     5
 63
     7
 74
     2
 91
        2
 64
     7
 65
   257
 75
     1
175
     1
 42
179.0
 92
        8
 66
     7
 43
1.0
 76
     1
 77
     6
 78
     2
 67
     7
 79
     3
170
     0
171
     0
290
     0
174
     0
 93
        1
 44
0.0
173
     0
291
     0
 45
0.0
1001
ACAD
1000
AcDbSavedByObjectVersion
1070
     0
  0
VISUALSTYLE
  5
108D
102
{ACAD_XDICTIONARY
360
23C1
102
}
102
{ACAD_REACTORS
330
1082
102
}
330
1082
100
AcDbVisualStyle
  2
Dim
 70
    11
 71
     2
 72
     2
 73
     0
 90
        0
 40
-0.6
 41
-30.0
 62
     5
 63
     7
 74
     1
 91
        4
 64
     7
 65
   257
 75
     1
175
     1
 42
1.0
 92
        8
 66
     7
 43
1.0
 76
     1
 77
     6
 78
     2
 67
     7
 79
     5
170
     0
171
     0
290
     0
174
     0
 93
        1
 44
-50.0
173
     0
291
     1
 45
0.0
1001
ACAD
1000
AcDbSavedByObjectVersion
1070
     0
  0
VISUALSTYLE
  5
1095
102
{ACAD_XDICTIONARY
360
23D1
102
}
102
{ACAD_REACTORS
330
1082
102
}
330
1082
100
AcDbVisualStyle
  2
EdgeColorOff
 70
    22
 71
     2
 72
     2
 73
     0
 90
        0
 40
-0.6
 41
-30.0
 62
     5
 63
     7
 74
     1
 91
        4
 64
     7
 65
   257
 75
     1
175
     1
 42
1.0
 92
        8
 66
     7
 43
1.0
 76
     1
 77
     6
 78
     2
 67
     7
 79
     5
170
     0
171
     0
290
     0
174
     0
 93
        1
 44
0.0
173
     0
291
     1
 45
0.0
1001
ACAD
1000
AcDbSavedByObjectVersion
1070
     0
  0
VISUALSTYLE
  5
1091
102
{ACAD_XDICTIONARY
360
23C9
102
}
102
{ACAD_REACTORS
330
1082
102
}
330
1082
100
AcDbVisualStyle
  2
Facepattern
 70
    15
 71
     2
 72
     2
 73
     0
 90
        0
 40
-0.6
 41
-30.0
 62
     5
 63
     7
 74
     1
 91
        4
 64
     7
 65
   257
 75
     1
175
     1
 42
1.0
 92
        8
 66
     7
 43
1.0
 76
     1
 77
     6
 78
     2
 67
     7
 79
     5
170
     0
171
     0
290
     0
174
     0
 93
        1
 44
0.0
173
     0
291
     1
 45
0.0
1001
ACAD
1000
AcDbSavedByObjectVersion
1070
     0
  0
VISUALSTYLE
  5
1083
102
{ACAD_XDICTIONARY
360
23AD
102
}
102
{ACAD_REACTORS
330
1082
102
}
330
1082
100
AcDbVisualStyle
  2
Flat
 70
     0
 71
     2
 72
     1
 73
     1
 90
        2
 40
-0.6
 41
30.0
 62
     5
 63
     7
 74
     0
 91
        4
 64
     7
 65
   257
 75
     1
175
     1
 42
1.0
 92
        8
 66
     7
 43
1.0
 76
     1
 77
     6
 78
     2
 67
     7
 79
     5
170
     0
171
     0
290
     0
174
     0
 93
       13
 44
0.0
173
     0
291
     1
 45
0.0
1001
ACAD
1000
AcDbSavedByObjectVersion
1070
     0
  0
VISUALSTYLE
  5
1084
102
{ACAD_XDICTIONARY
360
23AF
102
}
102
{ACAD_REACTORS
330
1082
102
}
330
1082
100
AcDbVisualStyle
  2
FlatWithEdges
 70
     1
 71
     2
 72
     1
 73
     1
 90
        2
 40
-0.6
 41
30.0
 62
     5
 63
     7
 74
     1
 91
        4
 64
     7
 65
   257
 75
     1
175
     1
 42
1.0
 92
        0
 66
   257
 43
1.0
 76
     1
 77
     6
 78
     2
 67
     7
 79
     5
170
     0
171
     0
290
     0
174
     0
 93
       13
 44
0.0
173
     0
291
     1
 45
0.0
1001
ACAD
1000
AcDbSavedByObjectVersion
1070
     0
  0
VISUALSTYLE
  5
1085
102
{ACAD_XDICTIONARY
360
23B1
102
}
102
{ACAD_REACTORS
330
1082
102
}
330
1082
100
AcDbVisualStyle
  2
Gouraud
 70
     2
 71
     2
 72
     2
 73
     1
 90
        2
 40
-0.6
 41
30.0
 62
     5
 63
     7
 74
     0
 91
        4
 64
     7
 65
   257
 75
     1
175
     1
 42
1.0
 92
        0
 66
     7
 43
1.0
 76
     1
 77
     6
 78
     2
 67
     7
 79
     5
170
     0
171
     0
290
     0
174
     0
 93
       13
 44
0.0
173
     0
291
     1
 45
0.0
1001
ACAD
1000
AcDbSavedByObjectVersion
1070
     0
  0
VISUALSTYLE
  5
1086
102
{ACAD_XDICTIONARY
360
23B3
102
}
102
{ACAD_REACTORS
330
1082
102
}
330
1082
100
AcDbVisualStyle
  2
GouraudWithEdges
 70
     3
 71
     2
 72
     2
 73
     1
 90
        2
 40
-0.6
 41
30.0
 62
     5
 63
     7
 74
     1
 91
        4
 64
     7
 65
   257
 75
     1
175
     1
 42
1.0
 92
        0
 66
   257
 43
1.0
 76
     1
 77
     6
 78
     2
 67
     7
 79
     5
170
     0
171
     0
290
     0
174
     0
 93
       13
 44
0.0
173
     0
291
     1
 45
0.0
1001
ACAD
1000
AcDbSavedByObjectVersion
1070
     0
  0
VISUALSTYLE
  5
1093
102
{ACAD_XDICTIONARY
360
23CD
102
}
102
{ACAD_REACTORS
330
1082
102
}
330
1082
100
AcDbVisualStyle
  2
JitterOff
 70
    20
 71
     2
 72
     2
 73
     0
 90
        0
 40
-0.6
 41
-30.0
 62
     5
 63
     7
 74
     1
 91
        4
 64
     7
 65
   257
 75
     1
175
     1
 42
1.0
 92
       10
 66
     7
 43
1.0
 76
     1
 77
     6
 78
     2
 67
     7
 79
     5
170
     0
171
     0
290
     0
174
     0
 93
        1
 44
0.0
173
     0
291
     1
 45
0.0
1001
ACAD
1000
AcDbSavedByObjectVersion
1070
     0
  0
VISUALSTYLE
  5
1090
102
{ACAD_XDICTIONARY
360
23C7
102
}
102
{ACAD_REACTORS
330
1082
102
}
330
1082
100
AcDbVisualStyle
  2
Linepattern
 70
    14
 71
     2
 72
     2
 73
     0
 90
        0
 40
-0.6
 41
-30.0
 62
     5
 63
     7
 74
     1
 91
        4
 64
     7
 65
   257
 75
     7
175
     7
 42
1.0
 92
        8
 66
     7
 43
1.0
 76
     1
 77
     6
 78
     2
 67
     7
 79
     5
170
     0
171
     0
290
     0
174
     0
 93
        1
 44
0.0
173
     0
291
     1
 45
0.0
1001
ACAD
1000
AcDbSavedByObjectVersion
1070
     0
  0
VISUALSTYLE
  5
1094
102
{ACAD_XDICTIONARY
360
23CF
102
}
102
{ACAD_REACTORS
330
1082
102
}
330
1082
100
AcDbVisualStyle
  2
OverhangOff
 70
    21
 71
     2
 72
     2
 73
     0
 90
        0
 40
-0.6
 41
-30.0
 62
     5
 63
     7
 74
     1
 91
        4
 64
     7
 65
   257
 75
     1
175
     1
 42
1.0
 92
        9
 66
     7
 43
1.0
 76
     1
 77
     6
 78
     2
 67
     7
 79
     5
170
     0
171
     0
290
     0
174
     0
 93
        1
 44
0.0
173
     0
291
     1
 45
0.0
1001
ACAD
1000
AcDbSavedByObjectVersion
1070
     0
  0
VISUALSTYLE
  5
108C
102
{ACAD_XDICTIONARY
360
23BF
102
}
102
{ACAD_REACTORS
330
1082
102
}
330
1082
100
AcDbVisualStyle
  2
Realistic
 70
     8
 71
     2
 72
     2
 73
     0
 90
        0
 40
-0.6
 41
-30.0
 62
     5
 63
     7
 74
     1
 91
        0
 64
     7
 65
   257
 75
     1
175
     1
 42
1.0
 92
        8
 66
     8
 43
1.0
 76
     1
 77
     6
 78
     2
 67
     7
 79
     5
170
     0
171
     0
290
     0
174
     0
 93
       13
 44
0.0
173
     0
291
     0
 45
0.0
1001
ACAD
1000
AcDbSavedByObjectVersion
1070
     0
  0
VISUALSTYLE
  5
108F
102
{ACAD_XDICTIONARY
360
23C5
102
}
102
{ACAD_REACTORS
330
1082
102
}
330
1082
100
AcDbVisualStyle
  2
Thicken
 70
    13
 71
     2
 72
     2
 73
     0
 90
        0
 40
-0.6
 41
-30.0
 62
     5
 63
     7
 74
     1
 91
        4
 64
     7
 65
   257
 75
     1
175
     1
 42
1.0
 92
       12
 66
     7
 43
1.0
 76
     1
 77
     6
 78
     2
 67
     7
 79
     5
170
     0
171
     0
290
     0
174
     0
 93
        1
 44
0.0
173
     0
291
     1
 45
0.0
1001
ACAD
1000
AcDbSavedByObjectVersion
1070
     0
  0
DICTIONARYVAR
  5
21DA
102
{ACAD_REACTORS
330
3D
102
}
330
3D
100
DictionaryVariables
280
     0
  1
1:1
  0
DICTIONARYVAR
  5
21D9
102
{ACAD_REACTORS
330
3D
102
}
330
3D
100
DictionaryVariables
280
     0
  1
STANDARD
  0
DICTIONARYVAR
  5
1049
102
{ACAD_REACTORS
330
3D
102
}
330
3D
100
DictionaryVariables
280
     0
  1
STANDARD
  0
DICTIONARYVAR
  5
3F
102
{ACAD_REACTORS
330
3D
102
}
330
3D
100
DictionaryVariables
280
     0
  1
2
  0
DICTIONARYVAR
  5
3E
102
{ACAD_REACTORS
330
3D
102
}
330
3D
100
DictionaryVariables
280
     0
  1
1
  0
DICTIONARYVAR
  5
21DC
102
{ACAD_REACTORS
330
3D
102
}
330
3D
100
DictionaryVariables
280
     0
  1
0
  0
DICTIONARYVAR
  5
21DB
102
{ACAD_REACTORS
330
3D
102
}
330
3D
100
DictionaryVariables
280
     0
  1
127
  0
DICTIONARYVAR
  5
239D
102
{ACAD_REACTORS
330
3D
102
}
330
3D
100
DictionaryVariables
280
     0
  1
2
  0
XRECORD
  5
1067
102
{ACAD_REACTORS
330
1066
102
}
330
1066
100
AcDbXrecord
280
     1
  0
DICTIONARY
  5
23A3
330
1E
100
AcDbDictionary
280
     1
281
     1
  3
ACAD_XREC_ROUNDTRIP
360
23A4
  0
DICTIONARY
  5
23A7
330
26
100
AcDbDictionary
280
     1
281
     1
  3
ACAD_XREC_ROUNDTRIP
360
23A8
  0
DICTIONARY
  5
23A5
330
22
100
AcDbDictionary
280
     1
281
     1
  3
ACAD_XREC_ROUNDTRIP
360
23A6
  0
DICTIONARY
  5
1073
330
1072
100
AcDbDictionary
280
     1
281
     1
  3
ACAD_XREC_ROUNDTRIP
360
23AB
  3
BUMPTILE
360
1075
  3
DIFFUSETILE
360
1074
  3
OPACITYTILE
360
1078
  3
REFLECTIONTILE
360
1077
  3
REFRACTIONTILE
360
1079
  3
SPECULARTILE
360
1076
  0
DICTIONARY
  5
106B
330
106A
100
AcDbDictionary
280
     1
281
     1
  3
ACAD_XREC_ROUNDTRIP
360
23AA
  3
BUMPTILE
360
106D
  3
DIFFUSETILE
360
106C
  3
OPACITYTILE
360
1070
  3
REFLECTIONTILE
360
106F
  3
REFRACTIONTILE
360
1071
  3
SPECULARTILE
360
106E
  0
DICTIONARY
  5
107B
330
107A
100
AcDbDictionary
280
     1
281
     1
  3
ACAD_XREC_ROUNDTRIP
360
23AC
  3
BUMPTILE
360
107D
  3
DIFFUSETILE
360
107C
  3
OPACITYTILE
360
1080
  3
REFLECTIONTILE
360
107F
  3
REFRACTIONTILE
360
1081
  3
SPECULARTILE
360
107E
  0
DICTIONARY
  5
219C
330
EE8
100
AcDbDictionary
280
     1
281
     1
  3
ACAD_ROUNDTRIP_2008_TABLESTYLE_CELLSTYLEMAP
360
239E
  3
ACAD_XREC_ROUNDTRIP
360
23A9
  0
DICTIONARY
  5
23B7
330
1088
100
AcDbDictionary
280
     1
281
     1
  3
ACAD_XREC_ROUNDTRIP
360
23B8
  0
DICTIONARY
  5
23BB
330
108A
100
AcDbDictionary
280
     1
281
     1
  3
ACAD_XREC_ROUNDTRIP
360
23BC
  0
DICTIONARY
  5
23B9
330
1089
100
AcDbDictionary
280
     1
281
     1
  3
ACAD_XREC_ROUNDTRIP
360
23BA
  0
DICTIONARY
  5
23B5
330
1087
100
AcDbDictionary
280
     1
281
     1
  3
ACAD_XREC_ROUNDTRIP
360
23B6
  0
DICTIONARY
  5
23C3
330
108E
100
AcDbDictionary
280
     1
281
     1
  3
ACAD_XREC_ROUNDTRIP
360
23C4
  0
DICTIONARY
  5
23CB
330
1092
100
AcDbDictionary
280
     1
281
     1
  3
ACAD_XREC_ROUNDTRIP
360
23CC
  0
DICTIONARY
  5
23BD
330
108B
100
AcDbDictionary
280
     1
281
     1
  3
ACAD_XREC_ROUNDTRIP
360
23BE
  0
DICTIONARY
  5
23C1
330
108D
100
AcDbDictionary
280
     1
281
     1
  3
ACAD_XREC_ROUNDTRIP
360
23C2
  0
DICTIONARY
  5
23D1
330
1095
100
AcDbDictionary
280
     1
281
     1
  3
ACAD_XREC_ROUNDTRIP
360
23D2
  0
DICTIONARY
  5
23C9
330
1091
100
AcDbDictionary
280
     1
281
     1
  3
ACAD_XREC_ROUNDTRIP
360
23CA
  0
DICTIONARY
  5
23AD
330
1083
100
AcDbDictionary
280
     1
281
     1
  3
ACAD_XREC_ROUNDTRIP
360
23AE
  0
DICTIONARY
  5
23AF
330
1084
100
AcDbDictionary
280
     1
281
     1
  3
ACAD_XREC_ROUNDTRIP
360
23B0
  0
DICTIONARY
  5
23B1
330
1085
100
AcDbDictionary
280
     1
281
     1
  3
ACAD_XREC_ROUNDTRIP
360
23B2
  0
DICTIONARY
  5
23B3
330
1086
100
AcDbDictionary
280
     1
281
     1
  3
ACAD_XREC_ROUNDTRIP
360
23B4
  0
DICTIONARY
  5
23CD
330
1093
100
AcDbDictionary
280
     1
281
     1
  3
ACAD_XREC_ROUNDTRIP
360
23CE
  0
DICTIONARY
  5
23C7
330
1090
100
AcDbDictionary
280
     1
281
     1
  3
ACAD_XREC_ROUNDTRIP
360
23C8
  0
DICTIONARY
  5
23CF
330
1094
100
AcDbDictionary
280
     1
281
     1
  3
ACAD_XREC_ROUNDTRIP
360
23D0
  0
DICTIONARY
  5
23BF
330
108C
100
AcDbDictionary
280
     1
281
     1
  3
ACAD_XREC_ROUNDTRIP
360
23C0
  0
DICTIONARY
  5
23C5
330
108F
100
AcDbDictionary
280
     1
281
     1
  3
ACAD_XREC_ROUNDTRIP
360
23C6
  0
XRECORD
  5
23A4
102
{ACAD_REACTORS
330
23A3
102
}
330
23A3
100
AcDbXrecord
280
     1
102
SHADEPLOT
 70
     0
102
SHADEPLOTRESLEVEL
 70
     2
102
SHADEPLOTCUSTOMDPI
 70
   300
  0
XRECORD
  5
23A8
102
{ACAD_REACTORS
330
23A7
102
}
330
23A7
100
AcDbXrecord
280
     1
102
SHADEPLOT
 70
     0
102
SHADEPLOTRESLEVEL
 70
     2
102
SHADEPLOTCUSTOMDPI
 70
   300
  0
XRECORD
  5
23A6
102
{ACAD_REACTORS
330
23A5
102
}
330
23A5
100
AcDbXrecord
280
     1
102
SHADEPLOT
 70
     0
102
SHADEPLOTRESLEVEL
 70
     2
102
SHADEPLOTCUSTOMDPI
 70
   300
  0
XRECORD
  5
23AB
102
{ACAD_REACTORS
330
1073
102
}
330
1073
100
AcDbXrecord
280
     1
102
MATERIAL
148
0.0
149
0.0
149
0.0
 93
        0
 94
      127
282
     0
 72
     0
 77
     0
171
     0
175
     0
179
     0
273
     0
  0
XRECORD
  5
1075
102
{ACAD_REACTORS
330
1073
102
}
330
1073
100
AcDbXrecord
280
     1
270
     1
271
     1
  0
XRECORD
  5
1074
102
{ACAD_REACTORS
330
1073
102
}
330
1073
100
AcDbXrecord
280
     1
270
     1
271
     1
  0
XRECORD
  5
1078
102
{ACAD_REACTORS
330
1073
102
}
330
1073
100
AcDbXrecord
280
     1
270
     1
271
     1
  0
XRECORD
  5
1077
102
{ACAD_REACTORS
330
1073
102
}
330
1073
100
AcDbXrecord
280
     1
270
     1
271
     1
  0
XRECORD
  5
1079
102
{ACAD_REACTORS
330
1073
102
}
330
1073
100
AcDbXrecord
280
     1
270
     1
271
     1
  0
XRECORD
  5
1076
102
{ACAD_REACTORS
330
1073
102
}
330
1073
100
AcDbXrecord
280
     1
270
     1
271
     1
  0
XRECORD
  5
23AA
102
{ACAD_REACTORS
330
106B
102
}
330
106B
100
AcDbXrecord
280
     1
102
MATERIAL
148
0.0
149
0.0
149
0.0
 93
        0
 94
      127
282
     0
 72
     0
 77
     0
171
     0
175
     0
179
     0
273
     0
  0
XRECORD
  5
106D
102
{ACAD_REACTORS
330
106B
102
}
330
106B
100
AcDbXrecord
280
     1
270
     1
271
     1
  0
XRECORD
  5
106C
102
{ACAD_REACTORS
330
106B
102
}
330
106B
100
AcDbXrecord
280
     1
270
     1
271
     1
  0
XRECORD
  5
1070
102
{ACAD_REACTORS
330
106B
102
}
330
106B
100
AcDbXrecord
280
     1
270
     1
271
     1
  0
XRECORD
  5
106F
102
{ACAD_REACTORS
330
106B
102
}
330
106B
100
AcDbXrecord
280
     1
270
     1
271
     1
  0
XRECORD
  5
1071
102
{ACAD_REACTORS
330
106B
102
}
330
106B
100
AcDbXrecord
280
     1
270
     1
271
     1
  0
XRECORD
  5
106E
102
{ACAD_REACTORS
330
106B
102
}
330
106B
100
AcDbXrecord
280
     1
270
     1
271
     1
  0
XRECORD
  5
23AC
102
{ACAD_REACTORS
330
107B
102
}
330
107B
100
AcDbXrecord
280
     1
102
MATERIAL
148
0.0
149
0.0
149
0.0
 93
        0
 94
      127
282
     0
 72
     0
 77
     0
171
     0
175
     0
179
     0
273
     0
  0
XRECORD
  5
107D
102
{ACAD_REACTORS
330
107B
102
}
330
107B
100
AcDbXrecord
280
     1
270
     1
271
     1
  0
XRECORD
  5
107C
102
{ACAD_REACTORS
330
107B
102
}
330
107B
100
AcDbXrecord
280
     1
270
     1
271
     1
  0
XRECORD
  5
1080
102
{ACAD_REACTORS
330
107B
102
}
330
107B
100
AcDbXrecord
280
     1
270
     1
271
     1
  0
XRECORD
  5
107F
102
{ACAD_REACTORS
330
107B
102
}
330
107B
100
AcDbXrecord
280
     1
270
     1
271
     1
  0
XRECORD
  5
1081
102
{ACAD_REACTORS
330
107B
102
}
330
107B
100
AcDbXrecord
280
     1
270
     1
271
     1
  0
XRECORD
  5
107E
102
{ACAD_REACTORS
330
107B
102
}
330
107B
100
AcDbXrecord
280
     1
270
     1
271
     1
  0
CELLSTYLEMAP
  5
239E
102
{ACAD_REACTORS
330
219C
102
}
330
219C
100
AcDbCellStyleMap
 90
        3
300
CELLSTYLE
  1
TABLEFORMAT_BEGIN
 90
        5
170
     1
 91
        0
 92
    32768
 62
   257
 93
        1
300
CONTENTFORMAT
  1
CONTENTFORMAT_BEGIN
 90
        0
 91
        0
 92
        4
 93
        0
300

 40
0.0
140
1.0
 94
        5
 62
     0
340
11
144
6.0
309
CONTENTFORMAT_END
171
     1
301
MARGIN
  1
CELLMARGIN_BEGIN
 40
1.5
 40
1.5
 40
1.5
 40
1.5
 40
0.18
 40
0.18
309
CELLMARGIN_END
 94
        6
 95
        1
302
GRIDFORMAT
  1
GRIDFORMAT_BEGIN
 90
        0
 91
        1
 62
     0
 92
       -2
340
0
 93
        0
 40
0.045
309
GRIDFORMAT_END
 95
        2
302
GRIDFORMAT
  1
GRIDFORMAT_BEGIN
 90
        0
 91
        1
 62
     0
 92
       -2
340
0
 93
        0
 40
0.045
309
GRIDFORMAT_END
 95
        4
302
GRIDFORMAT
  1
GRIDFORMAT_BEGIN
 90
        0
 91
        1
 62
     0
 92
       -2
340
0
 93
        0
 40
0.045
309
GRIDFORMAT_END
 95
        8
302
GRIDFORMAT
  1
GRIDFORMAT_BEGIN
 90
        0
 91
        1
 62
     0
 92
       -2
340
0
 93
        0
 40
0.045
309
GRIDFORMAT_END
 95
       16
302
GRIDFORMAT
  1
GRIDFORMAT_BEGIN
 90
        0
 91
        1
 62
     0
 92
       -2
340
0
 93
        0
 40
0.045
309
GRIDFORMAT_END
 95
       32
302
GRIDFORMAT
  1
GRIDFORMAT_BEGIN
 90
        0
 91
        1
 62
     0
 92
       -2
340
0
 93
        0
 40
0.045
309
GRIDFORMAT_END
309
TABLEFORMAT_END
  1
CELLSTYLE_BEGIN
 90
        1
 91
        1
300
_TITLE
309
CELLSTYLE_END
300
CELLSTYLE
  1
TABLEFORMAT_BEGIN
 90
        5
170
     1
 91
        0
 92
        0
 62
   257
 93
        1
300
CONTENTFORMAT
  1
CONTENTFORMAT_BEGIN
 90
        0
 91
        0
 92
        4
 93
        0
300

 40
0.0
140
1.0
 94
        5
 62
     0
340
11
144
4.5
309
CONTENTFORMAT_END
171
     1
301
MARGIN
  1
CELLMARGIN_BEGIN
 40
1.5
 40
1.5
 40
1.5
 40
1.5
 40
0.18
 40
0.18
309
CELLMARGIN_END
 94
        6
 95
        1
302
GRIDFORMAT
  1
GRIDFORMAT_BEGIN
 90
        0
 91
        1
 62
     0
 92
       -2
340
0
 93
        0
 40
0.045
309
GRIDFORMAT_END
 95
        2
302
GRIDFORMAT
  1
GRIDFORMAT_BEGIN
 90
        0
 91
        1
 62
     0
 92
       -2
340
0
 93
        0
 40
0.045
309
GRIDFORMAT_END
 95
        4
302
GRIDFORMAT
  1
GRIDFORMAT_BEGIN
 90
        0
 91
        1
 62
     0
 92
       -2
340
0
 93
        0
 40
0.045
309
GRIDFORMAT_END
 95
        8
302
GRIDFORMAT
  1
GRIDFORMAT_BEGIN
 90
        0
 91
        1
 62
     0
 92
       -2
340
0
 93
        0
 40
0.045
309
GRIDFORMAT_END
 95
       16
302
GRIDFORMAT
  1
GRIDFORMAT_BEGIN
 90
        0
 91
        1
 62
     0
 92
       -2
340
0
 93
        0
 40
0.045
309
GRIDFORMAT_END
 95
       32
302
GRIDFORMAT
  1
GRIDFORMAT_BEGIN
 90
        0
 91
        1
 62
     0
 92
       -2
340
0
 93
        0
 40
0.045
309
GRIDFORMAT_END
309
TABLEFORMAT_END
  1
CELLSTYLE_BEGIN
 90
        2
 91
        1
300
_HEADER
309
CELLSTYLE_END
300
CELLSTYLE
  1
TABLEFORMAT_BEGIN
 90
        5
170
     1
 91
        0
 92
        0
 62
   257
 93
        1
300
CONTENTFORMAT
  1
CONTENTFORMAT_BEGIN
 90
        0
 91
        0
 92
        4
 93
        0
300

 40
0.0
140
1.0
 94
        2
 62
     0
340
11
144
4.5
309
CONTENTFORMAT_END
171
     1
301
MARGIN
  1
CELLMARGIN_BEGIN
 40
1.5
 40
1.5
 40
1.5
 40
1.5
 40
0.18
 40
0.18
309
CELLMARGIN_END
 94
        6
 95
        1
302
GRIDFORMAT
  1
GRIDFORMAT_BEGIN
 90
        0
 91
        1
 62
     0
 92
       -2
340
0
 93
        0
 40
0.045
309
GRIDFORMAT_END
 95
        2
302
GRIDFORMAT
  1
GRIDFORMAT_BEGIN
 90
        0
 91
        1
 62
     0
 92
       -2
340
0
 93
        0
 40
0.045
309
GRIDFORMAT_END
 95
        4
302
GRIDFORMAT
  1
GRIDFORMAT_BEGIN
 90
        0
 91
        1
 62
     0
 92
       -2
340
0
 93
        0
 40
0.045
309
GRIDFORMAT_END
 95
        8
302
GRIDFORMAT
  1
GRIDFORMAT_BEGIN
 90
        0
 91
        1
 62
     0
 92
       -2
340
0
 93
        0
 40
0.045
309
GRIDFORMAT_END
 95
       16
302
GRIDFORMAT
  1
GRIDFORMAT_BEGIN
 90
        0
 91
        1
 62
     0
 92
       -2
340
0
 93
        0
 40
0.045
309
GRIDFORMAT_END
 95
       32
302
GRIDFORMAT
  1
GRIDFORMAT_BEGIN
 90
        0
 91
        1
 62
     0
 92
       -2
340
0
 93
        0
 40
0.045
309
GRIDFORMAT_END
309
TABLEFORMAT_END
  1
CELLSTYLE_BEGIN
 90
        3
 91
        2
300
_DATA
309
CELLSTYLE_END
  0
XRECORD
  5
23A9
102
{ACAD_REACTORS
330
219C
102
}
330
219C
100
AcDbXrecord
280
     1
102
ACAD_ROUNDTRIP_PRE2007_TABLESTYLE
 90
        4
 91
        0
  1

 92
        4
 93
        0
  2

 94
        4
 95
        0
  3

  0
XRECORD
  5
23B8
102
{ACAD_REACTORS
330
23B7
102
}
330
23B7
100
AcDbXrecord
280
     1
102
RTVSPropertyOp0
 70
     1
102
RTVSPropertyOp1
 70
     1
102
RTVSPropertyOp2
 70
     1
102
RTVSPropertyOp3
 70
     1
102
RTVSPropertyOp4
 70
     1
102
RTVSPropertyOp5
 70
     1
102
RTVSPropertyOp6
 70
     1
102
RTVSPropertyOp7
 70
     1
102
RTVSPropertyOp8
 70
     1
102
RTVSPropertyOp9
 70
     1
102
RTVSPropertyOp10
 70
     1
102
RTVSPropertyOp11
 70
     1
102
RTVSPropertyOp12
 70
     1
102
RTVSPropertyOp13
 70
     1
102
RTVSPropertyOp14
 70
     1
102
RTVSPropertyOp15
 70
     1
102
RTVSPropertyOp16
 70
     1
102
RTVSPropertyOp17
 70
     1
102
RTVSPropertyOp18
 70
     1
102
RTVSPropertyOp19
 70
     1
102
RTVSPropertyOp20
 70
     1
102
RTVSPropertyOp21
 70
     1
102
RTVSPropertyOp22
 70
     1
102
RTVSPropertyOp23
 70
     1
102
RTVSPropertyOp24
 70
     1
102
RTVSPropertyOp25
 70
     1
102
RTVSPropertyOp26
 70
     1
102
RTVSPropertyOp27
 70
     1
  0
XRECORD
  5
23BC
102
{ACAD_REACTORS
330
23BB
102
}
330
23BB
100
AcDbXrecord
280
     1
102
RTVSPropertyOp0
 70
     1
102
RTVSPropertyOp1
 70
     1
102
RTVSPropertyOp2
 70
     1
102
RTVSPropertyOp3
 70
     1
102
RTVSPropertyOp4
 70
     1
102
RTVSPropertyOp5
 70
     1
102
RTVSPropertyOp6
 70
     1
102
RTVSPropertyOp7
 70
     1
102
RTVSPropertyOp8
 70
     1
102
RTVSPropertyOp9
 70
     1
102
RTVSPropertyOp10
 70
     1
102
RTVSPropertyOp11
 70
     1
102
RTVSPropertyOp12
 70
     1
102
RTVSPropertyOp13
 70
     1
102
RTVSPropertyOp14
 70
     1
102
RTVSPropertyOp15
 70
     1
102
RTVSPropertyOp16
 70
     1
102
RTVSPropertyOp17
 70
     1
102
RTVSPropertyOp18
 70
     1
102
RTVSPropertyOp19
 70
     1
102
RTVSPropertyOp20
 70
     1
102
RTVSPropertyOp21
 70
     1
102
RTVSPropertyOp22
 70
     1
102
RTVSPropertyOp23
 70
     1
102
RTVSPropertyOp24
 70
     1
102
RTVSPropertyOp25
 70
     1
102
RTVSPropertyOp26
 70
     1
102
RTVSPropertyOp27
 70
     1
  0
XRECORD
  5
23BA
102
{ACAD_REACTORS
330
23B9
102
}
330
23B9
100
AcDbXrecord
280
     1
102
RTVSPropertyOp0
 70
     1
102
RTVSPropertyOp1
 70
     1
102
RTVSPropertyOp2
 70
     1
102
RTVSPropertyOp3
 70
     1
102
RTVSPropertyOp4
 70
     1
102
RTVSPropertyOp5
 70
     1
102
RTVSPropertyOp6
 70
     1
102
RTVSPropertyOp7
 70
     1
102
RTVSPropertyOp8
 70
     1
102
RTVSPropertyOp9
 70
     1
102
RTVSPropertyOp10
 70
     1
102
RTVSPropertyOp11
 70
     1
102
RTVSPropertyOp12
 70
     1
102
RTVSPropertyOp13
 70
     1
102
RTVSPropertyOp14
 70
     1
102
RTVSPropertyOp15
 70
     1
102
RTVSPropertyOp16
 70
     1
102
RTVSPropertyOp17
 70
     1
102
RTVSPropertyOp18
 70
     1
102
RTVSPropertyOp19
 70
     1
102
RTVSPropertyOp20
 70
     1
102
RTVSPropertyOp21
 70
     1
102
RTVSPropertyOp22
 70
     1
102
RTVSPropertyOp23
 70
     1
102
RTVSPropertyOp24
 70
     1
102
RTVSPropertyOp25
 70
     1
102
RTVSPropertyOp26
 70
     1
102
RTVSPropertyOp27
 70
     1
  0
XRECORD
  5
23B6
102
{ACAD_REACTORS
330
23B5
102
}
330
23B5
100
AcDbXrecord
280
     1
102
RTVSPropertyOp0
 70
     1
102
RTVSPropertyOp1
 70
     1
102
RTVSPropertyOp2
 70
     1
102
RTVSPropertyOp3
 70
     1
102
RTVSPropertyOp4
 70
     1
102
RTVSPropertyOp5
 70
     1
102
RTVSPropertyOp6
 70
     1
102
RTVSPropertyOp7
 70
     1
102
RTVSPropertyOp8
 70
     1
102
RTVSPropertyOp9
 70
     1
102
RTVSPropertyOp10
 70
     1
102
RTVSPropertyOp11
 70
     1
102
RTVSPropertyOp12
 70
     1
102
RTVSPropertyOp13
 70
     1
102
RTVSPropertyOp14
 70
     1
102
RTVSPropertyOp15
 70
     1
102
RTVSPropertyOp16
 70
     1
102
RTVSPropertyOp17
 70
     1
102
RTVSPropertyOp18
 70
     1
102
RTVSPropertyOp19
 70
     1
102
RTVSPropertyOp20
 70
     1
102
RTVSPropertyOp21
 70
     1
102
RTVSPropertyOp22
 70
     1
102
RTVSPropertyOp23
 70
     1
102
RTVSPropertyOp24
 70
     1
102
RTVSPropertyOp25
 70
     1
102
RTVSPropertyOp26
 70
     1
102
RTVSPropertyOp27
 70
     1
  0
XRECORD
  5
23C4
102
{ACAD_REACTORS
330
23C3
102
}
330
23C3
100
AcDbXrecord
280
     1
102
RTVSPropertyOp0
 70
     1
102
RTVSPropertyOp1
 70
     1
102
RTVSPropertyOp2
 70
     1
102
RTVSPropertyOp3
 70
     1
102
RTVSPropertyOp4
 70
     1
102
RTVSPropertyOp5
 70
     1
102
RTVSPropertyOp6
 70
     1
102
RTVSPropertyOp7
 70
     1
102
RTVSPropertyOp8
 70
     1
102
RTVSPropertyOp9
 70
     1
102
RTVSPropertyOp10
 70
     1
102
RTVSPropertyOp11
 70
     1
102
RTVSPropertyOp12
 70
     1
102
RTVSPropertyOp13
 70
     1
102
RTVSPropertyOp14
 70
     1
102
RTVSPropertyOp15
 70
     1
102
RTVSPropertyOp16
 70
     1
102
RTVSPropertyOp17
 70
     1
102
RTVSPropertyOp18
 70
     1
102
RTVSPropertyOp19
 70
     1
102
RTVSPropertyOp20
 70
     1
102
RTVSPropertyOp21
 70
     1
102
RTVSPropertyOp22
 70
     1
102
RTVSPropertyOp23
 70
     1
102
RTVSPropertyOp24
 70
     1
102
RTVSPropertyOp25
 70
     1
102
RTVSPropertyOp26
 70
     1
102
RTVSPropertyOp27
 70
     1
  0
XRECORD
  5
23CC
102
{ACAD_REACTORS
330
23CB
102
}
330
23CB
100
AcDbXrecord
280
     1
102
RTVSPropertyOp0
 70
     1
102
RTVSPropertyOp1
 70
     1
102
RTVSPropertyOp2
 70
     1
102
RTVSPropertyOp3
 70
     1
102
RTVSPropertyOp4
 70
     1
102
RTVSPropertyOp5
 70
     1
102
RTVSPropertyOp6
 70
     1
102
RTVSPropertyOp7
 70
     1
102
RTVSPropertyOp8
 70
     1
102
RTVSPropertyOp9
 70
     1
102
RTVSPropertyOp10
 70
     1
102
RTVSPropertyOp11
 70
     1
102
RTVSPropertyOp12
 70
     1
102
RTVSPropertyOp13
 70
     1
102
RTVSPropertyOp14
 70
     1
102
RTVSPropertyOp15
 70
     1
102
RTVSPropertyOp16
 70
     1
102
RTVSPropertyOp17
 70
     1
102
RTVSPropertyOp18
 70
     1
102
RTVSPropertyOp19
 70
     1
102
RTVSPropertyOp20
 70
     1
102
RTVSPropertyOp21
 70
     1
102
RTVSPropertyOp22
 70
     1
102
RTVSPropertyOp23
 70
     1
102
RTVSPropertyOp24
 70
     1
102
RTVSPropertyOp25
 70
     1
102
RTVSPropertyOp26
 70
     1
102
RTVSPropertyOp27
 70
     1
  0
XRECORD
  5
23BE
102
{ACAD_REACTORS
330
23BD
102
}
330
23BD
100
AcDbXrecord
280
     1
102
RTVSPropertyOp0
 70
     1
102
RTVSPropertyOp1
 70
     1
102
RTVSPropertyOp2
 70
     1
102
RTVSPropertyOp3
 70
     1
102
RTVSPropertyOp4
 70
     1
102
RTVSPropertyOp5
 70
     1
102
RTVSPropertyOp6
 70
     1
102
RTVSPropertyOp7
 70
     1
102
RTVSPropertyOp8
 70
     1
102
RTVSPropertyOp9
 70
     1
102
RTVSPropertyOp10
 70
     1
102
RTVSPropertyOp11
 70
     1
102
RTVSPropertyOp12
 70
     1
102
RTVSPropertyOp13
 70
     1
102
RTVSPropertyOp14
 70
     1
102
RTVSPropertyOp15
 70
     1
102
RTVSPropertyOp16
 70
     1
102
RTVSPropertyOp17
 70
     1
102
RTVSPropertyOp18
 70
     1
102
RTVSPropertyOp19
 70
     1
102
RTVSPropertyOp20
 70
     1
102
RTVSPropertyOp21
 70
     1
102
RTVSPropertyOp22
 70
     1
102
RTVSPropertyOp23
 70
     1
102
RTVSPropertyOp24
 70
     1
102
RTVSPropertyOp25
 70
     1
102
RTVSPropertyOp26
 70
     1
102
RTVSPropertyOp27
 70
     1
  0
XRECORD
  5
23C2
102
{ACAD_REACTORS
330
23C1
102
}
330
23C1
100
AcDbXrecord
280
     1
102
RTVSPropertyOp0
 70
     1
102
RTVSPropertyOp1
 70
     1
102
RTVSPropertyOp2
 70
     1
102
RTVSPropertyOp3
 70
     1
102
RTVSPropertyOp4
 70
     1
102
RTVSPropertyOp5
 70
     1
102
RTVSPropertyOp6
 70
     1
102
RTVSPropertyOp7
 70
     1
102
RTVSPropertyOp8
 70
     1
102
RTVSPropertyOp9
 70
     1
102
RTVSPropertyOp10
 70
     1
102
RTVSPropertyOp11
 70
     1
102
RTVSPropertyOp12
 70
     1
102
RTVSPropertyOp13
 70
     1
102
RTVSPropertyOp14
 70
     1
102
RTVSPropertyOp15
 70
     1
102
RTVSPropertyOp16
 70
     1
102
RTVSPropertyOp17
 70
     1
102
RTVSPropertyOp18
 70
     1
102
RTVSPropertyOp19
 70
     1
102
RTVSPropertyOp20
 70
     1
102
RTVSPropertyOp21
 70
     1
102
RTVSPropertyOp22
 70
     1
102
RTVSPropertyOp23
 70
     1
102
RTVSPropertyOp24
 70
     1
102
RTVSPropertyOp25
 70
     1
102
RTVSPropertyOp26
 70
     1
102
RTVSPropertyOp27
 70
     1
  0
XRECORD
  5
23D2
102
{ACAD_REACTORS
330
23D1
102
}
330
23D1
100
AcDbXrecord
280
     1
102
RTVSPropertyOp0
 70
     0
102
RTVSPropertyOp1
 70
     0
102
RTVSPropertyOp2
 70
     0
102
RTVSPropertyOp3
 70
     0
102
RTVSPropertyOp4
 70
     0
102
RTVSPropertyOp5
 70
     0
102
RTVSPropertyOp6
 70
     0
102
RTVSPropertyOp7
 70
     0
102
RTVSPropertyOp8
 70
     0
102
RTVSPropertyOp9
 70
     0
102
RTVSPropertyOp10
 70
     0
102
RTVSPropertyOp11
 70
     0
102
RTVSPropertyOp12
 70
     0
102
RTVSPropertyOp13
 70
     0
102
RTVSPropertyOp14
 70
     2
102
RTVSPropertyOp15
 70
     0
102
RTVSPropertyOp16
 70
     0
102
RTVSPropertyOp17
 70
     0
102
RTVSPropertyOp18
 70
     0
102
RTVSPropertyOp19
 70
     0
102
RTVSPropertyOp20
 70
     0
102
RTVSPropertyOp21
 70
     0
102
RTVSPropertyOp22
 70
     0
102
RTVSPropertyOp23
 70
     0
102
RTVSPropertyOp24
 70
     0
102
RTVSPropertyOp25
 70
     0
102
RTVSPropertyOp26
 70
     0
102
RTVSPropertyOp27
 70
     0
  0
XRECORD
  5
23CA
102
{ACAD_REACTORS
330
23C9
102
}
330
23C9
100
AcDbXrecord
280
     1
102
RTVSPropertyOp0
 70
     1
102
RTVSPropertyOp1
 70
     1
102
RTVSPropertyOp2
 70
     1
102
RTVSPropertyOp3
 70
     1
102
RTVSPropertyOp4
 70
     1
102
RTVSPropertyOp5
 70
     1
102
RTVSPropertyOp6
 70
     1
102
RTVSPropertyOp7
 70
     1
102
RTVSPropertyOp8
 70
     1
102
RTVSPropertyOp9
 70
     1
102
RTVSPropertyOp10
 70
     1
102
RTVSPropertyOp11
 70
     1
102
RTVSPropertyOp12
 70
     1
102
RTVSPropertyOp13
 70
     1
102
RTVSPropertyOp14
 70
     1
102
RTVSPropertyOp15
 70
     1
102
RTVSPropertyOp16
 70
     1
102
RTVSPropertyOp17
 70
     1
102
RTVSPropertyOp18
 70
     1
102
RTVSPropertyOp19
 70
     1
102
RTVSPropertyOp20
 70
     1
102
RTVSPropertyOp21
 70
     1
102
RTVSPropertyOp22
 70
     1
102
RTVSPropertyOp23
 70
     1
102
RTVSPropertyOp24
 70
     1
102
RTVSPropertyOp25
 70
     1
102
RTVSPropertyOp26
 70
     1
102
RTVSPropertyOp27
 70
     1
  0
XRECORD
  5
23AE
102
{ACAD_REACTORS
330
23AD
102
}
330
23AD
100
AcDbXrecord
280
     1
102
RTVSPropertyOp0
 70
     1
102
RTVSPropertyOp1
 70
     1
102
RTVSPropertyOp2
 70
     1
102
RTVSPropertyOp3
 70
     1
102
RTVSPropertyOp4
 70
     1
102
RTVSPropertyOp5
 70
     1
102
RTVSPropertyOp6
 70
     1
102
RTVSPropertyOp7
 70
     1
102
RTVSPropertyOp8
 70
     1
102
RTVSPropertyOp9
 70
     1
102
RTVSPropertyOp10
 70
     1
102
RTVSPropertyOp11
 70
     1
102
RTVSPropertyOp12
 70
     1
102
RTVSPropertyOp13
 70
     1
102
RTVSPropertyOp14
 70
     1
102
RTVSPropertyOp15
 70
     1
102
RTVSPropertyOp16
 70
     1
102
RTVSPropertyOp17
 70
     1
102
RTVSPropertyOp18
 70
     1
102
RTVSPropertyOp19
 70
     1
102
RTVSPropertyOp20
 70
     1
102
RTVSPropertyOp21
 70
     1
102
RTVSPropertyOp22
 70
     1
102
RTVSPropertyOp23
 70
     1
102
RTVSPropertyOp24
 70
     1
102
RTVSPropertyOp25
 70
     1
102
RTVSPropertyOp26
 70
     1
102
RTVSPropertyOp27
 70
     1
  0
XRECORD
  5
23B0
102
{ACAD_REACTORS
330
23AF
102
}
330
23AF
100
AcDbXrecord
280
     1
102
RTVSPropertyOp0
 70
     1
102
RTVSPropertyOp1
 70
     1
102
RTVSPropertyOp2
 70
     1
102
RTVSPropertyOp3
 70
     1
102
RTVSPropertyOp4
 70
     1
102
RTVSPropertyOp5
 70
     1
102
RTVSPropertyOp6
 70
     1
102
RTVSPropertyOp7
 70
     1
102
RTVSPropertyOp8
 70
     1
102
RTVSPropertyOp9
 70
     1
102
RTVSPropertyOp10
 70
     1
102
RTVSPropertyOp11
 70
     1
102
RTVSPropertyOp12
 70
     1
102
RTVSPropertyOp13
 70
     1
102
RTVSPropertyOp14
 70
     1
102
RTVSPropertyOp15
 70
     1
102
RTVSPropertyOp16
 70
     1
102
RTVSPropertyOp17
 70
     1
102
RTVSPropertyOp18
 70
     1
102
RTVSPropertyOp19
 70
     1
102
RTVSPropertyOp20
 70
     1
102
RTVSPropertyOp21
 70
     1
102
RTVSPropertyOp22
 70
     1
102
RTVSPropertyOp23
 70
     1
102
RTVSPropertyOp24
 70
     1
102
RTVSPropertyOp25
 70
     1
102
RTVSPropertyOp26
 70
     1
102
RTVSPropertyOp27
 70
     1
  0
XRECORD
  5
23B2
102
{ACAD_REACTORS
330
23B1
102
}
330
23B1
100
AcDbXrecord
280
     1
102
RTVSPropertyOp0
 70
     1
102
RTVSPropertyOp1
 70
     1
102
RTVSPropertyOp2
 70
     1
102
RTVSPropertyOp3
 70
     1
102
RTVSPropertyOp4
 70
     1
102
RTVSPropertyOp5
 70
     1
102
RTVSPropertyOp6
 70
     1
102
RTVSPropertyOp7
 70
     1
102
RTVSPropertyOp8
 70
     1
102
RTVSPropertyOp9
 70
     1
102
RTVSPropertyOp10
 70
     1
102
RTVSPropertyOp11
 70
     1
102
RTVSPropertyOp12
 70
     1
102
RTVSPropertyOp13
 70
     1
102
RTVSPropertyOp14
 70
     1
102
RTVSPropertyOp15
 70
     1
102
RTVSPropertyOp16
 70
     1
102
RTVSPropertyOp17
 70
     1
102
RTVSPropertyOp18
 70
     1
102
RTVSPropertyOp19
 70
     1
102
RTVSPropertyOp20
 70
     1
102
RTVSPropertyOp21
 70
     1
102
RTVSPropertyOp22
 70
     1
102
RTVSPropertyOp23
 70
     1
102
RTVSPropertyOp24
 70
     1
102
RTVSPropertyOp25
 70
     1
102
RTVSPropertyOp26
 70
     1
102
RTVSPropertyOp27
 70
     1
  0
XRECORD
  5
23B4
102
{ACAD_REACTORS
330
23B3
102
}
330
23B3
100
AcDbXrecord
280
     1
102
RTVSPropertyOp0
 70
     1
102
RTVSPropertyOp1
 70
     1
102
RTVSPropertyOp2
 70
     1
102
RTVSPropertyOp3
 70
     1
102
RTVSPropertyOp4
 70
     1
102
RTVSPropertyOp5
 70
     1
102
RTVSPropertyOp6
 70
     1
102
RTVSPropertyOp7
 70
     1
102
RTVSPropertyOp8
 70
     1
102
RTVSPropertyOp9
 70
     1
102
RTVSPropertyOp10
 70
     1
102
RTVSPropertyOp11
 70
     1
102
RTVSPropertyOp12
 70
     1
102
RTVSPropertyOp13
 70
     1
102
RTVSPropertyOp14
 70
     1
102
RTVSPropertyOp15
 70
     1
102
RTVSPropertyOp16
 70
     1
102
RTVSPropertyOp17
 70
     1
102
RTVSPropertyOp18
 70
     1
102
RTVSPropertyOp19
 70
     1
102
RTVSPropertyOp20
 70
     1
102
RTVSPropertyOp21
 70
     1
102
RTVSPropertyOp22
 70
     1
102
RTVSPropertyOp23
 70
     1
102
RTVSPropertyOp24
 70
     1
102
RTVSPropertyOp25
 70
     1
102
RTVSPropertyOp26
 70
     1
102
RTVSPropertyOp27
 70
     1
  0
XRECORD
  5
23CE
102
{ACAD_REACTORS
330
23CD
102
}
330
23CD
100
AcDbXrecord
280
     1
102
RTVSPropertyOp0
 70
     0
102
RTVSPropertyOp1
 70
     0
102
RTVSPropertyOp2
 70
     0
102
RTVSPropertyOp3
 70
     0
102
RTVSPropertyOp4
 70
     0
102
RTVSPropertyOp5
 70
     0
102
RTVSPropertyOp6
 70
     0
102
RTVSPropertyOp7
 70
     0
102
RTVSPropertyOp8
 70
     0
102
RTVSPropertyOp9
 70
     0
102
RTVSPropertyOp10
 70
     0
102
RTVSPropertyOp11
 70
     0
102
RTVSPropertyOp12
 70
     0
102
RTVSPropertyOp13
 70
     0
102
RTVSPropertyOp14
 70
     2
102
RTVSPropertyOp15
 70
     0
102
RTVSPropertyOp16
 70
     0
102
RTVSPropertyOp17
 70
     0
102
RTVSPropertyOp18
 70
     0
102
RTVSPropertyOp19
 70
     0
102
RTVSPropertyOp20
 70
     0
102
RTVSPropertyOp21
 70
     0
102
RTVSPropertyOp22
 70
     0
102
RTVSPropertyOp23
 70
     0
102
RTVSPropertyOp24
 70
     0
102
RTVSPropertyOp25
 70
     0
102
RTVSPropertyOp26
 70
     0
102
RTVSPropertyOp27
 70
     0
  0
XRECORD
  5
23C8
102
{ACAD_REACTORS
330
23C7
102
}
330
23C7
100
AcDbXrecord
280
     1
102
RTVSPropertyOp0
 70
     1
102
RTVSPropertyOp1
 70
     1
102
RTVSPropertyOp2
 70
     1
102
RTVSPropertyOp3
 70
     1
102
RTVSPropertyOp4
 70
     1
102
RTVSPropertyOp5
 70
     1
102
RTVSPropertyOp6
 70
     1
102
RTVSPropertyOp7
 70
     1
102
RTVSPropertyOp8
 70
     1
102
RTVSPropertyOp9
 70
     1
102
RTVSPropertyOp10
 70
     1
102
RTVSPropertyOp11
 70
     1
102
RTVSPropertyOp12
 70
     1
102
RTVSPropertyOp13
 70
     1
102
RTVSPropertyOp14
 70
     1
102
RTVSPropertyOp15
 70
     1
102
RTVSPropertyOp16
 70
     1
102
RTVSPropertyOp17
 70
     1
102
RTVSPropertyOp18
 70
     1
102
RTVSPropertyOp19
 70
     1
102
RTVSPropertyOp20
 70
     1
102
RTVSPropertyOp21
 70
     1
102
RTVSPropertyOp22
 70
     1
102
RTVSPropertyOp23
 70
     1
102
RTVSPropertyOp24
 70
     1
102
RTVSPropertyOp25
 70
     1
102
RTVSPropertyOp26
 70
     1
102
RTVSPropertyOp27
 70
     1
  0
XRECORD
  5
23D0
102
{ACAD_REACTORS
330
23CF
102
}
330
23CF
100
AcDbXrecord
280
     1
102
RTVSPropertyOp0
 70
     0
102
RTVSPropertyOp1
 70
     0
102
RTVSPropertyOp2
 70
     0
102
RTVSPropertyOp3
 70
     0
102
RTVSPropertyOp4
 70
     0
102
RTVSPropertyOp5
 70
     0
102
RTVSPropertyOp6
 70
     0
102
RTVSPropertyOp7
 70
     0
102
RTVSPropertyOp8
 70
     0
102
RTVSPropertyOp9
 70
     0
102
RTVSPropertyOp10
 70
     0
102
RTVSPropertyOp11
 70
     0
102
RTVSPropertyOp12
 70
     0
102
RTVSPropertyOp13
 70
     0
102
RTVSPropertyOp14
 70
     2
102
RTVSPropertyOp15
 70
     0
102
RTVSPropertyOp16
 70
     0
102
RTVSPropertyOp17
 70
     0
102
RTVSPropertyOp18
 70
     0
102
RTVSPropertyOp19
 70
     0
102
RTVSPropertyOp20
 70
     0
102
RTVSPropertyOp21
 70
     0
102
RTVSPropertyOp22
 70
     0
102
RTVSPropertyOp23
 70
     0
102
RTVSPropertyOp24
 70
     0
102
RTVSPropertyOp25
 70
     0
102
RTVSPropertyOp26
 70
     0
102
RTVSPropertyOp27
 70
     0
  0
XRECORD
  5
23C0
102
{ACAD_REACTORS
330
23BF
102
}
330
23BF
100
AcDbXrecord
280
     1
102
RTVSPropertyOp0
 70
     1
102
RTVSPropertyOp1
 70
     1
102
RTVSPropertyOp2
 70
     1
102
RTVSPropertyOp3
 70
     1
102
RTVSPropertyOp4
 70
     1
102
RTVSPropertyOp5
 70
     1
102
RTVSPropertyOp6
 70
     1
102
RTVSPropertyOp7
 70
     1
102
RTVSPropertyOp8
 70
     1
102
RTVSPropertyOp9
 70
     1
102
RTVSPropertyOp10
 70
     1
102
RTVSPropertyOp11
 70
     1
102
RTVSPropertyOp12
 70
     1
102
RTVSPropertyOp13
 70
     1
102
RTVSPropertyOp14
 70
     1
102
RTVSPropertyOp15
 70
     1
102
RTVSPropertyOp16
 70
     1
102
RTVSPropertyOp17
 70
     1
102
RTVSPropertyOp18
 70
     1
102
RTVSPropertyOp19
 70
     1
102
RTVSPropertyOp20
 70
     1
102
RTVSPropertyOp21
 70
     1
102
RTVSPropertyOp22
 70
     1
102
RTVSPropertyOp23
 70
     1
102
RTVSPropertyOp24
 70
     1
102
RTVSPropertyOp25
 70
     1
102
RTVSPropertyOp26
 70
     1
102
RTVSPropertyOp27
 70
     1
  0
XRECORD
  5
23C6
102
{ACAD_REACTORS
330
23C5
102
}
330
23C5
100
AcDbXrecord
280
     1
102
RTVSPropertyOp0
 70
     1
102
RTVSPropertyOp1
 70
     1
102
RTVSPropertyOp2
 70
     1
102
RTVSPropertyOp3
 70
     1
102
RTVSPropertyOp4
 70
     1
102
RTVSPropertyOp5
 70
     1
102
RTVSPropertyOp6
 70
     1
102
RTVSPropertyOp7
 70
     1
102
RTVSPropertyOp8
 70
     1
102
RTVSPropertyOp9
 70
     1
102
RTVSPropertyOp10
 70
     1
102
RTVSPropertyOp11
 70
     1
102
RTVSPropertyOp12
 70
     1
102
RTVSPropertyOp13
 70
     1
102
RTVSPropertyOp14
 70
     1
102
RTVSPropertyOp15
 70
     1
102
RTVSPropertyOp16
 70
     1
102
RTVSPropertyOp17
 70
     1
102
RTVSPropertyOp18
 70
     1
102
RTVSPropertyOp19
 70
     1
102
RTVSPropertyOp20
 70
     1
102
RTVSPropertyOp21
 70
     1
102
RTVSPropertyOp22
 70
     1
102
RTVSPropertyOp23
 70
     1
102
RTVSPropertyOp24
 70
     1
102
RTVSPropertyOp25
 70
     1
102
RTVSPropertyOp26
 70
     1
102
RTVSPropertyOp27
 70
     1
  0
ENDSEC
  0
EOF
