  0
SECTION
  2
HEADER
  9
$ACADVER
  1
AC1015
  9
$ACADMAINTVER
 70
    20
  9
$DWGCODEPAGE
  3
ANSI_1252
  9
$INSBASE
 10
0.0
 20
0.0
 30
0.0
  9
$EXTMIN
 10
5119.071834571212
 20
2482.473563624733
 30
0.0
  9
$EXTMAX
 10
5121.385305805019
 20
2483.002759596742
 30
0.0
  9
$LIMMIN
 10
0.0
 20
0.0
  9
$LIMMAX
 10
420.0
 20
297.0
  9
$ORTHOMODE
 70
     0
  9
$REGENMODE
 70
     1
  9
$FILLMODE
 70
     1
  9
$QTEXTMODE
 70
     0
  9
$MIRRTEXT
 70
     1
  9
$LTSCALE
 40
1.0
  9
$ATTMODE
 70
     1
  9
$TEXTSIZE
 40
2.5
  9
$TRACEWID
 40
1.0
  9
$TEXTSTYLE
  7
SANINDUSA
  9
$CLAYER
  8
0
  9
$CELTYPE
  6
ByLayer
  9
$CECOLOR
 62
   256
  9
$CELTSCALE
 40
1.0
  9
$DISPSILH
 70
     0
  9
$DIMSCALE
 40
10.0
  9
$DIMASZ
 40
2.0
  9
$DIMEXO
 40
1.0
  9
$DIMDLI
 40
1.0
  9
$DIMRND
 40
0.0
  9
$DIMDLE
 40
0.0
  9
$DIMEXE
 40
1.0
  9
$DIMTP
 40
0.0
  9
$DIMTM
 40
0.0
  9
$DIMTXT
 40
2.0
  9
$DIMCEN
 40
0.0
  9
$DIMTSZ
 40
0.0
  9
$DIMTOL
 70
     0
  9
$DIMLIM
 70
     0
  9
$DIMTIH
 70
     0
  9
$DIMTOH
 70
     0
  9
$DIMSE1
 70
     0
  9
$DIMSE2
 70
     0
  9
$DIMTAD
 70
     1
  9
$DIMZIN
 70
     8
  9
$DIMBLK
  1

  9
$DIMASO
 70
     1
  9
$DIMSHO
 70
     1
  9
$DIMPOST
  1

  9
$DIMAPOST
  1

  9
$DIMALT
 70
     0
  9
$DIMALTD
 70
     3
  9
$DIMALTF
 40
0.03937007874016
  9
$DIMLFAC
 40
1.0
  9
$DIMTOFL
 70
     1
  9
$DIMTVP
 40
0.0
  9
$DIMTIX
 70
     0
  9
$DIMSOXD
 70
     0
  9
$DIMSAH
 70
     0
  9
$DIMBLK1
  1

  9
$DIMBLK2
  1

  9
$DIMSTYLE
  2
SANINDUSA
  9
$DIMCLRD
 70
   256
  9
$DIMCLRE
 70
   256
  9
$DIMCLRT
 70
   256
  9
$DIMTFAC
 40
1.0
  9
$DIMGAP
 40
1.0
  9
$DIMJUST
 70
     0
  9
$DIMSD1
 70
     0
  9
$DIMSD2
 70
     0
  9
$DIMTOLJ
 70
     0
  9
$DIMTZIN
 70
     8
  9
$DIMALTZ
 70
     0
  9
$DIMALTTZ
 70
     0
  9
$DIMUPT
 70
     0
  9
$DIMDEC
 70
     0
  9
$DIMTDEC
 70
     0
  9
$DIMALTU
 70
     2
  9
$DIMALTTD
 70
     3
  9
$DIMTXSTY
  7
SANINDUSA
  9
$DIMAUNIT
 70
     0
  9
$DIMADEC
 70
     1
  9
$DIMALTRND
 40
0.0
  9
$DIMAZIN
 70
     0
  9
$DIMDSEP
 70
    44
  9
$DIMATFIT
 70
     3
  9
$DIMFRAC
 70
     0
  9
$DIMLDRBLK
  1

  9
$DIMLUNIT
 70
     2
  9
$DIMLWD
 70
    -1
  9
$DIMLWE
 70
    -1
  9
$DIMTMOVE
 70
     0
  9
$LUNITS
 70
     2
  9
$LUPREC
 70
     4
  9
$SKETCHINC
 40
1.0
  9
$FILLETRAD
 40
0.0
  9
$AUNITS
 70
     0
  9
$AUPREC
 70
     0
  9
$MENU
  1
.
  9
$ELEVATION
 40
0.0
  9
$PELEVATION
 40
0.0
  9
$THICKNESS
 40
0.0
  9
$LIMCHECK
 70
     0
  9
$CHAMFERA
 40
10.0
  9
$CHAMFERB
 40
10.0
  9
$CHAMFERC
 40
20.0
  9
$CHAMFERD
 40
0.0
  9
$SKPOLY
 70
     0
  9
$TDCREATE
 40
2455257.778177986
  9
$TDUCREATE
 40
2455257.736511319
  9
$TDUPDATE
 40
2455296.519464514
  9
$TDUUPDATE
 40
2455296.477797848
  9
$TDINDWG
 40
0.0190031829
  9
$TDUSRTIMER
 40
0.0190031829
  9
$USRTIMER
 70
     1
  9
$ANGBASE
 50
0.0
  9
$ANGDIR
 70
     0
  9
$PDMODE
 70
     0
  9
$PDSIZE
 40
0.0
  9
$PLINEWID
 40
0.0
  9
$SPLFRAME
 70
     0
  9
$SPLINETYPE
 70
     6
  9
$SPLINESEGS
 70
     8
  9
$HANDSEED
  5
247F
  9
$SURFTAB1
 70
     6
  9
$SURFTAB2
 70
     6
  9
$SURFTYPE
 70
     6
  9
$SURFU
 70
     6
  9
$SURFV
 70
     6
  9
$UCSBASE
  2

  9
$UCSNAME
  2

  9
$UCSORG
 10
0.0
 20
0.0
 30
0.0
  9
$UCSXDIR
 10
1.0
 20
0.0
 30
0.0
  9
$UCSYDIR
 10
0.0
 20
1.0
 30
0.0
  9
$UCSORTHOREF
  2

  9
$UCSORTHOVIEW
 70
     0
  9
$UCSORGTOP
 10
0.0
 20
0.0
 30
0.0
  9
$UCSORGBOTTOM
 10
0.0
 20
0.0
 30
0.0
  9
$UCSORGLEFT
 10
0.0
 20
0.0
 30
0.0
  9
$UCSORGRIGHT
 10
0.0
 20
0.0
 30
0.0
  9
$UCSORGFRONT
 10
0.0
 20
0.0
 30
0.0
  9
$UCSORGBACK
 10
0.0
 20
0.0
 30
0.0
  9
$PUCSBASE
  2

  9
$PUCSNAME
  2

  9
$PUCSORG
 10
0.0
 20
0.0
 30
0.0
  9
$PUCSXDIR
 10
1.0
 20
0.0
 30
0.0
  9
$PUCSYDIR
 10
0.0
 20
1.0
 30
0.0
  9
$PUCSORTHOREF
  2

  9
$PUCSORTHOVIEW
 70
     0
  9
$PUCSORGTOP
 10
0.0
 20
0.0
 30
0.0
  9
$PUCSORGBOTTOM
 10
0.0
 20
0.0
 30
0.0
  9
$PUCSORGLEFT
 10
0.0
 20
0.0
 30
0.0
  9
$PUCSORGRIGHT
 10
0.0
 20
0.0
 30
0.0
  9
$PUCSORGFRONT
 10
0.0
 20
0.0
 30
0.0
  9
$PUCSORGBACK
 10
0.0
 20
0.0
 30
0.0
  9
$USERI1
 70
     0
  9
$USERI2
 70
     0
  9
$USERI3
 70
     0
  9
$USERI4
 70
     0
  9
$USERI5
 70
     0
  9
$USERR1
 40
0.0
  9
$USERR2
 40
0.0
  9
$USERR3
 40
0.0
  9
$USERR4
 40
0.0
  9
$USERR5
 40
0.0
  9
$WORLDVIEW
 70
     1
  9
$SHADEDGE
 70
     3
  9
$SHADEDIF
 70
    70
  9
$TILEMODE
 70
     1
  9
$MAXACTVP
 70
    64
  9
$PINSBASE
 10
0.0
 20
0.0
 30
0.0
  9
$PLIMCHECK
 70
     0
  9
$PEXTMIN
 10
1.000000000000000E+20
 20
1.000000000000000E+20
 30
1.000000000000000E+20
  9
$PEXTMAX
 10
-1.000000000000000E+20
 20
-1.000000000000000E+20
 30
-1.000000000000000E+20
  9
$PLIMMIN
 10
0.0
 20
0.0
  9
$PLIMMAX
 10
420.0
 20
297.0
  9
$UNITMODE
 70
     0
  9
$VISRETAIN
 70
     1
  9
$PLINEGEN
 70
     0
  9
$PSLTSCALE
 70
     1
  9
$TREEDEPTH
 70
  3020
  9
$CMLSTYLE
  2
Standard
  9
$CMLJUST
 70
     0
  9
$CMLSCALE
 40
20.0
  9
$PROXYGRAPHICS
 70
     1
  9
$MEASUREMENT
 70
     1
  9
$CELWEIGHT
370
    -1
  9
$ENDCAPS
280
     0
  9
$JOINSTYLE
280
     0
  9
$LWDISPLAY
290
     0
  9
$INSUNITS
 70
     4
  9
$HYPERLINKBASE
  1

  9
$STYLESHEET
  1
sanindusa.ctb
  9
$XEDIT
290
     1
  9
$CEPSNTYPE
380
     0
  9
$PSTYLEMODE
290
     1
  9
$FINGERPRINTGUID
  2
{9557BB95-8501-43B2-A815-4D449444A618}
  9
$VERSIONGUID
  2
{5AE77BB5-0012-42D7-A1B7-BE9679B8700C}
  9
$EXTNAMES
290
     1
  9
$PSVPSCALE
 40
0.0
  9
$OLESTARTUP
290
     0
  0
ENDSEC
  0
SECTION
  2
CLASSES
  0
CLASS
  1
ACDBDICTIONARYWDFLT
  2
AcDbDictionaryWithDefault
  3
ObjectDBX Classes
 90
        0
280
     0
281
     0
  0
CLASS
  1
ACDBPLACEHOLDER
  2
AcDbPlaceHolder
  3
ObjectDBX Classes
 90
        0
280
     0
281
     0
  0
CLASS
  1
LAYOUT
  2
AcDbLayout
  3
ObjectDBX Classes
 90
        0
280
     0
281
     0
  0
CLASS
  1
DICTIONARYVAR
  2
AcDbDictionaryVar
  3
ObjectDBX Classes
 90
        0
280
     0
281
     0
  0
CLASS
  1
DIMASSOC
  2
AcDbDimAssoc
  3
"AcDbDimAssoc|Product Desc:     AcDim ARX App For Dimension|Company:          Autodesk, Inc.|WEB Address:      www.autodesk.com"
 90
    32768
280
     0
281
     0
  0
CLASS
  1
TABLESTYLE
  2
AcDbTableStyle
  3
ObjectDBX Classes
 90
     4095
280
     0
281
     0
  0
CLASS
  1
MATERIAL
  2
AcDbMaterial
  3
ObjectDBX Classes
 90
     1153
280
     0
281
     0
  0
CLASS
  1
VISUALSTYLE
  2
AcDbVisualStyle
  3
ObjectDBX Classes
 90
     4095
280
     0
281
     0
  0
CLASS
  1
SCALE
  2
AcDbScale
  3
ObjectDBX Classes
 90
     1153
280
     0
281
     0
  0
CLASS
  1
MLEADERSTYLE
  2
AcDbMLeaderStyle
  3
ACDB_MLEADERSTYLE_CLASS
 90
     4095
280
     0
281
     0
  0
CLASS
  1
SORTENTSTABLE
  2
AcDbSortentsTable
  3
ObjectDBX Classes
 90
    32768
280
     0
281
     0
  0
CLASS
  1
AEC_REFEDIT_STATUS_TRACKER
  2
AecDbRefEditStatusTracker
  3
AecArchBase60|Product Desc: Autodesk Architectural Desktop 2007 |Company: Autodesk,Inc. |WEB Address: www.autodesk.com
 90
    32897
280
     0
281
     0
  0
CLASS
  1
NPOCOLLECTION
  2
AcDbImpNonPersistentObjectsCollection
  3
ObjectDBX Classes
 90
    33921
280
     0
281
     0
  0
CLASS
  1
CELLSTYLEMAP
  2
AcDbCellStyleMap
  3
ObjectDBX Classes
 90
     1152
280
     0
281
     0
  0
CLASS
  1
SOLID_BACKGROUND
  2
AcDbSolidBackground
  3
SCENEOE
 90
    36863
280
     0
281
     0
  0
ENDSEC
  0
SECTION
  2
TABLES
  0
TABLE
  2
VPORT
  5
8
102
{ACAD_XDICTIONARY
360
2265
102
}
330
0
100
AcDbSymbolTable
 70
     1
  0
VPORT
  5
1068
330
8
100
AcDbSymbolTableRecord
100
AcDbViewportTableRecord
  2
*Active
 70
     0
 10
0.0
 20
0.0
 11
1.0
 21
1.0
 12
5120.228565614122
 22
2482.738470430176
 13
0.0
 23
0.0
 14
10.0
 24
10.0
 15
10.0
 25
10.0
 16
0.0
 26
0.0
 36
1.0
 17
0.0
 27
0.0
 37
0.0
 40
1.420133513365876
 41
1.635233160621761
 42
50.0
 43
0.0
 44
0.0
 50
0.0
 51
0.0
 71
     0
 72
   100
 73
     1
 74
     2
 75
     0
 76
     0
 77
     0
 78
     0
281
     0
 65
     1
110
0.0
120
0.0
130
0.0
111
1.0
121
0.0
131
0.0
112
0.0
122
1.0
132
0.0
 79
     0
146
0.0
  0
ENDTAB
  0
TABLE
  2
LTYPE
  5
5
330
0
100
AcDbSymbolTable
 70
     5
  0
LTYPE
  5
14
330
5
100
AcDbSymbolTableRecord
100
AcDbLinetypeTableRecord
  2
ByBlock
 70
     0
  3

 72
    65
 73
     0
 40
0.0
  0
LTYPE
  5
15
330
5
100
AcDbSymbolTableRecord
100
AcDbLinetypeTableRecord
  2
ByLayer
 70
     0
  3

 72
    65
 73
     0
 40
0.0
  0
LTYPE
  5
16
330
5
100
AcDbSymbolTableRecord
100
AcDbLinetypeTableRecord
  2
Continuous
 70
     0
  3
Solid line
 72
    65
 73
     0
 40
0.0
  0
LTYPE
  5
2D
330
5
100
AcDbSymbolTableRecord
100
AcDbLinetypeTableRecord
  2
DASHDOT
 70
     0
  3
Dash dot __ . __ . __ . __ . __ . __ . __ . __
 72
    65
 73
     4
 40
25.4
 49
12.7
 74
     0
 49
-6.349999999999999
 74
     0
 49
0.0
 74
     0
 49
-6.349999999999999
 74
     0
  0
LTYPE
  5
2E
330
5
100
AcDbSymbolTableRecord
100
AcDbLinetypeTableRecord
  2
HIDDEN
 70
     0
  3
Hidden __ __ __ __ __ __ __ __ __ __ __ __ __ _
 72
    65
 73
     2
 40
9.524999999999998
 49
6.349999999999999
 74
     0
 49
-3.174999999999999
 74
     0
  0
LTYPE
  5
C75
330
5
100
AcDbSymbolTableRecord
100
AcDbLinetypeTableRecord
  2
AM_ISO02W050
 70
     0
  3
__ __ __ __ __ __ __ __ __ __ __ __ __ __ __
 72
    65
 73
     2
 40
7.5
 49
6.0
 74
     0
 49
-1.5
 74
     0
  0
LTYPE
  5
C76
330
5
100
AcDbSymbolTableRecord
100
AcDbLinetypeTableRecord
  2
AM_ISO08W050
 70
     0
  3
____ . ____ . ____ . ____ . ____ . ____ . ____
 72
    65
 73
     4
 40
18.0
 49
12.0
 74
     0
 49
-1.5
 74
     0
 49
3.0
 74
     0
 49
-1.5
 74
     0
  0
ENDTAB
  0
TABLE
  2
LAYER
  5
2
102
{ACAD_XDICTIONARY
360
1051
102
}
330
0
100
AcDbSymbolTable
 70
    17
  0
LAYER
  5
10
102
{ACAD_XDICTIONARY
360
21ED
102
}
330
2
100
AcDbSymbolTableRecord
100
AcDbLayerTableRecord
  2
0
 70
     0
 62
     7
  6
Continuous
370
    -3
390
F
  0
LAYER
  5
2F
102
{ACAD_XDICTIONARY
360
21EF
102
}
330
2
100
AcDbSymbolTableRecord
100
AcDbLayerTableRecord
  2
1
 70
     0
 62
     1
  6
Continuous
370
    -3
390
F
  0
LAYER
  5
30
102
{ACAD_XDICTIONARY
360
21F1
102
}
330
2
100
AcDbSymbolTableRecord
100
AcDbLayerTableRecord
  2
2
 70
     0
 62
     2
  6
Continuous
370
    -3
390
F
  0
LAYER
  5
31
102
{ACAD_XDICTIONARY
360
21F3
102
}
330
2
100
AcDbSymbolTableRecord
100
AcDbLayerTableRecord
  2
3
 70
     0
 62
     3
  6
Continuous
370
    -3
390
F
  0
LAYER
  5
32
102
{ACAD_XDICTIONARY
360
21F5
102
}
330
2
100
AcDbSymbolTableRecord
100
AcDbLayerTableRecord
  2
4
 70
     0
 62
     4
  6
Continuous
370
    -3
390
F
  0
LAYER
  5
33
102
{ACAD_XDICTIONARY
360
21F7
102
}
330
2
100
AcDbSymbolTableRecord
100
AcDbLayerTableRecord
  2
5
 70
     0
 62
     5
  6
Continuous
370
    -3
390
F
  0
LAYER
  5
34
102
{ACAD_XDICTIONARY
360
21F9
102
}
330
2
100
AcDbSymbolTableRecord
100
AcDbLayerTableRecord
  2
6
 70
     0
 62
     6
  6
Continuous
370
    -3
390
F
  0
LAYER
  5
35
102
{ACAD_XDICTIONARY
360
21FB
102
}
330
2
100
AcDbSymbolTableRecord
100
AcDbLayerTableRecord
  2
7
 70
     0
 62
     7
  6
Continuous
370
    -3
390
F
  0
LAYER
  5
36
102
{ACAD_XDICTIONARY
360
21FD
102
}
330
2
100
AcDbSymbolTableRecord
100
AcDbLayerTableRecord
  2
cen
 70
     0
 62
     7
  6
DASHDOT
370
    -3
390
F
  0
LAYER
  5
37
102
{ACAD_XDICTIONARY
360
21FF
102
}
330
2
100
AcDbSymbolTableRecord
100
AcDbLayerTableRecord
  2
hid
 70
     0
 62
     7
  6
HIDDEN
370
    -3
390
F
  0
LAYER
  5
5D6
102
{ACAD_XDICTIONARY
360
2201
102
}
330
2
100
AcDbSymbolTableRecord
100
AcDbLayerTableRecord
  2
hatch
 70
     0
 62
     9
  6
Continuous
370
    -3
390
F
  0
LAYER
  5
8AF
102
{ACAD_XDICTIONARY
360
2203
102
}
330
2
100
AcDbSymbolTableRecord
100
AcDbLayerTableRecord
  2
9
 70
     0
 62
     9
  6
Continuous
370
    -3
390
F
  0
LAYER
  5
8F8
102
{ACAD_XDICTIONARY
360
2205
102
}
330
2
100
AcDbSymbolTableRecord
100
AcDbLayerTableRecord
  2
leg fin
 70
     0
 62
     9
  6
Continuous
370
    -3
390
F
  0
LAYER
  5
91D
102
{ACAD_XDICTIONARY
360
2207
102
}
330
2
100
AcDbSymbolTableRecord
100
AcDbLayerTableRecord
  2
cotas
 70
     0
 62
     1
  6
Continuous
370
    -3
390
F
  0
LAYER
  5
92F
330
2
100
AcDbSymbolTableRecord
100
AcDbLayerTableRecord
  2
Defpoints
 70
     0
 62
     7
  6
Continuous
290
     0
370
    -3
390
F
  0
LAYER
  5
C7B
102
{ACAD_XDICTIONARY
360
2209
102
}
330
2
100
AcDbSymbolTableRecord
100
AcDbLayerTableRecord
  2
SANINDUSA
 70
     0
 62
     3
  6
Continuous
370
    -3
390
F
  0
LAYER
  5
1060
102
{ACAD_XDICTIONARY
360
220B
102
}
330
2
100
AcDbSymbolTableRecord
100
AcDbLayerTableRecord
  2
hid1
 70
     0
 62
     9
  6
HIDDEN
370
    -3
390
F
1001
AcAecLayerStandard
1000

1000

  0
ENDTAB
  0
TABLE
  2
STYLE
  5
3
330
0
100
AcDbSymbolTable
 70
     4
  0
STYLE
  5
11
330
3
100
AcDbSymbolTableRecord
100
AcDbTextStyleTableRecord
  2
Standard
 70
     0
 40
0.0
 41
1.0
 50
0.0
 71
     0
 42
2.5
  3
Avgardn.ttf
  4

1001
ACAD
1000
AvantGarde Bk BT
1071
       34
  0
STYLE
  5
2C
330
3
100
AcDbSymbolTableRecord
100
AcDbTextStyleTableRecord
  2

 70
     1
 40
0.0
 41
1.0
 50
0.0
 71
     0
 42
2.5
  3
ltypeshp.shx
  4

  0
STYLE
  5
91F
330
3
100
AcDbSymbolTableRecord
100
AcDbTextStyleTableRecord
  2
SANINDUSA
 70
     0
 40
0.0
 41
1.0
 50
0.0
 71
     0
 42
2.5
  3
verdana.TTF
  4

1001
ACAD
1000
Verdana
1071
       34
  0
STYLE
  5
C7C
330
3
100
AcDbSymbolTableRecord
100
AcDbTextStyleTableRecord
  2
futura
 70
     0
 40
0.0
 41
1.0
 50
0.0
 71
     0
 42
2.5
  3
ZURCHN.TTF
  4

1001
ACAD
1000
Zurich BT
1071
       34
  0
ENDTAB
  0
TABLE
  2
VIEW
  5
6
330
0
100
AcDbSymbolTable
 70
     0
  0
ENDTAB
  0
TABLE
  2
UCS
  5
7
330
0
100
AcDbSymbolTable
 70
     0
  0
ENDTAB
  0
TABLE
  2
APPID
  5
9
330
0
100
AcDbSymbolTable
 70
    16
  0
APPID
  5
12
330
9
100
AcDbSymbolTableRecord
100
AcDbRegAppTableRecord
  2
ACAD
 70
     0
  0
APPID
  5
3A
330
9
100
AcDbSymbolTableRecord
100
AcDbRegAppTableRecord
  2
DCO15
 70
     0
  0
APPID
  5
EEE
330
9
100
AcDbSymbolTableRecord
100
AcDbRegAppTableRecord
  2
ACAD_DSTYLE_DIMTEXT_FILL
 70
     0
  0
APPID
  5
EEF
330
9
100
AcDbSymbolTableRecord
100
AcDbRegAppTableRecord
  2
ACAD_DSTYLE_DIMEXT_LENGTH
 70
     0
  0
APPID
  5
EF0
330
9
100
AcDbSymbolTableRecord
100
AcDbRegAppTableRecord
  2
ACAD_DSTYLE_DIMEXT_ENABLED
 70
     0
  0
APPID
  5
EF1
330
9
100
AcDbSymbolTableRecord
100
AcDbRegAppTableRecord
  2
ACAD_DSTYLE_DIM_LINETYPE
 70
     0
  0
APPID
  5
EF2
330
9
100
AcDbSymbolTableRecord
100
AcDbRegAppTableRecord
  2
ACAD_DSTYLE_DIM_EXT1_LINETYPE
 70
     0
  0
APPID
  5
EF3
330
9
100
AcDbSymbolTableRecord
100
AcDbRegAppTableRecord
  2
ACAD_DSTYLE_DIM_EXT2_LINETYPE
 70
     0
  0
APPID
  5
FAF
330
9
100
AcDbSymbolTableRecord
100
AcDbRegAppTableRecord
  2
ACAD_DSTYLE_DIMJOGGED_JOGANGLE_SYMBOL
 70
     0
  0
APPID
  5
1013
330
9
100
AcDbSymbolTableRecord
100
AcDbRegAppTableRecord
  2
ACAD_DSTYLE_DIMARC_LENGTH_SYMBOL
 70
     0
  0
APPID
  5
1061
330
9
100
AcDbSymbolTableRecord
100
AcDbRegAppTableRecord
  2
AcAecLayerStandard
 70
     0
  0
APPID
  5
12CB
330
9
100
AcDbSymbolTableRecord
100
AcDbRegAppTableRecord
  2
ACAD_DSTYLE_DIMJAG
 70
     0
  0
APPID
  5
12CC
330
9
100
AcDbSymbolTableRecord
100
AcDbRegAppTableRecord
  2
ACAD_DSTYLE_DIMTALN
 70
     0
  0
APPID
  5
12CD
330
9
100
AcDbSymbolTableRecord
100
AcDbRegAppTableRecord
  2
ACAD_DSTYLE_DIMRADIAL_EXTENSION
 70
     0
  0
APPID
  5
2256
330
9
100
AcDbSymbolTableRecord
100
AcDbRegAppTableRecord
  2
ACAD_EXEMPT_FROM_CAD_STANDARDS
 70
     0
  0
APPID
  5
2297
330
9
100
AcDbSymbolTableRecord
100
AcDbRegAppTableRecord
  2
ACAD_MLEADERVER
 70
     0
  0
ENDTAB
  0
TABLE
  2
DIMSTYLE
  5
A
330
0
100
AcDbSymbolTable
 70
     3
100
AcDbDimStyleTable
 71
     1
340
921
  0
DIMSTYLE
105
45
330
A
100
AcDbSymbolTableRecord
100
AcDbDimStyleTableRecord
  2
STANDARD
 70
     0
289
     0
340
11
  0
DIMSTYLE
105
921
330
A
100
AcDbSymbolTableRecord
100
AcDbDimStyleTableRecord
  2
SANINDUSA
 70
     0
 40
10.0
 41
2.0
 42
1.0
 43
1.0
 44
1.0
 73
     0
 74
     0
 77
     1
 78
     8
140
2.0
141
0.0
143
0.03937007874016
147
1.0
171
     3
172
     1
176
   256
177
   256
178
   256
179
     1
271
     0
272
     0
274
     3
278
    44
283
     0
284
     8
340
91F
371
    -1
372
    -1
1001
ACAD_DSTYLE_DIMJAG
1070
   388
1040
1.5
1001
ACAD_DSTYLE_DIMTALN
1070
   392
1070
     0
1001
ACAD_DSTYLE_DIMJOGGED_JOGANGLE_SYMBOL
1070
   384
1040
1.570796326794896
  0
DIMSTYLE
105
C7D
330
A
100
AcDbSymbolTableRecord
100
AcDbDimStyleTableRecord
  2
AM_ISO
 70
     0
  4
"
 41
2.5
 42
1.0
 43
10.0
 44
1.0
 47
0.1
 48
0.1
 73
     0
 74
     0
 77
     1
 78
     8
 79
     2
140
3.5
141
0.0
143
0.0393701
146
0.71
147
1.5
172
     1
176
   256
177
   256
178
     2
271
     2
272
     3
274
     4
283
     0
284
     8
340
11
371
    -1
372
    -1
  0
ENDTAB
  0
TABLE
  2
BLOCK_RECORD
  5
1
330
0
100
AcDbSymbolTable
 70
    29
  0
BLOCK_RECORD
  5
1F
330
1
100
AcDbSymbolTableRecord
100
AcDbBlockTableRecord
  2
*Model_Space
340
22
  0
BLOCK_RECORD
  5
1B
330
1
100
AcDbSymbolTableRecord
100
AcDbBlockTableRecord
  2
*Paper_Space
340
1E
  0
BLOCK_RECORD
  5
23
330
1
100
AcDbSymbolTableRecord
100
AcDbBlockTableRecord
  2
*Paper_Space0
340
26
  0
BLOCK_RECORD
  5
919
330
1
100
AcDbSymbolTableRecord
100
AcDbBlockTableRecord
  2
_DotSmall
340
0
  0
BLOCK_RECORD
  5
922
330
1
100
AcDbSymbolTableRecord
100
AcDbBlockTableRecord
  2
base para cotas
340
0
310
2800000020000000200000000100080000000000000400000000000000000000000000000000000000000000000080000080000000808000800000008000800080800000C0C0C000C0DCC000F0CAA6000020400000206000002080000020A0000020C0000020E00000400000004020000040400000406000004080000040A0
310
000040C0000040E00000600000006020000060400000606000006080000060A0000060C0000060E00000800000008020000080400000806000008080000080A0000080C0000080E00000A0000000A0200000A0400000A0600000A0800000A0A00000A0C00000A0E00000C0000000C0200000C0400000C0600000C0800000C0
310
A00000C0C00000C0E00000E0000000E0200000E0400000E0600000E0800000E0A00000E0C00000E0E00040000000400020004000400040006000400080004000A0004000C0004000E00040200000402020004020400040206000402080004020A0004020C0004020E000404000004040200040404000404060004040800040
310
40A0004040C0004040E00040600000406020004060400040606000406080004060A0004060C0004060E00040800000408020004080400040806000408080004080A0004080C0004080E00040A0000040A0200040A0400040A0600040A0800040A0A00040A0C00040A0E00040C0000040C0200040C0400040C0600040C08000
310
40C0A00040C0C00040C0E00040E0000040E0200040E0400040E0600040E0800040E0A00040E0C00040E0E00080000000800020008000400080006000800080008000A0008000C0008000E00080200000802020008020400080206000802080008020A0008020C0008020E00080400000804020008040400080406000804080
310
008040A0008040C0008040E00080600000806020008060400080606000806080008060A0008060C0008060E00080800000808020008080400080806000808080008080A0008080C0008080E00080A0000080A0200080A0400080A0600080A0800080A0A00080A0C00080A0E00080C0000080C0200080C0400080C0600080C0
310
800080C0A00080C0C00080C0E00080E0000080E0200080E0400080E0600080E0800080E0A00080E0C00080E0E000C0000000C0002000C0004000C0006000C0008000C000A000C000C000C000E000C0200000C0202000C0204000C0206000C0208000C020A000C020C000C020E000C0400000C0402000C0404000C0406000C0
310
408000C040A000C040C000C040E000C0600000C0602000C0604000C0606000C0608000C060A000C060C000C060E000C0800000C0802000C0804000C0806000C0808000C080A000C080C000C080E000C0A00000C0A02000C0A04000C0A06000C0A08000C0A0A000C0A0C000C0A0E000C0C00000C0C02000C0C04000C0C06000
310
C0C08000C0C0A000F0FBFF00A4A0A000808080000000FF0000FF000000FFFF00FF000000FF00FF00FFFF0000FFFFFF00A4A4A4A4A4A4A4A4A4A4A4A4A4A4A4A4A4A4A4A4A4A4A4A4A4A4A4A4A4A4A4A4A4A4A4A4A4A4A4A4A4A4A4A4A4A4A4A4A4A4A4A4A4A4A4A4A4A4A4A4A4A4A4A4A4A4A4A4A4A4A4A4A4A4A4A4A4A4A4
310
A4A4A4A4A4A4A4A4A4A4A4A4A4A4A4A4A4A4A4A4A4A4A4A4A4A4A4A4A4A4A4A4A4A4A4A4A4A4A4A4A4A4A4A4A4A4A4A4A4A4A4A4A4A4A4A4A4A4A4A4A4A4A4A4A4A4A4A4A4A4A4A4A4A4A4A4A4A4A4A4A4A4A4A4A4A4A4A4A4A4A4A4A4A4A4A4A4A4A4A4A4A4A4A4A4A4A4A4A4A4A4A4A4A4A4A4A4A4A4A4A4A4A4A4A4A4A4
310
A4A4A4A4A4A4A4A4A4A4A4A4A4A4A4A4A4A4A4A4A4A4A4A4A4A4A4A4A4A4A4A4A4A4A4A4A4A4A4A4A4A4A4A4A4A4A4A4A4A4A4A4A4A4A4A4A4A4A4A4A4A4A4A4A4A4A4A4A4A4A4A4A4A4A4A4A4A4A4A4A4A4A4A4A4A4A4A4A4A4A4A4A4A4A4A4A4A4A4A4A4A4A4A4A4A4A4A4A4A4A4A4A4A4A4A4A4A4A4A4A4A4A4A4A4A4A4
310
A4A4A4A4A4A4A4A4A4A4A4A4A4A4A4A4A4A4A4A4A4A4A4A4A4A4A4A4A4A4A4A4A4A4A4A4A4A4A4A4A4A4A4A4A4A4A4A4A4A4A4A4A4A4A4A4A4A4A4A4A4A4A4A4A4A4A4A4A4A4A4A4A4A4A4A4A4A4A4A4A4A4A4A4A4A4A4A4A4A4A4A4A4A4A4A4A4A4A4A4A4A4A4A4A4A4A4A4A4A4A4A4A4A4A4A4F9F9F9F9F9F9F9F9F9F9F9
310
F9F9F9F9F9F9F9F9F9F9F9F9F9F9F9F9F9F9F9A4A4F9F9F9F9F9F9F9F9F9F9F9F9F9F9F9F9F9F9F9F9F9F9F9F9F9F9F9F9F9F9A4A4F9F9F9F9F9F9F9F9F9F9F9F9F9F9F9F9F9F9F9F9F9F9F9F9F9F9F9F9F9F9A4A4F9A4A4A4A4A4A4A4A4A4A4A4A4A4A4A4A4A4A4A4A4A4A4A4A4A4A4A4A4F9A4A4A4A4A4A4A4A4A4A4A4A4
310
A4A4A4A4A4A4A4A4A4A4A4A4A4A4A4A4A4A4A4A4A4A4A4A4A4A4A4A4A4A4A4A4A4A4A4A4A4A4A4A4A4A4A4A4A4A4A4A4A4A4A4A4A4A4A4A4A4A4A4A4A4A4A4A4A4A4A4A4A4A4A4A4A4A4A4A4A4A4A4A4A4A4A4A4A4A4A4A4A4A4A4A4A4A4A4A4A4A4A4A4A4A4A4A4A4A4A4A4A4A4A4A4A4A4A4A4A4A4A4A4A4A4A4A4A4A4A4
310
A4A4A4A4A4A4A4A4A4A4A4A4A4A4A4A4A4A4A4A4A4A4A4A4A4A4A4A4A4A4A4A4A4A4A4A4A4A4A4A4A4A4A4A4A4A4A4A4A4A4A4A4A4A4A4A4A4A4A4A4A4A4A4A4A4A4A4A4A4A4A4A4A4A4A4A4A4A4A4A4A4A4A4A4A4A4A4A4A4A4A4A4A4A4A4A4A4A4A4A4A4A4A4A4A4A4A4A4A4A4A4A4A4A4A4A4A4A4A4A4A4A4A4A4A4A4A4
310
A4A4A4A4A4A4A4A4A4A4A4A4A4A4A4A4A4A4A4A4A4A4A4A4A4A4A4A4A4A4A4A4A4A4A4A4A4A4A4A4A4A4A4A4A4A4A4A4A4A4A4A4A4A4A4A4A4A4A4A4A4A4A4A4A4A4A4A4A4A4A4A4A4A4A4A4A4A4A4A4A4A4A4A4A4A4A4A4A4A4A4A4A4A4A4A4A4A4A4A4A4A4A4A4A4A4A4A4A4A4A4A4A4A4A4A4A4A4A4A4A4A4A4A4A4A4A4
310
A4A4A4A4A4A4A4A4A4A4A4A4A4A4A4A4A4A4A4A4A4A4A4A4A4A4A4A4A4A4A4A4A4A4A4A4A4A4A4A4A4A4A4A4A4A4A4A4A4A4A4A4A4A4A4A4
1001
ACAD
1000
DesignCenter Data
1002
{
1070
     1
1070
     4
1002
}
  0
BLOCK_RECORD
  5
AA8
330
1
100
AcDbSymbolTableRecord
100
AcDbBlockTableRecord
  2
_CLOSED
340
0
  0
BLOCK_RECORD
  5
B79
330
1
100
AcDbSymbolTableRecord
100
AcDbBlockTableRecord
  2
nota revisoes
340
0
1001
ACAD
1000
DesignCenter Data
1002
{
1070
     1
1070
     4
1002
}
  0
BLOCK_RECORD
  5
B8E
330
1
100
AcDbSymbolTableRecord
100
AcDbBlockTableRecord
  2
a3l
340
0
1001
ACAD
1000
DesignCenter Data
1002
{
1070
     1
1070
     4
1002
}
  0
BLOCK_RECORD
  5
B9E
330
1
100
AcDbSymbolTableRecord
100
AcDbBlockTableRecord
  2
legenda desenvolvimento
340
0
1001
ACAD
1000
DesignCenter Data
1002
{
1070
     1
1070
     4
1002
}
  0
ENDTAB
  0
ENDSEC
  0
SECTION
  2
BLOCKS
  0
BLOCK
  5
20
330
1F
100
AcDbEntity
  8
0
100
AcDbBlockBegin
  2
*Model_Space
 70
     0
 10
0.0
 20
0.0
 30
0.0
  3
*Model_Space
  1

  0
ENDBLK
  5
21
330
1F
100
AcDbEntity
  8
0
100
AcDbBlockEnd
  0
BLOCK
  5
1C
330
1B
100
AcDbEntity
 67
     1
  8
0
100
AcDbBlockBegin
  2
*Paper_Space
 70
     0
 10
0.0
 20
0.0
 30
0.0
  3
*Paper_Space
  1

  0
ENDBLK
  5
1D
330
1B
100
AcDbEntity
 67
     1
  8
0
100
AcDbBlockEnd
  0
BLOCK
  5
24
330
23
100
AcDbEntity
 67
     1
  8
0
100
AcDbBlockBegin
  2
*Paper_Space0
 70
     0
 10
0.0
 20
0.0
 30
0.0
  3
*Paper_Space0
  1

  0
ENDBLK
  5
25
330
23
100
AcDbEntity
 67
     1
  8
0
100
AcDbBlockEnd
  0
BLOCK
  5
91B
330
919
100
AcDbEntity
  8
0
100
AcDbBlockBegin
  2
_DotSmall
 70
     0
 10
0.0
 20
0.0
 30
0.0
  3
_DotSmall
  1

  0
LWPOLYLINE
  5
91A
330
919
100
AcDbEntity
  8
0
  6
ByBlock
 62
     0
100
AcDbPolyline
 90
        2
 70
     1
 43
0.5
 10
-0.0625
 20
0.0
 42
1.0
 10
0.0625
 20
0.0
 42
1.0
  0
ENDBLK
  5
91C
330
919
100
AcDbEntity
  8
0
100
AcDbBlockEnd
  0
BLOCK
  5
92A
330
922
100
AcDbEntity
  8
0
100
AcDbBlockBegin
  2
base para cotas
 70
     0
 10
0.0
 20
0.0
 30
0.0
  3
base para cotas
  1

  0
LINE
  5
B36
330
922
100
AcDbEntity
  8
cotas
100
AcDbLine
 10
0.0
 20
-30.0
 30
0.0
 11
327.1260136525398
 21
-30.0
 31
0.0
  0
LINE
  5
B37
330
922
100
AcDbEntity
  8
cotas
100
AcDbLine
 10
0.0
 20
-25.0
 30
0.0
 11
327.1260136525398
 21
-25.0
 31
0.0
  0
LINE
  5
B38
330
922
100
AcDbEntity
  8
cotas
100
AcDbLine
 10
0.0
 20
-20.0
 30
0.0
 11
327.1260136525398
 21
-20.0
 31
0.0
  0
LINE
  5
B39
330
922
100
AcDbEntity
  8
cotas
100
AcDbLine
 10
0.0
 20
-15.0
 30
0.0
 11
327.1260136525398
 21
-15.0
 31
0.0
  0
LINE
  5
B3A
330
922
100
AcDbEntity
  8
cotas
100
AcDbLine
 10
0.0
 20
-10.0
 30
0.0
 11
327.1260136525398
 21
-10.0
 31
0.0
  0
LINE
  5
B3B
330
922
100
AcDbEntity
  8
cotas
100
AcDbLine
 10
0.0
 20
0.0
 30
0.0
 11
0.0
 21
-30.0
 31
0.0
  0
LINE
  5
B3C
330
922
100
AcDbEntity
  8
cotas
100
AcDbLine
 10
327.1260136525398
 20
-30.0
 30
0.0
 11
327.1260136525398
 21
0.0
 31
0.0
  0
ENDBLK
  5
92B
330
922
100
AcDbEntity
  8
0
100
AcDbBlockEnd
  0
BLOCK
  5
AAD
330
AA8
100
AcDbEntity
  8
0
100
AcDbBlockBegin
  2
_CLOSED
 70
     0
 10
0.0
 20
0.0
 30
0.0
  3
_CLOSED
  1

  0
LINE
  5
AA9
330
AA8
100
AcDbEntity
  8
0
100
AcDbLine
 10
-1.0
 20
0.166667
 30
0.0
 11
0.0
 21
0.0
 31
0.0
  0
LINE
  5
AAA
330
AA8
100
AcDbEntity
  8
0
100
AcDbLine
 10
0.0
 20
0.0
 30
0.0
 11
-1.0
 21
-0.166667
 31
0.0
  0
LINE
  5
AAB
330
AA8
100
AcDbEntity
  8
0
100
AcDbLine
 10
-1.0
 20
0.166667
 30
0.0
 11
-1.0
 21
-0.166667
 31
0.0
  0
LINE
  5
AAC
330
AA8
100
AcDbEntity
  8
0
100
AcDbLine
 10
0.0
 20
0.0
 30
0.0
 11
-1.0
 21
0.0
 31
0.0
  0
ENDBLK
  5
AAE
330
AA8
100
AcDbEntity
  8
0
100
AcDbBlockEnd
  0
BLOCK
  5
B7C
330
B79
100
AcDbEntity
  8
0
100
AcDbBlockBegin
  2
nota revisoes
 70
     0
 10
0.0
 20
0.0
 30
0.0
  3
nota revisoes
  1

  0
CIRCLE
  5
B7A
330
B79
100
AcDbEntity
  8
4
100
AcDbCircle
 10
0.0
 20
0.0
 30
0.0
 40
13.69426055101189
  0
TEXT
  5
B7B
330
B79
100
AcDbEntity
  8
4
100
AcDbText
 10
-5.496248358154345
 20
-5.354545554066362
 30
0.0
 40
12.0
  1
1
  7
SANINDUSA
 72
     1
 11
-0.249774214433728
 21
-5.354545554066362
 31
0.0
100
AcDbText
  0
ENDBLK
  5
B7D
330
B79
100
AcDbEntity
  8
0
100
AcDbBlockEnd
  0
BLOCK
  5
B9C
330
B8E
100
AcDbEntity
  8
0
100
AcDbBlockBegin
  2
a3l
 70
     0
 10
0.0
 20
0.0
 30
0.0
  3
a3l
  1

  0
LINE
  5
B8F
330
B8E
100
AcDbEntity
  8
1
100
AcDbLine
 10
-364.2925296599447
 20
-362.1188951399395
 30
0.0
 11
-364.2925296599447
 21
-65.11889513993946
 31
0.0
  0
LINE
  5
B90
330
B8E
100
AcDbEntity
  8
4
100
AcDbLine
 10
-369.2925296599447
 20
-357.1188951399395
 30
0.0
 11
-369.2925296599447
 21
-70.11889513993946
 31
0.0
  0
LINE
  5
B91
330
B8E
100
AcDbEntity
  8
1
100
AcDbLine
 10
-784.2925296599446
 20
-65.11889513993946
 30
0.0
 11
-784.2925296599446
 21
-362.1188951399395
 31
0.0
  0
LINE
  5
B92
330
B8E
100
AcDbEntity
  8
4
100
AcDbLine
 10
-759.2925296599446
 20
-357.1188951399395
 30
0.0
 11
-759.2925296599446
 21
-70.11889513993946
 31
0.0
  0
LINE
  5
B93
330
B8E
100
AcDbEntity
  8
1
100
AcDbLine
 10
-784.2925296599446
 20
-362.1188951399395
 30
0.0
 11
-364.2925296599447
 21
-362.1188951399395
 31
0.0
  0
LINE
  5
B94
330
B8E
100
AcDbEntity
  8
4
100
AcDbLine
 10
-759.2925296599446
 20
-357.1188951399395
 30
0.0
 11
-369.2925296599447
 21
-357.1188951399395
 31
0.0
  0
LINE
  5
B95
330
B8E
100
AcDbEntity
  8
1
100
AcDbLine
 10
-654.2925296599446
 20
-357.1188951399395
 30
0.0
 11
-654.2925296599446
 21
-362.1188951399395
 31
0.0
  0
LINE
  5
B96
330
B8E
100
AcDbEntity
  8
1
100
AcDbLine
 10
-364.2925296599447
 20
-65.11889513993946
 30
0.0
 11
-784.2925296599446
 21
-65.11889513993946
 31
0.0
  0
LINE
  5
B97
330
B8E
100
AcDbEntity
  8
4
100
AcDbLine
 10
-369.2925296599447
 20
-70.11889513993946
 30
0.0
 11
-759.2925296599446
 21
-70.11889513993946
 31
0.0
  0
LINE
  5
B98
330
B8E
100
AcDbEntity
  8
1
100
AcDbLine
 10
-654.2925296599446
 20
-65.11889513993946
 30
0.0
 11
-654.2925296599446
 21
-70.11889513993946
 31
0.0
  0
LINE
  5
B99
330
B8E
100
AcDbEntity
  8
1
100
AcDbLine
 10
-549.2925296599446
 20
-70.11889513993946
 30
0.0
 11
-549.2925296599446
 21
-65.11889513993946
 31
0.0
  0
LINE
  5
B9A
330
B8E
100
AcDbEntity
  8
1
100
AcDbLine
 10
-369.2925296599447
 20
-65.11889513993946
 30
0.0
 11
-364.2925296599447
 21
-65.11889513993946
 31
0.0
  0
LINE
  5
B9B
330
B8E
100
AcDbEntity
  8
1
100
AcDbLine
 10
-549.2925296599446
 20
-357.1188951399395
 30
0.0
 11
-549.2925296599446
 21
-362.1188951399395
 31
0.0
  0
ENDBLK
  5
B9D
330
B8E
100
AcDbEntity
  8
0
100
AcDbBlockEnd
  0
BLOCK
  5
C13
330
B9E
100
AcDbEntity
  8
0
100
AcDbBlockBegin
  2
legenda desenvolvimento
 70
     2
 10
0.0
 20
0.0
 30
0.0
  3
legenda desenvolvimento
  1

  0
ATTDEF
  5
B9F
330
B9E
100
AcDbEntity
  8
1
100
AcDbText
 10
-108.606245802552
 20
55.5
 30
0.0
 40
4.0
  1
XXXXXXXXXXXXXX
 41
0.8
  7
SANINDUSA
 72
     4
 11
-87.5
 21
57.5
 31
0.0
100
AcDbAttributeDefinition
  3
Nome do Produto:
  2
PRODUTO
 70
     0
  0
ATTDEF
  5
BA0
330
B9E
100
AcDbEntity
  8
1
100
AcDbText
 10
-97.9997966101695
 20
41.25
 30
0.0
 40
3.0
  1
XXXXXXXXX
 41
0.8
  7
futura
 72
     4
 11
-87.5
 21
42.75
 31
0.0
100
AcDbAttributeDefinition
  3
Nome da Peça:
  2
PECA
 70
     0
  0
ATTDEF
  5
BA1
330
B9E
100
AcDbEntity
  8
1
100
AcDbText
 10
-133.4422431161853
 20
21.11745296763252
 30
0.0
 40
2.5
  1
X
 41
0.8
  7
SANINDUSA
 72
     4
 11
-132.5
 21
22.36745296763252
 31
0.0
100
AcDbAttributeDefinition
  3
Cod. TESTE:
  2
TESTE
 70
     0
  0
ATTDEF
  5
BA2
330
B9E
100
AcDbEntity
  8
1
100
AcDbText
 10
-124.3844862323707
 20
21.11745296763252
 30
0.0
 40
2.5
  1
XX
 41
0.8
  7
SANINDUSA
 72
     4
 11
-122.5
 21
22.36745296763252
 31
0.0
100
AcDbAttributeDefinition
  3
Cod. Ano:
  2
ANO
 70
     0
  0
ATTDEF
  5
BA3
330
B9E
100
AcDbEntity
  8
1
100
AcDbText
 10
-112.526889953052
 20
21.11745296763252
 30
0.0
 40
2.5
  1
XXX
 41
0.8
  7
SANINDUSA
 72
     4
 11
-109.700160604496
 21
22.36745296763252
 31
0.0
100
AcDbAttributeDefinition
  3
Cod. Sequência:
  2
SEQUENCIA
 70
     0
  0
ATTDEF
  5
BA4
330
B9E
100
AcDbEntity
  8
1
100
AcDbText
 10
-99.35382430979316
 20
21.11745296763252
 30
0.0
 40
2.5
  1
XX
 41
0.8
  7
SANINDUSA
 72
     4
 11
-97.46933807742244
 21
22.36745296763252
 31
0.0
100
AcDbAttributeDefinition
  3
Cod. Tipo:
  2
TIPO
 70
     0
  0
ATTDEF
  5
BA5
330
B9E
100
AcDbEntity
  8
1
100
AcDbText
 10
-87.42035911468438
 20
21.11745296763252
 30
0.0
 40
2.5
  1
XXX
 41
0.8
  7
SANINDUSA
 72
     4
 11
-84.59362976612828
 21
22.36745296763252
 31
0.0
100
AcDbAttributeDefinition
  3
Cod. Produto:
  2
PRODUTO
 70
     0
  0
ATTDEF
  5
BA6
330
B9E
100
AcDbEntity
  8
1
100
AcDbText
 10
-74.62051971917853
 20
21.11745296763252
 30
0.0
 40
2.5
  1
XXX
 41
0.8
  7
SANINDUSA
 72
     4
 11
-71.79379037062244
 21
22.36745296763252
 31
0.0
100
AcDbAttributeDefinition
  3
Cod. Peça:
  2
PECA
 70
     0
  0
ATTDEF
  5
BA7
330
B9E
100
AcDbEntity
  8
1
100
AcDbText
 10
-61.10603446650329
 20
21.11745296763252
 30
0.0
 40
2.5
  1
XX
 41
0.8
  7
SANINDUSA
 72
     4
 11
-59.22154823413257
 21
22.36745296763252
 31
0.0
100
AcDbAttributeDefinition
  3
Cod. Revisão:
  2
REV
 70
     0
  0
ATTDEF
  5
BA8
330
B9E
100
AcDbEntity
  8
1
100
AcDbText
 10
-48.43615325006194
 20
21.11745296763252
 30
0.0
 40
2.5
  1
XX
 41
0.8
  7
SANINDUSA
 72
     4
 11
-46.55166701769121
 21
22.36745296763252
 31
0.0
100
AcDbAttributeDefinition
  3
Cod. Alteração:
  2
ALT
 70
     0
  0
ATTDEF
  5
BA9
330
B9E
100
AcDbEntity
  8
1
100
AcDbText
 10
-35.19086635325722
 20
23.98875083948959
 30
0.0
 40
3.0
  1
1/XXX
 41
0.8
  7
SANINDUSA
 72
     4
 11
-30.0
 21
25.25
 31
0.0
100
AcDbAttributeDefinition
  3
Escala geral:
  2
ESCALA
 70
     0
  0
ATTDEF
  5
BAA
330
B9E
100
AcDbEntity
  8
1
100
AcDbText
 10
-15.65345869711215
 20
23.75
 30
0.0
 40
3.0
  1
XXXXX
 41
0.8
  7
SANINDUSA
 72
     4
 11
-10.0
 21
25.25
 31
0.0
100
AcDbAttributeDefinition
  3
Folha:
  2
FOLHA
 70
     0
  0
ATTDEF
  5
BAB
330
B9E
100
AcDbEntity
  8
1
100
AcDbText
 10
-178.5146998822042
 20
56.9531347542807
 30
0.0
 40
2.0
  1
xx
 41
0.8
  7
SANINDUSA
 72
     4
 11
-177.2123493113513
 21
57.70330265219877
 31
0.0
100
AcDbAttributeDefinition
  3
revisão
  2
REV.
 70
     0
  0
ATTDEF
  5
BAC
330
B9E
100
AcDbEntity
  8
1
100
AcDbText
 10
-172.7849640077129
 20
56.9531347542807
 30
0.0
 40
2.0
  1
xx
 41
0.8
  7
SANINDUSA
 72
     4
 11
-171.48261343686
 21
57.70330265219877
 31
0.0
100
AcDbAttributeDefinition
  3
alteração
  2
ALT.
 70
     0
  0
ATTDEF
  5
BAD
330
B9E
100
AcDbEntity
  8
1
100
AcDbText
 10
-168.007199951307
 20
56.70330265219877
 30
0.0
 40
2.0
  1
xx/xx/xxxx
 41
0.8
  7
SANINDUSA
 11
-168.007199951307
 21
57.70330265219877
 31
0.0
100
AcDbAttributeDefinition
  3
data
  2
DATA
 70
     0
 74
     2
  0
ATTDEF
  5
BAE
330
B9E
100
AcDbEntity
  8
1
100
AcDbText
 10
-168.5396372253371
 20
13.15916722632639
 30
0.0
 40
2.0
  1
XX/XX/XXXX
 41
0.8
  7
SANINDUSA
 72
     4
 11
-161.5099528734231
 21
14.0
 31
0.0
100
AcDbAttributeDefinition
  3
Data projecto
  2
DATA_PROJ
 70
     0
  0
ATTDEF
  5
BAF
330
B9E
100
AcDbEntity
  8
1
100
AcDbText
 10
-150.8658110728766
 20
13.24983210208193
 30
0.0
 40
2.0
  1
xxxxxxxx
 41
0.8
  7
SANINDUSA
 72
     4
 11
-145.6564087894649
 21
14.0
 31
0.0
100
AcDbAttributeDefinition
  3
nome de quem projectou
  2
NOME
 70
     0
  0
ATTDEF
  5
BB0
330
B9E
100
AcDbEntity
  8
1
100
AcDbText
 10
-168.5396372253371
 20
9.159167226326394
 30
0.0
 40
2.0
  1
XX/XX/XXXX
 41
0.8
  7
SANINDUSA
 72
     4
 11
-161.5099528734231
 21
10.0
 31
0.0
100
AcDbAttributeDefinition
  3
Data desenhou
  2
DATA_DES
 70
     0
  0
ATTDEF
  5
BB1
330
B9E
100
AcDbEntity
  8
1
100
AcDbText
 10
-151.516986358303
 20
9.249832102081933
 30
0.0
 40
2.0
  1
xxxxxxxxx
 41
0.8
  7
SANINDUSA
 72
     4
 11
-145.6564087894649
 21
10.0
 31
0.0
100
AcDbAttributeDefinition
  3
nome
  2
NOME
 70
     0
  0
ATTDEF
  5
BB2
330
B9E
100
AcDbEntity
  8
1
100
AcDbText
 10
-127.2924214135946
 20
14.1979876583216
 30
0.0
 40
2.0
  1
Vitreous China
 41
0.8
  7
SANINDUSA
 72
     4
 11
-119.231709526422
 21
15.22216495852308
 31
0.0
100
AcDbAttributeDefinition
  3
Nome do Material:
  2
MATERIAL
 70
     0
  0
ATTDEF
  5
BB3
330
B9E
100
AcDbEntity
  8
1
100
AcDbText
 10
-103.1563452122093
 20
14.38019043949261
 30
0.0
 40
2.0
  1
Branco
 41
0.8
  7
SANINDUSA
 72
     4
 11
-99.33418268702462
 21
15.35937109765245
 31
0.0
100
AcDbAttributeDefinition
  3
cor da peça
  2
COR
 70
     0
  0
ATTDEF
  5
BB4
330
B9E
100
AcDbEntity
  8
1
100
AcDbText
 10
-116.7235057085292
 20
5.975822699798522
 30
0.0
 40
2.0
  1
Vidrado
 41
0.8
  7
SANINDUSA
 72
     4
 11
-112.5
 21
7.0
 31
0.0
100
AcDbAttributeDefinition
  3
Tipo de acabamento:
  2
ACABAMENTO
 70
     0
  0
ATTDEF
  5
BB5
330
B9E
100
AcDbEntity
  8
1
100
AcDbText
 10
-79.18527869967246
 20
16.65066409850533
 30
0.0
 40
2.0
  1
XXXXXXX
 41
0.8
  7
SANINDUSA
 72
     4
 11
-73.90871724903445
 21
17.65066409850533
 31
0.0
100
AcDbAttributeDefinition
  3
Normas
  2
NORMAS
 70
     0
  0
ATTDEF
  5
BB6
330
B9E
100
AcDbEntity
  8
1
100
AcDbText
 10
-30.55312290127603
 20
14.0
 30
0.0
 40
2.0
  1
XXXXXXXXXXXXXX
 41
0.8
  7
SANINDUSA
 72
     4
 11
-20.0
 21
15.0
 31
0.0
100
AcDbAttributeDefinition
  3
Substitui o desenho:
  2
SUBSTITUI
 70
     0
  0
ATTDEF
  5
BB7
330
B9E
100
AcDbEntity
  8
1
100
AcDbText
 10
-31.30691739422431
 20
6.0
 30
0.0
 40
2.0
  1
XXXXXXXXXXXXXXX
 41
0.8
  7
SANINDUSA
 72
     4
 11
-20.0
 21
7.0
 31
0.0
100
AcDbAttributeDefinition
  3
Substituido por:
  2
SUBSTITUIDO
 70
     0
  0
ATTDEF
  5
BB8
330
B9E
100
AcDbEntity
  8
1
100
AcDbText
 10
-110.0220608548302
 20
1.478208457928303
 30
0.0
 40
2.0
  1
XXXXXXXXXXXXXXXXXXXXXXXXXXXXXXXXXX
 41
0.8
  7
SANINDUSA
 11
-110.0220608548302
 21
2.478208457928303
 31
0.0
100
AcDbAttributeDefinition
  3
Localização do desenho:
  2
LOC-DWG
 70
     0
 74
     2
  0
LINE
  5
BB9
330
B9E
100
AcDbEntity
  8
3
100
AcDbLine
 10
-135.0
 20
4.0
 30
0.0
 11
0.0000000000004547
 21
4.0
 31
0.0
  0
LINE
  5
BBA
330
B9E
100
AcDbEntity
  8
3
100
AcDbLine
 10
-90.00000000000046
 20
12.0
 30
0.0
 11
-135.0
 21
12.0
 31
0.0
  0
LINE
  5
BBB
330
B9E
100
AcDbEntity
  8
3
100
AcDbLine
 10
-135.0
 20
32.5
 30
0.0
 11
-40.0
 21
32.5
 31
0.0
  0
TEXT
  5
BBC
330
B9E
100
AcDbEntity
  8
1
100
AcDbText
 10
-134.0
 20
1.25
 30
0.0
 40
2.0
  1
Localização do des.:
 41
0.8
  7
SANINDUSA
 11
-134.0
 21
2.25
 31
0.0
100
AcDbText
 73
     2
  0
LINE
  5
BBD
330
B9E
100
AcDbEntity
  8
3
100
AcDbLine
 10
-180.0
 20
65.0
 30
0.0
 11
0.0
 21
65.0
 31
0.0
  0
LINE
  5
BBE
330
B9E
100
AcDbEntity
  8
leg fin
100
AcDbLine
 10
-40.0
 20
25.05956924886846
 30
0.0
 11
-135.0
 21
25.05956924886846
 31
0.0
  0
LINE
  5
BBF
330
B9E
100
AcDbEntity
  8
leg fin
100
AcDbLine
 10
-40.0
 20
28.5
 30
0.0
 11
-135.0
 21
28.5
 31
0.0
  0
LINE
  5
BC0
330
B9E
100
AcDbEntity
  8
3
100
AcDbLine
 10
-135.0
 20
50.0
 30
0.0
 11
-40.0
 21
50.0
 31
0.0
  0
TEXT
  5
BC1
330
B9E
100
AcDbEntity
  8
1
100
AcDbText
 10
-134.0
 20
29.75
 30
0.0
 40
2.0
  1
Desenho nº:
 41
0.8
  7
SANINDUSA
 11
-134.0
 21
30.75
 31
0.0
100
AcDbText
 73
     2
  0
TEXT
  5
BC2
330
B9E
100
AcDbEntity
  8
1
100
AcDbText
 10
-134.0
 20
9.25
 30
0.0
 40
2.0
  1
Acabamento:
 41
0.8
  7
SANINDUSA
 11
-134.0
 21
10.25
 31
0.0
100
AcDbText
 73
     2
  0
LINE
  5
BC3
330
B9E
100
AcDbEntity
  8
3
100
AcDbLine
 10
-180.0
 20
20.0
 30
0.0
 11
0.0
 21
20.0
 31
0.0
  0
LINE
  5
BC4
330
B9E
100
AcDbEntity
  8
1
100
AcDbLine
 10
-174.5810776056337
 20
55.5
 30
0.0
 11
-174.5810776056337
 21
65.0
 31
0.0
  0
LINE
  5
BC5
330
B9E
100
AcDbEntity
  8
1
100
AcDbLine
 10
-168.9210461879161
 20
55.5
 30
0.0
 11
-168.9210461879161
 21
65.0
 31
0.0
  0
LINE
  5
BC6
330
B9E
100
AcDbEntity
  8
1
100
AcDbLine
 10
-154.0988595589306
 20
55.5
 30
0.0
 11
-154.0988595589306
 21
65.0
 31
0.0
  0
LINE
  5
BC7
330
B9E
100
AcDbEntity
  8
3
100
AcDbLine
 10
-180.0
 20
65.0
 30
0.0
 11
-180.0
 21
0.0
 31
0.0
  0
LINE
  5
BC8
330
B9E
100
AcDbEntity
  8
3
100
AcDbLine
 10
-135.0
 20
0.0
 30
0.0
 11
-135.0
 21
65.0
 31
0.0
  0
TEXT
  5
BC9
330
B9E
100
AcDbEntity
  8
1
100
AcDbText
 10
-179.0
 20
9.75
 30
0.0
 40
1.5
  1
Des.
 41
0.8
  7
SANINDUSA
 11
-179.0
 21
10.5
 31
0.0
100
AcDbText
 73
     2
  0
LINE
  5
BCA
330
B9E
100
AcDbEntity
  8
1
100
AcDbLine
 10
-168.9210461879161
 20
20.0
 30
0.0
 11
-168.9210461879161
 21
0.0
 31
0.0
  0
LINE
  5
BCB
330
B9E
100
AcDbEntity
  8
1
100
AcDbLine
 10
-154.0988595589306
 20
20.0
 30
0.0
 11
-154.0988595589306
 21
0.0
 31
0.0
  0
LINE
  5
BCC
330
B9E
100
AcDbEntity
  8
1
100
AcDbLine
 10
-180.0
 20
4.0
 30
0.0
 11
-135.0
 21
4.0
 31
0.0
  0
LINE
  5
BCD
330
B9E
100
AcDbEntity
  8
1
100
AcDbLine
 10
-180.0
 20
8.0
 30
0.0
 11
-135.0
 21
8.0
 31
0.0
  0
TEXT
  5
BCE
330
B9E
100
AcDbEntity
  8
1
100
AcDbText
 10
-179.0
 20
1.73257823687436
 30
0.0
 40
1.5
  1
Aprov.
 41
0.8
  7
SANINDUSA
 11
-179.0
 21
2.48257823687436
 31
0.0
100
AcDbText
 73
     2
  0
TEXT
  5
BCF
330
B9E
100
AcDbEntity
  8
1
100
AcDbText
 10
-179.0
 20
5.75
 30
0.0
 40
1.5
  1
Ver.
 41
0.8
  7
SANINDUSA
 11
-179.0
 21
6.5
 31
0.0
100
AcDbText
 73
     2
  0
LINE
  5
BD0
330
B9E
100
AcDbEntity
  8
1
100
AcDbLine
 10
-180.0
 20
16.0
 30
0.0
 11
-135.0
 21
16.0
 31
0.0
  0
LINE
  5
BD1
330
B9E
100
AcDbEntity
  8
1
100
AcDbLine
 10
-180.0
 20
12.0
 30
0.0
 11
-135.0
 21
12.0
 31
0.0
  0
TEXT
  5
BD2
330
B9E
100
AcDbEntity
  8
1
100
AcDbText
 10
-179.0
 20
13.75
 30
0.0
 40
1.5
  1
Proj.
 41
0.8
  7
SANINDUSA
 11
-179.0
 21
14.5
 31
0.0
100
AcDbText
 73
     2
  0
TEXT
  5
BD3
330
B9E
100
AcDbEntity
  8
1
100
AcDbText
 10
-167.9210461879161
 20
17.75
 30
0.0
 40
1.5
  1
Data
 41
0.8
  7
SANINDUSA
 11
-167.9210461879161
 21
18.5
 31
0.0
100
AcDbText
 73
     2
  0
TEXT
  5
BD4
330
B9E
100
AcDbEntity
  8
1
100
AcDbText
 10
-153.0988595589306
 20
17.75
 30
0.0
 40
1.5
  1
Nome
 41
0.8
  7
SANINDUSA
 11
-153.0988595589306
 21
18.5
 31
0.0
100
AcDbText
 73
     2
  0
LINE
  5
BD5
330
B9E
100
AcDbEntity
  8
leg fin
100
AcDbLine
 10
-130.0
 20
20.0
 30
0.0
 11
-130.0
 21
28.5
 31
0.0
  0
TEXT
  5
BD6
330
B9E
100
AcDbEntity
  8
1
100
AcDbText
 10
-134.0
 20
17.25
 30
0.0
 40
2.0
  1
Material:
 41
0.8
  7
SANINDUSA
 11
-134.0
 21
18.25
 31
0.0
100
AcDbText
 73
     2
  0
TEXT
  5
BD7
330
B9E
100
AcDbEntity
  8
1
100
AcDbText
 10
-129.0
 20
26.43288406845113
 30
0.0
 40
1.5
  1
Ano:
 41
0.8
  7
SANINDUSA
 11
-129.0
 21
27.18288406845113
 31
0.0
100
AcDbText
 73
     2
  0
LINE
  5
BD8
330
B9E
100
AcDbEntity
  8
1
100
AcDbLine
 10
-180.0
 20
55.5
 30
0.0
 11
-135.0
 21
55.5
 31
0.0
  0
TEXT
  5
BD9
330
B9E
100
AcDbEntity
  8
1
100
AcDbText
 10
-179.0
 20
52.67772246885193
 30
0.0
 40
1.5
  1
descrição
 41
0.8
  7
SANINDUSA
 11
-179.0
 21
53.42772246885193
 31
0.0
100
AcDbText
 73
     2
  0
TEXT
  5
BDA
330
B9E
100
AcDbEntity
  8
1
100
AcDbText
 10
-134.0
 20
47.25
 30
0.0
 40
2.0
  1
Peça:
 41
0.8
  7
SANINDUSA
 11
-134.0
 21
48.25
 31
0.0
100
AcDbText
 73
     2
  0
LINE
  5
BDB
330
B9E
100
AcDbEntity
  8
1
100
AcDbLine
 10
-180.0
 20
59.5
 30
0.0
 11
-135.0
 21
59.5
 31
0.0
  0
TEXT
  5
BDC
330
B9E
100
AcDbEntity
  8
1
100
AcDbText
 10
-173.5810776056337
 20
62.75
 30
0.0
 40
1.5
  1
Alt.
 41
0.8
  7
SANINDUSA
 11
-173.5810776056337
 21
63.5
 31
0.0
100
AcDbText
 73
     2
  0
TEXT
  5
BDD
330
B9E
100
AcDbEntity
  8
1
100
AcDbText
 10
-179.0
 20
62.75
 30
0.0
 40
1.5
  1
Rev.
 41
0.8
  7
SANINDUSA
 11
-179.0
 21
63.5
 31
0.0
100
AcDbText
 73
     2
  0
TEXT
  5
BDE
330
B9E
100
AcDbEntity
  8
1
100
AcDbText
 10
-167.9210461879161
 20
62.75
 30
0.0
 40
1.5
  1
Data
 41
0.8
  7
SANINDUSA
 11
-167.9210461879161
 21
63.5
 31
0.0
100
AcDbText
 73
     2
  0
TEXT
  5
BDF
330
B9E
100
AcDbEntity
  8
1
100
AcDbText
 10
-153.0988595589306
 20
62.75
 30
0.0
 40
1.5
  1
Nome
 41
0.8
  7
SANINDUSA
 11
-153.0988595589306
 21
63.5
 31
0.0
100
AcDbText
 73
     2
  0
TEXT
  5
BE0
330
B9E
100
AcDbEntity
  8
1
100
AcDbText
 10
-134.0
 20
62.25
 30
0.0
 40
2.0
  1
Produto:
 41
0.8
  7
SANINDUSA
 11
-134.0
 21
63.25
 31
0.0
100
AcDbText
 73
     2
  0
LINE
  5
BE1
330
B9E
100
AcDbEntity
  8
3
100
AcDbLine
 10
-40.0
 20
4.0
 30
0.0
 11
-40.0
 21
65.0
 31
0.0
  0
LWPOLYLINE
  5
BE2
102
{ACAD_REACTORS
330
BEC
102
}
330
B9E
100
AcDbEntity
  8
9
100
AcDbPolyline
 90
       12
 70
     1
 43
0.0
 10
-3.038714600644652
 20
58.90010174665076
 10
-5.726962862472191
 20
58.90010174665076
 10
-5.726962862472191
 20
58.5001017466509
 10
-3.038748516195028
 20
58.5001017466509
 42
-0.4142135623731731
 10
-2.638748516194482
 20
58.1001017466508
 10
-2.638748516194482
 20
57.42799728675596
 10
-5.21497371544865
 20
57.42799728675596
 42
0.4142135623731289
 10
-6.014973715448377
 20
56.627997286756
 10
-6.014973715448377
 20
55.92380871629643
 42
0.4142135623731132
 10
-5.21497371544865
 20
55.12380871629648
 10
-2.23871460064447
 20
55.12380871629648
 10
-2.23871460064447
 20
58.10010174665103
 42
0.4142135623730717
  0
LWPOLYLINE
  5
BE3
102
{ACAD_REACTORS
330
BEC
102
}
330
B9E
100
AcDbEntity
  8
9
100
AcDbPolyline
 90
       20
 70
     1
 43
0.0
 10
-10.01531287095122
 20
57.82799728675581
 10
-10.01531287095122
 20
58.10010174665103
 42
-0.4142135623730744
 10
-9.615312870951584
 20
58.5001017466509
 10
-6.92703069357276
 20
58.5001017466509
 10
-6.92703069357276
 20
58.90010174665076
 10
-9.615346786501959
 20
58.90010174665076
 42
0.4142135623730883
 10
-10.41534678650168
 20
58.1001017466508
 10
-10.41534678650168
 20
57.82796337120567
 42
0.4142135623730717
 10
-9.615346786501959
 20
57.02796337120571
 10
-7.423079531965413
 20
57.02796337120571
 42
-0.4142135623730847
 10
-7.023079531965322
 20
56.62796337120562
 10
-7.023079531965322
 20
55.90786840766487
 42
-0.4142135623730744
 10
-7.423079531965413
 20
55.507868407665
 10
-10.41534678650168
 20
55.507868407665
 10
-10.41534678650168
 20
55.12380871629648
 10
-7.445787917283723
 20
55.12380871629648
 42
0.4114777732064574
 10
-6.645822882998345
 20
55.9163291493976
 10
-6.639238813324936
 20
56.62051771985716
 42
0.4169546541682913
 10
-7.439203847610315
 20
57.42799728675596
 10
-9.615312870951584
 20
57.42799728675596
 42
-0.4142135623731576
  0
LWPOLYLINE
  5
BE4
102
{ACAD_REACTORS
330
BEC
102
}
330
B9E
100
AcDbEntity
  8
9
100
AcDbPolyline
 90
       12
 70
     1
 43
0.0
 10
-14.41561811090378
 20
58.90010174665076
 10
-14.79964388672215
 20
58.90010174665076
 10
-14.79964388672215
 20
55.92380871629643
 42
0.4142135623731133
 10
-13.99964388672242
 20
55.12380871629648
 10
-11.8233508563676
 20
55.12380871629648
 42
0.4142135623730872
 10
-11.02335085636741
 20
55.92380871629643
 10
-11.02335085636741
 20
58.90010174665076
 10
-11.42338477191788
 20
58.90010174665076
 10
-11.42338477191788
 20
55.91567577726095
 42
-0.4131711701795318
 10
-11.82196067063523
 20
55.51567831234956
 10
-14.0141940096214
 20
55.50787335710947
 42
-0.4152567234624407
 10
-14.41561811090378
 20
55.90787082202087
  0
LWPOLYLINE
  5
BE5
102
{ACAD_REACTORS
330
BEC
102
}
330
B9E
100
AcDbEntity
  8
9
100
AcDbPolyline
 90
        6
 70
     1
 43
0.0
 10
-15.80771578768872
 20
55.507868407665
 10
-18.39994912667453
 20
55.507868407665
 42
-0.4142135623731731
 10
-18.79994912667462
 20
55.90786840766487
 10
-18.79994912667462
 20
58.10010174665103
 42
-0.4142135623730744
 10
-18.39994912667453
 20
58.5001017466509
 10
-15.80771578768872
 20
58.5001017466509
  0
LWPOLYLINE
  5
BE6
102
{ACAD_REACTORS
330
BEC
102
}
330
B9E
100
AcDbEntity
  8
9
100
AcDbPolyline
 90
        8
 70
     1
 43
0.0
 10
-15.4236900118708
 20
59.87619128370352
 10
-15.80771578768872
 20
59.87619128370352
 10
-15.80771578768872
 20
58.90010174665076
 10
-18.39176256411201
 20
58.90010174665076
 42
0.4131164467977967
 10
-19.19175694739761
 20
58.1030995310698
 10
-19.1999120763262
 20
55.92680650071542
 42
0.4153115297271718
 10
-18.39991769304061
 20
55.12380871629648
 10
-15.4236900118708
 20
55.12380871629648
  0
LWPOLYLINE
  5
BE7
102
{ACAD_REACTORS
330
BEC
102
}
330
B9E
100
AcDbEntity
  8
9
100
AcDbPolyline
 90
       10
 70
     1
 43
0.0
 10
-20.59201288790928
 20
58.90010174665076
 10
-23.56830591826338
 20
58.90010174665076
 10
-23.56830591826338
 20
55.12380871629648
 10
-23.18424622689509
 20
55.12380871629648
 10
-23.18424622689509
 20
58.5001017466509
 10
-20.59204680345965
 20
58.5001017466509
 42
-0.4142135623730898
 10
-20.19204680345956
 20
58.1001017466508
 10
-20.19204680345956
 20
55.12380871629648
 10
-19.79201288790909
 20
55.12380871629648
 10
-19.79201288790909
 20
58.10010174665103
 42
0.4142135623731132
  0
LWPOLYLINE
  5
BE8
102
{ACAD_REACTORS
330
BEC
102
}
330
B9E
100
AcDbEntity
  8
9
100
AcDbPolyline
 90
        4
 70
     1
 43
0.0
 10
-24.19231812786165
 20
58.90010174665076
 10
-24.57637781922995
 20
58.90010174665076
 10
-24.57637781922995
 20
55.12380871629648
 10
-24.19231812786165
 20
55.12380871629648
  0
LWPOLYLINE
  5
BE9
102
{ACAD_REACTORS
330
BEC
102
}
330
B9E
100
AcDbEntity
  8
9
100
AcDbPolyline
 90
       10
 70
     1
 43
0.0
 10
-28.57661522808212
 20
58.5001017466509
 10
-25.98444972019706
 20
58.5001017466509
 42
-0.4142135623731731
 10
-25.58444972019652
 20
58.1001017466508
 10
-25.58444972019652
 20
55.12380871629648
 10
-25.2004239443786
 20
55.12380871629648
 10
-25.2004239443786
 20
58.10010174665103
 42
0.4142135623730717
 10
-26.00042394437833
 20
58.90010174665076
 10
-28.97664914363259
 20
58.90010174665076
 10
-28.97664914363259
 20
55.12380871629648
 10
-28.57661522808212
 20
55.12380871629648
  0
LWPOLYLINE
  5
BEA
102
{ACAD_REACTORS
330
BEC
102
}
330
B9E
100
AcDbEntity
  8
9
100
AcDbPolyline
 90
       12
 70
     1
 43
0.0
 10
-29.58465321349832
 20
58.10010174665103
 42
0.4142135623730716
 10
-30.3846532134985
 20
58.90010174665076
 10
-33.07296930642724
 20
58.90010174665076
 10
-33.07296930642724
 20
58.5001017466509
 10
-30.38468712904842
 20
58.5001017466509
 42
-0.4142135623730067
 10
-29.98468712904878
 20
58.1001017466508
 10
-29.98468712904878
 20
57.42799728675618
 10
-32.56098015940324
 20
57.42799728675596
 42
0.4142135623731289
 10
-33.36098015940343
 20
56.627997286756
 10
-33.36098015940343
 20
55.92380871629643
 42
0.4142135623731132
 10
-32.56098015940324
 20
55.12380871629648
 10
-29.58465321349832
 20
55.12380871629648
  0
LWPOLYLINE
  5
BEB
102
{ACAD_REACTORS
330
BEC
102
}
330
B9E
100
AcDbEntity
  8
9
100
AcDbPolyline
 90
       20
 70
     1
 43
0.0
 10
-34.7850262845518
 20
57.42799728675596
 10
-36.96125148380543
 20
57.42799728675596
 42
-0.4142135623730898
 10
-37.36125148380552
 20
57.82799728675604
 10
-37.36125148380552
 20
58.10010174665103
 42
-0.4142135623730744
 10
-36.96125148380543
 20
58.5001017466509
 10
-34.27303713752781
 20
58.50010174665067
 10
-34.27303713752781
 20
58.90010174665076
 10
-36.96128539935535
 20
58.90010174665076
 42
0.4142135623731289
 10
-37.76128539935553
 20
58.1001017466508
 10
-37.76128539935553
 20
57.82796337120567
 42
0.4142135623730716
 10
-36.9612853993558
 20
57.02796337120571
 10
-34.76901814481926
 20
57.02796337120571
 42
-0.414213562373168
 10
-34.36901814481962
 20
56.62796337120562
 10
-34.36901814481962
 20
55.90786840766487
 42
-0.4142135623730744
 10
-34.76901814481926
 20
55.507868407665
 10
-37.76128539935553
 20
55.507868407665
 10
-37.76128539935553
 20
55.12380871629648
 10
-34.7850262845518
 20
55.12380871629648
 42
0.4142135623731289
 10
-33.98502628455162
 20
55.92380871629643
 10
-33.98502628455162
 20
56.627997286756
 42
0.4142135623731132
  0
HATCH
  5
BEC
330
B9E
100
AcDbEntity
  8
9
100
AcDbHatch
 10
0.0
 20
0.0
 30
0.0
210
0.0
220
0.0
230
1.0
  2
SOLID
 70
     1
 71
     1
 91
       13
 92
        7
 72
     1
 73
     1
 93
       20
 10
-34.36901814481962
 20
55.90786840766487
 42
-0.414213562372991
 10
-34.76901814481926
 20
55.507868407665
 42
0.0
 10
-37.76128539935553
 20
55.507868407665
 42
0.0
 10
-37.76128539935553
 20
55.12380871629648
 42
0.0
 10
-34.7850262845518
 20
55.12380871629648
 42
0.4142135623731705
 10
-33.98502628455162
 20
55.92380871629666
 42
0.0
 10
-33.98502628455162
 20
56.627997286756
 42
0.4142135623731547
 10
-34.7850262845518
 20
57.42799728675596
 42
0.0
 10
-36.96125148380543
 20
57.42799728675596
 42
-0.4142135623730898
 10
-37.36125148380552
 20
57.82799728675604
 42
0.0
 10
-37.36125148380552
 20
58.1001017466508
 42
-0.4142135623731575
 10
-36.96125148380543
 20
58.5001017466509
 42
0.0
 10
-34.27303713752781
 20
58.50010174665067
 42
0.0
 10
-34.27303713752781
 20
58.90010174665076
 42
0.0
 10
-36.96128539935535
 20
58.90010174665076
 42
0.4142135623731705
 10
-37.76128539935553
 20
58.10010174665058
 42
0.0
 10
-37.76128539935553
 20
57.82796337120544
 42
0.4142135623730299
 10
-36.9612853993558
 20
57.02796337120571
 42
0.0
 10
-34.76901814481926
 20
57.02796337120571
 42
-0.4142135623730015
 10
-34.36901814481962
 20
56.62796337120608
 42
0.0
 97
        1
330
BEB
 92
        7
 72
     1
 73
     1
 93
       12
 10
-33.36098015940343
 20
55.92380871629666
 42
0.4142135623731547
 10
-32.56098015940324
 20
55.12380871629648
 42
0.0
 10
-29.58465321349877
 20
55.12380871629648
 42
0.0
 10
-29.58465321349832
 20
58.10010174665058
 42
0.4142135623731964
 10
-30.3846532134985
 20
58.90010174665076
 42
0.0
 10
-33.07296930642724
 20
58.90010174665076
 42
0.0
 10
-33.07296930642724
 20
58.50010174665067
 42
0.0
 10
-30.38468712904887
 20
58.5001017466509
 42
-0.4142135623732564
 10
-29.98468712904878
 20
58.10010174665103
 42
0.0
 10
-29.98468712904923
 20
57.42799728675596
 42
0.0
 10
-32.56098015940324
 20
57.42799728675596
 42
0.4142135623731705
 10
-33.36098015940343
 20
56.627997286756
 42
0.0
 97
        1
330
BEA
 92
       22
 72
     1
 73
     1
 93
        6
 10
-32.97692046803468
 20
56.62796337120562
 42
-0.4142135623731576
 10
-32.57692046803459
 20
57.02796337120571
 42
0.0
 10
-29.98468712904878
 20
57.02796337120571
 42
0.0
 10
-29.98468712904878
 20
55.507868407665
 42
0.0
 10
-32.57692046803459
 20
55.507868407665
 42
-0.4142135623731731
 10
-32.97692046803468
 20
55.90786840766487
 42
0.0
 97
        1
330
C11
 92
        7
 72
     1
 73
     1
 93
       10
 10
-28.57661522808212
 20
58.5001017466509
 42
0.0
 10
-25.98444972019661
 20
58.5001017466509
 42
-0.4142135623730067
 10
-25.58444972019652
 20
58.10010174665058
 42
0.0
 10
-25.58444972019606
 20
55.12380871629648
 42
0.0
 10
-25.20042394437906
 20
55.12380871629648
 42
0.0
 10
-25.2004239443786
 20
58.1001017466508
 42
0.4142135623731134
 10
-26.00042394437833
 20
58.90010174665076
 42
0.0
 10
-28.97664914363259
 20
58.90010174665076
 42
0.0
 10
-28.97664914363259
 20
55.12380871629648
 42
0.0
 10
-28.57661522808212
 20
55.12380871629648
 42
0.0
 97
        1
330
BE9
 92
        7
 72
     0
 73
     1
 93
        4
 10
-24.57637781922995
 20
55.12380871629648
 10
-24.19231812786165
 20
55.12380871629648
 10
-24.19231812786165
 20
58.90010174665076
 10
-24.57637781922995
 20
58.90010174665076
 97
        1
330
BE8
 92
        7
 72
     0
 73
     1
 93
        4
 10
-24.19231812786165
 20
59.87619128370352
 10
-24.5763778192304
 20
59.87619128370352
 10
-24.5763778192304
 20
59.28412752246913
 10
-24.1923181278612
 20
59.28412752246913
 97
        1
330
C12
 92
        7
 72
     1
 73
     1
 93
       10
 10
-23.18424622689509
 20
58.5001017466509
 42
0.0
 10
-20.59204680345965
 20
58.5001017466509
 42
-0.4142135623730898
 10
-20.19204680345956
 20
58.1001017466508
 42
0.0
 10
-20.19204680345956
 20
55.12380871629648
 42
0.0
 10
-19.79201288790909
 20
55.12380871629648
 42
0.0
 10
-19.79201288790909
 20
58.1001017466508
 42
0.4142135623731547
 10
-20.59201288790928
 20
58.90010174665076
 42
0.0
 10
-23.56830591826338
 20
58.90010174665076
 42
0.0
 10
-23.56830591826338
 20
55.12380871629648
 42
0.0
 10
-23.18424622689463
 20
55.12380871629648
 42
0.0
 97
        1
330
BE7
 92
        7
 72
     1
 73
     1
 93
        8
 10
-19.1999120763262
 20
55.92680650071542
 42
0.4153115297271299
 10
-18.39991769304061
 20
55.12380871629648
 42
0.0
 10
-15.4236900118708
 20
55.12380871629648
 42
0.0
 10
-15.4236900118708
 20
59.87619128370352
 42
0.0
 10
-15.80771578768872
 20
59.87619128370352
 42
0.0
 10
-15.80771578768872
 20
58.90010174665076
 42
0.0
 10
-18.39176256411201
 20
58.90010174665076
 42
0.4131164467977965
 10
-19.19175694739761
 20
58.1030995310698
 42
0.0
 97
        1
330
BE6
 92
       22
 72
     1
 73
     1
 93
        6
 10
-18.79994912667462
 20
58.1001017466508
 42
-0.4142135623731575
 10
-18.39994912667453
 20
58.5001017466509
 42
0.0
 10
-15.80771578768872
 20
58.50010174665067
 42
0.0
 10
-15.80771578768827
 20
55.507868407665
 42
0.0
 10
-18.39994912667453
 20
55.507868407665
 42
-0.4142135623731731
 10
-18.79994912667462
 20
55.90786840766487
 42
0.0
 97
        1
330
BE5
 92
        7
 72
     1
 73
     1
 93
       12
 10
-14.79964388672215
 20
55.92380871629621
 42
0.4142135623729885
 10
-13.99964388672242
 20
55.12380871629648
 42
0.0
 10
-11.8233508563676
 20
55.12380871629648
 42
0.4142135623731289
 10
-11.02335085636741
 20
55.92380871629666
 42
0.0
 10
-11.02335085636741
 20
58.90010174665076
 42
0.0
 10
-11.42338477191788
 20
58.90010174665076
 42
0.0
 10
-11.42338477191788
 20
55.91567577726095
 42
-0.4131711701795319
 10
-11.82196067063523
 20
55.51567831234956
 42
0.0
 10
-14.01419400962095
 20
55.50787335710947
 42
-0.4152567234626918
 10
-14.41561811090378
 20
55.90787082202087
 42
0.0
 10
-14.41561811090378
 20
58.90010174665076
 42
0.0
 10
-14.7996438867226
 20
58.90010174665076
 42
0.0
 97
        1
330
BE4
 92
        7
 72
     1
 73
     1
 93
       20
 10
-7.423079531965413
 20
57.02796337120571
 42
-0.414213562373168
 10
-7.023079531965322
 20
56.62796337120562
 42
0.0
 10
-7.023079531965322
 20
55.90786840766487
 42
-0.4142135623731575
 10
-7.423079531965413
 20
55.507868407665
 42
0.0
 10
-10.41534678650168
 20
55.507868407665
 42
0.0
 10
-10.41534678650168
 20
55.12380871629648
 42
0.0
 10
-7.445787917283723
 20
55.12380871629648
 42
0.4114777732065809
 10
-6.645822882998345
 20
55.91632914939783
 42
0.0
 10
-6.639238813324936
 20
56.62051771985716
 42
0.4169546541682913
 10
-7.439203847610315
 20
57.42799728675596
 42
0.0
 10
-9.615312870951584
 20
57.42799728675596
 42
-0.4142135623729911
 10
-10.01531287095122
 20
57.82799728675581
 42
0.0
 10
-10.01531287095122
 20
58.10010174665103
 42
-0.414213562372991
 10
-9.615312870951584
 20
58.5001017466509
 42
0.0
 10
-6.92703069357276
 20
58.50010174665067
 42
0.0
 10
-6.927030693572305
 20
58.90010174665076
 42
0.0
 10
-9.615346786501959
 20
58.90010174665076
 42
0.4142135623730467
 10
-10.41534678650168
 20
58.10010174665103
 42
0.0
 10
-10.41534678650168
 20
57.82796337120544
 42
0.4142135623730301
 10
-9.615346786501959
 20
57.02796337120571
 42
0.0
 97
        1
330
BE3
 92
        7
 72
     1
 73
     1
 93
       12
 10
-5.21497371544865
 20
57.42799728675596
 42
0.4142135623730871
 10
-6.014973715448377
 20
56.627997286756
 42
0.0
 10
-6.014973715448377
 20
55.92380871629621
 42
0.4142135623730715
 10
-5.21497371544865
 20
55.12380871629648
 42
0.0
 10
-2.23871460064447
 20
55.12380871629648
 42
0.0
 10
-2.23871460064447
 20
58.10010174665058
 42
0.414213562373155
 10
-3.038714600644652
 20
58.90010174665076
 42
0.0
 10
-5.726962862471737
 20
58.90010174665076
 42
0.0
 10
-5.726962862472191
 20
58.5001017466509
 42
0.0
 10
-3.038748516194573
 20
58.5001017466509
 42
-0.4142135623730067
 10
-2.638748516194482
 20
58.10010174665058
 42
0.0
 10
-2.638748516194482
 20
57.42799728675596
 42
0.0
 97
        1
330
BE2
 92
       22
 72
     1
 73
     1
 93
        6
 10
-2.638748516194937
 20
57.02796337120571
 42
0.0
 10
-2.638748516194482
 20
55.50786840766477
 42
0.0
 10
-5.21497371544865
 20
55.507868407665
 42
-0.4142135623731731
 10
-5.614973715448741
 20
55.90786840766509
 42
0.0
 10
-5.614973715448741
 20
56.62796337120562
 42
-0.4142135623731576
 10
-5.21497371544865
 20
57.02796337120571
 42
0.0
 97
        1
330
C0D
 75
     0
 76
     1
 47
0.0407044778999864
 98
       13
 10
-34.18710075113677
 20
56.16907953933765
 10
-33.12851374392494
 20
56.49471602641233
 10
-33.12851374392494
 20
56.49471602641233
 10
-28.77202873835904
 20
57.51232930166111
 10
-24.41554807250941
 20
57.91937341678636
 10
-24.41554807250941
 20
59.384734621186
 10
-23.31624584658039
 20
58.3264175319116
 10
-19.04119127844888
 20
57.75655517324913
 10
-19.04119127844888
 20
57.75655517324913
 10
-14.64399105416578
 20
57.43091868617466
 10
-8.048195057457178
 20
57.22739662861204
 10
-4.017427461911665
 20
57.18669281458665
 10
-4.017427461911665
 20
57.18669281458665
  0
TEXT
  5
BED
330
B9E
100
AcDbEntity
  8
leg fin
100
AcDbText
 10
3.391127401597259
 20
2.107634911895729
 30
0.0
 40
1.5
  1
Este desenho é propriedade da Sanindusa, S.A., e não pode ser copiado nem divulgado sem nossa autorização.
 50
90.0
 41
0.8
  7
SANINDUSA
100
AcDbText
  0
LINE
  5
BEE
330
B9E
100
AcDbEntity
  8
3
100
AcDbLine
 10
-90.0
 20
4.0
 30
0.0
 11
-90.0
 21
12.0
 31
0.0
  0
TEXT
  5
BEF
330
B9E
100
AcDbEntity
  8
1
100
AcDbText
 10
-39.0
 20
9.25
 30
0.0
 40
2.0
  1
Substituido por:
 41
0.8
  7
SANINDUSA
 11
-39.0
 21
10.25
 31
0.0
100
AcDbText
 73
     2
  0
POINT
  5
BF0
330
B9E
100
AcDbEntity
  8
SANINDUSA
100
AcDbPoint
 10
0.0
 20
0.0
 30
0.0
  0
TEXT
  5
BF1
330
B9E
100
AcDbEntity
  8
1
100
AcDbText
 10
-89.0
 20
16.74927010445663
 30
0.0
 40
2.0
  1
Normas:
 41
0.8
  7
SANINDUSA
 11
-89.0
 21
17.74927010445663
 31
0.0
100
AcDbText
 73
     2
  0
LINE
  5
BF2
330
B9E
100
AcDbEntity
  8
3
100
AcDbLine
 10
-90.0
 20
12.0
 30
0.0
 11
-90.0
 21
20.0
 31
0.0
  0
LINE
  5
BF3
330
B9E
100
AcDbEntity
  8
3
100
AcDbLine
 10
-110.546019464768
 20
12.0
 30
0.0
 11
-110.546019464768
 21
20.0
 31
0.0
  0
TEXT
  5
BF4
330
B9E
100
AcDbEntity
  8
1
100
AcDbText
 10
-109.6177520618648
 20
17.25
 30
0.0
 40
2.0
  1
Cor:
 41
0.8
  7
SANINDUSA
 11
-109.6177520618648
 21
18.25
 31
0.0
100
AcDbText
 73
     2
  0
LINE
  5
BF5
330
B9E
100
AcDbEntity
  8
leg fin
100
AcDbLine
 10
-91.42857142857156
 20
20.0
 30
0.0
 11
-91.42857142857156
 21
28.5
 31
0.0
  0
LINE
  5
BF6
330
B9E
100
AcDbEntity
  8
leg fin
100
AcDbLine
 10
-104.2857142857142
 20
20.0
 30
0.0
 11
-104.2857142857142
 21
28.5
 31
0.0
  0
LINE
  5
BF7
330
B9E
100
AcDbEntity
  8
leg fin
100
AcDbLine
 10
-117.1428571428573
 20
20.0
 30
0.0
 11
-117.1428571428573
 21
28.5
 31
0.0
  0
POINT
  5
BF8
330
B9E
100
AcDbEntity
  8
SANINDUSA
100
AcDbPoint
 10
-117.1428571428573
 20
28.5
 30
0.0
  0
POINT
  5
BF9
330
B9E
100
AcDbEntity
  8
SANINDUSA
100
AcDbPoint
 10
-104.2857142857142
 20
28.5
 30
0.0
  0
POINT
  5
BFA
330
B9E
100
AcDbEntity
  8
SANINDUSA
100
AcDbPoint
 10
-91.42857142857156
 20
28.5
 30
0.0
  0
TEXT
  5
BFB
330
B9E
100
AcDbEntity
  8
1
100
AcDbText
 10
-116.200160604496
 20
26.43288406845113
 30
0.0
 40
1.5
  1
Nº Seq.:
 41
0.8
  7
SANINDUSA
 11
-116.200160604496
 21
27.18288406845113
 31
0.0
100
AcDbText
 73
     2
  0
TEXT
  5
BFC
330
B9E
100
AcDbEntity
  8
1
100
AcDbText
 10
-103.2106584078738
 20
26.43288406845113
 30
0.0
 40
1.5
  1
Tipo:
 41
0.8
  7
SANINDUSA
 11
-103.2106584078738
 21
27.18288406845113
 31
0.0
100
AcDbText
 73
     2
  0
TEXT
  5
BFD
330
B9E
100
AcDbEntity
  8
1
100
AcDbText
 10
-90.22114672289353
 20
26.43288406845113
 30
0.0
 40
1.5
  1
Prod.:
 41
0.8
  7
SANINDUSA
 11
-90.22114672289353
 21
27.18288406845113
 31
0.0
100
AcDbText
 73
     2
  0
TEXT
  5
BFE
330
B9E
100
AcDbEntity
  8
1
100
AcDbText
 10
-64.77320576346574
 20
26.43288406845113
 30
0.0
 40
1.5
  1
Rev.:
 41
0.8
  7
SANINDUSA
 11
-64.77320576346574
 21
27.18288406845113
 31
0.0
100
AcDbText
 73
     2
  0
LINE
  5
BFF
330
B9E
100
AcDbEntity
  8
leg fin
100
AcDbLine
 10
-52.85714285714266
 20
20.0
 30
0.0
 11
-52.85714285714266
 21
28.5
 31
0.0
  0
LINE
  5
C00
330
B9E
100
AcDbEntity
  8
leg fin
100
AcDbLine
 10
-65.71428571428578
 20
20.0
 30
0.0
 11
-65.71428571428578
 21
28.5
 31
0.0
  0
LINE
  5
C01
330
B9E
100
AcDbEntity
  8
leg fin
100
AcDbLine
 10
-78.57142857142844
 20
20.0
 30
0.0
 11
-78.57142857142844
 21
28.5
 31
0.0
  0
POINT
  5
C02
330
B9E
100
AcDbEntity
  8
SANINDUSA
100
AcDbPoint
 10
-78.57142857142844
 20
28.5
 30
0.0
  0
POINT
  5
C03
330
B9E
100
AcDbEntity
  8
SANINDUSA
100
AcDbPoint
 10
-65.71428571428578
 20
28.5
 30
0.0
  0
POINT
  5
C04
330
B9E
100
AcDbEntity
  8
SANINDUSA
100
AcDbPoint
 10
-52.85714285714266
 20
28.5
 30
0.0
  0
TEXT
  5
C05
330
B9E
100
AcDbEntity
  8
1
100
AcDbText
 10
-77.61097961686573
 20
26.43288406845113
 30
0.0
 40
1.5
  1
Peça:
 41
0.8
  7
SANINDUSA
 11
-77.61097961686573
 21
27.18288406845113
 31
0.0
100
AcDbText
 73
     2
  0
TEXT
  5
C06
330
B9E
100
AcDbEntity
  8
1
100
AcDbText
 10
-52.06538060077036
 20
26.43288406845113
 30
0.0
 40
1.5
  1
Alt.:
 41
0.8
  7
SANINDUSA
 11
-52.06538060077036
 21
27.18288406845113
 31
0.0
100
AcDbText
 73
     2
  0
LINE
  5
C07
330
B9E
100
AcDbEntity
  8
3
100
AcDbLine
 10
0.0
 20
12.0
 30
0.0
 11
-40.0
 21
12.0
 31
0.0
  0
LINE
  5
C08
330
B9E
100
AcDbEntity
  8
3
100
AcDbLine
 10
-40.0
 20
32.5
 30
0.0
 11
0.0
 21
32.5
 31
0.0
  0
TEXT
  5
C09
330
B9E
100
AcDbEntity
  8
1
100
AcDbText
 10
-19.0
 20
29.75
 30
0.0
 40
2.0
  1
Folha:
 41
0.8
  7
SANINDUSA
 11
-19.0
 21
30.75
 31
0.0
100
AcDbText
 73
     2
  0
LINE
  5
C0A
330
B9E
100
AcDbEntity
  8
3
100
AcDbLine
 10
-20.0
 20
32.5
 30
0.0
 11
-20.0
 21
20.0
 31
0.0
  0
TEXT
  5
C0B
330
B9E
100
AcDbEntity
  8
1
100
AcDbText
 10
-39.0
 20
29.75
 30
0.0
 40
2.0
  1
Escala:
 41
0.8
  7
SANINDUSA
 11
-39.0
 21
30.75
 31
0.0
100
AcDbText
 73
     2
  0
TEXT
  5
C0C
330
B9E
100
AcDbEntity
  8
1
100
AcDbText
 10
-39.0
 20
17.25
 30
0.0
 40
2.0
  1
Substitui:
 41
0.8
  7
SANINDUSA
 11
-39.0
 21
18.25
 31
0.0
100
AcDbText
 73
     2
  0
LWPOLYLINE
  5
C0D
102
{ACAD_REACTORS
330
BEC
102
}
330
B9E
100
AcDbEntity
  8
9
100
AcDbPolyline
 90
        6
 70
     1
 43
0.0
 10
-2.638748516194482
 20
57.02796337120571
 10
-2.638748516194482
 20
55.50786840766477
 10
-5.21497371544865
 20
55.507868407665
 42
-0.4142135623730898
 10
-5.614973715448741
 20
55.90786840766487
 10
-5.614973715448741
 20
56.62796337120562
 42
-0.4142135623731576
 10
-5.21497371544865
 20
57.02796337120571
  0
LINE
  5
C0E
330
B9E
100
AcDbEntity
  8
3
100
AcDbLine
 10
-40.0
 20
50.0
 30
0.0
 11
0.0
 21
50.0
 31
0.0
  0
ATTDEF
  5
C0F
330
B9E
100
AcDbEntity
  8
1
100
AcDbText
 10
-31.30691739422431
 20
40.25
 30
0.0
 40
2.0
  1
XXXXXXXXXXXXXXX
 41
0.8
  7
SANINDUSA
 72
     4
 11
-20.0
 21
41.25
 31
0.0
100
AcDbAttributeDefinition
  3
Observações:
  2
OBS
 70
     0
  0
TEXT
  5
C10
330
B9E
100
AcDbEntity
  8
1
100
AcDbText
 10
-39.0
 20
47.25
 30
0.0
 40
2.0
  1
Observações:
 41
0.8
  7
SANINDUSA
 11
-39.0
 21
48.25
 31
0.0
100
AcDbText
 73
     2
  0
LWPOLYLINE
  5
C11
102
{ACAD_REACTORS
330
BEC
102
}
330
B9E
100
AcDbEntity
  8
9
100
AcDbPolyline
 90
        6
 70
     1
 43
0.0
 10
-29.98468712904878
 20
57.02796337120571
 10
-29.98468712904878
 20
55.507868407665
 10
-32.57692046803459
 20
55.507868407665
 42
-0.4142135623731731
 10
-32.97692046803468
 20
55.90786840766487
 10
-32.97692046803468
 20
56.62796337120562
 42
-0.4142135623731576
 10
-32.57692046803459
 20
57.02796337120571
  0
LWPOLYLINE
  5
C12
102
{ACAD_REACTORS
330
BEC
102
}
330
B9E
100
AcDbEntity
  8
9
100
AcDbPolyline
 90
        4
 70
     1
 43
0.0
 10
-24.19231812786165
 20
59.87619128370352
 10
-24.57637781922995
 20
59.87619128370352
 10
-24.57637781922995
 20
59.28412752246913
 10
-24.19231812786165
 20
59.28412752246913
  0
ENDBLK
  5
C14
330
B9E
100
AcDbEntity
  8
0
100
AcDbBlockEnd
  0
ENDSEC
  0
SECTION
  2
ENTITIES
  0
SPLINE
  5
1719
330
1F
100
AcDbEntity
  8
SANINDUSA
100
AcDbSpline
210
0.0
220
0.0
230
1.0
 70
    24
 71
     3
 72
    12
 73
     8
 74
     0
 42
0.0000000001
 43
0.0000000001
 40
0.0
 40
0.0
 40
0.0
 40
0.0
 40
0.2049292846869034
 40
0.4098705301413041
 40
0.7049257256134871
 40
0.852464224936266
 40
1.0
 40
1.0
 40
1.0
 40
1.0
 10
5119.599232212541
 20
2482.94049839032
 30
0.0
 10
5119.683056820672
 20
2482.94049839032
 30
0.0
 10
5119.709258191255
 20
2482.94049839032
 30
0.0
 10
5119.754324008191
 20
2482.94049839032
 30
0.0
 10
5119.795720950988
 20
2482.94049839032
 30
0.0
 10
5119.833447872777
 20
2482.94049839032
 30
0.0
 10
5119.852310226828
 20
2482.94049839032
 30
0.0
 10
5119.932465621924
 20
2482.94049839032
 30
0.0
  0
ARC
  5
171B
330
1F
100
AcDbEntity
  8
SANINDUSA
100
AcDbCircle
 10
5119.599232212541
 20
2482.93249839032
 30
0.0
 40
0.0080000000000001
100
AcDbArc
 50
90.0
 51
182.7403994962311
  0
SPLINE
  5
1728
330
1F
100
AcDbEntity
  8
SANINDUSA
100
AcDbSpline
210
0.0
220
0.0
230
1.0
 70
    24
 71
     3
 72
    37
 73
    33
 74
     0
 42
0.0000000001
 43
0.0000000001
 40
0.0
 40
0.0
 40
0.0
 40
0.0
 40
0.0078193079798718
 40
0.0156349463353865
 40
0.0234480760500058
 40
0.0312598592256908
 40
0.0390714585653612
 40
0.0468840368540146
 40
0.0546987564396625
 40
0.0625167787152416
 40
0.0937693292893571
 40
0.125027759306968
 40
0.1562803098747724
 40
0.1875387398986972
 40
0.250031107118808
 40
0.3125234743389186
 40
0.3750158415590295
 40
0.4375082087791413
 40
0.5000005759992518
 40
0.5624929432193627
 40
0.624985310439474
 40
0.687477677659585
 40
0.7499700448796959
 40
0.8124624120998069
 40
0.8437149626768817
 40
0.874973392691543
 40
0.906225943267958
 40
0.937484373283276
 40
0.9531148257153112
 40
0.9687380449120135
 40
0.9843633358981842
 40
1.0
 40
1.0
 40
1.0
 40
1.0
 10
5119.841441256313
 20
2482.53049839032
 30
0.0
 10
5119.841685277307
 20
2482.53049839032
 30
0.0
 10
5119.842173204777
 20
2482.53049839032
 30
0.0
 10
5119.842904740152
 20
2482.53049839032
 30
0.0
 10
5119.843635741613
 20
2482.53049839032
 30
0.0
 10
5119.844366201025
 20
2482.53049839032
 30
0.0
 10
5119.845096120787
 20
2482.53049839032
 30
0.0
 10
5119.845825499142
 20
2482.53049839032
 30
0.0
 10
5119.846554340434
 20
2482.53049839032
 30
0.0
 10
5119.84801013579
 20
2482.53049839032
 30
0.0
 10
5119.850187053376
 20
2482.53049839032
 30
0.0
 10
5119.853066876132
 20
2482.53049839032
 30
0.0
 10
5119.855917980843
 20
2482.53049839032
 30
0.0
 10
5119.85967056457
 20
2482.53049839032
 30
0.0
 10
5119.864257014021
 20
2482.53049839032
 30
0.0
 10
5119.869536642728
 20
2482.53049839032
 30
0.0
 10
5119.874543738555
 20
2482.53049839032
 30
0.0
 10
5119.879230321067
 20
2482.53049839032
 30
0.0
 10
5119.883551918054
 20
2482.53049839032
 30
0.0
 10
5119.887467406255
 20
2482.53049839032
 30
0.0
 10
5119.890939552548
 20
2482.53049839032
 30
0.0
 10
5119.893935349805
 20
2482.53049839032
 30
0.0
 10
5119.896426253581
 20
2482.53049839032
 30
0.0
 10
5119.898061759457
 20
2482.53049839032
 30
0.0
 10
5119.899096343032
 20
2482.53049839032
 30
0.0
 10
5119.899733704889
 20
2482.53049839032
 30
0.0
 10
5119.90023126609
 20
2482.53049839032
 30
0.0
 10
5119.900527864226
 20
2482.53049839032
 30
0.0
 10
5119.900694448952
 20
2482.53049839032
 30
0.0
 10
5119.900783091912
 20
2482.53049839032
 30
0.0
 10
5119.900838613901
 20
2482.53049839032
 30
0.0
 10
5119.900845481956
 20
2482.53049839032
 30
0.0
 10
5119.900848917232
 20
2482.53049839032
 30
0.0
  0
SPLINE
  5
1729
330
1F
100
AcDbEntity
  8
SANINDUSA
100
AcDbSpline
210
0.0
220
0.0
230
1.0
 70
    24
 71
     3
 72
    16
 73
    12
 74
     0
 42
0.0000000001
 43
0.0000000001
 40
0.0
 40
0.0
 40
0.0
 40
0.0
 40
0.1111093284623767
 40
0.2222187906252655
 40
0.3333285201886981
 40
0.4444386508517396
 40
0.5555493163120082
 40
0.6666606502651903
 40
0.7777727864045606
 40
0.8888858584204971
 40
1.0
 40
1.0
 40
1.0
 40
1.0
 10
5119.765848917232
 20
2482.53049839032
 30
0.0
 10
5119.768648634057
 20
2482.53049839032
 30
0.0
 10
5119.774248071072
 20
2482.53049839032
 30
0.0
 10
5119.782647224915
 20
2482.53049839032
 30
0.0
 10
5119.791046378749
 20
2482.53049839032
 30
0.0
 10
5119.799445532615
 20
2482.53049839032
 30
0.0
 10
5119.807844686356
 20
2482.53049839032
 30
0.0
 10
5119.816243840565
 20
2482.53049839032
 30
0.0
 10
5119.824642993025
 20
2482.53049839032
 30
0.0
 10
5119.833042152015
 20
2482.53049839032
 30
0.0
 10
5119.838641545899
 20
2482.53049839032
 30
0.0
 10
5119.841441256313
 20
2482.53049839032
 30
0.0
  0
LINE
  5
172A
330
1F
100
AcDbEntity
  8
SANINDUSA
100
AcDbLine
 10
5119.690256578194
 20
2482.530498393896
 30
0.0
 11
5119.765848917232
 21
2482.530498393896
 31
0.0
  0
LINE
  5
172B
330
1F
100
AcDbEntity
  8
SANINDUSA
100
AcDbLine
 10
5119.630848911868
 20
2482.530498393896
 30
0.0
 11
5119.690256578194
 21
2482.530498393896
 31
0.0
  0
SPLINE
  5
172E
330
1F
100
AcDbEntity
  8
SANINDUSA
100
AcDbSpline
210
0.0
220
0.0
230
1.0
 70
     8
 71
     3
 72
    13
 73
     9
 74
     0
 42
0.0000000001
 43
0.0000000001
 40
0.0
 40
0.0
 40
0.0
 40
0.0
 40
0.0892178846871595
 40
0.3014837445913466
 40
0.5136717458109949
 40
0.7258293240005156
 40
0.9481082287107167
 40
1.0
 40
1.0
 40
1.0
 40
1.0
 10
5119.630524453985
 20
2482.532683410767
 30
0.0
 10
5119.625083250217
 20
2482.570808007337
 30
0.0
 10
5119.621255003088
 20
2482.597294316292
 30
0.0
 10
5119.6155690766
 20
2482.642537664316
 30
0.0
 10
5119.6091192826
 20
2482.698678827234
 30
0.0
 10
5119.603492470514
 20
2482.75580101434
 30
0.0
 10
5119.599675944257
 20
2482.798804870648
 30
0.0
 10
5119.598003524366
 20
2482.823084323383
 30
0.0
 10
5119.597686988579
 20
2482.827679650012
 30
0.0
  0
SPLINE
  5
172F
330
1F
100
AcDbEntity
  8
SANINDUSA
100
AcDbSpline
210
0.0
220
0.0
230
1.0
 70
     8
 71
     3
 72
     9
 73
     5
 74
     0
 42
0.0000000001
 43
0.0000000001
 40
0.0
 40
0.0
 40
0.0
 40
0.0
 40
0.2204704641452372
 40
1.0
 40
1.0
 40
1.0
 40
1.0
 10
5119.597686988579
 20
2482.827679650012
 30
0.0
 10
5119.595283661127
 20
2482.861817284998
 30
0.0
 10
5119.593470033036
 20
2482.887086308529
 30
0.0
 10
5119.592217636942
 20
2482.912390522201
 30
0.0
 10
5119.591241357194
 20
2482.932115904141
 30
0.0
  0
CIRCLE
  5
173E
330
1F
100
AcDbEntity
  8
SANINDUSA
100
AcDbCircle
 10
5119.32395127552
 20
2482.865554484418
 30
0.0
 40
0.0077500000000001
  0
CIRCLE
  5
1747
330
1F
100
AcDbEntity
  8
SANINDUSA
100
AcDbCircle
 10
5119.16895127552
 20
2482.865554484418
 30
0.0
 40
0.0077500000000001
  0
LINE
  5
174F
330
1F
100
AcDbEntity
  8
SANINDUSA
100
AcDbLine
 10
5119.079834570829
 20
2483.002759596742
 30
0.0
 11
5119.413067980212
 21
2483.002759596742
 31
0.0
  0
LINE
  5
1752
330
1F
100
AcDbEntity
  8
SANINDUSA
100
AcDbLine
 10
5119.421067980209
 20
2483.002759596742
 30
0.0
 11
5119.413067980212
 21
2483.002759596742
 31
0.0
  0
LINE
  5
1753
330
1F
100
AcDbEntity
  8
SANINDUSA
100
AcDbLine
 10
5119.071834571212
 20
2483.002759596742
 30
0.0
 11
5119.079834570829
 21
2483.002759596742
 31
0.0
  0
LINE
  5
1755
330
1F
100
AcDbEntity
  8
SANINDUSA
100
AcDbLine
 10
5119.364055369798
 20
2482.737759596743
 30
0.0
 11
5119.364055369798
 21
2482.562759596742
 31
0.0
  0
ARC
  5
1758
330
1F
100
AcDbEntity
  8
SANINDUSA
100
AcDbCircle
 10
5119.33145127552
 20
2482.562759596742
 30
0.0
 40
0.0326040942777706
100
AcDbArc
 50
270.0
 51
0.0
  0
ARC
  5
1759
330
1F
100
AcDbEntity
  8
SANINDUSA
100
AcDbCircle
 10
5119.28645127552
 20
2482.737759596743
 30
0.0
 40
0.0776040942777705
100
AcDbArc
 50
0.0
 51
90.0
  0
LINE
  5
175C
330
1F
100
AcDbEntity
  8
SANINDUSA
100
AcDbLine
 10
5119.161451275521
 20
2482.530155502465
 30
0.0
 11
5119.33145127552
 21
2482.530155502465
 31
0.0
  0
LINE
  5
175E
330
1F
100
AcDbEntity
  8
SANINDUSA
100
AcDbLine
 10
5119.28645127552
 20
2482.81536369102
 30
0.0
 11
5119.206451275521
 21
2482.81536369102
 31
0.0
  0
ARC
  5
175F
330
1F
100
AcDbEntity
  8
SANINDUSA
100
AcDbCircle
 10
5119.206451275521
 20
2482.737759596743
 30
0.0
 40
0.0776040942777704
100
AcDbArc
 50
90.0
 51
180.0
  0
ARC
  5
1761
330
1F
100
AcDbEntity
  8
SANINDUSA
100
AcDbCircle
 10
5119.161451275521
 20
2482.562759596742
 30
0.0
 40
0.0326040942777706
100
AcDbArc
 50
180.0
 51
270.0
  0
LINE
  5
1763
330
1F
100
AcDbEntity
  8
SANINDUSA
100
AcDbLine
 10
5119.128847181242
 20
2482.737759596743
 30
0.0
 11
5119.128847181242
 21
2482.562759596742
 31
0.0
  0
SPLINE
  5
179D
330
1F
100
AcDbEntity
  8
SANINDUSA
100
AcDbSpline
210
0.0
220
0.0
230
1.0
 70
     8
 71
     3
 72
    46
 73
    42
 74
     0
 42
0.0000000001
 43
0.0000000001
 40
0.0
 40
0.0
 40
0.0
 40
0.0
 40
0.0625000000000032
 40
0.0625000000000032
 40
0.1250000000000064
 40
0.1250000000000064
 40
0.1562500000000081
 40
0.1562500000000081
 40
0.1875000000000098
 40
0.1875000000000098
 40
0.2500000000000133
 40
0.2500000000000133
 40
0.3125000000000169
 40
0.3125000000000169
 40
0.3437500000000178
 40
0.3437500000000178
 40
0.3750000000000189
 40
0.3750000000000189
 40
0.4375000000000198
 40
0.4375000000000198
 40
0.5000000000000197
 40
0.5000000000000197
 40
0.5625000000000196
 40
0.5625000000000196
 40
0.5937500000000186
 40
0.5937500000000186
 40
0.6250000000000177
 40
0.6250000000000177
 40
0.6875000000000138
 40
0.6875000000000138
 40
0.7500000000000099
 40
0.7500000000000099
 40
0.7812500000000085
 40
0.7812500000000085
 40
0.8125000000000071
 40
0.8125000000000071
 40
0.8750000000000047
 40
0.8750000000000047
 40
0.9375000000000024
 40
0.9375000000000024
 40
1.0
 40
1.0
 40
1.0
 40
1.0
 10
5119.072175062635
 20
2482.553291911322
 30
0.0
 10
5119.072195546872
 20
2482.550704520129
 30
0.0
 10
5119.072341780507
 20
2482.54813088118
 30
0.0
 10
5119.0728808995
 20
2482.543010577683
 30
0.0
 10
5119.073273905388
 20
2482.540463926316
 30
0.0
 10
5119.07405198827
 20
2482.536664572157
 30
0.0
 10
5119.074342138985
 20
2482.535405127604
 30
0.0
 10
5119.074979708202
 20
2482.532913521664
 30
0.0
 10
5119.07532754554
 20
2482.531679275866
 30
0.0
 10
5119.076456921232
 20
2482.528010695039
 30
0.0
 10
5119.077324171089
 20
2482.525610456038
 30
0.0
 10
5119.07928665814
 20
2482.520900671378
 30
0.0
 10
5119.080381413444
 20
2482.518590934024
 30
0.0
 10
5119.082196320954
 20
2482.515195057696
 30
0.0
 10
5119.082830164479
 20
2482.514074585135
 30
0.0
 10
5119.084156990147
 20
2482.511857165352
 30
0.0
 10
5119.08484779364
 20
2482.510764236348
 30
0.0
 10
5119.086987368924
 20
2482.507554275882
 30
0.0
 10
5119.088508211546
 20
2482.505496492766
 30
0.0
 10
5119.091733586245
 20
2482.501540757973
 30
0.0
 10
5119.093438201685
 20
2482.49964287883
 30
0.0
 10
5119.097033903409
 20
2482.496009372117
 30
0.0
 10
5119.098924610745
 20
2482.494273414818
 30
0.0
 10
5119.101903641833
 20
2482.491793879661
 30
0.0
 10
5119.102917243027
 20
2482.490991102592
 30
0.0
 10
5119.104971337119
 20
2482.489443488948
 30
0.0
 10
5119.106013889965
 20
2482.488696938555
 30
0.0
 10
5119.109187653195
 20
2482.486538331196
 30
0.0
 10
5119.111364666306
 20
2482.485206787252
 30
0.0
 10
5119.115838955664
 20
2482.482755100492
 30
0.0
 10
5119.118136224814
 20
2482.4816349452
 30
0.0
 10
5119.121674897269
 20
2482.480117783135
 30
0.0
 10
5119.122869957212
 20
2482.479639313001
 30
0.0
 10
5119.125291505685
 20
2482.478737618579
 30
0.0
 10
5119.126513919354
 20
2482.478316062068
 30
0.0
 10
5119.130190824294
 20
2482.47714639436
 30
0.0
 10
5119.132664844949
 20
2482.476489180539
 30
0.0
 10
5119.137657768173
 20
2482.475416544918
 30
0.0
 10
5119.140176707052
 20
2482.47500131872
 30
0.0
 10
5119.145259408528
 20
2482.474412344832
 30
0.0
 10
5119.147823158933
 20
2482.474238531448
 30
0.0
 10
5119.15041023899
 20
2482.474190401732
 30
0.0
  0
SPLINE
  5
179E
330
1F
100
AcDbEntity
  8
SANINDUSA
100
AcDbSpline
210
0.0
220
0.0
230
1.0
 70
     8
 71
     3
 72
    46
 73
    42
 74
     0
 42
0.0000000001
 43
0.0000000001
 40
0.0
 40
0.0
 40
0.0
 40
0.0
 40
0.0625000000000032
 40
0.0625000000000032
 40
0.1250000000000064
 40
0.1250000000000064
 40
0.1562500000000081
 40
0.1562500000000081
 40
0.1875000000000098
 40
0.1875000000000098
 40
0.2500000000000133
 40
0.2500000000000133
 40
0.3125000000000169
 40
0.3125000000000169
 40
0.3437500000000178
 40
0.3437500000000178
 40
0.3750000000000189
 40
0.3750000000000189
 40
0.4375000000000198
 40
0.4375000000000198
 40
0.5000000000000197
 40
0.5000000000000197
 40
0.5625000000000196
 40
0.5625000000000196
 40
0.5937500000000186
 40
0.5937500000000186
 40
0.6250000000000177
 40
0.6250000000000177
 40
0.6875000000000138
 40
0.6875000000000138
 40
0.7500000000000099
 40
0.7500000000000099
 40
0.7812500000000085
 40
0.7812500000000085
 40
0.8125000000000071
 40
0.8125000000000071
 40
0.8750000000000047
 40
0.8750000000000047
 40
0.9375000000000024
 40
0.9375000000000024
 40
1.0
 40
1.0
 40
1.0
 40
1.0
 10
5119.420727488406
 20
2482.553291911322
 30
0.0
 10
5119.420707004167
 20
2482.550704520129
 30
0.0
 10
5119.420560770533
 20
2482.54813088118
 30
0.0
 10
5119.42002165154
 20
2482.543010577683
 30
0.0
 10
5119.419628645653
 20
2482.540463926316
 30
0.0
 10
5119.41885056277
 20
2482.536664572157
 30
0.0
 10
5119.418560412055
 20
2482.535405127604
 30
0.0
 10
5119.417922842838
 20
2482.532913521664
 30
0.0
 10
5119.4175750055
 20
2482.531679275866
 30
0.0
 10
5119.416445629809
 20
2482.528010695039
 30
0.0
 10
5119.415578379951
 20
2482.525610456038
 30
0.0
 10
5119.4136158929
 20
2482.520900671378
 30
0.0
 10
5119.412521137596
 20
2482.518590934024
 30
0.0
 10
5119.410706230086
 20
2482.515195057696
 30
0.0
 10
5119.410072386562
 20
2482.514074585135
 30
0.0
 10
5119.408745560893
 20
2482.511857165352
 30
0.0
 10
5119.4080547574
 20
2482.510764236348
 30
0.0
 10
5119.405915182116
 20
2482.507554275882
 30
0.0
 10
5119.404394339494
 20
2482.505496492766
 30
0.0
 10
5119.401168964795
 20
2482.501540757973
 30
0.0
 10
5119.399464349356
 20
2482.49964287883
 30
0.0
 10
5119.395868647631
 20
2482.496009372117
 30
0.0
 10
5119.393977940295
 20
2482.494273414818
 30
0.0
 10
5119.390998909208
 20
2482.491793879661
 30
0.0
 10
5119.389985308013
 20
2482.490991102592
 30
0.0
 10
5119.387931213921
 20
2482.489443488948
 30
0.0
 10
5119.386888661075
 20
2482.488696938555
 30
0.0
 10
5119.383714897845
 20
2482.486538331196
 30
0.0
 10
5119.381537884734
 20
2482.485206787252
 30
0.0
 10
5119.377063595376
 20
2482.482755100492
 30
0.0
 10
5119.374766326226
 20
2482.4816349452
 30
0.0
 10
5119.371227653771
 20
2482.480117783135
 30
0.0
 10
5119.370032593828
 20
2482.479639313001
 30
0.0
 10
5119.367611045355
 20
2482.478737618579
 30
0.0
 10
5119.366388631686
 20
2482.478316062068
 30
0.0
 10
5119.362711726746
 20
2482.47714639436
 30
0.0
 10
5119.360237706092
 20
2482.476489180539
 30
0.0
 10
5119.355244782867
 20
2482.475416544918
 30
0.0
 10
5119.352725843989
 20
2482.47500131872
 30
0.0
 10
5119.347643142512
 20
2482.474412344832
 30
0.0
 10
5119.345079392108
 20
2482.474238531448
 30
0.0
 10
5119.34249231205
 20
2482.474190401732
 30
0.0
  0
SPLINE
  5
179F
330
1F
100
AcDbEntity
  8
SANINDUSA
100
AcDbSpline
210
0.0
220
0.0
230
1.0
 70
     8
 71
     3
 72
    20
 73
    16
 74
     0
 42
0.0000000001
 43
0.0000000001
 40
0.0
 40
0.0
 40
0.0
 40
0.0
 40
0.5000000000000001
 40
0.5000000000000001
 40
0.7500000000000002
 40
0.7500000000000002
 40
0.8750000000000003
 40
0.8750000000000003
 40
0.9375000000000005
 40
0.9687500000000005
 40
0.9843750000000005
 40
0.9921875000000005
 40
0.9960937500000003
 40
0.9960937500000003
 40
1.0
 40
1.0
 40
1.0
 40
1.0
 10
5119.071843719535
 20
2483.002759596742
 30
0.0
 10
5119.071843719535
 20
2482.9278482886
 30
0.0
 10
5119.071894210025
 20
2482.852936992773
 30
0.0
 10
5119.071994356872
 20
2482.74057008328
 30
0.0
 10
5119.072031729569
 20
2482.703114449998
 30
0.0
 10
5119.072086993569
 20
2482.646930999429
 30
0.0
 10
5119.072105281856
 20
2482.628203182447
 30
0.0
 10
5119.072131680012
 20
2482.600111455994
 30
0.0
 10
5119.072144620865
 20
2482.586065592522
 30
0.0
 10
5119.072159088981
 20
2482.569678751208
 30
0.0
 10
5119.072166143928
 20
2482.561485330382
 30
0.0
 10
5119.072169623928
 20
2482.557388619923
 30
0.0
 10
5119.072171104896
 20
2482.555632886859
 30
0.0
 10
5119.072172089852
 20
2482.554462398149
 30
0.0
 10
5119.072170429318
 20
2482.553877151751
 30
0.0
 10
5119.072175062635
 20
2482.553291911322
 30
0.0
  0
SPLINE
  5
17A0
330
1F
100
AcDbEntity
  8
SANINDUSA
100
AcDbSpline
210
0.0
220
0.0
230
1.0
 70
     8
 71
     3
 72
    20
 73
    16
 74
     0
 42
0.0000000001
 43
0.0000000001
 40
0.0
 40
0.0
 40
0.0
 40
0.0
 40
0.5000000000000001
 40
0.5000000000000001
 40
0.7500000000000002
 40
0.7500000000000002
 40
0.8750000000000003
 40
0.8750000000000003
 40
0.9375000000000005
 40
0.9687500000000005
 40
0.9843750000000005
 40
0.9921875000000005
 40
0.9960937500000003
 40
0.9960937500000003
 40
1.0
 40
1.0
 40
1.0
 40
1.0
 10
5119.421058831505
 20
2483.002759596742
 30
0.0
 10
5119.421058831505
 20
2482.9278482886
 30
0.0
 10
5119.421008341015
 20
2482.852936992773
 30
0.0
 10
5119.420908194169
 20
2482.74057008328
 30
0.0
 10
5119.420870821471
 20
2482.703114449998
 30
0.0
 10
5119.420815557471
 20
2482.646930999429
 30
0.0
 10
5119.420797269184
 20
2482.628203182447
 30
0.0
 10
5119.420770871028
 20
2482.600111455994
 30
0.0
 10
5119.420757930175
 20
2482.586065592522
 30
0.0
 10
5119.420743462059
 20
2482.569678751208
 30
0.0
 10
5119.420736407112
 20
2482.561485330382
 30
0.0
 10
5119.420732927112
 20
2482.557388619923
 30
0.0
 10
5119.420731446144
 20
2482.555632886859
 30
0.0
 10
5119.42073046119
 20
2482.554462398149
 30
0.0
 10
5119.420732121723
 20
2482.553877151751
 30
0.0
 10
5119.420727488406
 20
2482.553291911322
 30
0.0
  0
SPLINE
  5
17B5
330
1F
100
AcDbEntity
  8
SANINDUSA
100
AcDbSpline
210
0.0
220
0.0
230
1.0
 70
     8
 71
     3
 72
    40
 73
    36
 74
     0
 42
0.0000000001
 43
0.0000000001
 40
0.0
 40
0.0
 40
0.0
 40
0.0
 40
0.1249999999999956
 40
0.1249999999999956
 40
0.1874999999999948
 40
0.1874999999999948
 40
0.2187499999999944
 40
0.2187499999999944
 40
0.249999999999994
 40
0.249999999999994
 40
0.3749999999999955
 40
0.3749999999999955
 40
0.4374999999999964
 40
0.4374999999999964
 40
0.4999999999999973
 40
0.4999999999999973
 40
0.5624999999999981
 40
0.5624999999999981
 40
0.5937499999999984
 40
0.5937499999999984
 40
0.624999999999999
 40
0.624999999999999
 40
0.6562499999999993
 40
0.6562499999999993
 40
0.6874999999999999
 40
0.6874999999999999
 40
0.7499999999999995
 40
0.7499999999999995
 40
0.7812499999999992
 40
0.7812499999999992
 40
0.8124999999999989
 40
0.8124999999999989
 40
0.8749999999999989
 40
0.8749999999999989
 40
1.0
 40
1.0
 40
1.0
 40
1.0
 10
5119.297420176432
 20
2482.658059144934
 30
0.0
 10
5119.297540309062
 20
2482.655416077268
 30
0.0
 10
5119.297422355271
 20
2482.652771545856
 30
0.0
 10
5119.296868872551
 20
2482.648814126805
 30
0.0
 10
5119.296621338204
 20
2482.647496529257
 30
0.0
 10
5119.296149996752
 20
2482.645524052389
 30
0.0
 10
5119.295976268923
 20
2482.644868019655
 30
0.0
 10
5119.295598727372
 20
2482.643571214708
 30
0.0
 10
5119.295394530272
 20
2482.642928759932
 30
0.0
 10
5119.294296773619
 20
2482.6397464869
 30
0.0
 10
5119.293174845278
 20
2482.637295925889
 30
0.0
 10
5119.29111066512
 20
2482.633776227692
 30
0.0
 10
5119.290354530361
 20
2482.632624500022
 30
0.0
 10
5119.288743285038
 20
2482.630424111973
 30
0.0
 10
5119.287885813318
 20
2482.629370226038
 30
0.0
 10
5119.286068720879
 20
2482.627354636219
 30
0.0
 10
5119.285109132667
 20
2482.626392929056
 30
0.0
 10
5119.283592407164
 20
2482.625021021469
 30
0.0
 10
5119.283073920402
 20
2482.624575514199
 30
0.0
 10
5119.282010783479
 20
2482.623708584694
 30
0.0
 10
5119.281465341902
 20
2482.62328670342
 30
0.0
 10
5119.280360351961
 20
2482.622476445258
 30
0.0
 10
5119.27979942887
 20
2482.622086879376
 30
0.0
 10
5119.278661136281
 20
2482.621338301814
 30
0.0
 10
5119.278084109806
 20
2482.620979015731
 30
0.0
 10
5119.276324229041
 20
2482.619950077534
 30
0.0
 10
5119.275113697669
 20
2482.619328442548
 30
0.0
 10
5119.273240971125
 20
2482.618494593337
 30
0.0
 10
5119.272607226964
 20
2482.618233104981
 30
0.0
 10
5119.271320362751
 20
2482.617743779337
 30
0.0
 10
5119.270664785251
 20
2482.617515197968
 30
0.0
 10
5119.268688411424
 20
2482.616887638048
 30
0.0
 10
5119.267361330882
 20
2482.616546972693
 30
0.0
 10
5119.26335229976
 20
2482.615745922867
 30
0.0
 10
5119.260642893184
 20
2482.615504203455
 30
0.0
 10
5119.257894524211
 20
2482.615552202349
 30
0.0
  0
SPLINE
  5
17B8
330
1F
100
AcDbEntity
  8
SANINDUSA
100
AcDbSpline
210
0.0
220
0.0
230
1.0
 70
     8
 71
     3
 72
    40
 73
    36
 74
     0
 42
0.0000000001
 43
0.0000000001
 40
0.0
 40
0.0
 40
0.0
 40
0.0
 40
0.1249999999999956
 40
0.1249999999999956
 40
0.1874999999999948
 40
0.1874999999999948
 40
0.2187499999999944
 40
0.2187499999999944
 40
0.249999999999994
 40
0.249999999999994
 40
0.3749999999999955
 40
0.3749999999999955
 40
0.4374999999999964
 40
0.4374999999999964
 40
0.4999999999999973
 40
0.4999999999999973
 40
0.5624999999999981
 40
0.5624999999999981
 40
0.5937499999999984
 40
0.5937499999999984
 40
0.624999999999999
 40
0.624999999999999
 40
0.6562499999999993
 40
0.6562499999999993
 40
0.6874999999999999
 40
0.6874999999999999
 40
0.7499999999999995
 40
0.7499999999999995
 40
0.7812499999999992
 40
0.7812499999999992
 40
0.8124999999999989
 40
0.8124999999999989
 40
0.8749999999999989
 40
0.8749999999999989
 40
1.0
 40
1.0
 40
1.0
 40
1.0
 10
5119.195482374609
 20
2482.658059144934
 30
0.0
 10
5119.195362241979
 20
2482.655416077268
 30
0.0
 10
5119.19548019577
 20
2482.652771545856
 30
0.0
 10
5119.196033678489
 20
2482.648814126805
 30
0.0
 10
5119.196281212836
 20
2482.647496529257
 30
0.0
 10
5119.196752554288
 20
2482.645524052389
 30
0.0
 10
5119.196926282117
 20
2482.644868019655
 30
0.0
 10
5119.197303823668
 20
2482.643571214708
 30
0.0
 10
5119.197508020768
 20
2482.642928759932
 30
0.0
 10
5119.198605777422
 20
2482.6397464869
 30
0.0
 10
5119.199727705762
 20
2482.637295925889
 30
0.0
 10
5119.20179188592
 20
2482.633776227692
 30
0.0
 10
5119.202548020679
 20
2482.632624500022
 30
0.0
 10
5119.204159266002
 20
2482.630424111973
 30
0.0
 10
5119.205016737723
 20
2482.629370226038
 30
0.0
 10
5119.206833830162
 20
2482.627354636219
 30
0.0
 10
5119.207793418373
 20
2482.626392929056
 30
0.0
 10
5119.209310143877
 20
2482.625021021469
 30
0.0
 10
5119.209828630638
 20
2482.624575514199
 30
0.0
 10
5119.210891767561
 20
2482.623708584694
 30
0.0
 10
5119.211437209138
 20
2482.62328670342
 30
0.0
 10
5119.212542199079
 20
2482.622476445258
 30
0.0
 10
5119.21310312217
 20
2482.622086879376
 30
0.0
 10
5119.21424141476
 20
2482.621338301814
 30
0.0
 10
5119.214818441234
 20
2482.620979015731
 30
0.0
 10
5119.216578321999
 20
2482.619950077534
 30
0.0
 10
5119.21778885337
 20
2482.619328442548
 30
0.0
 10
5119.219661579915
 20
2482.618494593337
 30
0.0
 10
5119.220295324076
 20
2482.618233104981
 30
0.0
 10
5119.22158218829
 20
2482.617743779337
 30
0.0
 10
5119.222237765788
 20
2482.617515197968
 30
0.0
 10
5119.224214139617
 20
2482.616887638048
 30
0.0
 10
5119.225541220158
 20
2482.616546972693
 30
0.0
 10
5119.22955025128
 20
2482.615745922867
 30
0.0
 10
5119.232259657857
 20
2482.615504203455
 30
0.0
 10
5119.235008026829
 20
2482.615552202349
 30
0.0
  0
SPLINE
  5
17B9
330
1F
100
AcDbEntity
  8
SANINDUSA
100
AcDbSpline
210
0.0
220
0.0
230
1.0
 70
     8
 71
     3
 72
    18
 73
    14
 74
     0
 42
0.0000000001
 43
0.0000000001
 40
0.0
 40
0.0
 40
0.0
 40
0.0
 40
0.249999999999999
 40
0.249999999999999
 40
0.4999999999999981
 40
0.4999999999999981
 40
0.749999999999997
 40
0.749999999999997
 40
0.8749999999999975
 40
0.8749999999999975
 40
0.9374999999999985
 40
0.9374999999999985
 40
1.0
 40
1.0
 40
1.0
 40
1.0
 10
5119.294371577974
 20
2482.7379906221
 30
0.0
 10
5119.294614333037
 20
2482.731296388769
 30
0.0
 10
5119.294861991739
 20
2482.724616602598
 30
0.0
 10
5119.295363608407
 20
2482.711275589224
 30
0.0
 10
5119.29561750819
 20
2482.704614190602
 30
0.0
 10
5119.296128674285
 20
2482.691301311864
 30
0.0
 10
5119.296385940863
 20
2482.684649832532
 30
0.0
 10
5119.296773053086
 20
2482.674676185393
 30
0.0
 10
5119.296902298516
 20
2482.671352249225
 30
0.0
 10
5119.297096367915
 20
2482.666366937912
 30
0.0
 10
5119.297161091478
 20
2482.664705266947
 30
0.0
 10
5119.297290592569
 20
2482.66138208401
 30
0.0
 10
5119.297355299433
 20
2482.659720363847
 30
0.0
 10
5119.297420176432
 20
2482.658059144934
 30
0.0
  0
SPLINE
  5
17BC
330
1F
100
AcDbEntity
  8
SANINDUSA
100
AcDbSpline
210
0.0
220
0.0
230
1.0
 70
     8
 71
     3
 72
    18
 73
    14
 74
     0
 42
0.0000000001
 43
0.0000000001
 40
0.0
 40
0.0
 40
0.0
 40
0.0
 40
0.249999999999999
 40
0.249999999999999
 40
0.4999999999999981
 40
0.4999999999999981
 40
0.749999999999997
 40
0.749999999999997
 40
0.8749999999999975
 40
0.8749999999999975
 40
0.9374999999999985
 40
0.9374999999999985
 40
1.0
 40
1.0
 40
1.0
 40
1.0
 10
5119.198530973066
 20
2482.7379906221
 30
0.0
 10
5119.198288218004
 20
2482.731296388769
 30
0.0
 10
5119.198040559302
 20
2482.724616602598
 30
0.0
 10
5119.197538942633
 20
2482.711275589224
 30
0.0
 10
5119.19728504285
 20
2482.704614190602
 30
0.0
 10
5119.196773876755
 20
2482.691301311864
 30
0.0
 10
5119.196516610177
 20
2482.684649832532
 30
0.0
 10
5119.196129497955
 20
2482.674676185393
 30
0.0
 10
5119.196000252525
 20
2482.671352249225
 30
0.0
 10
5119.195806183125
 20
2482.666366937912
 30
0.0
 10
5119.195741459562
 20
2482.664705266947
 30
0.0
 10
5119.19561195847
 20
2482.66138208401
 30
0.0
 10
5119.195547251607
 20
2482.659720363847
 30
0.0
 10
5119.195482374609
 20
2482.658059144934
 30
0.0
  0
SPLINE
  5
17BE
330
1F
100
AcDbEntity
  8
SANINDUSA
100
AcDbSpline
210
0.0
220
0.0
230
1.0
 70
    24
 71
     3
 72
     8
 73
     4
 74
     0
 42
0.0000000001
 43
0.0000000001
 40
0.0
 40
0.0
 40
0.0
 40
0.0
 40
1.0
 40
1.0
 40
1.0
 40
1.0
 10
5119.257894524211
 20
2482.615552202349
 30
0.0
 10
5119.25408299067
 20
2482.615581408673
 30
0.0
 10
5119.250268788587
 20
2482.6155975808
 30
0.0
 10
5119.246451275521
 20
2482.6155975808
 30
0.0
  0
SPLINE
  5
17BF
330
1F
100
AcDbEntity
  8
SANINDUSA
100
AcDbSpline
210
0.0
220
0.0
230
1.0
 70
    24
 71
     3
 72
     8
 73
     4
 74
     0
 42
0.0000000001
 43
0.0000000001
 40
0.0
 40
0.0
 40
0.0
 40
0.0
 40
1.0
 40
1.0
 40
1.0
 40
1.0
 10
5119.235008026829
 20
2482.615552202349
 30
0.0
 10
5119.238819560371
 20
2482.615581408673
 30
0.0
 10
5119.242633762453
 20
2482.6155975808
 30
0.0
 10
5119.246451275521
 20
2482.6155975808
 30
0.0
  0
SPLINE
  5
17C1
330
1F
100
AcDbEntity
  8
SANINDUSA
100
AcDbSpline
210
0.0
220
0.0
230
1.0
 70
     8
 71
     3
 72
    44
 73
    40
 74
     0
 42
0.0000000001
 43
0.0000000001
 40
0.0
 40
0.0
 40
0.0
 40
0.0
 40
0.0078124999999994
 40
0.0078124999999994
 40
0.0156249999999988
 40
0.0156249999999988
 40
0.0234374999999982
 40
0.0234374999999982
 40
0.0312499999999976
 40
0.0312499999999976
 40
0.039062499999997
 40
0.039062499999997
 40
0.0468749999999964
 40
0.0468749999999964
 40
0.0546874999999958
 40
0.0546874999999958
 40
0.0624999999999952
 40
0.0624999999999952
 40
0.0781249999999944
 40
0.0781249999999944
 40
0.0937499999999936
 40
0.0937499999999936
 40
0.1249999999999929
 40
0.1249999999999929
 40
0.1874999999999929
 40
0.1874999999999929
 40
0.2499999999999929
 40
0.2499999999999929
 40
0.374999999999994
 40
0.374999999999994
 40
0.4999999999999952
 40
0.4999999999999952
 40
0.6249999999999964
 40
0.6249999999999964
 40
0.7499999999999976
 40
0.7499999999999976
 40
0.8749999999999985
 40
0.8749999999999985
 40
1.0
 40
1.0
 40
1.0
 40
1.0
 10
5119.283368330775
 20
2482.78673329304
 30
0.0
 10
5119.283456668496
 20
2482.786775977765
 30
0.0
 10
5119.283549489097
 20
2482.786813442908
 30
0.0
 10
5119.283748489709
 20
2482.786872784399
 30
0.0
 10
5119.283856088366
 20
2482.786894878989
 30
0.0
 10
5119.284084832179
 20
2482.786912811695
 30
0.0
 10
5119.284207882155
 20
2482.78690831969
 30
0.0
 10
5119.284458293433
 20
2482.786864010836
 30
0.0
 10
5119.28458593063
 20
2482.786824024539
 30
0.0
 10
5119.284831792562
 20
2482.786714343024
 30
0.0
 10
5119.28494904675
 20
2482.78664551923
 30
0.0
 10
5119.285166090105
 20
2482.786494348186
 30
0.0
 10
5119.285265907464
 20
2482.786412470677
 30
0.0
 10
5119.285454380851
 20
2482.786240623652
 30
0.0
 10
5119.285542700927
 20
2482.786150734876
 30
0.0
 10
5119.285707694988
 20
2482.785969672497
 30
0.0
 10
5119.285785050199
 20
2482.785877814169
 30
0.0
 10
5119.286006362863
 20
2482.785599435335
 30
0.0
 10
5119.286139781488
 20
2482.785410164999
 30
0.0
 10
5119.28639030932
 20
2482.785027266079
 30
0.0
 10
5119.286507171848
 20
2482.784833548787
 30
0.0
 10
5119.286837735853
 20
2482.78425400971
 30
0.0
 10
5119.287033662259
 20
2482.783867118391
 30
0.0
 10
5119.287583419807
 20
2482.782704911936
 30
0.0
 10
5119.287899471879
 20
2482.781928069897
 30
0.0
 10
5119.288487169135
 20
2482.78037024799
 30
0.0
 10
5119.288757142794
 20
2482.779588686729
 30
0.0
 10
5119.289521226226
 20
2482.777241557935
 30
0.0
 10
5119.289969783807
 20
2482.775675637153
 30
0.0
 10
5119.290796043841
 20
2482.772531677365
 30
0.0
 10
5119.291172112543
 20
2482.770953848397
 30
0.0
 10
5119.291862926171
 20
2482.76777943901
 30
0.0
 10
5119.292177370708
 20
2482.766182928312
 30
0.0
 10
5119.292743737839
 20
2482.762963261289
 30
0.0
 10
5119.292995645765
 20
2482.761340175607
 30
0.0
 10
5119.293427130999
 20
2482.758056429425
 30
0.0
 10
5119.293607048
 20
2482.756394261466
 30
0.0
 10
5119.293872766995
 20
2482.75302281556
 30
0.0
 10
5119.293958990523
 20
2482.751315706789
 30
0.0
 10
5119.293977605846
 20
2482.749575715375
 30
0.0
  0
SPLINE
  5
17C3
330
1F
100
AcDbEntity
  8
SANINDUSA
100
AcDbSpline
210
0.0
220
0.0
230
1.0
 70
     8
 71
     3
 72
    44
 73
    40
 74
     0
 42
0.0000000001
 43
0.0000000001
 40
0.0
 40
0.0
 40
0.0
 40
0.0
 40
0.0078124999999996
 40
0.0078124999999996
 40
0.0156249999999992
 40
0.0156249999999992
 40
0.0234374999999988
 40
0.0234374999999988
 40
0.0312499999999984
 40
0.0312499999999984
 40
0.039062499999998
 40
0.039062499999998
 40
0.0468749999999976
 40
0.0468749999999976
 40
0.0546874999999972
 40
0.0546874999999972
 40
0.0624999999999968
 40
0.0624999999999968
 40
0.078124999999996
 40
0.078124999999996
 40
0.0937499999999952
 40
0.0937499999999952
 40
0.1249999999999944
 40
0.1249999999999944
 40
0.1874999999999952
 40
0.1874999999999952
 40
0.2499999999999961
 40
0.2499999999999961
 40
0.3749999999999968
 40
0.3749999999999968
 40
0.4999999999999975
 40
0.4999999999999975
 40
0.6249999999999982
 40
0.6249999999999982
 40
0.7499999999999988
 40
0.7499999999999988
 40
0.8749999999999992
 40
0.8749999999999992
 40
1.0
 40
1.0
 40
1.0
 40
1.0
 10
5119.209534220265
 20
2482.78673329304
 30
0.0
 10
5119.209445882544
 20
2482.786775977765
 30
0.0
 10
5119.209353061944
 20
2482.786813442908
 30
0.0
 10
5119.209154061332
 20
2482.786872784399
 30
0.0
 10
5119.209046462674
 20
2482.786894878989
 30
0.0
 10
5119.208817718861
 20
2482.786912811695
 30
0.0
 10
5119.208694668885
 20
2482.78690831969
 30
0.0
 10
5119.208444257607
 20
2482.786864010836
 30
0.0
 10
5119.208316620412
 20
2482.786824024539
 30
0.0
 10
5119.208070758479
 20
2482.786714343024
 30
0.0
 10
5119.207953504291
 20
2482.78664551923
 30
0.0
 10
5119.207736460936
 20
2482.786494348186
 30
0.0
 10
5119.207636643576
 20
2482.786412470677
 30
0.0
 10
5119.20744817019
 20
2482.786240623652
 30
0.0
 10
5119.207359850113
 20
2482.786150734876
 30
0.0
 10
5119.207194856052
 20
2482.785969672497
 30
0.0
 10
5119.207117500841
 20
2482.785877814169
 30
0.0
 10
5119.206896188178
 20
2482.785599435335
 30
0.0
 10
5119.206762769554
 20
2482.785410164999
 30
0.0
 10
5119.20651224172
 20
2482.785027266079
 30
0.0
 10
5119.206395379192
 20
2482.784833548787
 30
0.0
 10
5119.206064815188
 20
2482.78425400971
 30
0.0
 10
5119.205868888781
 20
2482.783867118391
 30
0.0
 10
5119.205319131233
 20
2482.782704911936
 30
0.0
 10
5119.205003079162
 20
2482.781928069897
 30
0.0
 10
5119.204415381906
 20
2482.78037024799
 30
0.0
 10
5119.204145408247
 20
2482.779588686729
 30
0.0
 10
5119.203381324815
 20
2482.777241557935
 30
0.0
 10
5119.202932767233
 20
2482.775675637153
 30
0.0
 10
5119.202106507199
 20
2482.772531677365
 30
0.0
 10
5119.201730438498
 20
2482.770953848397
 30
0.0
 10
5119.201039624869
 20
2482.76777943901
 30
0.0
 10
5119.200725180332
 20
2482.766182928312
 30
0.0
 10
5119.200158813201
 20
2482.762963261289
 30
0.0
 10
5119.199906905275
 20
2482.761340175607
 30
0.0
 10
5119.199475420041
 20
2482.758056429425
 30
0.0
 10
5119.199295503042
 20
2482.756394261466
 30
0.0
 10
5119.199029784045
 20
2482.75302281556
 30
0.0
 10
5119.198943560517
 20
2482.751315706789
 30
0.0
 10
5119.198924945194
 20
2482.749575715375
 30
0.0
  0
SPLINE
  5
17C6
330
1F
100
AcDbEntity
  8
SANINDUSA
100
AcDbSpline
210
0.0
220
0.0
230
1.0
 70
     8
 71
     3
 72
    28
 73
    24
 74
     0
 42
0.0000000001
 43
0.0000000001
 40
0.0
 40
0.0
 40
0.0
 40
0.0
 40
0.1250000000000005
 40
0.1250000000000005
 40
0.2500000000000011
 40
0.2500000000000011
 40
0.3125000000000011
 40
0.3125000000000011
 40
0.3437500000000011
 40
0.3437500000000011
 40
0.3750000000000011
 40
0.3750000000000011
 40
0.4375000000000011
 40
0.4375000000000011
 40
0.500000000000001
 40
0.500000000000001
 40
0.6250000000000008
 40
0.6250000000000008
 40
0.7500000000000005
 40
0.7500000000000005
 40
0.8750000000000001
 40
0.8750000000000001
 40
1.0
 40
1.0
 40
1.0
 40
1.0
 10
5119.246451275521
 20
2482.787934724659
 30
0.0
 10
5119.248059292941
 20
2482.787951560624
 30
0.0
 10
5119.249657652841
 20
2482.787930049987
 30
0.0
 10
5119.252838333142
 20
2482.787820256798
 30
0.0
 10
5119.254421029328
 20
2482.787730932705
 30
0.0
 10
5119.256784960038
 20
2482.787576680252
 30
0.0
 10
5119.257571183045
 20
2482.787522441292
 30
0.0
 10
5119.258748067351
 20
2482.787440892449
 30
0.0
 10
5119.259139901283
 20
2482.787414227073
 30
0.0
 10
5119.25992232056
 20
2482.787365872814
 30
0.0
 10
5119.260312983596
 20
2482.787343348039
 30
0.0
 10
5119.261483590088
 20
2482.787278931428
 30
0.0
 10
5119.262262262455
 20
2482.787240055394
 30
0.0
 10
5119.263812131788
 20
2482.787165319626
 30
0.0
 10
5119.264584075502
 20
2482.787129479838
 30
0.0
 10
5119.266893209808
 20
2482.78702424148
 30
0.0
 10
5119.268425157704
 20
2482.786955831665
 30
0.0
 10
5119.271465846015
 20
2482.786849015762
 30
0.0
 10
5119.272972777572
 20
2482.786816070439
 30
0.0
 10
5119.275968587996
 20
2482.786771592665
 30
0.0
 10
5119.277457626259
 20
2482.786759042302
 30
0.0
 10
5119.280422605568
 20
2482.786741270794
 30
0.0
 10
5119.281898463931
 20
2482.78673625803
 30
0.0
 10
5119.283368330775
 20
2482.78673329304
 30
0.0
  0
SPLINE
  5
17C8
330
1F
100
AcDbEntity
  8
SANINDUSA
100
AcDbSpline
210
0.0
220
0.0
230
1.0
 70
     8
 71
     3
 72
    28
 73
    24
 74
     0
 42
0.0000000001
 43
0.0000000001
 40
0.0
 40
0.0
 40
0.0
 40
0.0
 40
0.1250000000000001
 40
0.1250000000000001
 40
0.2500000000000003
 40
0.2500000000000003
 40
0.3125000000000002
 40
0.3125000000000002
 40
0.3437500000000002
 40
0.3437500000000002
 40
0.3750000000000002
 40
0.3750000000000002
 40
0.4375000000000004
 40
0.4375000000000004
 40
0.5000000000000004
 40
0.5000000000000004
 40
0.6250000000000002
 40
0.6250000000000002
 40
0.7500000000000001
 40
0.7500000000000001
 40
0.8750000000000001
 40
0.8750000000000001
 40
1.0
 40
1.0
 40
1.0
 40
1.0
 10
5119.246451275521
 20
2482.787934724659
 30
0.0
 10
5119.244843258098
 20
2482.787951560585
 30
0.0
 10
5119.243244898199
 20
2482.787930049987
 30
0.0
 10
5119.240064217899
 20
2482.787820256798
 30
0.0
 10
5119.238481521713
 20
2482.787730932705
 30
0.0
 10
5119.236117591002
 20
2482.787576680252
 30
0.0
 10
5119.235331367995
 20
2482.787522441292
 30
0.0
 10
5119.234154483689
 20
2482.787440892449
 30
0.0
 10
5119.233762649757
 20
2482.787414227073
 30
0.0
 10
5119.23298023048
 20
2482.787365872814
 30
0.0
 10
5119.232589567444
 20
2482.787343348039
 30
0.0
 10
5119.231418960952
 20
2482.787278931428
 30
0.0
 10
5119.230640288585
 20
2482.787240055394
 30
0.0
 10
5119.229090419252
 20
2482.787165319626
 30
0.0
 10
5119.228318475538
 20
2482.787129479838
 30
0.0
 10
5119.226009341232
 20
2482.78702424148
 30
0.0
 10
5119.224477393336
 20
2482.786955831665
 30
0.0
 10
5119.221436705025
 20
2482.786849015762
 30
0.0
 10
5119.219929773468
 20
2482.786816070439
 30
0.0
 10
5119.216933963045
 20
2482.786771592665
 30
0.0
 10
5119.215444924782
 20
2482.786759042302
 30
0.0
 10
5119.212479945472
 20
2482.786741270794
 30
0.0
 10
5119.211004087111
 20
2482.78673625803
 30
0.0
 10
5119.209534220265
 20
2482.78673329304
 30
0.0
  0
SPLINE
  5
17C9
330
1F
100
AcDbEntity
  8
SANINDUSA
100
AcDbSpline
210
0.0
220
0.0
230
1.0
 70
     8
 71
     3
 72
    30
 73
    26
 74
     0
 42
0.0000000001
 43
0.0000000001
 40
0.0
 40
0.0
 40
0.0
 40
0.0
 40
0.1249999999999995
 40
0.1249999999999995
 40
0.1874999999999997
 40
0.1874999999999997
 40
0.25
 40
0.25
 40
0.3750000000000003
 40
0.3750000000000003
 40
0.4375000000000031
 40
0.4375000000000031
 40
0.5000000000000058
 40
0.5000000000000058
 40
0.6250000000000053
 40
0.6250000000000053
 40
0.6875000000000023
 40
0.6875000000000023
 40
0.7499999999999993
 40
0.7499999999999993
 40
0.8749999999999996
 40
0.8749999999999996
 40
0.9374999999999998
 40
0.9374999999999998
 40
1.0
 40
1.0
 40
1.0
 40
1.0
 10
5119.216173007155
 20
2482.714486127147
 30
0.0
 10
5119.215227405922
 20
2482.714486127147
 30
0.0
 10
5119.21429763966
 20
2482.714397450236
 30
0.0
 10
5119.212926061894
 20
2482.714135586079
 30
0.0
 10
5119.212472739296
 20
2482.714026680101
 30
0.0
 10
5119.211574019832
 20
2482.713764589414
 30
0.0
 10
5119.211126195826
 20
2482.713610351231
 30
0.0
 10
5119.209817068677
 20
2482.713087002283
 30
0.0
 10
5119.208989428418
 20
2482.712659075058
 30
0.0
 10
5119.207814485271
 20
2482.711900351111
 30
0.0
 10
5119.207433995978
 20
2482.711627841924
 30
0.0
 10
5119.206696048639
 20
2482.711042280631
 30
0.0
 10
5119.206339835487
 20
2482.710729834701
 30
0.0
 10
5119.205329203714
 20
2482.709752112219
 30
0.0
 10
5119.204724270968
 20
2482.709040690744
 30
0.0
 10
5119.203919944887
 20
2482.707883863227
 30
0.0
 10
5119.203667981747
 20
2482.707481078602
 30
0.0
 10
5119.203205856337
 20
2482.7066548623
 30
0.0
 10
5119.202996380901
 20
2482.70623321933
 30
0.0
 10
5119.202430609099
 20
2482.70494346124
 30
0.0
 10
5119.202136437676
 20
2482.704050724054
 30
0.0
 10
5119.201821278043
 20
2482.702661463159
 30
0.0
 10
5119.201737856633
 20
2482.702191177873
 30
0.0
 10
5119.20161602541
 20
2482.701248630821
 30
0.0
 10
5119.201577194019
 20
2482.700774639591
 30
0.0
 10
5119.201560426793
 20
2482.700297931761
 30
0.0
  0
SPLINE
  5
17CA
330
1F
100
AcDbEntity
  8
SANINDUSA
100
AcDbSpline
210
0.0
220
0.0
230
1.0
 70
     8
 71
     3
 72
    26
 73
    22
 74
     0
 42
0.0000000001
 43
0.0000000001
 40
0.0
 40
0.0
 40
0.0
 40
0.0
 40
0.1250000000000004
 40
0.1250000000000004
 40
0.2500000000000008
 40
0.2500000000000008
 40
0.3750000000000012
 40
0.3750000000000012
 40
0.4375000000000015
 40
0.4375000000000015
 40
0.5000000000000017
 40
0.5000000000000017
 40
0.6250000000000017
 40
0.6250000000000017
 40
0.750000000000001
 40
0.750000000000001
 40
0.8750000000000003
 40
0.8750000000000003
 40
0.9375000000000001
 40
0.9375000000000001
 40
1.0
 40
1.0
 40
1.0
 40
1.0
 10
5119.201560426793
 20
2482.700297931761
 30
0.0
 10
5119.201404164698
 20
2482.701353514757
 30
0.0
 10
5119.201253596736
 20
2482.702547818849
 30
0.0
 10
5119.200964711055
 20
2482.705201647824
 30
0.0
 10
5119.200826323523
 20
2482.706661444926
 30
0.0
 10
5119.200561378854
 20
2482.709840654969
 30
0.0
 10
5119.200434827348
 20
2482.711560191478
 30
0.0
 10
5119.200253585621
 20
2482.714327904166
 30
0.0
 10
5119.200194598946
 20
2482.715281795419
 30
0.0
 10
5119.200079423472
 20
2482.717250976873
 30
0.0
 10
5119.200023203694
 20
2482.718266897466
 30
0.0
 10
5119.199858920478
 20
2482.721399792064
 30
0.0
 10
5119.199755251773
 20
2482.723600924128
 30
0.0
 10
5119.199558944319
 20
2482.728215245542
 30
0.0
 10
5119.199466270158
 20
2482.730627754058
 30
0.0
 10
5119.199291771568
 20
2482.735661363373
 30
0.0
 10
5119.199209950799
 20
2482.738282534516
 30
0.0
 10
5119.199096339484
 20
2482.7423896254
 30
0.0
 10
5119.199059972563
 20
2482.743787561676
 30
0.0
 10
5119.198990205177
 20
2482.746640466042
 30
0.0
 10
5119.198956808252
 20
2482.748095341257
 30
0.0
 10
5119.198924945194
 20
2482.749575715375
 30
0.0
  0
SPLINE
  5
17CC
330
1F
100
AcDbEntity
  8
SANINDUSA
100
AcDbSpline
210
0.0
220
0.0
230
1.0
 70
     8
 71
     3
 72
    26
 73
    22
 74
     0
 42
0.0000000001
 43
0.0000000001
 40
0.0
 40
0.0
 40
0.0
 40
0.0
 40
0.1250000000000004
 40
0.1250000000000004
 40
0.2500000000000008
 40
0.2500000000000008
 40
0.3750000000000012
 40
0.3750000000000012
 40
0.4375000000000015
 40
0.4375000000000015
 40
0.5000000000000017
 40
0.5000000000000017
 40
0.6250000000000017
 40
0.6250000000000017
 40
0.750000000000001
 40
0.750000000000001
 40
0.8750000000000003
 40
0.8750000000000003
 40
0.9375000000000001
 40
0.9375000000000001
 40
1.0
 40
1.0
 40
1.0
 40
1.0
 10
5119.291342124249
 20
2482.700297931761
 30
0.0
 10
5119.291498386342
 20
2482.701353514757
 30
0.0
 10
5119.291648954304
 20
2482.702547818849
 30
0.0
 10
5119.291937839985
 20
2482.705201647824
 30
0.0
 10
5119.292076227517
 20
2482.706661444926
 30
0.0
 10
5119.292341172187
 20
2482.709840654969
 30
0.0
 10
5119.292467723692
 20
2482.711560191478
 30
0.0
 10
5119.292648965419
 20
2482.714327904166
 30
0.0
 10
5119.292707952094
 20
2482.715281795419
 30
0.0
 10
5119.292823127569
 20
2482.717250976873
 30
0.0
 10
5119.292879347348
 20
2482.718266897466
 30
0.0
 10
5119.293043630563
 20
2482.721399792064
 30
0.0
 10
5119.293147299269
 20
2482.723600924128
 30
0.0
 10
5119.293343606722
 20
2482.728215245542
 30
0.0
 10
5119.293436280882
 20
2482.730627754058
 30
0.0
 10
5119.293610779472
 20
2482.735661363373
 30
0.0
 10
5119.293692600242
 20
2482.738282534516
 30
0.0
 10
5119.293806211556
 20
2482.7423896254
 30
0.0
 10
5119.293842578477
 20
2482.743787561676
 30
0.0
 10
5119.293912345863
 20
2482.746640466042
 30
0.0
 10
5119.293945742787
 20
2482.748095341257
 30
0.0
 10
5119.293977605846
 20
2482.749575715375
 30
0.0
  0
SPLINE
  5
17CD
330
1F
100
AcDbEntity
  8
SANINDUSA
100
AcDbSpline
210
0.0
220
0.0
230
1.0
 70
     8
 71
     3
 72
    30
 73
    26
 74
     0
 42
0.0000000001
 43
0.0000000001
 40
0.0
 40
0.0
 40
0.0
 40
0.0
 40
0.1249999999999995
 40
0.1249999999999995
 40
0.1874999999999997
 40
0.1874999999999997
 40
0.25
 40
0.25
 40
0.3750000000000003
 40
0.3750000000000003
 40
0.4375000000000031
 40
0.4375000000000031
 40
0.5000000000000058
 40
0.5000000000000058
 40
0.6250000000000053
 40
0.6250000000000053
 40
0.6875000000000023
 40
0.6875000000000023
 40
0.7499999999999993
 40
0.7499999999999993
 40
0.8749999999999996
 40
0.8749999999999996
 40
0.9374999999999998
 40
0.9374999999999998
 40
1.0
 40
1.0
 40
1.0
 40
1.0
 10
5119.276729543886
 20
2482.714486127147
 30
0.0
 10
5119.277675145118
 20
2482.714486127147
 30
0.0
 10
5119.278604911381
 20
2482.714397450236
 30
0.0
 10
5119.279976489146
 20
2482.714135586079
 30
0.0
 10
5119.280429811745
 20
2482.714026680101
 30
0.0
 10
5119.281328531208
 20
2482.713764589414
 30
0.0
 10
5119.281776355215
 20
2482.713610351231
 30
0.0
 10
5119.283085482364
 20
2482.713087002283
 30
0.0
 10
5119.283913122622
 20
2482.712659075058
 30
0.0
 10
5119.285088065769
 20
2482.711900351111
 30
0.0
 10
5119.285468555061
 20
2482.711627841924
 30
0.0
 10
5119.286206502402
 20
2482.711042280631
 30
0.0
 10
5119.286562715553
 20
2482.710729834701
 30
0.0
 10
5119.287573347326
 20
2482.709752112219
 30
0.0
 10
5119.288178280073
 20
2482.709040690744
 30
0.0
 10
5119.288982606154
 20
2482.707883863227
 30
0.0
 10
5119.289234569293
 20
2482.707481078602
 30
0.0
 10
5119.289696694703
 20
2482.7066548623
 30
0.0
 10
5119.289906170139
 20
2482.70623321933
 30
0.0
 10
5119.29047194194
 20
2482.70494346124
 30
0.0
 10
5119.290766113364
 20
2482.704050724054
 30
0.0
 10
5119.291081272997
 20
2482.702661463159
 30
0.0
 10
5119.291164694407
 20
2482.702191177873
 30
0.0
 10
5119.29128652563
 20
2482.701248630821
 30
0.0
 10
5119.291325357022
 20
2482.700774639591
 30
0.0
 10
5119.291342124249
 20
2482.700297931761
 30
0.0
  0
SPLINE
  5
17CF
330
1F
100
AcDbEntity
  8
SANINDUSA
100
AcDbSpline
210
0.0
220
0.0
230
1.0
 70
    24
 71
     3
 72
     8
 73
     4
 74
     0
 42
0.0000000001
 43
0.0000000001
 40
0.0
 40
0.0
 40
0.0
 40
0.0
 40
0.1247637832260858
 40
0.1247637832260858
 40
0.1247637832260858
 40
0.1247637832260858
 10
5119.246451275521
 20
2482.714486127147
 30
0.0
 10
5119.256987510008
 20
2482.714486127147
 30
0.0
 10
5119.267484862493
 20
2482.714486127147
 30
0.0
 10
5119.276729543886
 20
2482.714486127147
 30
0.0
  0
SPLINE
  5
17D1
330
1F
100
AcDbEntity
  8
SANINDUSA
100
AcDbSpline
210
0.0
220
0.0
230
1.0
 70
    24
 71
     3
 72
     8
 73
     4
 74
     0
 42
0.0000000001
 43
0.0000000001
 40
0.0
 40
0.0
 40
0.0
 40
0.0
 40
0.1247637832260858
 40
0.1247637832260858
 40
0.1247637832260858
 40
0.1247637832260858
 10
5119.246451275521
 20
2482.714486127147
 30
0.0
 10
5119.235915041033
 20
2482.714486127147
 30
0.0
 10
5119.225417688546
 20
2482.714486127147
 30
0.0
 10
5119.216173007155
 20
2482.714486127147
 30
0.0
  0
SPLINE
  5
17D2
330
1F
100
AcDbEntity
  8
SANINDUSA
100
AcDbSpline
210
0.0
220
0.0
230
1.0
 70
    24
 71
     3
 72
    14
 73
    10
 74
     0
 42
0.0000000001
 43
0.0000000001
 40
0.0
 40
0.0
 40
0.0
 40
0.0
 40
0.5000000000000001
 40
0.5000000000000001
 40
0.6249999999999966
 40
0.6249999999999966
 40
0.749999999999993
 40
0.749999999999993
 40
1.0
 40
1.0
 40
1.0
 40
1.0
 10
5119.198924945194
 20
2482.749575715375
 30
0.0
 10
5119.198864381225
 20
2482.747648416534
 30
0.0
 10
5119.198801180144
 20
2482.745719281336
 30
0.0
 10
5119.198718609602
 20
2482.743305376924
 30
0.0
 10
5119.198701916557
 20
2482.742822471439
 30
0.0
 10
5119.198668163795
 20
2482.741856405136
 30
0.0
 10
5119.198651138841
 20
2482.741373268526
 30
0.0
 10
5119.198600051088
 20
2482.739923849718
 30
0.0
 10
5119.198565707929
 20
2482.738957372291
 30
0.0
 10
5119.198530973066
 20
2482.7379906221
 30
0.0
  0
SPLINE
  5
17ED
330
1F
100
AcDbEntity
  8
SANINDUSA
100
AcDbSpline
210
0.0
220
0.0
230
1.0
 70
    24
 71
     3
 72
     9
 73
     5
 74
     0
 42
0.0000000001
 43
0.0000000001
 40
0.0
 40
0.0
 40
0.0
 40
0.0
 40
0.4854262696724079
 40
1.0
 40
1.0
 40
1.0
 40
1.0
 10
5119.293987418338
 20
2482.749276504911
 30
0.0
 10
5119.294046156119
 20
2482.747452741791
 30
0.0
 10
5119.294167158598
 20
2482.743695707543
 30
0.0
 10
5119.294302126855
 20
2482.739928914729
 30
0.0
 10
5119.294371577974
 20
2482.7379906221
 30
0.0
  0
LINE
  5
17FB
330
1F
100
AcDbEntity
  8
SANINDUSA
100
AcDbLine
 10
5120.886100692024
 20
2482.842998393897
 30
0.0
 11
5121.008059664911
 21
2482.842998393897
 31
0.0
  0
LINE
  5
17FC
330
1F
100
AcDbEntity
  8
SANINDUSA
100
AcDbLine
 10
5120.886100692024
 20
2482.85299839181
 30
0.0
 11
5120.886100692024
 21
2482.842998393897
 31
0.0
  0
LINE
  5
17FD
330
1F
100
AcDbEntity
  8
SANINDUSA
100
AcDbLine
 10
5120.916100691354
 20
2482.85299839181
 30
0.0
 11
5120.886100692024
 21
2482.85299839181
 31
0.0
  0
LINE
  5
17FE
330
1F
100
AcDbEntity
  8
SANINDUSA
100
AcDbLine
 10
5120.916100691354
 20
2482.85299839181
 30
0.0
 11
5120.916100691354
 21
2482.862998389724
 31
0.0
  0
LINE
  5
17FF
330
1F
100
AcDbEntity
  8
SANINDUSA
100
AcDbLine
 10
5120.916100691354
 20
2482.862998389724
 30
0.0
 11
5120.926100692993
 21
2482.862998389724
 31
0.0
  0
LINE
  5
1800
330
1F
100
AcDbEntity
  8
SANINDUSA
100
AcDbLine
 10
5120.926100692993
 20
2482.85299839181
 30
0.0
 11
5120.926100692993
 21
2482.862998389724
 31
0.0
  0
LINE
  5
1801
330
1F
100
AcDbEntity
  8
SANINDUSA
100
AcDbLine
 10
5121.005854978507
 20
2482.85299839181
 30
0.0
 11
5120.926100692993
 21
2482.85299839181
 31
0.0
  0
SPLINE
  5
1802
330
1F
100
AcDbEntity
  8
SANINDUSA
100
AcDbSpline
210
0.0
220
0.0
230
1.0
 70
     8
 71
     3
 72
    17
 73
    13
 74
     0
 42
0.0000000001
 43
0.0000000001
 40
0.0
 40
0.0
 40
0.0
 40
0.0
 40
0.2500000000000023
 40
0.3125000000000026
 40
0.3281250000000033
 40
0.3281250000000033
 40
0.343750000000004
 40
0.343750000000004
 40
0.3750000000000043
 40
0.5000000000000041
 40
0.5000000000000041
 40
1.0
 40
1.0
 40
1.0
 40
1.0
 10
5121.00213394821
 20
2482.886706528611
 30
0.0
 10
5121.002325668486
 20
2482.883964800918
 30
0.0
 10
5121.002565318832
 20
2482.880537641303
 30
0.0
 10
5121.002816951695
 20
2482.876939123707
 30
0.0
 10
5121.002876864282
 20
2482.876082333803
 30
0.0
 10
5121.002900829317
 20
2482.875739617841
 30
0.0
 10
5121.002912473891
 20
2482.875572112135
 30
0.0
 10
5121.002950496208
 20
2482.875032420452
 30
0.0
 10
5121.003082342384
 20
2482.873234344889
 30
0.0
 10
5121.003239666013
 20
2482.871440850468
 30
0.0
 10
5121.00394987001
 20
2482.864282776808
 30
0.0
 10
5121.004776947489
 20
2482.858607224987
 30
0.0
 10
5121.005854984182
 20
2482.85299839032
 30
0.0
  0
SPLINE
  5
1803
330
1F
100
AcDbEntity
  8
SANINDUSA
100
AcDbSpline
210
0.0
220
0.0
230
1.0
 70
    24
 71
     3
 72
     8
 73
     4
 74
     0
 42
0.0000000001
 43
0.0000000001
 40
0.0
 40
0.0
 40
0.0
 40
0.0
 40
1.0
 40
1.0
 40
1.0
 40
1.0
 10
5121.001436277214
 20
2482.896683688683
 30
0.0
 10
5121.001668834212
 20
2482.893357968659
 30
0.0
 10
5121.001901391211
 20
2482.890032248635
 30
0.0
 10
5121.00213394821
 20
2482.886706528611
 30
0.0
  0
LINE
  5
1804
330
1F
100
AcDbEntity
  8
SANINDUSA
100
AcDbLine
 10
5121.001436277573
 20
2482.896683690223
 30
0.0
 11
5121.034542008584
 21
2482.899580062452
 31
0.0
  0
LINE
  5
1805
330
1F
100
AcDbEntity
  8
SANINDUSA
100
AcDbLine
 10
5121.033435031121
 20
2482.912232789296
 30
0.0
 11
5121.034542008584
 21
2482.899580062452
 31
0.0
  0
ARC
  5
1806
330
1F
100
AcDbEntity
  8
SANINDUSA
100
AcDbCircle
 10
5121.013610757475
 20
2482.91049839032
 30
0.0
 40
0.0199000000000002
100
AcDbArc
 50
4.999999996291116
 51
90.0
  0
LINE
  5
1807
330
1F
100
AcDbEntity
  8
SANINDUSA
100
AcDbLine
 10
5120.916100691354
 20
2482.930398390714
 30
0.0
 11
5121.013610764688
 21
2482.930398390714
 31
0.0
  0
LINE
  5
1808
330
1F
100
AcDbEntity
  8
SANINDUSA
100
AcDbLine
 10
5120.916100691354
 20
2482.930398390714
 30
0.0
 11
5120.916100691354
 21
2482.917998389426
 31
0.0
  0
LINE
  5
1809
330
1F
100
AcDbEntity
  8
SANINDUSA
100
AcDbLine
 10
5120.916100691354
 20
2482.917998389426
 30
0.0
 11
5120.926100692993
 21
2482.917998389426
 31
0.0
  0
LINE
  5
180A
330
1F
100
AcDbEntity
  8
SANINDUSA
100
AcDbLine
 10
5120.926100692993
 20
2482.897998389873
 30
0.0
 11
5120.926100692993
 21
2482.917998389426
 31
0.0
  0
LINE
  5
180B
330
1F
100
AcDbEntity
  8
SANINDUSA
100
AcDbLine
 10
5120.926100692993
 20
2482.897998389873
 30
0.0
 11
5120.916100691354
 21
2482.897998389873
 31
0.0
  0
LINE
  5
180C
330
1F
100
AcDbEntity
  8
SANINDUSA
100
AcDbLine
 10
5120.916100691354
 20
2482.897998389873
 30
0.0
 11
5120.916100691354
 21
2482.907998391512
 31
0.0
  0
LINE
  5
180D
330
1F
100
AcDbEntity
  8
SANINDUSA
100
AcDbLine
 10
5120.886100692024
 20
2482.907998391512
 30
0.0
 11
5120.916100691354
 21
2482.907998391512
 31
0.0
  0
LINE
  5
180E
330
1F
100
AcDbEntity
  8
SANINDUSA
100
AcDbLine
 10
5120.886100692024
 20
2482.930398390714
 30
0.0
 11
5120.886100692024
 21
2482.907998391512
 31
0.0
  0
LINE
  5
180F
330
1F
100
AcDbEntity
  8
SANINDUSA
100
AcDbLine
 10
5120.868100692799
 20
2482.930398390714
 30
0.0
 11
5120.886100692024
 21
2482.930398390714
 31
0.0
  0
LINE
  5
1810
330
1F
100
AcDbEntity
  8
SANINDUSA
100
AcDbLine
 10
5120.868100692799
 20
2482.930398390714
 30
0.0
 11
5120.868100692799
 21
2482.932115904141
 31
0.0
  0
LINE
  5
1811
330
1F
100
AcDbEntity
  8
SANINDUSA
100
AcDbLine
 10
5120.856100692694
 20
2482.94049839032
 30
0.0
 11
5120.856100692694
 21
2482.932115904141
 31
0.0
  0
LINE
  5
1812
330
1F
100
AcDbEntity
  8
SANINDUSA
100
AcDbLine
 10
5120.856100692694
 20
2482.94049839032
 30
0.0
 11
5121.013610764688
 21
2482.94049839032
 31
0.0
  0
ARC
  5
1813
330
1F
100
AcDbEntity
  8
SANINDUSA
100
AcDbCircle
 10
5121.013610757475
 20
2482.91049839032
 30
0.0
 40
0.03
100
AcDbArc
 50
4.999999996291116
 51
90.0
  0
LINE
  5
1814
330
1F
100
AcDbEntity
  8
SANINDUSA
100
AcDbLine
 10
5121.043496593182
 20
2482.913113062355
 30
0.0
 11
5121.045475124663
 21
2482.890498389575
 31
0.0
  0
LINE
  5
1815
330
1F
100
AcDbEntity
  8
SANINDUSA
100
AcDbLine
 10
5121.018136426156
 20
2482.888106563214
 30
0.0
 11
5121.045475124663
 21
2482.890498389575
 31
0.0
  0
LINE
  5
1816
330
1F
100
AcDbEntity
  8
SANINDUSA
100
AcDbLine
 10
5121.018136426156
 20
2482.888106563214
 30
0.0
 11
5121.017349063699
 21
2482.842998393897
 31
0.0
  0
LINE
  5
1817
330
1F
100
AcDbEntity
  8
SANINDUSA
100
AcDbLine
 10
5120.856100692694
 20
2482.932115904141
 30
0.0
 11
5120.868100692799
 21
2482.932115904141
 31
0.0
  0
ARC
  5
1818
330
1F
100
AcDbEntity
  8
SANINDUSA
100
AcDbCircle
 10
5121.358590627916
 20
2482.91049839032
 30
0.0
 40
0.0300000000000002
100
AcDbArc
 50
90.0
 51
175.0000000037089
  0
LINE
  5
1819
330
1F
100
AcDbEntity
  8
SANINDUSA
100
AcDbLine
 10
5121.358590617126
 20
2482.94049839032
 30
0.0
 11
5121.377305819934
 21
2482.94049839032
 31
0.0
  0
ARC
  5
181A
330
1F
100
AcDbEntity
  8
SANINDUSA
100
AcDbCircle
 10
5121.377305805019
 20
2482.93249839032
 30
0.0
 40
0.0080000000000001
100
AcDbArc
 50
357.2596005037689
 51
90.0
  0
LINE
  5
181B
330
1F
100
AcDbEntity
  8
SANINDUSA
100
AcDbLine
 10
5121.326726272052
 20
2482.890498389575
 30
0.0
 11
5121.328704788631
 21
2482.913113062355
 31
0.0
  0
ARC
  5
181C
330
1F
100
AcDbEntity
  8
SANINDUSA
100
AcDbCircle
 10
5121.358590627916
 20
2482.91049839032
 30
0.0
 40
0.0199
100
AcDbArc
 50
90.0
 51
175.0000000037089
  0
LINE
  5
181D
330
1F
100
AcDbEntity
  8
SANINDUSA
100
AcDbLine
 10
5121.337659373229
 20
2482.899580062452
 30
0.0
 11
5121.338766350692
 21
2482.912232789296
 31
0.0
  0
LINE
  5
181E
330
1F
100
AcDbEntity
  8
SANINDUSA
100
AcDbLine
 10
5121.337659373229
 20
2482.899580062452
 30
0.0
 11
5121.359730019515
 21
2482.897649132732
 31
0.0
  0
LINE
  5
181F
330
1F
100
AcDbEntity
  8
SANINDUSA
100
AcDbLine
 10
5121.326726272052
 20
2482.890498389575
 30
0.0
 11
5121.368635072654
 21
2482.886831843379
 31
0.0
  0
LINE
  5
1820
330
1F
100
AcDbEntity
  8
SANINDUSA
100
AcDbLine
 10
5121.358590617126
 20
2482.930398390714
 30
0.0
 11
5121.363038434928
 21
2482.930398390714
 31
0.0
  0
LINE
  5
1821
330
1F
100
AcDbEntity
  8
SANINDUSA
100
AcDbLine
 10
5121.373250617927
 20
2482.932115904141
 30
0.0
 11
5121.385296657031
 21
2482.932115904141
 31
0.0
  0
LINE
  5
1825
330
1F
100
AcDbEntity
  8
SANINDUSA
100
AcDbLine
 10
5120.886100692024
 20
2482.85299839181
 30
0.0
 11
5120.886100692024
 21
2482.907998391512
 31
0.0
  0
LINE
  5
1826
330
1F
100
AcDbEntity
  8
SANINDUSA
100
AcDbLine
 10
5120.926100692993
 20
2482.897998389873
 30
0.0
 11
5120.926100692993
 21
2482.862998389724
 31
0.0
  0
LINE
  5
1827
330
1F
100
AcDbEntity
  8
SANINDUSA
100
AcDbLine
 10
5120.916100691354
 20
2482.897998389873
 30
0.0
 11
5120.916100691354
 21
2482.862998389724
 31
0.0
  0
LINE
  5
1832
330
1F
100
AcDbEntity
  8
SANINDUSA
100
AcDbLine
 10
5121.12110067839
 20
2482.94049839032
 30
0.0
 11
5121.013610764688
 21
2482.94049839032
 31
0.0
  0
LINE
  5
1837
330
1F
100
AcDbEntity
  8
SANINDUSA
100
AcDbLine
 10
5121.358590617126
 20
2482.94049839032
 30
0.0
 11
5121.296100690311
 21
2482.94049839032
 31
0.0
  0
LINE
  5
183A
330
1F
100
AcDbEntity
  8
SANINDUSA
100
AcDbLine
 10
5121.296100690311
 20
2482.94049839032
 30
0.0
 11
5121.12110067839
 21
2482.94049839032
 31
0.0
  0
LINE
  5
183E
330
1F
100
AcDbEntity
  8
SANINDUSA
100
AcDbLine
 10
5121.375183417743
 20
2482.932115904141
 30
0.0
 11
5121.374993934577
 21
2482.930398390714
 31
0.0
  0
SPLINE
  5
184F
330
1F
100
AcDbEntity
  8
SANINDUSA
100
AcDbSpline
210
0.0
220
0.0
230
1.0
 70
    24
 71
     3
 72
     8
 73
     4
 74
     0
 42
0.0000000001
 43
0.0000000001
 40
0.1084479444740199
 40
0.1084479444740199
 40
0.1084479444740199
 40
0.1084479444740199
 40
0.1325659948711537
 40
0.1325659948711537
 40
0.1325659948711537
 40
0.1325659948711537
 10
5121.380591822227
 20
2482.885785764229
 30
0.0
 10
5121.380948555298
 20
2482.889100363482
 30
0.0
 10
5121.381301166927
 20
2482.892415579785
 30
0.0
 10
5121.381649657244
 20
2482.895731414032
 30
0.0
  0
SPLINE
  5
1850
330
1F
100
AcDbEntity
  8
SANINDUSA
100
AcDbSpline
210
0.0
220
0.0
230
1.0
 70
     8
 71
     3
 72
     8
 73
     4
 74
     0
 42
0.0000000001
 43
0.0000000001
 40
0.1325659948813246
 40
0.1325659948813246
 40
0.1325659948813246
 40
0.1325659948813246
 40
1.0
 40
1.0
 40
1.0
 40
1.0
 10
5121.326100692694
 20
2482.53049839032
 30
0.0
 10
5121.349599817503
 20
2482.648157049734
 30
0.0
 10
5121.367761498362
 20
2482.766572309648
 30
0.0
 10
5121.380591822225
 20
2482.885785764225
 30
0.0
  0
SPLINE
  5
1877
330
1F
100
AcDbEntity
  8
SANINDUSA
100
AcDbSpline
210
0.0
220
0.0
230
1.0
 70
     8
 71
     3
 72
    18
 73
    14
 74
     0
 42
0.0000000001
 43
0.0000000001
 40
0.0
 40
0.0
 40
0.0
 40
0.0
 40
0.2500000000000004
 40
0.2500000000000004
 40
0.5000000000000009
 40
0.5000000000000009
 40
0.6250000000000016
 40
0.6250000000000016
 40
0.6875000000000015
 40
0.6875000000000015
 40
0.7500000000000014
 40
0.7500000000000014
 40
1.0
 40
1.0
 40
1.0
 40
1.0
 10
5121.008059659724
 20
2482.84299839032
 30
0.0
 10
5121.009697997529
 20
2482.836420610509
 30
0.0
 10
5121.011678462809
 20
2482.829974548208
 30
0.0
 10
5121.016308021811
 20
2482.817339842493
 30
0.0
 10
5121.018957119986
 20
2482.811151200793
 30
0.0
 10
5121.023438055145
 20
2482.802063541759
 30
0.0
 10
5121.025016429012
 20
2482.799066942286
 30
0.0
 10
5121.027513530282
 20
2482.794621915564
 30
0.0
 10
5121.028368188846
 20
2482.793147408759
 30
0.0
 10
5121.030118278124
 20
2482.790220243906
 30
0.0
 10
5121.031011126414
 20
2482.78877183053
 30
0.0
 10
5121.035563289498
 20
2482.781604674557
 30
0.0
 10
5121.039485588386
 20
2482.776109999422
 30
0.0
 10
5121.04368093071
 20
2482.770847962501
 30
0.0
  0
ARC
  5
18D1
330
1F
100
AcDbEntity
  8
SANINDUSA
100
AcDbCircle
 10
5121.039771414017
 20
2482.767730964067
 30
0.0
 40
0.0050000000000001
100
AcDbArc
 50
271.9999999777144
 51
38.56482487194366
  0
LINE
  5
18D2
330
1F
100
AcDbEntity
  8
SANINDUSA
100
AcDbLine
 10
5121.017349063699
 20
2482.842998393897
 30
0.0
 11
5121.008059664911
 21
2482.842998393897
 31
0.0
  0
SPLINE
  5
18D3
330
1F
100
AcDbEntity
  8
SANINDUSA
100
AcDbSpline
210
0.0
220
0.0
230
1.0
 70
     8
 71
     3
 72
     8
 73
     4
 74
     0
 42
0.0000000001
 43
0.0000000001
 40
0.0
 40
0.0
 40
0.0
 40
0.0
 40
1.0
 40
1.0
 40
1.0
 40
1.0
 10
5121.068887813823
 20
2482.756854219839
 30
0.0
 10
5121.0696009434
 20
2482.756191183645
 30
0.0
 10
5121.070280198302
 20
2482.755495092533
 30
0.0
 10
5121.070925564778
 20
2482.754765933083
 30
0.0
  0
LINE
  5
18D4
330
1F
100
AcDbEntity
  8
SANINDUSA
100
AcDbLine
 10
5121.14437417621
 20
2482.60550228608
 30
0.0
 11
5121.134185358232
 21
2482.60550228608
 31
0.0
  0
ARC
  5
18D5
330
1F
100
AcDbEntity
  8
SANINDUSA
100
AcDbCircle
 10
5120.835023798388
 20
2482.54611075976
 30
0.0
 40
0.3050000000000001
100
AcDbArc
 50
11.22873447119433
 51
42.81149726314583
  0
LINE
  5
18D6
330
1F
100
AcDbEntity
  8
SANINDUSA
100
AcDbLine
 10
5120.976100690012
 20
2482.750498392704
 30
0.0
 11
5121.05876982147
 21
2482.753385254267
 31
0.0
  0
LINE
  5
18D7
330
1F
100
AcDbEntity
  8
SANINDUSA
100
AcDbLine
 10
5120.975751697367
 20
2482.760492303494
 30
0.0
 11
5120.976100690012
 21
2482.750498392704
 31
0.0
  0
LINE
  5
18D8
330
1F
100
AcDbEntity
  8
SANINDUSA
100
AcDbLine
 10
5120.975751697367
 20
2482.760492303494
 30
0.0
 11
5121.039945914692
 21
2482.762734004382
 31
0.0
  0
LINE
  5
18D9
330
1F
100
AcDbEntity
  8
SANINDUSA
100
AcDbLine
 10
5121.289022459929
 20
2482.743192055348
 30
0.0
 11
5121.252577587312
 21
2482.743192055348
 31
0.0
  0
ARC
  5
18DA
330
1F
100
AcDbEntity
  8
SANINDUSA
100
AcDbCircle
 10
5121.289022473781
 20
2482.733192059896
 30
0.0
 40
0.01
100
AcDbArc
 50
2.000000003753602
 51
90.0
  0
LINE
  5
18DB
330
1F
100
AcDbEntity
  8
SANINDUSA
100
AcDbLine
 10
5121.299016370719
 20
2482.73354105008
 30
0.0
 11
5121.305757566636
 21
2482.54049838436
 31
0.0
  0
LINE
  5
18DC
330
1F
100
AcDbEntity
  8
SANINDUSA
100
AcDbLine
 10
5121.305757566636
 20
2482.54049838436
 30
0.0
 11
5121.317789926475
 21
2482.54049838436
 31
0.0
  0
SPLINE
  5
18DD
330
1F
100
AcDbEntity
  8
SANINDUSA
100
AcDbSpline
210
0.0
220
0.0
230
1.0
 70
     8
 71
     3
 72
     8
 73
     4
 74
     0
 42
0.0000000001
 43
0.0000000001
 40
0.0
 40
0.0
 40
0.0
 40
0.0
 40
1.0
 40
1.0
 40
1.0
 40
1.0
 10
5121.317789927203
 20
2482.54049839032
 30
0.0
 10
5121.337728984975
 20
2482.641405495741
 30
0.0
 10
5121.353741892303
 20
2482.742910726258
 30
0.0
 10
5121.365822092506
 20
2482.845015080741
 30
0.0
  0
SPLINE
  5
18DE
330
1F
100
AcDbEntity
  8
SANINDUSA
100
AcDbSpline
210
0.0
220
0.0
230
1.0
 70
     8
 71
     3
 72
    18
 73
    14
 74
     0
 42
0.0000000001
 43
0.0000000001
 40
0.0
 40
0.0
 40
0.0
 40
0.0
 40
0.0861500313138116
 40
0.1723781135906449
 40
0.260525165985198
 40
0.3493896594661294
 40
0.4375570981291227
 40
0.5464442381844782
 40
0.6547680581294384
 40
0.7627734220344539
 40
0.8417796934454264
 40
0.920825581265165
 40
1.0
 40
1.0
 40
1.0
 40
1.0
 10
5121.266377284473
 20
2482.764535629276
 30
0.0
 10
5121.269924369468
 20
2482.765839389687
 30
0.0
 10
5121.27702175308
 20
2482.768448091701
 30
0.0
 10
5121.287601247285
 20
2482.772769414176
 30
0.0
 10
5121.298186420734
 20
2482.77739804639
 30
0.0
 10
5121.308420989692
 20
2482.782955984707
 30
0.0
 10
5121.318962155818
 20
2482.789770541266
 30
0.0
 10
5121.329548533998
 20
2482.798013138815
 30
0.0
 10
5121.339927235839
 20
2482.807829307649
 30
0.0
 10
5121.348464760524
 20
2482.817600939887
 30
0.0
 10
5121.355384525262
 20
2482.827006348292
 30
0.0
 10
5121.361002385075
 20
2482.835780211
 30
0.0
 10
5121.364214652558
 20
2482.841935123544
 30
0.0
 10
5121.365822091048
 20
2482.8450150798
 30
0.0
  0
SPLINE
  5
18DF
330
1F
100
AcDbEntity
  8
SANINDUSA
100
AcDbSpline
210
0.0
220
0.0
230
1.0
 70
     8
 71
     3
 72
    14
 73
    10
 74
     0
 42
0.0000000001
 43
0.0000000001
 40
0.0
 40
0.0
 40
0.0
 40
0.0
 40
0.25
 40
0.25
 40
0.5
 40
0.5
 40
0.75
 40
0.75
 40
1.0
 40
1.0
 40
1.0
 40
1.0
 10
5121.26637729693
 20
2482.764535630665
 30
0.0
 10
5121.264754841192
 20
2482.763953859091
 30
0.0
 10
5121.26314826382
 20
2482.763137087156
 30
0.0
 10
5121.260163286081
 20
2482.761046814169
 30
0.0
 10
5121.258787426852
 20
2482.759773484816
 30
0.0
 10
5121.25644274592
 20
2482.756892131073
 30
0.0
 10
5121.25547562358
 20
2482.75528619501
 30
0.0
 10
5121.254035647126
 20
2482.751938688315
 30
0.0
 10
5121.253562444664
 20
2482.750199640679
 30
0.0
 10
5121.253322564945
 20
2482.748492807792
 30
0.0
  0
LINE
  5
18E0
330
1F
100
AcDbEntity
  8
SANINDUSA
100
AcDbLine
 10
5121.253322555965
 20
2482.748492800716
 30
0.0
 11
5121.252577587312
 21
2482.743192055348
 31
0.0
  0
SPLINE
  5
18E1
330
1F
100
AcDbEntity
  8
SANINDUSA
100
AcDbSpline
210
0.0
220
0.0
230
1.0
 70
     8
 71
     3
 72
     8
 73
     4
 74
     0
 42
0.0000000001
 43
0.0000000001
 40
0.0
 40
0.0
 40
0.0
 40
0.0
 40
1.0
 40
1.0
 40
1.0
 40
1.0
 10
5121.370184804257
 20
2482.886696260321
 30
0.0
 10
5121.370769662966
 20
2482.889982675449
 30
0.0
 10
5121.371237508072
 20
2482.893292069855
 30
0.0
 10
5121.374993934577
 20
2482.930398390714
 30
0.0
  0
LINE
  5
18E4
330
1F
100
AcDbEntity
  8
SANINDUSA
100
AcDbLine
 10
5121.375183417743
 20
2482.932115904141
 30
0.0
 11
5121.385296657031
 21
2482.932115904141
 31
0.0
  0
LINE
  5
18E6
330
1F
100
AcDbEntity
  8
SANINDUSA
100
AcDbLine
 10
5121.326100691502
 20
2482.530498393896
 30
0.0
 11
5121.296100690311
 21
2482.530498393896
 31
0.0
  0
LINE
  5
18E7
330
1F
100
AcDbEntity
  8
SANINDUSA
100
AcDbLine
 10
5121.289022459929
 20
2482.733192064884
 30
0.0
 11
5121.296100690311
 21
2482.530498393896
 31
0.0
  0
LINE
  5
18E8
330
1F
100
AcDbEntity
  8
SANINDUSA
100
AcDbLine
 10
5121.289022459929
 20
2482.733192064884
 30
0.0
 11
5121.251172199195
 21
2482.733192064884
 31
0.0
  0
LINE
  5
18E9
330
1F
100
AcDbEntity
  8
SANINDUSA
100
AcDbLine
 10
5121.251172199195
 20
2482.733192064884
 30
0.0
 11
5121.234276845401
 21
2482.612975456837
 31
0.0
  0
ARC
  5
18EA
330
1F
100
AcDbEntity
  8
SANINDUSA
100
AcDbCircle
 10
5121.145152716791
 20
2482.625501033453
 30
0.0
 40
0.09
100
AcDbArc
 50
269.680498257202
 51
351.9999999871818
  0
LINE
  5
18EB
330
1F
100
AcDbEntity
  8
SANINDUSA
100
AcDbLine
 10
5121.144403966357
 20
2482.535503926687
 30
0.0
 11
5121.144650847194
 21
2482.535502432759
 31
0.0
  0
ARC
  5
18EC
330
1F
100
AcDbEntity
  8
SANINDUSA
100
AcDbCircle
 10
5121.144991294705
 20
2482.625502010253
 30
0.0
 40
0.09
100
AcDbArc
 50
189.9999999966986
 51
269.6260924824512
  0
LINE
  5
18ED
330
1F
100
AcDbEntity
  8
SANINDUSA
100
AcDbLine
 10
5121.056358590072
 20
2482.609873660925
 30
0.0
 11
5121.049281298464
 21
2482.650011071089
 31
0.0
  0
ARC
  5
18EE
330
1F
100
AcDbEntity
  8
SANINDUSA
100
AcDbCircle
 10
5121.039433215224
 20
2482.648274579014
 30
0.0
 40
0.0099999999999999
100
AcDbArc
 50
9.999999996698591
 51
88.00000002228562
  0
LINE
  5
18EF
330
1F
100
AcDbEntity
  8
SANINDUSA
100
AcDbLine
 10
5121.039782210534
 20
2482.65826848996
 30
0.0
 11
5120.975751697367
 21
2482.660504468802
 31
0.0
  0
LINE
  5
18F0
330
1F
100
AcDbEntity
  8
SANINDUSA
100
AcDbLine
 10
5120.976100690012
 20
2482.670498379591
 30
0.0
 11
5120.975751697367
 21
2482.660504468802
 31
0.0
  0
LINE
  5
18F1
330
1F
100
AcDbEntity
  8
SANINDUSA
100
AcDbLine
 10
5121.04013121063
 20
2482.66826240075
 30
0.0
 11
5120.976100690012
 21
2482.670498379591
 31
0.0
  0
ARC
  5
18F2
330
1F
100
AcDbEntity
  8
SANINDUSA
100
AcDbCircle
 10
5121.039433215224
 20
2482.648274579014
 30
0.0
 40
0.02
100
AcDbArc
 50
9.999999996698591
 51
88.00000002228562
  0
LINE
  5
18F3
330
1F
100
AcDbEntity
  8
SANINDUSA
100
AcDbLine
 10
5121.066206678097
 20
2482.611610152844
 30
0.0
 11
5121.059129371588
 21
2482.651747533206
 31
0.0
  0
ARC
  5
18F4
330
1F
100
AcDbEntity
  8
SANINDUSA
100
AcDbCircle
 10
5121.144991294705
 20
2482.625502010253
 30
0.0
 40
0.0800000000000001
100
AcDbArc
 50
189.9999999966986
 51
269.6260924824512
  0
LINE
  5
18F5
330
1F
100
AcDbEntity
  8
SANINDUSA
100
AcDbLine
 10
5121.144469225062
 20
2482.54550371375
 30
0.0
 11
5121.144706610483
 21
2482.545502277281
 31
0.0
  0
ARC
  5
18F6
330
1F
100
AcDbEntity
  8
SANINDUSA
100
AcDbCircle
 10
5121.145152716791
 20
2482.625501033453
 30
0.0
 40
0.0800000000000001
100
AcDbArc
 50
269.680498257202
 51
351.9999999871818
  0
LINE
  5
18F7
330
1F
100
AcDbEntity
  8
SANINDUSA
100
AcDbLine
 10
5121.243262722438
 20
2482.748766177419
 30
0.0
 11
5121.22437415952
 21
2482.61436719549
 31
0.0
  0
ARC
  5
18F8
330
1F
100
AcDbEntity
  8
SANINDUSA
100
AcDbCircle
 10
5121.272970750701
 20
2482.744590983129
 30
0.0
 40
0.0300000000000003
100
AcDbArc
 50
109.6565356429129
 51
171.9999999871817
  0
LINE
  5
1903
330
1F
100
AcDbEntity
  8
SANINDUSA
100
AcDbLine
 10
5120.975751697367
 20
2482.760492303494
 30
0.0
 11
5120.975751697367
 21
2482.660504468802
 31
0.0
  0
LINE
  5
190E
330
1F
100
AcDbEntity
  8
SANINDUSA
100
AcDbLine
 10
5120.887374825126
 20
2482.545498379591
 30
0.0
 11
5120.871100692359
 21
2482.545498379591
 31
0.0
  0
LINE
  5
190F
330
1F
100
AcDbEntity
  8
SANINDUSA
100
AcDbLine
 10
5120.861100692582
 20
2482.535498389128
 30
0.0
 11
5120.861100692582
 21
2482.581380018118
 31
0.0
  0
SPLINE
  5
1910
330
1F
100
AcDbEntity
  8
SANINDUSA
100
AcDbSpline
210
0.0
220
0.0
230
1.0
 70
    24
 71
     3
 72
     8
 73
     4
 74
     0
 42
0.0000000001
 43
0.0000000001
 40
0.054476771299217
 40
0.054476771299217
 40
0.054476771299217
 40
0.054476771299217
 40
0.4405802703079111
 40
0.4405802703079111
 40
0.4405802703079111
 40
0.4405802703079111
 10
5120.896538136013
 20
2482.53549839032
 30
0.0
 10
5120.884725654907
 20
2482.53549839032
 30
0.0
 10
5120.872913173801
 20
2482.53549839032
 30
0.0
 10
5120.861100692695
 20
2482.53549839032
 30
0.0
  0
LINE
  5
1911
330
1F
100
AcDbEntity
  8
SANINDUSA
100
AcDbLine
 10
5120.890072617029
 20
2482.576334276322
 30
0.0
 11
5120.871100692359
 21
2482.572989025238
 31
0.0
  0
LINE
  5
1912
330
1F
100
AcDbEntity
  8
SANINDUSA
100
AcDbLine
 10
5120.887374825126
 20
2482.545498379591
 30
0.0
 11
5120.890072617029
 21
2482.576334276322
 31
0.0
  0
LINE
  5
1913
330
1F
100
AcDbEntity
  8
SANINDUSA
100
AcDbLine
 10
5120.871100692359
 20
2482.545498379591
 30
0.0
 11
5120.871100692359
 21
2482.572989025238
 31
0.0
  0
LINE
  5
1914
330
1F
100
AcDbEntity
  8
SANINDUSA
100
AcDbLine
 10
5120.896538137739
 20
2482.535498389128
 30
0.0
 11
5120.90117039839
 21
2482.588445403698
 31
0.0
  0
LINE
  5
1915
330
1F
100
AcDbEntity
  8
SANINDUSA
100
AcDbLine
 10
5120.90117039839
 20
2482.588445403698
 30
0.0
 11
5120.861100692582
 21
2482.581380018118
 31
0.0
  0
SPLINE
  5
1918
330
1F
100
AcDbEntity
  8
SANINDUSA
100
AcDbSpline
210
0.0
220
0.0
230
1.0
 70
     8
 71
     3
 72
    38
 73
    34
 74
     0
 42
0.0000000001
 43
0.0000000001
 40
0.0
 40
0.0
 40
0.0
 40
0.0
 40
0.1250000000000001
 40
0.1250000000000001
 40
0.1875000000000002
 40
0.1875000000000002
 40
0.2187500000000003
 40
0.2187500000000003
 40
0.2500000000000005
 40
0.2500000000000005
 40
0.3750000000000007
 40
0.3750000000000007
 40
0.4062500000000008
 40
0.4062500000000008
 40
0.437500000000001
 40
0.437500000000001
 40
0.5000000000000015
 40
0.5000000000000015
 40
0.625000000000002
 40
0.625000000000002
 40
0.656250000000002
 40
0.656250000000002
 40
0.6875000000000022
 40
0.6875000000000022
 40
0.750000000000002
 40
0.750000000000002
 40
0.8125000000000019
 40
0.8125000000000019
 40
0.8437500000000019
 40
0.8437500000000019
 40
0.8750000000000017
 40
0.8750000000000017
 40
1.0
 40
1.0
 40
1.0
 40
1.0
 10
5120.89641868772
 20
2482.534133090073
 30
0.0
 10
5120.896404497949
 20
2482.533970900256
 30
0.0
 10
5120.896725938047
 20
2482.533796652352
 30
0.0
 10
5120.897692490842
 20
2482.533518596644
 30
0.0
 10
5120.898096026166
 20
2482.533423132328
 30
0.0
 10
5120.898826571073
 20
2482.533275970757
 30
0.0
 10
5120.899091789436
 20
2482.533226120449
 30
0.0
 10
5120.899661012289
 20
2482.533125843202
 30
0.0
 10
5120.899964430478
 20
2482.533075499735
 30
0.0
 10
5120.901573788525
 20
2482.532822976077
 30
0.0
 10
5120.903153779659
 20
2482.53261830999
 30
0.0
 10
5120.905494521351
 20
2482.532363228968
 30
0.0
 10
5120.905981129186
 20
2482.532312254973
 30
0.0
 10
5120.906991976225
 20
2482.532210514956
 30
0.0
 10
5120.907517471106
 20
2482.532159640337
 30
0.0
 10
5120.909133847417
 20
2482.532009166836
 30
0.0
 10
5120.910268622751
 20
2482.531911264504
 30
0.0
 10
5120.913840010331
 20
2482.531626151781
 30
0.0
 10
5120.916441993625
 20
2482.531447416687
 30
0.0
 10
5120.91998134732
 20
2482.531244108399
 30
0.0
 10
5120.920702192627
 20
2482.531204560022
 30
0.0
 10
5120.922156584782
 20
2482.531128501135
 30
0.0
 10
5120.922891964469
 20
2482.531091883743
 30
0.0
 10
5120.925122270919
 20
2482.530986382111
 30
0.0
 10
5120.926641306186
 20
2482.530921841308
 30
0.0
 10
5120.929743137203
 20
2482.530805120981
 30
0.0
 10
5120.931325931167
 20
2482.530752939866
 30
0.0
 10
5120.933748952596
 20
2482.530684703103
 30
0.0
 10
5120.934565789553
 20
2482.530663608657
 30
0.0
 10
5120.936211766405
 20
2482.530625026206
 30
0.0
 10
5120.937036779121
 20
2482.530607630235
 30
0.0
 10
5120.941171803175
 20
2482.530530146921
 30
0.0
 10
5120.94451139966
 20
2482.53049839032
 30
0.0
 10
5120.9478829309
 20
2482.53049839032
 30
0.0
  0
SPLINE
  5
1919
330
1F
100
AcDbEntity
  8
SANINDUSA
100
AcDbSpline
210
0.0
220
0.0
230
1.0
 70
    24
 71
     3
 72
    10
 73
     6
 74
     0
 42
0.0000000001
 43
0.0000000001
 40
0.0
 40
0.0
 40
0.0
 40
0.0
 40
0.5
 40
0.5
 40
1.0
 40
1.0
 40
1.0
 40
1.0
 10
5120.856100692694
 20
2482.53049839032
 30
0.0
 10
5120.857757037751
 20
2482.532154738598
 30
0.0
 10
5120.859009550008
 20
2482.533407250267
 30
0.0
 10
5120.860682254601
 20
2482.535079953239
 30
0.0
 10
5120.861100692695
 20
2482.53549839032
 30
0.0
 10
5120.861100692695
 20
2482.53549839032
 30
0.0
  0
SPLINE
  5
191A
330
1F
100
AcDbEntity
  8
SANINDUSA
100
AcDbSpline
210
0.0
220
0.0
230
1.0
 70
    24
 71
     3
 72
     8
 73
     4
 74
     0
 42
0.0000000001
 43
0.0000000001
 40
0.0
 40
0.0
 40
0.0
 40
0.0
 40
1.0
 40
1.0
 40
1.0
 40
1.0
 10
5120.89641868772
 20
2482.534133090073
 30
0.0
 10
5120.896498401421
 20
2482.535044221854
 30
0.0
 10
5120.896538136013
 20
2482.53549839032
 30
0.0
 10
5120.896538136013
 20
2482.53549839032
 30
0.0
  0
SPLINE
  5
191B
330
1F
100
AcDbEntity
  8
SANINDUSA
100
AcDbSpline
210
0.0
220
0.0
230
1.0
 70
    24
 71
     3
 72
     8
 73
     4
 74
     0
 42
0.0000000001
 43
0.0000000001
 40
-0.0000000000000006
 40
-0.0000000000000006
 40
-0.0000000000000006
 40
-0.0000000000000006
 40
1.0
 40
1.0
 40
1.0
 40
1.0
 10
5120.9478829309
 20
2482.53049839032
 30
0.0
 10
5120.917288851498
 20
2482.53049839032
 30
0.0
 10
5120.886694772096
 20
2482.53049839032
 30
0.0
 10
5120.856100692694
 20
2482.53049839032
 30
0.0
  0
LINE
  5
191F
330
1F
100
AcDbEntity
  8
SANINDUSA
100
AcDbLine
 10
5120.856100692694
 20
2482.884269916537
 30
0.0
 11
5120.856100692694
 21
2482.920398390937
 31
0.0
  0
LINE
  5
1921
330
1F
100
AcDbEntity
  8
SANINDUSA
100
AcDbLine
 10
5120.856100692694
 20
2482.932115904141
 30
0.0
 11
5120.856100692694
 21
2482.920398390937
 31
0.0
  0
SPLINE
  5
1925
330
1F
100
AcDbEntity
  8
SANINDUSA
100
AcDbSpline
210
0.0
220
0.0
230
1.0
 70
     8
 71
     3
 72
    34
 73
    30
 74
     0
 42
0.0000000001
 43
0.0000000001
 40
0.0
 40
0.0
 40
0.0
 40
0.0
 40
0.1250000000000008
 40
0.1250000000000008
 40
0.1875000000000013
 40
0.1875000000000013
 40
0.2187500000000015
 40
0.2187500000000015
 40
0.2500000000000017
 40
0.2500000000000017
 40
0.3750000000000031
 40
0.3750000000000031
 40
0.4062500000000032
 40
0.4062500000000032
 40
0.4375000000000034
 40
0.4375000000000034
 40
0.5000000000000023
 40
0.5000000000000023
 40
0.6250000000000019
 40
0.6250000000000019
 40
0.7500000000000014
 40
0.7500000000000014
 40
0.812500000000001
 40
0.812500000000001
 40
0.8437500000000019
 40
0.8437500000000019
 40
0.8750000000000028
 40
0.8750000000000028
 40
1.0
 40
1.0
 40
1.0
 40
1.0
 10
5120.859735524842
 20
2482.581139309298
 30
0.0
 10
5120.85957273786
 20
2482.581110605561
 30
0.0
 10
5120.859397737831
 20
2482.581420476793
 30
0.0
 10
5120.859118309233
 20
2482.582376047765
 30
0.0
 10
5120.859022346504
 20
2482.582776990271
 30
0.0
 10
5120.858874374773
 20
2482.583505600113
 30
0.0
 10
5120.858824231959
 20
2482.583770578763
 30
0.0
 10
5120.858723520765
 20
2482.584339041803
 30
0.0
 10
5120.858672959474
 20
2482.584642349531
 30
0.0
 10
5120.858419346713
 20
2482.586252538191
 30
0.0
 10
5120.858213807744
 20
2482.587837567265
 30
0.0
 10
5120.857957715543
 20
2482.590191117699
 30
0.0
 10
5120.857906543425
 20
2482.590680616326
 30
0.0
 10
5120.857804418003
 20
2482.591697945157
 30
0.0
 10
5120.857753457745
 20
2482.592226010031
 30
0.0
 10
5120.857602872728
 20
2482.593849389891
 30
0.0
 10
5120.857504936075
 20
2482.594989616001
 30
0.0
 10
5120.857219853618
 20
2482.598579706836
 30
0.0
 10
5120.857041258077
 20
2482.60119830913
 30
0.0
 10
5120.856716900149
 20
2482.606896978629
 30
0.0
 10
5120.856576662342
 20
2482.60988104056
 30
0.0
 10
5120.856403152025
 20
2482.614549763113
 30
0.0
 10
5120.856351481274
 20
2482.616138356256
 30
0.0
 10
5120.856283976233
 20
2482.618570772535
 30
0.0
 10
5120.856263100731
 20
2482.619391893633
 30
0.0
 10
5120.856225144935
 20
2482.62103704069
 30
0.0
 10
5120.856208036119
 20
2482.621861706012
 30
0.0
 10
5120.85613184947
 20
2482.625995319434
 30
0.0
 10
5120.856100692694
 20
2482.629334829609
 30
0.0
 10
5120.856100692694
 20
2482.63270719704
 30
0.0
  0
SPLINE
  5
1926
330
1F
100
AcDbEntity
  8
SANINDUSA
100
AcDbSpline
210
0.0
220
0.0
230
1.0
 70
    24
 71
     3
 72
     8
 73
     4
 74
     0
 42
0.0000000001
 43
0.0000000001
 40
-0.0000000000000017
 40
-0.0000000000000017
 40
-0.0000000000000017
 40
-0.0000000000000017
 40
0.9999999999999998
 40
0.9999999999999998
 40
0.9999999999999998
 40
0.9999999999999998
 10
5120.856100692694
 20
2482.53049839032
 30
0.0
 10
5120.856100692694
 20
2482.56456799256
 30
0.0
 10
5120.856100692694
 20
2482.598637594799
 30
0.0
 10
5120.856100692694
 20
2482.63270719704
 30
0.0
  0
SPLINE
  5
1927
330
1F
100
AcDbEntity
  8
SANINDUSA
100
AcDbSpline
210
0.0
220
0.0
230
1.0
 70
    24
 71
     3
 72
     8
 73
     4
 74
     0
 42
0.0000000001
 43
0.0000000001
 40
0.0
 40
0.0
 40
0.0
 40
0.0
 40
1.0
 40
1.0
 40
1.0
 40
1.0
 10
5120.859735524842
 20
2482.581139309298
 30
0.0
 10
5120.860646484675
 20
2482.581299936095
 30
0.0
 10
5120.861100692695
 20
2482.581380025223
 30
0.0
 10
5120.861100692695
 20
2482.581380025223
 30
0.0
  0
LINE
  5
1942
330
1F
100
AcDbEntity
  8
SANINDUSA
100
AcDbLine
 10
5121.296079351847
 20
2482.530498393896
 30
0.0
 11
5121.257496669239
 21
2482.530498393896
 31
0.0
  0
LINE
  5
194C
330
1F
100
AcDbEntity
  8
SANINDUSA
100
AcDbLine
 10
5120.856100692694
 20
2482.851120189849
 30
0.0
 11
5120.856100692694
 21
2482.884269916537
 31
0.0
  0
LINE
  5
194D
330
1F
100
AcDbEntity
  8
SANINDUSA
100
AcDbLine
 10
5120.856100692694
 20
2482.63270718706
 30
0.0
 11
5120.856100692694
 21
2482.79112628949
 31
0.0
  0
LINE
  5
194E
330
1F
100
AcDbEntity
  8
SANINDUSA
100
AcDbLine
 10
5120.962714731042
 20
2482.530498393896
 30
0.0
 11
5120.947882927303
 21
2482.530498393896
 31
0.0
  0
LINE
  5
194F
330
1F
100
AcDbEntity
  8
SANINDUSA
100
AcDbLine
 10
5121.080777033513
 20
2482.530498393896
 30
0.0
 11
5121.028767704313
 21
2482.530498393896
 31
0.0
  0
LINE
  5
1950
330
1F
100
AcDbEntity
  8
SANINDUSA
100
AcDbLine
 10
5121.19750277633
 20
2482.530498393896
 30
0.0
 11
5121.140770956223
 21
2482.530498393896
 31
0.0
  0
LINE
  5
1953
330
1F
100
AcDbEntity
  8
SANINDUSA
100
AcDbLine
 10
5121.257496669239
 20
2482.530498393896
 30
0.0
 11
5121.252674206441
 21
2482.530498393896
 31
0.0
  0
LINE
  5
1955
330
1F
100
AcDbEntity
  8
SANINDUSA
100
AcDbLine
 10
5121.202674224322
 20
2482.530498393896
 30
0.0
 11
5121.19750277633
 21
2482.530498393896
 31
0.0
  0
LINE
  5
1957
330
1F
100
AcDbEntity
  8
SANINDUSA
100
AcDbLine
 10
5121.140770956223
 20
2482.530498393896
 30
0.0
 11
5121.135948493426
 21
2482.530498393896
 31
0.0
  0
LINE
  5
1959
330
1F
100
AcDbEntity
  8
SANINDUSA
100
AcDbLine
 10
5120.856100692694
 20
2482.846297846261
 30
0.0
 11
5120.856100692694
 21
2482.851120189849
 31
0.0
  0
LINE
  5
195A
330
1F
100
AcDbEntity
  8
SANINDUSA
100
AcDbLine
 10
5121.252674206441
 20
2482.530498393896
 30
0.0
 11
5121.202674224322
 21
2482.530498393896
 31
0.0
  0
LINE
  5
195C
330
1F
100
AcDbEntity
  8
SANINDUSA
100
AcDbLine
 10
5121.085948481505
 20
2482.530498393896
 30
0.0
 11
5121.080777033513
 21
2482.530498393896
 31
0.0
  0
LINE
  5
195E
330
1F
100
AcDbEntity
  8
SANINDUSA
100
AcDbLine
 10
5120.856100692694
 20
2482.796297841791
 30
0.0
 11
5120.856100692694
 21
2482.79112628949
 31
0.0
  0
LINE
  5
1960
330
1F
100
AcDbEntity
  8
SANINDUSA
100
AcDbLine
 10
5121.028767704313
 20
2482.530498393896
 30
0.0
 11
5121.023945256418
 21
2482.530498393896
 31
0.0
  0
LINE
  5
1961
330
1F
100
AcDbEntity
  8
SANINDUSA
100
AcDbLine
 10
5121.135948493426
 20
2482.530498393896
 30
0.0
 11
5121.085948481505
 21
2482.530498393896
 31
0.0
  0
LINE
  5
1962
330
1F
100
AcDbEntity
  8
SANINDUSA
100
AcDbLine
 10
5120.856100692694
 20
2482.796297841791
 30
0.0
 11
5120.856100692694
 21
2482.846297846261
 31
0.0
  0
LINE
  5
1964
330
1F
100
AcDbEntity
  8
SANINDUSA
100
AcDbLine
 10
5120.967886179035
 20
2482.530498393896
 30
0.0
 11
5120.962714731042
 21
2482.530498393896
 31
0.0
  0
LINE
  5
1965
330
1F
100
AcDbEntity
  8
SANINDUSA
100
AcDbLine
 10
5121.023945256418
 20
2482.530498393896
 30
0.0
 11
5120.967886179035
 21
2482.530498393896
 31
0.0
  0
ARC
  5
1983
330
1F
100
AcDbEntity
  8
SANINDUSA
100
AcDbCircle
 10
5119.932465621924
 20
2482.93249839032
 30
0.0
 40
0.0080000000000001
100
AcDbArc
 50
357.2596005037689
 51
90.0
  0
SPLINE
  5
1985
330
1F
100
AcDbEntity
  8
SANINDUSA
100
AcDbSpline
210
0.0
220
0.0
230
1.0
 70
     8
 71
     3
 72
    18
 73
    14
 74
     0
 42
0.0000000001
 43
0.0000000001
 40
0.0
 40
0.0
 40
0.0
 40
0.0
 40
0.25
 40
0.25
 40
0.5
 40
0.5
 40
0.625
 40
0.625
 40
0.75
 40
0.75
 40
0.875
 40
0.875
 40
1.0
 40
1.0
 40
1.0
 40
1.0
 10
5119.901173379167
 20
2482.532683410959
 30
0.0
 10
5119.904707659336
 20
2482.55652835618
 30
0.0
 10
5119.908032022163
 20
2482.580402836557
 30
0.0
 10
5119.914258522208
 20
2482.628207217697
 30
0.0
 10
5119.91716080036
 20
2482.652138503887
 30
0.0
 10
5119.921195517823
 20
2482.68806854943
 30
0.0
 10
5119.922487362472
 20
2482.700051118623
 30
0.0
 10
5119.924964843946
 20
2482.724028030928
 30
0.0
 10
5119.926150499724
 20
2482.736022595233
 30
0.0
 10
5119.928415220921
 20
2482.760019998132
 30
0.0
 10
5119.929494339808
 20
2482.77202320883
 30
0.0
 10
5119.931545925297
 20
2482.796038749879
 30
0.0
 10
5119.932518380342
 20
2482.808051090513
 30
0.0
 10
5119.933437333368
 20
2482.820068301546
 30
0.0
  0
SPLINE
  5
198E
330
1F
100
AcDbEntity
  8
SANINDUSA
100
AcDbSpline
210
0.0
220
0.0
230
1.0
 70
     8
 71
     3
 72
     9
 73
     5
 74
     0
 42
0.0000000001
 43
0.0000000001
 40
0.0
 40
0.0
 40
0.0
 40
0.0
 40
0.2204704641452372
 40
1.0
 40
1.0
 40
1.0
 40
1.0
 10
5119.933437333368
 20
2482.820068301546
 30
0.0
 10
5119.936414173337
 20
2482.861817284998
 30
0.0
 10
5119.938227801428
 20
2482.887086308529
 30
0.0
 10
5119.939480197524
 20
2482.912390522201
 30
0.0
 10
5119.940456477271
 20
2482.932115904141
 30
0.0
  0
ARC
  5
19EA
330
1F
100
AcDbEntity
  8
SANINDUSA
100
AcDbCircle
 10
5121.19147570789
 20
2482.888686211821
 30
0.0
 40
0.1800207373655799
100
AcDbArc
 50
194.702016779318
 51
227.0808708008508
  0
ARC
  5
19EB
330
1F
100
AcDbEntity
  8
SANINDUSA
100
AcDbCircle
 10
5120.835046368981
 20
2482.545993317565
 30
0.0
 40
0.3149999999999502
100
AcDbArc
 50
10.88960769434611
 51
41.51148836332558
  0
ARC
  5
19F2
330
1F
100
AcDbEntity
  8
SANINDUSA
100
AcDbCircle
 10
5121.227305574812
 20
2482.913864328305
 30
0.0
 40
0.1454392483716981
100
AcDbArc
 50
284.1579164190484
 51
349.233899434493
  0
ARC
  5
1A28
330
1F
100
AcDbEntity
  8
SANINDUSA
100
AcDbCircle
 10
5119.246803980439
 20
2489.886205002771
 30
0.0
 40
7.412641378037596
100
AcDbArc
 50
269.2549065694497
 51
270.7396418282967
  0
LINE
  5
2255
330
1F
100
AcDbEntity
  8
SANINDUSA
100
AcDbLine
 10
5121.381649657244
 20
2482.895731414032
 30
0.0
 11
5121.385296657031
 21
2482.932115904141
 31
0.0
  0
LINE
  5
225D
330
1F
100
AcDbEntity
  8
SANINDUSA
100
AcDbLine
 10
5121.368635072654
 20
2482.886831843379
 30
0.0
 11
5121.373250617927
 21
2482.932115904141
 31
0.0
  0
LINE
  5
225E
330
1F
100
AcDbEntity
  8
SANINDUSA
100
AcDbLine
 10
5121.359730019515
 20
2482.897649132732
 30
0.0
 11
5121.363038434928
 21
2482.930398390714
 31
0.0
  0
ARC
  5
2310
330
1F
100
AcDbEntity
  8
SANINDUSA
100
AcDbCircle
 10
5120.657820607804
 20
2482.932498393897
 30
0.0
 40
0.0080000000000001
100
AcDbArc
 50
357.2704351971818
 51
90.0
  0
SPLINE
  5
2311
330
1F
100
AcDbEntity
  8
SANINDUSA
100
AcDbSpline
210
0.0
220
0.0
230
1.0
 70
    24
 71
     3
 72
    21
 73
    17
 74
     0
 42
0.0000000001
 43
0.0000000001
 40
0.0
 40
0.0
 40
0.0
 40
0.0
 40
0.0633438072404589
 40
0.1266872797640587
 40
0.199446528786835
 40
0.2724372834988497
 40
0.345196512903049
 40
0.4178881948041357
 40
0.4908116740647832
 40
0.5635044513148531
 40
0.6361771439399667
 40
0.709081177674093
 40
0.7817530606718952
 40
0.854425233976752
 40
0.927328633293324
 40
1.0
 40
1.0
 40
1.0
 40
1.0
 10
5120.586019913948
 20
2482.940498393896
 30
0.0
 10
5120.588358149246
 20
2482.940498393896
 30
0.0
 10
5120.593034607487
 20
2482.940498393896
 30
0.0
 10
5120.600319822589
 20
2482.940498393896
 30
0.0
 10
5120.607792353959
 20
2482.940498393896
 30
0.0
 10
5120.615320035913
 20
2482.940498393896
 30
0.0
 10
5120.622475021112
 20
2482.940498393896
 30
0.0
 10
5120.629149368826
 20
2482.940498393896
 30
0.0
 10
5120.635275452322
 20
2482.940498393896
 30
0.0
 10
5120.640782001272
 20
2482.940498393896
 30
0.0
 10
5120.645574828368
 20
2482.940498393896
 30
0.0
 10
5120.649616182059
 20
2482.940498393896
 30
0.0
 10
5120.652862815233
 20
2482.940498393896
 30
0.0
 10
5120.655220961118
 20
2482.940498393896
 30
0.0
 10
5120.65677696829
 20
2482.940498393896
 30
0.0
 10
5120.657055971523
 20
2482.940498393896
 30
0.0
 10
5120.657195250785
 20
2482.940498393896
 30
0.0
  0
SPLINE
  5
2313
330
1F
100
AcDbEntity
  8
SANINDUSA
100
AcDbSpline
210
0.0
220
0.0
230
1.0
 70
    24
 71
     3
 72
    20
 73
    16
 74
     0
 42
0.0000000001
 43
0.0000000001
 40
0.0
 40
0.0
 40
0.0
 40
0.0
 40
0.4999999999999997
 40
0.4999999999999997
 40
0.7499999999999996
 40
0.7499999999999996
 40
0.8749999999999996
 40
0.8749999999999996
 40
0.9374999999999998
 40
0.9687499999999998
 40
0.9843750000000001
 40
0.9921875000000001
 40
0.9960937500000001
 40
0.9960937500000001
 40
1.0
 40
1.0
 40
1.0
 40
1.0
 10
5120.136615495479
 20
2482.940498393896
 30
0.0
 10
5120.211516262621
 20
2482.940498393896
 30
0.0
 10
5120.286417003427
 20
2482.940498393896
 30
0.0
 10
5120.398768101901
 20
2482.940498393896
 30
0.0
 10
5120.436218464263
 20
2482.940498393896
 30
0.0
 10
5120.492394008556
 20
2482.940498393896
 30
0.0
 10
5120.511119190115
 20
2482.940498393896
 30
0.0
 10
5120.539206963434
 20
2482.940498393896
 30
0.0
 10
5120.55325085034
 20
2482.940498393896
 30
0.0
 10
5120.569635385662
 20
2482.940498393896
 30
0.0
 10
5120.577827653495
 20
2482.940498393896
 30
0.0
 10
5120.581923787455
 20
2482.940498393896
 30
0.0
 10
5120.583679273448
 20
2482.940498393896
 30
0.0
 10
5120.584849597445
 20
2482.940498393896
 30
0.0
 10
5120.585434761683
 20
2482.940498393896
 30
0.0
 10
5120.586019919741
 20
2482.940498393896
 30
0.0
  0
LINE
  5
2314
330
1F
100
AcDbEntity
  8
SANINDUSA
100
AcDbLine
 10
5120.136615495479
 20
2482.530498397473
 30
0.0
 11
5120.136615495479
 21
2482.940498393896
 31
0.0
  0
SPLINE
  5
231A
330
1F
100
AcDbEntity
  8
SANINDUSA
100
AcDbSpline
210
0.0
220
0.0
230
1.0
 70
     8
 71
     3
 72
    34
 73
    30
 74
     0
 42
0.0000000001
 43
0.0000000001
 40
0.0
 40
0.0
 40
0.0
 40
0.0
 40
0.1249999999999998
 40
0.1249999999999998
 40
0.1875
 40
0.1875
 40
0.2187499999999996
 40
0.2187499999999996
 40
0.2499999999999992
 40
0.2499999999999992
 40
0.3749999999999972
 40
0.3749999999999972
 40
0.4374999999999959
 40
0.4374999999999959
 40
0.4687499999999958
 40
0.4687499999999958
 40
0.4999999999999957
 40
0.4999999999999957
 40
0.6249999999999974
 40
0.6249999999999974
 40
0.6874999999999979
 40
0.6874999999999979
 40
0.7499999999999984
 40
0.7499999999999984
 40
0.8749999999999992
 40
0.8749999999999992
 40
0.9374999999999996
 40
0.9374999999999996
 40
1.0
 40
1.0
 40
1.0
 40
1.0
 10
5120.260273849719
 20
2482.850880160909
 30
0.0
 10
5120.258248949941
 20
2482.850636523016
 30
0.0
 10
5120.256268429049
 20
2482.850236359047
 30
0.0
 10
5120.253364475612
 20
2482.849400356565
 30
0.0
 10
5120.252407686542
 20
2482.849082195669
 30
0.0
 10
5120.250989861457
 20
2482.848543728553
 30
0.0
 10
5120.250520149988
 20
2482.848354021888
 30
0.0
 10
5120.249586664056
 20
2482.847953670682
 30
0.0
 10
5120.249121836913
 20
2482.847742507266
 30
0.0
 10
5120.246827322137
 20
2482.84663979106
 30
0.0
 10
5120.24509165404
 20
2482.84561226083
 30
0.0
 10
5120.242637795243
 20
2482.843853417252
 30
0.0
 10
5120.241844898545
 20
2482.843230710062
 30
0.0
 10
5120.240694180152
 20
2482.842240508226
 30
0.0
 10
5120.240317052826
 20
2482.841901072927
 30
0.0
 10
5120.239575961967
 20
2482.841203071988
 30
0.0
 10
5120.23921167448
 20
2482.840844083006
 30
0.0
 10
5120.237441670314
 20
2482.839019165576
 30
0.0
 10
5120.23617440603
 20
2482.837450708393
 30
0.0
 10
5120.234490108027
 20
2482.834940046261
 30
0.0
 10
5120.233964928609
 20
2482.834076717268
 30
0.0
 10
5120.23298795821
 20
2482.832296541984
 30
0.0
 10
5120.232535203145
 20
2482.831376582191
 30
0.0
 10
5120.231311880043
 20
2482.828587693391
 30
0.0
 10
5120.230666098997
 20
2482.826675701363
 30
0.0
 10
5120.229941607973
 20
2482.823731909828
 30
0.0
 10
5120.229741046026
 20
2482.822737938138
 30
0.0
 10
5120.229422978369
 20
2482.820724220081
 30
0.0
 10
5120.22930610171
 20
2482.819707007131
 30
0.0
 10
5120.2292323193
 20
2482.818687491163
 30
0.0
  0
SPLINE
  5
231C
330
1F
100
AcDbEntity
  8
SANINDUSA
100
AcDbSpline
210
0.0
220
0.0
230
1.0
 70
     8
 71
     3
 72
    38
 73
    34
 74
     0
 42
0.0000000001
 43
0.0000000001
 40
0.0
 40
0.0
 40
0.0
 40
0.0
 40
0.0312499999999997
 40
0.0312499999999997
 40
0.0624999999999994
 40
0.0624999999999994
 40
0.1249999999999992
 40
0.1249999999999992
 40
0.2499999999999993
 40
0.2499999999999993
 40
0.2812499999999994
 40
0.2812499999999994
 40
0.3124999999999995
 40
0.3124999999999995
 40
0.3749999999999996
 40
0.3749999999999996
 40
0.4999999999999996
 40
0.4999999999999996
 40
0.5312499999999997
 40
0.5312499999999997
 40
0.5624999999999999
 40
0.5624999999999999
 40
0.625
 40
0.625
 40
0.7499999999999999
 40
0.7499999999999999
 40
0.7812499999999999
 40
0.7812499999999999
 40
0.8124999999999998
 40
0.8124999999999998
 40
0.8749999999999998
 40
0.8749999999999998
 40
1.0
 40
1.0
 40
1.0
 40
1.0
 10
5120.192209367139
 20
2482.820194532684
 30
0.0
 10
5120.192204901861
 20
2482.821247773961
 30
0.0
 10
5120.192226398178
 20
2482.822300151384
 30
0.0
 10
5120.192321314387
 20
2482.824403177746
 30
0.0
 10
5120.192394955196
 20
2482.825455602228
 30
0.0
 10
5120.192692097083
 20
2482.828590088206
 30
0.0
 10
5120.192991426984
 20
2482.830653263656
 30
0.0
 10
5120.194184116082
 20
2482.836765681619
 30
0.0
 10
5120.19536944032
 20
2482.840738534315
 30
0.0
 10
5120.197351071306
 20
2482.845573680525
 30
0.0
 10
5120.197772616915
 20
2482.846534105809
 30
0.0
 10
5120.198667385692
 20
2482.848441420616
 30
0.0
 10
5120.199137932117
 20
2482.849382404624
 30
0.0
 10
5120.200610988166
 20
2482.852154612535
 30
0.0
 10
5120.201677489708
 20
2482.853941053822
 30
0.0
 10
5120.205123484424
 20
2482.859120284125
 30
0.0
 10
5120.207747146293
 20
2482.862334677208
 30
0.0
 10
5120.211447055915
 20
2482.866045399345
 30
0.0
 10
5120.212210373147
 20
2482.866773950555
 30
0.0
 10
5120.213770149192
 20
2482.868189935355
 30
0.0
 10
5120.214564148071
 20
2482.868875355733
 30
0.0
 10
5120.216987464276
 20
2482.870865515487
 30
0.0
 10
5120.218658003564
 20
2482.872104309511
 30
0.0
 10
5120.22383031266
 20
2482.875563581932
 30
0.0
 10
5120.227491254117
 20
2482.877529380424
 30
0.0
 10
5120.232342106046
 20
2482.87954702631
 30
0.0
 10
5120.233328870563
 20
2482.879929259948
 30
0.0
 10
5120.23530875425
 20
2482.880640663054
 30
0.0
 10
5120.236303552204
 20
2482.880970688186
 30
0.0
 10
5120.239302202103
 20
2482.881885383108
 30
0.0
 10
5120.241320276962
 20
2482.882394847371
 30
0.0
 10
5120.247430208168
 20
2482.883628673282
 30
0.0
 10
5120.251577237624
 20
2482.884061285488
 30
0.0
 10
5120.255801115781
 20
2482.884087546118
 30
0.0
  0
LINE
  5
2328
330
1F
100
AcDbEntity
  8
SANINDUSA
100
AcDbLine
 10
5120.546245287454
 20
2482.530498397473
 30
0.0
 11
5120.606615495479
 21
2482.530498393896
 31
0.0
  0
LINE
  5
2329
330
1F
100
AcDbEntity
  8
SANINDUSA
100
AcDbLine
 10
5120.136615495479
 20
2482.530498397473
 30
0.0
 11
5120.546245287454
 21
2482.530498397473
 31
0.0
  0
SPLINE
  5
232D
330
1F
100
AcDbEntity
  8
SANINDUSA
100
AcDbSpline
210
0.0
220
0.0
230
1.0
 70
     8
 71
     3
 72
    15
 73
    11
 74
     0
 42
0.0000000001
 43
0.0000000001
 40
0.0
 40
0.0
 40
0.0
 40
0.0
 40
0.1594805477933515
 40
0.406674955878385
 40
0.653869169534561
 40
0.9581308342355987
 40
0.9911390718816715
 40
0.9956874259535524
 40
0.9985508707562281
 40
1.0
 40
1.0
 40
1.0
 40
1.0
 10
5120.255801114535
 20
2482.884087544802
 30
0.0
 10
5120.269890261608
 20
2482.884247045868
 30
0.0
 10
5120.305817547686
 20
2482.884653773148
 30
0.0
 10
5120.363583662194
 20
2482.885311768265
 30
0.0
 10
5120.434135949878
 20
2482.886460550045
 30
0.0
 10
5120.485762797554
 20
2482.887486443603
 30
0.0
 10
5120.515955560138
 20
2482.888171568141
 30
0.0
 10
5120.519524466703
 20
2482.888297744502
 30
0.0
 10
5120.520306664414
 20
2482.888330611557
 30
0.0
 10
5120.520687122603
 20
2482.888351299484
 30
0.0
 10
5120.520814965761
 20
2482.888358251128
 30
0.0
  0
SPLINE
  5
232E
330
1F
100
AcDbEntity
  8
SANINDUSA
100
AcDbSpline
210
0.0
220
0.0
230
1.0
 70
     8
 71
     3
 72
    50
 73
    46
 74
     0
 42
0.0000000001
 43
0.0000000001
 40
0.0
 40
0.0
 40
0.0
 40
0.0
 40
0.0624999999999998
 40
0.0624999999999998
 40
0.1249999999999996
 40
0.1249999999999996
 40
0.1874999999999993
 40
0.1874999999999993
 40
0.2499999999999991
 40
0.2499999999999991
 40
0.3749999999999989
 40
0.3749999999999989
 40
0.4999999999999988
 40
0.4999999999999988
 40
0.6249999999999987
 40
0.6249999999999987
 40
0.6874999999999986
 40
0.6874999999999986
 40
0.7499999999999984
 40
0.7499999999999984
 40
0.8124999999999984
 40
0.8124999999999984
 40
0.8749999999999982
 40
0.8749999999999982
 40
0.9062499999999984
 40
0.9062499999999984
 40
0.9374999999999985
 40
0.9374999999999985
 40
0.9531249999999987
 40
0.9531249999999987
 40
0.9687499999999989
 40
0.9687499999999989
 40
0.9765624999999991
 40
0.9765624999999991
 40
0.9843749999999991
 40
0.9843749999999991
 40
0.9921874999999992
 40
0.9921874999999992
 40
0.9960937499999996
 40
0.9960937499999996
 40
0.9980468749999996
 40
0.9980468749999996
 40
0.9990234374999998
 40
0.9990234374999998
 40
1.0
 40
1.0
 40
1.0
 40
1.0
 10
5120.2292323193
 20
2482.818687491163
 30
0.0
 10
5120.228794084251
 20
2482.812632009868
 30
0.0
 10
5120.228368304853
 20
2482.806577111734
 30
0.0
 10
5120.22752290489
 20
2482.794468930242
 30
0.0
 10
5120.227102641607
 20
2482.788415678346
 30
0.0
 10
5120.226238783362
 20
2482.776311938446
 30
0.0
 10
5120.225795355002
 20
2482.770261582928
 30
0.0
 10
5120.224874345288
 20
2482.758165247647
 30
0.0
 10
5120.224396978237
 20
2482.752119005833
 30
0.0
 10
5120.222913721203
 20
2482.733985250404
 30
0.0
 10
5120.221859499345
 20
2482.721902355498
 30
0.0
 10
5120.21963359982
 20
2482.697749400204
 30
0.0
 10
5120.218462126477
 20
2482.685679484863
 30
0.0
 10
5120.215976372712
 20
2482.661557745274
 30
0.0
 10
5120.214662685533
 20
2482.649504526079
 30
0.0
 10
5120.212532803283
 20
2482.631452131834
 30
0.0
 10
5120.211795891261
 20
2482.625439131438
 30
0.0
 10
5120.210250929907
 20
2482.613424400231
 30
0.0
 10
5120.209443152544
 20
2482.607422634482
 30
0.0
 10
5120.207728667938
 20
2482.595434004868
 30
0.0
 10
5120.206822477763
 20
2482.589445930076
 30
0.0
 10
5120.204860138456
 20
2482.577500412326
 30
0.0
 10
5120.203806688006
 20
2482.571541946759
 30
0.0
 10
5120.20202486576
 20
2482.562642360873
 30
0.0
 10
5120.201396479671
 20
2482.559680960063
 30
0.0
 10
5120.200036591787
 20
2482.55378471946
 30
0.0
 10
5120.199306906982
 20
2482.550850026056
 30
0.0
 10
5120.198077957229
 20
2482.546483811487
 30
0.0
 10
5120.197645558328
 20
2482.545034468063
 30
0.0
 10
5120.196712846467
 20
2482.5421537836
 30
0.0
 10
5120.196213469711
 20
2482.540723644427
 30
0.0
 10
5120.195384556119
 20
2482.538613665749
 30
0.0
 10
5120.195094655117
 20
2482.537915965777
 30
0.0
 10
5120.194476566087
 20
2482.536536389791
 30
0.0
 10
5120.19414867597
 20
2482.535854390973
 30
0.0
 10
5120.193434097922
 20
2482.534514670116
 30
0.0
 10
5120.193048923933
 20
2482.533858693438
 30
0.0
 10
5120.192406692474
 20
2482.532925450897
 30
0.0
 10
5120.192181457195
 20
2482.532622461842
 30
0.0
 10
5120.191819522771
 20
2482.53218543858
 30
0.0
 10
5120.19169482642
 20
2482.532042701724
 30
0.0
 10
5120.191500212967
 20
2482.531834083859
 30
0.0
 10
5120.191434075117
 20
2482.531765462916
 30
0.0
 10
5120.191298935268
 20
2482.531630297446
 30
0.0
 10
5120.19122879898
 20
2482.531562702661
 30
0.0
 10
5120.191159297601
 20
2482.531498393897
 30
0.0
  0
SPLINE
  5
232F
330
1F
100
AcDbEntity
  8
SANINDUSA
100
AcDbSpline
210
0.0
220
0.0
230
1.0
 70
     8
 71
     3
 72
    44
 73
    40
 74
     0
 42
0.0000000001
 43
0.0000000001
 40
0.0
 40
0.0
 40
0.0
 40
0.0
 40
0.0039062500000002
 40
0.0039062500000002
 40
0.0078125000000004
 40
0.0078125000000004
 40
0.0156250000000008
 40
0.0156250000000008
 40
0.031250000000001
 40
0.031250000000001
 40
0.0468750000000011
 40
0.0468750000000011
 40
0.0625000000000013
 40
0.0625000000000013
 40
0.093750000000001
 40
0.093750000000001
 40
0.1250000000000007
 40
0.1250000000000007
 40
0.1328125000000007
 40
0.1328125000000007
 40
0.1406250000000008
 40
0.1406250000000008
 40
0.156250000000001
 40
0.156250000000001
 40
0.1875000000000006
 40
0.1875000000000006
 40
0.2500000000000005
 40
0.2500000000000005
 40
0.3750000000000005
 40
0.3750000000000005
 40
0.5000000000000004
 40
0.5000000000000004
 40
0.6250000000000004
 40
0.6250000000000004
 40
0.7500000000000002
 40
0.7500000000000002
 40
0.8750000000000001
 40
0.8750000000000001
 40
1.0
 40
1.0
 40
1.0
 40
1.0
 10
5120.521173606933
 20
2482.887637074778
 30
0.0
 10
5120.520867013263
 20
2482.887480867527
 30
0.0
 10
5120.520546851142
 20
2482.887353445309
 30
0.0
 10
5120.519900393845
 20
2482.887118124541
 30
0.0
 10
5120.519573103915
 20
2482.887011742924
 30
0.0
 10
5120.518586167938
 20
2482.88671021763
 30
0.0
 10
5120.517921552277
 20
2482.886532508642
 30
0.0
 10
5120.515922709568
 20
2482.886028323902
 30
0.0
 10
5120.514581200402
 20
2482.885731167869
 30
0.0
 10
5120.511892278133
 20
2482.885162683399
 30
0.0
 10
5120.510544181827
 20
2482.88489342771
 30
0.0
 10
5120.507845488547
 20
2482.88437085741
 30
0.0
 10
5120.50649483616
 20
2482.884117870586
 30
0.0
 10
5120.502440389666
 20
2482.883374834916
 30
0.0
 10
5120.499734155529
 20
2482.882900400992
 30
0.0
 10
5120.494318121041
 20
2482.881974629727
 30
0.0
 10
5120.491608244754
 20
2482.881523768078
 30
0.0
 10
5120.488219311083
 20
2482.880970553279
 30
0.0
 10
5120.487541442908
 20
2482.880860441183
 30
0.0
 10
5120.48618555541
 20
2482.880641203943
 30
0.0
 10
5120.485507400433
 20
2482.880532929508
 30
0.0
 10
5120.483474465656
 20
2482.88019857003
 30
0.0
 10
5120.482118829515
 20
2482.879977904128
 30
0.0
 10
5120.478051011744
 20
2482.879321805591
 30
0.0
 10
5120.475337926674
 20
2482.878892234618
 30
0.0
 10
5120.467195768952
 20
2482.877622448668
 30
0.0
 10
5120.461763824637
 20
2482.876800961987
 30
0.0
 10
5120.445459754855
 20
2482.87439079809
 30
0.0
 10
5120.434579052571
 20
2482.872855444399
 30
0.0
 10
5120.412807049241
 20
2482.869873684879
 30
0.0
 10
5120.40191596496
 20
2482.86842836924
 30
0.0
 10
5120.380127927917
 20
2482.865599175973
 30
0.0
 10
5120.369230927526
 20
2482.86421565901
 30
0.0
 10
5120.347434742599
 20
2482.861487369879
 30
0.0
 10
5120.336535578061
 20
2482.860142418126
 30
0.0
 10
5120.31473861443
 20
2482.857472340263
 30
0.0
 10
5120.303840325934
 20
2482.85614703583
 30
0.0
 10
5120.282050683763
 20
2482.853505950053
 30
0.0
 10
5120.271159671879
 20
2482.85218995352
 30
0.0
 10
5120.260273849719
 20
2482.850880160909
 30
0.0
  0
SPLINE
  5
2330
330
1F
100
AcDbEntity
  8
SANINDUSA
100
AcDbSpline
210
0.0
220
0.0
230
1.0
 70
     8
 71
     3
 72
    21
 73
    17
 74
     0
 42
0.0000000001
 43
0.0000000001
 40
0.0
 40
0.0
 40
0.0
 40
0.0
 40
0.0000488664111179
 40
0.0001125510366954
 40
0.0002298008797947
 40
0.000637605127145
 40
0.0026011693422586
 40
0.0104045360855002
 40
0.0415800716445973
 40
0.1039147759513197
 40
0.1662514289193823
 40
0.3324975642262317
 40
0.4987510460456189
 40
0.6649986771941187
 40
0.8324994272240338
 40
1.0
 40
1.0
 40
1.0
 40
1.0
 10
5120.188616863734
 20
2482.532683414343
 30
0.0
 10
5120.188621599176
 20
2482.532683909258
 30
0.0
 10
5120.188632506031
 20
2482.532685049165
 30
0.0
 10
5120.188651810135
 20
2482.532697118684
 30
0.0
 10
5120.188688939739
 20
2482.532740218619
 30
0.0
 10
5120.188779714831
 20
2482.532964016247
 30
0.0
 10
5120.188946646863
 20
2482.53392253854
 30
0.0
 10
5120.189297122665
 20
2482.53781881941
 30
0.0
 10
5120.189707380332
 20
2482.547486232184
 30
0.0
 10
5120.190173102735
 20
2482.562368805425
 30
0.0
 10
5120.190735900389
 20
2482.590174627784
 30
0.0
 10
5120.191401108947
 20
2482.627955633537
 30
0.0
 10
5120.191943449663
 20
2482.675749995953
 30
0.0
 10
5120.192324293575
 20
2482.723726304979
 30
0.0
 10
5120.192327710813
 20
2482.77186888578
 30
0.0
 10
5120.192248814296
 20
2482.804085989009
 30
0.0
 10
5120.192209366059
 20
2482.8201945321
 30
0.0
  0
ARC
  5
2333
330
1F
100
AcDbEntity
  8
SANINDUSA
100
AcDbCircle
 10
5116.690224029041
 20
2483.312921852938
 30
0.0
 40
3.993783743225316
100
AcDbArc
 50
348.7020930321313
 51
354.5285544390378
  0
ENDSEC
  0
SECTION
  2
OBJECTS
  0
DICTIONARY
  5
C
330
0
100
AcDbDictionary
281
     1
  3
ACAD_2007HEADERVARS_RT
350
244D
  3
ACAD_BACKGROUND
350
23F8
  3
ACAD_COLOR
350
EE6
  3
ACAD_GROUP
350
D
  3
ACAD_LAYOUT
350
1A
  3
ACAD_MATERIAL
350
EE5
  3
ACAD_MLEADERSTYLE
350
10A8
  3
ACAD_MLINESTYLE
350
17
  3
ACAD_PLOTSETTINGS
350
19
  3
ACAD_PLOTSTYLENAME
350
E
  3
ACAD_SCALELIST
350
1096
  3
ACAD_TABLESTYLE
350
EE7
  3
ACAD_VISUALSTYLE
350
1082
  3
ACDB_RECOMPOSE_DATA
350
244B
  3
AcDbVariableDictionary
350
3D
  3
AEC_PROPERTY_SET_DEFS
350
1691
  3
ASE_INDEX_DICTIONARY
350
1066
  3
Autodesk_PNP
350
10B2
  3
DWGPROPS
350
244C
  0
DICTIONARY
  5
2265
330
8
100
AcDbDictionary
280
     1
281
     1
  0
DICTIONARY
  5
1051
330
2
100
AcDbDictionary
280
     1
281
     1
  3
ACAD_LAYERFILTERS
360
1065
  3
ACAD_LAYERSTATES
360
12CE
  3
ACLYDICTIONARY
360
1064
  0
DICTIONARY
  5
21ED
330
10
100
AcDbDictionary
280
     1
281
     1
  3
ADSK_XREC_LAYER_RECONCILED
360
21EE
  0
DICTIONARY
  5
21EF
330
2F
100
AcDbDictionary
280
     1
281
     1
  3
ADSK_XREC_LAYER_RECONCILED
360
21F0
  0
DICTIONARY
  5
21F1
330
30
100
AcDbDictionary
280
     1
281
     1
  3
ADSK_XREC_LAYER_RECONCILED
360
21F2
  0
DICTIONARY
  5
21F3
330
31
100
AcDbDictionary
280
     1
281
     1
  3
ADSK_XREC_LAYER_RECONCILED
360
21F4
  0
DICTIONARY
  5
21F5
330
32
100
AcDbDictionary
280
     1
281
     1
  3
ADSK_XREC_LAYER_RECONCILED
360
21F6
  0
DICTIONARY
  5
21F7
330
33
100
AcDbDictionary
280
     1
281
     1
  3
ADSK_XREC_LAYER_RECONCILED
360
21F8
  0
DICTIONARY
  5
21F9
330
34
100
AcDbDictionary
280
     1
281
     1
  3
ADSK_XREC_LAYER_RECONCILED
360
21FA
  0
DICTIONARY
  5
21FB
330
35
100
AcDbDictionary
280
     1
281
     1
  3
ADSK_XREC_LAYER_RECONCILED
360
21FC
  0
DICTIONARY
  5
21FD
330
36
100
AcDbDictionary
280
     1
281
     1
  3
ADSK_XREC_LAYER_RECONCILED
360
21FE
  0
DICTIONARY
  5
21FF
330
37
100
AcDbDictionary
280
     1
281
     1
  3
ADSK_XREC_LAYER_RECONCILED
360
2200
  0
DICTIONARY
  5
2201
330
5D6
100
AcDbDictionary
280
     1
281
     1
  3
ADSK_XREC_LAYER_RECONCILED
360
2202
  0
DICTIONARY
  5
2203
330
8AF
100
AcDbDictionary
280
     1
281
     1
  3
ADSK_XREC_LAYER_RECONCILED
360
2204
  0
DICTIONARY
  5
2205
330
8F8
100
AcDbDictionary
280
     1
281
     1
  3
ADSK_XREC_LAYER_RECONCILED
360
2206
  0
DICTIONARY
  5
2207
330
91D
100
AcDbDictionary
280
     1
281
     1
  3
ADSK_XREC_LAYER_RECONCILED
360
2208
  0
DICTIONARY
  5
2209
330
C7B
100
AcDbDictionary
280
     1
281
     1
  3
ADSK_XREC_LAYER_RECONCILED
360
220A
  0
DICTIONARY
  5
220B
330
1060
100
AcDbDictionary
280
     1
281
     1
  3
ADSK_XREC_LAYER_RECONCILED
360
220C
  0
DICTIONARY
  5
244D
102
{ACAD_REACTORS
330
C
102
}
330
C
100
AcDbDictionary
281
     1
  3
DIMJOGANG
350
244E
  0
DICTIONARY
  5
23F8
102
{ACAD_REACTORS
330
C
102
}
330
C
100
AcDbDictionary
281
     1
  0
DICTIONARY
  5
EE6
102
{ACAD_REACTORS
330
C
102
}
330
C
100
AcDbDictionary
281
     1
  0
DICTIONARY
  5
D
102
{ACAD_REACTORS
330
C
102
}
330
C
100
AcDbDictionary
281
     1
  0
DICTIONARY
  5
1A
102
{ACAD_REACTORS
330
C
102
}
330
C
100
AcDbDictionary
281
     1
  3
Layout1
350
1E
  3
Layout2
350
26
  3
Model
350
22
  0
DICTIONARY
  5
EE5
102
{ACAD_REACTORS
330
C
102
}
330
C
100
AcDbDictionary
281
     1
  3
ByBlock
350
1072
  3
ByLayer
350
106A
  3
Global
350
107A
  0
DICTIONARY
  5
10A8
102
{ACAD_REACTORS
330
C
102
}
330
C
100
AcDbDictionary
281
     1
  3
Standard
350
10A9
  0
DICTIONARY
  5
17
102
{ACAD_REACTORS
330
C
102
}
330
C
100
AcDbDictionary
281
     1
  3
Standard
350
18
  0
DICTIONARY
  5
19
102
{ACAD_REACTORS
330
C
102
}
330
C
100
AcDbDictionary
281
     1
  0
ACDBDICTIONARYWDFLT
  5
E
102
{ACAD_REACTORS
330
C
102
}
330
C
100
AcDbDictionary
281
     1
  3
Normal
350
F
100
AcDbDictionaryWithDefault
340
F
  0
DICTIONARY
  5
1096
102
{ACAD_REACTORS
330
C
102
}
330
C
100
AcDbDictionary
281
     1
  3
A0
350
1097
  3
A1
350
1098
  3
A2
350
1099
  3
A3
350
109A
  3
A4
350
109B
  3
A5
350
109C
  3
A6
350
109D
  3
A7
350
109E
  3
A8
350
109F
  3
A9
350
10A0
  3
B0
350
10A1
  3
B1
350
10A2
  3
B2
350
10A3
  3
B3
350
10A4
  3
B4
350
10A5
  3
B5
350
10A6
  3
B6
350
10A7
  0
DICTIONARY
  5
EE7
102
{ACAD_REACTORS
330
C
102
}
330
C
100
AcDbDictionary
281
     1
  3
Standard
350
EE8
  0
DICTIONARY
  5
1082
102
{ACAD_REACTORS
330
C
102
}
330
C
100
AcDbDictionary
281
     1
  3
2dWireframe
350
1088
  3
3D Hidden
350
108A
  3
3dWireframe
350
1089
  3
Basic
350
1087
  3
Brighten
350
108E
  3
ColorChange
350
1092
  3
Conceptual
350
108B
  3
Dim
350
108D
  3
EdgeColorOff
350
1095
  3
Facepattern
350
1091
  3
Flat
350
1083
  3
FlatWithEdges
350
1084
  3
Gouraud
350
1085
  3
GouraudWithEdges
350
1086
  3
JitterOff
350
1093
  3
Linepattern
350
1090
  3
OverhangOff
350
1094
  3
Realistic
350
108C
  3
Thicken
350
108F
  0
XRECORD
  5
244B
102
{ACAD_REACTORS
330
C
102
}
330
C
100
AcDbXrecord
280
     1
 90
        1
330
EE8
  0
DICTIONARY
  5
3D
102
{ACAD_REACTORS
330
C
102
}
330
C
100
AcDbDictionary
281
     1
  3
CANNOSCALE
350
22A3
  3
CMLEADERSTYLE
350
22A2
  3
CTABLESTYLE
350
1049
  3
DIMASSOC
350
3F
  3
HIDETEXT
350
3E
  3
INDEXCTL
350
22A5
  3
SORTENTS
350
22A4
  3
XCLIPFRAME
350
2449
  0
DICTIONARY
  5
1691
102
{ACAD_REACTORS
330
C
102
}
330
C
100
AcDbDictionary
281
     1
  0
DICTIONARY
  5
1066
102
{ACAD_REACTORS
330
C
102
}
330
C
100
AcDbDictionary
281
     1
  3
ASEBlockHierarchyIndexRecord
350
1067
1001
DCO15
1040
1602247867.484
  0
DICTIONARY
  5
10B2
102
{ACAD_REACTORS
330
C
102
}
330
C
100
AcDbDictionary
281
     1
  0
XRECORD
  5
244C
102
{ACAD_REACTORS
330
C
102
}
330
C
100
AcDbXrecord
280
     1
  1
DWGPROPS COOKIE
  2

  3

  4

  6

  7

  8
Julio
  9

300
=
301
=
302
=
303
=
304
=
305
=
306
=
307
=
308
=
309
=
 40
0.0190029976851852
 41
2455257.778177986
 42
2455296.519464514
  1

 90
        0
  0
DICTIONARY
  5
1065
102
{ACAD_REACTORS
330
1051
102
}
330
1051
100
AcDbDictionary
281
     1
  0
DICTIONARY
  5
12CE
102
{ACAD_REACTORS
330
1051
102
}
330
1051
100
AcDbDictionary
281
     1
  0
DICTIONARY
  5
1064
102
{ACAD_REACTORS
330
1051
102
}
330
1051
100
AcDbDictionary
281
     1
1001
ACAD
1000
<All
  0
XRECORD
  5
21EE
102
{ACAD_REACTORS
330
21ED
102
}
330
21ED
100
AcDbXrecord
280
     1
290
     1
  0
XRECORD
  5
21F0
102
{ACAD_REACTORS
330
21EF
102
}
330
21EF
100
AcDbXrecord
280
     1
290
     1
  0
XRECORD
  5
21F2
102
{ACAD_REACTORS
330
21F1
102
}
330
21F1
100
AcDbXrecord
280
     1
290
     1
  0
XRECORD
  5
21F4
102
{ACAD_REACTORS
330
21F3
102
}
330
21F3
100
AcDbXrecord
280
     1
290
     1
  0
XRECORD
  5
21F6
102
{ACAD_REACTORS
330
21F5
102
}
330
21F5
100
AcDbXrecord
280
     1
290
     1
  0
XRECORD
  5
21F8
102
{ACAD_REACTORS
330
21F7
102
}
330
21F7
100
AcDbXrecord
280
     1
290
     1
  0
XRECORD
  5
21FA
102
{ACAD_REACTORS
330
21F9
102
}
330
21F9
100
AcDbXrecord
280
     1
290
     1
  0
XRECORD
  5
21FC
102
{ACAD_REACTORS
330
21FB
102
}
330
21FB
100
AcDbXrecord
280
     1
290
     1
  0
XRECORD
  5
21FE
102
{ACAD_REACTORS
330
21FD
102
}
330
21FD
100
AcDbXrecord
280
     1
290
     1
  0
XRECORD
  5
2200
102
{ACAD_REACTORS
330
21FF
102
}
330
21FF
100
AcDbXrecord
280
     1
290
     1
  0
XRECORD
  5
2202
102
{ACAD_REACTORS
330
2201
102
}
330
2201
100
AcDbXrecord
280
     1
290
     1
  0
XRECORD
  5
2204
102
{ACAD_REACTORS
330
2203
102
}
330
2203
100
AcDbXrecord
280
     1
290
     1
  0
XRECORD
  5
2206
102
{ACAD_REACTORS
330
2205
102
}
330
2205
100
AcDbXrecord
280
     1
290
     1
  0
XRECORD
  5
2208
102
{ACAD_REACTORS
330
2207
102
}
330
2207
100
AcDbXrecord
280
     1
290
     1
  0
XRECORD
  5
220A
102
{ACAD_REACTORS
330
2209
102
}
330
2209
100
AcDbXrecord
280
     1
290
     1
  0
XRECORD
  5
220C
102
{ACAD_REACTORS
330
220B
102
}
330
220B
100
AcDbXrecord
280
     1
290
     1
  0
XRECORD
  5
244E
102
{ACAD_REACTORS
330
244D
102
}
330
244D
100
AcDbXrecord
280
     1
 40
1.570796326794896
  0
LAYOUT
  5
1E
102
{ACAD_XDICTIONARY
360
244F
102
}
102
{ACAD_REACTORS
330
1A
102
}
330
1A
100
AcDbPlotSettings
  1

  2
Ploter HP500
  4

  6

 40
0.0
 41
0.0
 42
0.0
 43
0.0
 44
0.0
 45
0.0
 46
0.0
 47
0.0
 48
0.0
 49
0.0
140
0.0
141
0.0
142
1.0
143
1.0
 70
   688
 72
     0
 73
     0
 74
     5
  7
sanindusa.ctb
 75
    16
147
1.0
148
0.0
149
0.0
100
AcDbLayout
  1
Layout1
 70
     1
 71
     1
 10
0.0
 20
0.0
 11
420.0
 21
297.0
 12
0.0
 22
0.0
 32
0.0
 14
1.000000000000000E+20
 24
1.000000000000000E+20
 34
1.000000000000000E+20
 15
-1.000000000000000E+20
 25
-1.000000000000000E+20
 35
-1.000000000000000E+20
146
0.0
 13
0.0
 23
0.0
 33
0.0
 16
1.0
 26
0.0
 36
0.0
 17
0.0
 27
1.0
 37
0.0
 76
     0
330
1B
  0
LAYOUT
  5
26
102
{ACAD_XDICTIONARY
360
2453
102
}
102
{ACAD_REACTORS
330
1A
102
}
330
1A
100
AcDbPlotSettings
  1

  2
Ploter HP500
  4

  6

 40
0.0
 41
0.0
 42
0.0
 43
0.0
 44
0.0
 45
0.0
 46
0.0
 47
0.0
 48
0.0
 49
0.0
140
0.0
141
0.0
142
1.0
143
1.0
 70
   688
 72
     0
 73
     0
 74
     5
  7
sanindusa.ctb
 75
    16
147
1.0
148
0.0
149
0.0
100
AcDbLayout
  1
Layout2
 70
     1
 71
     2
 10
0.0
 20
0.0
 11
12.0
 21
9.0
 12
0.0
 22
0.0
 32
0.0
 14
0.0
 24
0.0
 34
0.0
 15
0.0
 25
0.0
 35
0.0
146
0.0
 13
0.0
 23
0.0
 33
0.0
 16
1.0
 26
0.0
 36
0.0
 17
0.0
 27
1.0
 37
0.0
 76
     0
330
23
  0
LAYOUT
  5
22
102
{ACAD_XDICTIONARY
360
2451
102
}
102
{ACAD_REACTORS
330
1A
102
}
330
1A
100
AcDbPlotSettings
  1

  2
Ploter HP500
  4
User268
  6

 40
4.995333194732666
 41
16.97565841674804
 42
4.995330810546875
 43
16.97567749023437
 44
209.9733276367187
 45
296.9259948730469
 46
0.0
 47
0.0
 48
0.0
 49
0.0
140
0.0
141
0.0
142
1.0
143
1.0
 70
 11952
 72
     1
 73
     1
 74
     0
  7
sanindusa.ctb
 75
     0
147
1.0
148
-427.5957866592534
149
7.362384574453926
100
AcDbLayout
  1
Model
 70
     1
 71
     0
 10
0.0
 20
0.0
 11
12.0
 21
9.0
 12
0.0
 22
0.0
 32
0.0
 14
0.0
 24
0.0
 34
0.0
 15
0.0
 25
0.0
 35
0.0
146
0.0
 13
0.0
 23
0.0
 33
0.0
 16
1.0
 26
0.0
 36
0.0
 17
0.0
 27
1.0
 37
0.0
 76
     0
330
1F
331
1068
  0
MATERIAL
  5
1072
102
{ACAD_XDICTIONARY
360
1073
102
}
102
{ACAD_REACTORS
330
EE5
102
}
330
EE5
100
AcDbMaterial
  1
ByBlock
 72
     0
 43
0.0008202099737533
 43
0.0
 43
0.0
 43
0.0
 43
0.0
 43
0.0008202099737533
 43
0.0
 43
0.0
 43
0.0
 43
0.0
 43
1.0
 43
0.0
 43
0.0
 43
0.0
 43
0.0
 43
1.0
 77
     0
 47
0.0008202099737533
 47
0.0
 47
0.0
 47
0.0
 47
0.0
 47
0.0008202099737533
 47
0.0
 47
0.0
 47
0.0
 47
0.0
 47
1.0
 47
0.0
 47
0.0
 47
0.0
 47
0.0
 47
1.0
171
     0
 49
0.0008202099737533
 49
0.0
 49
0.0
 49
0.0
 49
0.0
 49
0.0008202099737533
 49
0.0
 49
0.0
 49
0.0
 49
0.0
 49
1.0
 49
0.0
 49
0.0
 49
0.0
 49
0.0
 49
1.0
175
     0
142
0.0008202099737533
142
0.0
142
0.0
142
0.0
142
0.0
142
0.0008202099737533
142
0.0
142
0.0
142
0.0
142
0.0
142
1.0
142
0.0
142
0.0
142
0.0
142
0.0
142
1.0
179
     0
144
0.0008202099737533
144
0.0
144
0.0
144
0.0
144
0.0
144
0.0008202099737533
144
0.0
144
0.0
144
0.0
144
0.0
144
1.0
144
0.0
144
0.0
144
0.0
144
0.0
144
1.0
147
0.0008202099737533
147
0.0
147
0.0
147
0.0
147
0.0
147
0.0008202099737533
147
0.0
147
0.0
147
0.0
147
0.0
147
1.0
147
0.0
147
0.0
147
0.0
147
0.0
147
1.0
  0
MATERIAL
  5
106A
102
{ACAD_XDICTIONARY
360
106B
102
}
102
{ACAD_REACTORS
330
EE5
102
}
330
EE5
100
AcDbMaterial
  1
ByLayer
 72
     0
 43
0.0008202099737533
 43
0.0
 43
0.0
 43
0.0
 43
0.0
 43
0.0008202099737533
 43
0.0
 43
0.0
 43
0.0
 43
0.0
 43
1.0
 43
0.0
 43
0.0
 43
0.0
 43
0.0
 43
1.0
 77
     0
 47
0.0008202099737533
 47
0.0
 47
0.0
 47
0.0
 47
0.0
 47
0.0008202099737533
 47
0.0
 47
0.0
 47
0.0
 47
0.0
 47
1.0
 47
0.0
 47
0.0
 47
0.0
 47
0.0
 47
1.0
171
     0
 49
0.0008202099737533
 49
0.0
 49
0.0
 49
0.0
 49
0.0
 49
0.0008202099737533
 49
0.0
 49
0.0
 49
0.0
 49
0.0
 49
1.0
 49
0.0
 49
0.0
 49
0.0
 49
0.0
 49
1.0
175
     0
142
0.0008202099737533
142
0.0
142
0.0
142
0.0
142
0.0
142
0.0008202099737533
142
0.0
142
0.0
142
0.0
142
0.0
142
1.0
142
0.0
142
0.0
142
0.0
142
0.0
142
1.0
179
     0
144
0.0008202099737533
144
0.0
144
0.0
144
0.0
144
0.0
144
0.0008202099737533
144
0.0
144
0.0
144
0.0
144
0.0
144
1.0
144
0.0
144
0.0
144
0.0
144
0.0
144
1.0
147
0.0008202099737533
147
0.0
147
0.0
147
0.0
147
0.0
147
0.0008202099737533
147
0.0
147
0.0
147
0.0
147
0.0
147
1.0
147
0.0
147
0.0
147
0.0
147
0.0
147
1.0
  0
MATERIAL
  5
107A
102
{ACAD_XDICTIONARY
360
107B
102
}
102
{ACAD_REACTORS
330
EE5
102
}
330
EE5
100
AcDbMaterial
  1
Global
 72
     0
 43
0.0008202099737533
 43
0.0
 43
0.0
 43
0.0
 43
0.0
 43
0.0008202099737533
 43
0.0
 43
0.0
 43
0.0
 43
0.0
 43
1.0
 43
0.0
 43
0.0
 43
0.0
 43
0.0
 43
1.0
 77
     0
 47
0.0008202099737533
 47
0.0
 47
0.0
 47
0.0
 47
0.0
 47
0.0008202099737533
 47
0.0
 47
0.0
 47
0.0
 47
0.0
 47
1.0
 47
0.0
 47
0.0
 47
0.0
 47
0.0
 47
1.0
171
     0
 49
0.0008202099737533
 49
0.0
 49
0.0
 49
0.0
 49
0.0
 49
0.0008202099737533
 49
0.0
 49
0.0
 49
0.0
 49
0.0
 49
1.0
 49
0.0
 49
0.0
 49
0.0
 49
0.0
 49
1.0
175
     0
142
0.0008202099737533
142
0.0
142
0.0
142
0.0
142
0.0
142
0.0008202099737533
142
0.0
142
0.0
142
0.0
142
0.0
142
1.0
142
0.0
142
0.0
142
0.0
142
0.0
142
1.0
179
     0
144
0.0008202099737533
144
0.0
144
0.0
144
0.0
144
0.0
144
0.0008202099737533
144
0.0
144
0.0
144
0.0
144
0.0
144
1.0
144
0.0
144
0.0
144
0.0
144
0.0
144
1.0
147
0.0008202099737533
147
0.0
147
0.0
147
0.0
147
0.0
147
0.0008202099737533
147
0.0
147
0.0
147
0.0
147
0.0
147
1.0
147
0.0
147
0.0
147
0.0
147
0.0
147
1.0
  0
MLEADERSTYLE
  5
10A9
102
{ACAD_REACTORS
330
10A8
102
}
330
10A8
100
AcDbMLeaderStyle
170
     2
171
     1
172
     0
 90
        2
 40
0.0
 41
0.0
173
     1
 91
-1056964608
340
14
 92
       -2
290
     1
 42
2.0
291
     1
 43
0.36
  3
Standard
 44
4.0
300

342
11
174
     1
178
     6
175
     1
176
     0
 93
-1056964608
 45
4.0
292
     0
297
     0
 46
4.0
 94
-1056964608
 47
1.0
 49
1.0
140
1.0
293
     1
141
0.0
294
     1
177
     0
142
1.0
295
     0
296
     0
143
0.125
1001
ACAD_MLEADERVER
1070
     2
  0
MLINESTYLE
  5
18
102
{ACAD_REACTORS
330
17
102
}
330
17
100
AcDbMlineStyle
  2
STANDARD
 70
     0
  3

 62
   256
 51
90.0
 52
90.0
 71
     2
 49
0.5
 62
   256
  6
BYLAYER
 49
-0.5
 62
   256
  6
BYLAYER
  0
ACDBPLACEHOLDER
  5
F
102
{ACAD_REACTORS
330
E
102
}
330
E
  0
SCALE
  5
1097
102
{ACAD_REACTORS
330
1096
102
}
330
1096
100
AcDbScale
 70
     0
300
1:1
140
1.0
141
1.0
290
     1
  0
SCALE
  5
1098
102
{ACAD_REACTORS
330
1096
102
}
330
1096
100
AcDbScale
 70
     0
300
1:2
140
1.0
141
2.0
290
     0
  0
SCALE
  5
1099
102
{ACAD_REACTORS
330
1096
102
}
330
1096
100
AcDbScale
 70
     0
300
1:4
140
1.0
141
4.0
290
     0
  0
SCALE
  5
109A
102
{ACAD_REACTORS
330
1096
102
}
330
1096
100
AcDbScale
 70
     0
300
1:5
140
1.0
141
5.0
290
     0
  0
SCALE
  5
109B
102
{ACAD_REACTORS
330
1096
102
}
330
1096
100
AcDbScale
 70
     0
300
1:8
140
1.0
141
8.0
290
     0
  0
SCALE
  5
109C
102
{ACAD_REACTORS
330
1096
102
}
330
1096
100
AcDbScale
 70
     0
300
1:10
140
1.0
141
10.0
290
     0
  0
SCALE
  5
109D
102
{ACAD_REACTORS
330
1096
102
}
330
1096
100
AcDbScale
 70
     0
300
1:16
140
1.0
141
16.0
290
     0
  0
SCALE
  5
109E
102
{ACAD_REACTORS
330
1096
102
}
330
1096
100
AcDbScale
 70
     0
300
1:20
140
1.0
141
20.0
290
     0
  0
SCALE
  5
109F
102
{ACAD_REACTORS
330
1096
102
}
330
1096
100
AcDbScale
 70
     0
300
1:30
140
1.0
141
30.0
290
     0
  0
SCALE
  5
10A0
102
{ACAD_REACTORS
330
1096
102
}
330
1096
100
AcDbScale
 70
     0
300
1:40
140
1.0
141
40.0
290
     0
  0
SCALE
  5
10A1
102
{ACAD_REACTORS
330
1096
102
}
330
1096
100
AcDbScale
 70
     0
300
1:50
140
1.0
141
50.0
290
     0
  0
SCALE
  5
10A2
102
{ACAD_REACTORS
330
1096
102
}
330
1096
100
AcDbScale
 70
     0
300
1:100
140
1.0
141
100.0
290
     0
  0
SCALE
  5
10A3
102
{ACAD_REACTORS
330
1096
102
}
330
1096
100
AcDbScale
 70
     0
300
2:1
140
2.0
141
1.0
290
     0
  0
SCALE
  5
10A4
102
{ACAD_REACTORS
330
1096
102
}
330
1096
100
AcDbScale
 70
     0
300
4:1
140
4.0
141
1.0
290
     0
  0
SCALE
  5
10A5
102
{ACAD_REACTORS
330
1096
102
}
330
1096
100
AcDbScale
 70
     0
300
8:1
140
8.0
141
1.0
290
     0
  0
SCALE
  5
10A6
102
{ACAD_REACTORS
330
1096
102
}
330
1096
100
AcDbScale
 70
     0
300
10:1
140
10.0
141
1.0
290
     0
  0
SCALE
  5
10A7
102
{ACAD_REACTORS
330
1096
102
}
330
1096
100
AcDbScale
 70
     0
300
100:1
140
100.0
141
1.0
290
     0
  0
TABLESTYLE
  5
EE8
102
{ACAD_XDICTIONARY
360
225F
102
}
102
{ACAD_REACTORS
330
EE7
102
}
330
EE7
100
AcDbTableStyle
  3
Standard
 70
     0
 71
     0
 40
1.5
 41
1.5
280
     0
281
     0
  7
Standard
140
4.5
170
     2
 62
     0
 63
     7
283
     0
274
    -2
284
     1
 64
     0
275
    -2
285
     1
 65
     0
276
    -2
286
     1
 66
     0
277
    -2
287
     1
 67
     0
278
    -2
288
     1
 68
     0
279
    -2
289
     1
 69
     0
  7
Standard
140
6.0
170
     5
 62
     0
 63
     7
283
     0
274
    -2
284
     1
 64
     0
275
    -2
285
     1
 65
     0
276
    -2
286
     1
 66
     0
277
    -2
287
     1
 67
     0
278
    -2
288
     1
 68
     0
279
    -2
289
     1
 69
     0
  7
Standard
140
4.5
170
     5
 62
     0
 63
     7
283
     0
274
    -2
284
     1
 64
     0
275
    -2
285
     1
 65
     0
276
    -2
286
     1
 66
     0
277
    -2
287
     1
 67
     0
278
    -2
288
     1
 68
     0
279
    -2
289
     1
 69
     0
  0
VISUALSTYLE
  5
1088
102
{ACAD_XDICTIONARY
360
2463
102
}
102
{ACAD_REACTORS
330
1082
102
}
330
1082
100
AcDbVisualStyle
  2
2dWireframe
 70
     4
 71
     0
 72
     2
 73
     0
 90
        0
 40
-0.6
 41
-30.0
 62
     5
 63
     7
 74
     1
 91
        4
 64
     7
 65
   257
 75
     1
175
     1
 42
1.0
 92
        0
 66
   257
 43
1.0
 76
     1
 77
     6
 78
     2
 67
     7
 79
     5
170
     0
171
     0
290
     0
174
     0
 93
        1
 44
0.0
173
     0
291
     0
 45
0.0
1001
ACAD
1000
AcDbSavedByObjectVersion
1070
     0
  0
VISUALSTYLE
  5
108A
102
{ACAD_XDICTIONARY
360
2467
102
}
102
{ACAD_REACTORS
330
1082
102
}
330
1082
100
AcDbVisualStyle
  2
3D Hidden
 70
     6
 71
     1
 72
     2
 73
     2
 90
        0
 40
-0.6
 41
-30.0
 62
     5
 63
     7
 74
     2
 91
        2
 64
     7
 65
   257
 75
     2
175
     1
 42
179.0
 92
        0
 66
   257
 43
1.0
 76
     1
 77
     6
 78
     2
 67
     7
 79
     3
170
     0
171
     0
290
     0
174
     0
 93
        1
 44
0.0
173
     0
291
     0
 45
0.0
1001
ACAD
1000
AcDbSavedByObjectVersion
1070
     0
  0
VISUALSTYLE
  5
1089
102
{ACAD_XDICTIONARY
360
2465
102
}
102
{ACAD_REACTORS
330
1082
102
}
330
1082
100
AcDbVisualStyle
  2
3dWireframe
 70
     5
 71
     0
 72
     2
 73
     0
 90
        0
 40
-0.6
 41
-30.0
 62
     5
 63
     7
 74
     1
 91
        4
 64
     7
 65
   257
 75
     1
175
     1
 42
1.0
 92
        0
 66
   257
 43
1.0
 76
     1
 77
     6
 78
     2
 67
     7
 79
     5
170
     0
171
     0
290
     0
174
     0
 93
        1
 44
0.0
173
     0
291
     0
 45
0.0
1001
ACAD
1000
AcDbSavedByObjectVersion
1070
     0
  0
VISUALSTYLE
  5
1087
102
{ACAD_XDICTIONARY
360
2461
102
}
102
{ACAD_REACTORS
330
1082
102
}
330
1082
100
AcDbVisualStyle
  2
Basic
 70
     7
 71
     1
 72
     0
 73
     1
 90
        0
 40
-0.6
 41
-30.0
 62
     5
 63
     7
 74
     0
 91
        4
 64
     7
 65
   257
 75
     1
175
     1
 42
1.0
 92
        8
 66
     7
 43
1.0
 76
     1
 77
     6
 78
     2
 67
     7
 79
     5
170
     0
171
     0
290
     0
174
     0
 93
        1
 44
0.0
173
     0
291
     1
 45
0.0
1001
ACAD
1000
AcDbSavedByObjectVersion
1070
     0
  0
VISUALSTYLE
  5
108E
102
{ACAD_XDICTIONARY
360
246F
102
}
102
{ACAD_REACTORS
330
1082
102
}
330
1082
100
AcDbVisualStyle
  2
Brighten
 70
    12
 71
     2
 72
     2
 73
     0
 90
        0
 40
-0.6
 41
-30.0
 62
     5
 63
     7
 74
     1
 91
        4
 64
     7
 65
   257
 75
     1
175
     1
 42
1.0
 92
        8
 66
     7
 43
1.0
 76
     1
 77
     6
 78
     2
 67
     7
 79
     5
170
     0
171
     0
290
     0
174
     0
 93
        1
 44
50.0
173
     0
291
     1
 45
0.0
1001
ACAD
1000
AcDbSavedByObjectVersion
1070
     0
  0
VISUALSTYLE
  5
1092
102
{ACAD_XDICTIONARY
360
2477
102
}
102
{ACAD_REACTORS
330
1082
102
}
330
1082
100
AcDbVisualStyle
  2
ColorChange
 70
    16
 71
     2
 72
     2
 73
     3
 90
        0
 40
-0.6
 41
-30.0
 62
     5
 63
     8
 74
     1
 91
        4
 64
     7
 65
   257
 75
     1
175
     1
 42
1.0
 92
        8
 66
     8
 43
1.0
 76
     1
 77
     6
 78
     2
 67
     7
 79
     5
170
     0
171
     0
290
     0
174
     0
 93
        1
 44
0.0
173
     0
291
     1
 45
0.0
1001
ACAD
1000
AcDbSavedByObjectVersion
1070
     0
  0
VISUALSTYLE
  5
108B
102
{ACAD_XDICTIONARY
360
2469
102
}
102
{ACAD_REACTORS
330
1082
102
}
330
1082
100
AcDbVisualStyle
  2
Conceptual
 70
     9
 71
     3
 72
     2
 73
     0
 90
        0
 40
-0.6
 41
-30.0
 62
     5
 63
     7
 74
     2
 91
        2
 64
     7
 65
   257
 75
     1
175
     1
 42
179.0
 92
        8
 66
     7
 43
1.0
 76
     1
 77
     6
 78
     2
 67
     7
 79
     3
170
     0
171
     0
290
     0
174
     0
 93
        1
 44
0.0
173
     0
291
     0
 45
0.0
1001
ACAD
1000
AcDbSavedByObjectVersion
1070
     0
  0
VISUALSTYLE
  5
108D
102
{ACAD_XDICTIONARY
360
246D
102
}
102
{ACAD_REACTORS
330
1082
102
}
330
1082
100
AcDbVisualStyle
  2
Dim
 70
    11
 71
     2
 72
     2
 73
     0
 90
        0
 40
-0.6
 41
-30.0
 62
     5
 63
     7
 74
     1
 91
        4
 64
     7
 65
   257
 75
     1
175
     1
 42
1.0
 92
        8
 66
     7
 43
1.0
 76
     1
 77
     6
 78
     2
 67
     7
 79
     5
170
     0
171
     0
290
     0
174
     0
 93
        1
 44
-50.0
173
     0
291
     1
 45
0.0
1001
ACAD
1000
AcDbSavedByObjectVersion
1070
     0
  0
VISUALSTYLE
  5
1095
102
{ACAD_XDICTIONARY
360
247D
102
}
102
{ACAD_REACTORS
330
1082
102
}
330
1082
100
AcDbVisualStyle
  2
EdgeColorOff
 70
    22
 71
     2
 72
     2
 73
     0
 90
        0
 40
-0.6
 41
-30.0
 62
     5
 63
     7
 74
     1
 91
        4
 64
     7
 65
   257
 75
     1
175
     1
 42
1.0
 92
        8
 66
     7
 43
1.0
 76
     1
 77
     6
 78
     2
 67
     7
 79
     5
170
     0
171
     0
290
     0
174
     0
 93
        1
 44
0.0
173
     0
291
     1
 45
0.0
1001
ACAD
1000
AcDbSavedByObjectVersion
1070
     0
  0
VISUALSTYLE
  5
1091
102
{ACAD_XDICTIONARY
360
2475
102
}
102
{ACAD_REACTORS
330
1082
102
}
330
1082
100
AcDbVisualStyle
  2
Facepattern
 70
    15
 71
     2
 72
     2
 73
     0
 90
        0
 40
-0.6
 41
-30.0
 62
     5
 63
     7
 74
     1
 91
        4
 64
     7
 65
   257
 75
     1
175
     1
 42
1.0
 92
        8
 66
     7
 43
1.0
 76
     1
 77
     6
 78
     2
 67
     7
 79
     5
170
     0
171
     0
290
     0
174
     0
 93
        1
 44
0.0
173
     0
291
     1
 45
0.0
1001
ACAD
1000
AcDbSavedByObjectVersion
1070
     0
  0
VISUALSTYLE
  5
1083
102
{ACAD_XDICTIONARY
360
2459
102
}
102
{ACAD_REACTORS
330
1082
102
}
330
1082
100
AcDbVisualStyle
  2
Flat
 70
     0
 71
     2
 72
     1
 73
     1
 90
        2
 40
-0.6
 41
30.0
 62
     5
 63
     7
 74
     0
 91
        4
 64
     7
 65
   257
 75
     1
175
     1
 42
1.0
 92
        8
 66
     7
 43
1.0
 76
     1
 77
     6
 78
     2
 67
     7
 79
     5
170
     0
171
     0
290
     0
174
     0
 93
       13
 44
0.0
173
     0
291
     1
 45
0.0
1001
ACAD
1000
AcDbSavedByObjectVersion
1070
     0
  0
VISUALSTYLE
  5
1084
102
{ACAD_XDICTIONARY
360
245B
102
}
102
{ACAD_REACTORS
330
1082
102
}
330
1082
100
AcDbVisualStyle
  2
FlatWithEdges
 70
     1
 71
     2
 72
     1
 73
     1
 90
        2
 40
-0.6
 41
30.0
 62
     5
 63
     7
 74
     1
 91
        4
 64
     7
 65
   257
 75
     1
175
     1
 42
1.0
 92
        0
 66
   257
 43
1.0
 76
     1
 77
     6
 78
     2
 67
     7
 79
     5
170
     0
171
     0
290
     0
174
     0
 93
       13
 44
0.0
173
     0
291
     1
 45
0.0
1001
ACAD
1000
AcDbSavedByObjectVersion
1070
     0
  0
VISUALSTYLE
  5
1085
102
{ACAD_XDICTIONARY
360
245D
102
}
102
{ACAD_REACTORS
330
1082
102
}
330
1082
100
AcDbVisualStyle
  2
Gouraud
 70
     2
 71
     2
 72
     2
 73
     1
 90
        2
 40
-0.6
 41
30.0
 62
     5
 63
     7
 74
     0
 91
        4
 64
     7
 65
   257
 75
     1
175
     1
 42
1.0
 92
        0
 66
     7
 43
1.0
 76
     1
 77
     6
 78
     2
 67
     7
 79
     5
170
     0
171
     0
290
     0
174
     0
 93
       13
 44
0.0
173
     0
291
     1
 45
0.0
1001
ACAD
1000
AcDbSavedByObjectVersion
1070
     0
  0
VISUALSTYLE
  5
1086
102
{ACAD_XDICTIONARY
360
245F
102
}
102
{ACAD_REACTORS
330
1082
102
}
330
1082
100
AcDbVisualStyle
  2
GouraudWithEdges
 70
     3
 71
     2
 72
     2
 73
     1
 90
        2
 40
-0.6
 41
30.0
 62
     5
 63
     7
 74
     1
 91
        4
 64
     7
 65
   257
 75
     1
175
     1
 42
1.0
 92
        0
 66
   257
 43
1.0
 76
     1
 77
     6
 78
     2
 67
     7
 79
     5
170
     0
171
     0
290
     0
174
     0
 93
       13
 44
0.0
173
     0
291
     1
 45
0.0
1001
ACAD
1000
AcDbSavedByObjectVersion
1070
     0
  0
VISUALSTYLE
  5
1093
102
{ACAD_XDICTIONARY
360
2479
102
}
102
{ACAD_REACTORS
330
1082
102
}
330
1082
100
AcDbVisualStyle
  2
JitterOff
 70
    20
 71
     2
 72
     2
 73
     0
 90
        0
 40
-0.6
 41
-30.0
 62
     5
 63
     7
 74
     1
 91
        4
 64
     7
 65
   257
 75
     1
175
     1
 42
1.0
 92
       10
 66
     7
 43
1.0
 76
     1
 77
     6
 78
     2
 67
     7
 79
     5
170
     0
171
     0
290
     0
174
     0
 93
        1
 44
0.0
173
     0
291
     1
 45
0.0
1001
ACAD
1000
AcDbSavedByObjectVersion
1070
     0
  0
VISUALSTYLE
  5
1090
102
{ACAD_XDICTIONARY
360
2473
102
}
102
{ACAD_REACTORS
330
1082
102
}
330
1082
100
AcDbVisualStyle
  2
Linepattern
 70
    14
 71
     2
 72
     2
 73
     0
 90
        0
 40
-0.6
 41
-30.0
 62
     5
 63
     7
 74
     1
 91
        4
 64
     7
 65
   257
 75
     7
175
     7
 42
1.0
 92
        8
 66
     7
 43
1.0
 76
     1
 77
     6
 78
     2
 67
     7
 79
     5
170
     0
171
     0
290
     0
174
     0
 93
        1
 44
0.0
173
     0
291
     1
 45
0.0
1001
ACAD
1000
AcDbSavedByObjectVersion
1070
     0
  0
VISUALSTYLE
  5
1094
102
{ACAD_XDICTIONARY
360
247B
102
}
102
{ACAD_REACTORS
330
1082
102
}
330
1082
100
AcDbVisualStyle
  2
OverhangOff
 70
    21
 71
     2
 72
     2
 73
     0
 90
        0
 40
-0.6
 41
-30.0
 62
     5
 63
     7
 74
     1
 91
        4
 64
     7
 65
   257
 75
     1
175
     1
 42
1.0
 92
        9
 66
     7
 43
1.0
 76
     1
 77
     6
 78
     2
 67
     7
 79
     5
170
     0
171
     0
290
     0
174
     0
 93
        1
 44
0.0
173
     0
291
     1
 45
0.0
1001
ACAD
1000
AcDbSavedByObjectVersion
1070
     0
  0
VISUALSTYLE
  5
108C
102
{ACAD_XDICTIONARY
360
246B
102
}
102
{ACAD_REACTORS
330
1082
102
}
330
1082
100
AcDbVisualStyle
  2
Realistic
 70
     8
 71
     2
 72
     2
 73
     0
 90
        0
 40
-0.6
 41
-30.0
 62
     5
 63
     7
 74
     1
 91
        0
 64
     7
 65
   257
 75
     1
175
     1
 42
1.0
 92
        8
 66
     8
 43
1.0
 76
     1
 77
     6
 78
     2
 67
     7
 79
     5
170
     0
171
     0
290
     0
174
     0
 93
       13
 44
0.0
173
     0
291
     0
 45
0.0
1001
ACAD
1000
AcDbSavedByObjectVersion
1070
     0
  0
VISUALSTYLE
  5
108F
102
{ACAD_XDICTIONARY
360
2471
102
}
102
{ACAD_REACTORS
330
1082
102
}
330
1082
100
AcDbVisualStyle
  2
Thicken
 70
    13
 71
     2
 72
     2
 73
     0
 90
        0
 40
-0.6
 41
-30.0
 62
     5
 63
     7
 74
     1
 91
        4
 64
     7
 65
   257
 75
     1
175
     1
 42
1.0
 92
       12
 66
     7
 43
1.0
 76
     1
 77
     6
 78
     2
 67
     7
 79
     5
170
     0
171
     0
290
     0
174
     0
 93
        1
 44
0.0
173
     0
291
     1
 45
0.0
1001
ACAD
1000
AcDbSavedByObjectVersion
1070
     0
  0
DICTIONARYVAR
  5
22A3
102
{ACAD_REACTORS
330
3D
102
}
330
3D
100
DictionaryVariables
280
     0
  1
1:1
  0
DICTIONARYVAR
  5
22A2
102
{ACAD_REACTORS
330
3D
102
}
330
3D
100
DictionaryVariables
280
     0
  1
STANDARD
  0
DICTIONARYVAR
  5
1049
102
{ACAD_REACTORS
330
3D
102
}
330
3D
100
DictionaryVariables
280
     0
  1
STANDARD
  0
DICTIONARYVAR
  5
3F
102
{ACAD_REACTORS
330
3D
102
}
330
3D
100
DictionaryVariables
280
     0
  1
2
  0
DICTIONARYVAR
  5
3E
102
{ACAD_REACTORS
330
3D
102
}
330
3D
100
DictionaryVariables
280
     0
  1
1
  0
DICTIONARYVAR
  5
22A5
102
{ACAD_REACTORS
330
3D
102
}
330
3D
100
DictionaryVariables
280
     0
  1
0
  0
DICTIONARYVAR
  5
22A4
102
{ACAD_REACTORS
330
3D
102
}
330
3D
100
DictionaryVariables
280
     0
  1
127
  0
DICTIONARYVAR
  5
2449
102
{ACAD_REACTORS
330
3D
102
}
330
3D
100
DictionaryVariables
280
     0
  1
2
  0
XRECORD
  5
1067
102
{ACAD_REACTORS
330
1066
102
}
330
1066
100
AcDbXrecord
280
     1
  0
DICTIONARY
  5
244F
330
1E
100
AcDbDictionary
280
     1
281
     1
  3
ACAD_XREC_ROUNDTRIP
360
2450
  0
DICTIONARY
  5
2453
330
26
100
AcDbDictionary
280
     1
281
     1
  3
ACAD_XREC_ROUNDTRIP
360
2454
  0
DICTIONARY
  5
2451
330
22
100
AcDbDictionary
280
     1
281
     1
  3
ACAD_XREC_ROUNDTRIP
360
2452
  0
DICTIONARY
  5
1073
330
1072
100
AcDbDictionary
280
     1
281
     1
  3
ACAD_XREC_ROUNDTRIP
360
2457
  3
BUMPTILE
360
1075
  3
DIFFUSETILE
360
1074
  3
OPACITYTILE
360
1078
  3
REFLECTIONTILE
360
1077
  3
REFRACTIONTILE
360
1079
  3
SPECULARTILE
360
1076
  0
DICTIONARY
  5
106B
330
106A
100
AcDbDictionary
280
     1
281
     1
  3
ACAD_XREC_ROUNDTRIP
360
2456
  3
BUMPTILE
360
106D
  3
DIFFUSETILE
360
106C
  3
OPACITYTILE
360
1070
  3
REFLECTIONTILE
360
106F
  3
REFRACTIONTILE
360
1071
  3
SPECULARTILE
360
106E
  0
DICTIONARY
  5
107B
330
107A
100
AcDbDictionary
280
     1
281
     1
  3
ACAD_XREC_ROUNDTRIP
360
2458
  3
BUMPTILE
360
107D
  3
DIFFUSETILE
360
107C
  3
OPACITYTILE
360
1080
  3
REFLECTIONTILE
360
107F
  3
REFRACTIONTILE
360
1081
  3
SPECULARTILE
360
107E
  0
DICTIONARY
  5
225F
330
EE8
100
AcDbDictionary
280
     1
281
     1
  3
ACAD_ROUNDTRIP_2008_TABLESTYLE_CELLSTYLEMAP
360
244A
  3
ACAD_XREC_ROUNDTRIP
360
2455
  0
DICTIONARY
  5
2463
330
1088
100
AcDbDictionary
280
     1
281
     1
  3
ACAD_XREC_ROUNDTRIP
360
2464
  0
DICTIONARY
  5
2467
330
108A
100
AcDbDictionary
280
     1
281
     1
  3
ACAD_XREC_ROUNDTRIP
360
2468
  0
DICTIONARY
  5
2465
330
1089
100
AcDbDictionary
280
     1
281
     1
  3
ACAD_XREC_ROUNDTRIP
360
2466
  0
DICTIONARY
  5
2461
330
1087
100
AcDbDictionary
280
     1
281
     1
  3
ACAD_XREC_ROUNDTRIP
360
2462
  0
DICTIONARY
  5
246F
330
108E
100
AcDbDictionary
280
     1
281
     1
  3
ACAD_XREC_ROUNDTRIP
360
2470
  0
DICTIONARY
  5
2477
330
1092
100
AcDbDictionary
280
     1
281
     1
  3
ACAD_XREC_ROUNDTRIP
360
2478
  0
DICTIONARY
  5
2469
330
108B
100
AcDbDictionary
280
     1
281
     1
  3
ACAD_XREC_ROUNDTRIP
360
246A
  0
DICTIONARY
  5
246D
330
108D
100
AcDbDictionary
280
     1
281
     1
  3
ACAD_XREC_ROUNDTRIP
360
246E
  0
DICTIONARY
  5
247D
330
1095
100
AcDbDictionary
280
     1
281
     1
  3
ACAD_XREC_ROUNDTRIP
360
247E
  0
DICTIONARY
  5
2475
330
1091
100
AcDbDictionary
280
     1
281
     1
  3
ACAD_XREC_ROUNDTRIP
360
2476
  0
DICTIONARY
  5
2459
330
1083
100
AcDbDictionary
280
     1
281
     1
  3
ACAD_XREC_ROUNDTRIP
360
245A
  0
DICTIONARY
  5
245B
330
1084
100
AcDbDictionary
280
     1
281
     1
  3
ACAD_XREC_ROUNDTRIP
360
245C
  0
DICTIONARY
  5
245D
330
1085
100
AcDbDictionary
280
     1
281
     1
  3
ACAD_XREC_ROUNDTRIP
360
245E
  0
DICTIONARY
  5
245F
330
1086
100
AcDbDictionary
280
     1
281
     1
  3
ACAD_XREC_ROUNDTRIP
360
2460
  0
DICTIONARY
  5
2479
330
1093
100
AcDbDictionary
280
     1
281
     1
  3
ACAD_XREC_ROUNDTRIP
360
247A
  0
DICTIONARY
  5
2473
330
1090
100
AcDbDictionary
280
     1
281
     1
  3
ACAD_XREC_ROUNDTRIP
360
2474
  0
DICTIONARY
  5
247B
330
1094
100
AcDbDictionary
280
     1
281
     1
  3
ACAD_XREC_ROUNDTRIP
360
247C
  0
DICTIONARY
  5
246B
330
108C
100
AcDbDictionary
280
     1
281
     1
  3
ACAD_XREC_ROUNDTRIP
360
246C
  0
DICTIONARY
  5
2471
330
108F
100
AcDbDictionary
280
     1
281
     1
  3
ACAD_XREC_ROUNDTRIP
360
2472
  0
XRECORD
  5
2450
102
{ACAD_REACTORS
330
244F
102
}
330
244F
100
AcDbXrecord
280
     1
102
SHADEPLOT
 70
     0
102
SHADEPLOTRESLEVEL
 70
     2
102
SHADEPLOTCUSTOMDPI
 70
   300
  0
XRECORD
  5
2454
102
{ACAD_REACTORS
330
2453
102
}
330
2453
100
AcDbXrecord
280
     1
102
SHADEPLOT
 70
     0
102
SHADEPLOTRESLEVEL
 70
     2
102
SHADEPLOTCUSTOMDPI
 70
   300
  0
XRECORD
  5
2452
102
{ACAD_REACTORS
330
2451
102
}
330
2451
100
AcDbXrecord
280
     1
102
SHADEPLOT
 70
     0
102
SHADEPLOTRESLEVEL
 70
     2
102
SHADEPLOTCUSTOMDPI
 70
   300
  0
XRECORD
  5
2457
102
{ACAD_REACTORS
330
1073
102
}
330
1073
100
AcDbXrecord
280
     1
102
MATERIAL
148
0.0
149
0.0
149
0.0
 93
        0
 94
      127
282
     0
 72
     0
 77
     0
171
     0
175
     0
179
     0
273
     0
  0
XRECORD
  5
1075
102
{ACAD_REACTORS
330
1073
102
}
330
1073
100
AcDbXrecord
280
     1
270
     1
271
     1
  0
XRECORD
  5
1074
102
{ACAD_REACTORS
330
1073
102
}
330
1073
100
AcDbXrecord
280
     1
270
     1
271
     1
  0
XRECORD
  5
1078
102
{ACAD_REACTORS
330
1073
102
}
330
1073
100
AcDbXrecord
280
     1
270
     1
271
     1
  0
XRECORD
  5
1077
102
{ACAD_REACTORS
330
1073
102
}
330
1073
100
AcDbXrecord
280
     1
270
     1
271
     1
  0
XRECORD
  5
1079
102
{ACAD_REACTORS
330
1073
102
}
330
1073
100
AcDbXrecord
280
     1
270
     1
271
     1
  0
XRECORD
  5
1076
102
{ACAD_REACTORS
330
1073
102
}
330
1073
100
AcDbXrecord
280
     1
270
     1
271
     1
  0
XRECORD
  5
2456
102
{ACAD_REACTORS
330
106B
102
}
330
106B
100
AcDbXrecord
280
     1
102
MATERIAL
148
0.0
149
0.0
149
0.0
 93
        0
 94
      127
282
     0
 72
     0
 77
     0
171
     0
175
     0
179
     0
273
     0
  0
XRECORD
  5
106D
102
{ACAD_REACTORS
330
106B
102
}
330
106B
100
AcDbXrecord
280
     1
270
     1
271
     1
  0
XRECORD
  5
106C
102
{ACAD_REACTORS
330
106B
102
}
330
106B
100
AcDbXrecord
280
     1
270
     1
271
     1
  0
XRECORD
  5
1070
102
{ACAD_REACTORS
330
106B
102
}
330
106B
100
AcDbXrecord
280
     1
270
     1
271
     1
  0
XRECORD
  5
106F
102
{ACAD_REACTORS
330
106B
102
}
330
106B
100
AcDbXrecord
280
     1
270
     1
271
     1
  0
XRECORD
  5
1071
102
{ACAD_REACTORS
330
106B
102
}
330
106B
100
AcDbXrecord
280
     1
270
     1
271
     1
  0
XRECORD
  5
106E
102
{ACAD_REACTORS
330
106B
102
}
330
106B
100
AcDbXrecord
280
     1
270
     1
271
     1
  0
XRECORD
  5
2458
102
{ACAD_REACTORS
330
107B
102
}
330
107B
100
AcDbXrecord
280
     1
102
MATERIAL
148
0.0
149
0.0
149
0.0
 93
        0
 94
      127
282
     0
 72
     0
 77
     0
171
     0
175
     0
179
     0
273
     0
  0
XRECORD
  5
107D
102
{ACAD_REACTORS
330
107B
102
}
330
107B
100
AcDbXrecord
280
     1
270
     1
271
     1
  0
XRECORD
  5
107C
102
{ACAD_REACTORS
330
107B
102
}
330
107B
100
AcDbXrecord
280
     1
270
     1
271
     1
  0
XRECORD
  5
1080
102
{ACAD_REACTORS
330
107B
102
}
330
107B
100
AcDbXrecord
280
     1
270
     1
271
     1
  0
XRECORD
  5
107F
102
{ACAD_REACTORS
330
107B
102
}
330
107B
100
AcDbXrecord
280
     1
270
     1
271
     1
  0
XRECORD
  5
1081
102
{ACAD_REACTORS
330
107B
102
}
330
107B
100
AcDbXrecord
280
     1
270
     1
271
     1
  0
XRECORD
  5
107E
102
{ACAD_REACTORS
330
107B
102
}
330
107B
100
AcDbXrecord
280
     1
270
     1
271
     1
  0
CELLSTYLEMAP
  5
244A
102
{ACAD_REACTORS
330
225F
102
}
330
225F
100
AcDbCellStyleMap
 90
        3
300
CELLSTYLE
  1
TABLEFORMAT_BEGIN
 90
        5
170
     1
 91
        0
 92
    32768
 62
   257
 93
        1
300
CONTENTFORMAT
  1
CONTENTFORMAT_BEGIN
 90
        0
 91
        0
 92
        4
 93
        0
300

 40
0.0
140
1.0
 94
        5
 62
     0
340
11
144
6.0
309
CONTENTFORMAT_END
171
     1
301
MARGIN
  1
CELLMARGIN_BEGIN
 40
1.5
 40
1.5
 40
1.5
 40
1.5
 40
0.18
 40
0.18
309
CELLMARGIN_END
 94
        6
 95
        1
302
GRIDFORMAT
  1
GRIDFORMAT_BEGIN
 90
        0
 91
        1
 62
     0
 92
       -2
340
0
 93
        0
 40
0.045
309
GRIDFORMAT_END
 95
        2
302
GRIDFORMAT
  1
GRIDFORMAT_BEGIN
 90
        0
 91
        1
 62
     0
 92
       -2
340
0
 93
        0
 40
0.045
309
GRIDFORMAT_END
 95
        4
302
GRIDFORMAT
  1
GRIDFORMAT_BEGIN
 90
        0
 91
        1
 62
     0
 92
       -2
340
0
 93
        0
 40
0.045
309
GRIDFORMAT_END
 95
        8
302
GRIDFORMAT
  1
GRIDFORMAT_BEGIN
 90
        0
 91
        1
 62
     0
 92
       -2
340
0
 93
        0
 40
0.045
309
GRIDFORMAT_END
 95
       16
302
GRIDFORMAT
  1
GRIDFORMAT_BEGIN
 90
        0
 91
        1
 62
     0
 92
       -2
340
0
 93
        0
 40
0.045
309
GRIDFORMAT_END
 95
       32
302
GRIDFORMAT
  1
GRIDFORMAT_BEGIN
 90
        0
 91
        1
 62
     0
 92
       -2
340
0
 93
        0
 40
0.045
309
GRIDFORMAT_END
309
TABLEFORMAT_END
  1
CELLSTYLE_BEGIN
 90
        1
 91
        1
300
_TITLE
309
CELLSTYLE_END
300
CELLSTYLE
  1
TABLEFORMAT_BEGIN
 90
        5
170
     1
 91
        0
 92
        0
 62
   257
 93
        1
300
CONTENTFORMAT
  1
CONTENTFORMAT_BEGIN
 90
        0
 91
        0
 92
        4
 93
        0
300

 40
0.0
140
1.0
 94
        5
 62
     0
340
11
144
4.5
309
CONTENTFORMAT_END
171
     1
301
MARGIN
  1
CELLMARGIN_BEGIN
 40
1.5
 40
1.5
 40
1.5
 40
1.5
 40
0.18
 40
0.18
309
CELLMARGIN_END
 94
        6
 95
        1
302
GRIDFORMAT
  1
GRIDFORMAT_BEGIN
 90
        0
 91
        1
 62
     0
 92
       -2
340
0
 93
        0
 40
0.045
309
GRIDFORMAT_END
 95
        2
302
GRIDFORMAT
  1
GRIDFORMAT_BEGIN
 90
        0
 91
        1
 62
     0
 92
       -2
340
0
 93
        0
 40
0.045
309
GRIDFORMAT_END
 95
        4
302
GRIDFORMAT
  1
GRIDFORMAT_BEGIN
 90
        0
 91
        1
 62
     0
 92
       -2
340
0
 93
        0
 40
0.045
309
GRIDFORMAT_END
 95
        8
302
GRIDFORMAT
  1
GRIDFORMAT_BEGIN
 90
        0
 91
        1
 62
     0
 92
       -2
340
0
 93
        0
 40
0.045
309
GRIDFORMAT_END
 95
       16
302
GRIDFORMAT
  1
GRIDFORMAT_BEGIN
 90
        0
 91
        1
 62
     0
 92
       -2
340
0
 93
        0
 40
0.045
309
GRIDFORMAT_END
 95
       32
302
GRIDFORMAT
  1
GRIDFORMAT_BEGIN
 90
        0
 91
        1
 62
     0
 92
       -2
340
0
 93
        0
 40
0.045
309
GRIDFORMAT_END
309
TABLEFORMAT_END
  1
CELLSTYLE_BEGIN
 90
        2
 91
        1
300
_HEADER
309
CELLSTYLE_END
300
CELLSTYLE
  1
TABLEFORMAT_BEGIN
 90
        5
170
     1
 91
        0
 92
        0
 62
   257
 93
        1
300
CONTENTFORMAT
  1
CONTENTFORMAT_BEGIN
 90
        0
 91
        0
 92
        4
 93
        0
300

 40
0.0
140
1.0
 94
        2
 62
     0
340
11
144
4.5
309
CONTENTFORMAT_END
171
     1
301
MARGIN
  1
CELLMARGIN_BEGIN
 40
1.5
 40
1.5
 40
1.5
 40
1.5
 40
0.18
 40
0.18
309
CELLMARGIN_END
 94
        6
 95
        1
302
GRIDFORMAT
  1
GRIDFORMAT_BEGIN
 90
        0
 91
        1
 62
     0
 92
       -2
340
0
 93
        0
 40
0.045
309
GRIDFORMAT_END
 95
        2
302
GRIDFORMAT
  1
GRIDFORMAT_BEGIN
 90
        0
 91
        1
 62
     0
 92
       -2
340
0
 93
        0
 40
0.045
309
GRIDFORMAT_END
 95
        4
302
GRIDFORMAT
  1
GRIDFORMAT_BEGIN
 90
        0
 91
        1
 62
     0
 92
       -2
340
0
 93
        0
 40
0.045
309
GRIDFORMAT_END
 95
        8
302
GRIDFORMAT
  1
GRIDFORMAT_BEGIN
 90
        0
 91
        1
 62
     0
 92
       -2
340
0
 93
        0
 40
0.045
309
GRIDFORMAT_END
 95
       16
302
GRIDFORMAT
  1
GRIDFORMAT_BEGIN
 90
        0
 91
        1
 62
     0
 92
       -2
340
0
 93
        0
 40
0.045
309
GRIDFORMAT_END
 95
       32
302
GRIDFORMAT
  1
GRIDFORMAT_BEGIN
 90
        0
 91
        1
 62
     0
 92
       -2
340
0
 93
        0
 40
0.045
309
GRIDFORMAT_END
309
TABLEFORMAT_END
  1
CELLSTYLE_BEGIN
 90
        3
 91
        2
300
_DATA
309
CELLSTYLE_END
  0
XRECORD
  5
2455
102
{ACAD_REACTORS
330
225F
102
}
330
225F
100
AcDbXrecord
280
     1
102
ACAD_ROUNDTRIP_PRE2007_TABLESTYLE
 90
        4
 91
        0
  1

 92
        4
 93
        0
  2

 94
        4
 95
        0
  3

  0
XRECORD
  5
2464
102
{ACAD_REACTORS
330
2463
102
}
330
2463
100
AcDbXrecord
280
     1
102
RTVSPropertyOp0
 70
     1
102
RTVSPropertyOp1
 70
     1
102
RTVSPropertyOp2
 70
     1
102
RTVSPropertyOp3
 70
     1
102
RTVSPropertyOp4
 70
     1
102
RTVSPropertyOp5
 70
     1
102
RTVSPropertyOp6
 70
     1
102
RTVSPropertyOp7
 70
     1
102
RTVSPropertyOp8
 70
     1
102
RTVSPropertyOp9
 70
     1
102
RTVSPropertyOp10
 70
     1
102
RTVSPropertyOp11
 70
     1
102
RTVSPropertyOp12
 70
     1
102
RTVSPropertyOp13
 70
     1
102
RTVSPropertyOp14
 70
     1
102
RTVSPropertyOp15
 70
     1
102
RTVSPropertyOp16
 70
     1
102
RTVSPropertyOp17
 70
     1
102
RTVSPropertyOp18
 70
     1
102
RTVSPropertyOp19
 70
     1
102
RTVSPropertyOp20
 70
     1
102
RTVSPropertyOp21
 70
     1
102
RTVSPropertyOp22
 70
     1
102
RTVSPropertyOp23
 70
     1
102
RTVSPropertyOp24
 70
     1
102
RTVSPropertyOp25
 70
     1
102
RTVSPropertyOp26
 70
     1
102
RTVSPropertyOp27
 70
     1
  0
XRECORD
  5
2468
102
{ACAD_REACTORS
330
2467
102
}
330
2467
100
AcDbXrecord
280
     1
102
RTVSPropertyOp0
 70
     1
102
RTVSPropertyOp1
 70
     1
102
RTVSPropertyOp2
 70
     1
102
RTVSPropertyOp3
 70
     1
102
RTVSPropertyOp4
 70
     1
102
RTVSPropertyOp5
 70
     1
102
RTVSPropertyOp6
 70
     1
102
RTVSPropertyOp7
 70
     1
102
RTVSPropertyOp8
 70
     1
102
RTVSPropertyOp9
 70
     1
102
RTVSPropertyOp10
 70
     1
102
RTVSPropertyOp11
 70
     1
102
RTVSPropertyOp12
 70
     1
102
RTVSPropertyOp13
 70
     1
102
RTVSPropertyOp14
 70
     1
102
RTVSPropertyOp15
 70
     1
102
RTVSPropertyOp16
 70
     1
102
RTVSPropertyOp17
 70
     1
102
RTVSPropertyOp18
 70
     1
102
RTVSPropertyOp19
 70
     1
102
RTVSPropertyOp20
 70
     1
102
RTVSPropertyOp21
 70
     1
102
RTVSPropertyOp22
 70
     1
102
RTVSPropertyOp23
 70
     1
102
RTVSPropertyOp24
 70
     1
102
RTVSPropertyOp25
 70
     1
102
RTVSPropertyOp26
 70
     1
102
RTVSPropertyOp27
 70
     1
  0
XRECORD
  5
2466
102
{ACAD_REACTORS
330
2465
102
}
330
2465
100
AcDbXrecord
280
     1
102
RTVSPropertyOp0
 70
     1
102
RTVSPropertyOp1
 70
     1
102
RTVSPropertyOp2
 70
     1
102
RTVSPropertyOp3
 70
     1
102
RTVSPropertyOp4
 70
     1
102
RTVSPropertyOp5
 70
     1
102
RTVSPropertyOp6
 70
     1
102
RTVSPropertyOp7
 70
     1
102
RTVSPropertyOp8
 70
     1
102
RTVSPropertyOp9
 70
     1
102
RTVSPropertyOp10
 70
     1
102
RTVSPropertyOp11
 70
     1
102
RTVSPropertyOp12
 70
     1
102
RTVSPropertyOp13
 70
     1
102
RTVSPropertyOp14
 70
     1
102
RTVSPropertyOp15
 70
     1
102
RTVSPropertyOp16
 70
     1
102
RTVSPropertyOp17
 70
     1
102
RTVSPropertyOp18
 70
     1
102
RTVSPropertyOp19
 70
     1
102
RTVSPropertyOp20
 70
     1
102
RTVSPropertyOp21
 70
     1
102
RTVSPropertyOp22
 70
     1
102
RTVSPropertyOp23
 70
     1
102
RTVSPropertyOp24
 70
     1
102
RTVSPropertyOp25
 70
     1
102
RTVSPropertyOp26
 70
     1
102
RTVSPropertyOp27
 70
     1
  0
XRECORD
  5
2462
102
{ACAD_REACTORS
330
2461
102
}
330
2461
100
AcDbXrecord
280
     1
102
RTVSPropertyOp0
 70
     1
102
RTVSPropertyOp1
 70
     1
102
RTVSPropertyOp2
 70
     1
102
RTVSPropertyOp3
 70
     1
102
RTVSPropertyOp4
 70
     1
102
RTVSPropertyOp5
 70
     1
102
RTVSPropertyOp6
 70
     1
102
RTVSPropertyOp7
 70
     1
102
RTVSPropertyOp8
 70
     1
102
RTVSPropertyOp9
 70
     1
102
RTVSPropertyOp10
 70
     1
102
RTVSPropertyOp11
 70
     1
102
RTVSPropertyOp12
 70
     1
102
RTVSPropertyOp13
 70
     1
102
RTVSPropertyOp14
 70
     1
102
RTVSPropertyOp15
 70
     1
102
RTVSPropertyOp16
 70
     1
102
RTVSPropertyOp17
 70
     1
102
RTVSPropertyOp18
 70
     1
102
RTVSPropertyOp19
 70
     1
102
RTVSPropertyOp20
 70
     1
102
RTVSPropertyOp21
 70
     1
102
RTVSPropertyOp22
 70
     1
102
RTVSPropertyOp23
 70
     1
102
RTVSPropertyOp24
 70
     1
102
RTVSPropertyOp25
 70
     1
102
RTVSPropertyOp26
 70
     1
102
RTVSPropertyOp27
 70
     1
  0
XRECORD
  5
2470
102
{ACAD_REACTORS
330
246F
102
}
330
246F
100
AcDbXrecord
280
     1
102
RTVSPropertyOp0
 70
     1
102
RTVSPropertyOp1
 70
     1
102
RTVSPropertyOp2
 70
     1
102
RTVSPropertyOp3
 70
     1
102
RTVSPropertyOp4
 70
     1
102
RTVSPropertyOp5
 70
     1
102
RTVSPropertyOp6
 70
     1
102
RTVSPropertyOp7
 70
     1
102
RTVSPropertyOp8
 70
     1
102
RTVSPropertyOp9
 70
     1
102
RTVSPropertyOp10
 70
     1
102
RTVSPropertyOp11
 70
     1
102
RTVSPropertyOp12
 70
     1
102
RTVSPropertyOp13
 70
     1
102
RTVSPropertyOp14
 70
     1
102
RTVSPropertyOp15
 70
     1
102
RTVSPropertyOp16
 70
     1
102
RTVSPropertyOp17
 70
     1
102
RTVSPropertyOp18
 70
     1
102
RTVSPropertyOp19
 70
     1
102
RTVSPropertyOp20
 70
     1
102
RTVSPropertyOp21
 70
     1
102
RTVSPropertyOp22
 70
     1
102
RTVSPropertyOp23
 70
     1
102
RTVSPropertyOp24
 70
     1
102
RTVSPropertyOp25
 70
     1
102
RTVSPropertyOp26
 70
     1
102
RTVSPropertyOp27
 70
     1
  0
XRECORD
  5
2478
102
{ACAD_REACTORS
330
2477
102
}
330
2477
100
AcDbXrecord
280
     1
102
RTVSPropertyOp0
 70
     1
102
RTVSPropertyOp1
 70
     1
102
RTVSPropertyOp2
 70
     1
102
RTVSPropertyOp3
 70
     1
102
RTVSPropertyOp4
 70
     1
102
RTVSPropertyOp5
 70
     1
102
RTVSPropertyOp6
 70
     1
102
RTVSPropertyOp7
 70
     1
102
RTVSPropertyOp8
 70
     1
102
RTVSPropertyOp9
 70
     1
102
RTVSPropertyOp10
 70
     1
102
RTVSPropertyOp11
 70
     1
102
RTVSPropertyOp12
 70
     1
102
RTVSPropertyOp13
 70
     1
102
RTVSPropertyOp14
 70
     1
102
RTVSPropertyOp15
 70
     1
102
RTVSPropertyOp16
 70
     1
102
RTVSPropertyOp17
 70
     1
102
RTVSPropertyOp18
 70
     1
102
RTVSPropertyOp19
 70
     1
102
RTVSPropertyOp20
 70
     1
102
RTVSPropertyOp21
 70
     1
102
RTVSPropertyOp22
 70
     1
102
RTVSPropertyOp23
 70
     1
102
RTVSPropertyOp24
 70
     1
102
RTVSPropertyOp25
 70
     1
102
RTVSPropertyOp26
 70
     1
102
RTVSPropertyOp27
 70
     1
  0
XRECORD
  5
246A
102
{ACAD_REACTORS
330
2469
102
}
330
2469
100
AcDbXrecord
280
     1
102
RTVSPropertyOp0
 70
     1
102
RTVSPropertyOp1
 70
     1
102
RTVSPropertyOp2
 70
     1
102
RTVSPropertyOp3
 70
     1
102
RTVSPropertyOp4
 70
     1
102
RTVSPropertyOp5
 70
     1
102
RTVSPropertyOp6
 70
     1
102
RTVSPropertyOp7
 70
     1
102
RTVSPropertyOp8
 70
     1
102
RTVSPropertyOp9
 70
     1
102
RTVSPropertyOp10
 70
     1
102
RTVSPropertyOp11
 70
     1
102
RTVSPropertyOp12
 70
     1
102
RTVSPropertyOp13
 70
     1
102
RTVSPropertyOp14
 70
     1
102
RTVSPropertyOp15
 70
     1
102
RTVSPropertyOp16
 70
     1
102
RTVSPropertyOp17
 70
     1
102
RTVSPropertyOp18
 70
     1
102
RTVSPropertyOp19
 70
     1
102
RTVSPropertyOp20
 70
     1
102
RTVSPropertyOp21
 70
     1
102
RTVSPropertyOp22
 70
     1
102
RTVSPropertyOp23
 70
     1
102
RTVSPropertyOp24
 70
     1
102
RTVSPropertyOp25
 70
     1
102
RTVSPropertyOp26
 70
     1
102
RTVSPropertyOp27
 70
     1
  0
XRECORD
  5
246E
102
{ACAD_REACTORS
330
246D
102
}
330
246D
100
AcDbXrecord
280
     1
102
RTVSPropertyOp0
 70
     1
102
RTVSPropertyOp1
 70
     1
102
RTVSPropertyOp2
 70
     1
102
RTVSPropertyOp3
 70
     1
102
RTVSPropertyOp4
 70
     1
102
RTVSPropertyOp5
 70
     1
102
RTVSPropertyOp6
 70
     1
102
RTVSPropertyOp7
 70
     1
102
RTVSPropertyOp8
 70
     1
102
RTVSPropertyOp9
 70
     1
102
RTVSPropertyOp10
 70
     1
102
RTVSPropertyOp11
 70
     1
102
RTVSPropertyOp12
 70
     1
102
RTVSPropertyOp13
 70
     1
102
RTVSPropertyOp14
 70
     1
102
RTVSPropertyOp15
 70
     1
102
RTVSPropertyOp16
 70
     1
102
RTVSPropertyOp17
 70
     1
102
RTVSPropertyOp18
 70
     1
102
RTVSPropertyOp19
 70
     1
102
RTVSPropertyOp20
 70
     1
102
RTVSPropertyOp21
 70
     1
102
RTVSPropertyOp22
 70
     1
102
RTVSPropertyOp23
 70
     1
102
RTVSPropertyOp24
 70
     1
102
RTVSPropertyOp25
 70
     1
102
RTVSPropertyOp26
 70
     1
102
RTVSPropertyOp27
 70
     1
  0
XRECORD
  5
247E
102
{ACAD_REACTORS
330
247D
102
}
330
247D
100
AcDbXrecord
280
     1
102
RTVSPropertyOp0
 70
     0
102
RTVSPropertyOp1
 70
     0
102
RTVSPropertyOp2
 70
     0
102
RTVSPropertyOp3
 70
     0
102
RTVSPropertyOp4
 70
     0
102
RTVSPropertyOp5
 70
     0
102
RTVSPropertyOp6
 70
     0
102
RTVSPropertyOp7
 70
     0
102
RTVSPropertyOp8
 70
     0
102
RTVSPropertyOp9
 70
     0
102
RTVSPropertyOp10
 70
     0
102
RTVSPropertyOp11
 70
     0
102
RTVSPropertyOp12
 70
     0
102
RTVSPropertyOp13
 70
     0
102
RTVSPropertyOp14
 70
     2
102
RTVSPropertyOp15
 70
     0
102
RTVSPropertyOp16
 70
     0
102
RTVSPropertyOp17
 70
     0
102
RTVSPropertyOp18
 70
     0
102
RTVSPropertyOp19
 70
     0
102
RTVSPropertyOp20
 70
     0
102
RTVSPropertyOp21
 70
     0
102
RTVSPropertyOp22
 70
     0
102
RTVSPropertyOp23
 70
     0
102
RTVSPropertyOp24
 70
     0
102
RTVSPropertyOp25
 70
     0
102
RTVSPropertyOp26
 70
     0
102
RTVSPropertyOp27
 70
     0
  0
XRECORD
  5
2476
102
{ACAD_REACTORS
330
2475
102
}
330
2475
100
AcDbXrecord
280
     1
102
RTVSPropertyOp0
 70
     1
102
RTVSPropertyOp1
 70
     1
102
RTVSPropertyOp2
 70
     1
102
RTVSPropertyOp3
 70
     1
102
RTVSPropertyOp4
 70
     1
102
RTVSPropertyOp5
 70
     1
102
RTVSPropertyOp6
 70
     1
102
RTVSPropertyOp7
 70
     1
102
RTVSPropertyOp8
 70
     1
102
RTVSPropertyOp9
 70
     1
102
RTVSPropertyOp10
 70
     1
102
RTVSPropertyOp11
 70
     1
102
RTVSPropertyOp12
 70
     1
102
RTVSPropertyOp13
 70
     1
102
RTVSPropertyOp14
 70
     1
102
RTVSPropertyOp15
 70
     1
102
RTVSPropertyOp16
 70
     1
102
RTVSPropertyOp17
 70
     1
102
RTVSPropertyOp18
 70
     1
102
RTVSPropertyOp19
 70
     1
102
RTVSPropertyOp20
 70
     1
102
RTVSPropertyOp21
 70
     1
102
RTVSPropertyOp22
 70
     1
102
RTVSPropertyOp23
 70
     1
102
RTVSPropertyOp24
 70
     1
102
RTVSPropertyOp25
 70
     1
102
RTVSPropertyOp26
 70
     1
102
RTVSPropertyOp27
 70
     1
  0
XRECORD
  5
245A
102
{ACAD_REACTORS
330
2459
102
}
330
2459
100
AcDbXrecord
280
     1
102
RTVSPropertyOp0
 70
     1
102
RTVSPropertyOp1
 70
     1
102
RTVSPropertyOp2
 70
     1
102
RTVSPropertyOp3
 70
     1
102
RTVSPropertyOp4
 70
     1
102
RTVSPropertyOp5
 70
     1
102
RTVSPropertyOp6
 70
     1
102
RTVSPropertyOp7
 70
     1
102
RTVSPropertyOp8
 70
     1
102
RTVSPropertyOp9
 70
     1
102
RTVSPropertyOp10
 70
     1
102
RTVSPropertyOp11
 70
     1
102
RTVSPropertyOp12
 70
     1
102
RTVSPropertyOp13
 70
     1
102
RTVSPropertyOp14
 70
     1
102
RTVSPropertyOp15
 70
     1
102
RTVSPropertyOp16
 70
     1
102
RTVSPropertyOp17
 70
     1
102
RTVSPropertyOp18
 70
     1
102
RTVSPropertyOp19
 70
     1
102
RTVSPropertyOp20
 70
     1
102
RTVSPropertyOp21
 70
     1
102
RTVSPropertyOp22
 70
     1
102
RTVSPropertyOp23
 70
     1
102
RTVSPropertyOp24
 70
     1
102
RTVSPropertyOp25
 70
     1
102
RTVSPropertyOp26
 70
     1
102
RTVSPropertyOp27
 70
     1
  0
XRECORD
  5
245C
102
{ACAD_REACTORS
330
245B
102
}
330
245B
100
AcDbXrecord
280
     1
102
RTVSPropertyOp0
 70
     1
102
RTVSPropertyOp1
 70
     1
102
RTVSPropertyOp2
 70
     1
102
RTVSPropertyOp3
 70
     1
102
RTVSPropertyOp4
 70
     1
102
RTVSPropertyOp5
 70
     1
102
RTVSPropertyOp6
 70
     1
102
RTVSPropertyOp7
 70
     1
102
RTVSPropertyOp8
 70
     1
102
RTVSPropertyOp9
 70
     1
102
RTVSPropertyOp10
 70
     1
102
RTVSPropertyOp11
 70
     1
102
RTVSPropertyOp12
 70
     1
102
RTVSPropertyOp13
 70
     1
102
RTVSPropertyOp14
 70
     1
102
RTVSPropertyOp15
 70
     1
102
RTVSPropertyOp16
 70
     1
102
RTVSPropertyOp17
 70
     1
102
RTVSPropertyOp18
 70
     1
102
RTVSPropertyOp19
 70
     1
102
RTVSPropertyOp20
 70
     1
102
RTVSPropertyOp21
 70
     1
102
RTVSPropertyOp22
 70
     1
102
RTVSPropertyOp23
 70
     1
102
RTVSPropertyOp24
 70
     1
102
RTVSPropertyOp25
 70
     1
102
RTVSPropertyOp26
 70
     1
102
RTVSPropertyOp27
 70
     1
  0
XRECORD
  5
245E
102
{ACAD_REACTORS
330
245D
102
}
330
245D
100
AcDbXrecord
280
     1
102
RTVSPropertyOp0
 70
     1
102
RTVSPropertyOp1
 70
     1
102
RTVSPropertyOp2
 70
     1
102
RTVSPropertyOp3
 70
     1
102
RTVSPropertyOp4
 70
     1
102
RTVSPropertyOp5
 70
     1
102
RTVSPropertyOp6
 70
     1
102
RTVSPropertyOp7
 70
     1
102
RTVSPropertyOp8
 70
     1
102
RTVSPropertyOp9
 70
     1
102
RTVSPropertyOp10
 70
     1
102
RTVSPropertyOp11
 70
     1
102
RTVSPropertyOp12
 70
     1
102
RTVSPropertyOp13
 70
     1
102
RTVSPropertyOp14
 70
     1
102
RTVSPropertyOp15
 70
     1
102
RTVSPropertyOp16
 70
     1
102
RTVSPropertyOp17
 70
     1
102
RTVSPropertyOp18
 70
     1
102
RTVSPropertyOp19
 70
     1
102
RTVSPropertyOp20
 70
     1
102
RTVSPropertyOp21
 70
     1
102
RTVSPropertyOp22
 70
     1
102
RTVSPropertyOp23
 70
     1
102
RTVSPropertyOp24
 70
     1
102
RTVSPropertyOp25
 70
     1
102
RTVSPropertyOp26
 70
     1
102
RTVSPropertyOp27
 70
     1
  0
XRECORD
  5
2460
102
{ACAD_REACTORS
330
245F
102
}
330
245F
100
AcDbXrecord
280
     1
102
RTVSPropertyOp0
 70
     1
102
RTVSPropertyOp1
 70
     1
102
RTVSPropertyOp2
 70
     1
102
RTVSPropertyOp3
 70
     1
102
RTVSPropertyOp4
 70
     1
102
RTVSPropertyOp5
 70
     1
102
RTVSPropertyOp6
 70
     1
102
RTVSPropertyOp7
 70
     1
102
RTVSPropertyOp8
 70
     1
102
RTVSPropertyOp9
 70
     1
102
RTVSPropertyOp10
 70
     1
102
RTVSPropertyOp11
 70
     1
102
RTVSPropertyOp12
 70
     1
102
RTVSPropertyOp13
 70
     1
102
RTVSPropertyOp14
 70
     1
102
RTVSPropertyOp15
 70
     1
102
RTVSPropertyOp16
 70
     1
102
RTVSPropertyOp17
 70
     1
102
RTVSPropertyOp18
 70
     1
102
RTVSPropertyOp19
 70
     1
102
RTVSPropertyOp20
 70
     1
102
RTVSPropertyOp21
 70
     1
102
RTVSPropertyOp22
 70
     1
102
RTVSPropertyOp23
 70
     1
102
RTVSPropertyOp24
 70
     1
102
RTVSPropertyOp25
 70
     1
102
RTVSPropertyOp26
 70
     1
102
RTVSPropertyOp27
 70
     1
  0
XRECORD
  5
247A
102
{ACAD_REACTORS
330
2479
102
}
330
2479
100
AcDbXrecord
280
     1
102
RTVSPropertyOp0
 70
     0
102
RTVSPropertyOp1
 70
     0
102
RTVSPropertyOp2
 70
     0
102
RTVSPropertyOp3
 70
     0
102
RTVSPropertyOp4
 70
     0
102
RTVSPropertyOp5
 70
     0
102
RTVSPropertyOp6
 70
     0
102
RTVSPropertyOp7
 70
     0
102
RTVSPropertyOp8
 70
     0
102
RTVSPropertyOp9
 70
     0
102
RTVSPropertyOp10
 70
     0
102
RTVSPropertyOp11
 70
     0
102
RTVSPropertyOp12
 70
     0
102
RTVSPropertyOp13
 70
     0
102
RTVSPropertyOp14
 70
     2
102
RTVSPropertyOp15
 70
     0
102
RTVSPropertyOp16
 70
     0
102
RTVSPropertyOp17
 70
     0
102
RTVSPropertyOp18
 70
     0
102
RTVSPropertyOp19
 70
     0
102
RTVSPropertyOp20
 70
     0
102
RTVSPropertyOp21
 70
     0
102
RTVSPropertyOp22
 70
     0
102
RTVSPropertyOp23
 70
     0
102
RTVSPropertyOp24
 70
     0
102
RTVSPropertyOp25
 70
     0
102
RTVSPropertyOp26
 70
     0
102
RTVSPropertyOp27
 70
     0
  0
XRECORD
  5
2474
102
{ACAD_REACTORS
330
2473
102
}
330
2473
100
AcDbXrecord
280
     1
102
RTVSPropertyOp0
 70
     1
102
RTVSPropertyOp1
 70
     1
102
RTVSPropertyOp2
 70
     1
102
RTVSPropertyOp3
 70
     1
102
RTVSPropertyOp4
 70
     1
102
RTVSPropertyOp5
 70
     1
102
RTVSPropertyOp6
 70
     1
102
RTVSPropertyOp7
 70
     1
102
RTVSPropertyOp8
 70
     1
102
RTVSPropertyOp9
 70
     1
102
RTVSPropertyOp10
 70
     1
102
RTVSPropertyOp11
 70
     1
102
RTVSPropertyOp12
 70
     1
102
RTVSPropertyOp13
 70
     1
102
RTVSPropertyOp14
 70
     1
102
RTVSPropertyOp15
 70
     1
102
RTVSPropertyOp16
 70
     1
102
RTVSPropertyOp17
 70
     1
102
RTVSPropertyOp18
 70
     1
102
RTVSPropertyOp19
 70
     1
102
RTVSPropertyOp20
 70
     1
102
RTVSPropertyOp21
 70
     1
102
RTVSPropertyOp22
 70
     1
102
RTVSPropertyOp23
 70
     1
102
RTVSPropertyOp24
 70
     1
102
RTVSPropertyOp25
 70
     1
102
RTVSPropertyOp26
 70
     1
102
RTVSPropertyOp27
 70
     1
  0
XRECORD
  5
247C
102
{ACAD_REACTORS
330
247B
102
}
330
247B
100
AcDbXrecord
280
     1
102
RTVSPropertyOp0
 70
     0
102
RTVSPropertyOp1
 70
     0
102
RTVSPropertyOp2
 70
     0
102
RTVSPropertyOp3
 70
     0
102
RTVSPropertyOp4
 70
     0
102
RTVSPropertyOp5
 70
     0
102
RTVSPropertyOp6
 70
     0
102
RTVSPropertyOp7
 70
     0
102
RTVSPropertyOp8
 70
     0
102
RTVSPropertyOp9
 70
     0
102
RTVSPropertyOp10
 70
     0
102
RTVSPropertyOp11
 70
     0
102
RTVSPropertyOp12
 70
     0
102
RTVSPropertyOp13
 70
     0
102
RTVSPropertyOp14
 70
     2
102
RTVSPropertyOp15
 70
     0
102
RTVSPropertyOp16
 70
     0
102
RTVSPropertyOp17
 70
     0
102
RTVSPropertyOp18
 70
     0
102
RTVSPropertyOp19
 70
     0
102
RTVSPropertyOp20
 70
     0
102
RTVSPropertyOp21
 70
     0
102
RTVSPropertyOp22
 70
     0
102
RTVSPropertyOp23
 70
     0
102
RTVSPropertyOp24
 70
     0
102
RTVSPropertyOp25
 70
     0
102
RTVSPropertyOp26
 70
     0
102
RTVSPropertyOp27
 70
     0
  0
XRECORD
  5
246C
102
{ACAD_REACTORS
330
246B
102
}
330
246B
100
AcDbXrecord
280
     1
102
RTVSPropertyOp0
 70
     1
102
RTVSPropertyOp1
 70
     1
102
RTVSPropertyOp2
 70
     1
102
RTVSPropertyOp3
 70
     1
102
RTVSPropertyOp4
 70
     1
102
RTVSPropertyOp5
 70
     1
102
RTVSPropertyOp6
 70
     1
102
RTVSPropertyOp7
 70
     1
102
RTVSPropertyOp8
 70
     1
102
RTVSPropertyOp9
 70
     1
102
RTVSPropertyOp10
 70
     1
102
RTVSPropertyOp11
 70
     1
102
RTVSPropertyOp12
 70
     1
102
RTVSPropertyOp13
 70
     1
102
RTVSPropertyOp14
 70
     1
102
RTVSPropertyOp15
 70
     1
102
RTVSPropertyOp16
 70
     1
102
RTVSPropertyOp17
 70
     1
102
RTVSPropertyOp18
 70
     1
102
RTVSPropertyOp19
 70
     1
102
RTVSPropertyOp20
 70
     1
102
RTVSPropertyOp21
 70
     1
102
RTVSPropertyOp22
 70
     1
102
RTVSPropertyOp23
 70
     1
102
RTVSPropertyOp24
 70
     1
102
RTVSPropertyOp25
 70
     1
102
RTVSPropertyOp26
 70
     1
102
RTVSPropertyOp27
 70
     1
  0
XRECORD
  5
2472
102
{ACAD_REACTORS
330
2471
102
}
330
2471
100
AcDbXrecord
280
     1
102
RTVSPropertyOp0
 70
     1
102
RTVSPropertyOp1
 70
     1
102
RTVSPropertyOp2
 70
     1
102
RTVSPropertyOp3
 70
     1
102
RTVSPropertyOp4
 70
     1
102
RTVSPropertyOp5
 70
     1
102
RTVSPropertyOp6
 70
     1
102
RTVSPropertyOp7
 70
     1
102
RTVSPropertyOp8
 70
     1
102
RTVSPropertyOp9
 70
     1
102
RTVSPropertyOp10
 70
     1
102
RTVSPropertyOp11
 70
     1
102
RTVSPropertyOp12
 70
     1
102
RTVSPropertyOp13
 70
     1
102
RTVSPropertyOp14
 70
     1
102
RTVSPropertyOp15
 70
     1
102
RTVSPropertyOp16
 70
     1
102
RTVSPropertyOp17
 70
     1
102
RTVSPropertyOp18
 70
     1
102
RTVSPropertyOp19
 70
     1
102
RTVSPropertyOp20
 70
     1
102
RTVSPropertyOp21
 70
     1
102
RTVSPropertyOp22
 70
     1
102
RTVSPropertyOp23
 70
     1
102
RTVSPropertyOp24
 70
     1
102
RTVSPropertyOp25
 70
     1
102
RTVSPropertyOp26
 70
     1
102
RTVSPropertyOp27
 70
     1
  0
ENDSEC
  0
EOF
