  0
SECTION
  2
HEADER
  9
$ACADVER
  1
AC1015
  9
$ACADMAINTVER
 70
    20
  9
$DWGCODEPAGE
  3
ANSI_1252
  9
$INSBASE
 10
0.0
 20
0.0
 30
0.0
  9
$EXTMIN
 10
5144.619163895836
 20
2482.471991240743
 30
0.0
  9
$EXTMAX
 10
5147.050512542205
 20
2483.006626308365
 30
0.0
  9
$LIMMIN
 10
0.0
 20
0.0
  9
$LIMMAX
 10
420.0
 20
297.0
  9
$ORTHOMODE
 70
     0
  9
$REGENMODE
 70
     1
  9
$FILLMODE
 70
     1
  9
$QTEXTMODE
 70
     0
  9
$MIRRTEXT
 70
     1
  9
$LTSCALE
 40
1.0
  9
$ATTMODE
 70
     1
  9
$TEXTSIZE
 40
2.5
  9
$TRACEWID
 40
1.0
  9
$TEXTSTYLE
  7
SANINDUSA
  9
$CLAYER
  8
0
  9
$CELTYPE
  6
ByLayer
  9
$CECOLOR
 62
   256
  9
$CELTSCALE
 40
1.0
  9
$DISPSILH
 70
     0
  9
$DIMSCALE
 40
10.0
  9
$DIMASZ
 40
2.0
  9
$DIMEXO
 40
1.0
  9
$DIMDLI
 40
1.0
  9
$DIMRND
 40
0.0
  9
$DIMDLE
 40
0.0
  9
$DIMEXE
 40
1.0
  9
$DIMTP
 40
0.0
  9
$DIMTM
 40
0.0
  9
$DIMTXT
 40
2.0
  9
$DIMCEN
 40
0.0
  9
$DIMTSZ
 40
0.0
  9
$DIMTOL
 70
     0
  9
$DIMLIM
 70
     0
  9
$DIMTIH
 70
     0
  9
$DIMTOH
 70
     0
  9
$DIMSE1
 70
     0
  9
$DIMSE2
 70
     0
  9
$DIMTAD
 70
     1
  9
$DIMZIN
 70
     8
  9
$DIMBLK
  1

  9
$DIMASO
 70
     1
  9
$DIMSHO
 70
     1
  9
$DIMPOST
  1

  9
$DIMAPOST
  1

  9
$DIMALT
 70
     0
  9
$DIMALTD
 70
     3
  9
$DIMALTF
 40
0.03937007874016
  9
$DIMLFAC
 40
1.0
  9
$DIMTOFL
 70
     1
  9
$DIMTVP
 40
0.0
  9
$DIMTIX
 70
     0
  9
$DIMSOXD
 70
     0
  9
$DIMSAH
 70
     0
  9
$DIMBLK1
  1

  9
$DIMBLK2
  1

  9
$DIMSTYLE
  2
SANINDUSA
  9
$DIMCLRD
 70
   256
  9
$DIMCLRE
 70
   256
  9
$DIMCLRT
 70
   256
  9
$DIMTFAC
 40
1.0
  9
$DIMGAP
 40
1.0
  9
$DIMJUST
 70
     0
  9
$DIMSD1
 70
     0
  9
$DIMSD2
 70
     0
  9
$DIMTOLJ
 70
     0
  9
$DIMTZIN
 70
     8
  9
$DIMALTZ
 70
     0
  9
$DIMALTTZ
 70
     0
  9
$DIMUPT
 70
     0
  9
$DIMDEC
 70
     0
  9
$DIMTDEC
 70
     0
  9
$DIMALTU
 70
     2
  9
$DIMALTTD
 70
     3
  9
$DIMTXSTY
  7
SANINDUSA
  9
$DIMAUNIT
 70
     0
  9
$DIMADEC
 70
     1
  9
$DIMALTRND
 40
0.0
  9
$DIMAZIN
 70
     0
  9
$DIMDSEP
 70
    44
  9
$DIMATFIT
 70
     3
  9
$DIMFRAC
 70
     0
  9
$DIMLDRBLK
  1

  9
$DIMLUNIT
 70
     2
  9
$DIMLWD
 70
    -1
  9
$DIMLWE
 70
    -1
  9
$DIMTMOVE
 70
     0
  9
$LUNITS
 70
     2
  9
$LUPREC
 70
     4
  9
$SKETCHINC
 40
1.0
  9
$FILLETRAD
 40
0.0
  9
$AUNITS
 70
     0
  9
$AUPREC
 70
     0
  9
$MENU
  1
.
  9
$ELEVATION
 40
0.0
  9
$PELEVATION
 40
0.0
  9
$THICKNESS
 40
0.0
  9
$LIMCHECK
 70
     0
  9
$CHAMFERA
 40
10.0
  9
$CHAMFERB
 40
10.0
  9
$CHAMFERC
 40
20.0
  9
$CHAMFERD
 40
0.0
  9
$SKPOLY
 70
     0
  9
$TDCREATE
 40
2455257.778177986
  9
$TDUCREATE
 40
2455257.736511319
  9
$TDUPDATE
 40
2456111.674643183
  9
$TDUUPDATE
 40
2456111.632976516
  9
$TDINDWG
 40
0.0382298727
  9
$TDUSRTIMER
 40
0.0382298727
  9
$USRTIMER
 70
     1
  9
$ANGBASE
 50
0.0
  9
$ANGDIR
 70
     0
  9
$PDMODE
 70
     0
  9
$PDSIZE
 40
0.0
  9
$PLINEWID
 40
0.0
  9
$SPLFRAME
 70
     0
  9
$SPLINETYPE
 70
     6
  9
$SPLINESEGS
 70
     8
  9
$HANDSEED
  5
2769
  9
$SURFTAB1
 70
     6
  9
$SURFTAB2
 70
     6
  9
$SURFTYPE
 70
     6
  9
$SURFU
 70
     6
  9
$SURFV
 70
     6
  9
$UCSBASE
  2

  9
$UCSNAME
  2

  9
$UCSORG
 10
0.0
 20
0.0
 30
0.0
  9
$UCSXDIR
 10
1.0
 20
0.0
 30
0.0
  9
$UCSYDIR
 10
0.0
 20
1.0
 30
0.0
  9
$UCSORTHOREF
  2

  9
$UCSORTHOVIEW
 70
     0
  9
$UCSORGTOP
 10
0.0
 20
0.0
 30
0.0
  9
$UCSORGBOTTOM
 10
0.0
 20
0.0
 30
0.0
  9
$UCSORGLEFT
 10
0.0
 20
0.0
 30
0.0
  9
$UCSORGRIGHT
 10
0.0
 20
0.0
 30
0.0
  9
$UCSORGFRONT
 10
0.0
 20
0.0
 30
0.0
  9
$UCSORGBACK
 10
0.0
 20
0.0
 30
0.0
  9
$PUCSBASE
  2

  9
$PUCSNAME
  2

  9
$PUCSORG
 10
0.0
 20
0.0
 30
0.0
  9
$PUCSXDIR
 10
1.0
 20
0.0
 30
0.0
  9
$PUCSYDIR
 10
0.0
 20
1.0
 30
0.0
  9
$PUCSORTHOREF
  2

  9
$PUCSORTHOVIEW
 70
     0
  9
$PUCSORGTOP
 10
0.0
 20
0.0
 30
0.0
  9
$PUCSORGBOTTOM
 10
0.0
 20
0.0
 30
0.0
  9
$PUCSORGLEFT
 10
0.0
 20
0.0
 30
0.0
  9
$PUCSORGRIGHT
 10
0.0
 20
0.0
 30
0.0
  9
$PUCSORGFRONT
 10
0.0
 20
0.0
 30
0.0
  9
$PUCSORGBACK
 10
0.0
 20
0.0
 30
0.0
  9
$USERI1
 70
     0
  9
$USERI2
 70
     0
  9
$USERI3
 70
     0
  9
$USERI4
 70
     0
  9
$USERI5
 70
     0
  9
$USERR1
 40
0.0
  9
$USERR2
 40
0.0
  9
$USERR3
 40
0.0
  9
$USERR4
 40
0.0
  9
$USERR5
 40
0.0
  9
$WORLDVIEW
 70
     1
  9
$SHADEDGE
 70
     3
  9
$SHADEDIF
 70
    70
  9
$TILEMODE
 70
     1
  9
$MAXACTVP
 70
    64
  9
$PINSBASE
 10
0.0
 20
0.0
 30
0.0
  9
$PLIMCHECK
 70
     0
  9
$PEXTMIN
 10
1.000000000000000E+20
 20
1.000000000000000E+20
 30
1.000000000000000E+20
  9
$PEXTMAX
 10
-1.000000000000000E+20
 20
-1.000000000000000E+20
 30
-1.000000000000000E+20
  9
$PLIMMIN
 10
0.0
 20
0.0
  9
$PLIMMAX
 10
420.0
 20
297.0
  9
$UNITMODE
 70
     0
  9
$VISRETAIN
 70
     1
  9
$PLINEGEN
 70
     0
  9
$PSLTSCALE
 70
     1
  9
$TREEDEPTH
 70
  3020
  9
$CMLSTYLE
  2
Standard
  9
$CMLJUST
 70
     0
  9
$CMLSCALE
 40
20.0
  9
$PROXYGRAPHICS
 70
     1
  9
$MEASUREMENT
 70
     1
  9
$CELWEIGHT
370
    -1
  9
$ENDCAPS
280
     0
  9
$JOINSTYLE
280
     0
  9
$LWDISPLAY
290
     0
  9
$INSUNITS
 70
     4
  9
$HYPERLINKBASE
  1

  9
$STYLESHEET
  1
sanindusa.ctb
  9
$XEDIT
290
     1
  9
$CEPSNTYPE
380
     0
  9
$PSTYLEMODE
290
     1
  9
$FINGERPRINTGUID
  2
{9557BB95-8501-43B2-A815-4D449444A618}
  9
$VERSIONGUID
  2
{08D1F25B-FA5B-49B1-8B04-F72A34C18269}
  9
$EXTNAMES
290
     1
  9
$PSVPSCALE
 40
0.0
  9
$OLESTARTUP
290
     0
  0
ENDSEC
  0
SECTION
  2
CLASSES
  0
CLASS
  1
ACDBDICTIONARYWDFLT
  2
AcDbDictionaryWithDefault
  3
ObjectDBX Classes
 90
        0
280
     0
281
     0
  0
CLASS
  1
ACDBPLACEHOLDER
  2
AcDbPlaceHolder
  3
ObjectDBX Classes
 90
        0
280
     0
281
     0
  0
CLASS
  1
LAYOUT
  2
AcDbLayout
  3
ObjectDBX Classes
 90
        0
280
     0
281
     0
  0
CLASS
  1
DICTIONARYVAR
  2
AcDbDictionaryVar
  3
ObjectDBX Classes
 90
        0
280
     0
281
     0
  0
CLASS
  1
DIMASSOC
  2
AcDbDimAssoc
  3
"AcDbDimAssoc|Product Desc:     AcDim ARX App For Dimension|Company:          Autodesk, Inc.|WEB Address:      www.autodesk.com"
 90
    32768
280
     0
281
     0
  0
CLASS
  1
TABLESTYLE
  2
AcDbTableStyle
  3
ObjectDBX Classes
 90
     4095
280
     0
281
     0
  0
CLASS
  1
MATERIAL
  2
AcDbMaterial
  3
ObjectDBX Classes
 90
     1153
280
     0
281
     0
  0
CLASS
  1
VISUALSTYLE
  2
AcDbVisualStyle
  3
ObjectDBX Classes
 90
     4095
280
     0
281
     0
  0
CLASS
  1
SCALE
  2
AcDbScale
  3
ObjectDBX Classes
 90
     1153
280
     0
281
     0
  0
CLASS
  1
MLEADERSTYLE
  2
AcDbMLeaderStyle
  3
ACDB_MLEADERSTYLE_CLASS
 90
     4095
280
     0
281
     0
  0
CLASS
  1
SORTENTSTABLE
  2
AcDbSortentsTable
  3
ObjectDBX Classes
 90
        0
280
     0
281
     0
  0
CLASS
  1
AEC_REFEDIT_STATUS_TRACKER
  2
AecDbRefEditStatusTracker
  3
AecArchBase60|Product Desc: Autodesk Architectural Desktop 2007 |Company: Autodesk,Inc. |WEB Address: www.autodesk.com
 90
    32897
280
     0
281
     0
  0
CLASS
  1
NPOCOLLECTION
  2
AcDbImpNonPersistentObjectsCollection
  3
ObjectDBX Classes
 90
    33921
280
     0
281
     0
  0
CLASS
  1
CELLSTYLEMAP
  2
AcDbCellStyleMap
  3
ObjectDBX Classes
 90
     1152
280
     0
281
     0
  0
CLASS
  1
SOLID_BACKGROUND
  2
AcDbSolidBackground
  3
SCENEOE
 90
    36863
280
     0
281
     0
  0
ENDSEC
  0
SECTION
  2
TABLES
  0
TABLE
  2
VPORT
  5
8
102
{ACAD_XDICTIONARY
360
2265
102
}
330
0
100
AcDbSymbolTable
 70
     1
  0
VPORT
  5
1068
330
8
100
AcDbSymbolTableRecord
100
AcDbViewportTableRecord
  2
*Active
 70
     0
 10
0.0
 20
0.0
 11
1.0
 21
1.0
 12
5145.842468393405
 22
2482.739308774554
 13
0.0
 23
0.0
 14
10.0
 24
10.0
 15
10.0
 25
10.0
 16
0.0
 26
0.0
 36
1.0
 17
0.0
 27
0.0
 37
0.0
 40
1.492493317779994
 41
1.645464025026068
 42
50.0
 43
0.0
 44
0.0
 50
0.0
 51
0.0
 71
     0
 72
   100
 73
     1
 74
     2
 75
     0
 76
     0
 77
     0
 78
     0
281
     0
 65
     1
110
0.0
120
0.0
130
0.0
111
1.0
121
0.0
131
0.0
112
0.0
122
1.0
132
0.0
 79
     0
146
0.0
  0
ENDTAB
  0
TABLE
  2
LTYPE
  5
5
330
0
100
AcDbSymbolTable
 70
     5
  0
LTYPE
  5
14
330
5
100
AcDbSymbolTableRecord
100
AcDbLinetypeTableRecord
  2
ByBlock
 70
     0
  3

 72
    65
 73
     0
 40
0.0
  0
LTYPE
  5
15
330
5
100
AcDbSymbolTableRecord
100
AcDbLinetypeTableRecord
  2
ByLayer
 70
     0
  3

 72
    65
 73
     0
 40
0.0
  0
LTYPE
  5
16
330
5
100
AcDbSymbolTableRecord
100
AcDbLinetypeTableRecord
  2
Continuous
 70
     0
  3
Solid line
 72
    65
 73
     0
 40
0.0
  0
LTYPE
  5
2D
330
5
100
AcDbSymbolTableRecord
100
AcDbLinetypeTableRecord
  2
DASHDOT
 70
     0
  3
Dash dot __ . __ . __ . __ . __ . __ . __ . __
 72
    65
 73
     4
 40
25.4
 49
12.7
 74
     0
 49
-6.349999999999999
 74
     0
 49
0.0
 74
     0
 49
-6.349999999999999
 74
     0
  0
LTYPE
  5
2E
330
5
100
AcDbSymbolTableRecord
100
AcDbLinetypeTableRecord
  2
HIDDEN
 70
     0
  3
Hidden __ __ __ __ __ __ __ __ __ __ __ __ __ _
 72
    65
 73
     2
 40
9.524999999999998
 49
6.349999999999999
 74
     0
 49
-3.174999999999999
 74
     0
  0
LTYPE
  5
C75
330
5
100
AcDbSymbolTableRecord
100
AcDbLinetypeTableRecord
  2
AM_ISO02W050
 70
     0
  3
__ __ __ __ __ __ __ __ __ __ __ __ __ __ __
 72
    65
 73
     2
 40
7.5
 49
6.0
 74
     0
 49
-1.5
 74
     0
  0
LTYPE
  5
C76
330
5
100
AcDbSymbolTableRecord
100
AcDbLinetypeTableRecord
  2
AM_ISO08W050
 70
     0
  3
____ . ____ . ____ . ____ . ____ . ____ . ____
 72
    65
 73
     4
 40
18.0
 49
12.0
 74
     0
 49
-1.5
 74
     0
 49
3.0
 74
     0
 49
-1.5
 74
     0
  0
ENDTAB
  0
TABLE
  2
LAYER
  5
2
102
{ACAD_XDICTIONARY
360
1051
102
}
330
0
100
AcDbSymbolTable
 70
    18
  0
LAYER
  5
10
102
{ACAD_XDICTIONARY
360
21ED
102
}
330
2
100
AcDbSymbolTableRecord
100
AcDbLayerTableRecord
  2
0
 70
     0
 62
     7
  6
Continuous
370
    -3
390
F
  0
LAYER
  5
2F
102
{ACAD_XDICTIONARY
360
21EF
102
}
330
2
100
AcDbSymbolTableRecord
100
AcDbLayerTableRecord
  2
1
 70
     0
 62
     1
  6
Continuous
370
    -3
390
F
  0
LAYER
  5
30
102
{ACAD_XDICTIONARY
360
21F1
102
}
330
2
100
AcDbSymbolTableRecord
100
AcDbLayerTableRecord
  2
2
 70
     0
 62
     2
  6
Continuous
370
    -3
390
F
  0
LAYER
  5
31
102
{ACAD_XDICTIONARY
360
21F3
102
}
330
2
100
AcDbSymbolTableRecord
100
AcDbLayerTableRecord
  2
3
 70
     0
 62
     3
  6
Continuous
370
    -3
390
F
  0
LAYER
  5
32
102
{ACAD_XDICTIONARY
360
21F5
102
}
330
2
100
AcDbSymbolTableRecord
100
AcDbLayerTableRecord
  2
4
 70
     0
 62
     4
  6
Continuous
370
    -3
390
F
  0
LAYER
  5
33
102
{ACAD_XDICTIONARY
360
21F7
102
}
330
2
100
AcDbSymbolTableRecord
100
AcDbLayerTableRecord
  2
5
 70
     0
 62
     5
  6
Continuous
370
    -3
390
F
  0
LAYER
  5
34
102
{ACAD_XDICTIONARY
360
21F9
102
}
330
2
100
AcDbSymbolTableRecord
100
AcDbLayerTableRecord
  2
6
 70
     0
 62
     6
  6
Continuous
370
    -3
390
F
  0
LAYER
  5
35
102
{ACAD_XDICTIONARY
360
21FB
102
}
330
2
100
AcDbSymbolTableRecord
100
AcDbLayerTableRecord
  2
7
 70
     0
 62
     7
  6
Continuous
370
    -3
390
F
  0
LAYER
  5
36
102
{ACAD_XDICTIONARY
360
21FD
102
}
330
2
100
AcDbSymbolTableRecord
100
AcDbLayerTableRecord
  2
cen
 70
     0
 62
     7
  6
DASHDOT
370
    -3
390
F
  0
LAYER
  5
37
102
{ACAD_XDICTIONARY
360
21FF
102
}
330
2
100
AcDbSymbolTableRecord
100
AcDbLayerTableRecord
  2
hid
 70
     0
 62
     7
  6
HIDDEN
370
    -3
390
F
  0
LAYER
  5
5D6
102
{ACAD_XDICTIONARY
360
2201
102
}
330
2
100
AcDbSymbolTableRecord
100
AcDbLayerTableRecord
  2
hatch
 70
     0
 62
     9
  6
Continuous
370
    -3
390
F
  0
LAYER
  5
8AF
102
{ACAD_XDICTIONARY
360
2203
102
}
330
2
100
AcDbSymbolTableRecord
100
AcDbLayerTableRecord
  2
9
 70
     0
 62
     9
  6
Continuous
370
    -3
390
F
  0
LAYER
  5
8F8
102
{ACAD_XDICTIONARY
360
2205
102
}
330
2
100
AcDbSymbolTableRecord
100
AcDbLayerTableRecord
  2
leg fin
 70
     0
 62
     9
  6
Continuous
370
    -3
390
F
  0
LAYER
  5
91D
102
{ACAD_XDICTIONARY
360
2207
102
}
330
2
100
AcDbSymbolTableRecord
100
AcDbLayerTableRecord
  2
cotas
 70
     0
 62
     1
  6
Continuous
370
    -3
390
F
  0
LAYER
  5
92F
330
2
100
AcDbSymbolTableRecord
100
AcDbLayerTableRecord
  2
Defpoints
 70
     0
 62
     7
  6
Continuous
290
     0
370
    -3
390
F
  0
LAYER
  5
C7B
102
{ACAD_XDICTIONARY
360
2209
102
}
330
2
100
AcDbSymbolTableRecord
100
AcDbLayerTableRecord
  2
SANINDUSA
 70
     0
 62
     3
  6
Continuous
370
    -3
390
F
  0
LAYER
  5
1060
102
{ACAD_XDICTIONARY
360
220B
102
}
330
2
100
AcDbSymbolTableRecord
100
AcDbLayerTableRecord
  2
hid1
 70
     0
 62
     9
  6
HIDDEN
370
    -3
390
F
1001
AcAecLayerStandard
1000

1000

  0
LAYER
  5
22AF
330
2
100
AcDbSymbolTableRecord
100
AcDbLayerTableRecord
  2
INDUSA
 70
     0
 62
     3
  6
Continuous
370
    -3
390
F
  0
ENDTAB
  0
TABLE
  2
STYLE
  5
3
330
0
100
AcDbSymbolTable
 70
     4
  0
STYLE
  5
11
330
3
100
AcDbSymbolTableRecord
100
AcDbTextStyleTableRecord
  2
Standard
 70
     0
 40
0.0
 41
1.0
 50
0.0
 71
     0
 42
2.5
  3
Avgardn.ttf
  4

1001
ACAD
1000
AvantGarde Bk BT
1071
       34
  0
STYLE
  5
2C
330
3
100
AcDbSymbolTableRecord
100
AcDbTextStyleTableRecord
  2

 70
     1
 40
0.0
 41
1.0
 50
0.0
 71
     0
 42
2.5
  3
ltypeshp.shx
  4

  0
STYLE
  5
91F
330
3
100
AcDbSymbolTableRecord
100
AcDbTextStyleTableRecord
  2
SANINDUSA
 70
     0
 40
0.0
 41
1.0
 50
0.0
 71
     0
 42
2.5
  3
verdana.TTF
  4

1001
ACAD
1000
Verdana
1071
       34
  0
STYLE
  5
C7C
330
3
100
AcDbSymbolTableRecord
100
AcDbTextStyleTableRecord
  2
futura
 70
     0
 40
0.0
 41
1.0
 50
0.0
 71
     0
 42
2.5
  3
ZURCHN.TTF
  4

1001
ACAD
1000
Zurich BT
1071
       34
  0
ENDTAB
  0
TABLE
  2
VIEW
  5
6
330
0
100
AcDbSymbolTable
 70
     0
  0
ENDTAB
  0
TABLE
  2
UCS
  5
7
330
0
100
AcDbSymbolTable
 70
     0
  0
ENDTAB
  0
TABLE
  2
APPID
  5
9
330
0
100
AcDbSymbolTable
 70
    16
  0
APPID
  5
12
330
9
100
AcDbSymbolTableRecord
100
AcDbRegAppTableRecord
  2
ACAD
 70
     0
  0
APPID
  5
3A
330
9
100
AcDbSymbolTableRecord
100
AcDbRegAppTableRecord
  2
DCO15
 70
     0
  0
APPID
  5
EEE
330
9
100
AcDbSymbolTableRecord
100
AcDbRegAppTableRecord
  2
ACAD_DSTYLE_DIMTEXT_FILL
 70
     0
  0
APPID
  5
EEF
330
9
100
AcDbSymbolTableRecord
100
AcDbRegAppTableRecord
  2
ACAD_DSTYLE_DIMEXT_LENGTH
 70
     0
  0
APPID
  5
EF0
330
9
100
AcDbSymbolTableRecord
100
AcDbRegAppTableRecord
  2
ACAD_DSTYLE_DIMEXT_ENABLED
 70
     0
  0
APPID
  5
EF1
330
9
100
AcDbSymbolTableRecord
100
AcDbRegAppTableRecord
  2
ACAD_DSTYLE_DIM_LINETYPE
 70
     0
  0
APPID
  5
EF2
330
9
100
AcDbSymbolTableRecord
100
AcDbRegAppTableRecord
  2
ACAD_DSTYLE_DIM_EXT1_LINETYPE
 70
     0
  0
APPID
  5
EF3
330
9
100
AcDbSymbolTableRecord
100
AcDbRegAppTableRecord
  2
ACAD_DSTYLE_DIM_EXT2_LINETYPE
 70
     0
  0
APPID
  5
FAF
330
9
100
AcDbSymbolTableRecord
100
AcDbRegAppTableRecord
  2
ACAD_DSTYLE_DIMJOGGED_JOGANGLE_SYMBOL
 70
     0
  0
APPID
  5
1013
330
9
100
AcDbSymbolTableRecord
100
AcDbRegAppTableRecord
  2
ACAD_DSTYLE_DIMARC_LENGTH_SYMBOL
 70
     0
  0
APPID
  5
1061
330
9
100
AcDbSymbolTableRecord
100
AcDbRegAppTableRecord
  2
AcAecLayerStandard
 70
     0
  0
APPID
  5
12CB
330
9
100
AcDbSymbolTableRecord
100
AcDbRegAppTableRecord
  2
ACAD_DSTYLE_DIMJAG
 70
     0
  0
APPID
  5
12CC
330
9
100
AcDbSymbolTableRecord
100
AcDbRegAppTableRecord
  2
ACAD_DSTYLE_DIMTALN
 70
     0
  0
APPID
  5
12CD
330
9
100
AcDbSymbolTableRecord
100
AcDbRegAppTableRecord
  2
ACAD_DSTYLE_DIMRADIAL_EXTENSION
 70
     0
  0
APPID
  5
2256
330
9
100
AcDbSymbolTableRecord
100
AcDbRegAppTableRecord
  2
ACAD_EXEMPT_FROM_CAD_STANDARDS
 70
     0
  0
APPID
  5
2297
330
9
100
AcDbSymbolTableRecord
100
AcDbRegAppTableRecord
  2
ACAD_MLEADERVER
 70
     0
  0
ENDTAB
  0
TABLE
  2
DIMSTYLE
  5
A
330
0
100
AcDbSymbolTable
 70
     3
100
AcDbDimStyleTable
 71
     1
340
921
  0
DIMSTYLE
105
45
330
A
100
AcDbSymbolTableRecord
100
AcDbDimStyleTableRecord
  2
STANDARD
 70
     0
289
     0
340
11
  0
DIMSTYLE
105
921
330
A
100
AcDbSymbolTableRecord
100
AcDbDimStyleTableRecord
  2
SANINDUSA
 70
     0
 40
10.0
 41
2.0
 42
1.0
 43
1.0
 44
1.0
 73
     0
 74
     0
 77
     1
 78
     8
140
2.0
141
0.0
143
0.03937007874016
147
1.0
171
     3
172
     1
176
   256
177
   256
178
   256
179
     1
271
     0
272
     0
274
     3
278
    44
283
     0
284
     8
340
91F
371
    -1
372
    -1
1001
ACAD_DSTYLE_DIMJAG
1070
   388
1040
1.5
1001
ACAD_DSTYLE_DIMTALN
1070
   392
1070
     0
1001
ACAD_DSTYLE_DIMJOGGED_JOGANGLE_SYMBOL
1070
   384
1040
1.570796326794896
  0
DIMSTYLE
105
C7D
330
A
100
AcDbSymbolTableRecord
100
AcDbDimStyleTableRecord
  2
AM_ISO
 70
     0
  4
"
 41
2.5
 42
1.0
 43
10.0
 44
1.0
 47
0.1
 48
0.1
 73
     0
 74
     0
 77
     1
 78
     8
 79
     2
140
3.5
141
0.0
143
0.0393701
146
0.71
147
1.5
172
     1
176
   256
177
   256
178
     2
271
     2
272
     3
274
     4
283
     0
284
     8
340
11
371
    -1
372
    -1
  0
ENDTAB
  0
TABLE
  2
BLOCK_RECORD
  5
1
330
0
100
AcDbSymbolTable
 70
    29
  0
BLOCK_RECORD
  5
1F
102
{ACAD_XDICTIONARY
360
245C
102
}
330
1
100
AcDbSymbolTableRecord
100
AcDbBlockTableRecord
  2
*Model_Space
340
22
  0
BLOCK_RECORD
  5
1B
330
1
100
AcDbSymbolTableRecord
100
AcDbBlockTableRecord
  2
*Paper_Space
340
1E
  0
BLOCK_RECORD
  5
23
330
1
100
AcDbSymbolTableRecord
100
AcDbBlockTableRecord
  2
*Paper_Space0
340
26
  0
BLOCK_RECORD
  5
919
330
1
100
AcDbSymbolTableRecord
100
AcDbBlockTableRecord
  2
_DotSmall
340
0
  0
BLOCK_RECORD
  5
922
330
1
100
AcDbSymbolTableRecord
100
AcDbBlockTableRecord
  2
base para cotas
340
0
310
2800000020000000200000000100080000000000000400000000000000000000000000000000000000000000000080000080000000808000800000008000800080800000C0C0C000C0DCC000F0CAA6000020400000206000002080000020A0000020C0000020E00000400000004020000040400000406000004080000040A0
310
000040C0000040E00000600000006020000060400000606000006080000060A0000060C0000060E00000800000008020000080400000806000008080000080A0000080C0000080E00000A0000000A0200000A0400000A0600000A0800000A0A00000A0C00000A0E00000C0000000C0200000C0400000C0600000C0800000C0
310
A00000C0C00000C0E00000E0000000E0200000E0400000E0600000E0800000E0A00000E0C00000E0E00040000000400020004000400040006000400080004000A0004000C0004000E00040200000402020004020400040206000402080004020A0004020C0004020E000404000004040200040404000404060004040800040
310
40A0004040C0004040E00040600000406020004060400040606000406080004060A0004060C0004060E00040800000408020004080400040806000408080004080A0004080C0004080E00040A0000040A0200040A0400040A0600040A0800040A0A00040A0C00040A0E00040C0000040C0200040C0400040C0600040C08000
310
40C0A00040C0C00040C0E00040E0000040E0200040E0400040E0600040E0800040E0A00040E0C00040E0E00080000000800020008000400080006000800080008000A0008000C0008000E00080200000802020008020400080206000802080008020A0008020C0008020E00080400000804020008040400080406000804080
310
008040A0008040C0008040E00080600000806020008060400080606000806080008060A0008060C0008060E00080800000808020008080400080806000808080008080A0008080C0008080E00080A0000080A0200080A0400080A0600080A0800080A0A00080A0C00080A0E00080C0000080C0200080C0400080C0600080C0
310
800080C0A00080C0C00080C0E00080E0000080E0200080E0400080E0600080E0800080E0A00080E0C00080E0E000C0000000C0002000C0004000C0006000C0008000C000A000C000C000C000E000C0200000C0202000C0204000C0206000C0208000C020A000C020C000C020E000C0400000C0402000C0404000C0406000C0
310
408000C040A000C040C000C040E000C0600000C0602000C0604000C0606000C0608000C060A000C060C000C060E000C0800000C0802000C0804000C0806000C0808000C080A000C080C000C080E000C0A00000C0A02000C0A04000C0A06000C0A08000C0A0A000C0A0C000C0A0E000C0C00000C0C02000C0C04000C0C06000
310
C0C08000C0C0A000F0FBFF00A4A0A000808080000000FF0000FF000000FFFF00FF000000FF00FF00FFFF0000FFFFFF00A4A4A4A4A4A4A4A4A4A4A4A4A4A4A4A4A4A4A4A4A4A4A4A4A4A4A4A4A4A4A4A4A4A4A4A4A4A4A4A4A4A4A4A4A4A4A4A4A4A4A4A4A4A4A4A4A4A4A4A4A4A4A4A4A4A4A4A4A4A4A4A4A4A4A4A4A4A4A4
310
A4A4A4A4A4A4A4A4A4A4A4A4A4A4A4A4A4A4A4A4A4A4A4A4A4A4A4A4A4A4A4A4A4A4A4A4A4A4A4A4A4A4A4A4A4A4A4A4A4A4A4A4A4A4A4A4A4A4A4A4A4A4A4A4A4A4A4A4A4A4A4A4A4A4A4A4A4A4A4A4A4A4A4A4A4A4A4A4A4A4A4A4A4A4A4A4A4A4A4A4A4A4A4A4A4A4A4A4A4A4A4A4A4A4A4A4A4A4A4A4A4A4A4A4A4A4A4
310
A4A4A4A4A4A4A4A4A4A4A4A4A4A4A4A4A4A4A4A4A4A4A4A4A4A4A4A4A4A4A4A4A4A4A4A4A4A4A4A4A4A4A4A4A4A4A4A4A4A4A4A4A4A4A4A4A4A4A4A4A4A4A4A4A4A4A4A4A4A4A4A4A4A4A4A4A4A4A4A4A4A4A4A4A4A4A4A4A4A4A4A4A4A4A4A4A4A4A4A4A4A4A4A4A4A4A4A4A4A4A4A4A4A4A4A4A4A4A4A4A4A4A4A4A4A4A4
310
A4A4A4A4A4A4A4A4A4A4A4A4A4A4A4A4A4A4A4A4A4A4A4A4A4A4A4A4A4A4A4A4A4A4A4A4A4A4A4A4A4A4A4A4A4A4A4A4A4A4A4A4A4A4A4A4A4A4A4A4A4A4A4A4A4A4A4A4A4A4A4A4A4A4A4A4A4A4A4A4A4A4A4A4A4A4A4A4A4A4A4A4A4A4A4A4A4A4A4A4A4A4A4A4A4A4A4A4A4A4A4A4A4A4A4A4F9F9F9F9F9F9F9F9F9F9F9
310
F9F9F9F9F9F9F9F9F9F9F9F9F9F9F9F9F9F9F9A4A4F9F9F9F9F9F9F9F9F9F9F9F9F9F9F9F9F9F9F9F9F9F9F9F9F9F9F9F9F9F9A4A4F9F9F9F9F9F9F9F9F9F9F9F9F9F9F9F9F9F9F9F9F9F9F9F9F9F9F9F9F9F9A4A4F9A4A4A4A4A4A4A4A4A4A4A4A4A4A4A4A4A4A4A4A4A4A4A4A4A4A4A4A4F9A4A4A4A4A4A4A4A4A4A4A4A4
310
A4A4A4A4A4A4A4A4A4A4A4A4A4A4A4A4A4A4A4A4A4A4A4A4A4A4A4A4A4A4A4A4A4A4A4A4A4A4A4A4A4A4A4A4A4A4A4A4A4A4A4A4A4A4A4A4A4A4A4A4A4A4A4A4A4A4A4A4A4A4A4A4A4A4A4A4A4A4A4A4A4A4A4A4A4A4A4A4A4A4A4A4A4A4A4A4A4A4A4A4A4A4A4A4A4A4A4A4A4A4A4A4A4A4A4A4A4A4A4A4A4A4A4A4A4A4A4
310
A4A4A4A4A4A4A4A4A4A4A4A4A4A4A4A4A4A4A4A4A4A4A4A4A4A4A4A4A4A4A4A4A4A4A4A4A4A4A4A4A4A4A4A4A4A4A4A4A4A4A4A4A4A4A4A4A4A4A4A4A4A4A4A4A4A4A4A4A4A4A4A4A4A4A4A4A4A4A4A4A4A4A4A4A4A4A4A4A4A4A4A4A4A4A4A4A4A4A4A4A4A4A4A4A4A4A4A4A4A4A4A4A4A4A4A4A4A4A4A4A4A4A4A4A4A4A4
310
A4A4A4A4A4A4A4A4A4A4A4A4A4A4A4A4A4A4A4A4A4A4A4A4A4A4A4A4A4A4A4A4A4A4A4A4A4A4A4A4A4A4A4A4A4A4A4A4A4A4A4A4A4A4A4A4A4A4A4A4A4A4A4A4A4A4A4A4A4A4A4A4A4A4A4A4A4A4A4A4A4A4A4A4A4A4A4A4A4A4A4A4A4A4A4A4A4A4A4A4A4A4A4A4A4A4A4A4A4A4A4A4A4A4A4A4A4A4A4A4A4A4A4A4A4A4A4
310
A4A4A4A4A4A4A4A4A4A4A4A4A4A4A4A4A4A4A4A4A4A4A4A4A4A4A4A4A4A4A4A4A4A4A4A4A4A4A4A4A4A4A4A4A4A4A4A4A4A4A4A4A4A4A4A4
1001
ACAD
1000
DesignCenter Data
1002
{
1070
     1
1070
     4
1002
}
  0
BLOCK_RECORD
  5
AA8
330
1
100
AcDbSymbolTableRecord
100
AcDbBlockTableRecord
  2
_CLOSED
340
0
  0
BLOCK_RECORD
  5
B79
330
1
100
AcDbSymbolTableRecord
100
AcDbBlockTableRecord
  2
nota revisoes
340
0
1001
ACAD
1000
DesignCenter Data
1002
{
1070
     1
1070
     4
1002
}
  0
BLOCK_RECORD
  5
B8E
330
1
100
AcDbSymbolTableRecord
100
AcDbBlockTableRecord
  2
a3l
340
0
1001
ACAD
1000
DesignCenter Data
1002
{
1070
     1
1070
     4
1002
}
  0
BLOCK_RECORD
  5
B9E
330
1
100
AcDbSymbolTableRecord
100
AcDbBlockTableRecord
  2
legenda desenvolvimento
340
0
1001
ACAD
1000
DesignCenter Data
1002
{
1070
     1
1070
     4
1002
}
  0
BLOCK_RECORD
  5
22B0
330
1
100
AcDbSymbolTableRecord
100
AcDbBlockTableRecord
  2
bib. sifões
340
0
1001
ACAD
1000
DesignCenter Data
1002
{
1070
     1
1070
     4
1002
}
  0
ENDTAB
  0
ENDSEC
  0
SECTION
  2
BLOCKS
  0
BLOCK
  5
20
330
1F
100
AcDbEntity
  8
0
100
AcDbBlockBegin
  2
*Model_Space
 70
     0
 10
0.0
 20
0.0
 30
0.0
  3
*Model_Space
  1

  0
ENDBLK
  5
21
330
1F
100
AcDbEntity
  8
0
100
AcDbBlockEnd
  0
BLOCK
  5
1C
330
1B
100
AcDbEntity
 67
     1
  8
0
100
AcDbBlockBegin
  2
*Paper_Space
 70
     0
 10
0.0
 20
0.0
 30
0.0
  3
*Paper_Space
  1

  0
ENDBLK
  5
1D
330
1B
100
AcDbEntity
 67
     1
  8
0
100
AcDbBlockEnd
  0
BLOCK
  5
24
330
23
100
AcDbEntity
 67
     1
  8
0
100
AcDbBlockBegin
  2
*Paper_Space0
 70
     0
 10
0.0
 20
0.0
 30
0.0
  3
*Paper_Space0
  1

  0
ENDBLK
  5
25
330
23
100
AcDbEntity
 67
     1
  8
0
100
AcDbBlockEnd
  0
BLOCK
  5
91B
330
919
100
AcDbEntity
  8
0
100
AcDbBlockBegin
  2
_DotSmall
 70
     0
 10
0.0
 20
0.0
 30
0.0
  3
_DotSmall
  1

  0
LWPOLYLINE
  5
91A
330
919
100
AcDbEntity
  8
0
  6
ByBlock
 62
     0
100
AcDbPolyline
 90
        2
 70
     1
 43
0.5
 10
-0.0625
 20
0.0
 42
1.0
 10
0.0625
 20
0.0
 42
1.0
  0
ENDBLK
  5
91C
330
919
100
AcDbEntity
  8
0
100
AcDbBlockEnd
  0
BLOCK
  5
92A
330
922
100
AcDbEntity
  8
0
100
AcDbBlockBegin
  2
base para cotas
 70
     0
 10
0.0
 20
0.0
 30
0.0
  3
base para cotas
  1

  0
LINE
  5
B36
330
922
100
AcDbEntity
  8
cotas
100
AcDbLine
 10
0.0
 20
-30.0
 30
0.0
 11
327.1260136525398
 21
-30.0
 31
0.0
  0
LINE
  5
B37
330
922
100
AcDbEntity
  8
cotas
100
AcDbLine
 10
0.0
 20
-25.0
 30
0.0
 11
327.1260136525398
 21
-25.0
 31
0.0
  0
LINE
  5
B38
330
922
100
AcDbEntity
  8
cotas
100
AcDbLine
 10
0.0
 20
-20.0
 30
0.0
 11
327.1260136525398
 21
-20.0
 31
0.0
  0
LINE
  5
B39
330
922
100
AcDbEntity
  8
cotas
100
AcDbLine
 10
0.0
 20
-15.0
 30
0.0
 11
327.1260136525398
 21
-15.0
 31
0.0
  0
LINE
  5
B3A
330
922
100
AcDbEntity
  8
cotas
100
AcDbLine
 10
0.0
 20
-10.0
 30
0.0
 11
327.1260136525398
 21
-10.0
 31
0.0
  0
LINE
  5
B3B
330
922
100
AcDbEntity
  8
cotas
100
AcDbLine
 10
0.0
 20
0.0
 30
0.0
 11
0.0
 21
-30.0
 31
0.0
  0
LINE
  5
B3C
330
922
100
AcDbEntity
  8
cotas
100
AcDbLine
 10
327.1260136525398
 20
-30.0
 30
0.0
 11
327.1260136525398
 21
0.0
 31
0.0
  0
ENDBLK
  5
92B
330
922
100
AcDbEntity
  8
0
100
AcDbBlockEnd
  0
BLOCK
  5
AAD
330
AA8
100
AcDbEntity
  8
0
100
AcDbBlockBegin
  2
_CLOSED
 70
     0
 10
0.0
 20
0.0
 30
0.0
  3
_CLOSED
  1

  0
LINE
  5
AA9
330
AA8
100
AcDbEntity
  8
0
100
AcDbLine
 10
-1.0
 20
0.166667
 30
0.0
 11
0.0
 21
0.0
 31
0.0
  0
LINE
  5
AAA
330
AA8
100
AcDbEntity
  8
0
100
AcDbLine
 10
0.0
 20
0.0
 30
0.0
 11
-1.0
 21
-0.166667
 31
0.0
  0
LINE
  5
AAB
330
AA8
100
AcDbEntity
  8
0
100
AcDbLine
 10
-1.0
 20
0.166667
 30
0.0
 11
-1.0
 21
-0.166667
 31
0.0
  0
LINE
  5
AAC
330
AA8
100
AcDbEntity
  8
0
100
AcDbLine
 10
0.0
 20
0.0
 30
0.0
 11
-1.0
 21
0.0
 31
0.0
  0
ENDBLK
  5
AAE
330
AA8
100
AcDbEntity
  8
0
100
AcDbBlockEnd
  0
BLOCK
  5
B7C
330
B79
100
AcDbEntity
  8
0
100
AcDbBlockBegin
  2
nota revisoes
 70
     0
 10
0.0
 20
0.0
 30
0.0
  3
nota revisoes
  1

  0
CIRCLE
  5
B7A
330
B79
100
AcDbEntity
  8
4
100
AcDbCircle
 10
0.0
 20
0.0
 30
0.0
 40
13.69426055101189
  0
TEXT
  5
B7B
330
B79
100
AcDbEntity
  8
4
100
AcDbText
 10
-5.496248358154345
 20
-5.354545554066362
 30
0.0
 40
12.0
  1
1
  7
SANINDUSA
 72
     1
 11
-0.249774214433728
 21
-5.354545554066362
 31
0.0
100
AcDbText
  0
ENDBLK
  5
B7D
330
B79
100
AcDbEntity
  8
0
100
AcDbBlockEnd
  0
BLOCK
  5
B9C
330
B8E
100
AcDbEntity
  8
0
100
AcDbBlockBegin
  2
a3l
 70
     0
 10
0.0
 20
0.0
 30
0.0
  3
a3l
  1

  0
LINE
  5
B8F
330
B8E
100
AcDbEntity
  8
1
100
AcDbLine
 10
-364.2925296599447
 20
-362.1188951399395
 30
0.0
 11
-364.2925296599447
 21
-65.11889513993946
 31
0.0
  0
LINE
  5
B90
330
B8E
100
AcDbEntity
  8
4
100
AcDbLine
 10
-369.2925296599447
 20
-357.1188951399395
 30
0.0
 11
-369.2925296599447
 21
-70.11889513993946
 31
0.0
  0
LINE
  5
B91
330
B8E
100
AcDbEntity
  8
1
100
AcDbLine
 10
-784.2925296599446
 20
-65.11889513993946
 30
0.0
 11
-784.2925296599446
 21
-362.1188951399395
 31
0.0
  0
LINE
  5
B92
330
B8E
100
AcDbEntity
  8
4
100
AcDbLine
 10
-759.2925296599446
 20
-357.1188951399395
 30
0.0
 11
-759.2925296599446
 21
-70.11889513993946
 31
0.0
  0
LINE
  5
B93
330
B8E
100
AcDbEntity
  8
1
100
AcDbLine
 10
-784.2925296599446
 20
-362.1188951399395
 30
0.0
 11
-364.2925296599447
 21
-362.1188951399395
 31
0.0
  0
LINE
  5
B94
330
B8E
100
AcDbEntity
  8
4
100
AcDbLine
 10
-759.2925296599446
 20
-357.1188951399395
 30
0.0
 11
-369.2925296599447
 21
-357.1188951399395
 31
0.0
  0
LINE
  5
B95
330
B8E
100
AcDbEntity
  8
1
100
AcDbLine
 10
-654.2925296599446
 20
-357.1188951399395
 30
0.0
 11
-654.2925296599446
 21
-362.1188951399395
 31
0.0
  0
LINE
  5
B96
330
B8E
100
AcDbEntity
  8
1
100
AcDbLine
 10
-364.2925296599447
 20
-65.11889513993946
 30
0.0
 11
-784.2925296599446
 21
-65.11889513993946
 31
0.0
  0
LINE
  5
B97
330
B8E
100
AcDbEntity
  8
4
100
AcDbLine
 10
-369.2925296599447
 20
-70.11889513993946
 30
0.0
 11
-759.2925296599446
 21
-70.11889513993946
 31
0.0
  0
LINE
  5
B98
330
B8E
100
AcDbEntity
  8
1
100
AcDbLine
 10
-654.2925296599446
 20
-65.11889513993946
 30
0.0
 11
-654.2925296599446
 21
-70.11889513993946
 31
0.0
  0
LINE
  5
B99
330
B8E
100
AcDbEntity
  8
1
100
AcDbLine
 10
-549.2925296599446
 20
-70.11889513993946
 30
0.0
 11
-549.2925296599446
 21
-65.11889513993946
 31
0.0
  0
LINE
  5
B9A
330
B8E
100
AcDbEntity
  8
1
100
AcDbLine
 10
-369.2925296599447
 20
-65.11889513993946
 30
0.0
 11
-364.2925296599447
 21
-65.11889513993946
 31
0.0
  0
LINE
  5
B9B
330
B8E
100
AcDbEntity
  8
1
100
AcDbLine
 10
-549.2925296599446
 20
-357.1188951399395
 30
0.0
 11
-549.2925296599446
 21
-362.1188951399395
 31
0.0
  0
ENDBLK
  5
B9D
330
B8E
100
AcDbEntity
  8
0
100
AcDbBlockEnd
  0
BLOCK
  5
C13
330
B9E
100
AcDbEntity
  8
0
100
AcDbBlockBegin
  2
legenda desenvolvimento
 70
     2
 10
0.0
 20
0.0
 30
0.0
  3
legenda desenvolvimento
  1

  0
ATTDEF
  5
B9F
330
B9E
100
AcDbEntity
  8
1
100
AcDbText
 10
-108.606245802552
 20
55.5
 30
0.0
 40
4.0
  1
XXXXXXXXXXXXXX
 41
0.8
  7
SANINDUSA
 72
     4
 11
-87.5
 21
57.5
 31
0.0
100
AcDbAttributeDefinition
  3
Nome do Produto:
  2
PRODUTO
 70
     0
  0
ATTDEF
  5
BA0
330
B9E
100
AcDbEntity
  8
1
100
AcDbText
 10
-97.9997966101695
 20
41.25
 30
0.0
 40
3.0
  1
XXXXXXXXX
 41
0.8
  7
futura
 72
     4
 11
-87.5
 21
42.75
 31
0.0
100
AcDbAttributeDefinition
  3
Nome da Peça:
  2
PECA
 70
     0
  0
ATTDEF
  5
BA1
330
B9E
100
AcDbEntity
  8
1
100
AcDbText
 10
-133.4422431161853
 20
21.11745296763252
 30
0.0
 40
2.5
  1
X
 41
0.8
  7
SANINDUSA
 72
     4
 11
-132.5
 21
22.36745296763252
 31
0.0
100
AcDbAttributeDefinition
  3
Cod. TESTE:
  2
TESTE
 70
     0
  0
ATTDEF
  5
BA2
330
B9E
100
AcDbEntity
  8
1
100
AcDbText
 10
-124.3844862323707
 20
21.11745296763252
 30
0.0
 40
2.5
  1
XX
 41
0.8
  7
SANINDUSA
 72
     4
 11
-122.5
 21
22.36745296763252
 31
0.0
100
AcDbAttributeDefinition
  3
Cod. Ano:
  2
ANO
 70
     0
  0
ATTDEF
  5
BA3
330
B9E
100
AcDbEntity
  8
1
100
AcDbText
 10
-112.526889953052
 20
21.11745296763252
 30
0.0
 40
2.5
  1
XXX
 41
0.8
  7
SANINDUSA
 72
     4
 11
-109.700160604496
 21
22.36745296763252
 31
0.0
100
AcDbAttributeDefinition
  3
Cod. Sequência:
  2
SEQUENCIA
 70
     0
  0
ATTDEF
  5
BA4
330
B9E
100
AcDbEntity
  8
1
100
AcDbText
 10
-99.35382430979316
 20
21.11745296763252
 30
0.0
 40
2.5
  1
XX
 41
0.8
  7
SANINDUSA
 72
     4
 11
-97.46933807742244
 21
22.36745296763252
 31
0.0
100
AcDbAttributeDefinition
  3
Cod. Tipo:
  2
TIPO
 70
     0
  0
ATTDEF
  5
BA5
330
B9E
100
AcDbEntity
  8
1
100
AcDbText
 10
-87.42035911468438
 20
21.11745296763252
 30
0.0
 40
2.5
  1
XXX
 41
0.8
  7
SANINDUSA
 72
     4
 11
-84.59362976612828
 21
22.36745296763252
 31
0.0
100
AcDbAttributeDefinition
  3
Cod. Produto:
  2
PRODUTO
 70
     0
  0
ATTDEF
  5
BA6
330
B9E
100
AcDbEntity
  8
1
100
AcDbText
 10
-74.62051971917853
 20
21.11745296763252
 30
0.0
 40
2.5
  1
XXX
 41
0.8
  7
SANINDUSA
 72
     4
 11
-71.79379037062244
 21
22.36745296763252
 31
0.0
100
AcDbAttributeDefinition
  3
Cod. Peça:
  2
PECA
 70
     0
  0
ATTDEF
  5
BA7
330
B9E
100
AcDbEntity
  8
1
100
AcDbText
 10
-61.10603446650329
 20
21.11745296763252
 30
0.0
 40
2.5
  1
XX
 41
0.8
  7
SANINDUSA
 72
     4
 11
-59.22154823413257
 21
22.36745296763252
 31
0.0
100
AcDbAttributeDefinition
  3
Cod. Revisão:
  2
REV
 70
     0
  0
ATTDEF
  5
BA8
330
B9E
100
AcDbEntity
  8
1
100
AcDbText
 10
-48.43615325006194
 20
21.11745296763252
 30
0.0
 40
2.5
  1
XX
 41
0.8
  7
SANINDUSA
 72
     4
 11
-46.55166701769121
 21
22.36745296763252
 31
0.0
100
AcDbAttributeDefinition
  3
Cod. Alteração:
  2
ALT
 70
     0
  0
ATTDEF
  5
BA9
330
B9E
100
AcDbEntity
  8
1
100
AcDbText
 10
-35.19086635325722
 20
23.98875083948959
 30
0.0
 40
3.0
  1
1/XXX
 41
0.8
  7
SANINDUSA
 72
     4
 11
-30.0
 21
25.25
 31
0.0
100
AcDbAttributeDefinition
  3
Escala geral:
  2
ESCALA
 70
     0
  0
ATTDEF
  5
BAA
330
B9E
100
AcDbEntity
  8
1
100
AcDbText
 10
-15.65345869711215
 20
23.75
 30
0.0
 40
3.0
  1
XXXXX
 41
0.8
  7
SANINDUSA
 72
     4
 11
-10.0
 21
25.25
 31
0.0
100
AcDbAttributeDefinition
  3
Folha:
  2
FOLHA
 70
     0
  0
ATTDEF
  5
BAB
330
B9E
100
AcDbEntity
  8
1
100
AcDbText
 10
-178.5146998822042
 20
56.9531347542807
 30
0.0
 40
2.0
  1
xx
 41
0.8
  7
SANINDUSA
 72
     4
 11
-177.2123493113513
 21
57.70330265219877
 31
0.0
100
AcDbAttributeDefinition
  3
revisão
  2
REV.
 70
     0
  0
ATTDEF
  5
BAC
330
B9E
100
AcDbEntity
  8
1
100
AcDbText
 10
-172.7849640077129
 20
56.9531347542807
 30
0.0
 40
2.0
  1
xx
 41
0.8
  7
SANINDUSA
 72
     4
 11
-171.48261343686
 21
57.70330265219877
 31
0.0
100
AcDbAttributeDefinition
  3
alteração
  2
ALT.
 70
     0
  0
ATTDEF
  5
BAD
330
B9E
100
AcDbEntity
  8
1
100
AcDbText
 10
-168.007199951307
 20
56.70330265219877
 30
0.0
 40
2.0
  1
xx/xx/xxxx
 41
0.8
  7
SANINDUSA
 11
-168.007199951307
 21
57.70330265219877
 31
0.0
100
AcDbAttributeDefinition
  3
data
  2
DATA
 70
     0
 74
     2
  0
ATTDEF
  5
BAE
330
B9E
100
AcDbEntity
  8
1
100
AcDbText
 10
-168.5396372253371
 20
13.15916722632639
 30
0.0
 40
2.0
  1
XX/XX/XXXX
 41
0.8
  7
SANINDUSA
 72
     4
 11
-161.5099528734231
 21
14.0
 31
0.0
100
AcDbAttributeDefinition
  3
Data projecto
  2
DATA_PROJ
 70
     0
  0
ATTDEF
  5
BAF
330
B9E
100
AcDbEntity
  8
1
100
AcDbText
 10
-150.8658110728766
 20
13.24983210208193
 30
0.0
 40
2.0
  1
xxxxxxxx
 41
0.8
  7
SANINDUSA
 72
     4
 11
-145.6564087894649
 21
14.0
 31
0.0
100
AcDbAttributeDefinition
  3
nome de quem projectou
  2
NOME
 70
     0
  0
ATTDEF
  5
BB0
330
B9E
100
AcDbEntity
  8
1
100
AcDbText
 10
-168.5396372253371
 20
9.159167226326394
 30
0.0
 40
2.0
  1
XX/XX/XXXX
 41
0.8
  7
SANINDUSA
 72
     4
 11
-161.5099528734231
 21
10.0
 31
0.0
100
AcDbAttributeDefinition
  3
Data desenhou
  2
DATA_DES
 70
     0
  0
ATTDEF
  5
BB1
330
B9E
100
AcDbEntity
  8
1
100
AcDbText
 10
-151.516986358303
 20
9.249832102081933
 30
0.0
 40
2.0
  1
xxxxxxxxx
 41
0.8
  7
SANINDUSA
 72
     4
 11
-145.6564087894649
 21
10.0
 31
0.0
100
AcDbAttributeDefinition
  3
nome
  2
NOME
 70
     0
  0
ATTDEF
  5
BB2
330
B9E
100
AcDbEntity
  8
1
100
AcDbText
 10
-127.2924214135946
 20
14.1979876583216
 30
0.0
 40
2.0
  1
Vitreous China
 41
0.8
  7
SANINDUSA
 72
     4
 11
-119.231709526422
 21
15.22216495852308
 31
0.0
100
AcDbAttributeDefinition
  3
Nome do Material:
  2
MATERIAL
 70
     0
  0
ATTDEF
  5
BB3
330
B9E
100
AcDbEntity
  8
1
100
AcDbText
 10
-103.1563452122093
 20
14.38019043949261
 30
0.0
 40
2.0
  1
Branco
 41
0.8
  7
SANINDUSA
 72
     4
 11
-99.33418268702462
 21
15.35937109765245
 31
0.0
100
AcDbAttributeDefinition
  3
cor da peça
  2
COR
 70
     0
  0
ATTDEF
  5
BB4
330
B9E
100
AcDbEntity
  8
1
100
AcDbText
 10
-116.7235057085292
 20
5.975822699798522
 30
0.0
 40
2.0
  1
Vidrado
 41
0.8
  7
SANINDUSA
 72
     4
 11
-112.5
 21
7.0
 31
0.0
100
AcDbAttributeDefinition
  3
Tipo de acabamento:
  2
ACABAMENTO
 70
     0
  0
ATTDEF
  5
BB5
330
B9E
100
AcDbEntity
  8
1
100
AcDbText
 10
-79.18527869967246
 20
16.65066409850533
 30
0.0
 40
2.0
  1
XXXXXXX
 41
0.8
  7
SANINDUSA
 72
     4
 11
-73.90871724903445
 21
17.65066409850533
 31
0.0
100
AcDbAttributeDefinition
  3
Normas
  2
NORMAS
 70
     0
  0
ATTDEF
  5
BB6
330
B9E
100
AcDbEntity
  8
1
100
AcDbText
 10
-30.55312290127603
 20
14.0
 30
0.0
 40
2.0
  1
XXXXXXXXXXXXXX
 41
0.8
  7
SANINDUSA
 72
     4
 11
-20.0
 21
15.0
 31
0.0
100
AcDbAttributeDefinition
  3
Substitui o desenho:
  2
SUBSTITUI
 70
     0
  0
ATTDEF
  5
BB7
330
B9E
100
AcDbEntity
  8
1
100
AcDbText
 10
-31.30691739422431
 20
6.0
 30
0.0
 40
2.0
  1
XXXXXXXXXXXXXXX
 41
0.8
  7
SANINDUSA
 72
     4
 11
-20.0
 21
7.0
 31
0.0
100
AcDbAttributeDefinition
  3
Substituido por:
  2
SUBSTITUIDO
 70
     0
  0
ATTDEF
  5
BB8
330
B9E
100
AcDbEntity
  8
1
100
AcDbText
 10
-110.0220608548302
 20
1.478208457928303
 30
0.0
 40
2.0
  1
XXXXXXXXXXXXXXXXXXXXXXXXXXXXXXXXXX
 41
0.8
  7
SANINDUSA
 11
-110.0220608548302
 21
2.478208457928303
 31
0.0
100
AcDbAttributeDefinition
  3
Localização do desenho:
  2
LOC-DWG
 70
     0
 74
     2
  0
LINE
  5
BB9
330
B9E
100
AcDbEntity
  8
3
100
AcDbLine
 10
-135.0
 20
4.0
 30
0.0
 11
0.0000000000004547
 21
4.0
 31
0.0
  0
LINE
  5
BBA
330
B9E
100
AcDbEntity
  8
3
100
AcDbLine
 10
-90.00000000000046
 20
12.0
 30
0.0
 11
-135.0
 21
12.0
 31
0.0
  0
LINE
  5
BBB
330
B9E
100
AcDbEntity
  8
3
100
AcDbLine
 10
-135.0
 20
32.5
 30
0.0
 11
-40.0
 21
32.5
 31
0.0
  0
TEXT
  5
BBC
330
B9E
100
AcDbEntity
  8
1
100
AcDbText
 10
-134.0
 20
1.25
 30
0.0
 40
2.0
  1
Localização do des.:
 41
0.8
  7
SANINDUSA
 11
-134.0
 21
2.25
 31
0.0
100
AcDbText
 73
     2
  0
LINE
  5
BBD
330
B9E
100
AcDbEntity
  8
3
100
AcDbLine
 10
-180.0
 20
65.0
 30
0.0
 11
0.0
 21
65.0
 31
0.0
  0
LINE
  5
BBE
330
B9E
100
AcDbEntity
  8
leg fin
100
AcDbLine
 10
-40.0
 20
25.05956924886846
 30
0.0
 11
-135.0
 21
25.05956924886846
 31
0.0
  0
LINE
  5
BBF
330
B9E
100
AcDbEntity
  8
leg fin
100
AcDbLine
 10
-40.0
 20
28.5
 30
0.0
 11
-135.0
 21
28.5
 31
0.0
  0
LINE
  5
BC0
330
B9E
100
AcDbEntity
  8
3
100
AcDbLine
 10
-135.0
 20
50.0
 30
0.0
 11
-40.0
 21
50.0
 31
0.0
  0
TEXT
  5
BC1
330
B9E
100
AcDbEntity
  8
1
100
AcDbText
 10
-134.0
 20
29.75
 30
0.0
 40
2.0
  1
Desenho nº:
 41
0.8
  7
SANINDUSA
 11
-134.0
 21
30.75
 31
0.0
100
AcDbText
 73
     2
  0
TEXT
  5
BC2
330
B9E
100
AcDbEntity
  8
1
100
AcDbText
 10
-134.0
 20
9.25
 30
0.0
 40
2.0
  1
Acabamento:
 41
0.8
  7
SANINDUSA
 11
-134.0
 21
10.25
 31
0.0
100
AcDbText
 73
     2
  0
LINE
  5
BC3
330
B9E
100
AcDbEntity
  8
3
100
AcDbLine
 10
-180.0
 20
20.0
 30
0.0
 11
0.0
 21
20.0
 31
0.0
  0
LINE
  5
BC4
330
B9E
100
AcDbEntity
  8
1
100
AcDbLine
 10
-174.5810776056337
 20
55.5
 30
0.0
 11
-174.5810776056337
 21
65.0
 31
0.0
  0
LINE
  5
BC5
330
B9E
100
AcDbEntity
  8
1
100
AcDbLine
 10
-168.9210461879161
 20
55.5
 30
0.0
 11
-168.9210461879161
 21
65.0
 31
0.0
  0
LINE
  5
BC6
330
B9E
100
AcDbEntity
  8
1
100
AcDbLine
 10
-154.0988595589306
 20
55.5
 30
0.0
 11
-154.0988595589306
 21
65.0
 31
0.0
  0
LINE
  5
BC7
330
B9E
100
AcDbEntity
  8
3
100
AcDbLine
 10
-180.0
 20
65.0
 30
0.0
 11
-180.0
 21
0.0
 31
0.0
  0
LINE
  5
BC8
330
B9E
100
AcDbEntity
  8
3
100
AcDbLine
 10
-135.0
 20
0.0
 30
0.0
 11
-135.0
 21
65.0
 31
0.0
  0
TEXT
  5
BC9
330
B9E
100
AcDbEntity
  8
1
100
AcDbText
 10
-179.0
 20
9.75
 30
0.0
 40
1.5
  1
Des.
 41
0.8
  7
SANINDUSA
 11
-179.0
 21
10.5
 31
0.0
100
AcDbText
 73
     2
  0
LINE
  5
BCA
330
B9E
100
AcDbEntity
  8
1
100
AcDbLine
 10
-168.9210461879161
 20
20.0
 30
0.0
 11
-168.9210461879161
 21
0.0
 31
0.0
  0
LINE
  5
BCB
330
B9E
100
AcDbEntity
  8
1
100
AcDbLine
 10
-154.0988595589306
 20
20.0
 30
0.0
 11
-154.0988595589306
 21
0.0
 31
0.0
  0
LINE
  5
BCC
330
B9E
100
AcDbEntity
  8
1
100
AcDbLine
 10
-180.0
 20
4.0
 30
0.0
 11
-135.0
 21
4.0
 31
0.0
  0
LINE
  5
BCD
330
B9E
100
AcDbEntity
  8
1
100
AcDbLine
 10
-180.0
 20
8.0
 30
0.0
 11
-135.0
 21
8.0
 31
0.0
  0
TEXT
  5
BCE
330
B9E
100
AcDbEntity
  8
1
100
AcDbText
 10
-179.0
 20
1.73257823687436
 30
0.0
 40
1.5
  1
Aprov.
 41
0.8
  7
SANINDUSA
 11
-179.0
 21
2.48257823687436
 31
0.0
100
AcDbText
 73
     2
  0
TEXT
  5
BCF
330
B9E
100
AcDbEntity
  8
1
100
AcDbText
 10
-179.0
 20
5.75
 30
0.0
 40
1.5
  1
Ver.
 41
0.8
  7
SANINDUSA
 11
-179.0
 21
6.5
 31
0.0
100
AcDbText
 73
     2
  0
LINE
  5
BD0
330
B9E
100
AcDbEntity
  8
1
100
AcDbLine
 10
-180.0
 20
16.0
 30
0.0
 11
-135.0
 21
16.0
 31
0.0
  0
LINE
  5
BD1
330
B9E
100
AcDbEntity
  8
1
100
AcDbLine
 10
-180.0
 20
12.0
 30
0.0
 11
-135.0
 21
12.0
 31
0.0
  0
TEXT
  5
BD2
330
B9E
100
AcDbEntity
  8
1
100
AcDbText
 10
-179.0
 20
13.75
 30
0.0
 40
1.5
  1
Proj.
 41
0.8
  7
SANINDUSA
 11
-179.0
 21
14.5
 31
0.0
100
AcDbText
 73
     2
  0
TEXT
  5
BD3
330
B9E
100
AcDbEntity
  8
1
100
AcDbText
 10
-167.9210461879161
 20
17.75
 30
0.0
 40
1.5
  1
Data
 41
0.8
  7
SANINDUSA
 11
-167.9210461879161
 21
18.5
 31
0.0
100
AcDbText
 73
     2
  0
TEXT
  5
BD4
330
B9E
100
AcDbEntity
  8
1
100
AcDbText
 10
-153.0988595589306
 20
17.75
 30
0.0
 40
1.5
  1
Nome
 41
0.8
  7
SANINDUSA
 11
-153.0988595589306
 21
18.5
 31
0.0
100
AcDbText
 73
     2
  0
LINE
  5
BD5
330
B9E
100
AcDbEntity
  8
leg fin
100
AcDbLine
 10
-130.0
 20
20.0
 30
0.0
 11
-130.0
 21
28.5
 31
0.0
  0
TEXT
  5
BD6
330
B9E
100
AcDbEntity
  8
1
100
AcDbText
 10
-134.0
 20
17.25
 30
0.0
 40
2.0
  1
Material:
 41
0.8
  7
SANINDUSA
 11
-134.0
 21
18.25
 31
0.0
100
AcDbText
 73
     2
  0
TEXT
  5
BD7
330
B9E
100
AcDbEntity
  8
1
100
AcDbText
 10
-129.0
 20
26.43288406845113
 30
0.0
 40
1.5
  1
Ano:
 41
0.8
  7
SANINDUSA
 11
-129.0
 21
27.18288406845113
 31
0.0
100
AcDbText
 73
     2
  0
LINE
  5
BD8
330
B9E
100
AcDbEntity
  8
1
100
AcDbLine
 10
-180.0
 20
55.5
 30
0.0
 11
-135.0
 21
55.5
 31
0.0
  0
TEXT
  5
BD9
330
B9E
100
AcDbEntity
  8
1
100
AcDbText
 10
-179.0
 20
52.67772246885193
 30
0.0
 40
1.5
  1
descrição
 41
0.8
  7
SANINDUSA
 11
-179.0
 21
53.42772246885193
 31
0.0
100
AcDbText
 73
     2
  0
TEXT
  5
BDA
330
B9E
100
AcDbEntity
  8
1
100
AcDbText
 10
-134.0
 20
47.25
 30
0.0
 40
2.0
  1
Peça:
 41
0.8
  7
SANINDUSA
 11
-134.0
 21
48.25
 31
0.0
100
AcDbText
 73
     2
  0
LINE
  5
BDB
330
B9E
100
AcDbEntity
  8
1
100
AcDbLine
 10
-180.0
 20
59.5
 30
0.0
 11
-135.0
 21
59.5
 31
0.0
  0
TEXT
  5
BDC
330
B9E
100
AcDbEntity
  8
1
100
AcDbText
 10
-173.5810776056337
 20
62.75
 30
0.0
 40
1.5
  1
Alt.
 41
0.8
  7
SANINDUSA
 11
-173.5810776056337
 21
63.5
 31
0.0
100
AcDbText
 73
     2
  0
TEXT
  5
BDD
330
B9E
100
AcDbEntity
  8
1
100
AcDbText
 10
-179.0
 20
62.75
 30
0.0
 40
1.5
  1
Rev.
 41
0.8
  7
SANINDUSA
 11
-179.0
 21
63.5
 31
0.0
100
AcDbText
 73
     2
  0
TEXT
  5
BDE
330
B9E
100
AcDbEntity
  8
1
100
AcDbText
 10
-167.9210461879161
 20
62.75
 30
0.0
 40
1.5
  1
Data
 41
0.8
  7
SANINDUSA
 11
-167.9210461879161
 21
63.5
 31
0.0
100
AcDbText
 73
     2
  0
TEXT
  5
BDF
330
B9E
100
AcDbEntity
  8
1
100
AcDbText
 10
-153.0988595589306
 20
62.75
 30
0.0
 40
1.5
  1
Nome
 41
0.8
  7
SANINDUSA
 11
-153.0988595589306
 21
63.5
 31
0.0
100
AcDbText
 73
     2
  0
TEXT
  5
BE0
330
B9E
100
AcDbEntity
  8
1
100
AcDbText
 10
-134.0
 20
62.25
 30
0.0
 40
2.0
  1
Produto:
 41
0.8
  7
SANINDUSA
 11
-134.0
 21
63.25
 31
0.0
100
AcDbText
 73
     2
  0
LINE
  5
BE1
330
B9E
100
AcDbEntity
  8
3
100
AcDbLine
 10
-40.0
 20
4.0
 30
0.0
 11
-40.0
 21
65.0
 31
0.0
  0
LWPOLYLINE
  5
BE2
102
{ACAD_REACTORS
330
BEC
102
}
330
B9E
100
AcDbEntity
  8
9
100
AcDbPolyline
 90
       12
 70
     1
 43
0.0
 10
-3.038714600644652
 20
58.90010174665076
 10
-5.726962862472191
 20
58.90010174665076
 10
-5.726962862472191
 20
58.5001017466509
 10
-3.038748516195028
 20
58.5001017466509
 42
-0.4142135623731731
 10
-2.638748516194482
 20
58.1001017466508
 10
-2.638748516194482
 20
57.42799728675596
 10
-5.21497371544865
 20
57.42799728675596
 42
0.4142135623731289
 10
-6.014973715448377
 20
56.627997286756
 10
-6.014973715448377
 20
55.92380871629643
 42
0.4142135623731132
 10
-5.21497371544865
 20
55.12380871629648
 10
-2.23871460064447
 20
55.12380871629648
 10
-2.23871460064447
 20
58.10010174665103
 42
0.4142135623730717
  0
LWPOLYLINE
  5
BE3
102
{ACAD_REACTORS
330
BEC
102
}
330
B9E
100
AcDbEntity
  8
9
100
AcDbPolyline
 90
       20
 70
     1
 43
0.0
 10
-10.01531287095122
 20
57.82799728675581
 10
-10.01531287095122
 20
58.10010174665103
 42
-0.4142135623730744
 10
-9.615312870951584
 20
58.5001017466509
 10
-6.92703069357276
 20
58.5001017466509
 10
-6.92703069357276
 20
58.90010174665076
 10
-9.615346786501959
 20
58.90010174665076
 42
0.4142135623730883
 10
-10.41534678650168
 20
58.1001017466508
 10
-10.41534678650168
 20
57.82796337120567
 42
0.4142135623730717
 10
-9.615346786501959
 20
57.02796337120571
 10
-7.423079531965413
 20
57.02796337120571
 42
-0.4142135623730847
 10
-7.023079531965322
 20
56.62796337120562
 10
-7.023079531965322
 20
55.90786840766487
 42
-0.4142135623730744
 10
-7.423079531965413
 20
55.507868407665
 10
-10.41534678650168
 20
55.507868407665
 10
-10.41534678650168
 20
55.12380871629648
 10
-7.445787917283723
 20
55.12380871629648
 42
0.4114777732064574
 10
-6.645822882998345
 20
55.9163291493976
 10
-6.639238813324936
 20
56.62051771985716
 42
0.4169546541682913
 10
-7.439203847610315
 20
57.42799728675596
 10
-9.615312870951584
 20
57.42799728675596
 42
-0.4142135623731576
  0
LWPOLYLINE
  5
BE4
102
{ACAD_REACTORS
330
BEC
102
}
330
B9E
100
AcDbEntity
  8
9
100
AcDbPolyline
 90
       12
 70
     1
 43
0.0
 10
-14.41561811090378
 20
58.90010174665076
 10
-14.79964388672215
 20
58.90010174665076
 10
-14.79964388672215
 20
55.92380871629643
 42
0.4142135623731133
 10
-13.99964388672242
 20
55.12380871629648
 10
-11.8233508563676
 20
55.12380871629648
 42
0.4142135623730872
 10
-11.02335085636741
 20
55.92380871629643
 10
-11.02335085636741
 20
58.90010174665076
 10
-11.42338477191788
 20
58.90010174665076
 10
-11.42338477191788
 20
55.91567577726095
 42
-0.4131711701795318
 10
-11.82196067063523
 20
55.51567831234956
 10
-14.0141940096214
 20
55.50787335710947
 42
-0.4152567234624407
 10
-14.41561811090378
 20
55.90787082202087
  0
LWPOLYLINE
  5
BE5
102
{ACAD_REACTORS
330
BEC
102
}
330
B9E
100
AcDbEntity
  8
9
100
AcDbPolyline
 90
        6
 70
     1
 43
0.0
 10
-15.80771578768872
 20
55.507868407665
 10
-18.39994912667453
 20
55.507868407665
 42
-0.4142135623731731
 10
-18.79994912667462
 20
55.90786840766487
 10
-18.79994912667462
 20
58.10010174665103
 42
-0.4142135623730744
 10
-18.39994912667453
 20
58.5001017466509
 10
-15.80771578768872
 20
58.5001017466509
  0
LWPOLYLINE
  5
BE6
102
{ACAD_REACTORS
330
BEC
102
}
330
B9E
100
AcDbEntity
  8
9
100
AcDbPolyline
 90
        8
 70
     1
 43
0.0
 10
-15.4236900118708
 20
59.87619128370352
 10
-15.80771578768872
 20
59.87619128370352
 10
-15.80771578768872
 20
58.90010174665076
 10
-18.39176256411201
 20
58.90010174665076
 42
0.4131164467977967
 10
-19.19175694739761
 20
58.1030995310698
 10
-19.1999120763262
 20
55.92680650071542
 42
0.4153115297271718
 10
-18.39991769304061
 20
55.12380871629648
 10
-15.4236900118708
 20
55.12380871629648
  0
LWPOLYLINE
  5
BE7
102
{ACAD_REACTORS
330
BEC
102
}
330
B9E
100
AcDbEntity
  8
9
100
AcDbPolyline
 90
       10
 70
     1
 43
0.0
 10
-20.59201288790928
 20
58.90010174665076
 10
-23.56830591826338
 20
58.90010174665076
 10
-23.56830591826338
 20
55.12380871629648
 10
-23.18424622689509
 20
55.12380871629648
 10
-23.18424622689509
 20
58.5001017466509
 10
-20.59204680345965
 20
58.5001017466509
 42
-0.4142135623730898
 10
-20.19204680345956
 20
58.1001017466508
 10
-20.19204680345956
 20
55.12380871629648
 10
-19.79201288790909
 20
55.12380871629648
 10
-19.79201288790909
 20
58.10010174665103
 42
0.4142135623731132
  0
LWPOLYLINE
  5
BE8
102
{ACAD_REACTORS
330
BEC
102
}
330
B9E
100
AcDbEntity
  8
9
100
AcDbPolyline
 90
        4
 70
     1
 43
0.0
 10
-24.19231812786165
 20
58.90010174665076
 10
-24.57637781922995
 20
58.90010174665076
 10
-24.57637781922995
 20
55.12380871629648
 10
-24.19231812786165
 20
55.12380871629648
  0
LWPOLYLINE
  5
BE9
102
{ACAD_REACTORS
330
BEC
102
}
330
B9E
100
AcDbEntity
  8
9
100
AcDbPolyline
 90
       10
 70
     1
 43
0.0
 10
-28.57661522808212
 20
58.5001017466509
 10
-25.98444972019706
 20
58.5001017466509
 42
-0.4142135623731731
 10
-25.58444972019652
 20
58.1001017466508
 10
-25.58444972019652
 20
55.12380871629648
 10
-25.2004239443786
 20
55.12380871629648
 10
-25.2004239443786
 20
58.10010174665103
 42
0.4142135623730717
 10
-26.00042394437833
 20
58.90010174665076
 10
-28.97664914363259
 20
58.90010174665076
 10
-28.97664914363259
 20
55.12380871629648
 10
-28.57661522808212
 20
55.12380871629648
  0
LWPOLYLINE
  5
BEA
102
{ACAD_REACTORS
330
BEC
102
}
330
B9E
100
AcDbEntity
  8
9
100
AcDbPolyline
 90
       12
 70
     1
 43
0.0
 10
-29.58465321349832
 20
58.10010174665103
 42
0.4142135623730716
 10
-30.3846532134985
 20
58.90010174665076
 10
-33.07296930642724
 20
58.90010174665076
 10
-33.07296930642724
 20
58.5001017466509
 10
-30.38468712904842
 20
58.5001017466509
 42
-0.4142135623730067
 10
-29.98468712904878
 20
58.1001017466508
 10
-29.98468712904878
 20
57.42799728675618
 10
-32.56098015940324
 20
57.42799728675596
 42
0.4142135623731289
 10
-33.36098015940343
 20
56.627997286756
 10
-33.36098015940343
 20
55.92380871629643
 42
0.4142135623731132
 10
-32.56098015940324
 20
55.12380871629648
 10
-29.58465321349832
 20
55.12380871629648
  0
LWPOLYLINE
  5
BEB
102
{ACAD_REACTORS
330
BEC
102
}
330
B9E
100
AcDbEntity
  8
9
100
AcDbPolyline
 90
       20
 70
     1
 43
0.0
 10
-34.7850262845518
 20
57.42799728675596
 10
-36.96125148380543
 20
57.42799728675596
 42
-0.4142135623730898
 10
-37.36125148380552
 20
57.82799728675604
 10
-37.36125148380552
 20
58.10010174665103
 42
-0.4142135623730744
 10
-36.96125148380543
 20
58.5001017466509
 10
-34.27303713752781
 20
58.50010174665067
 10
-34.27303713752781
 20
58.90010174665076
 10
-36.96128539935535
 20
58.90010174665076
 42
0.4142135623731289
 10
-37.76128539935553
 20
58.1001017466508
 10
-37.76128539935553
 20
57.82796337120567
 42
0.4142135623730716
 10
-36.9612853993558
 20
57.02796337120571
 10
-34.76901814481926
 20
57.02796337120571
 42
-0.414213562373168
 10
-34.36901814481962
 20
56.62796337120562
 10
-34.36901814481962
 20
55.90786840766487
 42
-0.4142135623730744
 10
-34.76901814481926
 20
55.507868407665
 10
-37.76128539935553
 20
55.507868407665
 10
-37.76128539935553
 20
55.12380871629648
 10
-34.7850262845518
 20
55.12380871629648
 42
0.4142135623731289
 10
-33.98502628455162
 20
55.92380871629643
 10
-33.98502628455162
 20
56.627997286756
 42
0.4142135623731132
  0
HATCH
  5
BEC
330
B9E
100
AcDbEntity
  8
9
100
AcDbHatch
 10
0.0
 20
0.0
 30
0.0
210
0.0
220
0.0
230
1.0
  2
SOLID
 70
     1
 71
     1
 91
       13
 92
        7
 72
     1
 73
     1
 93
       20
 10
-34.36901814481962
 20
55.90786840766487
 42
-0.414213562372991
 10
-34.76901814481926
 20
55.507868407665
 42
0.0
 10
-37.76128539935553
 20
55.507868407665
 42
0.0
 10
-37.76128539935553
 20
55.12380871629648
 42
0.0
 10
-34.7850262845518
 20
55.12380871629648
 42
0.4142135623731705
 10
-33.98502628455162
 20
55.92380871629666
 42
0.0
 10
-33.98502628455162
 20
56.627997286756
 42
0.4142135623731547
 10
-34.7850262845518
 20
57.42799728675596
 42
0.0
 10
-36.96125148380543
 20
57.42799728675596
 42
-0.4142135623730898
 10
-37.36125148380552
 20
57.82799728675604
 42
0.0
 10
-37.36125148380552
 20
58.1001017466508
 42
-0.4142135623731575
 10
-36.96125148380543
 20
58.5001017466509
 42
0.0
 10
-34.27303713752781
 20
58.50010174665067
 42
0.0
 10
-34.27303713752781
 20
58.90010174665076
 42
0.0
 10
-36.96128539935535
 20
58.90010174665076
 42
0.4142135623731705
 10
-37.76128539935553
 20
58.10010174665058
 42
0.0
 10
-37.76128539935553
 20
57.82796337120544
 42
0.4142135623730299
 10
-36.9612853993558
 20
57.02796337120571
 42
0.0
 10
-34.76901814481926
 20
57.02796337120571
 42
-0.4142135623730015
 10
-34.36901814481962
 20
56.62796337120608
 42
0.0
 97
        1
330
BEB
 92
        7
 72
     1
 73
     1
 93
       12
 10
-33.36098015940343
 20
55.92380871629666
 42
0.4142135623731547
 10
-32.56098015940324
 20
55.12380871629648
 42
0.0
 10
-29.58465321349877
 20
55.12380871629648
 42
0.0
 10
-29.58465321349832
 20
58.10010174665058
 42
0.4142135623731964
 10
-30.3846532134985
 20
58.90010174665076
 42
0.0
 10
-33.07296930642724
 20
58.90010174665076
 42
0.0
 10
-33.07296930642724
 20
58.50010174665067
 42
0.0
 10
-30.38468712904887
 20
58.5001017466509
 42
-0.4142135623732564
 10
-29.98468712904878
 20
58.10010174665103
 42
0.0
 10
-29.98468712904923
 20
57.42799728675596
 42
0.0
 10
-32.56098015940324
 20
57.42799728675596
 42
0.4142135623731705
 10
-33.36098015940343
 20
56.627997286756
 42
0.0
 97
        1
330
BEA
 92
       22
 72
     1
 73
     1
 93
        6
 10
-32.97692046803468
 20
56.62796337120562
 42
-0.4142135623731576
 10
-32.57692046803459
 20
57.02796337120571
 42
0.0
 10
-29.98468712904878
 20
57.02796337120571
 42
0.0
 10
-29.98468712904878
 20
55.507868407665
 42
0.0
 10
-32.57692046803459
 20
55.507868407665
 42
-0.4142135623731731
 10
-32.97692046803468
 20
55.90786840766487
 42
0.0
 97
        1
330
C11
 92
        7
 72
     1
 73
     1
 93
       10
 10
-28.57661522808212
 20
58.5001017466509
 42
0.0
 10
-25.98444972019661
 20
58.5001017466509
 42
-0.4142135623730067
 10
-25.58444972019652
 20
58.10010174665058
 42
0.0
 10
-25.58444972019606
 20
55.12380871629648
 42
0.0
 10
-25.20042394437906
 20
55.12380871629648
 42
0.0
 10
-25.2004239443786
 20
58.1001017466508
 42
0.4142135623731134
 10
-26.00042394437833
 20
58.90010174665076
 42
0.0
 10
-28.97664914363259
 20
58.90010174665076
 42
0.0
 10
-28.97664914363259
 20
55.12380871629648
 42
0.0
 10
-28.57661522808212
 20
55.12380871629648
 42
0.0
 97
        1
330
BE9
 92
        7
 72
     0
 73
     1
 93
        4
 10
-24.57637781922995
 20
55.12380871629648
 10
-24.19231812786165
 20
55.12380871629648
 10
-24.19231812786165
 20
58.90010174665076
 10
-24.57637781922995
 20
58.90010174665076
 97
        1
330
BE8
 92
        7
 72
     0
 73
     1
 93
        4
 10
-24.19231812786165
 20
59.87619128370352
 10
-24.5763778192304
 20
59.87619128370352
 10
-24.5763778192304
 20
59.28412752246913
 10
-24.1923181278612
 20
59.28412752246913
 97
        1
330
C12
 92
        7
 72
     1
 73
     1
 93
       10
 10
-23.18424622689509
 20
58.5001017466509
 42
0.0
 10
-20.59204680345965
 20
58.5001017466509
 42
-0.4142135623730898
 10
-20.19204680345956
 20
58.1001017466508
 42
0.0
 10
-20.19204680345956
 20
55.12380871629648
 42
0.0
 10
-19.79201288790909
 20
55.12380871629648
 42
0.0
 10
-19.79201288790909
 20
58.1001017466508
 42
0.4142135623731547
 10
-20.59201288790928
 20
58.90010174665076
 42
0.0
 10
-23.56830591826338
 20
58.90010174665076
 42
0.0
 10
-23.56830591826338
 20
55.12380871629648
 42
0.0
 10
-23.18424622689463
 20
55.12380871629648
 42
0.0
 97
        1
330
BE7
 92
        7
 72
     1
 73
     1
 93
        8
 10
-19.1999120763262
 20
55.92680650071542
 42
0.4153115297271299
 10
-18.39991769304061
 20
55.12380871629648
 42
0.0
 10
-15.4236900118708
 20
55.12380871629648
 42
0.0
 10
-15.4236900118708
 20
59.87619128370352
 42
0.0
 10
-15.80771578768872
 20
59.87619128370352
 42
0.0
 10
-15.80771578768872
 20
58.90010174665076
 42
0.0
 10
-18.39176256411201
 20
58.90010174665076
 42
0.4131164467977965
 10
-19.19175694739761
 20
58.1030995310698
 42
0.0
 97
        1
330
BE6
 92
       22
 72
     1
 73
     1
 93
        6
 10
-18.79994912667462
 20
58.1001017466508
 42
-0.4142135623731575
 10
-18.39994912667453
 20
58.5001017466509
 42
0.0
 10
-15.80771578768872
 20
58.50010174665067
 42
0.0
 10
-15.80771578768827
 20
55.507868407665
 42
0.0
 10
-18.39994912667453
 20
55.507868407665
 42
-0.4142135623731731
 10
-18.79994912667462
 20
55.90786840766487
 42
0.0
 97
        1
330
BE5
 92
        7
 72
     1
 73
     1
 93
       12
 10
-14.79964388672215
 20
55.92380871629621
 42
0.4142135623729885
 10
-13.99964388672242
 20
55.12380871629648
 42
0.0
 10
-11.8233508563676
 20
55.12380871629648
 42
0.4142135623731289
 10
-11.02335085636741
 20
55.92380871629666
 42
0.0
 10
-11.02335085636741
 20
58.90010174665076
 42
0.0
 10
-11.42338477191788
 20
58.90010174665076
 42
0.0
 10
-11.42338477191788
 20
55.91567577726095
 42
-0.4131711701795319
 10
-11.82196067063523
 20
55.51567831234956
 42
0.0
 10
-14.01419400962095
 20
55.50787335710947
 42
-0.4152567234626918
 10
-14.41561811090378
 20
55.90787082202087
 42
0.0
 10
-14.41561811090378
 20
58.90010174665076
 42
0.0
 10
-14.7996438867226
 20
58.90010174665076
 42
0.0
 97
        1
330
BE4
 92
        7
 72
     1
 73
     1
 93
       20
 10
-7.423079531965413
 20
57.02796337120571
 42
-0.414213562373168
 10
-7.023079531965322
 20
56.62796337120562
 42
0.0
 10
-7.023079531965322
 20
55.90786840766487
 42
-0.4142135623731575
 10
-7.423079531965413
 20
55.507868407665
 42
0.0
 10
-10.41534678650168
 20
55.507868407665
 42
0.0
 10
-10.41534678650168
 20
55.12380871629648
 42
0.0
 10
-7.445787917283723
 20
55.12380871629648
 42
0.4114777732065809
 10
-6.645822882998345
 20
55.91632914939783
 42
0.0
 10
-6.639238813324936
 20
56.62051771985716
 42
0.4169546541682913
 10
-7.439203847610315
 20
57.42799728675596
 42
0.0
 10
-9.615312870951584
 20
57.42799728675596
 42
-0.4142135623729911
 10
-10.01531287095122
 20
57.82799728675581
 42
0.0
 10
-10.01531287095122
 20
58.10010174665103
 42
-0.414213562372991
 10
-9.615312870951584
 20
58.5001017466509
 42
0.0
 10
-6.92703069357276
 20
58.50010174665067
 42
0.0
 10
-6.927030693572305
 20
58.90010174665076
 42
0.0
 10
-9.615346786501959
 20
58.90010174665076
 42
0.4142135623730467
 10
-10.41534678650168
 20
58.10010174665103
 42
0.0
 10
-10.41534678650168
 20
57.82796337120544
 42
0.4142135623730301
 10
-9.615346786501959
 20
57.02796337120571
 42
0.0
 97
        1
330
BE3
 92
        7
 72
     1
 73
     1
 93
       12
 10
-5.21497371544865
 20
57.42799728675596
 42
0.4142135623730871
 10
-6.014973715448377
 20
56.627997286756
 42
0.0
 10
-6.014973715448377
 20
55.92380871629621
 42
0.4142135623730715
 10
-5.21497371544865
 20
55.12380871629648
 42
0.0
 10
-2.23871460064447
 20
55.12380871629648
 42
0.0
 10
-2.23871460064447
 20
58.10010174665058
 42
0.414213562373155
 10
-3.038714600644652
 20
58.90010174665076
 42
0.0
 10
-5.726962862471737
 20
58.90010174665076
 42
0.0
 10
-5.726962862472191
 20
58.5001017466509
 42
0.0
 10
-3.038748516194573
 20
58.5001017466509
 42
-0.4142135623730067
 10
-2.638748516194482
 20
58.10010174665058
 42
0.0
 10
-2.638748516194482
 20
57.42799728675596
 42
0.0
 97
        1
330
BE2
 92
       22
 72
     1
 73
     1
 93
        6
 10
-2.638748516194937
 20
57.02796337120571
 42
0.0
 10
-2.638748516194482
 20
55.50786840766477
 42
0.0
 10
-5.21497371544865
 20
55.507868407665
 42
-0.4142135623731731
 10
-5.614973715448741
 20
55.90786840766509
 42
0.0
 10
-5.614973715448741
 20
56.62796337120562
 42
-0.4142135623731576
 10
-5.21497371544865
 20
57.02796337120571
 42
0.0
 97
        1
330
C0D
 75
     0
 76
     1
 47
0.0407044778999864
 98
       13
 10
-34.18710075113677
 20
56.16907953933765
 10
-33.12851374392494
 20
56.49471602641233
 10
-33.12851374392494
 20
56.49471602641233
 10
-28.77202873835904
 20
57.51232930166111
 10
-24.41554807250941
 20
57.91937341678636
 10
-24.41554807250941
 20
59.384734621186
 10
-23.31624584658039
 20
58.3264175319116
 10
-19.04119127844888
 20
57.75655517324913
 10
-19.04119127844888
 20
57.75655517324913
 10
-14.64399105416578
 20
57.43091868617466
 10
-8.048195057457178
 20
57.22739662861204
 10
-4.017427461911665
 20
57.18669281458665
 10
-4.017427461911665
 20
57.18669281458665
  0
TEXT
  5
BED
330
B9E
100
AcDbEntity
  8
leg fin
100
AcDbText
 10
3.391127401597259
 20
2.107634911895729
 30
0.0
 40
1.5
  1
Este desenho é propriedade da Sanindusa, S.A., e não pode ser copiado nem divulgado sem nossa autorização.
 50
90.0
 41
0.8
  7
SANINDUSA
100
AcDbText
  0
LINE
  5
BEE
330
B9E
100
AcDbEntity
  8
3
100
AcDbLine
 10
-90.0
 20
4.0
 30
0.0
 11
-90.0
 21
12.0
 31
0.0
  0
TEXT
  5
BEF
330
B9E
100
AcDbEntity
  8
1
100
AcDbText
 10
-39.0
 20
9.25
 30
0.0
 40
2.0
  1
Substituido por:
 41
0.8
  7
SANINDUSA
 11
-39.0
 21
10.25
 31
0.0
100
AcDbText
 73
     2
  0
POINT
  5
BF0
330
B9E
100
AcDbEntity
  8
SANINDUSA
100
AcDbPoint
 10
0.0
 20
0.0
 30
0.0
  0
TEXT
  5
BF1
330
B9E
100
AcDbEntity
  8
1
100
AcDbText
 10
-89.0
 20
16.74927010445663
 30
0.0
 40
2.0
  1
Normas:
 41
0.8
  7
SANINDUSA
 11
-89.0
 21
17.74927010445663
 31
0.0
100
AcDbText
 73
     2
  0
LINE
  5
BF2
330
B9E
100
AcDbEntity
  8
3
100
AcDbLine
 10
-90.0
 20
12.0
 30
0.0
 11
-90.0
 21
20.0
 31
0.0
  0
LINE
  5
BF3
330
B9E
100
AcDbEntity
  8
3
100
AcDbLine
 10
-110.546019464768
 20
12.0
 30
0.0
 11
-110.546019464768
 21
20.0
 31
0.0
  0
TEXT
  5
BF4
330
B9E
100
AcDbEntity
  8
1
100
AcDbText
 10
-109.6177520618648
 20
17.25
 30
0.0
 40
2.0
  1
Cor:
 41
0.8
  7
SANINDUSA
 11
-109.6177520618648
 21
18.25
 31
0.0
100
AcDbText
 73
     2
  0
LINE
  5
BF5
330
B9E
100
AcDbEntity
  8
leg fin
100
AcDbLine
 10
-91.42857142857156
 20
20.0
 30
0.0
 11
-91.42857142857156
 21
28.5
 31
0.0
  0
LINE
  5
BF6
330
B9E
100
AcDbEntity
  8
leg fin
100
AcDbLine
 10
-104.2857142857142
 20
20.0
 30
0.0
 11
-104.2857142857142
 21
28.5
 31
0.0
  0
LINE
  5
BF7
330
B9E
100
AcDbEntity
  8
leg fin
100
AcDbLine
 10
-117.1428571428573
 20
20.0
 30
0.0
 11
-117.1428571428573
 21
28.5
 31
0.0
  0
POINT
  5
BF8
330
B9E
100
AcDbEntity
  8
SANINDUSA
100
AcDbPoint
 10
-117.1428571428573
 20
28.5
 30
0.0
  0
POINT
  5
BF9
330
B9E
100
AcDbEntity
  8
SANINDUSA
100
AcDbPoint
 10
-104.2857142857142
 20
28.5
 30
0.0
  0
POINT
  5
BFA
330
B9E
100
AcDbEntity
  8
SANINDUSA
100
AcDbPoint
 10
-91.42857142857156
 20
28.5
 30
0.0
  0
TEXT
  5
BFB
330
B9E
100
AcDbEntity
  8
1
100
AcDbText
 10
-116.200160604496
 20
26.43288406845113
 30
0.0
 40
1.5
  1
Nº Seq.:
 41
0.8
  7
SANINDUSA
 11
-116.200160604496
 21
27.18288406845113
 31
0.0
100
AcDbText
 73
     2
  0
TEXT
  5
BFC
330
B9E
100
AcDbEntity
  8
1
100
AcDbText
 10
-103.2106584078738
 20
26.43288406845113
 30
0.0
 40
1.5
  1
Tipo:
 41
0.8
  7
SANINDUSA
 11
-103.2106584078738
 21
27.18288406845113
 31
0.0
100
AcDbText
 73
     2
  0
TEXT
  5
BFD
330
B9E
100
AcDbEntity
  8
1
100
AcDbText
 10
-90.22114672289353
 20
26.43288406845113
 30
0.0
 40
1.5
  1
Prod.:
 41
0.8
  7
SANINDUSA
 11
-90.22114672289353
 21
27.18288406845113
 31
0.0
100
AcDbText
 73
     2
  0
TEXT
  5
BFE
330
B9E
100
AcDbEntity
  8
1
100
AcDbText
 10
-64.77320576346574
 20
26.43288406845113
 30
0.0
 40
1.5
  1
Rev.:
 41
0.8
  7
SANINDUSA
 11
-64.77320576346574
 21
27.18288406845113
 31
0.0
100
AcDbText
 73
     2
  0
LINE
  5
BFF
330
B9E
100
AcDbEntity
  8
leg fin
100
AcDbLine
 10
-52.85714285714266
 20
20.0
 30
0.0
 11
-52.85714285714266
 21
28.5
 31
0.0
  0
LINE
  5
C00
330
B9E
100
AcDbEntity
  8
leg fin
100
AcDbLine
 10
-65.71428571428578
 20
20.0
 30
0.0
 11
-65.71428571428578
 21
28.5
 31
0.0
  0
LINE
  5
C01
330
B9E
100
AcDbEntity
  8
leg fin
100
AcDbLine
 10
-78.57142857142844
 20
20.0
 30
0.0
 11
-78.57142857142844
 21
28.5
 31
0.0
  0
POINT
  5
C02
330
B9E
100
AcDbEntity
  8
SANINDUSA
100
AcDbPoint
 10
-78.57142857142844
 20
28.5
 30
0.0
  0
POINT
  5
C03
330
B9E
100
AcDbEntity
  8
SANINDUSA
100
AcDbPoint
 10
-65.71428571428578
 20
28.5
 30
0.0
  0
POINT
  5
C04
330
B9E
100
AcDbEntity
  8
SANINDUSA
100
AcDbPoint
 10
-52.85714285714266
 20
28.5
 30
0.0
  0
TEXT
  5
C05
330
B9E
100
AcDbEntity
  8
1
100
AcDbText
 10
-77.61097961686573
 20
26.43288406845113
 30
0.0
 40
1.5
  1
Peça:
 41
0.8
  7
SANINDUSA
 11
-77.61097961686573
 21
27.18288406845113
 31
0.0
100
AcDbText
 73
     2
  0
TEXT
  5
C06
330
B9E
100
AcDbEntity
  8
1
100
AcDbText
 10
-52.06538060077036
 20
26.43288406845113
 30
0.0
 40
1.5
  1
Alt.:
 41
0.8
  7
SANINDUSA
 11
-52.06538060077036
 21
27.18288406845113
 31
0.0
100
AcDbText
 73
     2
  0
LINE
  5
C07
330
B9E
100
AcDbEntity
  8
3
100
AcDbLine
 10
0.0
 20
12.0
 30
0.0
 11
-40.0
 21
12.0
 31
0.0
  0
LINE
  5
C08
330
B9E
100
AcDbEntity
  8
3
100
AcDbLine
 10
-40.0
 20
32.5
 30
0.0
 11
0.0
 21
32.5
 31
0.0
  0
TEXT
  5
C09
330
B9E
100
AcDbEntity
  8
1
100
AcDbText
 10
-19.0
 20
29.75
 30
0.0
 40
2.0
  1
Folha:
 41
0.8
  7
SANINDUSA
 11
-19.0
 21
30.75
 31
0.0
100
AcDbText
 73
     2
  0
LINE
  5
C0A
330
B9E
100
AcDbEntity
  8
3
100
AcDbLine
 10
-20.0
 20
32.5
 30
0.0
 11
-20.0
 21
20.0
 31
0.0
  0
TEXT
  5
C0B
330
B9E
100
AcDbEntity
  8
1
100
AcDbText
 10
-39.0
 20
29.75
 30
0.0
 40
2.0
  1
Escala:
 41
0.8
  7
SANINDUSA
 11
-39.0
 21
30.75
 31
0.0
100
AcDbText
 73
     2
  0
TEXT
  5
C0C
330
B9E
100
AcDbEntity
  8
1
100
AcDbText
 10
-39.0
 20
17.25
 30
0.0
 40
2.0
  1
Substitui:
 41
0.8
  7
SANINDUSA
 11
-39.0
 21
18.25
 31
0.0
100
AcDbText
 73
     2
  0
LWPOLYLINE
  5
C0D
102
{ACAD_REACTORS
330
BEC
102
}
330
B9E
100
AcDbEntity
  8
9
100
AcDbPolyline
 90
        6
 70
     1
 43
0.0
 10
-2.638748516194482
 20
57.02796337120571
 10
-2.638748516194482
 20
55.50786840766477
 10
-5.21497371544865
 20
55.507868407665
 42
-0.4142135623730898
 10
-5.614973715448741
 20
55.90786840766487
 10
-5.614973715448741
 20
56.62796337120562
 42
-0.4142135623731576
 10
-5.21497371544865
 20
57.02796337120571
  0
LINE
  5
C0E
330
B9E
100
AcDbEntity
  8
3
100
AcDbLine
 10
-40.0
 20
50.0
 30
0.0
 11
0.0
 21
50.0
 31
0.0
  0
ATTDEF
  5
C0F
330
B9E
100
AcDbEntity
  8
1
100
AcDbText
 10
-31.30691739422431
 20
40.25
 30
0.0
 40
2.0
  1
XXXXXXXXXXXXXXX
 41
0.8
  7
SANINDUSA
 72
     4
 11
-20.0
 21
41.25
 31
0.0
100
AcDbAttributeDefinition
  3
Observações:
  2
OBS
 70
     0
  0
TEXT
  5
C10
330
B9E
100
AcDbEntity
  8
1
100
AcDbText
 10
-39.0
 20
47.25
 30
0.0
 40
2.0
  1
Observações:
 41
0.8
  7
SANINDUSA
 11
-39.0
 21
48.25
 31
0.0
100
AcDbText
 73
     2
  0
LWPOLYLINE
  5
C11
102
{ACAD_REACTORS
330
BEC
102
}
330
B9E
100
AcDbEntity
  8
9
100
AcDbPolyline
 90
        6
 70
     1
 43
0.0
 10
-29.98468712904878
 20
57.02796337120571
 10
-29.98468712904878
 20
55.507868407665
 10
-32.57692046803459
 20
55.507868407665
 42
-0.4142135623731731
 10
-32.97692046803468
 20
55.90786840766487
 10
-32.97692046803468
 20
56.62796337120562
 42
-0.4142135623731576
 10
-32.57692046803459
 20
57.02796337120571
  0
LWPOLYLINE
  5
C12
102
{ACAD_REACTORS
330
BEC
102
}
330
B9E
100
AcDbEntity
  8
9
100
AcDbPolyline
 90
        4
 70
     1
 43
0.0
 10
-24.19231812786165
 20
59.87619128370352
 10
-24.57637781922995
 20
59.87619128370352
 10
-24.57637781922995
 20
59.28412752246913
 10
-24.19231812786165
 20
59.28412752246913
  0
ENDBLK
  5
C14
330
B9E
100
AcDbEntity
  8
0
100
AcDbBlockEnd
  0
BLOCK
  5
2384
330
22B0
100
AcDbEntity
  8
0
100
AcDbBlockBegin
  2
bib. sifões
 70
     0
 10
0.0
 20
0.0
 30
0.0
  3
bib. sifões
  1

  0
LINE
  5
22B1
330
22B0
100
AcDbEntity
  8
SANINDUSA
  6
Continuous
100
AcDbLine
 10
4150.214765526224
 20
1678.921708130307
 30
0.0
 11
4150.214765526224
 21
1678.821710932421
 31
0.0
  0
LINE
  5
22B2
330
22B0
100
AcDbEntity
  8
SANINDUSA
  6
HIDDEN
100
AcDbLine
 10
4150.171010955892
 20
1678.721456867183
 30
0.0
 11
4150.171010955892
 21
1678.633209531364
 31
0.0
  0
LINE
  5
22B3
330
22B0
100
AcDbEntity
  8
SANINDUSA
  6
HIDDEN
100
AcDbLine
 10
4150.257010955892
 20
1678.633209531364
 30
0.0
 11
4150.257010955892
 21
1678.744630580145
 31
0.0
  0
LINE
  5
22B4
330
22B0
100
AcDbEntity
  8
SANINDUSA
  6
HIDDEN
100
AcDbLine
 10
4150.259010955891
 20
1678.636941582172
 30
0.0
 11
4150.259010955891
 21
1678.744630583096
 31
0.0
  0
LINE
  5
22B5
330
22B0
100
AcDbEntity
  8
SANINDUSA
  6
HIDDEN
100
AcDbLine
 10
4150.171010955892
 20
1678.633209531364
 30
0.0
 11
4150.257010955892
 21
1678.633209531364
 31
0.0
  0
LINE
  5
22B6
330
22B0
100
AcDbEntity
  8
SANINDUSA
  6
HIDDEN
100
AcDbLine
 10
4150.169010955891
 20
1678.636941582172
 30
0.0
 11
4150.170010955892
 21
1678.633209531364
 31
0.0
  0
LINE
  5
22B7
330
22B0
100
AcDbEntity
  8
SANINDUSA
  6
HIDDEN
100
AcDbLine
 10
4150.170010955892
 20
1678.633209531364
 30
0.0
 11
4150.171010955892
 21
1678.633209531364
 31
0.0
  0
LINE
  5
22B8
330
22B0
100
AcDbEntity
  8
SANINDUSA
  6
HIDDEN
100
AcDbLine
 10
4150.257010955892
 20
1678.633209531364
 30
0.0
 11
4150.258010955891
 21
1678.633209531364
 31
0.0
  0
LINE
  5
22B9
330
22B0
100
AcDbEntity
  8
SANINDUSA
  6
HIDDEN
100
AcDbLine
 10
4150.258010955891
 20
1678.633209531364
 30
0.0
 11
4150.259010955891
 21
1678.636941582172
 31
0.0
  0
ARC
  5
22BA
330
22B0
100
AcDbEntity
  8
SANINDUSA
  6
HIDDEN
100
AcDbCircle
 10
4150.185010955891
 20
1678.863209531364
 30
0.0
 40
0.056
100
AcDbArc
 50
100.2865606110578
 51
180.0
  0
ARC
  5
22BB
330
22B0
100
AcDbEntity
  8
SANINDUSA
  6
HIDDEN
100
AcDbCircle
 10
4150.185010955891
 20
1678.863209531364
 30
0.0
 40
0.0539999999999999
100
AcDbArc
 50
90.0
 51
180.0
  0
LINE
  5
22BC
330
22B0
100
AcDbEntity
  8
SANINDUSA
  6
HIDDEN
100
AcDbLine
 10
4150.131010955891
 20
1678.787486354191
 30
0.0
 11
4150.131010955891
 21
1678.820738953313
 31
0.0
  0
LINE
  5
22BD
330
22B0
100
AcDbEntity
  8
SANINDUSA
  6
HIDDEN
100
AcDbLine
 10
4150.129010955891
 20
1678.787486354191
 30
0.0
 11
4150.129010955891
 21
1678.820738953315
 31
0.0
  0
LINE
  5
22BE
330
22B0
100
AcDbEntity
  8
SANINDUSA
  6
HIDDEN
100
AcDbLine
 10
4150.131010955891
 20
1678.863209531364
 30
0.0
 11
4150.131010955891
 21
1678.820738953313
 31
0.0
  0
LINE
  5
22BF
330
22B0
100
AcDbEntity
  8
SANINDUSA
  6
HIDDEN
100
AcDbLine
 10
4150.129010955891
 20
1678.863209531364
 30
0.0
 11
4150.129010955891
 21
1678.820738953313
 31
0.0
  0
LINE
  5
22C0
330
22B0
100
AcDbEntity
  8
SANINDUSA
  6
HIDDEN
100
AcDbLine
 10
4150.131010955891
 20
1678.820738953313
 30
0.0
 11
4150.131010955895
 21
1678.820738953313
 31
0.0
  0
LINE
  5
22C1
330
22B0
100
AcDbEntity
  8
SANINDUSA
  6
HIDDEN
100
AcDbLine
 10
4150.255010955891
 20
1678.806209531364
 30
0.0
 11
4150.255010955891
 21
1678.804209531364
 31
0.0
  0
LINE
  5
22C2
330
22B0
100
AcDbEntity
  8
SANINDUSA
  6
HIDDEN
100
AcDbLine
 10
4150.225010955892
 20
1678.804820992727
 30
0.0
 11
4150.225010955892
 21
1678.806209531364
 31
0.0
  0
LINE
  5
22C3
330
22B0
100
AcDbEntity
  8
SANINDUSA
  6
HIDDEN
100
AcDbLine
 10
4150.223694754641
 20
1678.802586375373
 30
0.0
 11
4150.252224033724
 21
1678.760287901035
 31
0.0
  0
LINE
  5
22C4
330
22B0
100
AcDbEntity
  8
SANINDUSA
  6
HIDDEN
100
AcDbLine
 10
4150.225352880747
 20
1678.80370260692
 30
0.0
 11
4150.253882107955
 21
1678.761406288199
 31
0.0
  0
ARC
  5
22C5
330
22B0
100
AcDbEntity
  8
SANINDUSA
  6
HIDDEN
100
AcDbCircle
 10
4150.227010955891
 20
1678.804820992727
 30
0.0
 40
0.0020000000000001
100
AcDbArc
 50
180.0
 51
214.0000000001545
  0
ARC
  5
22C6
330
22B0
100
AcDbEntity
  8
SANINDUSA
  6
HIDDEN
100
AcDbCircle
 10
4150.229011131766
 20
1678.744630603597
 30
0.0
 40
0.0299998176965208
100
AcDbArc
 50
0.0
 51
33.99999865963669
  0
ARC
  5
22C7
330
22B0
100
AcDbEntity
  8
SANINDUSA
  6
HIDDEN
100
AcDbCircle
 10
4150.229011161154
 20
1678.744630623594
 30
0.0
 40
0.0279997830701829
100
AcDbArc
 50
0.0
 51
33.99999523654892
  0
LINE
  5
22C8
330
22B0
100
AcDbEntity
  8
SANINDUSA
  6
HIDDEN
100
AcDbLine
 10
4150.255010955891
 20
1678.804209531364
 30
0.0
 11
4150.259010955891
 21
1678.804209531364
 31
0.0
  0
LINE
  5
22C9
330
22B0
100
AcDbEntity
  8
SANINDUSA
  6
HIDDEN
100
AcDbLine
 10
4150.259010955891
 20
1678.808209531364
 30
0.0
 11
4150.223010955891
 21
1678.808209531364
 31
0.0
  0
LINE
  5
22CA
330
22B0
100
AcDbEntity
  8
SANINDUSA
  6
HIDDEN
100
AcDbLine
 10
4150.255010955891
 20
1678.806209531364
 30
0.0
 11
4150.225010955892
 21
1678.806209531364
 31
0.0
  0
LINE
  5
22CB
330
22B0
100
AcDbEntity
  8
SANINDUSA
  6
HIDDEN
100
AcDbLine
 10
4150.223010955891
 20
1678.808184030223
 30
0.0
 11
4150.223010955891
 21
1678.808209531364
 31
0.0
  0
LINE
  5
22CC
330
22B0
100
AcDbEntity
  8
SANINDUSA
  6
HIDDEN
100
AcDbLine
 10
4150.216010955892
 20
1678.935209531364
 30
0.0
 11
4150.259010955891
 21
1678.935209531364
 31
0.0
  0
LINE
  5
22CD
330
22B0
100
AcDbEntity
  8
SANINDUSA
  6
HIDDEN
100
AcDbLine
 10
4150.216010955892
 20
1678.937209531364
 30
0.0
 11
4150.255010955891
 21
1678.937209531364
 31
0.0
  0
LINE
  5
22CE
330
22B0
100
AcDbEntity
  8
SANINDUSA
  6
HIDDEN
100
AcDbLine
 10
4150.214010955891
 20
1678.933209531364
 30
0.0
 11
4150.214010955891
 21
1678.922209531364
 31
0.0
  0
LINE
  5
22CF
330
22B0
100
AcDbEntity
  8
SANINDUSA
  6
HIDDEN
100
AcDbLine
 10
4150.212010955891
 20
1678.933209531364
 30
0.0
 11
4150.212010955891
 21
1678.922209531364
 31
0.0
  0
LINE
  5
22D0
330
22B0
100
AcDbEntity
  8
SANINDUSA
  6
HIDDEN
100
AcDbLine
 10
4150.190010955891
 20
1678.936209531364
 30
0.0
 11
4150.190010955891
 21
1678.932209531364
 31
0.0
  0
LINE
  5
22D1
330
22B0
100
AcDbEntity
  8
SANINDUSA
  6
HIDDEN
100
AcDbLine
 10
4150.175010955892
 20
1678.936209531364
 30
0.0
 11
4150.175010955892
 21
1678.932209531364
 31
0.0
  0
LINE
  5
22D2
330
22B0
100
AcDbEntity
  8
SANINDUSA
  6
HIDDEN
100
AcDbLine
 10
4150.190010955891
 20
1678.919209531364
 30
0.0
 11
4150.209010955891
 21
1678.919209531364
 31
0.0
  0
LINE
  5
22D3
330
22B0
100
AcDbEntity
  8
SANINDUSA
  6
HIDDEN
100
AcDbLine
 10
4150.185010955891
 20
1678.917209531364
 30
0.0
 11
4150.209010955891
 21
1678.917209531364
 31
0.0
  0
LINE
  5
22D4
330
22B0
100
AcDbEntity
  8
SANINDUSA
  6
HIDDEN
100
AcDbLine
 10
4150.190010955891
 20
1678.932209531364
 30
0.0
 11
4150.175010955892
 21
1678.932209531364
 31
0.0
  0
LINE
  5
22D5
330
22B0
100
AcDbEntity
  8
SANINDUSA
  6
HIDDEN
100
AcDbLine
 10
4150.175010955892
 20
1678.924209531364
 30
0.0
 11
4150.190010955891
 21
1678.924209531364
 31
0.0
  0
LINE
  5
22D6
330
22B0
100
AcDbEntity
  8
SANINDUSA
  6
HIDDEN
100
AcDbLine
 10
4150.190010955891
 20
1678.924210140583
 30
0.0
 11
4150.175010955892
 21
1678.924210140583
 31
0.0
  0
LINE
  5
22D7
330
22B0
100
AcDbEntity
  8
SANINDUSA
  6
HIDDEN
100
AcDbLine
 10
4150.175010955892
 20
1678.932098849282
 30
0.0
 11
4150.175010955892
 21
1678.924331107506
 31
0.0
  0
LINE
  5
22D8
330
22B0
100
AcDbEntity
  8
SANINDUSA
  6
HIDDEN
100
AcDbLine
 10
4150.175010955892
 20
1678.932208922145
 30
0.0
 11
4150.175010955892
 21
1678.932209531364
 31
0.0
  0
LINE
  5
22D9
330
22B0
100
AcDbEntity
  8
SANINDUSA
  6
HIDDEN
100
AcDbLine
 10
4150.175010955892
 20
1678.932098849282
 30
0.0
 11
4150.175010955892
 21
1678.932208922145
 31
0.0
  0
LINE
  5
22DA
330
22B0
100
AcDbEntity
  8
SANINDUSA
  6
HIDDEN
100
AcDbLine
 10
4150.175010955892
 20
1678.924209531364
 30
0.0
 11
4150.175010955892
 21
1678.924210140583
 31
0.0
  0
LINE
  5
22DB
330
22B0
100
AcDbEntity
  8
SANINDUSA
  6
HIDDEN
100
AcDbLine
 10
4150.175010955892
 20
1678.924210140583
 30
0.0
 11
4150.175010955892
 21
1678.924331107506
 31
0.0
  0
LINE
  5
22DC
330
22B0
100
AcDbEntity
  8
SANINDUSA
  6
HIDDEN
100
AcDbLine
 10
4150.175010955892
 20
1678.924209531364
 30
0.0
 11
4150.175010955892
 21
1678.91830944062
 31
0.0
  0
LINE
  5
22DD
330
22B0
100
AcDbEntity
  8
SANINDUSA
  6
HIDDEN
100
AcDbLine
 10
4150.190010955891
 20
1678.932098849282
 30
0.0
 11
4150.190010955891
 21
1678.924331107506
 31
0.0
  0
LINE
  5
22DE
330
22B0
100
AcDbEntity
  8
SANINDUSA
  6
HIDDEN
100
AcDbLine
 10
4150.190010955891
 20
1678.932208922145
 30
0.0
 11
4150.190010955891
 21
1678.932209531364
 31
0.0
  0
LINE
  5
22DF
330
22B0
100
AcDbEntity
  8
SANINDUSA
  6
HIDDEN
100
AcDbLine
 10
4150.190010955891
 20
1678.932098849282
 30
0.0
 11
4150.190010955891
 21
1678.932208922145
 31
0.0
  0
LINE
  5
22E0
330
22B0
100
AcDbEntity
  8
SANINDUSA
  6
HIDDEN
100
AcDbLine
 10
4150.190010955891
 20
1678.924209531364
 30
0.0
 11
4150.190010955891
 21
1678.924210140583
 31
0.0
  0
LINE
  5
22E1
330
22B0
100
AcDbEntity
  8
SANINDUSA
  6
HIDDEN
100
AcDbLine
 10
4150.190010955891
 20
1678.924210140583
 30
0.0
 11
4150.190010955891
 21
1678.924331107506
 31
0.0
  0
LINE
  5
22E2
330
22B0
100
AcDbEntity
  8
SANINDUSA
  6
HIDDEN
100
AcDbLine
 10
4150.190010955891
 20
1678.924209531364
 30
0.0
 11
4150.190010955891
 21
1678.919209531364
 31
0.0
  0
ARC
  5
22E3
330
22B0
100
AcDbEntity
  8
SANINDUSA
  6
HIDDEN
100
AcDbCircle
 10
4150.209010955891
 20
1678.922209531364
 30
0.0
 40
0.003
100
AcDbArc
 50
270.0
 51
0.0
  0
ARC
  5
22E4
330
22B0
100
AcDbEntity
  8
SANINDUSA
  6
HIDDEN
100
AcDbCircle
 10
4150.209010955891
 20
1678.922209531364
 30
0.0
 40
0.005
100
AcDbArc
 50
270.0
 51
0.0
  0
LINE
  5
22E5
330
22B0
100
AcDbEntity
  8
SANINDUSA
  6
HIDDEN
100
AcDbLine
 10
4150.175010955892
 20
1678.936209531364
 30
0.0
 11
4150.190010955891
 21
1678.936209531364
 31
0.0
  0
ARC
  5
22E6
330
22B0
100
AcDbEntity
  8
SANINDUSA
  6
HIDDEN
100
AcDbCircle
 10
4150.216010955892
 20
1678.933209531364
 30
0.0
 40
0.002
100
AcDbArc
 50
90.0
 51
180.0
  0
ARC
  5
22E7
330
22B0
100
AcDbEntity
  8
SANINDUSA
  6
HIDDEN
100
AcDbCircle
 10
4150.216010955892
 20
1678.933209531364
 30
0.0
 40
0.0040000000000001
100
AcDbArc
 50
90.0
 51
180.0
  0
LINE
  5
22E8
330
22B0
100
AcDbEntity
  8
SANINDUSA
  6
HIDDEN
100
AcDbLine
 10
4150.259010955891
 20
1678.939209531364
 30
0.0
 11
4150.255010955891
 21
1678.939209531364
 31
0.0
  0
LINE
  5
22E9
330
22B0
100
AcDbEntity
  8
SANINDUSA
  6
HIDDEN
100
AcDbLine
 10
4150.255010955891
 20
1678.939209531364
 30
0.0
 11
4150.255010955891
 21
1678.937209531364
 31
0.0
  0
LINE
  5
22EA
330
22B0
100
AcDbEntity
  8
SANINDUSA
  6
HIDDEN
100
AcDbLine
 10
4150.259010955891
 20
1678.939209531364
 30
0.0
 11
4150.259010955891
 21
1678.935209531364
 31
0.0
  0
LINE
  5
22EB
330
22B0
100
AcDbEntity
  8
SANINDUSA
  6
HIDDEN
100
AcDbLine
 10
4150.259010955891
 20
1678.808209531364
 30
0.0
 11
4150.259010955891
 21
1678.804209531364
 31
0.0
  0
LINE
  5
22EC
330
22B0
100
AcDbEntity
  8
SANINDUSA
  6
HIDDEN
100
AcDbLine
 10
4150.223010955891
 20
1678.808184030223
 30
0.0
 11
4150.223010955891
 21
1678.804823071434
 31
0.0
  0
ARC
  5
22ED
330
22B0
100
AcDbEntity
  8
SANINDUSA
  6
HIDDEN
100
AcDbCircle
 10
4150.227010955891
 20
1678.804823071434
 30
0.0
 40
0.004
100
AcDbArc
 50
180.0
 51
213.9986946280517
  0
LINE
  5
22EE
330
22B0
100
AcDbEntity
  8
SANINDUSA
  6
HIDDEN
100
AcDbLine
 10
4150.169010955891
 20
1678.721456867183
 30
0.0
 11
4150.169010955891
 21
1678.636941582172
 31
0.0
  0
ARC
  5
22EF
330
22B0
100
AcDbEntity
  8
SANINDUSA
  6
HIDDEN
100
AcDbCircle
 10
4150.149010955892
 20
1678.721456867183
 30
0.0
 40
0.02
100
AcDbArc
 50
0.0
 51
37.28570792801806
  0
LINE
  5
22F0
330
22B0
100
AcDbEntity
  8
SANINDUSA
  6
HIDDEN
100
AcDbLine
 10
4150.13309846357
 20
1678.77537055508
 30
0.0
 11
4150.164923448214
 21
1678.733572666294
 31
0.0
  0
ARC
  5
22F1
330
22B0
100
AcDbEntity
  8
SANINDUSA
  6
HIDDEN
100
AcDbCircle
 10
4150.149010955892
 20
1678.787486354191
 30
0.0
 40
0.02
100
AcDbArc
 50
180.0
 51
217.2857079280181
  0
ARC
  5
22F2
330
22B0
100
AcDbEntity
  8
SANINDUSA
  6
HIDDEN
100
AcDbCircle
 10
4150.149010955892
 20
1678.721456867183
 30
0.0
 40
0.022
100
AcDbArc
 50
0.0
 51
37.28570792801806
  0
LINE
  5
22F3
330
22B0
100
AcDbEntity
  8
SANINDUSA
  6
HIDDEN
100
AcDbLine
 10
4150.134689712801
 20
1678.776582134991
 30
0.0
 11
4150.166514697445
 21
1678.734784246205
 31
0.0
  0
ARC
  5
22F4
330
22B0
100
AcDbEntity
  8
SANINDUSA
  6
HIDDEN
100
AcDbCircle
 10
4150.149010955892
 20
1678.787486354191
 30
0.0
 40
0.018
100
AcDbArc
 50
180.0
 51
217.2857079280181
  0
LINE
  5
22F5
330
22B0
100
AcDbEntity
  8
SANINDUSA
100
AcDbLine
 10
4150.239010955892
 20
1678.801709531364
 30
0.0
 11
4150.259056398702
 21
1678.80216510961
 31
0.0
  0
LINE
  5
22F6
330
22B0
100
AcDbEntity
  8
SANINDUSA
100
AcDbLine
 10
4150.259056398702
 20
1678.941253953118
 30
0.0
 11
4150.239010955892
 21
1678.941709531364
 31
0.0
  0
LINE
  5
22F7
330
22B0
100
AcDbEntity
  8
SANINDUSA
100
AcDbLine
 10
4150.239010955892
 20
1678.806209531364
 30
0.0
 11
4150.239010955892
 21
1678.801709531364
 31
0.0
  0
LINE
  5
22F8
330
22B0
100
AcDbEntity
  8
SANINDUSA
100
AcDbLine
 10
4150.239010955892
 20
1678.941709531364
 30
0.0
 11
4150.239010955892
 21
1678.937209531364
 31
0.0
  0
LINE
  5
22F9
330
22B0
100
AcDbEntity
  8
SANINDUSA
100
AcDbLine
 10
4150.261010955892
 20
1678.930209531364
 30
0.0
 11
4150.261010955892
 21
1678.923524381822
 31
0.0
  0
LINE
  5
22FA
330
22B0
100
AcDbEntity
  8
SANINDUSA
100
AcDbLine
 10
4150.261010955892
 20
1678.819894680906
 30
0.0
 11
4150.261010955892
 21
1678.813209531364
 31
0.0
  0
LINE
  5
22FB
330
22B0
100
AcDbEntity
  8
SANINDUSA
100
AcDbLine
 10
4150.261010955892
 20
1678.804164593281
 30
0.0
 11
4150.261010955892
 21
1678.813209531364
 31
0.0
  0
LINE
  5
22FC
330
22B0
100
AcDbEntity
  8
SANINDUSA
100
AcDbLine
 10
4150.259010955891
 20
1678.812209531364
 30
0.0
 11
4150.259010955891
 21
1678.804164593281
 31
0.0
  0
LINE
  5
22FD
330
22B0
100
AcDbEntity
  8
SANINDUSA
100
AcDbLine
 10
4150.259010955891
 20
1678.804164593281
 30
0.0
 11
4150.254033677297
 21
1678.804051473313
 31
0.0
  0
LINE
  5
22FE
330
22B0
100
AcDbEntity
  8
SANINDUSA
100
AcDbLine
 10
4150.241010955891
 20
1678.804778487876
 30
0.0
 11
4150.241010955891
 21
1678.806209531364
 31
0.0
  0
LINE
  5
22FF
330
22B0
100
AcDbEntity
  8
SANINDUSA
100
AcDbLine
 10
4150.253010955892
 20
1678.805051215148
 30
0.0
 11
4150.253010955892
 21
1678.806209531364
 31
0.0
  0
LINE
  5
2300
330
22B0
100
AcDbEntity
  8
SANINDUSA
100
AcDbLine
 10
4150.251010955892
 20
1678.806209531364
 30
0.0
 11
4150.251010955892
 21
1678.804960306058
 31
0.0
  0
LINE
  5
2301
330
22B0
100
AcDbEntity
  8
SANINDUSA
100
AcDbLine
 10
4150.249010955891
 20
1678.804960306058
 30
0.0
 11
4150.249010955891
 21
1678.806209531364
 31
0.0
  0
LINE
  5
2302
330
22B0
100
AcDbEntity
  8
SANINDUSA
100
AcDbLine
 10
4150.247010955892
 20
1678.806209531364
 30
0.0
 11
4150.247010955892
 21
1678.804869396967
 31
0.0
  0
LINE
  5
2303
330
22B0
100
AcDbEntity
  8
SANINDUSA
100
AcDbLine
 10
4150.245010955891
 20
1678.804869396967
 30
0.0
 11
4150.245010955891
 21
1678.806209531364
 31
0.0
  0
LINE
  5
2304
330
22B0
100
AcDbEntity
  8
SANINDUSA
100
AcDbLine
 10
4150.243010955892
 20
1678.806209531364
 30
0.0
 11
4150.243010955892
 21
1678.804778487876
 31
0.0
  0
LINE
  5
2305
330
22B0
100
AcDbEntity
  8
SANINDUSA
100
AcDbLine
 10
4150.254329117287
 20
1678.820012595705
 30
0.0
 11
4150.259010955891
 21
1678.812209531364
 31
0.0
  0
LINE
  5
2306
330
22B0
100
AcDbEntity
  8
SANINDUSA
100
AcDbLine
 10
4150.261010955892
 20
1678.813209531364
 30
0.0
 11
4150.258016290748
 21
1678.819947527938
 31
0.0
  0
LINE
  5
2307
330
22B0
100
AcDbEntity
  8
SANINDUSA
100
AcDbLine
 10
4150.259010955891
 20
1678.939254469447
 30
0.0
 11
4150.259010955891
 21
1678.931209531364
 31
0.0
  0
LINE
  5
2308
330
22B0
100
AcDbEntity
  8
SANINDUSA
100
AcDbLine
 10
4150.261010955892
 20
1678.930209531364
 30
0.0
 11
4150.261010955892
 21
1678.939254469447
 31
0.0
  0
LINE
  5
2309
330
22B0
100
AcDbEntity
  8
SANINDUSA
100
AcDbLine
 10
4150.259010955891
 20
1678.931209531364
 30
0.0
 11
4150.254329117287
 21
1678.923406467023
 31
0.0
  0
LINE
  5
230A
330
22B0
100
AcDbEntity
  8
SANINDUSA
100
AcDbLine
 10
4150.258016290748
 20
1678.92347153479
 30
0.0
 11
4150.261010955892
 21
1678.930209531364
 31
0.0
  0
LINE
  5
230B
330
22B0
100
AcDbEntity
  8
SANINDUSA
100
AcDbLine
 10
4150.254033677297
 20
1678.939367589415
 30
0.0
 11
4150.259010955891
 21
1678.939254469447
 31
0.0
  0
LINE
  5
230C
330
22B0
100
AcDbEntity
  8
SANINDUSA
100
AcDbLine
 10
4150.241010955891
 20
1678.937209531364
 30
0.0
 11
4150.241010955891
 21
1678.938640574853
 31
0.0
  0
LINE
  5
230D
330
22B0
100
AcDbEntity
  8
SANINDUSA
100
AcDbLine
 10
4150.243010955892
 20
1678.938640574853
 30
0.0
 11
4150.243010955892
 21
1678.937209531364
 31
0.0
  0
LINE
  5
230E
330
22B0
100
AcDbEntity
  8
SANINDUSA
100
AcDbLine
 10
4150.245010955891
 20
1678.937209531364
 30
0.0
 11
4150.245010955891
 21
1678.938549665762
 31
0.0
  0
LINE
  5
230F
330
22B0
100
AcDbEntity
  8
SANINDUSA
100
AcDbLine
 10
4150.247010955892
 20
1678.938549665762
 30
0.0
 11
4150.247010955892
 21
1678.937209531364
 31
0.0
  0
LINE
  5
2310
330
22B0
100
AcDbEntity
  8
SANINDUSA
100
AcDbLine
 10
4150.249010955891
 20
1678.937209531364
 30
0.0
 11
4150.249010955891
 21
1678.938458756671
 31
0.0
  0
LINE
  5
2311
330
22B0
100
AcDbEntity
  8
SANINDUSA
100
AcDbLine
 10
4150.251010955892
 20
1678.938458756671
 30
0.0
 11
4150.251010955892
 21
1678.937209531364
 31
0.0
  0
LINE
  5
2312
330
22B0
100
AcDbEntity
  8
SANINDUSA
100
AcDbLine
 10
4150.253010955892
 20
1678.937209531364
 30
0.0
 11
4150.253010955892
 21
1678.93836784758
 31
0.0
  0
ARC
  5
2313
330
22B0
100
AcDbEntity
  8
SANINDUSA
100
AcDbCircle
 10
4150.242010955891
 20
1678.804778487876
 30
0.0
 40
0.0010000000000002
100
AcDbArc
 50
180.0
 51
0.0
  0
ARC
  5
2314
330
22B0
100
AcDbEntity
  8
SANINDUSA
100
AcDbCircle
 10
4150.246010955892
 20
1678.804869396967
 30
0.0
 40
0.0010000000000002
100
AcDbArc
 50
180.0
 51
0.0
  0
ARC
  5
2315
330
22B0
100
AcDbEntity
  8
SANINDUSA
100
AcDbCircle
 10
4150.250010955891
 20
1678.804960306058
 30
0.0
 40
0.0010000000000002
100
AcDbArc
 50
180.0
 51
0.0
  0
ARC
  5
2316
330
22B0
100
AcDbEntity
  8
SANINDUSA
100
AcDbCircle
 10
4150.254010955891
 20
1678.805051215148
 30
0.0
 40
0.0010000000000002
100
AcDbArc
 50
180.0
 51
271.301952672039
  0
ARC
  5
2317
330
22B0
100
AcDbEntity
  8
SANINDUSA
100
AcDbCircle
 10
4150.250010955891
 20
1678.938458756671
 30
0.0
 40
0.0010000000000002
100
AcDbArc
 50
0.0
 51
180.0
  0
ARC
  5
2318
330
22B0
100
AcDbEntity
  8
SANINDUSA
100
AcDbCircle
 10
4150.242010955891
 20
1678.938640574853
 30
0.0
 40
0.0010000000000002
100
AcDbArc
 50
0.0
 51
180.0
  0
LINE
  5
2319
330
22B0
100
AcDbEntity
  8
SANINDUSA
100
AcDbLine
 10
4150.241010955891
 20
1678.938640574853
 30
0.0
 11
4150.241010955891
 21
1678.937209531364
 31
0.0
  0
ARC
  5
231A
330
22B0
100
AcDbEntity
  8
SANINDUSA
100
AcDbCircle
 10
4150.246010955892
 20
1678.938549665762
 30
0.0
 40
0.0010000000000002
100
AcDbArc
 50
0.0
 51
180.0
  0
LINE
  5
231B
330
22B0
100
AcDbEntity
  8
SANINDUSA
100
AcDbLine
 10
4150.243010955892
 20
1678.937209531364
 30
0.0
 11
4150.243010955892
 21
1678.938640574853
 31
0.0
  0
LINE
  5
231C
330
22B0
100
AcDbEntity
  8
SANINDUSA
100
AcDbLine
 10
4150.245010955891
 20
1678.938549665762
 30
0.0
 11
4150.245010955891
 21
1678.937209531364
 31
0.0
  0
LINE
  5
231D
330
22B0
100
AcDbEntity
  8
SANINDUSA
100
AcDbLine
 10
4150.247010955892
 20
1678.937209531364
 30
0.0
 11
4150.247010955892
 21
1678.938549665762
 31
0.0
  0
LINE
  5
231E
330
22B0
100
AcDbEntity
  8
SANINDUSA
100
AcDbLine
 10
4150.249010955891
 20
1678.938458756671
 30
0.0
 11
4150.249010955891
 21
1678.937209531364
 31
0.0
  0
ARC
  5
231F
330
22B0
100
AcDbEntity
  8
SANINDUSA
100
AcDbCircle
 10
4150.254010955891
 20
1678.93836784758
 30
0.0
 40
0.0010000000000002
100
AcDbArc
 50
88.69804732796104
 51
180.0
  0
LINE
  5
2320
330
22B0
100
AcDbEntity
  8
SANINDUSA
100
AcDbLine
 10
4150.251010955892
 20
1678.937209531364
 30
0.0
 11
4150.251010955892
 21
1678.938458756671
 31
0.0
  0
LINE
  5
2321
330
22B0
100
AcDbEntity
  8
SANINDUSA
100
AcDbLine
 10
4150.253010955892
 20
1678.93836784758
 30
0.0
 11
4150.253010955892
 21
1678.937209531364
 31
0.0
  0
ARC
  5
2322
330
22B0
100
AcDbEntity
  8
SANINDUSA
100
AcDbCircle
 10
4150.259010955891
 20
1678.939254469447
 30
0.0
 40
0.002
100
AcDbArc
 50
0.0
 51
88.69804732796104
  0
ARC
  5
2323
330
22B0
100
AcDbEntity
  8
SANINDUSA
100
AcDbCircle
 10
4150.259010955891
 20
1678.804164593281
 30
0.0
 40
0.002
100
AcDbArc
 50
271.301952672039
 51
0.0
  0
LINE
  5
2324
330
22B0
100
AcDbEntity
  8
SANINDUSA
  6
Continuous
100
AcDbLine
 10
4150.7442175241
 20
1678.876336833596
 30
0.0
 11
4150.7442175241
 21
1678.77633963571
 31
0.0
  0
LINE
  5
2325
330
22B0
100
AcDbEntity
  8
SANINDUSA
100
AcDbLine
 10
4150.75124156398
 20
1678.756338234653
 30
0.0
 11
4150.771287006789
 21
1678.756793812899
 31
0.0
  0
LINE
  5
2326
330
22B0
100
AcDbEntity
  8
SANINDUSA
100
AcDbLine
 10
4150.771287006789
 20
1678.895882656407
 30
0.0
 11
4150.75124156398
 21
1678.896338234653
 31
0.0
  0
LINE
  5
2327
330
22B0
100
AcDbEntity
  8
SANINDUSA
100
AcDbLine
 10
4150.75124156398
 20
1678.763374360006
 30
0.0
 11
4150.75124156398
 21
1678.756338234653
 31
0.0
  0
LINE
  5
2328
330
22B0
100
AcDbEntity
  8
SANINDUSA
100
AcDbLine
 10
4150.75124156398
 20
1678.896338234653
 30
0.0
 11
4150.75124156398
 21
1678.8893021093
 31
0.0
  0
LINE
  5
2329
330
22B0
100
AcDbEntity
  8
SANINDUSA
100
AcDbLine
 10
4150.773241563979
 20
1678.884838234653
 30
0.0
 11
4150.773241563979
 21
1678.877849178232
 31
0.0
  0
LINE
  5
232A
330
22B0
100
AcDbEntity
  8
SANINDUSA
100
AcDbLine
 10
4150.773241563979
 20
1678.774827291073
 30
0.0
 11
4150.773241563979
 21
1678.767838234653
 31
0.0
  0
LINE
  5
232B
330
22B0
100
AcDbEntity
  8
SANINDUSA
100
AcDbLine
 10
4150.773241563979
 20
1678.758793296569
 30
0.0
 11
4150.773241563979
 21
1678.767838234653
 31
0.0
  0
LINE
  5
232C
330
22B0
100
AcDbEntity
  8
SANINDUSA
100
AcDbLine
 10
4150.77124156398
 20
1678.766838234652
 30
0.0
 11
4150.77124156398
 21
1678.758793296569
 31
0.0
  0
LINE
  5
232D
330
22B0
100
AcDbEntity
  8
SANINDUSA
100
AcDbLine
 10
4150.77124156398
 20
1678.758793296569
 30
0.0
 11
4150.766264285385
 21
1678.758680176601
 31
0.0
  0
LINE
  5
232E
330
22B0
100
AcDbEntity
  8
SANINDUSA
100
AcDbLine
 10
4150.75324156398
 20
1678.759407191164
 30
0.0
 11
4150.75324156398
 21
1678.76244739799
 31
0.0
  0
LINE
  5
232F
330
22B0
100
AcDbEntity
  8
SANINDUSA
100
AcDbLine
 10
4150.755241563979
 20
1678.761488228269
 30
0.0
 11
4150.755241563979
 21
1678.759407191164
 31
0.0
  0
LINE
  5
2330
330
22B0
100
AcDbEntity
  8
SANINDUSA
100
AcDbLine
 10
4150.766375429884
 20
1678.774948458146
 30
0.0
 11
4150.77124156398
 21
1678.766838234652
 31
0.0
  0
LINE
  5
2331
330
22B0
100
AcDbEntity
  8
SANINDUSA
100
AcDbLine
 10
4150.773241563979
 20
1678.767838234653
 30
0.0
 11
4150.770110761366
 21
1678.774882540531
 31
0.0
  0
LINE
  5
2332
330
22B0
100
AcDbEntity
  8
SANINDUSA
100
AcDbLine
 10
4150.77124156398
 20
1678.893883172736
 30
0.0
 11
4150.77124156398
 21
1678.885838234653
 31
0.0
  0
LINE
  5
2333
330
22B0
100
AcDbEntity
  8
SANINDUSA
100
AcDbLine
 10
4150.773241563979
 20
1678.884838234653
 30
0.0
 11
4150.773241563979
 21
1678.893883172736
 31
0.0
  0
LINE
  5
2334
330
22B0
100
AcDbEntity
  8
SANINDUSA
100
AcDbLine
 10
4150.77124156398
 20
1678.885838234653
 30
0.0
 11
4150.766375429884
 21
1678.87772801116
 31
0.0
  0
LINE
  5
2335
330
22B0
100
AcDbEntity
  8
SANINDUSA
100
AcDbLine
 10
4150.770110761366
 20
1678.877793928774
 30
0.0
 11
4150.773241563979
 21
1678.884838234653
 31
0.0
  0
LINE
  5
2336
330
22B0
100
AcDbEntity
  8
SANINDUSA
100
AcDbLine
 10
4150.766264285385
 20
1678.893996292704
 30
0.0
 11
4150.77124156398
 21
1678.893883172736
 31
0.0
  0
LINE
  5
2337
330
22B0
100
AcDbEntity
  8
SANINDUSA
100
AcDbLine
 10
4150.75324156398
 20
1678.890229071316
 30
0.0
 11
4150.75324156398
 21
1678.893269278141
 31
0.0
  0
LINE
  5
2338
330
22B0
100
AcDbEntity
  8
SANINDUSA
100
AcDbLine
 10
4150.755241563979
 20
1678.893269278141
 30
0.0
 11
4150.755241563979
 21
1678.891188241037
 31
0.0
  0
ARC
  5
2339
330
22B0
100
AcDbEntity
  8
SANINDUSA
100
AcDbCircle
 10
4150.754241563979
 20
1678.759407191164
 30
0.0
 40
0.0010000000000002
100
AcDbArc
 50
180.0
 51
0.0
  0
ARC
  5
233A
330
22B0
100
AcDbEntity
  8
SANINDUSA
100
AcDbCircle
 10
4150.758241563979
 20
1678.759498100255
 30
0.0
 40
0.0010000000000002
100
AcDbArc
 50
180.5639344929805
 51
343.1500899781539
  0
ARC
  5
233B
330
22B0
100
AcDbEntity
  8
SANINDUSA
100
AcDbCircle
 10
4150.76224156398
 20
1678.759589009346
 30
0.0
 40
0.0010000000000002
100
AcDbArc
 50
202.3816772040879
 51
337.6183227959121
  0
ARC
  5
233C
330
22B0
100
AcDbEntity
  8
SANINDUSA
100
AcDbCircle
 10
4150.76624156398
 20
1678.759679918437
 30
0.0
 40
0.0010000000000002
100
AcDbArc
 50
208.1436502311436
 51
271.301952672039
  0
ARC
  5
233D
330
22B0
100
AcDbEntity
  8
SANINDUSA
100
AcDbCircle
 10
4150.76224156398
 20
1678.893087459959
 30
0.0
 40
0.0010000000000002
100
AcDbArc
 50
22.38167719204172
 51
157.6183228079583
  0
ARC
  5
233E
330
22B0
100
AcDbEntity
  8
SANINDUSA
100
AcDbCircle
 10
4150.754241563979
 20
1678.893269278141
 30
0.0
 40
0.0010000000000002
100
AcDbArc
 50
0.0
 51
180.0
  0
LINE
  5
233F
330
22B0
100
AcDbEntity
  8
SANINDUSA
100
AcDbLine
 10
4150.75324156398
 20
1678.893269278141
 30
0.0
 11
4150.75324156398
 21
1678.890229071316
 31
0.0
  0
ARC
  5
2340
330
22B0
100
AcDbEntity
  8
SANINDUSA
100
AcDbCircle
 10
4150.758241563979
 20
1678.89317836905
 30
0.0
 40
0.0010000000000002
100
AcDbArc
 50
16.84991000937786
 51
179.4360655200464
  0
LINE
  5
2341
330
22B0
100
AcDbEntity
  8
SANINDUSA
100
AcDbLine
 10
4150.755241563979
 20
1678.891188241037
 30
0.0
 11
4150.755241563979
 21
1678.893269278141
 31
0.0
  0
ARC
  5
2342
330
22B0
100
AcDbEntity
  8
SANINDUSA
100
AcDbCircle
 10
4150.76624156398
 20
1678.892996550868
 30
0.0
 40
0.0010000000000002
100
AcDbArc
 50
88.69804732796104
 51
151.8563497803436
  0
ARC
  5
2343
330
22B0
100
AcDbEntity
  8
SANINDUSA
100
AcDbCircle
 10
4150.77124156398
 20
1678.893883172736
 30
0.0
 40
0.002
100
AcDbArc
 50
0.0
 51
88.69804732796104
  0
ARC
  5
2344
330
22B0
100
AcDbEntity
  8
SANINDUSA
100
AcDbCircle
 10
4150.77124156398
 20
1678.758793296569
 30
0.0
 40
0.002
100
AcDbArc
 50
271.301952672039
 51
0.0
  0
LINE
  5
2345
330
22B0
100
AcDbEntity
  8
SANINDUSA
100
AcDbLine
 10
4150.758942316498
 20
1678.891018234653
 30
0.0
 11
4150.758942316498
 21
1678.87759683857
 31
0.0
  0
LINE
  5
2346
330
22B0
100
AcDbEntity
  8
SANINDUSA
100
AcDbLine
 10
4150.758942316498
 20
1678.775079630735
 30
0.0
 11
4150.758942316498
 21
1678.761658234652
 31
0.0
  0
LINE
  5
2347
330
22B0
100
AcDbEntity
  8
SANINDUSA
100
AcDbLine
 10
4150.752621563979
 20
1678.881218234653
 30
0.0
 11
4150.752621563979
 21
1678.877485295879
 31
0.0
  0
LINE
  5
2348
330
22B0
100
AcDbEntity
  8
SANINDUSA
100
AcDbLine
 10
4150.752621563979
 20
1678.775191173426
 30
0.0
 11
4150.752621563979
 21
1678.771458234653
 31
0.0
  0
LINE
  5
2349
330
22B0
100
AcDbEntity
  8
SANINDUSA
100
AcDbLine
 10
4150.748652316497
 20
1678.880728234653
 30
0.0
 11
4150.748652316497
 21
1678.877415250336
 31
0.0
  0
LINE
  5
234A
330
22B0
100
AcDbEntity
  8
SANINDUSA
100
AcDbLine
 10
4150.748652316497
 20
1678.77526121897
 30
0.0
 11
4150.748652316497
 21
1678.771948234652
 31
0.0
  0
LINE
  5
234B
330
22B0
100
AcDbEntity
  8
SANINDUSA
100
AcDbLine
 10
4150.487041563979
 20
1678.778318234653
 30
0.0
 11
4150.487041563979
 21
1678.874358234653
 31
0.0
  0
LINE
  5
234C
330
22B0
100
AcDbEntity
  8
SANINDUSA
100
AcDbLine
 10
4150.487531563979
 20
1678.873868234653
 30
0.0
 11
4150.487531563979
 21
1678.778808234653
 31
0.0
  0
LINE
  5
234D
330
22B0
100
AcDbEntity
  8
SANINDUSA
100
AcDbLine
 10
4150.726497409652
 20
1678.877833663713
 30
0.0
 11
4150.755102622318
 21
1678.89109163651
 31
0.0
  0
LINE
  5
234E
330
22B0
100
AcDbEntity
  8
SANINDUSA
100
AcDbLine
 10
4150.741673422561
 20
1678.874155270007
 30
0.0
 11
4150.747959351853
 21
1678.880441199298
 31
0.0
  0
LINE
  5
234F
330
22B0
100
AcDbEntity
  8
SANINDUSA
100
AcDbLine
 10
4150.487531563979
 20
1678.873868234653
 30
0.0
 11
4150.740980457917
 21
1678.873868234653
 31
0.0
  0
LINE
  5
2350
330
22B0
100
AcDbEntity
  8
SANINDUSA
100
AcDbLine
 10
4150.495245965236
 20
1678.877788234653
 30
0.0
 11
4150.726291359465
 21
1678.877788234653
 31
0.0
  0
ARC
  5
2351
330
22B0
100
AcDbEntity
  8
SANINDUSA
100
AcDbCircle
 10
4150.495245965236
 20
1678.842955275477
 30
0.0
 40
0.0348329591759133
100
AcDbArc
 50
90.0
 51
102.9810230690099
  0
ARC
  5
2352
330
22B0
100
AcDbEntity
  8
SANINDUSA
100
AcDbCircle
 10
4150.487531563979
 20
1678.876420583756
 30
0.0
 40
0.0004900000000001
100
AcDbArc
 50
102.9810230690099
 51
180.0
  0
LINE
  5
2353
330
22B0
100
AcDbEntity
  8
SANINDUSA
100
AcDbLine
 10
4150.487041563979
 20
1678.874358234653
 30
0.0
 11
4150.487041563979
 21
1678.876420583756
 31
0.0
  0
ARC
  5
2354
330
22B0
100
AcDbEntity
  8
SANINDUSA
100
AcDbCircle
 10
4150.487531563979
 20
1678.874358234653
 30
0.0
 40
0.00049
100
AcDbArc
 50
180.0
 51
270.0
  0
ARC
  5
2355
330
22B0
100
AcDbEntity
  8
SANINDUSA
100
AcDbCircle
 10
4150.740980457917
 20
1678.874848234652
 30
0.0
 40
0.00098
100
AcDbArc
 50
270.0
 51
315.0000000000092
  0
ARC
  5
2356
330
22B0
100
AcDbEntity
  8
SANINDUSA
100
AcDbCircle
 10
4150.726291359465
 20
1678.878278234653
 30
0.0
 40
0.00049
100
AcDbArc
 50
270.0
 51
294.8668271162652
  0
ARC
  5
2357
330
22B0
100
AcDbEntity
  8
SANINDUSA
100
AcDbCircle
 10
4150.770261563979
 20
1678.892488234653
 30
0.0
 40
0.0009800000000001
100
AcDbArc
 50
0.0
 51
90.0
  0
ARC
  5
2358
330
22B0
100
AcDbEntity
  8
SANINDUSA
100
AcDbCircle
 10
4150.75792749327
 20
1678.892488234653
 30
0.0
 40
0.0009799999999999
100
AcDbArc
 50
90.0
 51
135.0000000000092
  0
LINE
  5
2359
330
22B0
100
AcDbEntity
  8
SANINDUSA
100
AcDbLine
 10
4150.758942316498
 20
1678.891018234653
 30
0.0
 11
4150.770261563979
 21
1678.891018234653
 31
0.0
  0
LINE
  5
235A
330
22B0
100
AcDbEntity
  8
SANINDUSA
100
AcDbLine
 10
4150.75792749327
 20
1678.893468234653
 30
0.0
 11
4150.770261563979
 21
1678.893468234653
 31
0.0
  0
ARC
  5
235B
330
22B0
100
AcDbEntity
  8
SANINDUSA
100
AcDbCircle
 10
4150.748652316497
 20
1678.879748234653
 30
0.0
 40
0.00098
100
AcDbArc
 50
90.0
 51
135.0000000000092
  0
LINE
  5
235C
330
22B0
100
AcDbEntity
  8
SANINDUSA
100
AcDbLine
 10
4150.752106940239
 20
1678.884588787684
 30
0.0
 11
4150.752106940239
 21
1678.883202858393
 31
0.0
  0
LINE
  5
235D
330
22B0
100
AcDbEntity
  8
SANINDUSA
100
AcDbLine
 10
4150.752131563979
 20
1678.880728234653
 30
0.0
 11
4150.748652316497
 21
1678.880728234653
 31
0.0
  0
ARC
  5
235E
330
22B0
100
AcDbEntity
  8
SANINDUSA
100
AcDbCircle
 10
4150.752131563979
 20
1678.881218234653
 30
0.0
 40
0.0004900000000001
100
AcDbArc
 50
270.0
 51
0.0
  0
LINE
  5
235F
330
22B0
100
AcDbEntity
  8
SANINDUSA
100
AcDbLine
 10
4150.752621563979
 20
1678.882485270007
 30
0.0
 11
4150.752621563979
 21
1678.881218234653
 31
0.0
  0
ARC
  5
2360
330
22B0
100
AcDbEntity
  8
SANINDUSA
100
AcDbCircle
 10
4150.752131563979
 20
1678.882485270007
 30
0.0
 40
0.0004900000000001
100
AcDbArc
 50
0.0
 51
44.99999999999078
  0
LINE
  5
2361
330
22B0
100
AcDbEntity
  8
SANINDUSA
100
AcDbLine
 10
4150.752106940239
 20
1678.883202858393
 30
0.0
 11
4150.752478046302
 21
1678.88283175233
 31
0.0
  0
ARC
  5
2362
330
22B0
100
AcDbEntity
  8
SANINDUSA
100
AcDbCircle
 10
4150.752799904885
 20
1678.883895823039
 30
0.0
 40
0.00098
100
AcDbArc
 50
135.0000000000092
 51
224.9999999999908
  0
ARC
  5
2363
330
22B0
100
AcDbEntity
  8
SANINDUSA
100
AcDbCircle
 10
4150.758942316498
 20
1678.890038234653
 30
0.0
 40
0.0009799999999999
100
AcDbArc
 50
90.0
 51
135.0000000000092
  0
ARC
  5
2364
330
22B0
100
AcDbEntity
  8
SANINDUSA
100
AcDbCircle
 10
4150.75489657213
 20
1678.89153620745
 30
0.0
 40
0.00049
100
AcDbArc
 50
294.8668271162652
 51
315.0000000000092
  0
LINE
  5
2365
330
22B0
100
AcDbEntity
  8
SANINDUSA
100
AcDbLine
 10
4150.755243054454
 20
1678.891189725127
 30
0.0
 11
4150.757234528625
 21
1678.893181199298
 31
0.0
  0
LINE
  5
2366
330
22B0
100
AcDbEntity
  8
SANINDUSA
100
AcDbLine
 10
4150.752106940239
 20
1678.884588787684
 30
0.0
 11
4150.758249351853
 21
1678.890731199298
 31
0.0
  0
ARC
  5
2367
330
22B0
100
AcDbEntity
  8
SANINDUSA
100
AcDbCircle
 10
4150.770261563979
 20
1678.891998234653
 30
0.0
 40
0.0009800000000001
100
AcDbArc
 50
270.0
 51
0.0
  0
LINE
  5
2368
330
22B0
100
AcDbEntity
  8
SANINDUSA
100
AcDbLine
 10
4150.77124156398
 20
1678.892488234653
 30
0.0
 11
4150.77124156398
 21
1678.891998234653
 31
0.0
  0
LINE
  5
2369
330
22B0
100
AcDbEntity
  8
SANINDUSA
100
AcDbLine
 10
4150.726497409652
 20
1678.774842805592
 30
0.0
 11
4150.755102622318
 21
1678.761584832795
 31
0.0
  0
LINE
  5
236A
330
22B0
100
AcDbEntity
  8
SANINDUSA
100
AcDbLine
 10
4150.747959351853
 20
1678.772235270007
 30
0.0
 11
4150.741673422561
 21
1678.778521199298
 31
0.0
  0
LINE
  5
236B
330
22B0
100
AcDbEntity
  8
SANINDUSA
100
AcDbLine
 10
4150.740980457917
 20
1678.778808234653
 30
0.0
 11
4150.487531563979
 21
1678.778808234653
 31
0.0
  0
LINE
  5
236C
330
22B0
100
AcDbEntity
  8
SANINDUSA
100
AcDbLine
 10
4150.726291359465
 20
1678.774888234652
 30
0.0
 11
4150.495245965236
 21
1678.774888234652
 31
0.0
  0
ARC
  5
236D
330
22B0
100
AcDbEntity
  8
SANINDUSA
100
AcDbCircle
 10
4150.495245965236
 20
1678.809721193829
 30
0.0
 40
0.0348329591759133
100
AcDbArc
 50
257.0189769309901
 51
270.0
  0
ARC
  5
236E
330
22B0
100
AcDbEntity
  8
SANINDUSA
100
AcDbCircle
 10
4150.487531563979
 20
1678.77625588555
 30
0.0
 40
0.00049
100
AcDbArc
 50
180.0
 51
257.0189769309901
  0
ARC
  5
236F
330
22B0
100
AcDbEntity
  8
SANINDUSA
100
AcDbCircle
 10
4150.487531563979
 20
1678.778318234653
 30
0.0
 40
0.00049
100
AcDbArc
 50
90.0
 51
180.0
  0
LINE
  5
2370
330
22B0
100
AcDbEntity
  8
SANINDUSA
100
AcDbLine
 10
4150.487041563979
 20
1678.77625588555
 30
0.0
 11
4150.487041563979
 21
1678.778318234653
 31
0.0
  0
ARC
  5
2371
330
22B0
100
AcDbEntity
  8
SANINDUSA
100
AcDbCircle
 10
4150.740980457917
 20
1678.777828234653
 30
0.0
 40
0.00098
100
AcDbArc
 50
44.99999999999078
 51
90.0
  0
ARC
  5
2372
330
22B0
100
AcDbEntity
  8
SANINDUSA
100
AcDbCircle
 10
4150.770261563979
 20
1678.760188234653
 30
0.0
 40
0.0009800000000001
100
AcDbArc
 50
270.0
 51
0.0
  0
LINE
  5
2373
330
22B0
100
AcDbEntity
  8
SANINDUSA
100
AcDbLine
 10
4150.757234528625
 20
1678.759495270007
 30
0.0
 11
4150.755243054454
 21
1678.761486744178
 31
0.0
  0
LINE
  5
2374
330
22B0
100
AcDbEntity
  8
SANINDUSA
100
AcDbLine
 10
4150.770261563979
 20
1678.761658234652
 30
0.0
 11
4150.758942316498
 21
1678.761658234652
 31
0.0
  0
ARC
  5
2375
330
22B0
100
AcDbEntity
  8
SANINDUSA
100
AcDbCircle
 10
4150.758942316498
 20
1678.762638234653
 30
0.0
 40
0.00098
100
AcDbArc
 50
224.9999999999908
 51
270.0
  0
ARC
  5
2376
330
22B0
100
AcDbEntity
  8
SANINDUSA
100
AcDbCircle
 10
4150.75489657213
 20
1678.761140261856
 30
0.0
 40
0.00049
100
AcDbArc
 50
44.99999999999078
 51
65.13317288373476
  0
ARC
  5
2377
330
22B0
100
AcDbEntity
  8
SANINDUSA
100
AcDbCircle
 10
4150.748652316497
 20
1678.772928234653
 30
0.0
 40
0.00098
100
AcDbArc
 50
224.9999999999908
 51
270.0
  0
LINE
  5
2378
330
22B0
100
AcDbEntity
  8
SANINDUSA
100
AcDbLine
 10
4150.752106940239
 20
1678.769473610912
 30
0.0
 11
4150.752106940239
 21
1678.768087681621
 31
0.0
  0
ARC
  5
2379
330
22B0
100
AcDbEntity
  8
SANINDUSA
100
AcDbCircle
 10
4150.752799904885
 20
1678.768780646267
 30
0.0
 40
0.0009799999999999
100
AcDbArc
 50
135.0000000000092
 51
224.9999999999908
  0
LINE
  5
237A
330
22B0
100
AcDbEntity
  8
SANINDUSA
100
AcDbLine
 10
4150.752478046302
 20
1678.769844716975
 30
0.0
 11
4150.752106940239
 21
1678.769473610912
 31
0.0
  0
ARC
  5
237B
330
22B0
100
AcDbEntity
  8
SANINDUSA
100
AcDbCircle
 10
4150.752131563979
 20
1678.770191199298
 30
0.0
 40
0.0004900000000001
100
AcDbArc
 50
315.0000000000092
 51
0.0
  0
LINE
  5
237C
330
22B0
100
AcDbEntity
  8
SANINDUSA
100
AcDbLine
 10
4150.752621563979
 20
1678.771458234653
 30
0.0
 11
4150.752621563979
 21
1678.770191199298
 31
0.0
  0
ARC
  5
237D
330
22B0
100
AcDbEntity
  8
SANINDUSA
100
AcDbCircle
 10
4150.752131563979
 20
1678.771458234653
 30
0.0
 40
0.00049
100
AcDbArc
 50
0.0
 51
90.0
  0
LINE
  5
237E
330
22B0
100
AcDbEntity
  8
SANINDUSA
100
AcDbLine
 10
4150.748652316497
 20
1678.771948234652
 30
0.0
 11
4150.752131563979
 21
1678.771948234652
 31
0.0
  0
LINE
  5
237F
330
22B0
100
AcDbEntity
  8
SANINDUSA
100
AcDbLine
 10
4150.758249351853
 20
1678.761945270007
 30
0.0
 11
4150.752106940239
 21
1678.768087681621
 31
0.0
  0
LINE
  5
2380
330
22B0
100
AcDbEntity
  8
SANINDUSA
100
AcDbLine
 10
4150.77124156398
 20
1678.760678234653
 30
0.0
 11
4150.77124156398
 21
1678.760188234653
 31
0.0
  0
ARC
  5
2381
330
22B0
100
AcDbEntity
  8
SANINDUSA
100
AcDbCircle
 10
4150.770261563979
 20
1678.760678234653
 30
0.0
 40
0.0009800000000001
100
AcDbArc
 50
0.0
 51
90.0
  0
LINE
  5
2382
330
22B0
100
AcDbEntity
  8
SANINDUSA
100
AcDbLine
 10
4150.770261563979
 20
1678.759208234653
 30
0.0
 11
4150.75792749327
 21
1678.759208234653
 31
0.0
  0
ARC
  5
2383
330
22B0
100
AcDbEntity
  8
SANINDUSA
100
AcDbCircle
 10
4150.75792749327
 20
1678.760188234653
 30
0.0
 40
0.00098
100
AcDbArc
 50
224.9999999999908
 51
270.0
  0
ENDBLK
  5
2385
330
22B0
100
AcDbEntity
  8
0
100
AcDbBlockEnd
  0
ENDSEC
  0
SECTION
  2
ENTITIES
  0
SPLINE
  5
1719
330
1F
100
AcDbEntity
  8
SANINDUSA
100
AcDbSpline
210
0.0
220
0.0
230
1.0
 70
    24
 71
     3
 72
    12
 73
     8
 74
     0
 42
0.0000000001
 43
0.0000000001
 40
0.0
 40
0.0
 40
0.0
 40
0.0
 40
0.2049292846869034
 40
0.4098705301413041
 40
0.7049257256134871
 40
0.852464224936266
 40
1.0
 40
1.0
 40
1.0
 40
1.0
 10
5145.226751829131
 20
2482.940491244916
 30
0.0
 10
5145.310576437262
 20
2482.940491244916
 30
0.0
 10
5145.336777807845
 20
2482.940491244916
 30
0.0
 10
5145.381843624782
 20
2482.940491244916
 30
0.0
 10
5145.423240567577
 20
2482.940491244916
 30
0.0
 10
5145.460967489367
 20
2482.940491244916
 30
0.0
 10
5145.479829843419
 20
2482.940491244916
 30
0.0
 10
5145.559985238514
 20
2482.940491244916
 30
0.0
  0
ARC
  5
171B
330
1F
100
AcDbEntity
  8
SANINDUSA
100
AcDbCircle
 10
5145.226751829131
 20
2482.932491244915
 30
0.0
 40
0.0080000000000001
100
AcDbArc
 50
90.0
 51
182.7403994962311
  0
SPLINE
  5
1728
330
1F
100
AcDbEntity
  8
SANINDUSA
100
AcDbSpline
210
0.0
220
0.0
230
1.0
 70
    24
 71
     3
 72
    37
 73
    33
 74
     0
 42
0.0000000001
 43
0.0000000001
 40
0.0
 40
0.0
 40
0.0
 40
0.0
 40
0.0078193079798718
 40
0.0156349463353865
 40
0.0234480760500058
 40
0.0312598592256908
 40
0.0390714585653612
 40
0.0468840368540146
 40
0.0546987564396625
 40
0.0625167787152416
 40
0.0937693292893571
 40
0.125027759306968
 40
0.1562803098747724
 40
0.1875387398986972
 40
0.250031107118808
 40
0.3125234743389186
 40
0.3750158415590295
 40
0.4375082087791413
 40
0.5000005759992518
 40
0.5624929432193627
 40
0.624985310439474
 40
0.687477677659585
 40
0.7499700448796959
 40
0.8124624120998069
 40
0.8437149626768817
 40
0.874973392691543
 40
0.906225943267958
 40
0.937484373283276
 40
0.9531148257153112
 40
0.9687380449120135
 40
0.9843633358981842
 40
1.0
 40
1.0
 40
1.0
 40
1.0
 10
5145.468960872904
 20
2482.530491244915
 30
0.0
 10
5145.469204893898
 20
2482.530491244915
 30
0.0
 10
5145.469692821367
 20
2482.530491244915
 30
0.0
 10
5145.470424356741
 20
2482.530491244915
 30
0.0
 10
5145.471155358203
 20
2482.530491244915
 30
0.0
 10
5145.471885817615
 20
2482.530491244915
 30
0.0
 10
5145.472615737377
 20
2482.530491244915
 30
0.0
 10
5145.473345115732
 20
2482.530491244915
 30
0.0
 10
5145.474073957024
 20
2482.530491244915
 30
0.0
 10
5145.475529752379
 20
2482.530491244915
 30
0.0
 10
5145.477706669966
 20
2482.530491244915
 30
0.0
 10
5145.480586492722
 20
2482.530491244915
 30
0.0
 10
5145.483437597434
 20
2482.530491244915
 30
0.0
 10
5145.487190181159
 20
2482.530491244915
 30
0.0
 10
5145.491776630611
 20
2482.530491244915
 30
0.0
 10
5145.497056259317
 20
2482.530491244915
 30
0.0
 10
5145.502063355145
 20
2482.530491244915
 30
0.0
 10
5145.506749937656
 20
2482.530491244915
 30
0.0
 10
5145.511071534643
 20
2482.530491244915
 30
0.0
 10
5145.514987022846
 20
2482.530491244915
 30
0.0
 10
5145.518459169138
 20
2482.530491244915
 30
0.0
 10
5145.521454966395
 20
2482.530491244915
 30
0.0
 10
5145.523945870171
 20
2482.530491244915
 30
0.0
 10
5145.525581376046
 20
2482.530491244915
 30
0.0
 10
5145.526615959621
 20
2482.530491244915
 30
0.0
 10
5145.527253321479
 20
2482.530491244915
 30
0.0
 10
5145.527750882679
 20
2482.530491244915
 30
0.0
 10
5145.528047480816
 20
2482.530491244915
 30
0.0
 10
5145.528214065542
 20
2482.530491244915
 30
0.0
 10
5145.528302708502
 20
2482.530491244915
 30
0.0
 10
5145.52835823049
 20
2482.530491244915
 30
0.0
 10
5145.528365098545
 20
2482.530491244915
 30
0.0
 10
5145.528368533823
 20
2482.530491244915
 30
0.0
  0
SPLINE
  5
1729
330
1F
100
AcDbEntity
  8
SANINDUSA
100
AcDbSpline
210
0.0
220
0.0
230
1.0
 70
    24
 71
     3
 72
    16
 73
    12
 74
     0
 42
0.0000000001
 43
0.0000000001
 40
0.0
 40
0.0
 40
0.0
 40
0.0
 40
0.1111093284623767
 40
0.2222187906252655
 40
0.3333285201886981
 40
0.4444386508517396
 40
0.5555493163120082
 40
0.6666606502651903
 40
0.7777727864045606
 40
0.8888858584204971
 40
1.0
 40
1.0
 40
1.0
 40
1.0
 10
5145.393368533823
 20
2482.530491244915
 30
0.0
 10
5145.396168250646
 20
2482.530491244915
 30
0.0
 10
5145.401767687662
 20
2482.530491244915
 30
0.0
 10
5145.410166841504
 20
2482.530491244915
 30
0.0
 10
5145.418565995338
 20
2482.530491244915
 30
0.0
 10
5145.426965149205
 20
2482.530491244915
 30
0.0
 10
5145.435364302946
 20
2482.530491244915
 30
0.0
 10
5145.443763457155
 20
2482.530491244915
 30
0.0
 10
5145.452162609615
 20
2482.530491244915
 30
0.0
 10
5145.460561768604
 20
2482.530491244915
 30
0.0
 10
5145.466161162488
 20
2482.530491244915
 30
0.0
 10
5145.468960872904
 20
2482.530491244915
 30
0.0
  0
LINE
  5
172A
330
1F
100
AcDbEntity
  8
SANINDUSA
100
AcDbLine
 10
5145.317776194783
 20
2482.530491248492
 30
0.0
 11
5145.393368533823
 21
2482.530491248492
 31
0.0
  0
LINE
  5
172B
330
1F
100
AcDbEntity
  8
SANINDUSA
100
AcDbLine
 10
5145.258368528458
 20
2482.530491248492
 30
0.0
 11
5145.317776194783
 21
2482.530491248492
 31
0.0
  0
SPLINE
  5
172E
330
1F
100
AcDbEntity
  8
SANINDUSA
100
AcDbSpline
210
0.0
220
0.0
230
1.0
 70
     8
 71
     3
 72
    13
 73
     9
 74
     0
 42
0.0000000001
 43
0.0000000001
 40
0.0
 40
0.0
 40
0.0
 40
0.0
 40
0.0892178846871595
 40
0.3014837445913466
 40
0.5136717458109949
 40
0.7258293240005156
 40
0.9481082287107167
 40
1.0
 40
1.0
 40
1.0
 40
1.0
 10
5145.258044070574
 20
2482.532676265362
 30
0.0
 10
5145.252602866808
 20
2482.570800861933
 30
0.0
 10
5145.248774619677
 20
2482.597287170887
 30
0.0
 10
5145.24308869319
 20
2482.642530518912
 30
0.0
 10
5145.23663889919
 20
2482.69867168183
 30
0.0
 10
5145.231012087105
 20
2482.755793868935
 30
0.0
 10
5145.227195560847
 20
2482.798797725243
 30
0.0
 10
5145.225523140955
 20
2482.823077177978
 30
0.0
 10
5145.225206605169
 20
2482.827672504607
 30
0.0
  0
SPLINE
  5
172F
330
1F
100
AcDbEntity
  8
SANINDUSA
100
AcDbSpline
210
0.0
220
0.0
230
1.0
 70
     8
 71
     3
 72
     9
 73
     5
 74
     0
 42
0.0000000001
 43
0.0000000001
 40
0.0
 40
0.0
 40
0.0
 40
0.0
 40
0.2204704641452372
 40
1.0
 40
1.0
 40
1.0
 40
1.0
 10
5145.225206605169
 20
2482.827672504607
 30
0.0
 10
5145.222803277718
 20
2482.861810139593
 30
0.0
 10
5145.220989649626
 20
2482.887079163124
 30
0.0
 10
5145.219737253531
 20
2482.912383376796
 30
0.0
 10
5145.218760973784
 20
2482.932108758736
 30
0.0
  0
CIRCLE
  5
173E
330
1F
100
AcDbEntity
  8
SANINDUSA
100
AcDbCircle
 10
5144.871280600142
 20
2482.869421196041
 30
0.0
 40
0.0077500000000001
  0
CIRCLE
  5
1747
330
1F
100
AcDbEntity
  8
SANINDUSA
100
AcDbCircle
 10
5144.716280600142
 20
2482.869421196041
 30
0.0
 40
0.0077500000000001
  0
LINE
  5
1750
330
1F
100
AcDbEntity
  8
SANINDUSA
100
AcDbLine
 10
5144.62716389545
 20
2483.006626308365
 30
0.0
 11
5144.960397304833
 21
2483.006626308365
 31
0.0
  0
LINE
  5
1753
330
1F
100
AcDbEntity
  8
SANINDUSA
100
AcDbLine
 10
5144.619163895836
 20
2483.006626308365
 30
0.0
 11
5144.62716389545
 21
2483.006626308365
 31
0.0
  0
LINE
  5
1755
330
1F
100
AcDbEntity
  8
SANINDUSA
100
AcDbLine
 10
5144.91138469442
 20
2482.741626308365
 30
0.0
 11
5144.91138469442
 21
2482.566626308365
 31
0.0
  0
ARC
  5
1758
330
1F
100
AcDbEntity
  8
SANINDUSA
100
AcDbCircle
 10
5144.878780600142
 20
2482.566626308365
 30
0.0
 40
0.0326040942777706
100
AcDbArc
 50
270.0
 51
0.0
  0
ARC
  5
1759
330
1F
100
AcDbEntity
  8
SANINDUSA
100
AcDbCircle
 10
5144.833780600142
 20
2482.741626308365
 30
0.0
 40
0.0776040942777705
100
AcDbArc
 50
0.0
 51
90.0
  0
LINE
  5
175C
330
1F
100
AcDbEntity
  8
SANINDUSA
100
AcDbLine
 10
5144.708780600142
 20
2482.534022214088
 30
0.0
 11
5144.878780600142
 21
2482.534022214088
 31
0.0
  0
LINE
  5
175E
330
1F
100
AcDbEntity
  8
SANINDUSA
100
AcDbLine
 10
5144.833780600142
 20
2482.819230402643
 30
0.0
 11
5144.753780600142
 21
2482.819230402643
 31
0.0
  0
ARC
  5
175F
330
1F
100
AcDbEntity
  8
SANINDUSA
100
AcDbCircle
 10
5144.753780600142
 20
2482.741626308365
 30
0.0
 40
0.0776040942777704
100
AcDbArc
 50
90.0
 51
180.0
  0
ARC
  5
1761
330
1F
100
AcDbEntity
  8
SANINDUSA
100
AcDbCircle
 10
5144.708780600142
 20
2482.566626308365
 30
0.0
 40
0.0326040942777706
100
AcDbArc
 50
180.0
 51
270.0
  0
LINE
  5
1763
330
1F
100
AcDbEntity
  8
SANINDUSA
100
AcDbLine
 10
5144.676176505864
 20
2482.741626308365
 30
0.0
 11
5144.676176505864
 21
2482.566626308365
 31
0.0
  0
SPLINE
  5
179D
330
1F
100
AcDbEntity
  8
SANINDUSA
100
AcDbSpline
210
0.0
220
0.0
230
1.0
 70
     8
 71
     3
 72
    46
 73
    42
 74
     0
 42
0.0000000001
 43
0.0000000001
 40
0.0
 40
0.0
 40
0.0
 40
0.0
 40
0.0625000000000032
 40
0.0625000000000032
 40
0.1250000000000064
 40
0.1250000000000064
 40
0.1562500000000081
 40
0.1562500000000081
 40
0.1875000000000098
 40
0.1875000000000098
 40
0.2500000000000133
 40
0.2500000000000133
 40
0.3125000000000169
 40
0.3125000000000169
 40
0.3437500000000178
 40
0.3437500000000178
 40
0.3750000000000189
 40
0.3750000000000189
 40
0.4375000000000198
 40
0.4375000000000198
 40
0.5000000000000197
 40
0.5000000000000197
 40
0.5625000000000196
 40
0.5625000000000196
 40
0.5937500000000186
 40
0.5937500000000186
 40
0.6250000000000177
 40
0.6250000000000177
 40
0.6875000000000138
 40
0.6875000000000138
 40
0.7500000000000099
 40
0.7500000000000099
 40
0.7812500000000085
 40
0.7812500000000085
 40
0.8125000000000071
 40
0.8125000000000071
 40
0.8750000000000047
 40
0.8750000000000047
 40
0.9375000000000024
 40
0.9375000000000024
 40
1.0
 40
1.0
 40
1.0
 40
1.0
 10
5144.619504387257
 20
2482.557158622944
 30
0.0
 10
5144.619524871495
 20
2482.554571231752
 30
0.0
 10
5144.619671105129
 20
2482.551997592802
 30
0.0
 10
5144.620210224122
 20
2482.546877289305
 30
0.0
 10
5144.620603230009
 20
2482.544330637938
 30
0.0
 10
5144.621381312893
 20
2482.54053128378
 30
0.0
 10
5144.621671463607
 20
2482.539271839227
 30
0.0
 10
5144.622309032824
 20
2482.536780233286
 30
0.0
 10
5144.622656870162
 20
2482.535545987489
 30
0.0
 10
5144.623786245854
 20
2482.531877406661
 30
0.0
 10
5144.624653495711
 20
2482.52947716766
 30
0.0
 10
5144.626615982762
 20
2482.524767383
 30
0.0
 10
5144.627710738067
 20
2482.522457645646
 30
0.0
 10
5144.629525645576
 20
2482.519061769318
 30
0.0
 10
5144.6301594891
 20
2482.517941296757
 30
0.0
 10
5144.631486314769
 20
2482.515723876975
 30
0.0
 10
5144.632177118262
 20
2482.51463094797
 30
0.0
 10
5144.634316693547
 20
2482.511420987504
 30
0.0
 10
5144.635837536168
 20
2482.509363204388
 30
0.0
 10
5144.639062910866
 20
2482.505407469595
 30
0.0
 10
5144.640767526306
 20
2482.503509590453
 30
0.0
 10
5144.644363228032
 20
2482.49987608374
 30
0.0
 10
5144.646253935366
 20
2482.49814012644
 30
0.0
 10
5144.649232966454
 20
2482.495660591284
 30
0.0
 10
5144.65024656765
 20
2482.494857814214
 30
0.0
 10
5144.652300661742
 20
2482.493310200571
 30
0.0
 10
5144.653343214587
 20
2482.492563650177
 30
0.0
 10
5144.656516977817
 20
2482.490405042819
 30
0.0
 10
5144.658693990929
 20
2482.489073498875
 30
0.0
 10
5144.663168280287
 20
2482.486621812115
 30
0.0
 10
5144.665465549437
 20
2482.485501656823
 30
0.0
 10
5144.669004221892
 20
2482.483984494758
 30
0.0
 10
5144.670199281835
 20
2482.483506024624
 30
0.0
 10
5144.672620830308
 20
2482.482604330202
 30
0.0
 10
5144.673843243976
 20
2482.482182773691
 30
0.0
 10
5144.677520148917
 20
2482.481013105982
 30
0.0
 10
5144.679994169571
 20
2482.480355892161
 30
0.0
 10
5144.684987092795
 20
2482.479283256541
 30
0.0
 10
5144.687506031673
 20
2482.478868030343
 30
0.0
 10
5144.692588733151
 20
2482.478279056454
 30
0.0
 10
5144.695152483556
 20
2482.47810524307
 30
0.0
 10
5144.697739563612
 20
2482.478057113355
 30
0.0
  0
SPLINE
  5
179E
330
1F
100
AcDbEntity
  8
SANINDUSA
100
AcDbSpline
210
0.0
220
0.0
230
1.0
 70
     8
 71
     3
 72
    46
 73
    42
 74
     0
 42
0.0000000001
 43
0.0000000001
 40
0.0
 40
0.0
 40
0.0
 40
0.0
 40
0.0625000000000032
 40
0.0625000000000032
 40
0.1250000000000064
 40
0.1250000000000064
 40
0.1562500000000081
 40
0.1562500000000081
 40
0.1875000000000098
 40
0.1875000000000098
 40
0.2500000000000133
 40
0.2500000000000133
 40
0.3125000000000169
 40
0.3125000000000169
 40
0.3437500000000178
 40
0.3437500000000178
 40
0.3750000000000189
 40
0.3750000000000189
 40
0.4375000000000198
 40
0.4375000000000198
 40
0.5000000000000197
 40
0.5000000000000197
 40
0.5625000000000196
 40
0.5625000000000196
 40
0.5937500000000186
 40
0.5937500000000186
 40
0.6250000000000177
 40
0.6250000000000177
 40
0.6875000000000138
 40
0.6875000000000138
 40
0.7500000000000099
 40
0.7500000000000099
 40
0.7812500000000085
 40
0.7812500000000085
 40
0.8125000000000071
 40
0.8125000000000071
 40
0.8750000000000047
 40
0.8750000000000047
 40
0.9375000000000024
 40
0.9375000000000024
 40
1.0
 40
1.0
 40
1.0
 40
1.0
 10
5144.968056813027
 20
2482.557158622944
 30
0.0
 10
5144.96803632879
 20
2482.554571231752
 30
0.0
 10
5144.967890095156
 20
2482.551997592802
 30
0.0
 10
5144.967350976163
 20
2482.546877289305
 30
0.0
 10
5144.966957970275
 20
2482.544330637938
 30
0.0
 10
5144.966179887393
 20
2482.54053128378
 30
0.0
 10
5144.965889736678
 20
2482.539271839227
 30
0.0
 10
5144.96525216746
 20
2482.536780233286
 30
0.0
 10
5144.964904330123
 20
2482.535545987489
 30
0.0
 10
5144.963774954431
 20
2482.531877406661
 30
0.0
 10
5144.962907704573
 20
2482.52947716766
 30
0.0
 10
5144.960945217523
 20
2482.524767383
 30
0.0
 10
5144.959850462218
 20
2482.522457645646
 30
0.0
 10
5144.958035554708
 20
2482.519061769318
 30
0.0
 10
5144.957401711184
 20
2482.517941296757
 30
0.0
 10
5144.956074885516
 20
2482.515723876975
 30
0.0
 10
5144.955384082023
 20
2482.51463094797
 30
0.0
 10
5144.953244506738
 20
2482.511420987504
 30
0.0
 10
5144.951723664117
 20
2482.509363204388
 30
0.0
 10
5144.948498289418
 20
2482.505407469595
 30
0.0
 10
5144.946793673978
 20
2482.503509590453
 30
0.0
 10
5144.943197972253
 20
2482.49987608374
 30
0.0
 10
5144.941307264918
 20
2482.49814012644
 30
0.0
 10
5144.93832823383
 20
2482.495660591284
 30
0.0
 10
5144.937314632635
 20
2482.494857814214
 30
0.0
 10
5144.935260538542
 20
2482.493310200571
 30
0.0
 10
5144.934217985698
 20
2482.492563650177
 30
0.0
 10
5144.931044222468
 20
2482.490405042819
 30
0.0
 10
5144.928867209356
 20
2482.489073498875
 30
0.0
 10
5144.924392919997
 20
2482.486621812115
 30
0.0
 10
5144.922095650848
 20
2482.485501656823
 30
0.0
 10
5144.918556978393
 20
2482.483984494758
 30
0.0
 10
5144.917361918449
 20
2482.483506024624
 30
0.0
 10
5144.914940369977
 20
2482.482604330202
 30
0.0
 10
5144.913717956309
 20
2482.482182773691
 30
0.0
 10
5144.910041051368
 20
2482.481013105982
 30
0.0
 10
5144.907567030713
 20
2482.480355892161
 30
0.0
 10
5144.902574107489
 20
2482.479283256541
 30
0.0
 10
5144.90005516861
 20
2482.478868030343
 30
0.0
 10
5144.894972467134
 20
2482.478279056454
 30
0.0
 10
5144.892408716729
 20
2482.47810524307
 30
0.0
 10
5144.889821636671
 20
2482.478057113355
 30
0.0
  0
SPLINE
  5
179F
330
1F
100
AcDbEntity
  8
SANINDUSA
100
AcDbSpline
210
0.0
220
0.0
230
1.0
 70
     8
 71
     3
 72
    20
 73
    16
 74
     0
 42
0.0000000001
 43
0.0000000001
 40
0.0
 40
0.0
 40
0.0
 40
0.0
 40
0.5000000000000001
 40
0.5000000000000001
 40
0.7500000000000002
 40
0.7500000000000002
 40
0.8750000000000003
 40
0.8750000000000003
 40
0.9375000000000005
 40
0.9687500000000005
 40
0.9843750000000005
 40
0.9921875000000005
 40
0.9960937500000003
 40
0.9960937500000003
 40
1.0
 40
1.0
 40
1.0
 40
1.0
 10
5144.619173044157
 20
2483.006626308365
 30
0.0
 10
5144.619173044157
 20
2482.931715000223
 30
0.0
 10
5144.619223534647
 20
2482.856803704395
 30
0.0
 10
5144.619323681493
 20
2482.744436794903
 30
0.0
 10
5144.61936105419
 20
2482.70698116162
 30
0.0
 10
5144.619416318192
 20
2482.650797711052
 30
0.0
 10
5144.619434606479
 20
2482.63206989407
 30
0.0
 10
5144.619461004634
 20
2482.603978167616
 30
0.0
 10
5144.619473945486
 20
2482.589932304144
 30
0.0
 10
5144.619488413603
 20
2482.57354546283
 30
0.0
 10
5144.619495468551
 20
2482.565352042004
 30
0.0
 10
5144.61949894855
 20
2482.561255331546
 30
0.0
 10
5144.619500429517
 20
2482.559499598482
 30
0.0
 10
5144.619501414473
 20
2482.558329109771
 30
0.0
 10
5144.61949975394
 20
2482.557743863374
 30
0.0
 10
5144.619504387257
 20
2482.557158622944
 30
0.0
  0
SPLINE
  5
17A0
330
1F
100
AcDbEntity
  8
SANINDUSA
100
AcDbSpline
210
0.0
220
0.0
230
1.0
 70
     8
 71
     3
 72
    20
 73
    16
 74
     0
 42
0.0000000001
 43
0.0000000001
 40
0.0
 40
0.0
 40
0.0
 40
0.0
 40
0.5000000000000001
 40
0.5000000000000001
 40
0.7500000000000002
 40
0.7500000000000002
 40
0.8750000000000003
 40
0.8750000000000003
 40
0.9375000000000005
 40
0.9687500000000005
 40
0.9843750000000005
 40
0.9921875000000005
 40
0.9960937500000003
 40
0.9960937500000003
 40
1.0
 40
1.0
 40
1.0
 40
1.0
 10
5144.968388156127
 20
2483.006626308365
 30
0.0
 10
5144.968388156127
 20
2482.931715000223
 30
0.0
 10
5144.968337665638
 20
2482.856803704395
 30
0.0
 10
5144.968237518791
 20
2482.744436794903
 30
0.0
 10
5144.968200146093
 20
2482.70698116162
 30
0.0
 10
5144.968144882093
 20
2482.650797711052
 30
0.0
 10
5144.968126593806
 20
2482.63206989407
 30
0.0
 10
5144.968100195651
 20
2482.603978167616
 30
0.0
 10
5144.968087254798
 20
2482.589932304144
 30
0.0
 10
5144.968072786682
 20
2482.57354546283
 30
0.0
 10
5144.968065731735
 20
2482.565352042004
 30
0.0
 10
5144.968062251734
 20
2482.561255331546
 30
0.0
 10
5144.968060770767
 20
2482.559499598482
 30
0.0
 10
5144.96805978581
 20
2482.558329109771
 30
0.0
 10
5144.968061446344
 20
2482.557743863374
 30
0.0
 10
5144.968056813027
 20
2482.557158622944
 30
0.0
  0
SPLINE
  5
17B5
330
1F
100
AcDbEntity
  8
SANINDUSA
100
AcDbSpline
210
0.0
220
0.0
230
1.0
 70
     8
 71
     3
 72
    40
 73
    36
 74
     0
 42
0.0000000001
 43
0.0000000001
 40
0.0
 40
0.0
 40
0.0
 40
0.0
 40
0.1249999999999956
 40
0.1249999999999956
 40
0.1874999999999948
 40
0.1874999999999948
 40
0.2187499999999944
 40
0.2187499999999944
 40
0.249999999999994
 40
0.249999999999994
 40
0.3749999999999955
 40
0.3749999999999955
 40
0.4374999999999964
 40
0.4374999999999964
 40
0.4999999999999973
 40
0.4999999999999973
 40
0.5624999999999981
 40
0.5624999999999981
 40
0.5937499999999984
 40
0.5937499999999984
 40
0.624999999999999
 40
0.624999999999999
 40
0.6562499999999993
 40
0.6562499999999993
 40
0.6874999999999999
 40
0.6874999999999999
 40
0.7499999999999995
 40
0.7499999999999995
 40
0.7812499999999992
 40
0.7812499999999992
 40
0.8124999999999989
 40
0.8124999999999989
 40
0.8749999999999989
 40
0.8749999999999989
 40
1.0
 40
1.0
 40
1.0
 40
1.0
 10
5144.844749501054
 20
2482.661925856556
 30
0.0
 10
5144.844869633684
 20
2482.659282788891
 30
0.0
 10
5144.844751679892
 20
2482.656638257478
 30
0.0
 10
5144.844198197174
 20
2482.652680838428
 30
0.0
 10
5144.843950662827
 20
2482.65136324088
 30
0.0
 10
5144.843479321373
 20
2482.649390764012
 30
0.0
 10
5144.843305593546
 20
2482.648734731278
 30
0.0
 10
5144.842928051995
 20
2482.64743792633
 30
0.0
 10
5144.842723854895
 20
2482.646795471554
 30
0.0
 10
5144.841626098241
 20
2482.643613198523
 30
0.0
 10
5144.8405041699
 20
2482.641162637511
 30
0.0
 10
5144.838439989742
 20
2482.637642939315
 30
0.0
 10
5144.837683854984
 20
2482.636491211644
 30
0.0
 10
5144.836072609661
 20
2482.634290823596
 30
0.0
 10
5144.83521513794
 20
2482.63323693766
 30
0.0
 10
5144.833398045501
 20
2482.631221347842
 30
0.0
 10
5144.832438457289
 20
2482.630259640678
 30
0.0
 10
5144.830921731785
 20
2482.628887733092
 30
0.0
 10
5144.830403245024
 20
2482.628442225822
 30
0.0
 10
5144.829340108101
 20
2482.627575296316
 30
0.0
 10
5144.828794666524
 20
2482.627153415043
 30
0.0
 10
5144.827689676584
 20
2482.62634315688
 30
0.0
 10
5144.827128753493
 20
2482.625953590998
 30
0.0
 10
5144.825990460903
 20
2482.625205013436
 30
0.0
 10
5144.825413434428
 20
2482.624845727354
 30
0.0
 10
5144.823653553663
 20
2482.623816789156
 30
0.0
 10
5144.822443022292
 20
2482.62319515417
 30
0.0
 10
5144.820570295747
 20
2482.62236130496
 30
0.0
 10
5144.819936551587
 20
2482.622099816603
 30
0.0
 10
5144.818649687373
 20
2482.621610490959
 30
0.0
 10
5144.817994109875
 20
2482.621381909591
 30
0.0
 10
5144.816017736046
 20
2482.62075434967
 30
0.0
 10
5144.814690655504
 20
2482.620413684316
 30
0.0
 10
5144.810681624381
 20
2482.61961263449
 30
0.0
 10
5144.807972217805
 20
2482.619370915078
 30
0.0
 10
5144.805223848834
 20
2482.619418913971
 30
0.0
  0
SPLINE
  5
17B8
330
1F
100
AcDbEntity
  8
SANINDUSA
100
AcDbSpline
210
0.0
220
0.0
230
1.0
 70
     8
 71
     3
 72
    40
 73
    36
 74
     0
 42
0.0000000001
 43
0.0000000001
 40
0.0
 40
0.0
 40
0.0
 40
0.0
 40
0.1249999999999956
 40
0.1249999999999956
 40
0.1874999999999948
 40
0.1874999999999948
 40
0.2187499999999944
 40
0.2187499999999944
 40
0.249999999999994
 40
0.249999999999994
 40
0.3749999999999955
 40
0.3749999999999955
 40
0.4374999999999964
 40
0.4374999999999964
 40
0.4999999999999973
 40
0.4999999999999973
 40
0.5624999999999981
 40
0.5624999999999981
 40
0.5937499999999984
 40
0.5937499999999984
 40
0.624999999999999
 40
0.624999999999999
 40
0.6562499999999993
 40
0.6562499999999993
 40
0.6874999999999999
 40
0.6874999999999999
 40
0.7499999999999995
 40
0.7499999999999995
 40
0.7812499999999992
 40
0.7812499999999992
 40
0.8124999999999989
 40
0.8124999999999989
 40
0.8749999999999989
 40
0.8749999999999989
 40
1.0
 40
1.0
 40
1.0
 40
1.0
 10
5144.742811699231
 20
2482.661925856556
 30
0.0
 10
5144.742691566602
 20
2482.659282788891
 30
0.0
 10
5144.742809520391
 20
2482.656638257478
 30
0.0
 10
5144.743363003112
 20
2482.652680838428
 30
0.0
 10
5144.743610537458
 20
2482.65136324088
 30
0.0
 10
5144.744081878911
 20
2482.649390764012
 30
0.0
 10
5144.744255606739
 20
2482.648734731278
 30
0.0
 10
5144.74463314829
 20
2482.64743792633
 30
0.0
 10
5144.74483734539
 20
2482.646795471554
 30
0.0
 10
5144.745935102044
 20
2482.643613198523
 30
0.0
 10
5144.747057030384
 20
2482.641162637511
 30
0.0
 10
5144.749121210542
 20
2482.637642939315
 30
0.0
 10
5144.749877345301
 20
2482.636491211644
 30
0.0
 10
5144.751488590624
 20
2482.634290823596
 30
0.0
 10
5144.752346062344
 20
2482.63323693766
 30
0.0
 10
5144.754163154782
 20
2482.631221347842
 30
0.0
 10
5144.755122742996
 20
2482.630259640678
 30
0.0
 10
5144.756639468498
 20
2482.628887733092
 30
0.0
 10
5144.757157955261
 20
2482.628442225822
 30
0.0
 10
5144.758221092184
 20
2482.627575296316
 30
0.0
 10
5144.758766533761
 20
2482.627153415043
 30
0.0
 10
5144.7598715237
 20
2482.62634315688
 30
0.0
 10
5144.760432446792
 20
2482.625953590998
 30
0.0
 10
5144.761570739381
 20
2482.625205013436
 30
0.0
 10
5144.762147765856
 20
2482.624845727354
 30
0.0
 10
5144.763907646622
 20
2482.623816789156
 30
0.0
 10
5144.765118177993
 20
2482.62319515417
 30
0.0
 10
5144.766990904537
 20
2482.62236130496
 30
0.0
 10
5144.767624648698
 20
2482.622099816603
 30
0.0
 10
5144.768911512912
 20
2482.621610490959
 30
0.0
 10
5144.76956709041
 20
2482.621381909591
 30
0.0
 10
5144.771543464239
 20
2482.62075434967
 30
0.0
 10
5144.77287054478
 20
2482.620413684316
 30
0.0
 10
5144.776879575903
 20
2482.61961263449
 30
0.0
 10
5144.779588982478
 20
2482.619370915078
 30
0.0
 10
5144.78233735145
 20
2482.619418913971
 30
0.0
  0
SPLINE
  5
17B9
330
1F
100
AcDbEntity
  8
SANINDUSA
100
AcDbSpline
210
0.0
220
0.0
230
1.0
 70
     8
 71
     3
 72
    18
 73
    14
 74
     0
 42
0.0000000001
 43
0.0000000001
 40
0.0
 40
0.0
 40
0.0
 40
0.0
 40
0.249999999999999
 40
0.249999999999999
 40
0.4999999999999981
 40
0.4999999999999981
 40
0.749999999999997
 40
0.749999999999997
 40
0.8749999999999975
 40
0.8749999999999975
 40
0.9374999999999985
 40
0.9374999999999985
 40
1.0
 40
1.0
 40
1.0
 40
1.0
 10
5144.841700902595
 20
2482.741857333722
 30
0.0
 10
5144.841943657659
 20
2482.735163100392
 30
0.0
 10
5144.84219131636
 20
2482.72848331422
 30
0.0
 10
5144.842692933028
 20
2482.715142300846
 30
0.0
 10
5144.842946832812
 20
2482.708480902225
 30
0.0
 10
5144.843457998907
 20
2482.695168023486
 30
0.0
 10
5144.843715265485
 20
2482.688516544155
 30
0.0
 10
5144.844102377708
 20
2482.678542897016
 30
0.0
 10
5144.844231623138
 20
2482.675218960848
 30
0.0
 10
5144.844425692538
 20
2482.670233649534
 30
0.0
 10
5144.844490416101
 20
2482.668571978569
 30
0.0
 10
5144.844619917191
 20
2482.665248795633
 30
0.0
 10
5144.844684624056
 20
2482.663587075469
 30
0.0
 10
5144.844749501054
 20
2482.661925856556
 30
0.0
  0
SPLINE
  5
17BC
330
1F
100
AcDbEntity
  8
SANINDUSA
100
AcDbSpline
210
0.0
220
0.0
230
1.0
 70
     8
 71
     3
 72
    18
 73
    14
 74
     0
 42
0.0000000001
 43
0.0000000001
 40
0.0
 40
0.0
 40
0.0
 40
0.0
 40
0.249999999999999
 40
0.249999999999999
 40
0.4999999999999981
 40
0.4999999999999981
 40
0.749999999999997
 40
0.749999999999997
 40
0.8749999999999975
 40
0.8749999999999975
 40
0.9374999999999985
 40
0.9374999999999985
 40
1.0
 40
1.0
 40
1.0
 40
1.0
 10
5144.745860297689
 20
2482.741857333722
 30
0.0
 10
5144.745617542625
 20
2482.735163100392
 30
0.0
 10
5144.745369883924
 20
2482.72848331422
 30
0.0
 10
5144.744868267256
 20
2482.715142300846
 30
0.0
 10
5144.744614367472
 20
2482.708480902225
 30
0.0
 10
5144.744103201378
 20
2482.695168023486
 30
0.0
 10
5144.7438459348
 20
2482.688516544155
 30
0.0
 10
5144.743458822577
 20
2482.678542897016
 30
0.0
 10
5144.743329577146
 20
2482.675218960848
 30
0.0
 10
5144.743135507747
 20
2482.670233649534
 30
0.0
 10
5144.743070784183
 20
2482.668571978569
 30
0.0
 10
5144.742941283093
 20
2482.665248795633
 30
0.0
 10
5144.742876576229
 20
2482.663587075469
 30
0.0
 10
5144.742811699231
 20
2482.661925856556
 30
0.0
  0
SPLINE
  5
17BE
330
1F
100
AcDbEntity
  8
SANINDUSA
100
AcDbSpline
210
0.0
220
0.0
230
1.0
 70
    24
 71
     3
 72
     8
 73
     4
 74
     0
 42
0.0000000001
 43
0.0000000001
 40
0.0
 40
0.0
 40
0.0
 40
0.0
 40
1.0
 40
1.0
 40
1.0
 40
1.0
 10
5144.805223848834
 20
2482.619418913971
 30
0.0
 10
5144.801412315292
 20
2482.619448120296
 30
0.0
 10
5144.797598113209
 20
2482.619464292422
 30
0.0
 10
5144.793780600142
 20
2482.619464292422
 30
0.0
  0
SPLINE
  5
17BF
330
1F
100
AcDbEntity
  8
SANINDUSA
100
AcDbSpline
210
0.0
220
0.0
230
1.0
 70
    24
 71
     3
 72
     8
 73
     4
 74
     0
 42
0.0000000001
 43
0.0000000001
 40
0.0
 40
0.0
 40
0.0
 40
0.0
 40
1.0
 40
1.0
 40
1.0
 40
1.0
 10
5144.78233735145
 20
2482.619418913971
 30
0.0
 10
5144.786148884993
 20
2482.619448120296
 30
0.0
 10
5144.789963087077
 20
2482.619464292422
 30
0.0
 10
5144.793780600142
 20
2482.619464292422
 30
0.0
  0
SPLINE
  5
17C1
330
1F
100
AcDbEntity
  8
SANINDUSA
100
AcDbSpline
210
0.0
220
0.0
230
1.0
 70
     8
 71
     3
 72
    44
 73
    40
 74
     0
 42
0.0000000001
 43
0.0000000001
 40
0.0
 40
0.0
 40
0.0
 40
0.0
 40
0.0078124999999994
 40
0.0078124999999994
 40
0.0156249999999988
 40
0.0156249999999988
 40
0.0234374999999982
 40
0.0234374999999982
 40
0.0312499999999976
 40
0.0312499999999976
 40
0.039062499999997
 40
0.039062499999997
 40
0.0468749999999964
 40
0.0468749999999964
 40
0.0546874999999958
 40
0.0546874999999958
 40
0.0624999999999952
 40
0.0624999999999952
 40
0.0781249999999944
 40
0.0781249999999944
 40
0.0937499999999936
 40
0.0937499999999936
 40
0.1249999999999929
 40
0.1249999999999929
 40
0.1874999999999929
 40
0.1874999999999929
 40
0.2499999999999929
 40
0.2499999999999929
 40
0.374999999999994
 40
0.374999999999994
 40
0.4999999999999952
 40
0.4999999999999952
 40
0.6249999999999964
 40
0.6249999999999964
 40
0.7499999999999976
 40
0.7499999999999976
 40
0.8749999999999985
 40
0.8749999999999985
 40
1.0
 40
1.0
 40
1.0
 40
1.0
 10
5144.830697655398
 20
2482.790600004662
 30
0.0
 10
5144.830785993118
 20
2482.790642689388
 30
0.0
 10
5144.830878813718
 20
2482.790680154531
 30
0.0
 10
5144.83107781433
 20
2482.790739496022
 30
0.0
 10
5144.831185412989
 20
2482.790761590611
 30
0.0
 10
5144.831414156801
 20
2482.790779523317
 30
0.0
 10
5144.831537206777
 20
2482.790775031313
 30
0.0
 10
5144.831787618056
 20
2482.790730722458
 30
0.0
 10
5144.831915255251
 20
2482.790690736161
 30
0.0
 10
5144.832161117183
 20
2482.790581054646
 30
0.0
 10
5144.832278371371
 20
2482.790512230852
 30
0.0
 10
5144.832495414727
 20
2482.790361059808
 30
0.0
 10
5144.832595232086
 20
2482.7902791823
 30
0.0
 10
5144.832783705473
 20
2482.790107335274
 30
0.0
 10
5144.832872025549
 20
2482.790017446499
 30
0.0
 10
5144.83303701961
 20
2482.78983638412
 30
0.0
 10
5144.833114374822
 20
2482.789744525792
 30
0.0
 10
5144.833335687486
 20
2482.789466146957
 30
0.0
 10
5144.833469106109
 20
2482.789276876622
 30
0.0
 10
5144.833719633942
 20
2482.788893977702
 30
0.0
 10
5144.83383649647
 20
2482.78870026041
 30
0.0
 10
5144.834167060475
 20
2482.788120721333
 30
0.0
 10
5144.834362986881
 20
2482.787733830014
 30
0.0
 10
5144.834912744428
 20
2482.786571623559
 30
0.0
 10
5144.8352287965
 20
2482.785794781519
 30
0.0
 10
5144.835816493756
 20
2482.784236959612
 30
0.0
 10
5144.836086467416
 20
2482.783455398352
 30
0.0
 10
5144.836850550849
 20
2482.781108269558
 30
0.0
 10
5144.83729910843
 20
2482.779542348776
 30
0.0
 10
5144.838125368464
 20
2482.776398388987
 30
0.0
 10
5144.838501437164
 20
2482.77482056002
 30
0.0
 10
5144.839192250793
 20
2482.771646150633
 30
0.0
 10
5144.83950669533
 20
2482.770049639935
 30
0.0
 10
5144.840073062462
 20
2482.766829972911
 30
0.0
 10
5144.840324970388
 20
2482.765206887229
 30
0.0
 10
5144.840756455621
 20
2482.761923141048
 30
0.0
 10
5144.84093637262
 20
2482.760260973088
 30
0.0
 10
5144.841202091618
 20
2482.756889527182
 30
0.0
 10
5144.841288315145
 20
2482.755182418411
 30
0.0
 10
5144.841306930469
 20
2482.753442426997
 30
0.0
  0
SPLINE
  5
17C3
330
1F
100
AcDbEntity
  8
SANINDUSA
100
AcDbSpline
210
0.0
220
0.0
230
1.0
 70
     8
 71
     3
 72
    44
 73
    40
 74
     0
 42
0.0000000001
 43
0.0000000001
 40
0.0
 40
0.0
 40
0.0
 40
0.0
 40
0.0078124999999996
 40
0.0078124999999996
 40
0.0156249999999992
 40
0.0156249999999992
 40
0.0234374999999988
 40
0.0234374999999988
 40
0.0312499999999984
 40
0.0312499999999984
 40
0.039062499999998
 40
0.039062499999998
 40
0.0468749999999976
 40
0.0468749999999976
 40
0.0546874999999972
 40
0.0546874999999972
 40
0.0624999999999968
 40
0.0624999999999968
 40
0.078124999999996
 40
0.078124999999996
 40
0.0937499999999952
 40
0.0937499999999952
 40
0.1249999999999944
 40
0.1249999999999944
 40
0.1874999999999952
 40
0.1874999999999952
 40
0.2499999999999961
 40
0.2499999999999961
 40
0.3749999999999968
 40
0.3749999999999968
 40
0.4999999999999975
 40
0.4999999999999975
 40
0.6249999999999982
 40
0.6249999999999982
 40
0.7499999999999988
 40
0.7499999999999988
 40
0.8749999999999992
 40
0.8749999999999992
 40
1.0
 40
1.0
 40
1.0
 40
1.0
 10
5144.756863544888
 20
2482.790600004662
 30
0.0
 10
5144.756775207167
 20
2482.790642689388
 30
0.0
 10
5144.756682386566
 20
2482.790680154531
 30
0.0
 10
5144.756483385954
 20
2482.790739496022
 30
0.0
 10
5144.756375787295
 20
2482.790761590611
 30
0.0
 10
5144.756147043484
 20
2482.790779523317
 30
0.0
 10
5144.756023993507
 20
2482.790775031313
 30
0.0
 10
5144.755773582229
 20
2482.790730722458
 30
0.0
 10
5144.755645945032
 20
2482.790690736161
 30
0.0
 10
5144.7554000831
 20
2482.790581054646
 30
0.0
 10
5144.755282828914
 20
2482.790512230852
 30
0.0
 10
5144.755065785557
 20
2482.790361059808
 30
0.0
 10
5144.754965968198
 20
2482.7902791823
 30
0.0
 10
5144.75477749481
 20
2482.790107335274
 30
0.0
 10
5144.754689174735
 20
2482.790017446499
 30
0.0
 10
5144.754524180675
 20
2482.78983638412
 30
0.0
 10
5144.754446825462
 20
2482.789744525792
 30
0.0
 10
5144.754225512799
 20
2482.789466146957
 30
0.0
 10
5144.754092094174
 20
2482.789276876622
 30
0.0
 10
5144.753841566342
 20
2482.788893977702
 30
0.0
 10
5144.753724703814
 20
2482.78870026041
 30
0.0
 10
5144.75339413981
 20
2482.788120721333
 30
0.0
 10
5144.753198213403
 20
2482.787733830014
 30
0.0
 10
5144.752648455856
 20
2482.786571623559
 30
0.0
 10
5144.752332403784
 20
2482.785794781519
 30
0.0
 10
5144.751744706528
 20
2482.784236959612
 30
0.0
 10
5144.751474732868
 20
2482.783455398352
 30
0.0
 10
5144.750710649437
 20
2482.781108269558
 30
0.0
 10
5144.750262091855
 20
2482.779542348776
 30
0.0
 10
5144.749435831821
 20
2482.776398388987
 30
0.0
 10
5144.749059763119
 20
2482.77482056002
 30
0.0
 10
5144.748368949493
 20
2482.771646150633
 30
0.0
 10
5144.748054504955
 20
2482.770049639935
 30
0.0
 10
5144.747488137824
 20
2482.766829972911
 30
0.0
 10
5144.747236229896
 20
2482.765206887229
 30
0.0
 10
5144.746804744663
 20
2482.761923141048
 30
0.0
 10
5144.746624827664
 20
2482.760260973088
 30
0.0
 10
5144.746359108667
 20
2482.756889527182
 30
0.0
 10
5144.746272885139
 20
2482.755182418411
 30
0.0
 10
5144.746254269816
 20
2482.753442426997
 30
0.0
  0
SPLINE
  5
17C6
330
1F
100
AcDbEntity
  8
SANINDUSA
100
AcDbSpline
210
0.0
220
0.0
230
1.0
 70
     8
 71
     3
 72
    28
 73
    24
 74
     0
 42
0.0000000001
 43
0.0000000001
 40
0.0
 40
0.0
 40
0.0
 40
0.0
 40
0.1250000000000005
 40
0.1250000000000005
 40
0.2500000000000011
 40
0.2500000000000011
 40
0.3125000000000011
 40
0.3125000000000011
 40
0.3437500000000011
 40
0.3437500000000011
 40
0.3750000000000011
 40
0.3750000000000011
 40
0.4375000000000011
 40
0.4375000000000011
 40
0.500000000000001
 40
0.500000000000001
 40
0.6250000000000008
 40
0.6250000000000008
 40
0.7500000000000005
 40
0.7500000000000005
 40
0.8750000000000001
 40
0.8750000000000001
 40
1.0
 40
1.0
 40
1.0
 40
1.0
 10
5144.793780600142
 20
2482.791801436282
 30
0.0
 10
5144.795388617563
 20
2482.791818272246
 30
0.0
 10
5144.796986977463
 20
2482.79179676161
 30
0.0
 10
5144.800167657763
 20
2482.791686968421
 30
0.0
 10
5144.801750353949
 20
2482.791597644328
 30
0.0
 10
5144.80411428466
 20
2482.791443391874
 30
0.0
 10
5144.804900507669
 20
2482.791389152915
 30
0.0
 10
5144.806077391973
 20
2482.791307604072
 30
0.0
 10
5144.806469225905
 20
2482.791280938695
 30
0.0
 10
5144.807251645183
 20
2482.791232584437
 30
0.0
 10
5144.807642308219
 20
2482.791210059661
 30
0.0
 10
5144.80881291471
 20
2482.79114564305
 30
0.0
 10
5144.809591587077
 20
2482.791106767017
 30
0.0
 10
5144.811141456411
 20
2482.791032031248
 30
0.0
 10
5144.811913400124
 20
2482.79099619146
 30
0.0
 10
5144.814222534431
 20
2482.790890953102
 30
0.0
 10
5144.815754482326
 20
2482.790822543288
 30
0.0
 10
5144.818795170636
 20
2482.790715727384
 30
0.0
 10
5144.820302102194
 20
2482.790682782062
 30
0.0
 10
5144.823297912618
 20
2482.790638304287
 30
0.0
 10
5144.824786950881
 20
2482.790625753925
 30
0.0
 10
5144.82775193019
 20
2482.790607982416
 30
0.0
 10
5144.829227788552
 20
2482.790602969652
 30
0.0
 10
5144.830697655398
 20
2482.790600004662
 30
0.0
  0
SPLINE
  5
17C8
330
1F
100
AcDbEntity
  8
SANINDUSA
100
AcDbSpline
210
0.0
220
0.0
230
1.0
 70
     8
 71
     3
 72
    28
 73
    24
 74
     0
 42
0.0000000001
 43
0.0000000001
 40
0.0
 40
0.0
 40
0.0
 40
0.0
 40
0.1250000000000001
 40
0.1250000000000001
 40
0.2500000000000003
 40
0.2500000000000003
 40
0.3125000000000002
 40
0.3125000000000002
 40
0.3437500000000002
 40
0.3437500000000002
 40
0.3750000000000002
 40
0.3750000000000002
 40
0.4375000000000004
 40
0.4375000000000004
 40
0.5000000000000004
 40
0.5000000000000004
 40
0.6250000000000002
 40
0.6250000000000002
 40
0.7500000000000001
 40
0.7500000000000001
 40
0.8750000000000001
 40
0.8750000000000001
 40
1.0
 40
1.0
 40
1.0
 40
1.0
 10
5144.793780600142
 20
2482.791801436282
 30
0.0
 10
5144.79217258272
 20
2482.791818272207
 30
0.0
 10
5144.790574222821
 20
2482.79179676161
 30
0.0
 10
5144.787393542521
 20
2482.791686968421
 30
0.0
 10
5144.785810846334
 20
2482.791597644328
 30
0.0
 10
5144.783446915624
 20
2482.791443391874
 30
0.0
 10
5144.782660692616
 20
2482.791389152915
 30
0.0
 10
5144.781483808311
 20
2482.791307604072
 30
0.0
 10
5144.78109197438
 20
2482.791280938695
 30
0.0
 10
5144.780309555102
 20
2482.791232584437
 30
0.0
 10
5144.779918892066
 20
2482.791210059661
 30
0.0
 10
5144.778748285574
 20
2482.79114564305
 30
0.0
 10
5144.777969613207
 20
2482.791106767017
 30
0.0
 10
5144.776419743873
 20
2482.791032031248
 30
0.0
 10
5144.775647800162
 20
2482.79099619146
 30
0.0
 10
5144.773338665854
 20
2482.790890953102
 30
0.0
 10
5144.771806717958
 20
2482.790822543288
 30
0.0
 10
5144.768766029648
 20
2482.790715727384
 30
0.0
 10
5144.76725909809
 20
2482.790682782062
 30
0.0
 10
5144.764263287665
 20
2482.790638304287
 30
0.0
 10
5144.762774249404
 20
2482.790625753925
 30
0.0
 10
5144.759809270095
 20
2482.790607982416
 30
0.0
 10
5144.758333411733
 20
2482.790602969652
 30
0.0
 10
5144.756863544888
 20
2482.790600004662
 30
0.0
  0
SPLINE
  5
17C9
330
1F
100
AcDbEntity
  8
SANINDUSA
100
AcDbSpline
210
0.0
220
0.0
230
1.0
 70
     8
 71
     3
 72
    30
 73
    26
 74
     0
 42
0.0000000001
 43
0.0000000001
 40
0.0
 40
0.0
 40
0.0
 40
0.0
 40
0.1249999999999995
 40
0.1249999999999995
 40
0.1874999999999997
 40
0.1874999999999997
 40
0.25
 40
0.25
 40
0.3750000000000003
 40
0.3750000000000003
 40
0.4375000000000031
 40
0.4375000000000031
 40
0.5000000000000058
 40
0.5000000000000058
 40
0.6250000000000053
 40
0.6250000000000053
 40
0.6875000000000023
 40
0.6875000000000023
 40
0.7499999999999993
 40
0.7499999999999993
 40
0.8749999999999996
 40
0.8749999999999996
 40
0.9374999999999998
 40
0.9374999999999998
 40
1.0
 40
1.0
 40
1.0
 40
1.0
 10
5144.763502331777
 20
2482.71835283877
 30
0.0
 10
5144.762556730544
 20
2482.71835283877
 30
0.0
 10
5144.761626964282
 20
2482.718264161859
 30
0.0
 10
5144.760255386517
 20
2482.718002297702
 30
0.0
 10
5144.759802063918
 20
2482.717893391724
 30
0.0
 10
5144.758903344453
 20
2482.717631301037
 30
0.0
 10
5144.758455520448
 20
2482.717477062854
 30
0.0
 10
5144.757146393298
 20
2482.716953713905
 30
0.0
 10
5144.75631875304
 20
2482.716525786681
 30
0.0
 10
5144.755143809893
 20
2482.715767062734
 30
0.0
 10
5144.754763320602
 20
2482.715494553547
 30
0.0
 10
5144.75402537326
 20
2482.714908992253
 30
0.0
 10
5144.75366916011
 20
2482.714596546323
 30
0.0
 10
5144.752658528336
 20
2482.713618823842
 30
0.0
 10
5144.752053595589
 20
2482.712907402367
 30
0.0
 10
5144.751249269507
 20
2482.71175057485
 30
0.0
 10
5144.75099730637
 20
2482.711347790225
 30
0.0
 10
5144.750535180959
 20
2482.710521573923
 30
0.0
 10
5144.750325705523
 20
2482.710099930953
 30
0.0
 10
5144.749759933721
 20
2482.708810172863
 30
0.0
 10
5144.749465762298
 20
2482.707917435677
 30
0.0
 10
5144.749150602664
 20
2482.706528174781
 30
0.0
 10
5144.749067181256
 20
2482.706057889496
 30
0.0
 10
5144.748945350032
 20
2482.705115342443
 30
0.0
 10
5144.74890651864
 20
2482.704641351214
 30
0.0
 10
5144.748889751415
 20
2482.704164643383
 30
0.0
  0
SPLINE
  5
17CA
330
1F
100
AcDbEntity
  8
SANINDUSA
100
AcDbSpline
210
0.0
220
0.0
230
1.0
 70
     8
 71
     3
 72
    26
 73
    22
 74
     0
 42
0.0000000001
 43
0.0000000001
 40
0.0
 40
0.0
 40
0.0
 40
0.0
 40
0.1250000000000004
 40
0.1250000000000004
 40
0.2500000000000008
 40
0.2500000000000008
 40
0.3750000000000012
 40
0.3750000000000012
 40
0.4375000000000015
 40
0.4375000000000015
 40
0.5000000000000017
 40
0.5000000000000017
 40
0.6250000000000017
 40
0.6250000000000017
 40
0.750000000000001
 40
0.750000000000001
 40
0.8750000000000003
 40
0.8750000000000003
 40
0.9375000000000001
 40
0.9375000000000001
 40
1.0
 40
1.0
 40
1.0
 40
1.0
 10
5144.748889751415
 20
2482.704164643383
 30
0.0
 10
5144.74873348932
 20
2482.705220226379
 30
0.0
 10
5144.748582921359
 20
2482.706414530472
 30
0.0
 10
5144.748294035678
 20
2482.709068359447
 30
0.0
 10
5144.748155648145
 20
2482.710528156549
 30
0.0
 10
5144.747890703476
 20
2482.713707366591
 30
0.0
 10
5144.747764151969
 20
2482.7154269031
 30
0.0
 10
5144.747582910243
 20
2482.718194615788
 30
0.0
 10
5144.747523923567
 20
2482.719148507042
 30
0.0
 10
5144.747408748094
 20
2482.721117688495
 30
0.0
 10
5144.747352528315
 20
2482.722133609089
 30
0.0
 10
5144.747188245101
 20
2482.725266503686
 30
0.0
 10
5144.747084576394
 20
2482.727467635751
 30
0.0
 10
5144.74688826894
 20
2482.732081957165
 30
0.0
 10
5144.74679559478
 20
2482.73449446568
 30
0.0
 10
5144.746621096191
 20
2482.739528074996
 30
0.0
 10
5144.74653927542
 20
2482.742149246138
 30
0.0
 10
5144.746425664106
 20
2482.746256337023
 30
0.0
 10
5144.746389297186
 20
2482.747654273298
 30
0.0
 10
5144.7463195298
 20
2482.750507177665
 30
0.0
 10
5144.746286132875
 20
2482.751962052879
 30
0.0
 10
5144.746254269816
 20
2482.753442426997
 30
0.0
  0
SPLINE
  5
17CC
330
1F
100
AcDbEntity
  8
SANINDUSA
100
AcDbSpline
210
0.0
220
0.0
230
1.0
 70
     8
 71
     3
 72
    26
 73
    22
 74
     0
 42
0.0000000001
 43
0.0000000001
 40
0.0
 40
0.0
 40
0.0
 40
0.0
 40
0.1250000000000004
 40
0.1250000000000004
 40
0.2500000000000008
 40
0.2500000000000008
 40
0.3750000000000012
 40
0.3750000000000012
 40
0.4375000000000015
 40
0.4375000000000015
 40
0.5000000000000017
 40
0.5000000000000017
 40
0.6250000000000017
 40
0.6250000000000017
 40
0.750000000000001
 40
0.750000000000001
 40
0.8750000000000003
 40
0.8750000000000003
 40
0.9375000000000001
 40
0.9375000000000001
 40
1.0
 40
1.0
 40
1.0
 40
1.0
 10
5144.838671448869
 20
2482.704164643383
 30
0.0
 10
5144.838827710964
 20
2482.705220226379
 30
0.0
 10
5144.838978278926
 20
2482.706414530472
 30
0.0
 10
5144.839267164607
 20
2482.709068359447
 30
0.0
 10
5144.83940555214
 20
2482.710528156549
 30
0.0
 10
5144.839670496808
 20
2482.713707366591
 30
0.0
 10
5144.839797048315
 20
2482.7154269031
 30
0.0
 10
5144.839978290042
 20
2482.718194615788
 30
0.0
 10
5144.840037276718
 20
2482.719148507042
 30
0.0
 10
5144.84015245219
 20
2482.721117688495
 30
0.0
 10
5144.840208671969
 20
2482.722133609089
 30
0.0
 10
5144.840372955184
 20
2482.725266503686
 30
0.0
 10
5144.84047662389
 20
2482.727467635751
 30
0.0
 10
5144.840672931344
 20
2482.732081957165
 30
0.0
 10
5144.840765605504
 20
2482.73449446568
 30
0.0
 10
5144.840940104093
 20
2482.739528074996
 30
0.0
 10
5144.841021924865
 20
2482.742149246138
 30
0.0
 10
5144.841135536179
 20
2482.746256337023
 30
0.0
 10
5144.841171903099
 20
2482.747654273298
 30
0.0
 10
5144.841241670485
 20
2482.750507177665
 30
0.0
 10
5144.84127506741
 20
2482.751962052879
 30
0.0
 10
5144.841306930469
 20
2482.753442426997
 30
0.0
  0
SPLINE
  5
17CD
330
1F
100
AcDbEntity
  8
SANINDUSA
100
AcDbSpline
210
0.0
220
0.0
230
1.0
 70
     8
 71
     3
 72
    30
 73
    26
 74
     0
 42
0.0000000001
 43
0.0000000001
 40
0.0
 40
0.0
 40
0.0
 40
0.0
 40
0.1249999999999995
 40
0.1249999999999995
 40
0.1874999999999997
 40
0.1874999999999997
 40
0.25
 40
0.25
 40
0.3750000000000003
 40
0.3750000000000003
 40
0.4375000000000031
 40
0.4375000000000031
 40
0.5000000000000058
 40
0.5000000000000058
 40
0.6250000000000053
 40
0.6250000000000053
 40
0.6875000000000023
 40
0.6875000000000023
 40
0.7499999999999993
 40
0.7499999999999993
 40
0.8749999999999996
 40
0.8749999999999996
 40
0.9374999999999998
 40
0.9374999999999998
 40
1.0
 40
1.0
 40
1.0
 40
1.0
 10
5144.824058868508
 20
2482.71835283877
 30
0.0
 10
5144.825004469741
 20
2482.71835283877
 30
0.0
 10
5144.825934236003
 20
2482.718264161859
 30
0.0
 10
5144.827305813769
 20
2482.718002297702
 30
0.0
 10
5144.827759136365
 20
2482.717893391724
 30
0.0
 10
5144.828657855831
 20
2482.717631301037
 30
0.0
 10
5144.829105679836
 20
2482.717477062854
 30
0.0
 10
5144.830414806985
 20
2482.716953713905
 30
0.0
 10
5144.831242447244
 20
2482.716525786681
 30
0.0
 10
5144.832417390391
 20
2482.715767062734
 30
0.0
 10
5144.832797879683
 20
2482.715494553547
 30
0.0
 10
5144.833535827024
 20
2482.714908992253
 30
0.0
 10
5144.833892040176
 20
2482.714596546323
 30
0.0
 10
5144.834902671949
 20
2482.713618823842
 30
0.0
 10
5144.835507604694
 20
2482.712907402367
 30
0.0
 10
5144.836311930776
 20
2482.71175057485
 30
0.0
 10
5144.836563893915
 20
2482.711347790225
 30
0.0
 10
5144.837026019325
 20
2482.710521573923
 30
0.0
 10
5144.837235494762
 20
2482.710099930953
 30
0.0
 10
5144.837801266563
 20
2482.708810172863
 30
0.0
 10
5144.838095437986
 20
2482.707917435677
 30
0.0
 10
5144.83841059762
 20
2482.706528174781
 30
0.0
 10
5144.83849401903
 20
2482.706057889496
 30
0.0
 10
5144.838615850253
 20
2482.705115342443
 30
0.0
 10
5144.838654681644
 20
2482.704641351214
 30
0.0
 10
5144.838671448869
 20
2482.704164643383
 30
0.0
  0
SPLINE
  5
17CF
330
1F
100
AcDbEntity
  8
SANINDUSA
100
AcDbSpline
210
0.0
220
0.0
230
1.0
 70
    24
 71
     3
 72
     8
 73
     4
 74
     0
 42
0.0000000001
 43
0.0000000001
 40
0.0
 40
0.0
 40
0.0
 40
0.0
 40
0.1247637832260858
 40
0.1247637832260858
 40
0.1247637832260858
 40
0.1247637832260858
 10
5144.793780600142
 20
2482.71835283877
 30
0.0
 10
5144.80431683463
 20
2482.71835283877
 30
0.0
 10
5144.814814187115
 20
2482.71835283877
 30
0.0
 10
5144.824058868508
 20
2482.71835283877
 30
0.0
  0
SPLINE
  5
17D1
330
1F
100
AcDbEntity
  8
SANINDUSA
100
AcDbSpline
210
0.0
220
0.0
230
1.0
 70
    24
 71
     3
 72
     8
 73
     4
 74
     0
 42
0.0000000001
 43
0.0000000001
 40
0.0
 40
0.0
 40
0.0
 40
0.0
 40
0.1247637832260858
 40
0.1247637832260858
 40
0.1247637832260858
 40
0.1247637832260858
 10
5144.793780600142
 20
2482.71835283877
 30
0.0
 10
5144.783244365655
 20
2482.71835283877
 30
0.0
 10
5144.77274701317
 20
2482.71835283877
 30
0.0
 10
5144.763502331777
 20
2482.71835283877
 30
0.0
  0
SPLINE
  5
17D2
330
1F
100
AcDbEntity
  8
SANINDUSA
100
AcDbSpline
210
0.0
220
0.0
230
1.0
 70
    24
 71
     3
 72
    14
 73
    10
 74
     0
 42
0.0000000001
 43
0.0000000001
 40
0.0
 40
0.0
 40
0.0
 40
0.0
 40
0.5000000000000001
 40
0.5000000000000001
 40
0.6249999999999966
 40
0.6249999999999966
 40
0.749999999999993
 40
0.749999999999993
 40
1.0
 40
1.0
 40
1.0
 40
1.0
 10
5144.746254269816
 20
2482.753442426997
 30
0.0
 10
5144.746193705847
 20
2482.751515128156
 30
0.0
 10
5144.746130504767
 20
2482.749585992958
 30
0.0
 10
5144.746047934225
 20
2482.747172088547
 30
0.0
 10
5144.746031241179
 20
2482.746689183061
 30
0.0
 10
5144.745997488417
 20
2482.745723116758
 30
0.0
 10
5144.745980463464
 20
2482.745239980149
 30
0.0
 10
5144.745929375711
 20
2482.74379056134
 30
0.0
 10
5144.745895032552
 20
2482.742824083913
 30
0.0
 10
5144.745860297689
 20
2482.741857333722
 30
0.0
  0
SPLINE
  5
17ED
330
1F
100
AcDbEntity
  8
SANINDUSA
100
AcDbSpline
210
0.0
220
0.0
230
1.0
 70
    24
 71
     3
 72
     9
 73
     5
 74
     0
 42
0.0000000001
 43
0.0000000001
 40
0.0
 40
0.0
 40
0.0
 40
0.0
 40
0.4854262696724079
 40
1.0
 40
1.0
 40
1.0
 40
1.0
 10
5144.84131674296
 20
2482.753143216533
 30
0.0
 10
5144.841375480742
 20
2482.751319453413
 30
0.0
 10
5144.84149648322
 20
2482.747562419165
 30
0.0
 10
5144.841631451476
 20
2482.743795626352
 30
0.0
 10
5144.841700902595
 20
2482.741857333722
 30
0.0
  0
LINE
  5
17FB
330
1F
100
AcDbEntity
  8
SANINDUSA
100
AcDbLine
 10
5146.55130742921
 20
2482.842991248492
 30
0.0
 11
5146.673266402096
 21
2482.842991248492
 31
0.0
  0
LINE
  5
17FC
330
1F
100
AcDbEntity
  8
SANINDUSA
100
AcDbLine
 10
5146.55130742921
 20
2482.852991246406
 30
0.0
 11
5146.55130742921
 21
2482.842991248492
 31
0.0
  0
LINE
  5
17FD
330
1F
100
AcDbEntity
  8
SANINDUSA
100
AcDbLine
 10
5146.58130742854
 20
2482.852991246406
 30
0.0
 11
5146.55130742921
 21
2482.852991246406
 31
0.0
  0
LINE
  5
17FE
330
1F
100
AcDbEntity
  8
SANINDUSA
100
AcDbLine
 10
5146.58130742854
 20
2482.852991246406
 30
0.0
 11
5146.58130742854
 21
2482.862991244319
 31
0.0
  0
LINE
  5
17FF
330
1F
100
AcDbEntity
  8
SANINDUSA
100
AcDbLine
 10
5146.58130742854
 20
2482.862991244319
 30
0.0
 11
5146.591307430179
 21
2482.862991244319
 31
0.0
  0
LINE
  5
1800
330
1F
100
AcDbEntity
  8
SANINDUSA
100
AcDbLine
 10
5146.591307430179
 20
2482.852991246406
 30
0.0
 11
5146.591307430179
 21
2482.862991244319
 31
0.0
  0
LINE
  5
1801
330
1F
100
AcDbEntity
  8
SANINDUSA
100
AcDbLine
 10
5146.671061715693
 20
2482.852991246406
 30
0.0
 11
5146.591307430179
 21
2482.852991246406
 31
0.0
  0
SPLINE
  5
1802
330
1F
100
AcDbEntity
  8
SANINDUSA
100
AcDbSpline
210
0.0
220
0.0
230
1.0
 70
     8
 71
     3
 72
    17
 73
    13
 74
     0
 42
0.0000000001
 43
0.0000000001
 40
0.0
 40
0.0
 40
0.0
 40
0.0
 40
0.2500000000000023
 40
0.3125000000000026
 40
0.3281250000000033
 40
0.3281250000000033
 40
0.343750000000004
 40
0.343750000000004
 40
0.3750000000000043
 40
0.5000000000000041
 40
0.5000000000000041
 40
1.0
 40
1.0
 40
1.0
 40
1.0
 10
5146.667340685395
 20
2482.886699383206
 30
0.0
 10
5146.667532405672
 20
2482.883957655513
 30
0.0
 10
5146.667772056018
 20
2482.880530495898
 30
0.0
 10
5146.668023688881
 20
2482.876931978302
 30
0.0
 10
5146.668083601467
 20
2482.876075188398
 30
0.0
 10
5146.668107566503
 20
2482.875732472436
 30
0.0
 10
5146.668119211078
 20
2482.87556496673
 30
0.0
 10
5146.668157233394
 20
2482.875025275047
 30
0.0
 10
5146.66828907957
 20
2482.873227199484
 30
0.0
 10
5146.668446403198
 20
2482.871433705064
 30
0.0
 10
5146.669156607195
 20
2482.864275631403
 30
0.0
 10
5146.669983684674
 20
2482.858600079583
 30
0.0
 10
5146.671061721368
 20
2482.852991244915
 30
0.0
  0
SPLINE
  5
1803
330
1F
100
AcDbEntity
  8
SANINDUSA
100
AcDbSpline
210
0.0
220
0.0
230
1.0
 70
    24
 71
     3
 72
     8
 73
     4
 74
     0
 42
0.0000000001
 43
0.0000000001
 40
0.0
 40
0.0
 40
0.0
 40
0.0
 40
1.0
 40
1.0
 40
1.0
 40
1.0
 10
5146.666643014399
 20
2482.896676543278
 30
0.0
 10
5146.666875571398
 20
2482.893350823255
 30
0.0
 10
5146.667108128397
 20
2482.89002510323
 30
0.0
 10
5146.667340685395
 20
2482.886699383206
 30
0.0
  0
LINE
  5
1804
330
1F
100
AcDbEntity
  8
SANINDUSA
100
AcDbLine
 10
5146.66664301476
 20
2482.896676544819
 30
0.0
 11
5146.699748745771
 21
2482.899572917048
 31
0.0
  0
LINE
  5
1805
330
1F
100
AcDbEntity
  8
SANINDUSA
100
AcDbLine
 10
5146.698641768307
 20
2482.912225643892
 30
0.0
 11
5146.699748745771
 21
2482.899572917048
 31
0.0
  0
ARC
  5
1806
330
1F
100
AcDbEntity
  8
SANINDUSA
100
AcDbCircle
 10
5146.67881749466
 20
2482.910491244915
 30
0.0
 40
0.0199000000000002
100
AcDbArc
 50
4.999999996291116
 51
90.0
  0
LINE
  5
1807
330
1F
100
AcDbEntity
  8
SANINDUSA
100
AcDbLine
 10
5146.58130742854
 20
2482.930391245309
 30
0.0
 11
5146.678817501873
 21
2482.930391245309
 31
0.0
  0
LINE
  5
1808
330
1F
100
AcDbEntity
  8
SANINDUSA
100
AcDbLine
 10
5146.58130742854
 20
2482.930391245309
 30
0.0
 11
5146.58130742854
 21
2482.917991244022
 31
0.0
  0
LINE
  5
1809
330
1F
100
AcDbEntity
  8
SANINDUSA
100
AcDbLine
 10
5146.58130742854
 20
2482.917991244022
 30
0.0
 11
5146.591307430179
 21
2482.917991244022
 31
0.0
  0
LINE
  5
180A
330
1F
100
AcDbEntity
  8
SANINDUSA
100
AcDbLine
 10
5146.591307430179
 20
2482.897991244469
 30
0.0
 11
5146.591307430179
 21
2482.917991244022
 31
0.0
  0
LINE
  5
180B
330
1F
100
AcDbEntity
  8
SANINDUSA
100
AcDbLine
 10
5146.591307430179
 20
2482.897991244469
 30
0.0
 11
5146.58130742854
 21
2482.897991244469
 31
0.0
  0
LINE
  5
180C
330
1F
100
AcDbEntity
  8
SANINDUSA
100
AcDbLine
 10
5146.58130742854
 20
2482.897991244469
 30
0.0
 11
5146.58130742854
 21
2482.907991246108
 31
0.0
  0
LINE
  5
180D
330
1F
100
AcDbEntity
  8
SANINDUSA
100
AcDbLine
 10
5146.55130742921
 20
2482.907991246108
 30
0.0
 11
5146.58130742854
 21
2482.907991246108
 31
0.0
  0
LINE
  5
180E
330
1F
100
AcDbEntity
  8
SANINDUSA
100
AcDbLine
 10
5146.55130742921
 20
2482.930391245309
 30
0.0
 11
5146.55130742921
 21
2482.907991246108
 31
0.0
  0
LINE
  5
180F
330
1F
100
AcDbEntity
  8
SANINDUSA
100
AcDbLine
 10
5146.533307429985
 20
2482.930391245309
 30
0.0
 11
5146.55130742921
 21
2482.930391245309
 31
0.0
  0
LINE
  5
1810
330
1F
100
AcDbEntity
  8
SANINDUSA
100
AcDbLine
 10
5146.533307429985
 20
2482.930391245309
 30
0.0
 11
5146.533307429985
 21
2482.932108758736
 31
0.0
  0
LINE
  5
1811
330
1F
100
AcDbEntity
  8
SANINDUSA
100
AcDbLine
 10
5146.521307429881
 20
2482.940491244916
 30
0.0
 11
5146.521307429881
 21
2482.932108758736
 31
0.0
  0
LINE
  5
1812
330
1F
100
AcDbEntity
  8
SANINDUSA
100
AcDbLine
 10
5146.521307429881
 20
2482.940491244916
 30
0.0
 11
5146.678817501873
 21
2482.940491244916
 31
0.0
  0
ARC
  5
1813
330
1F
100
AcDbEntity
  8
SANINDUSA
100
AcDbCircle
 10
5146.67881749466
 20
2482.910491244915
 30
0.0
 40
0.03
100
AcDbArc
 50
4.999999996291116
 51
90.0
  0
LINE
  5
1814
330
1F
100
AcDbEntity
  8
SANINDUSA
100
AcDbLine
 10
5146.708703330369
 20
2482.913105916951
 30
0.0
 11
5146.710681861849
 21
2482.89049124417
 31
0.0
  0
LINE
  5
1815
330
1F
100
AcDbEntity
  8
SANINDUSA
100
AcDbLine
 10
5146.683343163342
 20
2482.888099417809
 30
0.0
 11
5146.710681861849
 21
2482.89049124417
 31
0.0
  0
LINE
  5
1816
330
1F
100
AcDbEntity
  8
SANINDUSA
100
AcDbLine
 10
5146.683343163342
 20
2482.888099417809
 30
0.0
 11
5146.682555800886
 21
2482.842991248492
 31
0.0
  0
LINE
  5
1817
330
1F
100
AcDbEntity
  8
SANINDUSA
100
AcDbLine
 10
5146.521307429881
 20
2482.932108758736
 30
0.0
 11
5146.533307429985
 21
2482.932108758736
 31
0.0
  0
ARC
  5
1818
330
1F
100
AcDbEntity
  8
SANINDUSA
100
AcDbCircle
 10
5147.023797365102
 20
2482.910491244915
 30
0.0
 40
0.0300000000000002
100
AcDbArc
 50
90.0
 51
175.0000000037089
  0
LINE
  5
1819
330
1F
100
AcDbEntity
  8
SANINDUSA
100
AcDbLine
 10
5147.023797354312
 20
2482.940491244916
 30
0.0
 11
5147.042512557121
 21
2482.940491244916
 31
0.0
  0
ARC
  5
181A
330
1F
100
AcDbEntity
  8
SANINDUSA
100
AcDbCircle
 10
5147.042512542205
 20
2482.932491244915
 30
0.0
 40
0.0080000000000001
100
AcDbArc
 50
357.2596005037689
 51
90.0
  0
LINE
  5
181B
330
1F
100
AcDbEntity
  8
SANINDUSA
100
AcDbLine
 10
5146.991933009238
 20
2482.89049124417
 30
0.0
 11
5146.993911525817
 21
2482.913105916951
 31
0.0
  0
ARC
  5
181C
330
1F
100
AcDbEntity
  8
SANINDUSA
100
AcDbCircle
 10
5147.023797365102
 20
2482.910491244915
 30
0.0
 40
0.0199
100
AcDbArc
 50
90.0
 51
175.0000000037089
  0
LINE
  5
181D
330
1F
100
AcDbEntity
  8
SANINDUSA
100
AcDbLine
 10
5147.002866110415
 20
2482.899572917048
 30
0.0
 11
5147.003973087878
 21
2482.912225643892
 31
0.0
  0
LINE
  5
181E
330
1F
100
AcDbEntity
  8
SANINDUSA
100
AcDbLine
 10
5147.002866110415
 20
2482.899572917048
 30
0.0
 11
5147.024936756701
 21
2482.897641987327
 31
0.0
  0
LINE
  5
181F
330
1F
100
AcDbEntity
  8
SANINDUSA
100
AcDbLine
 10
5146.991933009238
 20
2482.89049124417
 30
0.0
 11
5147.03384180984
 21
2482.886824697974
 31
0.0
  0
LINE
  5
1820
330
1F
100
AcDbEntity
  8
SANINDUSA
100
AcDbLine
 10
5147.023797354312
 20
2482.930391245309
 30
0.0
 11
5147.028245172114
 21
2482.930391245309
 31
0.0
  0
LINE
  5
1821
330
1F
100
AcDbEntity
  8
SANINDUSA
100
AcDbLine
 10
5147.038457355113
 20
2482.932108758736
 30
0.0
 11
5147.050503394217
 21
2482.932108758736
 31
0.0
  0
LINE
  5
1825
330
1F
100
AcDbEntity
  8
SANINDUSA
100
AcDbLine
 10
5146.55130742921
 20
2482.852991246406
 30
0.0
 11
5146.55130742921
 21
2482.907991246108
 31
0.0
  0
LINE
  5
1826
330
1F
100
AcDbEntity
  8
SANINDUSA
100
AcDbLine
 10
5146.591307430179
 20
2482.897991244469
 30
0.0
 11
5146.591307430179
 21
2482.862991244319
 31
0.0
  0
LINE
  5
1827
330
1F
100
AcDbEntity
  8
SANINDUSA
100
AcDbLine
 10
5146.58130742854
 20
2482.897991244469
 30
0.0
 11
5146.58130742854
 21
2482.862991244319
 31
0.0
  0
LINE
  5
182C
330
1F
100
AcDbEntity
  8
SANINDUSA
100
AcDbLine
 10
5146.710681861849
 20
2482.89049124417
 30
0.0
 11
5146.786307415576
 21
2482.89049124417
 31
0.0
  0
LINE
  5
1832
330
1F
100
AcDbEntity
  8
SANINDUSA
100
AcDbLine
 10
5146.786307415576
 20
2482.940491244916
 30
0.0
 11
5146.678817501873
 21
2482.940491244916
 31
0.0
  0
LINE
  5
1833
330
1F
100
AcDbEntity
  8
SANINDUSA
100
AcDbLine
 10
5146.961307427496
 20
2482.89049124417
 30
0.0
 11
5146.991933009238
 21
2482.89049124417
 31
0.0
  0
LINE
  5
1837
330
1F
100
AcDbEntity
  8
SANINDUSA
100
AcDbLine
 10
5147.023797354312
 20
2482.940491244916
 30
0.0
 11
5146.961307427496
 21
2482.940491244916
 31
0.0
  0
LINE
  5
1838
330
1F
100
AcDbEntity
  8
SANINDUSA
100
AcDbLine
 10
5146.786307415576
 20
2482.89049124417
 30
0.0
 11
5146.961307427496
 21
2482.89049124417
 31
0.0
  0
LINE
  5
183A
330
1F
100
AcDbEntity
  8
SANINDUSA
100
AcDbLine
 10
5146.961307427496
 20
2482.940491244916
 30
0.0
 11
5146.786307415576
 21
2482.940491244916
 31
0.0
  0
LINE
  5
183E
330
1F
100
AcDbEntity
  8
SANINDUSA
100
AcDbLine
 10
5147.040390154929
 20
2482.932108758736
 30
0.0
 11
5147.040200671764
 21
2482.930391245309
 31
0.0
  0
SPLINE
  5
184F
330
1F
100
AcDbEntity
  8
SANINDUSA
100
AcDbSpline
210
0.0
220
0.0
230
1.0
 70
    24
 71
     3
 72
     8
 73
     4
 74
     0
 42
0.0000000001
 43
0.0000000001
 40
0.1084479444740199
 40
0.1084479444740199
 40
0.1084479444740199
 40
0.1084479444740199
 40
0.1325659948711537
 40
0.1325659948711537
 40
0.1325659948711537
 40
0.1325659948711537
 10
5147.045798559411
 20
2482.885778618824
 30
0.0
 10
5147.046155292484
 20
2482.889093218077
 30
0.0
 10
5147.046507904113
 20
2482.892408434381
 30
0.0
 10
5147.046856394431
 20
2482.895724268628
 30
0.0
  0
SPLINE
  5
1850
330
1F
100
AcDbEntity
  8
SANINDUSA
100
AcDbSpline
210
0.0
220
0.0
230
1.0
 70
     8
 71
     3
 72
     8
 73
     4
 74
     0
 42
0.0000000001
 43
0.0000000001
 40
0.1325659948813246
 40
0.1325659948813246
 40
0.1325659948813246
 40
0.1325659948813246
 40
1.0
 40
1.0
 40
1.0
 40
1.0
 10
5146.991307429881
 20
2482.530491244915
 30
0.0
 10
5147.01480655469
 20
2482.648149904329
 30
0.0
 10
5147.032968235549
 20
2482.766565164243
 30
0.0
 10
5147.045798559411
 20
2482.88577861882
 30
0.0
  0
SPLINE
  5
1877
330
1F
100
AcDbEntity
  8
SANINDUSA
100
AcDbSpline
210
0.0
220
0.0
230
1.0
 70
     8
 71
     3
 72
    18
 73
    14
 74
     0
 42
0.0000000001
 43
0.0000000001
 40
0.0
 40
0.0
 40
0.0
 40
0.0
 40
0.2500000000000004
 40
0.2500000000000004
 40
0.5000000000000009
 40
0.5000000000000009
 40
0.6250000000000016
 40
0.6250000000000016
 40
0.6875000000000015
 40
0.6875000000000015
 40
0.7500000000000014
 40
0.7500000000000014
 40
1.0
 40
1.0
 40
1.0
 40
1.0
 10
5146.67326639691
 20
2482.842991244915
 30
0.0
 10
5146.674904734716
 20
2482.836413465105
 30
0.0
 10
5146.676885199995
 20
2482.829967402804
 30
0.0
 10
5146.681514758997
 20
2482.817332697088
 30
0.0
 10
5146.684163857172
 20
2482.811144055389
 30
0.0
 10
5146.68864479233
 20
2482.802056396354
 30
0.0
 10
5146.690223166198
 20
2482.799059796882
 30
0.0
 10
5146.692720267468
 20
2482.79461477016
 30
0.0
 10
5146.693574926031
 20
2482.793140263354
 30
0.0
 10
5146.69532501531
 20
2482.790213098502
 30
0.0
 10
5146.6962178636
 20
2482.788764685126
 30
0.0
 10
5146.700770026684
 20
2482.781597529152
 30
0.0
 10
5146.704692325572
 20
2482.776102854018
 30
0.0
 10
5146.708887667895
 20
2482.770840817096
 30
0.0
  0
ELLIPSE
  5
18A7
330
1F
100
AcDbEntity
  8
SANINDUSA
100
AcDbEllipse
 10
5146.621866049592
 20
2482.648993773307
 30
0.0
 11
0.0554888338387089
 21
0.0605554360826033
 31
0.0
210
0.0
220
0.0
230
1.0
 40
0.0013016179899991
 41
3.143288953562888
 42
3.642500152078876
  0
ARC
  5
18D1
330
1F
100
AcDbEntity
  8
SANINDUSA
100
AcDbCircle
 10
5146.704978151203
 20
2482.767723818663
 30
0.0
 40
0.0050000000000001
100
AcDbArc
 50
271.9999999777144
 51
38.56482487194366
  0
LINE
  5
18D2
330
1F
100
AcDbEntity
  8
SANINDUSA
100
AcDbLine
 10
5146.682555800886
 20
2482.842991248492
 30
0.0
 11
5146.673266402096
 21
2482.842991248492
 31
0.0
  0
SPLINE
  5
18D3
330
1F
100
AcDbEntity
  8
SANINDUSA
100
AcDbSpline
210
0.0
220
0.0
230
1.0
 70
     8
 71
     3
 72
     8
 73
     4
 74
     0
 42
0.0000000001
 43
0.0000000001
 40
0.0
 40
0.0
 40
0.0
 40
0.0
 40
1.0
 40
1.0
 40
1.0
 40
1.0
 10
5146.73409455101
 20
2482.756847074435
 30
0.0
 10
5146.734807680585
 20
2482.756184038241
 30
0.0
 10
5146.735486935487
 20
2482.755487947128
 30
0.0
 10
5146.736132301964
 20
2482.754758787678
 30
0.0
  0
LINE
  5
18D4
330
1F
100
AcDbEntity
  8
SANINDUSA
100
AcDbLine
 10
5146.809580913395
 20
2482.605495140675
 30
0.0
 11
5146.799392095418
 21
2482.605495140675
 31
0.0
  0
ARC
  5
18D5
330
1F
100
AcDbEntity
  8
SANINDUSA
100
AcDbCircle
 10
5146.500230535574
 20
2482.546103614355
 30
0.0
 40
0.3050000000000001
100
AcDbArc
 50
11.22873447119433
 51
42.81149726314583
  0
LINE
  5
18D6
330
1F
100
AcDbEntity
  8
SANINDUSA
100
AcDbLine
 10
5146.641307427199
 20
2482.7504912473
 30
0.0
 11
5146.723976558656
 21
2482.753378108862
 31
0.0
  0
LINE
  5
18D7
330
1F
100
AcDbEntity
  8
SANINDUSA
100
AcDbLine
 10
5146.640958434552
 20
2482.760485158089
 30
0.0
 11
5146.641307427199
 21
2482.7504912473
 31
0.0
  0
LINE
  5
18D8
330
1F
100
AcDbEntity
  8
SANINDUSA
100
AcDbLine
 10
5146.640958434552
 20
2482.760485158089
 30
0.0
 11
5146.705152651877
 21
2482.762726858977
 31
0.0
  0
LINE
  5
18D9
330
1F
100
AcDbEntity
  8
SANINDUSA
100
AcDbLine
 10
5146.954229197116
 20
2482.743184909943
 30
0.0
 11
5146.917784324497
 21
2482.743184909943
 31
0.0
  0
ARC
  5
18DA
330
1F
100
AcDbEntity
  8
SANINDUSA
100
AcDbCircle
 10
5146.954229210968
 20
2482.733184914491
 30
0.0
 40
0.01
100
AcDbArc
 50
2.000000003753602
 51
90.0
  0
LINE
  5
18DB
330
1F
100
AcDbEntity
  8
SANINDUSA
100
AcDbLine
 10
5146.964223107905
 20
2482.733533904675
 30
0.0
 11
5146.970964303822
 21
2482.540491238955
 31
0.0
  0
LINE
  5
18DC
330
1F
100
AcDbEntity
  8
SANINDUSA
100
AcDbLine
 10
5146.970964303822
 20
2482.540491238955
 30
0.0
 11
5146.982996663661
 21
2482.540491238955
 31
0.0
  0
SPLINE
  5
18DD
330
1F
100
AcDbEntity
  8
SANINDUSA
100
AcDbSpline
210
0.0
220
0.0
230
1.0
 70
     8
 71
     3
 72
     8
 73
     4
 74
     0
 42
0.0000000001
 43
0.0000000001
 40
0.0
 40
0.0
 40
0.0
 40
0.0
 40
1.0
 40
1.0
 40
1.0
 40
1.0
 10
5146.98299666439
 20
2482.540491244916
 30
0.0
 10
5147.00293572216
 20
2482.641398350337
 30
0.0
 10
5147.018948629488
 20
2482.742903580853
 30
0.0
 10
5147.031028829692
 20
2482.845007935336
 30
0.0
  0
SPLINE
  5
18DE
330
1F
100
AcDbEntity
  8
SANINDUSA
100
AcDbSpline
210
0.0
220
0.0
230
1.0
 70
     8
 71
     3
 72
    18
 73
    14
 74
     0
 42
0.0000000001
 43
0.0000000001
 40
0.0
 40
0.0
 40
0.0
 40
0.0
 40
0.0861500313138116
 40
0.1723781135906449
 40
0.260525165985198
 40
0.3493896594661294
 40
0.4375570981291227
 40
0.5464442381844782
 40
0.6547680581294384
 40
0.7627734220344539
 40
0.8417796934454264
 40
0.920825581265165
 40
1.0
 40
1.0
 40
1.0
 40
1.0
 10
5146.931584021658
 20
2482.764528483871
 30
0.0
 10
5146.935131106655
 20
2482.765832244282
 30
0.0
 10
5146.942228490265
 20
2482.768440946296
 30
0.0
 10
5146.952807984471
 20
2482.772762268771
 30
0.0
 10
5146.963393157919
 20
2482.777390900985
 30
0.0
 10
5146.973627726879
 20
2482.782948839302
 30
0.0
 10
5146.984168893005
 20
2482.789763395861
 30
0.0
 10
5146.994755271185
 20
2482.79800599341
 30
0.0
 10
5147.005133973025
 20
2482.807822162245
 30
0.0
 10
5147.01367149771
 20
2482.817593794483
 30
0.0
 10
5147.020591262447
 20
2482.826999202887
 30
0.0
 10
5147.02620912226
 20
2482.835773065595
 30
0.0
 10
5147.029421389744
 20
2482.841927978139
 30
0.0
 10
5147.031028828235
 20
2482.845007934395
 30
0.0
  0
SPLINE
  5
18DF
330
1F
100
AcDbEntity
  8
SANINDUSA
100
AcDbSpline
210
0.0
220
0.0
230
1.0
 70
     8
 71
     3
 72
    14
 73
    10
 74
     0
 42
0.0000000001
 43
0.0000000001
 40
0.0
 40
0.0
 40
0.0
 40
0.0
 40
0.25
 40
0.25
 40
0.5
 40
0.5
 40
0.75
 40
0.75
 40
1.0
 40
1.0
 40
1.0
 40
1.0
 10
5146.931584034116
 20
2482.76452848526
 30
0.0
 10
5146.929961578378
 20
2482.763946713687
 30
0.0
 10
5146.928355001006
 20
2482.763129941751
 30
0.0
 10
5146.925370023268
 20
2482.761039668764
 30
0.0
 10
5146.923994164037
 20
2482.759766339411
 30
0.0
 10
5146.921649483107
 20
2482.756884985668
 30
0.0
 10
5146.920682360765
 20
2482.755279049605
 30
0.0
 10
5146.919242384312
 20
2482.75193154291
 30
0.0
 10
5146.91876918185
 20
2482.750192495275
 30
0.0
 10
5146.918529302131
 20
2482.748485662388
 30
0.0
  0
LINE
  5
18E0
330
1F
100
AcDbEntity
  8
SANINDUSA
100
AcDbLine
 10
5146.91852929315
 20
2482.748485655311
 30
0.0
 11
5146.917784324497
 21
2482.743184909943
 31
0.0
  0
SPLINE
  5
18E1
330
1F
100
AcDbEntity
  8
SANINDUSA
100
AcDbSpline
210
0.0
220
0.0
230
1.0
 70
     8
 71
     3
 72
     8
 73
     4
 74
     0
 42
0.0000000001
 43
0.0000000001
 40
0.0
 40
0.0
 40
0.0
 40
0.0
 40
1.0
 40
1.0
 40
1.0
 40
1.0
 10
5147.035391541443
 20
2482.886689114917
 30
0.0
 10
5147.03597640015
 20
2482.889975530044
 30
0.0
 10
5147.036444245259
 20
2482.89328492445
 30
0.0
 10
5147.040200671764
 20
2482.930391245309
 30
0.0
  0
LINE
  5
18E4
330
1F
100
AcDbEntity
  8
SANINDUSA
100
AcDbLine
 10
5147.040390154929
 20
2482.932108758736
 30
0.0
 11
5147.050503394217
 21
2482.932108758736
 31
0.0
  0
LINE
  5
18E6
330
1F
100
AcDbEntity
  8
SANINDUSA
100
AcDbLine
 10
5146.991307428688
 20
2482.530491248492
 30
0.0
 11
5146.961307427496
 21
2482.530491248492
 31
0.0
  0
LINE
  5
18E7
330
1F
100
AcDbEntity
  8
SANINDUSA
100
AcDbLine
 10
5146.954229197116
 20
2482.73318491948
 30
0.0
 11
5146.961307427496
 21
2482.530491248492
 31
0.0
  0
LINE
  5
18E8
330
1F
100
AcDbEntity
  8
SANINDUSA
100
AcDbLine
 10
5146.954229197116
 20
2482.73318491948
 30
0.0
 11
5146.916378936381
 21
2482.73318491948
 31
0.0
  0
LINE
  5
18E9
330
1F
100
AcDbEntity
  8
SANINDUSA
100
AcDbLine
 10
5146.916378936381
 20
2482.73318491948
 30
0.0
 11
5146.899483582586
 21
2482.612968311432
 31
0.0
  0
ARC
  5
18EA
330
1F
100
AcDbEntity
  8
SANINDUSA
100
AcDbCircle
 10
5146.810359453977
 20
2482.625493888049
 30
0.0
 40
0.09
100
AcDbArc
 50
269.680498257202
 51
351.9999999871818
  0
LINE
  5
18EB
330
1F
100
AcDbEntity
  8
SANINDUSA
100
AcDbLine
 10
5146.809610703543
 20
2482.535496781283
 30
0.0
 11
5146.80985758438
 21
2482.535495287355
 31
0.0
  0
ARC
  5
18EC
330
1F
100
AcDbEntity
  8
SANINDUSA
100
AcDbCircle
 10
5146.81019803189
 20
2482.625494864848
 30
0.0
 40
0.09
100
AcDbArc
 50
189.9999999966986
 51
269.6260924824512
  0
LINE
  5
18ED
330
1F
100
AcDbEntity
  8
SANINDUSA
100
AcDbLine
 10
5146.721565327258
 20
2482.609866515521
 30
0.0
 11
5146.71448803565
 21
2482.650003925684
 31
0.0
  0
ARC
  5
18EE
330
1F
100
AcDbEntity
  8
SANINDUSA
100
AcDbCircle
 10
5146.70463995241
 20
2482.648267433609
 30
0.0
 40
0.0099999999999999
100
AcDbArc
 50
9.999999996698591
 51
88.00000002228562
  0
LINE
  5
18EF
330
1F
100
AcDbEntity
  8
SANINDUSA
100
AcDbLine
 10
5146.70498894772
 20
2482.658261344556
 30
0.0
 11
5146.640958434552
 21
2482.660497323397
 31
0.0
  0
LINE
  5
18F0
330
1F
100
AcDbEntity
  8
SANINDUSA
100
AcDbLine
 10
5146.641307427199
 20
2482.670491234187
 30
0.0
 11
5146.640958434552
 21
2482.660497323397
 31
0.0
  0
LINE
  5
18F1
330
1F
100
AcDbEntity
  8
SANINDUSA
100
AcDbLine
 10
5146.705337947817
 20
2482.668255255345
 30
0.0
 11
5146.641307427199
 21
2482.670491234187
 31
0.0
  0
ARC
  5
18F2
330
1F
100
AcDbEntity
  8
SANINDUSA
100
AcDbCircle
 10
5146.70463995241
 20
2482.648267433609
 30
0.0
 40
0.02
100
AcDbArc
 50
9.999999996698591
 51
88.00000002228562
  0
LINE
  5
18F3
330
1F
100
AcDbEntity
  8
SANINDUSA
100
AcDbLine
 10
5146.731413415285
 20
2482.611603007439
 30
0.0
 11
5146.724336108775
 21
2482.651740387801
 31
0.0
  0
ARC
  5
18F4
330
1F
100
AcDbEntity
  8
SANINDUSA
100
AcDbCircle
 10
5146.81019803189
 20
2482.625494864848
 30
0.0
 40
0.0800000000000001
100
AcDbArc
 50
189.9999999966986
 51
269.6260924824512
  0
LINE
  5
18F5
330
1F
100
AcDbEntity
  8
SANINDUSA
100
AcDbLine
 10
5146.809675962248
 20
2482.545496568345
 30
0.0
 11
5146.809913347669
 21
2482.545495131876
 31
0.0
  0
ARC
  5
18F6
330
1F
100
AcDbEntity
  8
SANINDUSA
100
AcDbCircle
 10
5146.810359453977
 20
2482.625493888049
 30
0.0
 40
0.0800000000000001
100
AcDbArc
 50
269.680498257202
 51
351.9999999871818
  0
LINE
  5
18F7
330
1F
100
AcDbEntity
  8
SANINDUSA
100
AcDbLine
 10
5146.908469459624
 20
2482.748759032014
 30
0.0
 11
5146.889580896706
 21
2482.614360050086
 31
0.0
  0
ARC
  5
18F8
330
1F
100
AcDbEntity
  8
SANINDUSA
100
AcDbCircle
 10
5146.938177487886
 20
2482.744583837725
 30
0.0
 40
0.0300000000000003
100
AcDbArc
 50
109.6565356429129
 51
171.9999999871817
  0
LINE
  5
190E
330
1F
100
AcDbEntity
  8
SANINDUSA
100
AcDbLine
 10
5146.552581562311
 20
2482.545491234187
 30
0.0
 11
5146.536307429546
 21
2482.545491234187
 31
0.0
  0
LINE
  5
190F
330
1F
100
AcDbEntity
  8
SANINDUSA
100
AcDbLine
 10
5146.52630742977
 20
2482.535491243723
 30
0.0
 11
5146.52630742977
 21
2482.581372872714
 31
0.0
  0
SPLINE
  5
1910
330
1F
100
AcDbEntity
  8
SANINDUSA
100
AcDbSpline
210
0.0
220
0.0
230
1.0
 70
    24
 71
     3
 72
     8
 73
     4
 74
     0
 42
0.0000000001
 43
0.0000000001
 40
0.054476771299217
 40
0.054476771299217
 40
0.054476771299217
 40
0.054476771299217
 40
0.4405802703079111
 40
0.4405802703079111
 40
0.4405802703079111
 40
0.4405802703079111
 10
5146.561744873198
 20
2482.535491244915
 30
0.0
 10
5146.549932392093
 20
2482.535491244915
 30
0.0
 10
5146.538119910987
 20
2482.535491244915
 30
0.0
 10
5146.526307429881
 20
2482.535491244915
 30
0.0
  0
LINE
  5
1911
330
1F
100
AcDbEntity
  8
SANINDUSA
100
AcDbLine
 10
5146.555279354216
 20
2482.576327130917
 30
0.0
 11
5146.536307429546
 21
2482.572981879834
 31
0.0
  0
LINE
  5
1912
330
1F
100
AcDbEntity
  8
SANINDUSA
100
AcDbLine
 10
5146.552581562311
 20
2482.545491234187
 30
0.0
 11
5146.555279354216
 21
2482.576327130917
 31
0.0
  0
LINE
  5
1913
330
1F
100
AcDbEntity
  8
SANINDUSA
100
AcDbLine
 10
5146.536307429546
 20
2482.545491234187
 30
0.0
 11
5146.536307429546
 21
2482.572981879834
 31
0.0
  0
LINE
  5
1914
330
1F
100
AcDbEntity
  8
SANINDUSA
100
AcDbLine
 10
5146.561744874926
 20
2482.535491243723
 30
0.0
 11
5146.566377135576
 21
2482.588438258293
 31
0.0
  0
LINE
  5
1915
330
1F
100
AcDbEntity
  8
SANINDUSA
100
AcDbLine
 10
5146.566377135576
 20
2482.588438258293
 30
0.0
 11
5146.52630742977
 21
2482.581372872714
 31
0.0
  0
SPLINE
  5
1918
330
1F
100
AcDbEntity
  8
SANINDUSA
100
AcDbSpline
210
0.0
220
0.0
230
1.0
 70
     8
 71
     3
 72
    32
 73
    28
 74
     0
 42
0.0000000001
 43
0.0000000001
 40
0.0
 40
0.0
 40
0.0
 40
0.0
 40
0.1250000000000001
 40
0.1250000000000001
 40
0.1875000000000002
 40
0.1875000000000002
 40
0.2187500000000003
 40
0.2187500000000003
 40
0.2500000000000005
 40
0.2500000000000005
 40
0.3750000000000007
 40
0.3750000000000007
 40
0.4062500000000008
 40
0.4062500000000008
 40
0.437500000000001
 40
0.437500000000001
 40
0.5000000000000015
 40
0.5000000000000015
 40
0.625000000000002
 40
0.625000000000002
 40
0.656250000000002
 40
0.656250000000002
 40
0.6875000000000022
 40
0.6875000000000022
 40
0.750000000000002
 40
0.750000000000002
 40
0.7740543526641892
 40
0.7740543526641892
 40
0.7740543526641892
 40
0.7740543526641892
 10
5146.561625424904
 20
2482.534125944669
 30
0.0
 10
5146.561611235135
 20
2482.533963754851
 30
0.0
 10
5146.561932675233
 20
2482.533789506947
 30
0.0
 10
5146.562899228028
 20
2482.533511451239
 30
0.0
 10
5146.563302763352
 20
2482.533415986924
 30
0.0
 10
5146.564033308259
 20
2482.533268825352
 30
0.0
 10
5146.564298526621
 20
2482.533218975044
 30
0.0
 10
5146.564867749475
 20
2482.533118697797
 30
0.0
 10
5146.565171167663
 20
2482.533068354331
 30
0.0
 10
5146.566780525709
 20
2482.532815830673
 30
0.0
 10
5146.568360516845
 20
2482.532611164585
 30
0.0
 10
5146.570701258537
 20
2482.532356083563
 30
0.0
 10
5146.571187866372
 20
2482.532305109569
 30
0.0
 10
5146.57219871341
 20
2482.532203369551
 30
0.0
 10
5146.572724208292
 20
2482.532152494933
 30
0.0
 10
5146.574340584603
 20
2482.532002021431
 30
0.0
 10
5146.575475359935
 20
2482.531904119099
 30
0.0
 10
5146.579046747516
 20
2482.531619006376
 30
0.0
 10
5146.58164873081
 20
2482.531440271282
 30
0.0
 10
5146.585188084506
 20
2482.531236962994
 30
0.0
 10
5146.585908929814
 20
2482.531197414617
 30
0.0
 10
5146.587363321968
 20
2482.531121355731
 30
0.0
 10
5146.588098701656
 20
2482.531084738338
 30
0.0
 10
5146.590329008105
 20
2482.530979236706
 30
0.0
 10
5146.591848043372
 20
2482.530914695904
 30
0.0
 10
5146.593995859178
 20
2482.530833874685
 30
0.0
 10
5146.59459748146
 20
2482.530812328899
 30
0.0
 10
5146.59520386422
 20
2482.530791727507
 30
0.0
  0
SPLINE
  5
1919
330
1F
100
AcDbEntity
  8
SANINDUSA
100
AcDbSpline
210
0.0
220
0.0
230
1.0
 70
    24
 71
     3
 72
    10
 73
     6
 74
     0
 42
0.0000000001
 43
0.0000000001
 40
0.0
 40
0.0
 40
0.0
 40
0.0
 40
0.5
 40
0.5
 40
1.0
 40
1.0
 40
1.0
 40
1.0
 10
5146.521307429881
 20
2482.530491244915
 30
0.0
 10
5146.522963774938
 20
2482.532147593193
 30
0.0
 10
5146.524216287193
 20
2482.533400104862
 30
0.0
 10
5146.525888991787
 20
2482.535072807835
 30
0.0
 10
5146.526307429881
 20
2482.535491244915
 30
0.0
 10
5146.526307429881
 20
2482.535491244915
 30
0.0
  0
SPLINE
  5
191A
330
1F
100
AcDbEntity
  8
SANINDUSA
100
AcDbSpline
210
0.0
220
0.0
230
1.0
 70
    24
 71
     3
 72
     8
 73
     4
 74
     0
 42
0.0000000001
 43
0.0000000001
 40
0.0
 40
0.0
 40
0.0
 40
0.0
 40
1.0
 40
1.0
 40
1.0
 40
1.0
 10
5146.561625424904
 20
2482.534125944669
 30
0.0
 10
5146.561705138606
 20
2482.535037076449
 30
0.0
 10
5146.561744873198
 20
2482.535491244915
 30
0.0
 10
5146.561744873198
 20
2482.535491244915
 30
0.0
  0
LINE
  5
191F
330
1F
100
AcDbEntity
  8
SANINDUSA
100
AcDbLine
 10
5146.521307429881
 20
2482.884262771133
 30
0.0
 11
5146.521307429881
 21
2482.920391245532
 31
0.0
  0
LINE
  5
1921
330
1F
100
AcDbEntity
  8
SANINDUSA
100
AcDbLine
 10
5146.521307429881
 20
2482.932108758736
 30
0.0
 11
5146.521307429881
 21
2482.920391245532
 31
0.0
  0
SPLINE
  5
1925
330
1F
100
AcDbEntity
  8
SANINDUSA
100
AcDbSpline
210
0.0
220
0.0
230
1.0
 70
     8
 71
     3
 72
    34
 73
    30
 74
     0
 42
0.0000000001
 43
0.0000000001
 40
0.0
 40
0.0
 40
0.0
 40
0.0
 40
0.1250000000000008
 40
0.1250000000000008
 40
0.1875000000000013
 40
0.1875000000000013
 40
0.2187500000000015
 40
0.2187500000000015
 40
0.2500000000000017
 40
0.2500000000000017
 40
0.3750000000000031
 40
0.3750000000000031
 40
0.4062500000000032
 40
0.4062500000000032
 40
0.4375000000000034
 40
0.4375000000000034
 40
0.5000000000000023
 40
0.5000000000000023
 40
0.6250000000000019
 40
0.6250000000000019
 40
0.7500000000000014
 40
0.7500000000000014
 40
0.812500000000001
 40
0.812500000000001
 40
0.8437500000000019
 40
0.8437500000000019
 40
0.8750000000000028
 40
0.8750000000000028
 40
1.0
 40
1.0
 40
1.0
 40
1.0
 10
5146.524942262028
 20
2482.581132163893
 30
0.0
 10
5146.524779475047
 20
2482.581103460156
 30
0.0
 10
5146.524604475017
 20
2482.581413331388
 30
0.0
 10
5146.524325046419
 20
2482.58236890236
 30
0.0
 10
5146.52422908369
 20
2482.582769844866
 30
0.0
 10
5146.524081111959
 20
2482.583498454709
 30
0.0
 10
5146.524030969144
 20
2482.583763433358
 30
0.0
 10
5146.523930257951
 20
2482.584331896398
 30
0.0
 10
5146.523879696661
 20
2482.584635204127
 30
0.0
 10
5146.523626083899
 20
2482.586245392786
 30
0.0
 10
5146.52342054493
 20
2482.587830421861
 30
0.0
 10
5146.523164452729
 20
2482.590183972295
 30
0.0
 10
5146.523113280611
 20
2482.590673470921
 30
0.0
 10
5146.523011155188
 20
2482.591690799752
 30
0.0
 10
5146.522960194932
 20
2482.592218864626
 30
0.0
 10
5146.522809609914
 20
2482.593842244486
 30
0.0
 10
5146.52271167326
 20
2482.594982470596
 30
0.0
 10
5146.522426590805
 20
2482.598572561431
 30
0.0
 10
5146.522247995264
 20
2482.601191163726
 30
0.0
 10
5146.521923637336
 20
2482.606889833224
 30
0.0
 10
5146.521783399528
 20
2482.609873895155
 30
0.0
 10
5146.521609889211
 20
2482.614542617708
 30
0.0
 10
5146.52155821846
 20
2482.616131210851
 30
0.0
 10
5146.521490713418
 20
2482.61856362713
 30
0.0
 10
5146.521469837917
 20
2482.619384748228
 30
0.0
 10
5146.521431882121
 20
2482.621029895286
 30
0.0
 10
5146.521414773306
 20
2482.621854560607
 30
0.0
 10
5146.521338586656
 20
2482.62598817403
 30
0.0
 10
5146.521307429881
 20
2482.629327684204
 30
0.0
 10
5146.521307429881
 20
2482.632700051635
 30
0.0
  0
SPLINE
  5
1926
330
1F
100
AcDbEntity
  8
SANINDUSA
100
AcDbSpline
210
0.0
220
0.0
230
1.0
 70
    24
 71
     3
 72
     8
 73
     4
 74
     0
 42
0.0000000001
 43
0.0000000001
 40
-0.0000000000000017
 40
-0.0000000000000017
 40
-0.0000000000000017
 40
-0.0000000000000017
 40
0.9999999999999998
 40
0.9999999999999998
 40
0.9999999999999998
 40
0.9999999999999998
 10
5146.521307429881
 20
2482.530491244915
 30
0.0
 10
5146.521307429881
 20
2482.564560847155
 30
0.0
 10
5146.521307429881
 20
2482.598630449395
 30
0.0
 10
5146.521307429881
 20
2482.632700051635
 30
0.0
  0
SPLINE
  5
1927
330
1F
100
AcDbEntity
  8
SANINDUSA
100
AcDbSpline
210
0.0
220
0.0
230
1.0
 70
    24
 71
     3
 72
     8
 73
     4
 74
     0
 42
0.0000000001
 43
0.0000000001
 40
0.0
 40
0.0
 40
0.0
 40
0.0
 40
1.0
 40
1.0
 40
1.0
 40
1.0
 10
5146.524942262028
 20
2482.581132163893
 30
0.0
 10
5146.525853221861
 20
2482.58129279069
 30
0.0
 10
5146.526307429881
 20
2482.581372879819
 30
0.0
 10
5146.526307429881
 20
2482.581372879819
 30
0.0
  0
LINE
  5
1942
330
1F
100
AcDbEntity
  8
SANINDUSA
100
AcDbLine
 10
5146.961286089034
 20
2482.530491248492
 30
0.0
 11
5146.922703406424
 21
2482.530491248492
 31
0.0
  0
LINE
  5
194C
330
1F
100
AcDbEntity
  8
SANINDUSA
100
AcDbLine
 10
5146.521307429881
 20
2482.851113044444
 30
0.0
 11
5146.521307429881
 21
2482.884262771133
 31
0.0
  0
LINE
  5
194D
330
1F
100
AcDbEntity
  8
SANINDUSA
100
AcDbLine
 10
5146.521307429881
 20
2482.632700041655
 30
0.0
 11
5146.521307429881
 21
2482.791119144085
 31
0.0
  0
LINE
  5
194F
330
1F
100
AcDbEntity
  8
SANINDUSA
100
AcDbLine
 10
5146.745983770699
 20
2482.530491248492
 30
0.0
 11
5146.693974441499
 21
2482.530491248492
 31
0.0
  0
LINE
  5
1950
330
1F
100
AcDbEntity
  8
SANINDUSA
100
AcDbLine
 10
5146.862709513516
 20
2482.530491248492
 30
0.0
 11
5146.80597769341
 21
2482.530491248492
 31
0.0
  0
LINE
  5
1953
330
1F
100
AcDbEntity
  8
SANINDUSA
100
AcDbLine
 10
5146.922703406424
 20
2482.530491248492
 30
0.0
 11
5146.917880943627
 21
2482.530491248492
 31
0.0
  0
LINE
  5
1955
330
1F
100
AcDbEntity
  8
SANINDUSA
100
AcDbLine
 10
5146.867880961508
 20
2482.530491248492
 30
0.0
 11
5146.862709513516
 21
2482.530491248492
 31
0.0
  0
LINE
  5
1957
330
1F
100
AcDbEntity
  8
SANINDUSA
100
AcDbLine
 10
5146.80597769341
 20
2482.530491248492
 30
0.0
 11
5146.801155230612
 21
2482.530491248492
 31
0.0
  0
LINE
  5
1959
330
1F
100
AcDbEntity
  8
SANINDUSA
100
AcDbLine
 10
5146.521307429881
 20
2482.846290700856
 30
0.0
 11
5146.521307429881
 21
2482.851113044444
 31
0.0
  0
LINE
  5
195A
330
1F
100
AcDbEntity
  8
SANINDUSA
100
AcDbLine
 10
5146.917880943627
 20
2482.530491248492
 30
0.0
 11
5146.867880961508
 21
2482.530491248492
 31
0.0
  0
LINE
  5
195C
330
1F
100
AcDbEntity
  8
SANINDUSA
100
AcDbLine
 10
5146.751155218692
 20
2482.530491248492
 30
0.0
 11
5146.745983770699
 21
2482.530491248492
 31
0.0
  0
LINE
  5
195E
330
1F
100
AcDbEntity
  8
SANINDUSA
100
AcDbLine
 10
5146.521307429881
 20
2482.796290696386
 30
0.0
 11
5146.521307429881
 21
2482.791119144085
 31
0.0
  0
LINE
  5
1960
330
1F
100
AcDbEntity
  8
SANINDUSA
100
AcDbLine
 10
5146.693974441499
 20
2482.530491248492
 30
0.0
 11
5146.689151993603
 21
2482.530491248492
 31
0.0
  0
LINE
  5
1961
330
1F
100
AcDbEntity
  8
SANINDUSA
100
AcDbLine
 10
5146.801155230612
 20
2482.530491248492
 30
0.0
 11
5146.751155218692
 21
2482.530491248492
 31
0.0
  0
LINE
  5
1962
330
1F
100
AcDbEntity
  8
SANINDUSA
100
AcDbLine
 10
5146.521307429881
 20
2482.796290696386
 30
0.0
 11
5146.521307429881
 21
2482.846290700856
 31
0.0
  0
LINE
  5
1965
330
1F
100
AcDbEntity
  8
SANINDUSA
100
AcDbLine
 10
5146.689151993603
 20
2482.530491248492
 30
0.0
 11
5146.68520386422
 21
2482.530491248492
 31
0.0
  0
ARC
  5
1983
330
1F
100
AcDbEntity
  8
SANINDUSA
100
AcDbCircle
 10
5145.559985238514
 20
2482.932491244915
 30
0.0
 40
0.0080000000000001
100
AcDbArc
 50
357.2596005037689
 51
90.0
  0
SPLINE
  5
1985
330
1F
100
AcDbEntity
  8
SANINDUSA
100
AcDbSpline
210
0.0
220
0.0
230
1.0
 70
     8
 71
     3
 72
    18
 73
    14
 74
     0
 42
0.0000000001
 43
0.0000000001
 40
0.0
 40
0.0
 40
0.0
 40
0.0
 40
0.25
 40
0.25
 40
0.5
 40
0.5
 40
0.625
 40
0.625
 40
0.75
 40
0.75
 40
0.875
 40
0.875
 40
1.0
 40
1.0
 40
1.0
 40
1.0
 10
5145.528692995757
 20
2482.532676265555
 30
0.0
 10
5145.532227275926
 20
2482.556521210776
 30
0.0
 10
5145.535551638753
 20
2482.580395691153
 30
0.0
 10
5145.541778138798
 20
2482.628200072292
 30
0.0
 10
5145.54468041695
 20
2482.652131358483
 30
0.0
 10
5145.548715134413
 20
2482.688061404025
 30
0.0
 10
5145.550006979062
 20
2482.700043973219
 30
0.0
 10
5145.552484460535
 20
2482.724020885524
 30
0.0
 10
5145.553670116314
 20
2482.736015449828
 30
0.0
 10
5145.555934837511
 20
2482.760012852728
 30
0.0
 10
5145.557013956398
 20
2482.772016063425
 30
0.0
 10
5145.559065541887
 20
2482.796031604475
 30
0.0
 10
5145.560037996932
 20
2482.808043945108
 30
0.0
 10
5145.560956949958
 20
2482.820061156141
 30
0.0
  0
SPLINE
  5
198E
330
1F
100
AcDbEntity
  8
SANINDUSA
100
AcDbSpline
210
0.0
220
0.0
230
1.0
 70
     8
 71
     3
 72
     9
 73
     5
 74
     0
 42
0.0000000001
 43
0.0000000001
 40
0.0
 40
0.0
 40
0.0
 40
0.0
 40
0.2204704641452372
 40
1.0
 40
1.0
 40
1.0
 40
1.0
 10
5145.560956949958
 20
2482.820061156141
 30
0.0
 10
5145.563933789926
 20
2482.861810139593
 30
0.0
 10
5145.565747418018
 20
2482.887079163124
 30
0.0
 10
5145.566999814114
 20
2482.912383376796
 30
0.0
 10
5145.567976093861
 20
2482.932108758736
 30
0.0
  0
ARC
  5
19EA
330
1F
100
AcDbEntity
  8
SANINDUSA
100
AcDbCircle
 10
5146.856682445076
 20
2482.888679066416
 30
0.0
 40
0.1800207373655799
100
AcDbArc
 50
194.702016779318
 51
227.0808708008508
  0
ARC
  5
19EB
330
1F
100
AcDbEntity
  8
SANINDUSA
100
AcDbCircle
 10
5146.500253106167
 20
2482.54598617216
 30
0.0
 40
0.3149999999999502
100
AcDbArc
 50
10.88960769434611
 51
41.51148836332558
  0
ARC
  5
19F2
330
1F
100
AcDbEntity
  8
SANINDUSA
100
AcDbCircle
 10
5146.892512311997
 20
2482.9138571829
 30
0.0
 40
0.1454392483716981
100
AcDbArc
 50
284.1579164190484
 51
349.233899434493
  0
ARC
  5
1A28
330
1F
100
AcDbEntity
  8
SANINDUSA
100
AcDbCircle
 10
5144.794133305062
 20
2489.890071714393
 30
0.0
 40
7.412641378037596
100
AcDbArc
 50
269.2549065694497
 51
270.7396418282967
  0
LINE
  5
2255
330
1F
100
AcDbEntity
  8
SANINDUSA
100
AcDbLine
 10
5147.046856394431
 20
2482.895724268628
 30
0.0
 11
5147.050503394217
 21
2482.932108758736
 31
0.0
  0
LINE
  5
225D
330
1F
100
AcDbEntity
  8
SANINDUSA
100
AcDbLine
 10
5147.03384180984
 20
2482.886824697974
 30
0.0
 11
5147.038457355113
 21
2482.932108758736
 31
0.0
  0
LINE
  5
225E
330
1F
100
AcDbEntity
  8
SANINDUSA
100
AcDbLine
 10
5147.024936756701
 20
2482.897641987327
 30
0.0
 11
5147.028245172114
 21
2482.930391245309
 31
0.0
  0
LINE
  5
2389
330
1F
100
AcDbEntity
  8
SANINDUSA
100
AcDbLine
 10
5146.640958434552
 20
2482.760489839686
 30
0.0
 11
5146.640958434552
 21
2482.6604926418
 31
0.0
  0
LINE
  5
238A
330
1F
100
AcDbEntity
  8
SANINDUSA
100
AcDbLine
 10
5146.597203864221
 20
2482.560238576561
 30
0.0
 11
5146.597203864221
 21
2482.471991240743
 31
0.0
  0
LINE
  5
238B
330
1F
100
AcDbEntity
  8
SANINDUSA
100
AcDbLine
 10
5146.68320386422
 20
2482.471991240743
 30
0.0
 11
5146.68320386422
 21
2482.583412289524
 31
0.0
  0
LINE
  5
238C
330
1F
100
AcDbEntity
  8
SANINDUSA
100
AcDbLine
 10
5146.68520386422
 20
2482.475723291551
 30
0.0
 11
5146.68520386422
 21
2482.583412292474
 31
0.0
  0
LINE
  5
238D
330
1F
100
AcDbEntity
  8
SANINDUSA
100
AcDbLine
 10
5146.597203864221
 20
2482.471991240743
 30
0.0
 11
5146.68320386422
 21
2482.471991240743
 31
0.0
  0
LINE
  5
238E
330
1F
100
AcDbEntity
  8
SANINDUSA
100
AcDbLine
 10
5146.59520386422
 20
2482.475723291551
 30
0.0
 11
5146.59620386422
 21
2482.471991240743
 31
0.0
  0
LINE
  5
238F
330
1F
100
AcDbEntity
  8
SANINDUSA
100
AcDbLine
 10
5146.59620386422
 20
2482.471991240743
 30
0.0
 11
5146.597203864221
 21
2482.471991240743
 31
0.0
  0
LINE
  5
2390
330
1F
100
AcDbEntity
  8
SANINDUSA
100
AcDbLine
 10
5146.68320386422
 20
2482.471991240743
 30
0.0
 11
5146.68420386422
 21
2482.471991240743
 31
0.0
  0
LINE
  5
2391
330
1F
100
AcDbEntity
  8
SANINDUSA
100
AcDbLine
 10
5146.68420386422
 20
2482.471991240743
 30
0.0
 11
5146.68520386422
 21
2482.475723291551
 31
0.0
  0
ARC
  5
2392
330
1F
100
AcDbEntity
  8
SANINDUSA
100
AcDbCircle
 10
5146.611203864221
 20
2482.701991240743
 30
0.0
 40
0.056
100
AcDbArc
 50
100.2865606062312
 51
180.0
  0
ARC
  5
2393
330
1F
100
AcDbEntity
  8
SANINDUSA
100
AcDbCircle
 10
5146.611203864221
 20
2482.701991240743
 30
0.0
 40
0.0539999999999999
100
AcDbArc
 50
90.0
 51
180.0
  0
LINE
  5
2394
330
1F
100
AcDbEntity
  8
SANINDUSA
100
AcDbLine
 10
5146.557203864221
 20
2482.62626806357
 30
0.0
 11
5146.557203864221
 21
2482.659520662692
 31
0.0
  0
LINE
  5
2395
330
1F
100
AcDbEntity
  8
SANINDUSA
100
AcDbLine
 10
5146.55520386422
 20
2482.62626806357
 30
0.0
 11
5146.55520386422
 21
2482.659520662693
 31
0.0
  0
LINE
  5
2396
330
1F
100
AcDbEntity
  8
SANINDUSA
100
AcDbLine
 10
5146.557203864221
 20
2482.701991240743
 30
0.0
 11
5146.557203864221
 21
2482.659520662692
 31
0.0
  0
LINE
  5
2397
330
1F
100
AcDbEntity
  8
SANINDUSA
100
AcDbLine
 10
5146.55520386422
 20
2482.701991240743
 30
0.0
 11
5146.55520386422
 21
2482.659520662692
 31
0.0
  0
LINE
  5
2399
330
1F
100
AcDbEntity
  8
SANINDUSA
100
AcDbLine
 10
5146.68120386422
 20
2482.644991240743
 30
0.0
 11
5146.68120386422
 21
2482.642991240743
 31
0.0
  0
LINE
  5
239A
330
1F
100
AcDbEntity
  8
SANINDUSA
100
AcDbLine
 10
5146.65120386422
 20
2482.643602702106
 30
0.0
 11
5146.65120386422
 21
2482.644991240743
 31
0.0
  0
LINE
  5
239B
330
1F
100
AcDbEntity
  8
SANINDUSA
100
AcDbLine
 10
5146.64988766297
 20
2482.641368084751
 30
0.0
 11
5146.678416942053
 21
2482.599069610414
 31
0.0
  0
LINE
  5
239C
330
1F
100
AcDbEntity
  8
SANINDUSA
100
AcDbLine
 10
5146.651545789076
 20
2482.642484316299
 30
0.0
 11
5146.680075016284
 21
2482.600187997578
 31
0.0
  0
ARC
  5
239D
330
1F
100
AcDbEntity
  8
SANINDUSA
100
AcDbCircle
 10
5146.65320386422
 20
2482.643602702106
 30
0.0
 40
0.0020000000000001
100
AcDbArc
 50
180.0
 51
213.9999999951693
  0
ARC
  5
239E
330
1F
100
AcDbEntity
  8
SANINDUSA
100
AcDbCircle
 10
5146.655204040095
 20
2482.583412312977
 30
0.0
 40
0.0299998176965208
100
AcDbArc
 50
0.0
 51
33.99999865838566
  0
ARC
  5
239F
330
1F
100
AcDbEntity
  8
SANINDUSA
100
AcDbCircle
 10
5146.655204069482
 20
2482.583412332973
 30
0.0
 40
0.0279997830701829
100
AcDbArc
 50
0.0
 51
33.99999524734699
  0
LINE
  5
23A0
330
1F
100
AcDbEntity
  8
SANINDUSA
100
AcDbLine
 10
5146.68120386422
 20
2482.642991240743
 30
0.0
 11
5146.68520386422
 21
2482.642991240743
 31
0.0
  0
LINE
  5
23A1
330
1F
100
AcDbEntity
  8
SANINDUSA
100
AcDbLine
 10
5146.68520386422
 20
2482.646991240743
 30
0.0
 11
5146.64920386422
 21
2482.646991240743
 31
0.0
  0
LINE
  5
23A2
330
1F
100
AcDbEntity
  8
SANINDUSA
100
AcDbLine
 10
5146.68120386422
 20
2482.644991240743
 30
0.0
 11
5146.65120386422
 21
2482.644991240743
 31
0.0
  0
LINE
  5
23A4
330
1F
100
AcDbEntity
  8
SANINDUSA
100
AcDbLine
 10
5146.642203864221
 20
2482.773991240743
 30
0.0
 11
5146.68520386422
 21
2482.773991240743
 31
0.0
  0
LINE
  5
23A5
330
1F
100
AcDbEntity
  8
SANINDUSA
100
AcDbLine
 10
5146.642203864221
 20
2482.775991240743
 30
0.0
 11
5146.68120386422
 21
2482.775991240743
 31
0.0
  0
LINE
  5
23A6
330
1F
100
AcDbEntity
  8
SANINDUSA
100
AcDbLine
 10
5146.64020386422
 20
2482.771991240743
 30
0.0
 11
5146.64020386422
 21
2482.760991240743
 31
0.0
  0
LINE
  5
23A7
330
1F
100
AcDbEntity
  8
SANINDUSA
100
AcDbLine
 10
5146.63820386422
 20
2482.771991240743
 30
0.0
 11
5146.63820386422
 21
2482.760991240743
 31
0.0
  0
LINE
  5
23A8
330
1F
100
AcDbEntity
  8
SANINDUSA
100
AcDbLine
 10
5146.616203864221
 20
2482.774991240743
 30
0.0
 11
5146.616203864221
 21
2482.770991240743
 31
0.0
  0
LINE
  5
23A9
330
1F
100
AcDbEntity
  8
SANINDUSA
100
AcDbLine
 10
5146.601203864221
 20
2482.774991240743
 30
0.0
 11
5146.601203864221
 21
2482.770991240743
 31
0.0
  0
LINE
  5
23AA
330
1F
100
AcDbEntity
  8
SANINDUSA
100
AcDbLine
 10
5146.616203864221
 20
2482.757991240743
 30
0.0
 11
5146.63520386422
 21
2482.757991240743
 31
0.0
  0
LINE
  5
23AB
330
1F
100
AcDbEntity
  8
SANINDUSA
100
AcDbLine
 10
5146.611203864221
 20
2482.755991240743
 30
0.0
 11
5146.63520386422
 21
2482.755991240743
 31
0.0
  0
LINE
  5
23AC
330
1F
100
AcDbEntity
  8
SANINDUSA
100
AcDbLine
 10
5146.616203864221
 20
2482.770991240743
 30
0.0
 11
5146.601203864221
 21
2482.770991240743
 31
0.0
  0
LINE
  5
23AE
330
1F
100
AcDbEntity
  8
SANINDUSA
100
AcDbLine
 10
5146.616203864221
 20
2482.762991849962
 30
0.0
 11
5146.601203864221
 21
2482.762991849962
 31
0.0
  0
LINE
  5
23AF
330
1F
100
AcDbEntity
  8
SANINDUSA
100
AcDbLine
 10
5146.601203864221
 20
2482.770880558661
 30
0.0
 11
5146.601203864221
 21
2482.763112816885
 31
0.0
  0
LINE
  5
23B4
330
1F
100
AcDbEntity
  8
SANINDUSA
100
AcDbLine
 10
5146.601203864221
 20
2482.762991240743
 30
0.0
 11
5146.601203864221
 21
2482.757091149998
 31
0.0
  0
LINE
  5
23B5
330
1F
100
AcDbEntity
  8
SANINDUSA
100
AcDbLine
 10
5146.616203864221
 20
2482.770880558661
 30
0.0
 11
5146.616203864221
 21
2482.763112816885
 31
0.0
  0
LINE
  5
23BA
330
1F
100
AcDbEntity
  8
SANINDUSA
100
AcDbLine
 10
5146.616203864221
 20
2482.762991240743
 30
0.0
 11
5146.616203864221
 21
2482.757991240743
 31
0.0
  0
ARC
  5
23BB
330
1F
100
AcDbEntity
  8
SANINDUSA
100
AcDbCircle
 10
5146.63520386422
 20
2482.760991240743
 30
0.0
 40
0.003
100
AcDbArc
 50
270.0
 51
0.0
  0
ARC
  5
23BC
330
1F
100
AcDbEntity
  8
SANINDUSA
100
AcDbCircle
 10
5146.63520386422
 20
2482.760991240743
 30
0.0
 40
0.005
100
AcDbArc
 50
270.0
 51
0.0
  0
LINE
  5
23BD
330
1F
100
AcDbEntity
  8
SANINDUSA
100
AcDbLine
 10
5146.601203864221
 20
2482.774991240743
 30
0.0
 11
5146.616203864221
 21
2482.774991240743
 31
0.0
  0
ARC
  5
23BE
330
1F
100
AcDbEntity
  8
SANINDUSA
100
AcDbCircle
 10
5146.642203864221
 20
2482.771991240743
 30
0.0
 40
0.002
100
AcDbArc
 50
90.0
 51
180.0
  0
ARC
  5
23BF
330
1F
100
AcDbEntity
  8
SANINDUSA
100
AcDbCircle
 10
5146.642203864221
 20
2482.771991240743
 30
0.0
 40
0.0040000000000001
100
AcDbArc
 50
90.0
 51
180.0
  0
LINE
  5
23C0
330
1F
100
AcDbEntity
  8
SANINDUSA
100
AcDbLine
 10
5146.68520386422
 20
2482.777991240743
 30
0.0
 11
5146.68120386422
 21
2482.777991240743
 31
0.0
  0
LINE
  5
23C1
330
1F
100
AcDbEntity
  8
SANINDUSA
100
AcDbLine
 10
5146.68120386422
 20
2482.777991240743
 30
0.0
 11
5146.68120386422
 21
2482.775991240743
 31
0.0
  0
LINE
  5
23C4
330
1F
100
AcDbEntity
  8
SANINDUSA
100
AcDbLine
 10
5146.64920386422
 20
2482.646965739602
 30
0.0
 11
5146.64920386422
 21
2482.643604780813
 31
0.0
  0
ARC
  5
23C5
330
1F
100
AcDbEntity
  8
SANINDUSA
100
AcDbCircle
 10
5146.65320386422
 20
2482.643604780813
 30
0.0
 40
0.004
100
AcDbArc
 50
180.0
 51
213.9986946234155
  0
LINE
  5
23C6
330
1F
100
AcDbEntity
  8
SANINDUSA
100
AcDbLine
 10
5146.59520386422
 20
2482.560238576561
 30
0.0
 11
5146.59520386422
 21
2482.475723291551
 31
0.0
  0
ARC
  5
23C7
330
1F
100
AcDbEntity
  8
SANINDUSA
100
AcDbCircle
 10
5146.57520386422
 20
2482.560238576561
 30
0.0
 40
0.02
100
AcDbArc
 50
0.0
 51
37.28570791495347
  0
LINE
  5
23C8
330
1F
100
AcDbEntity
  8
SANINDUSA
100
AcDbLine
 10
5146.559291371898
 20
2482.614152264459
 30
0.0
 11
5146.591116356542
 21
2482.572354375673
 31
0.0
  0
ARC
  5
23C9
330
1F
100
AcDbEntity
  8
SANINDUSA
100
AcDbCircle
 10
5146.57520386422
 20
2482.62626806357
 30
0.0
 40
0.02
100
AcDbArc
 50
180.0
 51
217.2857079149534
  0
ARC
  5
23CA
330
1F
100
AcDbEntity
  8
SANINDUSA
100
AcDbCircle
 10
5146.57520386422
 20
2482.560238576561
 30
0.0
 40
0.022
100
AcDbArc
 50
0.0
 51
37.28570791495347
  0
LINE
  5
23CB
330
1F
100
AcDbEntity
  8
SANINDUSA
100
AcDbLine
 10
5146.56088262113
 20
2482.615363844369
 30
0.0
 11
5146.592707605774
 21
2482.573565955584
 31
0.0
  0
ARC
  5
23CC
330
1F
100
AcDbEntity
  8
SANINDUSA
100
AcDbCircle
 10
5146.57520386422
 20
2482.62626806357
 30
0.0
 40
0.018
100
AcDbArc
 50
180.0
 51
217.2857079149534
  0
LINE
  5
23CD
330
1F
100
AcDbEntity
  8
SANINDUSA
100
AcDbLine
 10
5146.665203864221
 20
2482.640491240743
 30
0.0
 11
5146.685249307031
 21
2482.640946818989
 31
0.0
  0
LINE
  5
23CE
330
1F
100
AcDbEntity
  8
SANINDUSA
100
AcDbLine
 10
5146.685249307031
 20
2482.780035662497
 30
0.0
 11
5146.665203864221
 21
2482.780491240743
 31
0.0
  0
LINE
  5
23CF
330
1F
100
AcDbEntity
  8
SANINDUSA
100
AcDbLine
 10
5146.665203864221
 20
2482.644991240743
 30
0.0
 11
5146.665203864221
 21
2482.640491240743
 31
0.0
  0
LINE
  5
23D0
330
1F
100
AcDbEntity
  8
SANINDUSA
100
AcDbLine
 10
5146.665203864221
 20
2482.780491240743
 30
0.0
 11
5146.665203864221
 21
2482.775991240743
 31
0.0
  0
LINE
  5
23D1
330
1F
100
AcDbEntity
  8
SANINDUSA
100
AcDbLine
 10
5146.687203864221
 20
2482.768991240743
 30
0.0
 11
5146.687203864221
 21
2482.762306091201
 31
0.0
  0
LINE
  5
23D2
330
1F
100
AcDbEntity
  8
SANINDUSA
100
AcDbLine
 10
5146.687203864221
 20
2482.658676390285
 30
0.0
 11
5146.687203864221
 21
2482.651991240743
 31
0.0
  0
LINE
  5
23D3
330
1F
100
AcDbEntity
  8
SANINDUSA
100
AcDbLine
 10
5146.687203864221
 20
2482.64294630266
 30
0.0
 11
5146.687203864221
 21
2482.651991240743
 31
0.0
  0
LINE
  5
23D4
330
1F
100
AcDbEntity
  8
SANINDUSA
100
AcDbLine
 10
5146.68520386422
 20
2482.650991240743
 30
0.0
 11
5146.68520386422
 21
2482.64294630266
 31
0.0
  0
LINE
  5
23D5
330
1F
100
AcDbEntity
  8
SANINDUSA
100
AcDbLine
 10
5146.68520386422
 20
2482.64294630266
 30
0.0
 11
5146.680226585626
 21
2482.642833182691
 31
0.0
  0
LINE
  5
23D6
330
1F
100
AcDbEntity
  8
SANINDUSA
100
AcDbLine
 10
5146.66720386422
 20
2482.643560197255
 30
0.0
 11
5146.66720386422
 21
2482.644991240743
 31
0.0
  0
LINE
  5
23D7
330
1F
100
AcDbEntity
  8
SANINDUSA
100
AcDbLine
 10
5146.679203864221
 20
2482.643832924527
 30
0.0
 11
5146.679203864221
 21
2482.644991240743
 31
0.0
  0
LINE
  5
23D8
330
1F
100
AcDbEntity
  8
SANINDUSA
100
AcDbLine
 10
5146.677203864221
 20
2482.644991240743
 30
0.0
 11
5146.677203864221
 21
2482.643742015437
 31
0.0
  0
LINE
  5
23D9
330
1F
100
AcDbEntity
  8
SANINDUSA
100
AcDbLine
 10
5146.675203864219
 20
2482.643742015437
 30
0.0
 11
5146.675203864219
 21
2482.644991240743
 31
0.0
  0
LINE
  5
23DA
330
1F
100
AcDbEntity
  8
SANINDUSA
100
AcDbLine
 10
5146.673203864221
 20
2482.644991240743
 30
0.0
 11
5146.673203864221
 21
2482.643651106345
 31
0.0
  0
LINE
  5
23DB
330
1F
100
AcDbEntity
  8
SANINDUSA
100
AcDbLine
 10
5146.67120386422
 20
2482.643651106345
 30
0.0
 11
5146.67120386422
 21
2482.644991240743
 31
0.0
  0
LINE
  5
23DC
330
1F
100
AcDbEntity
  8
SANINDUSA
100
AcDbLine
 10
5146.66920386422
 20
2482.644991240743
 30
0.0
 11
5146.66920386422
 21
2482.643560197255
 31
0.0
  0
LINE
  5
23DD
330
1F
100
AcDbEntity
  8
SANINDUSA
100
AcDbLine
 10
5146.680522025615
 20
2482.658794305084
 30
0.0
 11
5146.68520386422
 21
2482.650991240743
 31
0.0
  0
LINE
  5
23DE
330
1F
100
AcDbEntity
  8
SANINDUSA
100
AcDbLine
 10
5146.687203864221
 20
2482.651991240743
 30
0.0
 11
5146.684209199077
 21
2482.658729237317
 31
0.0
  0
LINE
  5
23DF
330
1F
100
AcDbEntity
  8
SANINDUSA
100
AcDbLine
 10
5146.68520386422
 20
2482.778036178826
 30
0.0
 11
5146.68520386422
 21
2482.769991240743
 31
0.0
  0
LINE
  5
23E0
330
1F
100
AcDbEntity
  8
SANINDUSA
100
AcDbLine
 10
5146.687203864221
 20
2482.768991240743
 30
0.0
 11
5146.687203864221
 21
2482.778036178826
 31
0.0
  0
LINE
  5
23E1
330
1F
100
AcDbEntity
  8
SANINDUSA
100
AcDbLine
 10
5146.68520386422
 20
2482.769991240743
 30
0.0
 11
5146.680522025615
 21
2482.762188176402
 31
0.0
  0
LINE
  5
23E2
330
1F
100
AcDbEntity
  8
SANINDUSA
100
AcDbLine
 10
5146.684209199077
 20
2482.76225324417
 30
0.0
 11
5146.687203864221
 21
2482.768991240743
 31
0.0
  0
LINE
  5
23E3
330
1F
100
AcDbEntity
  8
SANINDUSA
100
AcDbLine
 10
5146.680226585626
 20
2482.778149298794
 30
0.0
 11
5146.68520386422
 21
2482.778036178826
 31
0.0
  0
ARC
  5
23EB
330
1F
100
AcDbEntity
  8
SANINDUSA
100
AcDbCircle
 10
5146.66820386422
 20
2482.643560197255
 30
0.0
 40
0.0010000000000002
100
AcDbArc
 50
180.0
 51
0.0
  0
ARC
  5
23EC
330
1F
100
AcDbEntity
  8
SANINDUSA
100
AcDbCircle
 10
5146.67220386422
 20
2482.643651106345
 30
0.0
 40
0.0010000000000002
100
AcDbArc
 50
180.0
 51
0.0
  0
ARC
  5
23ED
330
1F
100
AcDbEntity
  8
SANINDUSA
100
AcDbCircle
 10
5146.67620386422
 20
2482.643742015437
 30
0.0
 40
0.0010000000000002
100
AcDbArc
 50
180.0
 51
0.0
  0
ARC
  5
23EE
330
1F
100
AcDbEntity
  8
SANINDUSA
100
AcDbCircle
 10
5146.68020386422
 20
2482.643832924527
 30
0.0
 40
0.0010000000000002
100
AcDbArc
 50
180.0
 51
271.3019526524506
  0
ARC
  5
23EF
330
1F
100
AcDbEntity
  8
SANINDUSA
100
AcDbCircle
 10
5146.67620386422
 20
2482.77724046605
 30
0.0
 40
0.0010000000000002
100
AcDbArc
 50
0.0
 51
180.0
  0
ARC
  5
23F0
330
1F
100
AcDbEntity
  8
SANINDUSA
100
AcDbCircle
 10
5146.66820386422
 20
2482.777422284232
 30
0.0
 40
0.0010000000000002
100
AcDbArc
 50
0.0
 51
180.0
  0
LINE
  5
23F1
330
1F
100
AcDbEntity
  8
SANINDUSA
100
AcDbLine
 10
5146.66720386422
 20
2482.777422284232
 30
0.0
 11
5146.66720386422
 21
2482.775991240743
 31
0.0
  0
ARC
  5
23F2
330
1F
100
AcDbEntity
  8
SANINDUSA
100
AcDbCircle
 10
5146.67220386422
 20
2482.777331375141
 30
0.0
 40
0.0010000000000002
100
AcDbArc
 50
0.0
 51
180.0
  0
LINE
  5
23F3
330
1F
100
AcDbEntity
  8
SANINDUSA
100
AcDbLine
 10
5146.66920386422
 20
2482.775991240743
 30
0.0
 11
5146.66920386422
 21
2482.777422284232
 31
0.0
  0
LINE
  5
23F4
330
1F
100
AcDbEntity
  8
SANINDUSA
100
AcDbLine
 10
5146.67120386422
 20
2482.777331375141
 30
0.0
 11
5146.67120386422
 21
2482.775991240743
 31
0.0
  0
LINE
  5
23F5
330
1F
100
AcDbEntity
  8
SANINDUSA
100
AcDbLine
 10
5146.673203864221
 20
2482.775991240743
 30
0.0
 11
5146.673203864221
 21
2482.777331375141
 31
0.0
  0
LINE
  5
23F6
330
1F
100
AcDbEntity
  8
SANINDUSA
100
AcDbLine
 10
5146.675203864219
 20
2482.77724046605
 30
0.0
 11
5146.675203864219
 21
2482.775991240743
 31
0.0
  0
ARC
  5
23F7
330
1F
100
AcDbEntity
  8
SANINDUSA
100
AcDbCircle
 10
5146.68020386422
 20
2482.777149556959
 30
0.0
 40
0.0010000000000002
100
AcDbArc
 50
88.69804734754941
 51
180.0
  0
LINE
  5
23F8
330
1F
100
AcDbEntity
  8
SANINDUSA
100
AcDbLine
 10
5146.677203864221
 20
2482.775991240743
 30
0.0
 11
5146.677203864221
 21
2482.77724046605
 31
0.0
  0
LINE
  5
23F9
330
1F
100
AcDbEntity
  8
SANINDUSA
100
AcDbLine
 10
5146.679203864221
 20
2482.777149556959
 30
0.0
 11
5146.679203864221
 21
2482.775991240743
 31
0.0
  0
ARC
  5
23FA
330
1F
100
AcDbEntity
  8
SANINDUSA
100
AcDbCircle
 10
5146.68520386422
 20
2482.778036178826
 30
0.0
 40
0.002
100
AcDbArc
 50
0.0
 51
88.69804734754941
  0
ARC
  5
23FB
330
1F
100
AcDbEntity
  8
SANINDUSA
100
AcDbCircle
 10
5146.68520386422
 20
2482.64294630266
 30
0.0
 40
0.002
100
AcDbArc
 50
271.3019526524506
 51
0.0
  0
SPLINE
  5
247D
330
1F
100
AcDbEntity
  8
SANINDUSA
100
AcDbSpline
210
0.0
220
0.0
230
1.0
 70
    24
 71
     3
 72
     8
 73
     4
 74
     0
 42
0.0000000001
 43
0.0000000001
 40
0.1948721693398925
 40
0.1948721693398925
 40
0.1948721693398925
 40
0.1948721693398925
 40
1.0
 40
1.0
 40
1.0
 40
1.0
 10
5146.59520386422
 20
2482.530491244915
 30
0.0
 10
5146.57057171944
 20
2482.530491244915
 30
0.0
 10
5146.545939574661
 20
2482.530491244915
 30
0.0
 10
5146.521307429881
 20
2482.530491244915
 30
0.0
  0
ARC
  5
2615
330
1F
100
AcDbEntity
  8
SANINDUSA
100
AcDbCircle
 10
5146.310993397182
 20
2482.932491241339
 30
0.0
 40
0.0080000000000001
100
AcDbArc
 50
357.2704351971818
 51
90.0
  0
SPLINE
  5
2616
330
1F
100
AcDbEntity
  8
SANINDUSA
100
AcDbSpline
210
0.0
220
0.0
230
1.0
 70
    24
 71
     3
 72
    21
 73
    17
 74
     0
 42
0.0000000001
 43
0.0000000001
 40
0.0
 40
0.0
 40
0.0
 40
0.0
 40
0.0633438072404589
 40
0.1266872797640587
 40
0.199446528786835
 40
0.2724372834988497
 40
0.345196512903049
 40
0.4178881948041357
 40
0.4908116740647832
 40
0.5635044513148531
 40
0.6361771439399667
 40
0.709081177674093
 40
0.7817530606718952
 40
0.854425233976752
 40
0.927328633293324
 40
1.0
 40
1.0
 40
1.0
 40
1.0
 10
5146.239192703326
 20
2482.940491241339
 30
0.0
 10
5146.241530938625
 20
2482.940491241339
 30
0.0
 10
5146.246207396865
 20
2482.940491241339
 30
0.0
 10
5146.253492611968
 20
2482.940491241339
 30
0.0
 10
5146.26096514334
 20
2482.940491241339
 30
0.0
 10
5146.268492825292
 20
2482.940491241339
 30
0.0
 10
5146.275647810491
 20
2482.940491241339
 30
0.0
 10
5146.282322158205
 20
2482.940491241339
 30
0.0
 10
5146.288448241701
 20
2482.940491241339
 30
0.0
 10
5146.29395479065
 20
2482.940491241339
 30
0.0
 10
5146.298747617747
 20
2482.940491241339
 30
0.0
 10
5146.302788971437
 20
2482.940491241339
 30
0.0
 10
5146.306035604612
 20
2482.940491241339
 30
0.0
 10
5146.308393750498
 20
2482.940491241339
 30
0.0
 10
5146.309949757671
 20
2482.940491241339
 30
0.0
 10
5146.310228760902
 20
2482.940491241339
 30
0.0
 10
5146.310368040165
 20
2482.940491241339
 30
0.0
  0
SPLINE
  5
2618
330
1F
100
AcDbEntity
  8
SANINDUSA
100
AcDbSpline
210
0.0
220
0.0
230
1.0
 70
    24
 71
     3
 72
    20
 73
    16
 74
     0
 42
0.0000000001
 43
0.0000000001
 40
0.0
 40
0.0
 40
0.0
 40
0.0
 40
0.4999999999999997
 40
0.4999999999999997
 40
0.7499999999999996
 40
0.7499999999999996
 40
0.8749999999999996
 40
0.8749999999999996
 40
0.9374999999999998
 40
0.9687499999999998
 40
0.9843750000000001
 40
0.9921875000000001
 40
0.9960937500000001
 40
0.9960937500000001
 40
1.0
 40
1.0
 40
1.0
 40
1.0
 10
5145.789788284858
 20
2482.940491241339
 30
0.0
 10
5145.864689052
 20
2482.940491241339
 30
0.0
 10
5145.939589792806
 20
2482.940491241339
 30
0.0
 10
5146.051940891281
 20
2482.940491241339
 30
0.0
 10
5146.089391253641
 20
2482.940491241339
 30
0.0
 10
5146.145566797937
 20
2482.940491241339
 30
0.0
 10
5146.164291979494
 20
2482.940491241339
 30
0.0
 10
5146.192379752815
 20
2482.940491241339
 30
0.0
 10
5146.206423639719
 20
2482.940491241339
 30
0.0
 10
5146.222808175042
 20
2482.940491241339
 30
0.0
 10
5146.231000442873
 20
2482.940491241339
 30
0.0
 10
5146.235096576834
 20
2482.940491241339
 30
0.0
 10
5146.236852062827
 20
2482.940491241339
 30
0.0
 10
5146.238022386825
 20
2482.940491241339
 30
0.0
 10
5146.238607551062
 20
2482.940491241339
 30
0.0
 10
5146.239192709121
 20
2482.940491241339
 30
0.0
  0
LINE
  5
2619
330
1F
100
AcDbEntity
  8
SANINDUSA
100
AcDbLine
 10
5145.789788284858
 20
2482.932108755159
 30
0.0
 11
5145.789788284858
 21
2482.940491241339
 31
0.0
  0
SPLINE
  5
261F
330
1F
100
AcDbEntity
  8
SANINDUSA
100
AcDbSpline
210
0.0
220
0.0
230
1.0
 70
     8
 71
     3
 72
    34
 73
    30
 74
     0
 42
0.0000000001
 43
0.0000000001
 40
0.0
 40
0.0
 40
0.0
 40
0.0
 40
0.1249999999999998
 40
0.1249999999999998
 40
0.1875
 40
0.1875
 40
0.2187499999999996
 40
0.2187499999999996
 40
0.2499999999999992
 40
0.2499999999999992
 40
0.3749999999999972
 40
0.3749999999999972
 40
0.4374999999999959
 40
0.4374999999999959
 40
0.4687499999999958
 40
0.4687499999999958
 40
0.4999999999999957
 40
0.4999999999999957
 40
0.6249999999999974
 40
0.6249999999999974
 40
0.6874999999999979
 40
0.6874999999999979
 40
0.7499999999999984
 40
0.7499999999999984
 40
0.8749999999999992
 40
0.8749999999999992
 40
0.9374999999999996
 40
0.9374999999999996
 40
1.0
 40
1.0
 40
1.0
 40
1.0
 10
5145.913446639099
 20
2482.850873008352
 30
0.0
 10
5145.91142173932
 20
2482.85062937046
 30
0.0
 10
5145.909441218428
 20
2482.850229206489
 30
0.0
 10
5145.90653726499
 20
2482.849393204008
 30
0.0
 10
5145.905580475921
 20
2482.849075043112
 30
0.0
 10
5145.904162650836
 20
2482.848536575995
 30
0.0
 10
5145.903692939366
 20
2482.848346869331
 30
0.0
 10
5145.902759453434
 20
2482.847946518124
 30
0.0
 10
5145.902294626292
 20
2482.847735354708
 30
0.0
 10
5145.900000111517
 20
2482.846632638503
 30
0.0
 10
5145.898264443419
 20
2482.845605108272
 30
0.0
 10
5145.895810584622
 20
2482.843846264695
 30
0.0
 10
5145.895017687926
 20
2482.843223557505
 30
0.0
 10
5145.89386696953
 20
2482.842233355669
 30
0.0
 10
5145.893489842205
 20
2482.84189392037
 30
0.0
 10
5145.892748751347
 20
2482.84119591943
 30
0.0
 10
5145.89238446386
 20
2482.840836930449
 30
0.0
 10
5145.890614459692
 20
2482.839012013019
 30
0.0
 10
5145.889347195409
 20
2482.837443555836
 30
0.0
 10
5145.887662897406
 20
2482.834932893704
 30
0.0
 10
5145.887137717989
 20
2482.834069564711
 30
0.0
 10
5145.88616074759
 20
2482.832289389426
 30
0.0
 10
5145.885707992523
 20
2482.831369429634
 30
0.0
 10
5145.884484669423
 20
2482.828580540834
 30
0.0
 10
5145.883838888376
 20
2482.826668548805
 30
0.0
 10
5145.883114397353
 20
2482.823724757271
 30
0.0
 10
5145.882913835406
 20
2482.82273078558
 30
0.0
 10
5145.882595767748
 20
2482.820717067524
 30
0.0
 10
5145.882478891088
 20
2482.819699854573
 30
0.0
 10
5145.882405108679
 20
2482.818680338605
 30
0.0
  0
SPLINE
  5
2621
330
1F
100
AcDbEntity
  8
SANINDUSA
100
AcDbSpline
210
0.0
220
0.0
230
1.0
 70
     8
 71
     3
 72
    38
 73
    34
 74
     0
 42
0.0000000001
 43
0.0000000001
 40
0.0
 40
0.0
 40
0.0
 40
0.0
 40
0.0312499999999997
 40
0.0312499999999997
 40
0.0624999999999994
 40
0.0624999999999994
 40
0.1249999999999992
 40
0.1249999999999992
 40
0.2499999999999993
 40
0.2499999999999993
 40
0.2812499999999994
 40
0.2812499999999994
 40
0.3124999999999995
 40
0.3124999999999995
 40
0.3749999999999996
 40
0.3749999999999996
 40
0.4999999999999996
 40
0.4999999999999996
 40
0.5312499999999997
 40
0.5312499999999997
 40
0.5624999999999999
 40
0.5624999999999999
 40
0.625
 40
0.625
 40
0.7499999999999999
 40
0.7499999999999999
 40
0.7812499999999999
 40
0.7812499999999999
 40
0.8124999999999998
 40
0.8124999999999998
 40
0.8749999999999998
 40
0.8749999999999998
 40
1.0
 40
1.0
 40
1.0
 40
1.0
 10
5145.845382156519
 20
2482.820187380126
 30
0.0
 10
5145.84537769124
 20
2482.821240621404
 30
0.0
 10
5145.845399187559
 20
2482.822292998827
 30
0.0
 10
5145.845494103767
 20
2482.824396025189
 30
0.0
 10
5145.845567744576
 20
2482.825448449671
 30
0.0
 10
5145.845864886462
 20
2482.828582935648
 30
0.0
 10
5145.846164216362
 20
2482.8306461111
 30
0.0
 10
5145.847356905461
 20
2482.836758529062
 30
0.0
 10
5145.848542229699
 20
2482.840731381758
 30
0.0
 10
5145.850523860684
 20
2482.845566527967
 30
0.0
 10
5145.850945406294
 20
2482.846526953251
 30
0.0
 10
5145.851840175072
 20
2482.848434268059
 30
0.0
 10
5145.852310721496
 20
2482.849375252067
 30
0.0
 10
5145.853783777545
 20
2482.852147459978
 30
0.0
 10
5145.854850279087
 20
2482.853933901265
 30
0.0
 10
5145.858296273803
 20
2482.859113131568
 30
0.0
 10
5145.860919935674
 20
2482.86232752465
 30
0.0
 10
5145.864619845293
 20
2482.866038246787
 30
0.0
 10
5145.865383162526
 20
2482.866766797998
 30
0.0
 10
5145.866942938572
 20
2482.868182782798
 30
0.0
 10
5145.867736937451
 20
2482.868868203176
 30
0.0
 10
5145.870160253655
 20
2482.870858362929
 30
0.0
 10
5145.871830792944
 20
2482.872097156954
 30
0.0
 10
5145.877003102039
 20
2482.875556429375
 30
0.0
 10
5145.880664043495
 20
2482.877522227867
 30
0.0
 10
5145.885514895424
 20
2482.879539873753
 30
0.0
 10
5145.886501659943
 20
2482.879922107391
 30
0.0
 10
5145.88848154363
 20
2482.880633510497
 30
0.0
 10
5145.889476341582
 20
2482.880963535628
 30
0.0
 10
5145.892474991481
 20
2482.88187823055
 30
0.0
 10
5145.894493066341
 20
2482.882387694814
 30
0.0
 10
5145.900602997548
 20
2482.883621520724
 30
0.0
 10
5145.904750027003
 20
2482.884054132931
 30
0.0
 10
5145.908973905161
 20
2482.884080393561
 30
0.0
  0
LINE
  5
262D
330
1F
100
AcDbEntity
  8
SANINDUSA
100
AcDbLine
 10
5146.199418076833
 20
2482.530491244915
 30
0.0
 11
5146.259788284858
 21
2482.530491241339
 31
0.0
  0
LINE
  5
262E
330
1F
100
AcDbEntity
  8
SANINDUSA
100
AcDbLine
 10
5145.789788284858
 20
2482.530491244915
 30
0.0
 11
5146.199418076833
 21
2482.530491244915
 31
0.0
  0
SPLINE
  5
262F
330
1F
100
AcDbEntity
  8
SANINDUSA
100
AcDbSpline
210
0.0
220
0.0
230
1.0
 70
    24
 71
     3
 72
     8
 73
     4
 74
     0
 42
0.0000000001
 43
0.0000000001
 40
0.0203429202014158
 40
0.0203429202014158
 40
0.0203429202014158
 40
0.0203429202014158
 40
1.0
 40
1.0
 40
1.0
 40
1.0
 10
5145.789788284858
 20
2482.932108755255
 30
0.0
 10
5145.789788284858
 20
2482.797564367601
 30
0.0
 10
5145.789788284858
 20
2482.663717487439
 30
0.0
 10
5145.789788284858
 20
2482.530491241339
 30
0.0
  0
SPLINE
  5
2632
330
1F
100
AcDbEntity
  8
SANINDUSA
100
AcDbSpline
210
0.0
220
0.0
230
1.0
 70
     8
 71
     3
 72
    15
 73
    11
 74
     0
 42
0.0000000001
 43
0.0000000001
 40
0.0
 40
0.0
 40
0.0
 40
0.0
 40
0.1594805477933515
 40
0.406674955878385
 40
0.653869169534561
 40
0.9581308342355987
 40
0.9911390718816715
 40
0.9956874259535524
 40
0.9985508707562281
 40
1.0
 40
1.0
 40
1.0
 40
1.0
 10
5145.908973903914
 20
2482.884080392245
 30
0.0
 10
5145.923063050989
 20
2482.884239893311
 30
0.0
 10
5145.958990337065
 20
2482.88464662059
 30
0.0
 10
5146.016756451573
 20
2482.885304615708
 30
0.0
 10
5146.087308739257
 20
2482.886453397489
 30
0.0
 10
5146.138935586933
 20
2482.887479291045
 30
0.0
 10
5146.169128349518
 20
2482.888164415583
 30
0.0
 10
5146.172697256083
 20
2482.888290591944
 30
0.0
 10
5146.173479453793
 20
2482.888323459
 30
0.0
 10
5146.173859911982
 20
2482.888344146927
 30
0.0
 10
5146.17398775514
 20
2482.88835109857
 30
0.0
  0
SPLINE
  5
2633
330
1F
100
AcDbEntity
  8
SANINDUSA
100
AcDbSpline
210
0.0
220
0.0
230
1.0
 70
     8
 71
     3
 72
    50
 73
    46
 74
     0
 42
0.0000000001
 43
0.0000000001
 40
0.0
 40
0.0
 40
0.0
 40
0.0
 40
0.0624999999999998
 40
0.0624999999999998
 40
0.1249999999999996
 40
0.1249999999999996
 40
0.1874999999999993
 40
0.1874999999999993
 40
0.2499999999999991
 40
0.2499999999999991
 40
0.3749999999999989
 40
0.3749999999999989
 40
0.4999999999999988
 40
0.4999999999999988
 40
0.6249999999999987
 40
0.6249999999999987
 40
0.6874999999999986
 40
0.6874999999999986
 40
0.7499999999999984
 40
0.7499999999999984
 40
0.8124999999999984
 40
0.8124999999999984
 40
0.8749999999999982
 40
0.8749999999999982
 40
0.9062499999999984
 40
0.9062499999999984
 40
0.9374999999999985
 40
0.9374999999999985
 40
0.9531249999999987
 40
0.9531249999999987
 40
0.9687499999999989
 40
0.9687499999999989
 40
0.9765624999999991
 40
0.9765624999999991
 40
0.9843749999999991
 40
0.9843749999999991
 40
0.9921874999999992
 40
0.9921874999999992
 40
0.9960937499999996
 40
0.9960937499999996
 40
0.9980468749999996
 40
0.9980468749999996
 40
0.9990234374999998
 40
0.9990234374999998
 40
1.0
 40
1.0
 40
1.0
 40
1.0
 10
5145.882405108679
 20
2482.818680338605
 30
0.0
 10
5145.881966873631
 20
2482.812624857312
 30
0.0
 10
5145.881541094231
 20
2482.806569959177
 30
0.0
 10
5145.880695694269
 20
2482.794461777685
 30
0.0
 10
5145.880275430987
 20
2482.788408525788
 30
0.0
 10
5145.879411572741
 20
2482.776304785888
 30
0.0
 10
5145.878968144383
 20
2482.770254430371
 30
0.0
 10
5145.878047134666
 20
2482.758158095089
 30
0.0
 10
5145.877569767616
 20
2482.752111853276
 30
0.0
 10
5145.876086510583
 20
2482.733978097846
 30
0.0
 10
5145.875032288724
 20
2482.72189520294
 30
0.0
 10
5145.872806389199
 20
2482.697742247648
 30
0.0
 10
5145.871634915857
 20
2482.685672332306
 30
0.0
 10
5145.869149162091
 20
2482.661550592716
 30
0.0
 10
5145.867835474913
 20
2482.649497373521
 30
0.0
 10
5145.865705592662
 20
2482.631444979277
 30
0.0
 10
5145.864968680641
 20
2482.625431978881
 30
0.0
 10
5145.863423719285
 20
2482.613417247674
 30
0.0
 10
5145.862615941922
 20
2482.607415481925
 30
0.0
 10
5145.860901457317
 20
2482.595426852311
 30
0.0
 10
5145.859995267142
 20
2482.589438777519
 30
0.0
 10
5145.858032927835
 20
2482.577493259769
 30
0.0
 10
5145.856979477385
 20
2482.571534794202
 30
0.0
 10
5145.855197655139
 20
2482.562635208316
 30
0.0
 10
5145.85456926905
 20
2482.559673807506
 30
0.0
 10
5145.853209381165
 20
2482.553777566903
 30
0.0
 10
5145.852479696362
 20
2482.550842873499
 30
0.0
 10
5145.851250746607
 20
2482.54647665893
 30
0.0
 10
5145.850818347707
 20
2482.545027315505
 30
0.0
 10
5145.849885635847
 20
2482.542146631042
 30
0.0
 10
5145.84938625909
 20
2482.54071649187
 30
0.0
 10
5145.848557345497
 20
2482.538606513192
 30
0.0
 10
5145.848267444496
 20
2482.537908813219
 30
0.0
 10
5145.847649355466
 20
2482.536529237235
 30
0.0
 10
5145.84732146535
 20
2482.535847238416
 30
0.0
 10
5145.846606887301
 20
2482.534507517558
 30
0.0
 10
5145.846221713312
 20
2482.533851540881
 30
0.0
 10
5145.845579481854
 20
2482.53291829834
 30
0.0
 10
5145.845354246573
 20
2482.532615309285
 30
0.0
 10
5145.84499231215
 20
2482.532178286023
 30
0.0
 10
5145.844867615799
 20
2482.532035549168
 30
0.0
 10
5145.844673002346
 20
2482.531826931301
 30
0.0
 10
5145.844606864496
 20
2482.531758310358
 30
0.0
 10
5145.844471724648
 20
2482.531623144888
 30
0.0
 10
5145.84440158836
 20
2482.531555550104
 30
0.0
 10
5145.844332086979
 20
2482.531491241339
 30
0.0
  0
SPLINE
  5
2634
330
1F
100
AcDbEntity
  8
SANINDUSA
100
AcDbSpline
210
0.0
220
0.0
230
1.0
 70
     8
 71
     3
 72
    44
 73
    40
 74
     0
 42
0.0000000001
 43
0.0000000001
 40
0.0
 40
0.0
 40
0.0
 40
0.0
 40
0.0039062500000002
 40
0.0039062500000002
 40
0.0078125000000004
 40
0.0078125000000004
 40
0.0156250000000008
 40
0.0156250000000008
 40
0.031250000000001
 40
0.031250000000001
 40
0.0468750000000011
 40
0.0468750000000011
 40
0.0625000000000013
 40
0.0625000000000013
 40
0.093750000000001
 40
0.093750000000001
 40
0.1250000000000007
 40
0.1250000000000007
 40
0.1328125000000007
 40
0.1328125000000007
 40
0.1406250000000008
 40
0.1406250000000008
 40
0.156250000000001
 40
0.156250000000001
 40
0.1875000000000006
 40
0.1875000000000006
 40
0.2500000000000005
 40
0.2500000000000005
 40
0.3750000000000005
 40
0.3750000000000005
 40
0.5000000000000004
 40
0.5000000000000004
 40
0.6250000000000004
 40
0.6250000000000004
 40
0.7500000000000002
 40
0.7500000000000002
 40
0.8750000000000001
 40
0.8750000000000001
 40
1.0
 40
1.0
 40
1.0
 40
1.0
 10
5146.174346396313
 20
2482.887629922221
 30
0.0
 10
5146.174039802642
 20
2482.88747371497
 30
0.0
 10
5146.173719640521
 20
2482.887346292752
 30
0.0
 10
5146.173073183224
 20
2482.887110971985
 30
0.0
 10
5146.172745893295
 20
2482.887004590367
 30
0.0
 10
5146.171758957318
 20
2482.886703065072
 30
0.0
 10
5146.171094341656
 20
2482.886525356085
 30
0.0
 10
5146.169095498947
 20
2482.886021171346
 30
0.0
 10
5146.167753989782
 20
2482.885724015312
 30
0.0
 10
5146.165065067512
 20
2482.885155530841
 30
0.0
 10
5146.163716971207
 20
2482.884886275153
 30
0.0
 10
5146.161018277926
 20
2482.884363704853
 30
0.0
 10
5146.159667625539
 20
2482.884110718029
 30
0.0
 10
5146.155613179046
 20
2482.883367682359
 30
0.0
 10
5146.15290694491
 20
2482.882893248434
 30
0.0
 10
5146.147490910419
 20
2482.88196747717
 30
0.0
 10
5146.144781034132
 20
2482.881516615521
 30
0.0
 10
5146.141392100464
 20
2482.880963400721
 30
0.0
 10
5146.140714232288
 20
2482.880853288625
 30
0.0
 10
5146.13935834479
 20
2482.880634051386
 30
0.0
 10
5146.138680189811
 20
2482.880525776951
 30
0.0
 10
5146.136647255035
 20
2482.880191417473
 30
0.0
 10
5146.135291618893
 20
2482.879970751571
 30
0.0
 10
5146.131223801123
 20
2482.879314653033
 30
0.0
 10
5146.128510716053
 20
2482.878885082061
 30
0.0
 10
5146.120368558332
 20
2482.877615296111
 30
0.0
 10
5146.114936614016
 20
2482.87679380943
 30
0.0
 10
5146.098632544235
 20
2482.874383645532
 30
0.0
 10
5146.08775184195
 20
2482.872848291842
 30
0.0
 10
5146.065979838621
 20
2482.869866532322
 30
0.0
 10
5146.05508875434
 20
2482.868421216683
 30
0.0
 10
5146.033300717295
 20
2482.865592023415
 30
0.0
 10
5146.022403716905
 20
2482.864208506452
 30
0.0
 10
5146.000607531978
 20
2482.861480217322
 30
0.0
 10
5145.989708367441
 20
2482.860135265569
 30
0.0
 10
5145.967911403809
 20
2482.857465187706
 30
0.0
 10
5145.957013115314
 20
2482.856139883273
 30
0.0
 10
5145.935223473142
 20
2482.853498797496
 30
0.0
 10
5145.924332461257
 20
2482.852182800963
 30
0.0
 10
5145.913446639099
 20
2482.850873008352
 30
0.0
  0
SPLINE
  5
2635
330
1F
100
AcDbEntity
  8
SANINDUSA
100
AcDbSpline
210
0.0
220
0.0
230
1.0
 70
     8
 71
     3
 72
    21
 73
    17
 74
     0
 42
0.0000000001
 43
0.0000000001
 40
0.0
 40
0.0
 40
0.0
 40
0.0
 40
0.0000488664111179
 40
0.0001125510366954
 40
0.0002298008797947
 40
0.000637605127145
 40
0.0026011693422586
 40
0.0104045360855002
 40
0.0415800716445973
 40
0.1039147759513197
 40
0.1662514289193823
 40
0.3324975642262317
 40
0.4987510460456189
 40
0.6649986771941187
 40
0.8324994272240338
 40
1.0
 40
1.0
 40
1.0
 40
1.0
 10
5145.841789653113
 20
2482.532676261786
 30
0.0
 10
5145.841794388554
 20
2482.5326767567
 30
0.0
 10
5145.841805295409
 20
2482.532677896607
 30
0.0
 10
5145.841824599514
 20
2482.532689966126
 30
0.0
 10
5145.841861729118
 20
2482.532733066062
 30
0.0
 10
5145.84195250421
 20
2482.532956863689
 30
0.0
 10
5145.842119436244
 20
2482.533915385984
 30
0.0
 10
5145.842469912045
 20
2482.537811666853
 30
0.0
 10
5145.842880169711
 20
2482.547479079627
 30
0.0
 10
5145.843345892115
 20
2482.562361652868
 30
0.0
 10
5145.843908689769
 20
2482.590167475227
 30
0.0
 10
5145.844573898326
 20
2482.627948480979
 30
0.0
 10
5145.845116239041
 20
2482.675742843396
 30
0.0
 10
5145.845497082954
 20
2482.723719152422
 30
0.0
 10
5145.845500500192
 20
2482.771861733223
 30
0.0
 10
5145.845421603676
 20
2482.804078836451
 30
0.0
 10
5145.845382155439
 20
2482.820187379542
 30
0.0
  0
ARC
  5
2638
330
1F
100
AcDbEntity
  8
SANINDUSA
100
AcDbCircle
 10
5142.34339681842
 20
2483.312914700381
 30
0.0
 40
3.993783743225316
100
AcDbArc
 50
348.7020930321313
 51
354.5285544390378
  0
LINE
  5
26B6
330
1F
100
AcDbEntity
  8
SANINDUSA
100
AcDbLine
 10
5144.960397304833
 20
2483.006626308365
 30
0.0
 11
5144.968388156127
 21
2483.006626308365
 31
0.0
  0
ENDSEC
  0
SECTION
  2
OBJECTS
  0
DICTIONARY
  5
C
330
0
100
AcDbDictionary
281
     1
  3
ACAD_2007HEADERVARS_RT
350
2737
  3
ACAD_BACKGROUND
350
26F2
  3
ACAD_COLOR
350
EE6
  3
ACAD_GROUP
350
D
  3
ACAD_LAYOUT
350
1A
  3
ACAD_MATERIAL
350
EE5
  3
ACAD_MLEADERSTYLE
350
10A8
  3
ACAD_MLINESTYLE
350
17
  3
ACAD_PLOTSETTINGS
350
19
  3
ACAD_PLOTSTYLENAME
350
E
  3
ACAD_SCALELIST
350
1096
  3
ACAD_TABLESTYLE
350
EE7
  3
ACAD_VISUALSTYLE
350
1082
  3
ACDB_RECOMPOSE_DATA
350
2735
  3
AcDbVariableDictionary
350
3D
  3
AEC_PROPERTY_SET_DEFS
350
1691
  3
ASE_INDEX_DICTIONARY
350
1066
  3
Autodesk_PNP
350
10B2
  3
DWGPROPS
350
2736
  0
DICTIONARY
  5
2265
330
8
100
AcDbDictionary
280
     1
281
     1
  0
DICTIONARY
  5
1051
330
2
100
AcDbDictionary
280
     1
281
     1
  3
ACAD_LAYERFILTERS
360
1065
  3
ACAD_LAYERSTATES
360
12CE
  3
ACLYDICTIONARY
360
1064
  0
DICTIONARY
  5
21ED
330
10
100
AcDbDictionary
280
     1
281
     1
  3
ADSK_XREC_LAYER_RECONCILED
360
21EE
  0
DICTIONARY
  5
21EF
330
2F
100
AcDbDictionary
280
     1
281
     1
  3
ADSK_XREC_LAYER_RECONCILED
360
21F0
  0
DICTIONARY
  5
21F1
330
30
100
AcDbDictionary
280
     1
281
     1
  3
ADSK_XREC_LAYER_RECONCILED
360
21F2
  0
DICTIONARY
  5
21F3
330
31
100
AcDbDictionary
280
     1
281
     1
  3
ADSK_XREC_LAYER_RECONCILED
360
21F4
  0
DICTIONARY
  5
21F5
330
32
100
AcDbDictionary
280
     1
281
     1
  3
ADSK_XREC_LAYER_RECONCILED
360
21F6
  0
DICTIONARY
  5
21F7
330
33
100
AcDbDictionary
280
     1
281
     1
  3
ADSK_XREC_LAYER_RECONCILED
360
21F8
  0
DICTIONARY
  5
21F9
330
34
100
AcDbDictionary
280
     1
281
     1
  3
ADSK_XREC_LAYER_RECONCILED
360
21FA
  0
DICTIONARY
  5
21FB
330
35
100
AcDbDictionary
280
     1
281
     1
  3
ADSK_XREC_LAYER_RECONCILED
360
21FC
  0
DICTIONARY
  5
21FD
330
36
100
AcDbDictionary
280
     1
281
     1
  3
ADSK_XREC_LAYER_RECONCILED
360
21FE
  0
DICTIONARY
  5
21FF
330
37
100
AcDbDictionary
280
     1
281
     1
  3
ADSK_XREC_LAYER_RECONCILED
360
2200
  0
DICTIONARY
  5
2201
330
5D6
100
AcDbDictionary
280
     1
281
     1
  3
ADSK_XREC_LAYER_RECONCILED
360
2202
  0
DICTIONARY
  5
2203
330
8AF
100
AcDbDictionary
280
     1
281
     1
  3
ADSK_XREC_LAYER_RECONCILED
360
2204
  0
DICTIONARY
  5
2205
330
8F8
100
AcDbDictionary
280
     1
281
     1
  3
ADSK_XREC_LAYER_RECONCILED
360
2206
  0
DICTIONARY
  5
2207
330
91D
100
AcDbDictionary
280
     1
281
     1
  3
ADSK_XREC_LAYER_RECONCILED
360
2208
  0
DICTIONARY
  5
2209
330
C7B
100
AcDbDictionary
280
     1
281
     1
  3
ADSK_XREC_LAYER_RECONCILED
360
220A
  0
DICTIONARY
  5
220B
330
1060
100
AcDbDictionary
280
     1
281
     1
  3
ADSK_XREC_LAYER_RECONCILED
360
220C
  0
DICTIONARY
  5
245C
330
1F
100
AcDbDictionary
280
     1
281
     1
  3
ACAD_SORTENTS
360
245D
  0
DICTIONARY
  5
2737
102
{ACAD_REACTORS
330
C
102
}
330
C
100
AcDbDictionary
281
     1
  3
DIMJOGANG
350
2738
  0
DICTIONARY
  5
26F2
102
{ACAD_REACTORS
330
C
102
}
330
C
100
AcDbDictionary
281
     1
  0
DICTIONARY
  5
EE6
102
{ACAD_REACTORS
330
C
102
}
330
C
100
AcDbDictionary
281
     1
  0
DICTIONARY
  5
D
102
{ACAD_REACTORS
330
C
102
}
330
C
100
AcDbDictionary
281
     1
  0
DICTIONARY
  5
1A
102
{ACAD_REACTORS
330
C
102
}
330
C
100
AcDbDictionary
281
     1
  3
Layout1
350
1E
  3
Layout2
350
26
  3
Model
350
22
  0
DICTIONARY
  5
EE5
102
{ACAD_REACTORS
330
C
102
}
330
C
100
AcDbDictionary
281
     1
  3
ByBlock
350
1072
  3
ByLayer
350
106A
  3
Global
350
107A
  0
DICTIONARY
  5
10A8
102
{ACAD_REACTORS
330
C
102
}
330
C
100
AcDbDictionary
281
     1
  3
Standard
350
10A9
  0
DICTIONARY
  5
17
102
{ACAD_REACTORS
330
C
102
}
330
C
100
AcDbDictionary
281
     1
  3
Standard
350
18
  0
DICTIONARY
  5
19
102
{ACAD_REACTORS
330
C
102
}
330
C
100
AcDbDictionary
281
     1
  0
ACDBDICTIONARYWDFLT
  5
E
102
{ACAD_REACTORS
330
C
102
}
330
C
100
AcDbDictionary
281
     1
  3
Normal
350
F
100
AcDbDictionaryWithDefault
340
F
  0
DICTIONARY
  5
1096
102
{ACAD_REACTORS
330
C
102
}
330
C
100
AcDbDictionary
281
     1
  3
A0
350
1097
  3
A1
350
1098
  3
A2
350
1099
  3
A3
350
109A
  3
A4
350
109B
  3
A5
350
109C
  3
A6
350
109D
  3
A7
350
109E
  3
A8
350
109F
  3
A9
350
10A0
  3
B0
350
10A1
  3
B1
350
10A2
  3
B2
350
10A3
  3
B3
350
10A4
  3
B4
350
10A5
  3
B5
350
10A6
  3
B6
350
10A7
  0
DICTIONARY
  5
EE7
102
{ACAD_REACTORS
330
C
102
}
330
C
100
AcDbDictionary
281
     1
  3
Standard
350
EE8
  0
DICTIONARY
  5
1082
102
{ACAD_REACTORS
330
C
102
}
330
C
100
AcDbDictionary
281
     1
  3
2dWireframe
350
1088
  3
3D Hidden
350
108A
  3
3dWireframe
350
1089
  3
Basic
350
1087
  3
Brighten
350
108E
  3
ColorChange
350
1092
  3
Conceptual
350
108B
  3
Dim
350
108D
  3
EdgeColorOff
350
1095
  3
Facepattern
350
1091
  3
Flat
350
1083
  3
FlatWithEdges
350
1084
  3
Gouraud
350
1085
  3
GouraudWithEdges
350
1086
  3
JitterOff
350
1093
  3
Linepattern
350
1090
  3
OverhangOff
350
1094
  3
Realistic
350
108C
  3
Thicken
350
108F
  0
XRECORD
  5
2735
102
{ACAD_REACTORS
330
C
102
}
330
C
100
AcDbXrecord
280
     1
 90
        1
330
EE8
  0
DICTIONARY
  5
3D
102
{ACAD_REACTORS
330
C
102
}
330
C
100
AcDbDictionary
281
     1
  3
CANNOSCALE
350
22A3
  3
CMLEADERSTYLE
350
22A2
  3
CTABLESTYLE
350
1049
  3
DIMASSOC
350
3F
  3
HIDETEXT
350
3E
  3
INDEXCTL
350
22A5
  3
SORTENTS
350
22A4
  3
XCLIPFRAME
350
2733
  0
DICTIONARY
  5
1691
102
{ACAD_REACTORS
330
C
102
}
330
C
100
AcDbDictionary
281
     1
  0
DICTIONARY
  5
1066
102
{ACAD_REACTORS
330
C
102
}
330
C
100
AcDbDictionary
281
     1
  3
ASEBlockHierarchyIndexRecord
350
1067
1001
DCO15
1040
1602247867.484
  0
DICTIONARY
  5
10B2
102
{ACAD_REACTORS
330
C
102
}
330
C
100
AcDbDictionary
281
     1
  0
XRECORD
  5
2736
102
{ACAD_REACTORS
330
C
102
}
330
C
100
AcDbXrecord
280
     1
  1
DWGPROPS COOKIE
  2

  3

  4

  6

  7

  8
Julio
  9

300
=
301
=
302
=
303
=
304
=
305
=
306
=
307
=
308
=
309
=
 40
0.0382296990740741
 41
2455257.778177986
 42
2456111.674643183
  1

 90
        0
  0
DICTIONARY
  5
1065
102
{ACAD_REACTORS
330
1051
102
}
330
1051
100
AcDbDictionary
281
     1
  0
DICTIONARY
  5
12CE
102
{ACAD_REACTORS
330
1051
102
}
330
1051
100
AcDbDictionary
281
     1
  0
DICTIONARY
  5
1064
102
{ACAD_REACTORS
330
1051
102
}
330
1051
100
AcDbDictionary
281
     1
1001
ACAD
1000
<All
  0
XRECORD
  5
21EE
102
{ACAD_REACTORS
330
21ED
102
}
330
21ED
100
AcDbXrecord
280
     1
290
     1
  0
XRECORD
  5
21F0
102
{ACAD_REACTORS
330
21EF
102
}
330
21EF
100
AcDbXrecord
280
     1
290
     1
  0
XRECORD
  5
21F2
102
{ACAD_REACTORS
330
21F1
102
}
330
21F1
100
AcDbXrecord
280
     1
290
     1
  0
XRECORD
  5
21F4
102
{ACAD_REACTORS
330
21F3
102
}
330
21F3
100
AcDbXrecord
280
     1
290
     1
  0
XRECORD
  5
21F6
102
{ACAD_REACTORS
330
21F5
102
}
330
21F5
100
AcDbXrecord
280
     1
290
     1
  0
XRECORD
  5
21F8
102
{ACAD_REACTORS
330
21F7
102
}
330
21F7
100
AcDbXrecord
280
     1
290
     1
  0
XRECORD
  5
21FA
102
{ACAD_REACTORS
330
21F9
102
}
330
21F9
100
AcDbXrecord
280
     1
290
     1
  0
XRECORD
  5
21FC
102
{ACAD_REACTORS
330
21FB
102
}
330
21FB
100
AcDbXrecord
280
     1
290
     1
  0
XRECORD
  5
21FE
102
{ACAD_REACTORS
330
21FD
102
}
330
21FD
100
AcDbXrecord
280
     1
290
     1
  0
XRECORD
  5
2200
102
{ACAD_REACTORS
330
21FF
102
}
330
21FF
100
AcDbXrecord
280
     1
290
     1
  0
XRECORD
  5
2202
102
{ACAD_REACTORS
330
2201
102
}
330
2201
100
AcDbXrecord
280
     1
290
     1
  0
XRECORD
  5
2204
102
{ACAD_REACTORS
330
2203
102
}
330
2203
100
AcDbXrecord
280
     1
290
     1
  0
XRECORD
  5
2206
102
{ACAD_REACTORS
330
2205
102
}
330
2205
100
AcDbXrecord
280
     1
290
     1
  0
XRECORD
  5
2208
102
{ACAD_REACTORS
330
2207
102
}
330
2207
100
AcDbXrecord
280
     1
290
     1
  0
XRECORD
  5
220A
102
{ACAD_REACTORS
330
2209
102
}
330
2209
100
AcDbXrecord
280
     1
290
     1
  0
XRECORD
  5
220C
102
{ACAD_REACTORS
330
220B
102
}
330
220B
100
AcDbXrecord
280
     1
290
     1
  0
SORTENTSTABLE
  5
245D
102
{ACAD_REACTORS
330
245C
102
}
330
245C
100
AcDbSortentsTable
330
1F
331
18E6
  5
18EB
331
239C
  5
23A6
331
1837
  5
1837
331
1925
  5
192C
331
23D7
  5
23E1
331
1833
  5
1833
331
1921
  5
1928
331
2394
  5
239E
331
23D3
  5
23DD
331
2390
  5
239A
331
179D
  5
179D
331
17FC
  5
17FC
331
18DE
  5
18E6
331
18DA
  5
18DF
331
23CF
  5
23D9
331
18D6
  5
18DB
331
1919
  5
191F
331
238C
  5
2396
331
23CB
  5
23D5
331
1827
  5
1827
331
18D2
  5
18D7
331
1915
  5
191A
331
23C7
  5
23D1
331
1911
  5
1916
331
23FA
  5
2481
331
1761
  5
1761
331
1759
  5
1759
331
181F
  5
181F
331
23BF
  5
23C9
331
181B
  5
181B
331
1960
  5
196A
331
23F6
  5
247D
331
23BB
  5
23C5
331
1817
  5
1817
331
195C
  5
1966
331
23F2
  5
245E
331
1813
  5
1813
331
23EE
  5
23F8
331
1755
  5
1755
331
17CC
  5
17CC
331
17C8
  5
17C8
331
1A28
  5
225D
331
180F
  5
180F
331
180B
  5
180B
331
23AF
  5
23B9
331
18F5
  5
18FB
331
1950
  5
1959
331
1807
  5
1807
331
23AB
  5
23B5
331
18F1
  5
18F6
331
194C
  5
1955
331
1803
  5
1803
331
23E2
  5
23EC
331
23A7
  5
23B1
331
18ED
  5
18F2
331
23DE
  5
23E8
331
18E9
  5
18EE
331
23DA
  5
23E4
331
17BC
  5
17BC
331
17B8
  5
17B8
331
1729
  5
1729
331
183E
  5
183E
331
239F
  5
23A9
331
183A
  5
183A
331
239B
  5
23A5
331
2397
  5
23A1
331
23D6
  5
23E0
331
19EB
  5
1F72
331
1832
  5
1832
331
18E1
  5
18E9
331
2393
  5
239D
331
23D2
  5
23DC
331
247D
  5
1922
331
17A0
  5
17A0
331
17FF
  5
17FF
331
1719
  5
1719
331
17FB
  5
17FB
331
18DD
  5
18E4
331
238F
  5
2399
331
23CE
  5
23D8
331
18D9
  5
18DE
331
1826
  5
1826
331
18D5
  5
18DA
331
238B
  5
2395
331
23CA
  5
23D4
331
1918
  5
191D
331
1983
  5
198D
331
18D1
  5
18D6
331
23C6
  5
23D0
331
1914
  5
1919
331
1910
  5
1915
331
23F9
  5
2480
331
175C
  5
175C
331
1758
  5
1758
331
225E
  5
2392
331
181E
  5
181E
331
23BE
  5
23C8
331
181A
  5
181A
331
23F5
  5
2461
331
23BA
  5
23C4
331
1816
  5
1816
331
23F1
  5
23FB
331
1812
  5
1812
331
23ED
  5
23F7
331
17CF
  5
17CF
331
18F8
  5
18FE
331
1750
  5
1750
331
17C3
  5
17C3
331
180E
  5
180E
331
1957
  5
1960
331
180A
  5
180A
331
23AE
  5
23B8
331
18F4
  5
18FA
331
1953
  5
195C
331
1806
  5
1806
331
23AA
  5
23B4
331
18F0
  5
18F5
331
194F
  5
1958
331
1802
  5
1802
331
23E1
  5
23EB
331
23A6
  5
23B0
331
18EC
  5
18F1
331
23A2
  5
23AC
331
18E8
  5
18ED
331
17BF
  5
17BF
331
23DD
  5
23E7
331
23D9
  5
23E3
331
1728
  5
1728
331
239E
  5
23A8
331
18E4
  5
18EA
331
1927
  5
192E
331
239A
  5
23A4
331
19EA
  5
1A49
331
18E0
  5
18E8
331
2396
  5
23A0
331
23D5
  5
23DF
331
2392
  5
239C
331
23D1
  5
23DB
331
179F
  5
179F
331
17FE
  5
17FE
331
18DC
  5
18E1
331
191F
  5
1926
331
198E
  5
1998
331
18D8
  5
18DD
331
238E
  5
2398
331
23CD
  5
23D7
331
1825
  5
1825
331
18D4
  5
18D9
331
238A
  5
2394
331
23C9
  5
23D3
331
1821
  5
1821
331
1913
  5
1918
331
23C5
  5
23CF
331
23C1
  5
23CB
331
1763
  5
1763
331
23F8
  5
247F
331
175F
  5
175F
331
17D2
  5
17D2
331
225D
  5
2391
331
2255
  5
2390
331
181D
  5
181D
331
190F
  5
1914
331
1819
  5
1819
331
1962
  5
196C
331
23BD
  5
23C7
331
1815
  5
1815
331
195E
  5
1968
331
23F4
  5
2460
331
1811
  5
1811
331
195A
  5
1964
331
23F0
  5
23FA
331
23B5
  5
23BF
331
23EC
  5
23F6
331
17CA
  5
17CA
331
1753
  5
1753
331
17C6
  5
17C6
331
1747
  5
1747
331
19F2
  5
1F8A
331
180D
  5
180D
331
18F7
  5
18FD
331
1809
  5
1809
331
1850
  5
1850
331
18F3
  5
18F8
331
1805
  5
1805
331
18EF
  5
18F4
331
23A9
  5
23B3
331
1801
  5
1801
331
18EB
  5
18F0
331
23E0
  5
23EA
331
23A5
  5
23AF
331
17BE
  5
17BE
331
23DC
  5
23E6
331
23A1
  5
23AB
331
23D8
  5
23E2
331
172F
  5
172F
331
172B
  5
172B
331
18E7
  5
18EC
331
1942
  5
194D
331
239D
  5
23A7
331
1838
  5
1838
331
1926
  5
192D
331
2399
  5
23A3
331
2395
  5
239F
331
23D4
  5
23DE
331
2391
  5
239B
331
23D0
  5
23DA
331
179E
  5
179E
331
17FD
  5
17FD
331
171B
  5
171B
331
18DF
  5
18E7
331
18DB
  5
18E0
331
182C
  5
182C
331
18D7
  5
18DC
331
191A
  5
1920
331
238D
  5
2397
331
23CC
  5
23D6
331
18D3
  5
18D8
331
1985
  5
198F
331
2389
  5
2393
331
23C8
  5
23D2
331
1912
  5
1917
331
23C4
  5
23CE
331
1820
  5
1820
331
17ED
  5
17ED
331
23FB
  5
2482
331
23C0
  5
23CA
331
175E
  5
175E
331
17D1
  5
17D1
331
18A7
  5
18AC
331
190E
  5
1913
331
1965
  5
196E
331
181C
  5
181C
331
1961
  5
196B
331
23F7
  5
247E
331
23BC
  5
23C6
331
1818
  5
1818
331
1877
  5
1877
331
23F3
  5
245F
331
1814
  5
1814
331
1959
  5
1962
331
23EF
  5
23F9
331
23B4
  5
23BE
331
1810
  5
1810
331
23EB
  5
23F5
331
17CD
  5
17CD
331
17C9
  5
17C9
331
17C1
  5
17C1
331
18F6
  5
18FC
331
1955
  5
195E
331
180C
  5
180C
331
18F2
  5
18F7
331
23AC
  5
23B6
331
1808
  5
1808
331
184F
  5
184F
331
18EE
  5
18F3
331
194D
  5
1956
331
23E3
  5
23ED
331
23A8
  5
23B2
331
1804
  5
1804
331
18EA
  5
18EF
331
23DF
  5
23E9
331
23A4
  5
23AE
331
1800
  5
1800
331
23DB
  5
23E5
331
23A0
  5
23AA
331
173E
  5
173E
331
17B9
  5
17B9
331
172E
  5
172E
331
17B5
  5
17B5
331
172A
  5
172A
  0
XRECORD
  5
2738
102
{ACAD_REACTORS
330
2737
102
}
330
2737
100
AcDbXrecord
280
     1
 40
1.570796326794896
  0
LAYOUT
  5
1E
102
{ACAD_XDICTIONARY
360
2739
102
}
102
{ACAD_REACTORS
330
1A
102
}
330
1A
100
AcDbPlotSettings
  1

  2
Ploter HP500
  4

  6

 40
0.0
 41
0.0
 42
0.0
 43
0.0
 44
0.0
 45
0.0
 46
0.0
 47
0.0
 48
0.0
 49
0.0
140
0.0
141
0.0
142
1.0
143
1.0
 70
   688
 72
     0
 73
     0
 74
     5
  7
sanindusa.ctb
 75
    16
147
1.0
148
0.0
149
0.0
100
AcDbLayout
  1
Layout1
 70
     1
 71
     1
 10
0.0
 20
0.0
 11
420.0
 21
297.0
 12
0.0
 22
0.0
 32
0.0
 14
1.000000000000000E+20
 24
1.000000000000000E+20
 34
1.000000000000000E+20
 15
-1.000000000000000E+20
 25
-1.000000000000000E+20
 35
-1.000000000000000E+20
146
0.0
 13
0.0
 23
0.0
 33
0.0
 16
1.0
 26
0.0
 36
0.0
 17
0.0
 27
1.0
 37
0.0
 76
     0
330
1B
  0
LAYOUT
  5
26
102
{ACAD_XDICTIONARY
360
273D
102
}
102
{ACAD_REACTORS
330
1A
102
}
330
1A
100
AcDbPlotSettings
  1

  2
Ploter HP500
  4

  6

 40
0.0
 41
0.0
 42
0.0
 43
0.0
 44
0.0
 45
0.0
 46
0.0
 47
0.0
 48
0.0
 49
0.0
140
0.0
141
0.0
142
1.0
143
1.0
 70
   688
 72
     0
 73
     0
 74
     5
  7
sanindusa.ctb
 75
    16
147
1.0
148
0.0
149
0.0
100
AcDbLayout
  1
Layout2
 70
     1
 71
     2
 10
0.0
 20
0.0
 11
12.0
 21
9.0
 12
0.0
 22
0.0
 32
0.0
 14
0.0
 24
0.0
 34
0.0
 15
0.0
 25
0.0
 35
0.0
146
0.0
 13
0.0
 23
0.0
 33
0.0
 16
1.0
 26
0.0
 36
0.0
 17
0.0
 27
1.0
 37
0.0
 76
     0
330
23
  0
LAYOUT
  5
22
102
{ACAD_XDICTIONARY
360
273B
102
}
102
{ACAD_REACTORS
330
1A
102
}
330
1A
100
AcDbPlotSettings
  1

  2
Ploter HP500
  4
User268
  6

 40
4.995333194732666
 41
16.97565841674804
 42
4.995330810546875
 43
16.97567749023437
 44
209.9733276367187
 45
296.9259948730469
 46
0.0
 47
0.0
 48
0.0
 49
0.0
140
0.0
141
0.0
142
1.0
143
1.0
 70
 11952
 72
     1
 73
     1
 74
     0
  7
sanindusa.ctb
 75
     0
147
1.0
148
-427.5957866592534
149
7.362384574453926
100
AcDbLayout
  1
Model
 70
     1
 71
     0
 10
0.0
 20
0.0
 11
12.0
 21
9.0
 12
0.0
 22
0.0
 32
0.0
 14
0.0
 24
0.0
 34
0.0
 15
0.0
 25
0.0
 35
0.0
146
0.0
 13
0.0
 23
0.0
 33
0.0
 16
1.0
 26
0.0
 36
0.0
 17
0.0
 27
1.0
 37
0.0
 76
     0
330
1F
331
1068
  0
MATERIAL
  5
1072
102
{ACAD_XDICTIONARY
360
1073
102
}
102
{ACAD_REACTORS
330
EE5
102
}
330
EE5
100
AcDbMaterial
  1
ByBlock
 72
     0
 43
0.0008202099737533
 43
0.0
 43
0.0
 43
0.0
 43
0.0
 43
0.0008202099737533
 43
0.0
 43
0.0
 43
0.0
 43
0.0
 43
1.0
 43
0.0
 43
0.0
 43
0.0
 43
0.0
 43
1.0
 77
     0
 47
0.0008202099737533
 47
0.0
 47
0.0
 47
0.0
 47
0.0
 47
0.0008202099737533
 47
0.0
 47
0.0
 47
0.0
 47
0.0
 47
1.0
 47
0.0
 47
0.0
 47
0.0
 47
0.0
 47
1.0
171
     0
 49
0.0008202099737533
 49
0.0
 49
0.0
 49
0.0
 49
0.0
 49
0.0008202099737533
 49
0.0
 49
0.0
 49
0.0
 49
0.0
 49
1.0
 49
0.0
 49
0.0
 49
0.0
 49
0.0
 49
1.0
175
     0
142
0.0008202099737533
142
0.0
142
0.0
142
0.0
142
0.0
142
0.0008202099737533
142
0.0
142
0.0
142
0.0
142
0.0
142
1.0
142
0.0
142
0.0
142
0.0
142
0.0
142
1.0
179
     0
144
0.0008202099737533
144
0.0
144
0.0
144
0.0
144
0.0
144
0.0008202099737533
144
0.0
144
0.0
144
0.0
144
0.0
144
1.0
144
0.0
144
0.0
144
0.0
144
0.0
144
1.0
147
0.0008202099737533
147
0.0
147
0.0
147
0.0
147
0.0
147
0.0008202099737533
147
0.0
147
0.0
147
0.0
147
0.0
147
1.0
147
0.0
147
0.0
147
0.0
147
0.0
147
1.0
  0
MATERIAL
  5
106A
102
{ACAD_XDICTIONARY
360
106B
102
}
102
{ACAD_REACTORS
330
EE5
102
}
330
EE5
100
AcDbMaterial
  1
ByLayer
 72
     0
 43
0.0008202099737533
 43
0.0
 43
0.0
 43
0.0
 43
0.0
 43
0.0008202099737533
 43
0.0
 43
0.0
 43
0.0
 43
0.0
 43
1.0
 43
0.0
 43
0.0
 43
0.0
 43
0.0
 43
1.0
 77
     0
 47
0.0008202099737533
 47
0.0
 47
0.0
 47
0.0
 47
0.0
 47
0.0008202099737533
 47
0.0
 47
0.0
 47
0.0
 47
0.0
 47
1.0
 47
0.0
 47
0.0
 47
0.0
 47
0.0
 47
1.0
171
     0
 49
0.0008202099737533
 49
0.0
 49
0.0
 49
0.0
 49
0.0
 49
0.0008202099737533
 49
0.0
 49
0.0
 49
0.0
 49
0.0
 49
1.0
 49
0.0
 49
0.0
 49
0.0
 49
0.0
 49
1.0
175
     0
142
0.0008202099737533
142
0.0
142
0.0
142
0.0
142
0.0
142
0.0008202099737533
142
0.0
142
0.0
142
0.0
142
0.0
142
1.0
142
0.0
142
0.0
142
0.0
142
0.0
142
1.0
179
     0
144
0.0008202099737533
144
0.0
144
0.0
144
0.0
144
0.0
144
0.0008202099737533
144
0.0
144
0.0
144
0.0
144
0.0
144
1.0
144
0.0
144
0.0
144
0.0
144
0.0
144
1.0
147
0.0008202099737533
147
0.0
147
0.0
147
0.0
147
0.0
147
0.0008202099737533
147
0.0
147
0.0
147
0.0
147
0.0
147
1.0
147
0.0
147
0.0
147
0.0
147
0.0
147
1.0
  0
MATERIAL
  5
107A
102
{ACAD_XDICTIONARY
360
107B
102
}
102
{ACAD_REACTORS
330
EE5
102
}
330
EE5
100
AcDbMaterial
  1
Global
 72
     0
 43
0.0008202099737533
 43
0.0
 43
0.0
 43
0.0
 43
0.0
 43
0.0008202099737533
 43
0.0
 43
0.0
 43
0.0
 43
0.0
 43
1.0
 43
0.0
 43
0.0
 43
0.0
 43
0.0
 43
1.0
 77
     0
 47
0.0008202099737533
 47
0.0
 47
0.0
 47
0.0
 47
0.0
 47
0.0008202099737533
 47
0.0
 47
0.0
 47
0.0
 47
0.0
 47
1.0
 47
0.0
 47
0.0
 47
0.0
 47
0.0
 47
1.0
171
     0
 49
0.0008202099737533
 49
0.0
 49
0.0
 49
0.0
 49
0.0
 49
0.0008202099737533
 49
0.0
 49
0.0
 49
0.0
 49
0.0
 49
1.0
 49
0.0
 49
0.0
 49
0.0
 49
0.0
 49
1.0
175
     0
142
0.0008202099737533
142
0.0
142
0.0
142
0.0
142
0.0
142
0.0008202099737533
142
0.0
142
0.0
142
0.0
142
0.0
142
1.0
142
0.0
142
0.0
142
0.0
142
0.0
142
1.0
179
     0
144
0.0008202099737533
144
0.0
144
0.0
144
0.0
144
0.0
144
0.0008202099737533
144
0.0
144
0.0
144
0.0
144
0.0
144
1.0
144
0.0
144
0.0
144
0.0
144
0.0
144
1.0
147
0.0008202099737533
147
0.0
147
0.0
147
0.0
147
0.0
147
0.0008202099737533
147
0.0
147
0.0
147
0.0
147
0.0
147
1.0
147
0.0
147
0.0
147
0.0
147
0.0
147
1.0
  0
MLEADERSTYLE
  5
10A9
102
{ACAD_REACTORS
330
10A8
102
}
330
10A8
100
AcDbMLeaderStyle
170
     2
171
     1
172
     0
 90
        2
 40
0.0
 41
0.0
173
     1
 91
-1056964608
340
14
 92
       -2
290
     1
 42
2.0
291
     1
 43
0.36
  3
Standard
 44
4.0
300

342
11
174
     1
178
     6
175
     1
176
     0
 93
-1056964608
 45
4.0
292
     0
297
     0
 46
4.0
 94
-1056964608
 47
1.0
 49
1.0
140
1.0
293
     1
141
0.0
294
     1
177
     0
142
1.0
295
     0
296
     0
143
0.125
1001
ACAD_MLEADERVER
1070
     2
  0
MLINESTYLE
  5
18
102
{ACAD_REACTORS
330
17
102
}
330
17
100
AcDbMlineStyle
  2
STANDARD
 70
     0
  3

 62
   256
 51
90.0
 52
90.0
 71
     2
 49
0.5
 62
   256
  6
BYLAYER
 49
-0.5
 62
   256
  6
BYLAYER
  0
ACDBPLACEHOLDER
  5
F
102
{ACAD_REACTORS
330
E
102
}
330
E
  0
SCALE
  5
1097
102
{ACAD_REACTORS
330
1096
102
}
330
1096
100
AcDbScale
 70
     0
300
1:1
140
1.0
141
1.0
290
     1
  0
SCALE
  5
1098
102
{ACAD_REACTORS
330
1096
102
}
330
1096
100
AcDbScale
 70
     0
300
1:2
140
1.0
141
2.0
290
     0
  0
SCALE
  5
1099
102
{ACAD_REACTORS
330
1096
102
}
330
1096
100
AcDbScale
 70
     0
300
1:4
140
1.0
141
4.0
290
     0
  0
SCALE
  5
109A
102
{ACAD_REACTORS
330
1096
102
}
330
1096
100
AcDbScale
 70
     0
300
1:5
140
1.0
141
5.0
290
     0
  0
SCALE
  5
109B
102
{ACAD_REACTORS
330
1096
102
}
330
1096
100
AcDbScale
 70
     0
300
1:8
140
1.0
141
8.0
290
     0
  0
SCALE
  5
109C
102
{ACAD_REACTORS
330
1096
102
}
330
1096
100
AcDbScale
 70
     0
300
1:10
140
1.0
141
10.0
290
     0
  0
SCALE
  5
109D
102
{ACAD_REACTORS
330
1096
102
}
330
1096
100
AcDbScale
 70
     0
300
1:16
140
1.0
141
16.0
290
     0
  0
SCALE
  5
109E
102
{ACAD_REACTORS
330
1096
102
}
330
1096
100
AcDbScale
 70
     0
300
1:20
140
1.0
141
20.0
290
     0
  0
SCALE
  5
109F
102
{ACAD_REACTORS
330
1096
102
}
330
1096
100
AcDbScale
 70
     0
300
1:30
140
1.0
141
30.0
290
     0
  0
SCALE
  5
10A0
102
{ACAD_REACTORS
330
1096
102
}
330
1096
100
AcDbScale
 70
     0
300
1:40
140
1.0
141
40.0
290
     0
  0
SCALE
  5
10A1
102
{ACAD_REACTORS
330
1096
102
}
330
1096
100
AcDbScale
 70
     0
300
1:50
140
1.0
141
50.0
290
     0
  0
SCALE
  5
10A2
102
{ACAD_REACTORS
330
1096
102
}
330
1096
100
AcDbScale
 70
     0
300
1:100
140
1.0
141
100.0
290
     0
  0
SCALE
  5
10A3
102
{ACAD_REACTORS
330
1096
102
}
330
1096
100
AcDbScale
 70
     0
300
2:1
140
2.0
141
1.0
290
     0
  0
SCALE
  5
10A4
102
{ACAD_REACTORS
330
1096
102
}
330
1096
100
AcDbScale
 70
     0
300
4:1
140
4.0
141
1.0
290
     0
  0
SCALE
  5
10A5
102
{ACAD_REACTORS
330
1096
102
}
330
1096
100
AcDbScale
 70
     0
300
8:1
140
8.0
141
1.0
290
     0
  0
SCALE
  5
10A6
102
{ACAD_REACTORS
330
1096
102
}
330
1096
100
AcDbScale
 70
     0
300
10:1
140
10.0
141
1.0
290
     0
  0
SCALE
  5
10A7
102
{ACAD_REACTORS
330
1096
102
}
330
1096
100
AcDbScale
 70
     0
300
100:1
140
100.0
141
1.0
290
     0
  0
TABLESTYLE
  5
EE8
102
{ACAD_XDICTIONARY
360
225F
102
}
102
{ACAD_REACTORS
330
EE7
102
}
330
EE7
100
AcDbTableStyle
  3
Standard
 70
     0
 71
     0
 40
1.5
 41
1.5
280
     0
281
     0
  7
Standard
140
4.5
170
     2
 62
     0
 63
     7
283
     0
274
    -2
284
     1
 64
     0
275
    -2
285
     1
 65
     0
276
    -2
286
     1
 66
     0
277
    -2
287
     1
 67
     0
278
    -2
288
     1
 68
     0
279
    -2
289
     1
 69
     0
  7
Standard
140
6.0
170
     5
 62
     0
 63
     7
283
     0
274
    -2
284
     1
 64
     0
275
    -2
285
     1
 65
     0
276
    -2
286
     1
 66
     0
277
    -2
287
     1
 67
     0
278
    -2
288
     1
 68
     0
279
    -2
289
     1
 69
     0
  7
Standard
140
4.5
170
     5
 62
     0
 63
     7
283
     0
274
    -2
284
     1
 64
     0
275
    -2
285
     1
 65
     0
276
    -2
286
     1
 66
     0
277
    -2
287
     1
 67
     0
278
    -2
288
     1
 68
     0
279
    -2
289
     1
 69
     0
  0
VISUALSTYLE
  5
1088
102
{ACAD_XDICTIONARY
360
274D
102
}
102
{ACAD_REACTORS
330
1082
102
}
330
1082
100
AcDbVisualStyle
  2
2dWireframe
 70
     4
 71
     0
 72
     2
 73
     0
 90
        0
 40
-0.6
 41
-30.0
 62
     5
 63
     7
 74
     1
 91
        4
 64
     7
 65
   257
 75
     1
175
     1
 42
1.0
 92
        0
 66
   257
 43
1.0
 76
     1
 77
     6
 78
     2
 67
     7
 79
     5
170
     0
171
     0
290
     0
174
     0
 93
        1
 44
0.0
173
     0
291
     0
 45
0.0
1001
ACAD
1000
AcDbSavedByObjectVersion
1070
     0
  0
VISUALSTYLE
  5
108A
102
{ACAD_XDICTIONARY
360
2751
102
}
102
{ACAD_REACTORS
330
1082
102
}
330
1082
100
AcDbVisualStyle
  2
3D Hidden
 70
     6
 71
     1
 72
     2
 73
     2
 90
        0
 40
-0.6
 41
-30.0
 62
     5
 63
     7
 74
     2
 91
        2
 64
     7
 65
   257
 75
     2
175
     1
 42
179.0
 92
        0
 66
   257
 43
1.0
 76
     1
 77
     6
 78
     2
 67
     7
 79
     3
170
     0
171
     0
290
     0
174
     0
 93
        1
 44
0.0
173
     0
291
     0
 45
0.0
1001
ACAD
1000
AcDbSavedByObjectVersion
1070
     0
  0
VISUALSTYLE
  5
1089
102
{ACAD_XDICTIONARY
360
274F
102
}
102
{ACAD_REACTORS
330
1082
102
}
330
1082
100
AcDbVisualStyle
  2
3dWireframe
 70
     5
 71
     0
 72
     2
 73
     0
 90
        0
 40
-0.6
 41
-30.0
 62
     5
 63
     7
 74
     1
 91
        4
 64
     7
 65
   257
 75
     1
175
     1
 42
1.0
 92
        0
 66
   257
 43
1.0
 76
     1
 77
     6
 78
     2
 67
     7
 79
     5
170
     0
171
     0
290
     0
174
     0
 93
        1
 44
0.0
173
     0
291
     0
 45
0.0
1001
ACAD
1000
AcDbSavedByObjectVersion
1070
     0
  0
VISUALSTYLE
  5
1087
102
{ACAD_XDICTIONARY
360
274B
102
}
102
{ACAD_REACTORS
330
1082
102
}
330
1082
100
AcDbVisualStyle
  2
Basic
 70
     7
 71
     1
 72
     0
 73
     1
 90
        0
 40
-0.6
 41
-30.0
 62
     5
 63
     7
 74
     0
 91
        4
 64
     7
 65
   257
 75
     1
175
     1
 42
1.0
 92
        8
 66
     7
 43
1.0
 76
     1
 77
     6
 78
     2
 67
     7
 79
     5
170
     0
171
     0
290
     0
174
     0
 93
        1
 44
0.0
173
     0
291
     1
 45
0.0
1001
ACAD
1000
AcDbSavedByObjectVersion
1070
     0
  0
VISUALSTYLE
  5
108E
102
{ACAD_XDICTIONARY
360
2759
102
}
102
{ACAD_REACTORS
330
1082
102
}
330
1082
100
AcDbVisualStyle
  2
Brighten
 70
    12
 71
     2
 72
     2
 73
     0
 90
        0
 40
-0.6
 41
-30.0
 62
     5
 63
     7
 74
     1
 91
        4
 64
     7
 65
   257
 75
     1
175
     1
 42
1.0
 92
        8
 66
     7
 43
1.0
 76
     1
 77
     6
 78
     2
 67
     7
 79
     5
170
     0
171
     0
290
     0
174
     0
 93
        1
 44
50.0
173
     0
291
     1
 45
0.0
1001
ACAD
1000
AcDbSavedByObjectVersion
1070
     0
  0
VISUALSTYLE
  5
1092
102
{ACAD_XDICTIONARY
360
2761
102
}
102
{ACAD_REACTORS
330
1082
102
}
330
1082
100
AcDbVisualStyle
  2
ColorChange
 70
    16
 71
     2
 72
     2
 73
     3
 90
        0
 40
-0.6
 41
-30.0
 62
     5
 63
     8
 74
     1
 91
        4
 64
     7
 65
   257
 75
     1
175
     1
 42
1.0
 92
        8
 66
     8
 43
1.0
 76
     1
 77
     6
 78
     2
 67
     7
 79
     5
170
     0
171
     0
290
     0
174
     0
 93
        1
 44
0.0
173
     0
291
     1
 45
0.0
1001
ACAD
1000
AcDbSavedByObjectVersion
1070
     0
  0
VISUALSTYLE
  5
108B
102
{ACAD_XDICTIONARY
360
2753
102
}
102
{ACAD_REACTORS
330
1082
102
}
330
1082
100
AcDbVisualStyle
  2
Conceptual
 70
     9
 71
     3
 72
     2
 73
     0
 90
        0
 40
-0.6
 41
-30.0
 62
     5
 63
     7
 74
     2
 91
        2
 64
     7
 65
   257
 75
     1
175
     1
 42
179.0
 92
        8
 66
     7
 43
1.0
 76
     1
 77
     6
 78
     2
 67
     7
 79
     3
170
     0
171
     0
290
     0
174
     0
 93
        1
 44
0.0
173
     0
291
     0
 45
0.0
1001
ACAD
1000
AcDbSavedByObjectVersion
1070
     0
  0
VISUALSTYLE
  5
108D
102
{ACAD_XDICTIONARY
360
2757
102
}
102
{ACAD_REACTORS
330
1082
102
}
330
1082
100
AcDbVisualStyle
  2
Dim
 70
    11
 71
     2
 72
     2
 73
     0
 90
        0
 40
-0.6
 41
-30.0
 62
     5
 63
     7
 74
     1
 91
        4
 64
     7
 65
   257
 75
     1
175
     1
 42
1.0
 92
        8
 66
     7
 43
1.0
 76
     1
 77
     6
 78
     2
 67
     7
 79
     5
170
     0
171
     0
290
     0
174
     0
 93
        1
 44
-50.0
173
     0
291
     1
 45
0.0
1001
ACAD
1000
AcDbSavedByObjectVersion
1070
     0
  0
VISUALSTYLE
  5
1095
102
{ACAD_XDICTIONARY
360
2767
102
}
102
{ACAD_REACTORS
330
1082
102
}
330
1082
100
AcDbVisualStyle
  2
EdgeColorOff
 70
    22
 71
     2
 72
     2
 73
     0
 90
        0
 40
-0.6
 41
-30.0
 62
     5
 63
     7
 74
     1
 91
        4
 64
     7
 65
   257
 75
     1
175
     1
 42
1.0
 92
        8
 66
     7
 43
1.0
 76
     1
 77
     6
 78
     2
 67
     7
 79
     5
170
     0
171
     0
290
     0
174
     0
 93
        1
 44
0.0
173
     0
291
     1
 45
0.0
1001
ACAD
1000
AcDbSavedByObjectVersion
1070
     0
  0
VISUALSTYLE
  5
1091
102
{ACAD_XDICTIONARY
360
275F
102
}
102
{ACAD_REACTORS
330
1082
102
}
330
1082
100
AcDbVisualStyle
  2
Facepattern
 70
    15
 71
     2
 72
     2
 73
     0
 90
        0
 40
-0.6
 41
-30.0
 62
     5
 63
     7
 74
     1
 91
        4
 64
     7
 65
   257
 75
     1
175
     1
 42
1.0
 92
        8
 66
     7
 43
1.0
 76
     1
 77
     6
 78
     2
 67
     7
 79
     5
170
     0
171
     0
290
     0
174
     0
 93
        1
 44
0.0
173
     0
291
     1
 45
0.0
1001
ACAD
1000
AcDbSavedByObjectVersion
1070
     0
  0
VISUALSTYLE
  5
1083
102
{ACAD_XDICTIONARY
360
2743
102
}
102
{ACAD_REACTORS
330
1082
102
}
330
1082
100
AcDbVisualStyle
  2
Flat
 70
     0
 71
     2
 72
     1
 73
     1
 90
        2
 40
-0.6
 41
30.0
 62
     5
 63
     7
 74
     0
 91
        4
 64
     7
 65
   257
 75
     1
175
     1
 42
1.0
 92
        8
 66
     7
 43
1.0
 76
     1
 77
     6
 78
     2
 67
     7
 79
     5
170
     0
171
     0
290
     0
174
     0
 93
       13
 44
0.0
173
     0
291
     1
 45
0.0
1001
ACAD
1000
AcDbSavedByObjectVersion
1070
     0
  0
VISUALSTYLE
  5
1084
102
{ACAD_XDICTIONARY
360
2745
102
}
102
{ACAD_REACTORS
330
1082
102
}
330
1082
100
AcDbVisualStyle
  2
FlatWithEdges
 70
     1
 71
     2
 72
     1
 73
     1
 90
        2
 40
-0.6
 41
30.0
 62
     5
 63
     7
 74
     1
 91
        4
 64
     7
 65
   257
 75
     1
175
     1
 42
1.0
 92
        0
 66
   257
 43
1.0
 76
     1
 77
     6
 78
     2
 67
     7
 79
     5
170
     0
171
     0
290
     0
174
     0
 93
       13
 44
0.0
173
     0
291
     1
 45
0.0
1001
ACAD
1000
AcDbSavedByObjectVersion
1070
     0
  0
VISUALSTYLE
  5
1085
102
{ACAD_XDICTIONARY
360
2747
102
}
102
{ACAD_REACTORS
330
1082
102
}
330
1082
100
AcDbVisualStyle
  2
Gouraud
 70
     2
 71
     2
 72
     2
 73
     1
 90
        2
 40
-0.6
 41
30.0
 62
     5
 63
     7
 74
     0
 91
        4
 64
     7
 65
   257
 75
     1
175
     1
 42
1.0
 92
        0
 66
     7
 43
1.0
 76
     1
 77
     6
 78
     2
 67
     7
 79
     5
170
     0
171
     0
290
     0
174
     0
 93
       13
 44
0.0
173
     0
291
     1
 45
0.0
1001
ACAD
1000
AcDbSavedByObjectVersion
1070
     0
  0
VISUALSTYLE
  5
1086
102
{ACAD_XDICTIONARY
360
2749
102
}
102
{ACAD_REACTORS
330
1082
102
}
330
1082
100
AcDbVisualStyle
  2
GouraudWithEdges
 70
     3
 71
     2
 72
     2
 73
     1
 90
        2
 40
-0.6
 41
30.0
 62
     5
 63
     7
 74
     1
 91
        4
 64
     7
 65
   257
 75
     1
175
     1
 42
1.0
 92
        0
 66
   257
 43
1.0
 76
     1
 77
     6
 78
     2
 67
     7
 79
     5
170
     0
171
     0
290
     0
174
     0
 93
       13
 44
0.0
173
     0
291
     1
 45
0.0
1001
ACAD
1000
AcDbSavedByObjectVersion
1070
     0
  0
VISUALSTYLE
  5
1093
102
{ACAD_XDICTIONARY
360
2763
102
}
102
{ACAD_REACTORS
330
1082
102
}
330
1082
100
AcDbVisualStyle
  2
JitterOff
 70
    20
 71
     2
 72
     2
 73
     0
 90
        0
 40
-0.6
 41
-30.0
 62
     5
 63
     7
 74
     1
 91
        4
 64
     7
 65
   257
 75
     1
175
     1
 42
1.0
 92
       10
 66
     7
 43
1.0
 76
     1
 77
     6
 78
     2
 67
     7
 79
     5
170
     0
171
     0
290
     0
174
     0
 93
        1
 44
0.0
173
     0
291
     1
 45
0.0
1001
ACAD
1000
AcDbSavedByObjectVersion
1070
     0
  0
VISUALSTYLE
  5
1090
102
{ACAD_XDICTIONARY
360
275D
102
}
102
{ACAD_REACTORS
330
1082
102
}
330
1082
100
AcDbVisualStyle
  2
Linepattern
 70
    14
 71
     2
 72
     2
 73
     0
 90
        0
 40
-0.6
 41
-30.0
 62
     5
 63
     7
 74
     1
 91
        4
 64
     7
 65
   257
 75
     7
175
     7
 42
1.0
 92
        8
 66
     7
 43
1.0
 76
     1
 77
     6
 78
     2
 67
     7
 79
     5
170
     0
171
     0
290
     0
174
     0
 93
        1
 44
0.0
173
     0
291
     1
 45
0.0
1001
ACAD
1000
AcDbSavedByObjectVersion
1070
     0
  0
VISUALSTYLE
  5
1094
102
{ACAD_XDICTIONARY
360
2765
102
}
102
{ACAD_REACTORS
330
1082
102
}
330
1082
100
AcDbVisualStyle
  2
OverhangOff
 70
    21
 71
     2
 72
     2
 73
     0
 90
        0
 40
-0.6
 41
-30.0
 62
     5
 63
     7
 74
     1
 91
        4
 64
     7
 65
   257
 75
     1
175
     1
 42
1.0
 92
        9
 66
     7
 43
1.0
 76
     1
 77
     6
 78
     2
 67
     7
 79
     5
170
     0
171
     0
290
     0
174
     0
 93
        1
 44
0.0
173
     0
291
     1
 45
0.0
1001
ACAD
1000
AcDbSavedByObjectVersion
1070
     0
  0
VISUALSTYLE
  5
108C
102
{ACAD_XDICTIONARY
360
2755
102
}
102
{ACAD_REACTORS
330
1082
102
}
330
1082
100
AcDbVisualStyle
  2
Realistic
 70
     8
 71
     2
 72
     2
 73
     0
 90
        0
 40
-0.6
 41
-30.0
 62
     5
 63
     7
 74
     1
 91
        0
 64
     7
 65
   257
 75
     1
175
     1
 42
1.0
 92
        8
 66
     8
 43
1.0
 76
     1
 77
     6
 78
     2
 67
     7
 79
     5
170
     0
171
     0
290
     0
174
     0
 93
       13
 44
0.0
173
     0
291
     0
 45
0.0
1001
ACAD
1000
AcDbSavedByObjectVersion
1070
     0
  0
VISUALSTYLE
  5
108F
102
{ACAD_XDICTIONARY
360
275B
102
}
102
{ACAD_REACTORS
330
1082
102
}
330
1082
100
AcDbVisualStyle
  2
Thicken
 70
    13
 71
     2
 72
     2
 73
     0
 90
        0
 40
-0.6
 41
-30.0
 62
     5
 63
     7
 74
     1
 91
        4
 64
     7
 65
   257
 75
     1
175
     1
 42
1.0
 92
       12
 66
     7
 43
1.0
 76
     1
 77
     6
 78
     2
 67
     7
 79
     5
170
     0
171
     0
290
     0
174
     0
 93
        1
 44
0.0
173
     0
291
     1
 45
0.0
1001
ACAD
1000
AcDbSavedByObjectVersion
1070
     0
  0
DICTIONARYVAR
  5
22A3
102
{ACAD_REACTORS
330
3D
102
}
330
3D
100
DictionaryVariables
280
     0
  1
1:1
  0
DICTIONARYVAR
  5
22A2
102
{ACAD_REACTORS
330
3D
102
}
330
3D
100
DictionaryVariables
280
     0
  1
STANDARD
  0
DICTIONARYVAR
  5
1049
102
{ACAD_REACTORS
330
3D
102
}
330
3D
100
DictionaryVariables
280
     0
  1
STANDARD
  0
DICTIONARYVAR
  5
3F
102
{ACAD_REACTORS
330
3D
102
}
330
3D
100
DictionaryVariables
280
     0
  1
2
  0
DICTIONARYVAR
  5
3E
102
{ACAD_REACTORS
330
3D
102
}
330
3D
100
DictionaryVariables
280
     0
  1
1
  0
DICTIONARYVAR
  5
22A5
102
{ACAD_REACTORS
330
3D
102
}
330
3D
100
DictionaryVariables
280
     0
  1
0
  0
DICTIONARYVAR
  5
22A4
102
{ACAD_REACTORS
330
3D
102
}
330
3D
100
DictionaryVariables
280
     0
  1
127
  0
DICTIONARYVAR
  5
2733
102
{ACAD_REACTORS
330
3D
102
}
330
3D
100
DictionaryVariables
280
     0
  1
2
  0
XRECORD
  5
1067
102
{ACAD_REACTORS
330
1066
102
}
330
1066
100
AcDbXrecord
280
     1
  0
DICTIONARY
  5
2739
330
1E
100
AcDbDictionary
280
     1
281
     1
  3
ACAD_XREC_ROUNDTRIP
360
273A
  0
DICTIONARY
  5
273D
330
26
100
AcDbDictionary
280
     1
281
     1
  3
ACAD_XREC_ROUNDTRIP
360
273E
  0
DICTIONARY
  5
273B
330
22
100
AcDbDictionary
280
     1
281
     1
  3
ACAD_XREC_ROUNDTRIP
360
273C
  0
DICTIONARY
  5
1073
330
1072
100
AcDbDictionary
280
     1
281
     1
  3
ACAD_XREC_ROUNDTRIP
360
2741
  3
BUMPTILE
360
1075
  3
DIFFUSETILE
360
1074
  3
OPACITYTILE
360
1078
  3
REFLECTIONTILE
360
1077
  3
REFRACTIONTILE
360
1079
  3
SPECULARTILE
360
1076
  0
DICTIONARY
  5
106B
330
106A
100
AcDbDictionary
280
     1
281
     1
  3
ACAD_XREC_ROUNDTRIP
360
2740
  3
BUMPTILE
360
106D
  3
DIFFUSETILE
360
106C
  3
OPACITYTILE
360
1070
  3
REFLECTIONTILE
360
106F
  3
REFRACTIONTILE
360
1071
  3
SPECULARTILE
360
106E
  0
DICTIONARY
  5
107B
330
107A
100
AcDbDictionary
280
     1
281
     1
  3
ACAD_XREC_ROUNDTRIP
360
2742
  3
BUMPTILE
360
107D
  3
DIFFUSETILE
360
107C
  3
OPACITYTILE
360
1080
  3
REFLECTIONTILE
360
107F
  3
REFRACTIONTILE
360
1081
  3
SPECULARTILE
360
107E
  0
DICTIONARY
  5
225F
330
EE8
100
AcDbDictionary
280
     1
281
     1
  3
ACAD_ROUNDTRIP_2008_TABLESTYLE_CELLSTYLEMAP
360
2734
  3
ACAD_XREC_ROUNDTRIP
360
273F
  0
DICTIONARY
  5
274D
330
1088
100
AcDbDictionary
280
     1
281
     1
  3
ACAD_XREC_ROUNDTRIP
360
274E
  0
DICTIONARY
  5
2751
330
108A
100
AcDbDictionary
280
     1
281
     1
  3
ACAD_XREC_ROUNDTRIP
360
2752
  0
DICTIONARY
  5
274F
330
1089
100
AcDbDictionary
280
     1
281
     1
  3
ACAD_XREC_ROUNDTRIP
360
2750
  0
DICTIONARY
  5
274B
330
1087
100
AcDbDictionary
280
     1
281
     1
  3
ACAD_XREC_ROUNDTRIP
360
274C
  0
DICTIONARY
  5
2759
330
108E
100
AcDbDictionary
280
     1
281
     1
  3
ACAD_XREC_ROUNDTRIP
360
275A
  0
DICTIONARY
  5
2761
330
1092
100
AcDbDictionary
280
     1
281
     1
  3
ACAD_XREC_ROUNDTRIP
360
2762
  0
DICTIONARY
  5
2753
330
108B
100
AcDbDictionary
280
     1
281
     1
  3
ACAD_XREC_ROUNDTRIP
360
2754
  0
DICTIONARY
  5
2757
330
108D
100
AcDbDictionary
280
     1
281
     1
  3
ACAD_XREC_ROUNDTRIP
360
2758
  0
DICTIONARY
  5
2767
330
1095
100
AcDbDictionary
280
     1
281
     1
  3
ACAD_XREC_ROUNDTRIP
360
2768
  0
DICTIONARY
  5
275F
330
1091
100
AcDbDictionary
280
     1
281
     1
  3
ACAD_XREC_ROUNDTRIP
360
2760
  0
DICTIONARY
  5
2743
330
1083
100
AcDbDictionary
280
     1
281
     1
  3
ACAD_XREC_ROUNDTRIP
360
2744
  0
DICTIONARY
  5
2745
330
1084
100
AcDbDictionary
280
     1
281
     1
  3
ACAD_XREC_ROUNDTRIP
360
2746
  0
DICTIONARY
  5
2747
330
1085
100
AcDbDictionary
280
     1
281
     1
  3
ACAD_XREC_ROUNDTRIP
360
2748
  0
DICTIONARY
  5
2749
330
1086
100
AcDbDictionary
280
     1
281
     1
  3
ACAD_XREC_ROUNDTRIP
360
274A
  0
DICTIONARY
  5
2763
330
1093
100
AcDbDictionary
280
     1
281
     1
  3
ACAD_XREC_ROUNDTRIP
360
2764
  0
DICTIONARY
  5
275D
330
1090
100
AcDbDictionary
280
     1
281
     1
  3
ACAD_XREC_ROUNDTRIP
360
275E
  0
DICTIONARY
  5
2765
330
1094
100
AcDbDictionary
280
     1
281
     1
  3
ACAD_XREC_ROUNDTRIP
360
2766
  0
DICTIONARY
  5
2755
330
108C
100
AcDbDictionary
280
     1
281
     1
  3
ACAD_XREC_ROUNDTRIP
360
2756
  0
DICTIONARY
  5
275B
330
108F
100
AcDbDictionary
280
     1
281
     1
  3
ACAD_XREC_ROUNDTRIP
360
275C
  0
XRECORD
  5
273A
102
{ACAD_REACTORS
330
2739
102
}
330
2739
100
AcDbXrecord
280
     1
102
SHADEPLOT
 70
     0
102
SHADEPLOTRESLEVEL
 70
     2
102
SHADEPLOTCUSTOMDPI
 70
   300
  0
XRECORD
  5
273E
102
{ACAD_REACTORS
330
273D
102
}
330
273D
100
AcDbXrecord
280
     1
102
SHADEPLOT
 70
     0
102
SHADEPLOTRESLEVEL
 70
     2
102
SHADEPLOTCUSTOMDPI
 70
   300
  0
XRECORD
  5
273C
102
{ACAD_REACTORS
330
273B
102
}
330
273B
100
AcDbXrecord
280
     1
102
SHADEPLOT
 70
     0
102
SHADEPLOTRESLEVEL
 70
     2
102
SHADEPLOTCUSTOMDPI
 70
   300
  0
XRECORD
  5
2741
102
{ACAD_REACTORS
330
1073
102
}
330
1073
100
AcDbXrecord
280
     1
102
MATERIAL
148
0.0
149
0.0
149
0.0
 93
        0
 94
      127
282
     0
 72
     0
 77
     0
171
     0
175
     0
179
     0
273
     0
  0
XRECORD
  5
1075
102
{ACAD_REACTORS
330
1073
102
}
330
1073
100
AcDbXrecord
280
     1
270
     1
271
     1
  0
XRECORD
  5
1074
102
{ACAD_REACTORS
330
1073
102
}
330
1073
100
AcDbXrecord
280
     1
270
     1
271
     1
  0
XRECORD
  5
1078
102
{ACAD_REACTORS
330
1073
102
}
330
1073
100
AcDbXrecord
280
     1
270
     1
271
     1
  0
XRECORD
  5
1077
102
{ACAD_REACTORS
330
1073
102
}
330
1073
100
AcDbXrecord
280
     1
270
     1
271
     1
  0
XRECORD
  5
1079
102
{ACAD_REACTORS
330
1073
102
}
330
1073
100
AcDbXrecord
280
     1
270
     1
271
     1
  0
XRECORD
  5
1076
102
{ACAD_REACTORS
330
1073
102
}
330
1073
100
AcDbXrecord
280
     1
270
     1
271
     1
  0
XRECORD
  5
2740
102
{ACAD_REACTORS
330
106B
102
}
330
106B
100
AcDbXrecord
280
     1
102
MATERIAL
148
0.0
149
0.0
149
0.0
 93
        0
 94
      127
282
     0
 72
     0
 77
     0
171
     0
175
     0
179
     0
273
     0
  0
XRECORD
  5
106D
102
{ACAD_REACTORS
330
106B
102
}
330
106B
100
AcDbXrecord
280
     1
270
     1
271
     1
  0
XRECORD
  5
106C
102
{ACAD_REACTORS
330
106B
102
}
330
106B
100
AcDbXrecord
280
     1
270
     1
271
     1
  0
XRECORD
  5
1070
102
{ACAD_REACTORS
330
106B
102
}
330
106B
100
AcDbXrecord
280
     1
270
     1
271
     1
  0
XRECORD
  5
106F
102
{ACAD_REACTORS
330
106B
102
}
330
106B
100
AcDbXrecord
280
     1
270
     1
271
     1
  0
XRECORD
  5
1071
102
{ACAD_REACTORS
330
106B
102
}
330
106B
100
AcDbXrecord
280
     1
270
     1
271
     1
  0
XRECORD
  5
106E
102
{ACAD_REACTORS
330
106B
102
}
330
106B
100
AcDbXrecord
280
     1
270
     1
271
     1
  0
XRECORD
  5
2742
102
{ACAD_REACTORS
330
107B
102
}
330
107B
100
AcDbXrecord
280
     1
102
MATERIAL
148
0.0
149
0.0
149
0.0
 93
        0
 94
      127
282
     0
 72
     0
 77
     0
171
     0
175
     0
179
     0
273
     0
  0
XRECORD
  5
107D
102
{ACAD_REACTORS
330
107B
102
}
330
107B
100
AcDbXrecord
280
     1
270
     1
271
     1
  0
XRECORD
  5
107C
102
{ACAD_REACTORS
330
107B
102
}
330
107B
100
AcDbXrecord
280
     1
270
     1
271
     1
  0
XRECORD
  5
1080
102
{ACAD_REACTORS
330
107B
102
}
330
107B
100
AcDbXrecord
280
     1
270
     1
271
     1
  0
XRECORD
  5
107F
102
{ACAD_REACTORS
330
107B
102
}
330
107B
100
AcDbXrecord
280
     1
270
     1
271
     1
  0
XRECORD
  5
1081
102
{ACAD_REACTORS
330
107B
102
}
330
107B
100
AcDbXrecord
280
     1
270
     1
271
     1
  0
XRECORD
  5
107E
102
{ACAD_REACTORS
330
107B
102
}
330
107B
100
AcDbXrecord
280
     1
270
     1
271
     1
  0
CELLSTYLEMAP
  5
2734
102
{ACAD_REACTORS
330
225F
102
}
330
225F
100
AcDbCellStyleMap
 90
        3
300
CELLSTYLE
  1
TABLEFORMAT_BEGIN
 90
        5
170
     1
 91
        0
 92
    32768
 62
   257
 93
        1
300
CONTENTFORMAT
  1
CONTENTFORMAT_BEGIN
 90
        0
 91
        0
 92
        4
 93
        0
300

 40
0.0
140
1.0
 94
        5
 62
     0
340
11
144
6.0
309
CONTENTFORMAT_END
171
     1
301
MARGIN
  1
CELLMARGIN_BEGIN
 40
1.5
 40
1.5
 40
1.5
 40
1.5
 40
0.18
 40
0.18
309
CELLMARGIN_END
 94
        6
 95
        1
302
GRIDFORMAT
  1
GRIDFORMAT_BEGIN
 90
        0
 91
        1
 62
     0
 92
       -2
340
0
 93
        0
 40
0.045
309
GRIDFORMAT_END
 95
        2
302
GRIDFORMAT
  1
GRIDFORMAT_BEGIN
 90
        0
 91
        1
 62
     0
 92
       -2
340
0
 93
        0
 40
0.045
309
GRIDFORMAT_END
 95
        4
302
GRIDFORMAT
  1
GRIDFORMAT_BEGIN
 90
        0
 91
        1
 62
     0
 92
       -2
340
0
 93
        0
 40
0.045
309
GRIDFORMAT_END
 95
        8
302
GRIDFORMAT
  1
GRIDFORMAT_BEGIN
 90
        0
 91
        1
 62
     0
 92
       -2
340
0
 93
        0
 40
0.045
309
GRIDFORMAT_END
 95
       16
302
GRIDFORMAT
  1
GRIDFORMAT_BEGIN
 90
        0
 91
        1
 62
     0
 92
       -2
340
0
 93
        0
 40
0.045
309
GRIDFORMAT_END
 95
       32
302
GRIDFORMAT
  1
GRIDFORMAT_BEGIN
 90
        0
 91
        1
 62
     0
 92
       -2
340
0
 93
        0
 40
0.045
309
GRIDFORMAT_END
309
TABLEFORMAT_END
  1
CELLSTYLE_BEGIN
 90
        1
 91
        1
300
_TITLE
309
CELLSTYLE_END
300
CELLSTYLE
  1
TABLEFORMAT_BEGIN
 90
        5
170
     1
 91
        0
 92
        0
 62
   257
 93
        1
300
CONTENTFORMAT
  1
CONTENTFORMAT_BEGIN
 90
        0
 91
        0
 92
        4
 93
        0
300

 40
0.0
140
1.0
 94
        5
 62
     0
340
11
144
4.5
309
CONTENTFORMAT_END
171
     1
301
MARGIN
  1
CELLMARGIN_BEGIN
 40
1.5
 40
1.5
 40
1.5
 40
1.5
 40
0.18
 40
0.18
309
CELLMARGIN_END
 94
        6
 95
        1
302
GRIDFORMAT
  1
GRIDFORMAT_BEGIN
 90
        0
 91
        1
 62
     0
 92
       -2
340
0
 93
        0
 40
0.045
309
GRIDFORMAT_END
 95
        2
302
GRIDFORMAT
  1
GRIDFORMAT_BEGIN
 90
        0
 91
        1
 62
     0
 92
       -2
340
0
 93
        0
 40
0.045
309
GRIDFORMAT_END
 95
        4
302
GRIDFORMAT
  1
GRIDFORMAT_BEGIN
 90
        0
 91
        1
 62
     0
 92
       -2
340
0
 93
        0
 40
0.045
309
GRIDFORMAT_END
 95
        8
302
GRIDFORMAT
  1
GRIDFORMAT_BEGIN
 90
        0
 91
        1
 62
     0
 92
       -2
340
0
 93
        0
 40
0.045
309
GRIDFORMAT_END
 95
       16
302
GRIDFORMAT
  1
GRIDFORMAT_BEGIN
 90
        0
 91
        1
 62
     0
 92
       -2
340
0
 93
        0
 40
0.045
309
GRIDFORMAT_END
 95
       32
302
GRIDFORMAT
  1
GRIDFORMAT_BEGIN
 90
        0
 91
        1
 62
     0
 92
       -2
340
0
 93
        0
 40
0.045
309
GRIDFORMAT_END
309
TABLEFORMAT_END
  1
CELLSTYLE_BEGIN
 90
        2
 91
        1
300
_HEADER
309
CELLSTYLE_END
300
CELLSTYLE
  1
TABLEFORMAT_BEGIN
 90
        5
170
     1
 91
        0
 92
        0
 62
   257
 93
        1
300
CONTENTFORMAT
  1
CONTENTFORMAT_BEGIN
 90
        0
 91
        0
 92
        4
 93
        0
300

 40
0.0
140
1.0
 94
        2
 62
     0
340
11
144
4.5
309
CONTENTFORMAT_END
171
     1
301
MARGIN
  1
CELLMARGIN_BEGIN
 40
1.5
 40
1.5
 40
1.5
 40
1.5
 40
0.18
 40
0.18
309
CELLMARGIN_END
 94
        6
 95
        1
302
GRIDFORMAT
  1
GRIDFORMAT_BEGIN
 90
        0
 91
        1
 62
     0
 92
       -2
340
0
 93
        0
 40
0.045
309
GRIDFORMAT_END
 95
        2
302
GRIDFORMAT
  1
GRIDFORMAT_BEGIN
 90
        0
 91
        1
 62
     0
 92
       -2
340
0
 93
        0
 40
0.045
309
GRIDFORMAT_END
 95
        4
302
GRIDFORMAT
  1
GRIDFORMAT_BEGIN
 90
        0
 91
        1
 62
     0
 92
       -2
340
0
 93
        0
 40
0.045
309
GRIDFORMAT_END
 95
        8
302
GRIDFORMAT
  1
GRIDFORMAT_BEGIN
 90
        0
 91
        1
 62
     0
 92
       -2
340
0
 93
        0
 40
0.045
309
GRIDFORMAT_END
 95
       16
302
GRIDFORMAT
  1
GRIDFORMAT_BEGIN
 90
        0
 91
        1
 62
     0
 92
       -2
340
0
 93
        0
 40
0.045
309
GRIDFORMAT_END
 95
       32
302
GRIDFORMAT
  1
GRIDFORMAT_BEGIN
 90
        0
 91
        1
 62
     0
 92
       -2
340
0
 93
        0
 40
0.045
309
GRIDFORMAT_END
309
TABLEFORMAT_END
  1
CELLSTYLE_BEGIN
 90
        3
 91
        2
300
_DATA
309
CELLSTYLE_END
  0
XRECORD
  5
273F
102
{ACAD_REACTORS
330
225F
102
}
330
225F
100
AcDbXrecord
280
     1
102
ACAD_ROUNDTRIP_PRE2007_TABLESTYLE
 90
        4
 91
        0
  1

 92
        4
 93
        0
  2

 94
        4
 95
        0
  3

  0
XRECORD
  5
274E
102
{ACAD_REACTORS
330
274D
102
}
330
274D
100
AcDbXrecord
280
     1
102
RTVSPropertyOp0
 70
     1
102
RTVSPropertyOp1
 70
     1
102
RTVSPropertyOp2
 70
     1
102
RTVSPropertyOp3
 70
     1
102
RTVSPropertyOp4
 70
     1
102
RTVSPropertyOp5
 70
     1
102
RTVSPropertyOp6
 70
     1
102
RTVSPropertyOp7
 70
     1
102
RTVSPropertyOp8
 70
     1
102
RTVSPropertyOp9
 70
     1
102
RTVSPropertyOp10
 70
     1
102
RTVSPropertyOp11
 70
     1
102
RTVSPropertyOp12
 70
     1
102
RTVSPropertyOp13
 70
     1
102
RTVSPropertyOp14
 70
     1
102
RTVSPropertyOp15
 70
     1
102
RTVSPropertyOp16
 70
     1
102
RTVSPropertyOp17
 70
     1
102
RTVSPropertyOp18
 70
     1
102
RTVSPropertyOp19
 70
     1
102
RTVSPropertyOp20
 70
     1
102
RTVSPropertyOp21
 70
     1
102
RTVSPropertyOp22
 70
     1
102
RTVSPropertyOp23
 70
     1
102
RTVSPropertyOp24
 70
     1
102
RTVSPropertyOp25
 70
     1
102
RTVSPropertyOp26
 70
     1
102
RTVSPropertyOp27
 70
     1
  0
XRECORD
  5
2752
102
{ACAD_REACTORS
330
2751
102
}
330
2751
100
AcDbXrecord
280
     1
102
RTVSPropertyOp0
 70
     1
102
RTVSPropertyOp1
 70
     1
102
RTVSPropertyOp2
 70
     1
102
RTVSPropertyOp3
 70
     1
102
RTVSPropertyOp4
 70
     1
102
RTVSPropertyOp5
 70
     1
102
RTVSPropertyOp6
 70
     1
102
RTVSPropertyOp7
 70
     1
102
RTVSPropertyOp8
 70
     1
102
RTVSPropertyOp9
 70
     1
102
RTVSPropertyOp10
 70
     1
102
RTVSPropertyOp11
 70
     1
102
RTVSPropertyOp12
 70
     1
102
RTVSPropertyOp13
 70
     1
102
RTVSPropertyOp14
 70
     1
102
RTVSPropertyOp15
 70
     1
102
RTVSPropertyOp16
 70
     1
102
RTVSPropertyOp17
 70
     1
102
RTVSPropertyOp18
 70
     1
102
RTVSPropertyOp19
 70
     1
102
RTVSPropertyOp20
 70
     1
102
RTVSPropertyOp21
 70
     1
102
RTVSPropertyOp22
 70
     1
102
RTVSPropertyOp23
 70
     1
102
RTVSPropertyOp24
 70
     1
102
RTVSPropertyOp25
 70
     1
102
RTVSPropertyOp26
 70
     1
102
RTVSPropertyOp27
 70
     1
  0
XRECORD
  5
2750
102
{ACAD_REACTORS
330
274F
102
}
330
274F
100
AcDbXrecord
280
     1
102
RTVSPropertyOp0
 70
     1
102
RTVSPropertyOp1
 70
     1
102
RTVSPropertyOp2
 70
     1
102
RTVSPropertyOp3
 70
     1
102
RTVSPropertyOp4
 70
     1
102
RTVSPropertyOp5
 70
     1
102
RTVSPropertyOp6
 70
     1
102
RTVSPropertyOp7
 70
     1
102
RTVSPropertyOp8
 70
     1
102
RTVSPropertyOp9
 70
     1
102
RTVSPropertyOp10
 70
     1
102
RTVSPropertyOp11
 70
     1
102
RTVSPropertyOp12
 70
     1
102
RTVSPropertyOp13
 70
     1
102
RTVSPropertyOp14
 70
     1
102
RTVSPropertyOp15
 70
     1
102
RTVSPropertyOp16
 70
     1
102
RTVSPropertyOp17
 70
     1
102
RTVSPropertyOp18
 70
     1
102
RTVSPropertyOp19
 70
     1
102
RTVSPropertyOp20
 70
     1
102
RTVSPropertyOp21
 70
     1
102
RTVSPropertyOp22
 70
     1
102
RTVSPropertyOp23
 70
     1
102
RTVSPropertyOp24
 70
     1
102
RTVSPropertyOp25
 70
     1
102
RTVSPropertyOp26
 70
     1
102
RTVSPropertyOp27
 70
     1
  0
XRECORD
  5
274C
102
{ACAD_REACTORS
330
274B
102
}
330
274B
100
AcDbXrecord
280
     1
102
RTVSPropertyOp0
 70
     1
102
RTVSPropertyOp1
 70
     1
102
RTVSPropertyOp2
 70
     1
102
RTVSPropertyOp3
 70
     1
102
RTVSPropertyOp4
 70
     1
102
RTVSPropertyOp5
 70
     1
102
RTVSPropertyOp6
 70
     1
102
RTVSPropertyOp7
 70
     1
102
RTVSPropertyOp8
 70
     1
102
RTVSPropertyOp9
 70
     1
102
RTVSPropertyOp10
 70
     1
102
RTVSPropertyOp11
 70
     1
102
RTVSPropertyOp12
 70
     1
102
RTVSPropertyOp13
 70
     1
102
RTVSPropertyOp14
 70
     1
102
RTVSPropertyOp15
 70
     1
102
RTVSPropertyOp16
 70
     1
102
RTVSPropertyOp17
 70
     1
102
RTVSPropertyOp18
 70
     1
102
RTVSPropertyOp19
 70
     1
102
RTVSPropertyOp20
 70
     1
102
RTVSPropertyOp21
 70
     1
102
RTVSPropertyOp22
 70
     1
102
RTVSPropertyOp23
 70
     1
102
RTVSPropertyOp24
 70
     1
102
RTVSPropertyOp25
 70
     1
102
RTVSPropertyOp26
 70
     1
102
RTVSPropertyOp27
 70
     1
  0
XRECORD
  5
275A
102
{ACAD_REACTORS
330
2759
102
}
330
2759
100
AcDbXrecord
280
     1
102
RTVSPropertyOp0
 70
     1
102
RTVSPropertyOp1
 70
     1
102
RTVSPropertyOp2
 70
     1
102
RTVSPropertyOp3
 70
     1
102
RTVSPropertyOp4
 70
     1
102
RTVSPropertyOp5
 70
     1
102
RTVSPropertyOp6
 70
     1
102
RTVSPropertyOp7
 70
     1
102
RTVSPropertyOp8
 70
     1
102
RTVSPropertyOp9
 70
     1
102
RTVSPropertyOp10
 70
     1
102
RTVSPropertyOp11
 70
     1
102
RTVSPropertyOp12
 70
     1
102
RTVSPropertyOp13
 70
     1
102
RTVSPropertyOp14
 70
     1
102
RTVSPropertyOp15
 70
     1
102
RTVSPropertyOp16
 70
     1
102
RTVSPropertyOp17
 70
     1
102
RTVSPropertyOp18
 70
     1
102
RTVSPropertyOp19
 70
     1
102
RTVSPropertyOp20
 70
     1
102
RTVSPropertyOp21
 70
     1
102
RTVSPropertyOp22
 70
     1
102
RTVSPropertyOp23
 70
     1
102
RTVSPropertyOp24
 70
     1
102
RTVSPropertyOp25
 70
     1
102
RTVSPropertyOp26
 70
     1
102
RTVSPropertyOp27
 70
     1
  0
XRECORD
  5
2762
102
{ACAD_REACTORS
330
2761
102
}
330
2761
100
AcDbXrecord
280
     1
102
RTVSPropertyOp0
 70
     1
102
RTVSPropertyOp1
 70
     1
102
RTVSPropertyOp2
 70
     1
102
RTVSPropertyOp3
 70
     1
102
RTVSPropertyOp4
 70
     1
102
RTVSPropertyOp5
 70
     1
102
RTVSPropertyOp6
 70
     1
102
RTVSPropertyOp7
 70
     1
102
RTVSPropertyOp8
 70
     1
102
RTVSPropertyOp9
 70
     1
102
RTVSPropertyOp10
 70
     1
102
RTVSPropertyOp11
 70
     1
102
RTVSPropertyOp12
 70
     1
102
RTVSPropertyOp13
 70
     1
102
RTVSPropertyOp14
 70
     1
102
RTVSPropertyOp15
 70
     1
102
RTVSPropertyOp16
 70
     1
102
RTVSPropertyOp17
 70
     1
102
RTVSPropertyOp18
 70
     1
102
RTVSPropertyOp19
 70
     1
102
RTVSPropertyOp20
 70
     1
102
RTVSPropertyOp21
 70
     1
102
RTVSPropertyOp22
 70
     1
102
RTVSPropertyOp23
 70
     1
102
RTVSPropertyOp24
 70
     1
102
RTVSPropertyOp25
 70
     1
102
RTVSPropertyOp26
 70
     1
102
RTVSPropertyOp27
 70
     1
  0
XRECORD
  5
2754
102
{ACAD_REACTORS
330
2753
102
}
330
2753
100
AcDbXrecord
280
     1
102
RTVSPropertyOp0
 70
     1
102
RTVSPropertyOp1
 70
     1
102
RTVSPropertyOp2
 70
     1
102
RTVSPropertyOp3
 70
     1
102
RTVSPropertyOp4
 70
     1
102
RTVSPropertyOp5
 70
     1
102
RTVSPropertyOp6
 70
     1
102
RTVSPropertyOp7
 70
     1
102
RTVSPropertyOp8
 70
     1
102
RTVSPropertyOp9
 70
     1
102
RTVSPropertyOp10
 70
     1
102
RTVSPropertyOp11
 70
     1
102
RTVSPropertyOp12
 70
     1
102
RTVSPropertyOp13
 70
     1
102
RTVSPropertyOp14
 70
     1
102
RTVSPropertyOp15
 70
     1
102
RTVSPropertyOp16
 70
     1
102
RTVSPropertyOp17
 70
     1
102
RTVSPropertyOp18
 70
     1
102
RTVSPropertyOp19
 70
     1
102
RTVSPropertyOp20
 70
     1
102
RTVSPropertyOp21
 70
     1
102
RTVSPropertyOp22
 70
     1
102
RTVSPropertyOp23
 70
     1
102
RTVSPropertyOp24
 70
     1
102
RTVSPropertyOp25
 70
     1
102
RTVSPropertyOp26
 70
     1
102
RTVSPropertyOp27
 70
     1
  0
XRECORD
  5
2758
102
{ACAD_REACTORS
330
2757
102
}
330
2757
100
AcDbXrecord
280
     1
102
RTVSPropertyOp0
 70
     1
102
RTVSPropertyOp1
 70
     1
102
RTVSPropertyOp2
 70
     1
102
RTVSPropertyOp3
 70
     1
102
RTVSPropertyOp4
 70
     1
102
RTVSPropertyOp5
 70
     1
102
RTVSPropertyOp6
 70
     1
102
RTVSPropertyOp7
 70
     1
102
RTVSPropertyOp8
 70
     1
102
RTVSPropertyOp9
 70
     1
102
RTVSPropertyOp10
 70
     1
102
RTVSPropertyOp11
 70
     1
102
RTVSPropertyOp12
 70
     1
102
RTVSPropertyOp13
 70
     1
102
RTVSPropertyOp14
 70
     1
102
RTVSPropertyOp15
 70
     1
102
RTVSPropertyOp16
 70
     1
102
RTVSPropertyOp17
 70
     1
102
RTVSPropertyOp18
 70
     1
102
RTVSPropertyOp19
 70
     1
102
RTVSPropertyOp20
 70
     1
102
RTVSPropertyOp21
 70
     1
102
RTVSPropertyOp22
 70
     1
102
RTVSPropertyOp23
 70
     1
102
RTVSPropertyOp24
 70
     1
102
RTVSPropertyOp25
 70
     1
102
RTVSPropertyOp26
 70
     1
102
RTVSPropertyOp27
 70
     1
  0
XRECORD
  5
2768
102
{ACAD_REACTORS
330
2767
102
}
330
2767
100
AcDbXrecord
280
     1
102
RTVSPropertyOp0
 70
     0
102
RTVSPropertyOp1
 70
     0
102
RTVSPropertyOp2
 70
     0
102
RTVSPropertyOp3
 70
     0
102
RTVSPropertyOp4
 70
     0
102
RTVSPropertyOp5
 70
     0
102
RTVSPropertyOp6
 70
     0
102
RTVSPropertyOp7
 70
     0
102
RTVSPropertyOp8
 70
     0
102
RTVSPropertyOp9
 70
     0
102
RTVSPropertyOp10
 70
     0
102
RTVSPropertyOp11
 70
     0
102
RTVSPropertyOp12
 70
     0
102
RTVSPropertyOp13
 70
     0
102
RTVSPropertyOp14
 70
     2
102
RTVSPropertyOp15
 70
     0
102
RTVSPropertyOp16
 70
     0
102
RTVSPropertyOp17
 70
     0
102
RTVSPropertyOp18
 70
     0
102
RTVSPropertyOp19
 70
     0
102
RTVSPropertyOp20
 70
     0
102
RTVSPropertyOp21
 70
     0
102
RTVSPropertyOp22
 70
     0
102
RTVSPropertyOp23
 70
     0
102
RTVSPropertyOp24
 70
     0
102
RTVSPropertyOp25
 70
     0
102
RTVSPropertyOp26
 70
     0
102
RTVSPropertyOp27
 70
     0
  0
XRECORD
  5
2760
102
{ACAD_REACTORS
330
275F
102
}
330
275F
100
AcDbXrecord
280
     1
102
RTVSPropertyOp0
 70
     1
102
RTVSPropertyOp1
 70
     1
102
RTVSPropertyOp2
 70
     1
102
RTVSPropertyOp3
 70
     1
102
RTVSPropertyOp4
 70
     1
102
RTVSPropertyOp5
 70
     1
102
RTVSPropertyOp6
 70
     1
102
RTVSPropertyOp7
 70
     1
102
RTVSPropertyOp8
 70
     1
102
RTVSPropertyOp9
 70
     1
102
RTVSPropertyOp10
 70
     1
102
RTVSPropertyOp11
 70
     1
102
RTVSPropertyOp12
 70
     1
102
RTVSPropertyOp13
 70
     1
102
RTVSPropertyOp14
 70
     1
102
RTVSPropertyOp15
 70
     1
102
RTVSPropertyOp16
 70
     1
102
RTVSPropertyOp17
 70
     1
102
RTVSPropertyOp18
 70
     1
102
RTVSPropertyOp19
 70
     1
102
RTVSPropertyOp20
 70
     1
102
RTVSPropertyOp21
 70
     1
102
RTVSPropertyOp22
 70
     1
102
RTVSPropertyOp23
 70
     1
102
RTVSPropertyOp24
 70
     1
102
RTVSPropertyOp25
 70
     1
102
RTVSPropertyOp26
 70
     1
102
RTVSPropertyOp27
 70
     1
  0
XRECORD
  5
2744
102
{ACAD_REACTORS
330
2743
102
}
330
2743
100
AcDbXrecord
280
     1
102
RTVSPropertyOp0
 70
     1
102
RTVSPropertyOp1
 70
     1
102
RTVSPropertyOp2
 70
     1
102
RTVSPropertyOp3
 70
     1
102
RTVSPropertyOp4
 70
     1
102
RTVSPropertyOp5
 70
     1
102
RTVSPropertyOp6
 70
     1
102
RTVSPropertyOp7
 70
     1
102
RTVSPropertyOp8
 70
     1
102
RTVSPropertyOp9
 70
     1
102
RTVSPropertyOp10
 70
     1
102
RTVSPropertyOp11
 70
     1
102
RTVSPropertyOp12
 70
     1
102
RTVSPropertyOp13
 70
     1
102
RTVSPropertyOp14
 70
     1
102
RTVSPropertyOp15
 70
     1
102
RTVSPropertyOp16
 70
     1
102
RTVSPropertyOp17
 70
     1
102
RTVSPropertyOp18
 70
     1
102
RTVSPropertyOp19
 70
     1
102
RTVSPropertyOp20
 70
     1
102
RTVSPropertyOp21
 70
     1
102
RTVSPropertyOp22
 70
     1
102
RTVSPropertyOp23
 70
     1
102
RTVSPropertyOp24
 70
     1
102
RTVSPropertyOp25
 70
     1
102
RTVSPropertyOp26
 70
     1
102
RTVSPropertyOp27
 70
     1
  0
XRECORD
  5
2746
102
{ACAD_REACTORS
330
2745
102
}
330
2745
100
AcDbXrecord
280
     1
102
RTVSPropertyOp0
 70
     1
102
RTVSPropertyOp1
 70
     1
102
RTVSPropertyOp2
 70
     1
102
RTVSPropertyOp3
 70
     1
102
RTVSPropertyOp4
 70
     1
102
RTVSPropertyOp5
 70
     1
102
RTVSPropertyOp6
 70
     1
102
RTVSPropertyOp7
 70
     1
102
RTVSPropertyOp8
 70
     1
102
RTVSPropertyOp9
 70
     1
102
RTVSPropertyOp10
 70
     1
102
RTVSPropertyOp11
 70
     1
102
RTVSPropertyOp12
 70
     1
102
RTVSPropertyOp13
 70
     1
102
RTVSPropertyOp14
 70
     1
102
RTVSPropertyOp15
 70
     1
102
RTVSPropertyOp16
 70
     1
102
RTVSPropertyOp17
 70
     1
102
RTVSPropertyOp18
 70
     1
102
RTVSPropertyOp19
 70
     1
102
RTVSPropertyOp20
 70
     1
102
RTVSPropertyOp21
 70
     1
102
RTVSPropertyOp22
 70
     1
102
RTVSPropertyOp23
 70
     1
102
RTVSPropertyOp24
 70
     1
102
RTVSPropertyOp25
 70
     1
102
RTVSPropertyOp26
 70
     1
102
RTVSPropertyOp27
 70
     1
  0
XRECORD
  5
2748
102
{ACAD_REACTORS
330
2747
102
}
330
2747
100
AcDbXrecord
280
     1
102
RTVSPropertyOp0
 70
     1
102
RTVSPropertyOp1
 70
     1
102
RTVSPropertyOp2
 70
     1
102
RTVSPropertyOp3
 70
     1
102
RTVSPropertyOp4
 70
     1
102
RTVSPropertyOp5
 70
     1
102
RTVSPropertyOp6
 70
     1
102
RTVSPropertyOp7
 70
     1
102
RTVSPropertyOp8
 70
     1
102
RTVSPropertyOp9
 70
     1
102
RTVSPropertyOp10
 70
     1
102
RTVSPropertyOp11
 70
     1
102
RTVSPropertyOp12
 70
     1
102
RTVSPropertyOp13
 70
     1
102
RTVSPropertyOp14
 70
     1
102
RTVSPropertyOp15
 70
     1
102
RTVSPropertyOp16
 70
     1
102
RTVSPropertyOp17
 70
     1
102
RTVSPropertyOp18
 70
     1
102
RTVSPropertyOp19
 70
     1
102
RTVSPropertyOp20
 70
     1
102
RTVSPropertyOp21
 70
     1
102
RTVSPropertyOp22
 70
     1
102
RTVSPropertyOp23
 70
     1
102
RTVSPropertyOp24
 70
     1
102
RTVSPropertyOp25
 70
     1
102
RTVSPropertyOp26
 70
     1
102
RTVSPropertyOp27
 70
     1
  0
XRECORD
  5
274A
102
{ACAD_REACTORS
330
2749
102
}
330
2749
100
AcDbXrecord
280
     1
102
RTVSPropertyOp0
 70
     1
102
RTVSPropertyOp1
 70
     1
102
RTVSPropertyOp2
 70
     1
102
RTVSPropertyOp3
 70
     1
102
RTVSPropertyOp4
 70
     1
102
RTVSPropertyOp5
 70
     1
102
RTVSPropertyOp6
 70
     1
102
RTVSPropertyOp7
 70
     1
102
RTVSPropertyOp8
 70
     1
102
RTVSPropertyOp9
 70
     1
102
RTVSPropertyOp10
 70
     1
102
RTVSPropertyOp11
 70
     1
102
RTVSPropertyOp12
 70
     1
102
RTVSPropertyOp13
 70
     1
102
RTVSPropertyOp14
 70
     1
102
RTVSPropertyOp15
 70
     1
102
RTVSPropertyOp16
 70
     1
102
RTVSPropertyOp17
 70
     1
102
RTVSPropertyOp18
 70
     1
102
RTVSPropertyOp19
 70
     1
102
RTVSPropertyOp20
 70
     1
102
RTVSPropertyOp21
 70
     1
102
RTVSPropertyOp22
 70
     1
102
RTVSPropertyOp23
 70
     1
102
RTVSPropertyOp24
 70
     1
102
RTVSPropertyOp25
 70
     1
102
RTVSPropertyOp26
 70
     1
102
RTVSPropertyOp27
 70
     1
  0
XRECORD
  5
2764
102
{ACAD_REACTORS
330
2763
102
}
330
2763
100
AcDbXrecord
280
     1
102
RTVSPropertyOp0
 70
     0
102
RTVSPropertyOp1
 70
     0
102
RTVSPropertyOp2
 70
     0
102
RTVSPropertyOp3
 70
     0
102
RTVSPropertyOp4
 70
     0
102
RTVSPropertyOp5
 70
     0
102
RTVSPropertyOp6
 70
     0
102
RTVSPropertyOp7
 70
     0
102
RTVSPropertyOp8
 70
     0
102
RTVSPropertyOp9
 70
     0
102
RTVSPropertyOp10
 70
     0
102
RTVSPropertyOp11
 70
     0
102
RTVSPropertyOp12
 70
     0
102
RTVSPropertyOp13
 70
     0
102
RTVSPropertyOp14
 70
     2
102
RTVSPropertyOp15
 70
     0
102
RTVSPropertyOp16
 70
     0
102
RTVSPropertyOp17
 70
     0
102
RTVSPropertyOp18
 70
     0
102
RTVSPropertyOp19
 70
     0
102
RTVSPropertyOp20
 70
     0
102
RTVSPropertyOp21
 70
     0
102
RTVSPropertyOp22
 70
     0
102
RTVSPropertyOp23
 70
     0
102
RTVSPropertyOp24
 70
     0
102
RTVSPropertyOp25
 70
     0
102
RTVSPropertyOp26
 70
     0
102
RTVSPropertyOp27
 70
     0
  0
XRECORD
  5
275E
102
{ACAD_REACTORS
330
275D
102
}
330
275D
100
AcDbXrecord
280
     1
102
RTVSPropertyOp0
 70
     1
102
RTVSPropertyOp1
 70
     1
102
RTVSPropertyOp2
 70
     1
102
RTVSPropertyOp3
 70
     1
102
RTVSPropertyOp4
 70
     1
102
RTVSPropertyOp5
 70
     1
102
RTVSPropertyOp6
 70
     1
102
RTVSPropertyOp7
 70
     1
102
RTVSPropertyOp8
 70
     1
102
RTVSPropertyOp9
 70
     1
102
RTVSPropertyOp10
 70
     1
102
RTVSPropertyOp11
 70
     1
102
RTVSPropertyOp12
 70
     1
102
RTVSPropertyOp13
 70
     1
102
RTVSPropertyOp14
 70
     1
102
RTVSPropertyOp15
 70
     1
102
RTVSPropertyOp16
 70
     1
102
RTVSPropertyOp17
 70
     1
102
RTVSPropertyOp18
 70
     1
102
RTVSPropertyOp19
 70
     1
102
RTVSPropertyOp20
 70
     1
102
RTVSPropertyOp21
 70
     1
102
RTVSPropertyOp22
 70
     1
102
RTVSPropertyOp23
 70
     1
102
RTVSPropertyOp24
 70
     1
102
RTVSPropertyOp25
 70
     1
102
RTVSPropertyOp26
 70
     1
102
RTVSPropertyOp27
 70
     1
  0
XRECORD
  5
2766
102
{ACAD_REACTORS
330
2765
102
}
330
2765
100
AcDbXrecord
280
     1
102
RTVSPropertyOp0
 70
     0
102
RTVSPropertyOp1
 70
     0
102
RTVSPropertyOp2
 70
     0
102
RTVSPropertyOp3
 70
     0
102
RTVSPropertyOp4
 70
     0
102
RTVSPropertyOp5
 70
     0
102
RTVSPropertyOp6
 70
     0
102
RTVSPropertyOp7
 70
     0
102
RTVSPropertyOp8
 70
     0
102
RTVSPropertyOp9
 70
     0
102
RTVSPropertyOp10
 70
     0
102
RTVSPropertyOp11
 70
     0
102
RTVSPropertyOp12
 70
     0
102
RTVSPropertyOp13
 70
     0
102
RTVSPropertyOp14
 70
     2
102
RTVSPropertyOp15
 70
     0
102
RTVSPropertyOp16
 70
     0
102
RTVSPropertyOp17
 70
     0
102
RTVSPropertyOp18
 70
     0
102
RTVSPropertyOp19
 70
     0
102
RTVSPropertyOp20
 70
     0
102
RTVSPropertyOp21
 70
     0
102
RTVSPropertyOp22
 70
     0
102
RTVSPropertyOp23
 70
     0
102
RTVSPropertyOp24
 70
     0
102
RTVSPropertyOp25
 70
     0
102
RTVSPropertyOp26
 70
     0
102
RTVSPropertyOp27
 70
     0
  0
XRECORD
  5
2756
102
{ACAD_REACTORS
330
2755
102
}
330
2755
100
AcDbXrecord
280
     1
102
RTVSPropertyOp0
 70
     1
102
RTVSPropertyOp1
 70
     1
102
RTVSPropertyOp2
 70
     1
102
RTVSPropertyOp3
 70
     1
102
RTVSPropertyOp4
 70
     1
102
RTVSPropertyOp5
 70
     1
102
RTVSPropertyOp6
 70
     1
102
RTVSPropertyOp7
 70
     1
102
RTVSPropertyOp8
 70
     1
102
RTVSPropertyOp9
 70
     1
102
RTVSPropertyOp10
 70
     1
102
RTVSPropertyOp11
 70
     1
102
RTVSPropertyOp12
 70
     1
102
RTVSPropertyOp13
 70
     1
102
RTVSPropertyOp14
 70
     1
102
RTVSPropertyOp15
 70
     1
102
RTVSPropertyOp16
 70
     1
102
RTVSPropertyOp17
 70
     1
102
RTVSPropertyOp18
 70
     1
102
RTVSPropertyOp19
 70
     1
102
RTVSPropertyOp20
 70
     1
102
RTVSPropertyOp21
 70
     1
102
RTVSPropertyOp22
 70
     1
102
RTVSPropertyOp23
 70
     1
102
RTVSPropertyOp24
 70
     1
102
RTVSPropertyOp25
 70
     1
102
RTVSPropertyOp26
 70
     1
102
RTVSPropertyOp27
 70
     1
  0
XRECORD
  5
275C
102
{ACAD_REACTORS
330
275B
102
}
330
275B
100
AcDbXrecord
280
     1
102
RTVSPropertyOp0
 70
     1
102
RTVSPropertyOp1
 70
     1
102
RTVSPropertyOp2
 70
     1
102
RTVSPropertyOp3
 70
     1
102
RTVSPropertyOp4
 70
     1
102
RTVSPropertyOp5
 70
     1
102
RTVSPropertyOp6
 70
     1
102
RTVSPropertyOp7
 70
     1
102
RTVSPropertyOp8
 70
     1
102
RTVSPropertyOp9
 70
     1
102
RTVSPropertyOp10
 70
     1
102
RTVSPropertyOp11
 70
     1
102
RTVSPropertyOp12
 70
     1
102
RTVSPropertyOp13
 70
     1
102
RTVSPropertyOp14
 70
     1
102
RTVSPropertyOp15
 70
     1
102
RTVSPropertyOp16
 70
     1
102
RTVSPropertyOp17
 70
     1
102
RTVSPropertyOp18
 70
     1
102
RTVSPropertyOp19
 70
     1
102
RTVSPropertyOp20
 70
     1
102
RTVSPropertyOp21
 70
     1
102
RTVSPropertyOp22
 70
     1
102
RTVSPropertyOp23
 70
     1
102
RTVSPropertyOp24
 70
     1
102
RTVSPropertyOp25
 70
     1
102
RTVSPropertyOp26
 70
     1
102
RTVSPropertyOp27
 70
     1
  0
ENDSEC
  0
EOF
