  0
SECTION
  2
HEADER
  9
$ACADVER
  1
AC1015
  9
$ACADMAINTVER
 70
    20
  9
$DWGCODEPAGE
  3
ANSI_1252
  9
$INSBASE
 10
0.0
 20
0.0
 30
0.0
  9
$EXTMIN
 10
4171.134079317276
 20
2360.261926966939
 30
0.0
  9
$EXTMAX
 10
4173.542418865195
 20
2360.666640432821
 30
0.0
  9
$LIMMIN
 10
0.0
 20
0.0
  9
$LIMMAX
 10
420.0
 20
297.0
  9
$ORTHOMODE
 70
     1
  9
$REGENMODE
 70
     1
  9
$FILLMODE
 70
     1
  9
$QTEXTMODE
 70
     0
  9
$MIRRTEXT
 70
     1
  9
$LTSCALE
 40
1.0
  9
$ATTMODE
 70
     1
  9
$TEXTSIZE
 40
2.5
  9
$TRACEWID
 40
1.0
  9
$TEXTSTYLE
  7
SANINDUSA
  9
$CLAYER
  8
0
  9
$CELTYPE
  6
ByLayer
  9
$CECOLOR
 62
   256
  9
$CELTSCALE
 40
1.0
  9
$DISPSILH
 70
     0
  9
$DIMSCALE
 40
1.0
  9
$DIMASZ
 40
2.0
  9
$DIMEXO
 40
1.0
  9
$DIMDLI
 40
1.0
  9
$DIMRND
 40
0.0
  9
$DIMDLE
 40
0.0
  9
$DIMEXE
 40
1.0
  9
$DIMTP
 40
0.0
  9
$DIMTM
 40
0.0
  9
$DIMTXT
 40
2.0
  9
$DIMCEN
 40
0.0
  9
$DIMTSZ
 40
0.0
  9
$DIMTOL
 70
     0
  9
$DIMLIM
 70
     0
  9
$DIMTIH
 70
     0
  9
$DIMTOH
 70
     0
  9
$DIMSE1
 70
     0
  9
$DIMSE2
 70
     0
  9
$DIMTAD
 70
     1
  9
$DIMZIN
 70
     8
  9
$DIMBLK
  1

  9
$DIMASO
 70
     1
  9
$DIMSHO
 70
     1
  9
$DIMPOST
  1

  9
$DIMAPOST
  1

  9
$DIMALT
 70
     0
  9
$DIMALTD
 70
     3
  9
$DIMALTF
 40
0.03937007874016
  9
$DIMLFAC
 40
1.0
  9
$DIMTOFL
 70
     1
  9
$DIMTVP
 40
0.0
  9
$DIMTIX
 70
     0
  9
$DIMSOXD
 70
     0
  9
$DIMSAH
 70
     0
  9
$DIMBLK1
  1

  9
$DIMBLK2
  1

  9
$DIMSTYLE
  2
SANINDUSA
  9
$DIMCLRD
 70
   256
  9
$DIMCLRE
 70
   256
  9
$DIMCLRT
 70
   256
  9
$DIMTFAC
 40
1.0
  9
$DIMGAP
 40
1.0
  9
$DIMJUST
 70
     0
  9
$DIMSD1
 70
     0
  9
$DIMSD2
 70
     0
  9
$DIMTOLJ
 70
     0
  9
$DIMTZIN
 70
     8
  9
$DIMALTZ
 70
     0
  9
$DIMALTTZ
 70
     0
  9
$DIMUPT
 70
     0
  9
$DIMDEC
 70
     1
  9
$DIMTDEC
 70
     1
  9
$DIMALTU
 70
     2
  9
$DIMALTTD
 70
     3
  9
$DIMTXSTY
  7
SANINDUSA
  9
$DIMAUNIT
 70
     0
  9
$DIMADEC
 70
     1
  9
$DIMALTRND
 40
0.0
  9
$DIMAZIN
 70
     0
  9
$DIMDSEP
 70
    44
  9
$DIMATFIT
 70
     3
  9
$DIMFRAC
 70
     0
  9
$DIMLDRBLK
  1

  9
$DIMLUNIT
 70
     2
  9
$DIMLWD
 70
    -1
  9
$DIMLWE
 70
    -1
  9
$DIMTMOVE
 70
     0
  9
$LUNITS
 70
     2
  9
$LUPREC
 70
     4
  9
$SKETCHINC
 40
1.0
  9
$FILLETRAD
 40
0.0
  9
$AUNITS
 70
     0
  9
$AUPREC
 70
     0
  9
$MENU
  1
.
  9
$ELEVATION
 40
0.0
  9
$PELEVATION
 40
0.0
  9
$THICKNESS
 40
0.0
  9
$LIMCHECK
 70
     0
  9
$CHAMFERA
 40
10.0
  9
$CHAMFERB
 40
10.0
  9
$CHAMFERC
 40
20.0
  9
$CHAMFERD
 40
0.0
  9
$SKPOLY
 70
     0
  9
$TDCREATE
 40
2455296.515377778
  9
$TDUCREATE
 40
2455296.473711111
  9
$TDUPDATE
 40
2455296.518574757
  9
$TDUUPDATE
 40
2455296.476908090
  9
$TDINDWG
 40
0.0031976968
  9
$TDUSRTIMER
 40
0.0031976968
  9
$USRTIMER
 70
     1
  9
$ANGBASE
 50
0.0
  9
$ANGDIR
 70
     0
  9
$PDMODE
 70
     0
  9
$PDSIZE
 40
0.0
  9
$PLINEWID
 40
0.0
  9
$SPLFRAME
 70
     0
  9
$SPLINETYPE
 70
     6
  9
$SPLINESEGS
 70
     8
  9
$HANDSEED
  5
1A18
  9
$SURFTAB1
 70
     6
  9
$SURFTAB2
 70
     6
  9
$SURFTYPE
 70
     6
  9
$SURFU
 70
     6
  9
$SURFV
 70
     6
  9
$UCSBASE
  2

  9
$UCSNAME
  2

  9
$UCSORG
 10
0.0
 20
0.0
 30
0.0
  9
$UCSXDIR
 10
1.0
 20
0.0
 30
0.0
  9
$UCSYDIR
 10
0.0
 20
1.0
 30
0.0
  9
$UCSORTHOREF
  2

  9
$UCSORTHOVIEW
 70
     0
  9
$UCSORGTOP
 10
0.0
 20
0.0
 30
0.0
  9
$UCSORGBOTTOM
 10
0.0
 20
0.0
 30
0.0
  9
$UCSORGLEFT
 10
0.0
 20
0.0
 30
0.0
  9
$UCSORGRIGHT
 10
0.0
 20
0.0
 30
0.0
  9
$UCSORGFRONT
 10
0.0
 20
0.0
 30
0.0
  9
$UCSORGBACK
 10
0.0
 20
0.0
 30
0.0
  9
$PUCSBASE
  2

  9
$PUCSNAME
  2

  9
$PUCSORG
 10
0.0
 20
0.0
 30
0.0
  9
$PUCSXDIR
 10
1.0
 20
0.0
 30
0.0
  9
$PUCSYDIR
 10
0.0
 20
1.0
 30
0.0
  9
$PUCSORTHOREF
  2

  9
$PUCSORTHOVIEW
 70
     0
  9
$PUCSORGTOP
 10
0.0
 20
0.0
 30
0.0
  9
$PUCSORGBOTTOM
 10
0.0
 20
0.0
 30
0.0
  9
$PUCSORGLEFT
 10
0.0
 20
0.0
 30
0.0
  9
$PUCSORGRIGHT
 10
0.0
 20
0.0
 30
0.0
  9
$PUCSORGFRONT
 10
0.0
 20
0.0
 30
0.0
  9
$PUCSORGBACK
 10
0.0
 20
0.0
 30
0.0
  9
$USERI1
 70
     0
  9
$USERI2
 70
     0
  9
$USERI3
 70
     0
  9
$USERI4
 70
     0
  9
$USERI5
 70
     0
  9
$USERR1
 40
0.0
  9
$USERR2
 40
0.0
  9
$USERR3
 40
0.0
  9
$USERR4
 40
0.0
  9
$USERR5
 40
0.0
  9
$WORLDVIEW
 70
     1
  9
$SHADEDGE
 70
     3
  9
$SHADEDIF
 70
    70
  9
$TILEMODE
 70
     1
  9
$MAXACTVP
 70
    64
  9
$PINSBASE
 10
0.0
 20
0.0
 30
0.0
  9
$PLIMCHECK
 70
     0
  9
$PEXTMIN
 10
1.000000000000000E+20
 20
1.000000000000000E+20
 30
1.000000000000000E+20
  9
$PEXTMAX
 10
-1.000000000000000E+20
 20
-1.000000000000000E+20
 30
-1.000000000000000E+20
  9
$PLIMMIN
 10
0.0
 20
0.0
  9
$PLIMMAX
 10
420.0
 20
297.0
  9
$UNITMODE
 70
     0
  9
$VISRETAIN
 70
     1
  9
$PLINEGEN
 70
     0
  9
$PSLTSCALE
 70
     1
  9
$TREEDEPTH
 70
  3020
  9
$CMLSTYLE
  2
Standard
  9
$CMLJUST
 70
     0
  9
$CMLSCALE
 40
20.0
  9
$PROXYGRAPHICS
 70
     1
  9
$MEASUREMENT
 70
     1
  9
$CELWEIGHT
370
    -1
  9
$ENDCAPS
280
     0
  9
$JOINSTYLE
280
     0
  9
$LWDISPLAY
290
     0
  9
$INSUNITS
 70
     4
  9
$HYPERLINKBASE
  1

  9
$STYLESHEET
  1
sanindusa.ctb
  9
$XEDIT
290
     1
  9
$CEPSNTYPE
380
     0
  9
$PSTYLEMODE
290
     1
  9
$FINGERPRINTGUID
  2
{AB78CD91-E35E-44DF-81E9-DD363EB7AE6F}
  9
$VERSIONGUID
  2
{316D1CC8-99F3-4A59-8860-64510A697C97}
  9
$EXTNAMES
290
     1
  9
$PSVPSCALE
 40
0.0
  9
$OLESTARTUP
290
     0
  0
ENDSEC
  0
SECTION
  2
CLASSES
  0
CLASS
  1
ACDBDICTIONARYWDFLT
  2
AcDbDictionaryWithDefault
  3
ObjectDBX Classes
 90
        0
280
     0
281
     0
  0
CLASS
  1
ACDBPLACEHOLDER
  2
AcDbPlaceHolder
  3
ObjectDBX Classes
 90
        0
280
     0
281
     0
  0
CLASS
  1
LAYOUT
  2
AcDbLayout
  3
ObjectDBX Classes
 90
        0
280
     0
281
     0
  0
CLASS
  1
DICTIONARYVAR
  2
AcDbDictionaryVar
  3
ObjectDBX Classes
 90
        0
280
     0
281
     0
  0
CLASS
  1
DIMASSOC
  2
AcDbDimAssoc
  3
"AcDbDimAssoc|Product Desc:     AcDim ARX App For Dimension|Company:          Autodesk, Inc.|WEB Address:      www.autodesk.com"
 90
        0
280
     0
281
     0
  0
CLASS
  1
TABLESTYLE
  2
AcDbTableStyle
  3
ObjectDBX Classes
 90
     4095
280
     0
281
     0
  0
CLASS
  1
MATERIAL
  2
AcDbMaterial
  3
ObjectDBX Classes
 90
     1153
280
     0
281
     0
  0
CLASS
  1
VISUALSTYLE
  2
AcDbVisualStyle
  3
ObjectDBX Classes
 90
     4095
280
     0
281
     0
  0
CLASS
  1
SCALE
  2
AcDbScale
  3
ObjectDBX Classes
 90
     1153
280
     0
281
     0
  0
CLASS
  1
MLEADERSTYLE
  2
AcDbMLeaderStyle
  3
ACDB_MLEADERSTYLE_CLASS
 90
     4095
280
     0
281
     0
  0
CLASS
  1
SORTENTSTABLE
  2
AcDbSortentsTable
  3
ObjectDBX Classes
 90
        0
280
     0
281
     0
  0
CLASS
  1
AEC_REFEDIT_STATUS_TRACKER
  2
AecDbRefEditStatusTracker
  3
AecArchBase60|Product Desc: Autodesk Architectural Desktop 2007 |Company: Autodesk,Inc. |WEB Address: www.autodesk.com
 90
      129
280
     0
281
     0
  0
CLASS
  1
NPOCOLLECTION
  2
AcDbImpNonPersistentObjectsCollection
  3
ObjectDBX Classes
 90
     1153
280
     0
281
     0
  0
CLASS
  1
CELLSTYLEMAP
  2
AcDbCellStyleMap
  3
ObjectDBX Classes
 90
     1152
280
     0
281
     0
  0
ENDSEC
  0
SECTION
  2
TABLES
  0
TABLE
  2
VPORT
  5
8
330
0
100
AcDbSymbolTable
 70
     1
  0
VPORT
  5
1068
330
8
100
AcDbSymbolTableRecord
100
AcDbViewportTableRecord
  2
*Active
 70
     0
 10
0.0
 20
0.0
 11
1.0
 21
1.0
 12
4172.338249091235
 22
2360.464283699879
 13
0.0
 23
0.0
 14
10.0
 24
10.0
 15
10.0
 25
10.0
 16
0.0
 26
0.0
 36
1.0
 17
0.0
 27
0.0
 37
0.0
 40
1.478374650930866
 41
1.635233160621761
 42
50.0
 43
0.0
 44
0.0
 50
0.0
 51
0.0
 71
     0
 72
   100
 73
     1
 74
     2
 75
     0
 76
     0
 77
     0
 78
     0
281
     0
 65
     1
110
0.0
120
0.0
130
0.0
111
1.0
121
0.0
131
0.0
112
0.0
122
1.0
132
0.0
 79
     0
146
0.0
  0
ENDTAB
  0
TABLE
  2
LTYPE
  5
5
330
0
100
AcDbSymbolTable
 70
     6
  0
LTYPE
  5
14
330
5
100
AcDbSymbolTableRecord
100
AcDbLinetypeTableRecord
  2
ByBlock
 70
     0
  3

 72
    65
 73
     0
 40
0.0
  0
LTYPE
  5
15
330
5
100
AcDbSymbolTableRecord
100
AcDbLinetypeTableRecord
  2
ByLayer
 70
     0
  3

 72
    65
 73
     0
 40
0.0
  0
LTYPE
  5
16
330
5
100
AcDbSymbolTableRecord
100
AcDbLinetypeTableRecord
  2
Continuous
 70
     0
  3
Solid line
 72
    65
 73
     0
 40
0.0
  0
LTYPE
  5
2D
330
5
100
AcDbSymbolTableRecord
100
AcDbLinetypeTableRecord
  2
DASHDOT
 70
     0
  3
Dash dot __ . __ . __ . __ . __ . __ . __ . __
 72
    65
 73
     4
 40
25.4
 49
12.7
 74
     0
 49
-6.349999999999999
 74
     0
 49
0.0
 74
     0
 49
-6.349999999999999
 74
     0
  0
LTYPE
  5
2E
330
5
100
AcDbSymbolTableRecord
100
AcDbLinetypeTableRecord
  2
HIDDEN
 70
     0
  3
Hidden __ __ __ __ __ __ __ __ __ __ __ __ __ _
 72
    65
 73
     2
 40
9.524999999999998
 49
6.349999999999999
 74
     0
 49
-3.174999999999999
 74
     0
  0
LTYPE
  5
C75
330
5
100
AcDbSymbolTableRecord
100
AcDbLinetypeTableRecord
  2
AM_ISO02W050
 70
     0
  3
__ __ __ __ __ __ __ __ __ __ __ __ __ __ __
 72
    65
 73
     2
 40
7.5
 49
6.0
 74
     0
 49
-1.5
 74
     0
  0
LTYPE
  5
C76
330
5
100
AcDbSymbolTableRecord
100
AcDbLinetypeTableRecord
  2
AM_ISO08W050
 70
     0
  3
____ . ____ . ____ . ____ . ____ . ____ . ____
 72
    65
 73
     4
 40
18.0
 49
12.0
 74
     0
 49
-1.5
 74
     0
 49
3.0
 74
     0
 49
-1.5
 74
     0
  0
ENDTAB
  0
TABLE
  2
LAYER
  5
2
102
{ACAD_XDICTIONARY
360
1051
102
}
330
0
100
AcDbSymbolTable
 70
    17
  0
LAYER
  5
10
102
{ACAD_XDICTIONARY
360
1962
102
}
330
2
100
AcDbSymbolTableRecord
100
AcDbLayerTableRecord
  2
0
 70
     0
 62
     7
  6
Continuous
370
    -3
390
F
  0
LAYER
  5
2F
102
{ACAD_XDICTIONARY
360
1964
102
}
330
2
100
AcDbSymbolTableRecord
100
AcDbLayerTableRecord
  2
1
 70
     0
 62
     1
  6
Continuous
370
    -3
390
F
  0
LAYER
  5
30
102
{ACAD_XDICTIONARY
360
1966
102
}
330
2
100
AcDbSymbolTableRecord
100
AcDbLayerTableRecord
  2
2
 70
     0
 62
     2
  6
Continuous
370
    -3
390
F
  0
LAYER
  5
31
102
{ACAD_XDICTIONARY
360
1968
102
}
330
2
100
AcDbSymbolTableRecord
100
AcDbLayerTableRecord
  2
3
 70
     0
 62
     3
  6
Continuous
370
    -3
390
F
  0
LAYER
  5
32
102
{ACAD_XDICTIONARY
360
196A
102
}
330
2
100
AcDbSymbolTableRecord
100
AcDbLayerTableRecord
  2
4
 70
     0
 62
     4
  6
Continuous
370
    -3
390
F
  0
LAYER
  5
33
102
{ACAD_XDICTIONARY
360
196C
102
}
330
2
100
AcDbSymbolTableRecord
100
AcDbLayerTableRecord
  2
5
 70
     0
 62
     5
  6
Continuous
370
    -3
390
F
  0
LAYER
  5
34
102
{ACAD_XDICTIONARY
360
196E
102
}
330
2
100
AcDbSymbolTableRecord
100
AcDbLayerTableRecord
  2
6
 70
     0
 62
     6
  6
Continuous
370
    -3
390
F
  0
LAYER
  5
35
102
{ACAD_XDICTIONARY
360
1970
102
}
330
2
100
AcDbSymbolTableRecord
100
AcDbLayerTableRecord
  2
7
 70
     0
 62
     7
  6
Continuous
370
    -3
390
F
  0
LAYER
  5
36
102
{ACAD_XDICTIONARY
360
1972
102
}
330
2
100
AcDbSymbolTableRecord
100
AcDbLayerTableRecord
  2
cen
 70
     0
 62
     7
  6
DASHDOT
370
    -3
390
F
  0
LAYER
  5
37
102
{ACAD_XDICTIONARY
360
1974
102
}
330
2
100
AcDbSymbolTableRecord
100
AcDbLayerTableRecord
  2
hid
 70
     0
 62
     7
  6
HIDDEN
370
    -3
390
F
  0
LAYER
  5
5D6
102
{ACAD_XDICTIONARY
360
1976
102
}
330
2
100
AcDbSymbolTableRecord
100
AcDbLayerTableRecord
  2
hatch
 70
     0
 62
     9
  6
Continuous
370
    -3
390
F
  0
LAYER
  5
8AF
102
{ACAD_XDICTIONARY
360
1978
102
}
330
2
100
AcDbSymbolTableRecord
100
AcDbLayerTableRecord
  2
9
 70
     0
 62
     9
  6
Continuous
370
    -3
390
F
  0
LAYER
  5
8F8
102
{ACAD_XDICTIONARY
360
197A
102
}
330
2
100
AcDbSymbolTableRecord
100
AcDbLayerTableRecord
  2
leg fin
 70
     0
 62
     9
  6
Continuous
370
    -3
390
F
  0
LAYER
  5
91D
102
{ACAD_XDICTIONARY
360
197C
102
}
330
2
100
AcDbSymbolTableRecord
100
AcDbLayerTableRecord
  2
cotas
 70
     0
 62
     1
  6
Continuous
370
    -3
390
F
  0
LAYER
  5
92F
330
2
100
AcDbSymbolTableRecord
100
AcDbLayerTableRecord
  2
Defpoints
 70
     0
 62
     7
  6
Continuous
290
     0
370
    -3
390
F
  0
LAYER
  5
C7B
102
{ACAD_XDICTIONARY
360
197E
102
}
330
2
100
AcDbSymbolTableRecord
100
AcDbLayerTableRecord
  2
SANINDUSA
 70
     0
 62
     3
  6
Continuous
370
    -3
390
F
  0
LAYER
  5
1060
102
{ACAD_XDICTIONARY
360
1980
102
}
330
2
100
AcDbSymbolTableRecord
100
AcDbLayerTableRecord
  2
hid1
 70
     0
 62
     9
  6
HIDDEN
370
    -3
390
F
1001
AcAecLayerStandard
1000

1000

  0
ENDTAB
  0
TABLE
  2
STYLE
  5
3
330
0
100
AcDbSymbolTable
 70
     4
  0
STYLE
  5
11
330
3
100
AcDbSymbolTableRecord
100
AcDbTextStyleTableRecord
  2
Standard
 70
     0
 40
0.0
 41
1.0
 50
0.0
 71
     0
 42
2.5
  3
Avgardn.ttf
  4

1001
ACAD
1000
AvantGarde Bk BT
1071
       34
  0
STYLE
  5
2C
330
3
100
AcDbSymbolTableRecord
100
AcDbTextStyleTableRecord
  2

 70
     1
 40
0.0
 41
1.0
 50
0.0
 71
     0
 42
2.5
  3
ltypeshp.shx
  4

  0
STYLE
  5
91F
330
3
100
AcDbSymbolTableRecord
100
AcDbTextStyleTableRecord
  2
SANINDUSA
 70
     0
 40
0.0
 41
1.0
 50
0.0
 71
     0
 42
2.5
  3
verdana.TTF
  4

1001
ACAD
1000
Verdana
1071
       34
  0
STYLE
  5
C7C
330
3
100
AcDbSymbolTableRecord
100
AcDbTextStyleTableRecord
  2
futura
 70
     0
 40
0.0
 41
1.0
 50
0.0
 71
     0
 42
2.5
  3
ZURCHN.TTF
  4

1001
ACAD
1000
Zurich BT
1071
       34
  0
ENDTAB
  0
TABLE
  2
VIEW
  5
6
330
0
100
AcDbSymbolTable
 70
     0
  0
ENDTAB
  0
TABLE
  2
UCS
  5
7
330
0
100
AcDbSymbolTable
 70
     0
  0
ENDTAB
  0
TABLE
  2
APPID
  5
9
330
0
100
AcDbSymbolTable
 70
    13
  0
APPID
  5
12
330
9
100
AcDbSymbolTableRecord
100
AcDbRegAppTableRecord
  2
ACAD
 70
     0
  0
APPID
  5
3A
330
9
100
AcDbSymbolTableRecord
100
AcDbRegAppTableRecord
  2
DCO15
 70
     0
  0
APPID
  5
EEE
330
9
100
AcDbSymbolTableRecord
100
AcDbRegAppTableRecord
  2
ACAD_DSTYLE_DIMTEXT_FILL
 70
     0
  0
APPID
  5
EEF
330
9
100
AcDbSymbolTableRecord
100
AcDbRegAppTableRecord
  2
ACAD_DSTYLE_DIMEXT_LENGTH
 70
     0
  0
APPID
  5
EF0
330
9
100
AcDbSymbolTableRecord
100
AcDbRegAppTableRecord
  2
ACAD_DSTYLE_DIMEXT_ENABLED
 70
     0
  0
APPID
  5
EF1
330
9
100
AcDbSymbolTableRecord
100
AcDbRegAppTableRecord
  2
ACAD_DSTYLE_DIM_LINETYPE
 70
     0
  0
APPID
  5
EF2
330
9
100
AcDbSymbolTableRecord
100
AcDbRegAppTableRecord
  2
ACAD_DSTYLE_DIM_EXT1_LINETYPE
 70
     0
  0
APPID
  5
EF3
330
9
100
AcDbSymbolTableRecord
100
AcDbRegAppTableRecord
  2
ACAD_DSTYLE_DIM_EXT2_LINETYPE
 70
     0
  0
APPID
  5
FAF
330
9
100
AcDbSymbolTableRecord
100
AcDbRegAppTableRecord
  2
ACAD_DSTYLE_DIMJOGGED_JOGANGLE_SYMBOL
 70
     0
  0
APPID
  5
1013
330
9
100
AcDbSymbolTableRecord
100
AcDbRegAppTableRecord
  2
ACAD_DSTYLE_DIMARC_LENGTH_SYMBOL
 70
     0
  0
APPID
  5
1061
330
9
100
AcDbSymbolTableRecord
100
AcDbRegAppTableRecord
  2
AcAecLayerStandard
 70
     0
  0
APPID
  5
182F
330
9
100
AcDbSymbolTableRecord
100
AcDbRegAppTableRecord
  2
ACAD_EXEMPT_FROM_CAD_STANDARDS
 70
     0
  0
APPID
  5
1A09
330
9
100
AcDbSymbolTableRecord
100
AcDbRegAppTableRecord
  2
ACAD_MLEADERVER
 70
     0
  0
ENDTAB
  0
TABLE
  2
DIMSTYLE
  5
A
330
0
100
AcDbSymbolTable
 70
     4
100
AcDbDimStyleTable
 71
     1
340
921
  0
DIMSTYLE
105
45
330
A
100
AcDbSymbolTableRecord
100
AcDbDimStyleTableRecord
  2
STANDARD
 70
     0
289
     0
340
11
  0
DIMSTYLE
105
921
330
A
100
AcDbSymbolTableRecord
100
AcDbDimStyleTableRecord
  2
SANINDUSA
 70
     0
 41
2.0
 42
1.0
 43
1.0
 44
1.0
 73
     0
 74
     0
 77
     1
 78
     8
140
2.0
141
0.0
143
0.03937007874016
147
1.0
171
     3
172
     1
176
   256
177
   256
178
   256
179
     1
271
     1
272
     1
274
     3
278
    44
283
     0
284
     8
340
91F
371
    -1
372
    -1
1001
ACAD_DSTYLE_DIMJOGGED_JOGANGLE_SYMBOL
1070
   384
1040
1.570796326794896
  0
DIMSTYLE
105
C7D
330
A
100
AcDbSymbolTableRecord
100
AcDbDimStyleTableRecord
  2
AM_ISO
 70
     0
  4
"
 41
2.5
 42
1.0
 43
10.0
 44
1.0
 47
0.1
 48
0.1
 73
     0
 74
     0
 77
     1
 78
     8
 79
     2
140
3.5
141
0.0
143
0.0393701
146
0.71
147
1.5
172
     1
176
   256
177
   256
178
     2
271
     2
272
     3
274
     4
283
     0
284
     8
340
11
371
    -1
372
    -1
  0
ENDTAB
  0
TABLE
  2
BLOCK_RECORD
  5
1
330
0
100
AcDbSymbolTable
 70
    84
  0
BLOCK_RECORD
  5
1F
330
1
100
AcDbSymbolTableRecord
100
AcDbBlockTableRecord
  2
*Model_Space
340
22
  0
BLOCK_RECORD
  5
1B
330
1
100
AcDbSymbolTableRecord
100
AcDbBlockTableRecord
  2
*Paper_Space
340
1E
  0
BLOCK_RECORD
  5
23
330
1
100
AcDbSymbolTableRecord
100
AcDbBlockTableRecord
  2
*Paper_Space0
340
26
  0
BLOCK_RECORD
  5
919
330
1
100
AcDbSymbolTableRecord
100
AcDbBlockTableRecord
  2
_DotSmall
340
0
  0
BLOCK_RECORD
  5
922
330
1
100
AcDbSymbolTableRecord
100
AcDbBlockTableRecord
  2
base para cotas
340
0
310
2800000020000000200000000100080000000000000400000000000000000000000000000000000000000000000080000080000000808000800000008000800080800000C0C0C000C0DCC000F0CAA6000020400000206000002080000020A0000020C0000020E00000400000004020000040400000406000004080000040A0
310
000040C0000040E00000600000006020000060400000606000006080000060A0000060C0000060E00000800000008020000080400000806000008080000080A0000080C0000080E00000A0000000A0200000A0400000A0600000A0800000A0A00000A0C00000A0E00000C0000000C0200000C0400000C0600000C0800000C0
310
A00000C0C00000C0E00000E0000000E0200000E0400000E0600000E0800000E0A00000E0C00000E0E00040000000400020004000400040006000400080004000A0004000C0004000E00040200000402020004020400040206000402080004020A0004020C0004020E000404000004040200040404000404060004040800040
310
40A0004040C0004040E00040600000406020004060400040606000406080004060A0004060C0004060E00040800000408020004080400040806000408080004080A0004080C0004080E00040A0000040A0200040A0400040A0600040A0800040A0A00040A0C00040A0E00040C0000040C0200040C0400040C0600040C08000
310
40C0A00040C0C00040C0E00040E0000040E0200040E0400040E0600040E0800040E0A00040E0C00040E0E00080000000800020008000400080006000800080008000A0008000C0008000E00080200000802020008020400080206000802080008020A0008020C0008020E00080400000804020008040400080406000804080
310
008040A0008040C0008040E00080600000806020008060400080606000806080008060A0008060C0008060E00080800000808020008080400080806000808080008080A0008080C0008080E00080A0000080A0200080A0400080A0600080A0800080A0A00080A0C00080A0E00080C0000080C0200080C0400080C0600080C0
310
800080C0A00080C0C00080C0E00080E0000080E0200080E0400080E0600080E0800080E0A00080E0C00080E0E000C0000000C0002000C0004000C0006000C0008000C000A000C000C000C000E000C0200000C0202000C0204000C0206000C0208000C020A000C020C000C020E000C0400000C0402000C0404000C0406000C0
310
408000C040A000C040C000C040E000C0600000C0602000C0604000C0606000C0608000C060A000C060C000C060E000C0800000C0802000C0804000C0806000C0808000C080A000C080C000C080E000C0A00000C0A02000C0A04000C0A06000C0A08000C0A0A000C0A0C000C0A0E000C0C00000C0C02000C0C04000C0C06000
310
C0C08000C0C0A000F0FBFF00A4A0A000808080000000FF0000FF000000FFFF00FF000000FF00FF00FFFF0000FFFFFF00A4A4A4A4A4A4A4A4A4A4A4A4A4A4A4A4A4A4A4A4A4A4A4A4A4A4A4A4A4A4A4A4A4A4A4A4A4A4A4A4A4A4A4A4A4A4A4A4A4A4A4A4A4A4A4A4A4A4A4A4A4A4A4A4A4A4A4A4A4A4A4A4A4A4A4A4A4A4A4
310
A4A4A4A4A4A4A4A4A4A4A4A4A4A4A4A4A4A4A4A4A4A4A4A4A4A4A4A4A4A4A4A4A4A4A4A4A4A4A4A4A4A4A4A4A4A4A4A4A4A4A4A4A4A4A4A4A4A4A4A4A4A4A4A4A4A4A4A4A4A4A4A4A4A4A4A4A4A4A4A4A4A4A4A4A4A4A4A4A4A4A4A4A4A4A4A4A4A4A4A4A4A4A4A4A4A4A4A4A4A4A4A4A4A4A4A4A4A4A4A4A4A4A4A4A4A4A4
310
A4A4A4A4A4A4A4A4A4A4A4A4A4A4A4A4A4A4A4A4A4A4A4A4A4A4A4A4A4A4A4A4A4A4A4A4A4A4A4A4A4A4A4A4A4A4A4A4A4A4A4A4A4A4A4A4A4A4A4A4A4A4A4A4A4A4A4A4A4A4A4A4A4A4A4A4A4A4A4A4A4A4A4A4A4A4A4A4A4A4A4A4A4A4A4A4A4A4A4A4A4A4A4A4A4A4A4A4A4A4A4A4A4A4A4A4A4A4A4A4A4A4A4A4A4A4A4
310
A4A4A4A4A4A4A4A4A4A4A4A4A4A4A4A4A4A4A4A4A4A4A4A4A4A4A4A4A4A4A4A4A4A4A4A4A4A4A4A4A4A4A4A4A4A4A4A4A4A4A4A4A4A4A4A4A4A4A4A4A4A4A4A4A4A4A4A4A4A4A4A4A4A4A4A4A4A4A4A4A4A4A4A4A4A4A4A4A4A4A4A4A4A4A4A4A4A4A4A4A4A4A4A4A4A4A4A4A4A4A4A4A4A4A4A4F9F9F9F9F9F9F9F9F9F9F9
310
F9F9F9F9F9F9F9F9F9F9F9F9F9F9F9F9F9F9F9A4A4F9F9F9F9F9F9F9F9F9F9F9F9F9F9F9F9F9F9F9F9F9F9F9F9F9F9F9F9F9F9A4A4F9F9F9F9F9F9F9F9F9F9F9F9F9F9F9F9F9F9F9F9F9F9F9F9F9F9F9F9F9F9A4A4F9A4A4A4A4A4A4A4A4A4A4A4A4A4A4A4A4A4A4A4A4A4A4A4A4A4A4A4A4F9A4A4A4A4A4A4A4A4A4A4A4A4
310
A4A4A4A4A4A4A4A4A4A4A4A4A4A4A4A4A4A4A4A4A4A4A4A4A4A4A4A4A4A4A4A4A4A4A4A4A4A4A4A4A4A4A4A4A4A4A4A4A4A4A4A4A4A4A4A4A4A4A4A4A4A4A4A4A4A4A4A4A4A4A4A4A4A4A4A4A4A4A4A4A4A4A4A4A4A4A4A4A4A4A4A4A4A4A4A4A4A4A4A4A4A4A4A4A4A4A4A4A4A4A4A4A4A4A4A4A4A4A4A4A4A4A4A4A4A4A4
310
A4A4A4A4A4A4A4A4A4A4A4A4A4A4A4A4A4A4A4A4A4A4A4A4A4A4A4A4A4A4A4A4A4A4A4A4A4A4A4A4A4A4A4A4A4A4A4A4A4A4A4A4A4A4A4A4A4A4A4A4A4A4A4A4A4A4A4A4A4A4A4A4A4A4A4A4A4A4A4A4A4A4A4A4A4A4A4A4A4A4A4A4A4A4A4A4A4A4A4A4A4A4A4A4A4A4A4A4A4A4A4A4A4A4A4A4A4A4A4A4A4A4A4A4A4A4A4
310
A4A4A4A4A4A4A4A4A4A4A4A4A4A4A4A4A4A4A4A4A4A4A4A4A4A4A4A4A4A4A4A4A4A4A4A4A4A4A4A4A4A4A4A4A4A4A4A4A4A4A4A4A4A4A4A4A4A4A4A4A4A4A4A4A4A4A4A4A4A4A4A4A4A4A4A4A4A4A4A4A4A4A4A4A4A4A4A4A4A4A4A4A4A4A4A4A4A4A4A4A4A4A4A4A4A4A4A4A4A4A4A4A4A4A4A4A4A4A4A4A4A4A4A4A4A4A4
310
A4A4A4A4A4A4A4A4A4A4A4A4A4A4A4A4A4A4A4A4A4A4A4A4A4A4A4A4A4A4A4A4A4A4A4A4A4A4A4A4A4A4A4A4A4A4A4A4A4A4A4A4A4A4A4A4
1001
ACAD
1000
DesignCenter Data
1002
{
1070
     1
1070
     4
1002
}
  0
BLOCK_RECORD
  5
AA8
330
1
100
AcDbSymbolTableRecord
100
AcDbBlockTableRecord
  2
_CLOSED
340
0
  0
BLOCK_RECORD
  5
B79
330
1
100
AcDbSymbolTableRecord
100
AcDbBlockTableRecord
  2
nota revisoes
340
0
1001
ACAD
1000
DesignCenter Data
1002
{
1070
     1
1070
     4
1002
}
  0
BLOCK_RECORD
  5
B8E
330
1
100
AcDbSymbolTableRecord
100
AcDbBlockTableRecord
  2
a3l
340
0
1001
ACAD
1000
DesignCenter Data
1002
{
1070
     1
1070
     4
1002
}
  0
BLOCK_RECORD
  5
B9E
330
1
100
AcDbSymbolTableRecord
100
AcDbBlockTableRecord
  2
legenda desenvolvimento
340
0
1001
ACAD
1000
DesignCenter Data
1002
{
1070
     1
1070
     4
1002
}
  0
BLOCK_RECORD
  5
10B3
330
1
100
AcDbSymbolTableRecord
100
AcDbBlockTableRecord
  2
*D7
340
0
  0
BLOCK_RECORD
  5
10BF
330
1
100
AcDbSymbolTableRecord
100
AcDbBlockTableRecord
  2
*D8
340
0
  0
BLOCK_RECORD
  5
10CB
330
1
100
AcDbSymbolTableRecord
100
AcDbBlockTableRecord
  2
*D9
340
0
  0
BLOCK_RECORD
  5
10D7
330
1
100
AcDbSymbolTableRecord
100
AcDbBlockTableRecord
  2
*D10
340
0
  0
BLOCK_RECORD
  5
10E3
330
1
100
AcDbSymbolTableRecord
100
AcDbBlockTableRecord
  2
*D11
340
0
  0
BLOCK_RECORD
  5
10EF
330
1
100
AcDbSymbolTableRecord
100
AcDbBlockTableRecord
  2
*D12
340
0
  0
BLOCK_RECORD
  5
10FB
330
1
100
AcDbSymbolTableRecord
100
AcDbBlockTableRecord
  2
*D13
340
0
  0
BLOCK_RECORD
  5
1107
330
1
100
AcDbSymbolTableRecord
100
AcDbBlockTableRecord
  2
*D14
340
0
  0
BLOCK_RECORD
  5
1113
330
1
100
AcDbSymbolTableRecord
100
AcDbBlockTableRecord
  2
*D15
340
0
  0
BLOCK_RECORD
  5
111F
330
1
100
AcDbSymbolTableRecord
100
AcDbBlockTableRecord
  2
*D16
340
0
  0
BLOCK_RECORD
  5
112B
330
1
100
AcDbSymbolTableRecord
100
AcDbBlockTableRecord
  2
*D17
340
0
  0
BLOCK_RECORD
  5
1137
330
1
100
AcDbSymbolTableRecord
100
AcDbBlockTableRecord
  2
*D18
340
0
  0
BLOCK_RECORD
  5
1143
330
1
100
AcDbSymbolTableRecord
100
AcDbBlockTableRecord
  2
*D19
340
0
  0
BLOCK_RECORD
  5
114F
330
1
100
AcDbSymbolTableRecord
100
AcDbBlockTableRecord
  2
*D20
340
0
  0
BLOCK_RECORD
  5
115B
330
1
100
AcDbSymbolTableRecord
100
AcDbBlockTableRecord
  2
*D21
340
0
  0
BLOCK_RECORD
  5
1167
330
1
100
AcDbSymbolTableRecord
100
AcDbBlockTableRecord
  2
*D22
340
0
  0
BLOCK_RECORD
  5
1173
330
1
100
AcDbSymbolTableRecord
100
AcDbBlockTableRecord
  2
*D23
340
0
  0
BLOCK_RECORD
  5
117F
330
1
100
AcDbSymbolTableRecord
100
AcDbBlockTableRecord
  2
*D24
340
0
  0
BLOCK_RECORD
  5
118B
330
1
100
AcDbSymbolTableRecord
100
AcDbBlockTableRecord
  2
*D25
340
0
  0
BLOCK_RECORD
  5
1193
330
1
100
AcDbSymbolTableRecord
100
AcDbBlockTableRecord
  2
*D26
340
0
  0
BLOCK_RECORD
  5
11A1
330
1
100
AcDbSymbolTableRecord
100
AcDbBlockTableRecord
  2
*D27
340
0
  0
BLOCK_RECORD
  5
11AD
330
1
100
AcDbSymbolTableRecord
100
AcDbBlockTableRecord
  2
*D28
340
0
  0
BLOCK_RECORD
  5
11B5
330
1
100
AcDbSymbolTableRecord
100
AcDbBlockTableRecord
  2
*D29
340
0
  0
BLOCK_RECORD
  5
11BD
330
1
100
AcDbSymbolTableRecord
100
AcDbBlockTableRecord
  2
*D30
340
0
  0
BLOCK_RECORD
  5
11C5
330
1
100
AcDbSymbolTableRecord
100
AcDbBlockTableRecord
  2
*D31
340
0
  0
BLOCK_RECORD
  5
11CD
330
1
100
AcDbSymbolTableRecord
100
AcDbBlockTableRecord
  2
*D32
340
0
  0
BLOCK_RECORD
  5
11D6
330
1
100
AcDbSymbolTableRecord
100
AcDbBlockTableRecord
  2
*D33
340
0
  0
BLOCK_RECORD
  5
11DF
330
1
100
AcDbSymbolTableRecord
100
AcDbBlockTableRecord
  2
*D34
340
0
  0
BLOCK_RECORD
  5
11E7
330
1
100
AcDbSymbolTableRecord
100
AcDbBlockTableRecord
  2
*D35
340
0
  0
BLOCK_RECORD
  5
11F0
330
1
100
AcDbSymbolTableRecord
100
AcDbBlockTableRecord
  2
*D36
340
0
  0
BLOCK_RECORD
  5
11F9
330
1
100
AcDbSymbolTableRecord
100
AcDbBlockTableRecord
  2
*D37
340
0
  0
BLOCK_RECORD
  5
1202
330
1
100
AcDbSymbolTableRecord
100
AcDbBlockTableRecord
  2
*D38
340
0
  0
BLOCK_RECORD
  5
120E
330
1
100
AcDbSymbolTableRecord
100
AcDbBlockTableRecord
  2
*D39
340
0
  0
BLOCK_RECORD
  5
121B
330
1
100
AcDbSymbolTableRecord
100
AcDbBlockTableRecord
  2
*D40
340
0
  0
BLOCK_RECORD
  5
1228
330
1
100
AcDbSymbolTableRecord
100
AcDbBlockTableRecord
  2
*D41
340
0
  0
BLOCK_RECORD
  5
1234
330
1
100
AcDbSymbolTableRecord
100
AcDbBlockTableRecord
  2
*D42
340
0
  0
BLOCK_RECORD
  5
123D
330
1
100
AcDbSymbolTableRecord
100
AcDbBlockTableRecord
  2
*D43
340
0
  0
BLOCK_RECORD
  5
14FE
330
1
100
AcDbSymbolTableRecord
100
AcDbBlockTableRecord
  2
*D45
340
0
  0
BLOCK_RECORD
  5
150A
330
1
100
AcDbSymbolTableRecord
100
AcDbBlockTableRecord
  2
*D46
340
0
  0
BLOCK_RECORD
  5
1516
330
1
100
AcDbSymbolTableRecord
100
AcDbBlockTableRecord
  2
*D47
340
0
  0
BLOCK_RECORD
  5
1522
330
1
100
AcDbSymbolTableRecord
100
AcDbBlockTableRecord
  2
*D48
340
0
  0
BLOCK_RECORD
  5
152E
330
1
100
AcDbSymbolTableRecord
100
AcDbBlockTableRecord
  2
*D49
340
0
  0
BLOCK_RECORD
  5
153A
330
1
100
AcDbSymbolTableRecord
100
AcDbBlockTableRecord
  2
*D50
340
0
  0
BLOCK_RECORD
  5
1546
330
1
100
AcDbSymbolTableRecord
100
AcDbBlockTableRecord
  2
*D51
340
0
  0
BLOCK_RECORD
  5
1552
330
1
100
AcDbSymbolTableRecord
100
AcDbBlockTableRecord
  2
*D52
340
0
  0
BLOCK_RECORD
  5
155E
330
1
100
AcDbSymbolTableRecord
100
AcDbBlockTableRecord
  2
*D53
340
0
  0
BLOCK_RECORD
  5
156A
330
1
100
AcDbSymbolTableRecord
100
AcDbBlockTableRecord
  2
*D54
340
0
  0
BLOCK_RECORD
  5
1576
330
1
100
AcDbSymbolTableRecord
100
AcDbBlockTableRecord
  2
*D55
340
0
  0
BLOCK_RECORD
  5
1582
330
1
100
AcDbSymbolTableRecord
100
AcDbBlockTableRecord
  2
*D56
340
0
  0
BLOCK_RECORD
  5
158E
330
1
100
AcDbSymbolTableRecord
100
AcDbBlockTableRecord
  2
*D57
340
0
  0
BLOCK_RECORD
  5
159A
330
1
100
AcDbSymbolTableRecord
100
AcDbBlockTableRecord
  2
*D58
340
0
  0
BLOCK_RECORD
  5
15A6
330
1
100
AcDbSymbolTableRecord
100
AcDbBlockTableRecord
  2
*D59
340
0
  0
BLOCK_RECORD
  5
15B2
330
1
100
AcDbSymbolTableRecord
100
AcDbBlockTableRecord
  2
*D60
340
0
  0
BLOCK_RECORD
  5
15BE
330
1
100
AcDbSymbolTableRecord
100
AcDbBlockTableRecord
  2
*D61
340
0
  0
BLOCK_RECORD
  5
15CA
330
1
100
AcDbSymbolTableRecord
100
AcDbBlockTableRecord
  2
*D62
340
0
  0
BLOCK_RECORD
  5
15D2
330
1
100
AcDbSymbolTableRecord
100
AcDbBlockTableRecord
  2
*D63
340
0
  0
BLOCK_RECORD
  5
15E0
330
1
100
AcDbSymbolTableRecord
100
AcDbBlockTableRecord
  2
*D64
340
0
  0
BLOCK_RECORD
  5
15EC
330
1
100
AcDbSymbolTableRecord
100
AcDbBlockTableRecord
  2
*D65
340
0
  0
BLOCK_RECORD
  5
16AA
330
1
100
AcDbSymbolTableRecord
100
AcDbBlockTableRecord
  2
*D66
340
0
  0
BLOCK_RECORD
  5
16B2
330
1
100
AcDbSymbolTableRecord
100
AcDbBlockTableRecord
  2
*D67
340
0
  0
BLOCK_RECORD
  5
16BA
330
1
100
AcDbSymbolTableRecord
100
AcDbBlockTableRecord
  2
*D68
340
0
  0
BLOCK_RECORD
  5
16C2
330
1
100
AcDbSymbolTableRecord
100
AcDbBlockTableRecord
  2
*D69
340
0
  0
BLOCK_RECORD
  5
16CA
330
1
100
AcDbSymbolTableRecord
100
AcDbBlockTableRecord
  2
*D70
340
0
  0
BLOCK_RECORD
  5
16D3
330
1
100
AcDbSymbolTableRecord
100
AcDbBlockTableRecord
  2
*D71
340
0
  0
BLOCK_RECORD
  5
16DC
330
1
100
AcDbSymbolTableRecord
100
AcDbBlockTableRecord
  2
*D72
340
0
  0
BLOCK_RECORD
  5
16E4
330
1
100
AcDbSymbolTableRecord
100
AcDbBlockTableRecord
  2
*D73
340
0
  0
BLOCK_RECORD
  5
16ED
330
1
100
AcDbSymbolTableRecord
100
AcDbBlockTableRecord
  2
*D74
340
0
  0
BLOCK_RECORD
  5
16F6
330
1
100
AcDbSymbolTableRecord
100
AcDbBlockTableRecord
  2
*D75
340
0
  0
BLOCK_RECORD
  5
16FF
330
1
100
AcDbSymbolTableRecord
100
AcDbBlockTableRecord
  2
*D76
340
0
  0
BLOCK_RECORD
  5
170B
330
1
100
AcDbSymbolTableRecord
100
AcDbBlockTableRecord
  2
*D77
340
0
  0
BLOCK_RECORD
  5
1718
330
1
100
AcDbSymbolTableRecord
100
AcDbBlockTableRecord
  2
*D78
340
0
  0
BLOCK_RECORD
  5
1725
330
1
100
AcDbSymbolTableRecord
100
AcDbBlockTableRecord
  2
*D79
340
0
  0
BLOCK_RECORD
  5
1731
330
1
100
AcDbSymbolTableRecord
100
AcDbBlockTableRecord
  2
*D80
340
0
  0
BLOCK_RECORD
  5
173A
330
1
100
AcDbSymbolTableRecord
100
AcDbBlockTableRecord
  2
*D81
340
0
  0
BLOCK_RECORD
  5
194B
330
1
100
AcDbSymbolTableRecord
100
AcDbBlockTableRecord
  2
*D83
340
0
  0
ENDTAB
  0
ENDSEC
  0
SECTION
  2
BLOCKS
  0
BLOCK
  5
20
330
1F
100
AcDbEntity
  8
0
100
AcDbBlockBegin
  2
*Model_Space
 70
     0
 10
0.0
 20
0.0
 30
0.0
  3
*Model_Space
  1

  0
ENDBLK
  5
21
330
1F
100
AcDbEntity
  8
0
100
AcDbBlockEnd
  0
BLOCK
  5
1C
330
1B
100
AcDbEntity
 67
     1
  8
0
100
AcDbBlockBegin
  2
*Paper_Space
 70
     0
 10
0.0
 20
0.0
 30
0.0
  3
*Paper_Space
  1

  0
ENDBLK
  5
1D
330
1B
100
AcDbEntity
 67
     1
  8
0
100
AcDbBlockEnd
  0
BLOCK
  5
24
330
23
100
AcDbEntity
 67
     1
  8
0
100
AcDbBlockBegin
  2
*Paper_Space0
 70
     0
 10
0.0
 20
0.0
 30
0.0
  3
*Paper_Space0
  1

  0
ENDBLK
  5
25
330
23
100
AcDbEntity
 67
     1
  8
0
100
AcDbBlockEnd
  0
BLOCK
  5
91B
330
919
100
AcDbEntity
  8
0
100
AcDbBlockBegin
  2
_DotSmall
 70
     0
 10
0.0
 20
0.0
 30
0.0
  3
_DotSmall
  1

  0
LWPOLYLINE
  5
91A
330
919
100
AcDbEntity
  8
0
  6
ByBlock
 62
     0
100
AcDbPolyline
 90
        2
 70
     1
 43
0.5
 10
-0.0625
 20
0.0
 42
1.0
 10
0.0625
 20
0.0
 42
1.0
  0
ENDBLK
  5
91C
330
919
100
AcDbEntity
  8
0
100
AcDbBlockEnd
  0
BLOCK
  5
92A
330
922
100
AcDbEntity
  8
0
100
AcDbBlockBegin
  2
base para cotas
 70
     0
 10
0.0
 20
0.0
 30
0.0
  3
base para cotas
  1

  0
LINE
  5
B36
330
922
100
AcDbEntity
  8
cotas
100
AcDbLine
 10
0.0
 20
-30.0
 30
0.0
 11
327.1260136525398
 21
-30.0
 31
0.0
  0
LINE
  5
B37
330
922
100
AcDbEntity
  8
cotas
100
AcDbLine
 10
0.0
 20
-25.0
 30
0.0
 11
327.1260136525398
 21
-25.0
 31
0.0
  0
LINE
  5
B38
330
922
100
AcDbEntity
  8
cotas
100
AcDbLine
 10
0.0
 20
-20.0
 30
0.0
 11
327.1260136525398
 21
-20.0
 31
0.0
  0
LINE
  5
B39
330
922
100
AcDbEntity
  8
cotas
100
AcDbLine
 10
0.0
 20
-15.0
 30
0.0
 11
327.1260136525398
 21
-15.0
 31
0.0
  0
LINE
  5
B3A
330
922
100
AcDbEntity
  8
cotas
100
AcDbLine
 10
0.0
 20
-10.0
 30
0.0
 11
327.1260136525398
 21
-10.0
 31
0.0
  0
LINE
  5
B3B
330
922
100
AcDbEntity
  8
cotas
100
AcDbLine
 10
0.0
 20
0.0
 30
0.0
 11
0.0
 21
-30.0
 31
0.0
  0
LINE
  5
B3C
330
922
100
AcDbEntity
  8
cotas
100
AcDbLine
 10
327.1260136525398
 20
-30.0
 30
0.0
 11
327.1260136525398
 21
0.0
 31
0.0
  0
ENDBLK
  5
92B
330
922
100
AcDbEntity
  8
0
100
AcDbBlockEnd
  0
BLOCK
  5
AAD
330
AA8
100
AcDbEntity
  8
0
100
AcDbBlockBegin
  2
_CLOSED
 70
     0
 10
0.0
 20
0.0
 30
0.0
  3
_CLOSED
  1

  0
LINE
  5
AA9
330
AA8
100
AcDbEntity
  8
0
100
AcDbLine
 10
-1.0
 20
0.166667
 30
0.0
 11
0.0
 21
0.0
 31
0.0
  0
LINE
  5
AAA
330
AA8
100
AcDbEntity
  8
0
100
AcDbLine
 10
0.0
 20
0.0
 30
0.0
 11
-1.0
 21
-0.166667
 31
0.0
  0
LINE
  5
AAB
330
AA8
100
AcDbEntity
  8
0
100
AcDbLine
 10
-1.0
 20
0.166667
 30
0.0
 11
-1.0
 21
-0.166667
 31
0.0
  0
LINE
  5
AAC
330
AA8
100
AcDbEntity
  8
0
100
AcDbLine
 10
0.0
 20
0.0
 30
0.0
 11
-1.0
 21
0.0
 31
0.0
  0
ENDBLK
  5
AAE
330
AA8
100
AcDbEntity
  8
0
100
AcDbBlockEnd
  0
BLOCK
  5
B7C
330
B79
100
AcDbEntity
  8
0
100
AcDbBlockBegin
  2
nota revisoes
 70
     0
 10
0.0
 20
0.0
 30
0.0
  3
nota revisoes
  1

  0
CIRCLE
  5
B7A
330
B79
100
AcDbEntity
  8
4
100
AcDbCircle
 10
0.0
 20
0.0
 30
0.0
 40
13.69426055101189
  0
TEXT
  5
B7B
330
B79
100
AcDbEntity
  8
4
100
AcDbText
 10
-5.496248358154345
 20
-5.354545554066362
 30
0.0
 40
12.0
  1
1
  7
SANINDUSA
 72
     1
 11
-0.249774214433728
 21
-5.354545554066362
 31
0.0
100
AcDbText
  0
ENDBLK
  5
B7D
330
B79
100
AcDbEntity
  8
0
100
AcDbBlockEnd
  0
BLOCK
  5
B9C
330
B8E
100
AcDbEntity
  8
0
100
AcDbBlockBegin
  2
a3l
 70
     0
 10
0.0
 20
0.0
 30
0.0
  3
a3l
  1

  0
LINE
  5
B8F
330
B8E
100
AcDbEntity
  8
1
100
AcDbLine
 10
-364.2925296599447
 20
-362.1188951399395
 30
0.0
 11
-364.2925296599447
 21
-65.11889513993946
 31
0.0
  0
LINE
  5
B90
330
B8E
100
AcDbEntity
  8
4
100
AcDbLine
 10
-369.2925296599447
 20
-357.1188951399395
 30
0.0
 11
-369.2925296599447
 21
-70.11889513993946
 31
0.0
  0
LINE
  5
B91
330
B8E
100
AcDbEntity
  8
1
100
AcDbLine
 10
-784.2925296599446
 20
-65.11889513993946
 30
0.0
 11
-784.2925296599446
 21
-362.1188951399395
 31
0.0
  0
LINE
  5
B92
330
B8E
100
AcDbEntity
  8
4
100
AcDbLine
 10
-759.2925296599446
 20
-357.1188951399395
 30
0.0
 11
-759.2925296599446
 21
-70.11889513993946
 31
0.0
  0
LINE
  5
B93
330
B8E
100
AcDbEntity
  8
1
100
AcDbLine
 10
-784.2925296599446
 20
-362.1188951399395
 30
0.0
 11
-364.2925296599447
 21
-362.1188951399395
 31
0.0
  0
LINE
  5
B94
330
B8E
100
AcDbEntity
  8
4
100
AcDbLine
 10
-759.2925296599446
 20
-357.1188951399395
 30
0.0
 11
-369.2925296599447
 21
-357.1188951399395
 31
0.0
  0
LINE
  5
B95
330
B8E
100
AcDbEntity
  8
1
100
AcDbLine
 10
-654.2925296599446
 20
-357.1188951399395
 30
0.0
 11
-654.2925296599446
 21
-362.1188951399395
 31
0.0
  0
LINE
  5
B96
330
B8E
100
AcDbEntity
  8
1
100
AcDbLine
 10
-364.2925296599447
 20
-65.11889513993946
 30
0.0
 11
-784.2925296599446
 21
-65.11889513993946
 31
0.0
  0
LINE
  5
B97
330
B8E
100
AcDbEntity
  8
4
100
AcDbLine
 10
-369.2925296599447
 20
-70.11889513993946
 30
0.0
 11
-759.2925296599446
 21
-70.11889513993946
 31
0.0
  0
LINE
  5
B98
330
B8E
100
AcDbEntity
  8
1
100
AcDbLine
 10
-654.2925296599446
 20
-65.11889513993946
 30
0.0
 11
-654.2925296599446
 21
-70.11889513993946
 31
0.0
  0
LINE
  5
B99
330
B8E
100
AcDbEntity
  8
1
100
AcDbLine
 10
-549.2925296599446
 20
-70.11889513993946
 30
0.0
 11
-549.2925296599446
 21
-65.11889513993946
 31
0.0
  0
LINE
  5
B9A
330
B8E
100
AcDbEntity
  8
1
100
AcDbLine
 10
-369.2925296599447
 20
-65.11889513993946
 30
0.0
 11
-364.2925296599447
 21
-65.11889513993946
 31
0.0
  0
LINE
  5
B9B
330
B8E
100
AcDbEntity
  8
1
100
AcDbLine
 10
-549.2925296599446
 20
-357.1188951399395
 30
0.0
 11
-549.2925296599446
 21
-362.1188951399395
 31
0.0
  0
ENDBLK
  5
B9D
330
B8E
100
AcDbEntity
  8
0
100
AcDbBlockEnd
  0
BLOCK
  5
C13
330
B9E
100
AcDbEntity
  8
0
100
AcDbBlockBegin
  2
legenda desenvolvimento
 70
     2
 10
0.0
 20
0.0
 30
0.0
  3
legenda desenvolvimento
  1

  0
ATTDEF
  5
B9F
330
B9E
100
AcDbEntity
  8
1
100
AcDbText
 10
-108.606245802552
 20
55.5
 30
0.0
 40
4.0
  1
XXXXXXXXXXXXXX
 41
0.8
  7
SANINDUSA
 72
     4
 11
-87.5
 21
57.5
 31
0.0
100
AcDbAttributeDefinition
  3
Nome do Produto:
  2
PRODUTO
 70
     0
  0
ATTDEF
  5
BA0
330
B9E
100
AcDbEntity
  8
1
100
AcDbText
 10
-97.9997966101695
 20
41.25
 30
0.0
 40
3.0
  1
XXXXXXXXX
 41
0.8
  7
futura
 72
     4
 11
-87.5
 21
42.75
 31
0.0
100
AcDbAttributeDefinition
  3
Nome da Peça:
  2
PECA
 70
     0
  0
ATTDEF
  5
BA1
330
B9E
100
AcDbEntity
  8
1
100
AcDbText
 10
-133.4422431161853
 20
21.11745296763252
 30
0.0
 40
2.5
  1
X
 41
0.8
  7
SANINDUSA
 72
     4
 11
-132.5
 21
22.36745296763252
 31
0.0
100
AcDbAttributeDefinition
  3
Cod. TESTE:
  2
TESTE
 70
     0
  0
ATTDEF
  5
BA2
330
B9E
100
AcDbEntity
  8
1
100
AcDbText
 10
-124.3844862323707
 20
21.11745296763252
 30
0.0
 40
2.5
  1
XX
 41
0.8
  7
SANINDUSA
 72
     4
 11
-122.5
 21
22.36745296763252
 31
0.0
100
AcDbAttributeDefinition
  3
Cod. Ano:
  2
ANO
 70
     0
  0
ATTDEF
  5
BA3
330
B9E
100
AcDbEntity
  8
1
100
AcDbText
 10
-112.526889953052
 20
21.11745296763252
 30
0.0
 40
2.5
  1
XXX
 41
0.8
  7
SANINDUSA
 72
     4
 11
-109.700160604496
 21
22.36745296763252
 31
0.0
100
AcDbAttributeDefinition
  3
Cod. Sequência:
  2
SEQUENCIA
 70
     0
  0
ATTDEF
  5
BA4
330
B9E
100
AcDbEntity
  8
1
100
AcDbText
 10
-99.35382430979316
 20
21.11745296763252
 30
0.0
 40
2.5
  1
XX
 41
0.8
  7
SANINDUSA
 72
     4
 11
-97.46933807742244
 21
22.36745296763252
 31
0.0
100
AcDbAttributeDefinition
  3
Cod. Tipo:
  2
TIPO
 70
     0
  0
ATTDEF
  5
BA5
330
B9E
100
AcDbEntity
  8
1
100
AcDbText
 10
-87.42035911468438
 20
21.11745296763252
 30
0.0
 40
2.5
  1
XXX
 41
0.8
  7
SANINDUSA
 72
     4
 11
-84.59362976612828
 21
22.36745296763252
 31
0.0
100
AcDbAttributeDefinition
  3
Cod. Produto:
  2
PRODUTO
 70
     0
  0
ATTDEF
  5
BA6
330
B9E
100
AcDbEntity
  8
1
100
AcDbText
 10
-74.62051971917853
 20
21.11745296763252
 30
0.0
 40
2.5
  1
XXX
 41
0.8
  7
SANINDUSA
 72
     4
 11
-71.79379037062244
 21
22.36745296763252
 31
0.0
100
AcDbAttributeDefinition
  3
Cod. Peça:
  2
PECA
 70
     0
  0
ATTDEF
  5
BA7
330
B9E
100
AcDbEntity
  8
1
100
AcDbText
 10
-61.10603446650329
 20
21.11745296763252
 30
0.0
 40
2.5
  1
XX
 41
0.8
  7
SANINDUSA
 72
     4
 11
-59.22154823413257
 21
22.36745296763252
 31
0.0
100
AcDbAttributeDefinition
  3
Cod. Revisão:
  2
REV
 70
     0
  0
ATTDEF
  5
BA8
330
B9E
100
AcDbEntity
  8
1
100
AcDbText
 10
-48.43615325006194
 20
21.11745296763252
 30
0.0
 40
2.5
  1
XX
 41
0.8
  7
SANINDUSA
 72
     4
 11
-46.55166701769121
 21
22.36745296763252
 31
0.0
100
AcDbAttributeDefinition
  3
Cod. Alteração:
  2
ALT
 70
     0
  0
ATTDEF
  5
BA9
330
B9E
100
AcDbEntity
  8
1
100
AcDbText
 10
-35.19086635325722
 20
23.98875083948959
 30
0.0
 40
3.0
  1
1/XXX
 41
0.8
  7
SANINDUSA
 72
     4
 11
-30.0
 21
25.25
 31
0.0
100
AcDbAttributeDefinition
  3
Escala geral:
  2
ESCALA
 70
     0
  0
ATTDEF
  5
BAA
330
B9E
100
AcDbEntity
  8
1
100
AcDbText
 10
-15.65345869711215
 20
23.75
 30
0.0
 40
3.0
  1
XXXXX
 41
0.8
  7
SANINDUSA
 72
     4
 11
-10.0
 21
25.25
 31
0.0
100
AcDbAttributeDefinition
  3
Folha:
  2
FOLHA
 70
     0
  0
ATTDEF
  5
BAB
330
B9E
100
AcDbEntity
  8
1
100
AcDbText
 10
-178.5146998822042
 20
56.9531347542807
 30
0.0
 40
2.0
  1
xx
 41
0.8
  7
SANINDUSA
 72
     4
 11
-177.2123493113513
 21
57.70330265219877
 31
0.0
100
AcDbAttributeDefinition
  3
revisão
  2
REV.
 70
     0
  0
ATTDEF
  5
BAC
330
B9E
100
AcDbEntity
  8
1
100
AcDbText
 10
-172.7849640077129
 20
56.9531347542807
 30
0.0
 40
2.0
  1
xx
 41
0.8
  7
SANINDUSA
 72
     4
 11
-171.48261343686
 21
57.70330265219877
 31
0.0
100
AcDbAttributeDefinition
  3
alteração
  2
ALT.
 70
     0
  0
ATTDEF
  5
BAD
330
B9E
100
AcDbEntity
  8
1
100
AcDbText
 10
-168.007199951307
 20
56.70330265219877
 30
0.0
 40
2.0
  1
xx/xx/xxxx
 41
0.8
  7
SANINDUSA
 11
-168.007199951307
 21
57.70330265219877
 31
0.0
100
AcDbAttributeDefinition
  3
data
  2
DATA
 70
     0
 74
     2
  0
ATTDEF
  5
BAE
330
B9E
100
AcDbEntity
  8
1
100
AcDbText
 10
-168.5396372253371
 20
13.15916722632639
 30
0.0
 40
2.0
  1
XX/XX/XXXX
 41
0.8
  7
SANINDUSA
 72
     4
 11
-161.5099528734231
 21
14.0
 31
0.0
100
AcDbAttributeDefinition
  3
Data projecto
  2
DATA_PROJ
 70
     0
  0
ATTDEF
  5
BAF
330
B9E
100
AcDbEntity
  8
1
100
AcDbText
 10
-150.8658110728766
 20
13.24983210208193
 30
0.0
 40
2.0
  1
xxxxxxxx
 41
0.8
  7
SANINDUSA
 72
     4
 11
-145.6564087894649
 21
14.0
 31
0.0
100
AcDbAttributeDefinition
  3
nome de quem projectou
  2
NOME
 70
     0
  0
ATTDEF
  5
BB0
330
B9E
100
AcDbEntity
  8
1
100
AcDbText
 10
-168.5396372253371
 20
9.159167226326394
 30
0.0
 40
2.0
  1
XX/XX/XXXX
 41
0.8
  7
SANINDUSA
 72
     4
 11
-161.5099528734231
 21
10.0
 31
0.0
100
AcDbAttributeDefinition
  3
Data desenhou
  2
DATA_DES
 70
     0
  0
ATTDEF
  5
BB1
330
B9E
100
AcDbEntity
  8
1
100
AcDbText
 10
-151.516986358303
 20
9.249832102081933
 30
0.0
 40
2.0
  1
xxxxxxxxx
 41
0.8
  7
SANINDUSA
 72
     4
 11
-145.6564087894649
 21
10.0
 31
0.0
100
AcDbAttributeDefinition
  3
nome
  2
NOME
 70
     0
  0
ATTDEF
  5
BB2
330
B9E
100
AcDbEntity
  8
1
100
AcDbText
 10
-127.2924214135946
 20
14.1979876583216
 30
0.0
 40
2.0
  1
Vitreous China
 41
0.8
  7
SANINDUSA
 72
     4
 11
-119.231709526422
 21
15.22216495852308
 31
0.0
100
AcDbAttributeDefinition
  3
Nome do Material:
  2
MATERIAL
 70
     0
  0
ATTDEF
  5
BB3
330
B9E
100
AcDbEntity
  8
1
100
AcDbText
 10
-103.1563452122093
 20
14.38019043949261
 30
0.0
 40
2.0
  1
Branco
 41
0.8
  7
SANINDUSA
 72
     4
 11
-99.33418268702462
 21
15.35937109765245
 31
0.0
100
AcDbAttributeDefinition
  3
cor da peça
  2
COR
 70
     0
  0
ATTDEF
  5
BB4
330
B9E
100
AcDbEntity
  8
1
100
AcDbText
 10
-116.7235057085292
 20
5.975822699798522
 30
0.0
 40
2.0
  1
Vidrado
 41
0.8
  7
SANINDUSA
 72
     4
 11
-112.5
 21
7.0
 31
0.0
100
AcDbAttributeDefinition
  3
Tipo de acabamento:
  2
ACABAMENTO
 70
     0
  0
ATTDEF
  5
BB5
330
B9E
100
AcDbEntity
  8
1
100
AcDbText
 10
-79.18527869967246
 20
16.65066409850533
 30
0.0
 40
2.0
  1
XXXXXXX
 41
0.8
  7
SANINDUSA
 72
     4
 11
-73.90871724903445
 21
17.65066409850533
 31
0.0
100
AcDbAttributeDefinition
  3
Normas
  2
NORMAS
 70
     0
  0
ATTDEF
  5
BB6
330
B9E
100
AcDbEntity
  8
1
100
AcDbText
 10
-30.55312290127603
 20
14.0
 30
0.0
 40
2.0
  1
XXXXXXXXXXXXXX
 41
0.8
  7
SANINDUSA
 72
     4
 11
-20.0
 21
15.0
 31
0.0
100
AcDbAttributeDefinition
  3
Substitui o desenho:
  2
SUBSTITUI
 70
     0
  0
ATTDEF
  5
BB7
330
B9E
100
AcDbEntity
  8
1
100
AcDbText
 10
-31.30691739422431
 20
6.0
 30
0.0
 40
2.0
  1
XXXXXXXXXXXXXXX
 41
0.8
  7
SANINDUSA
 72
     4
 11
-20.0
 21
7.0
 31
0.0
100
AcDbAttributeDefinition
  3
Substituido por:
  2
SUBSTITUIDO
 70
     0
  0
ATTDEF
  5
BB8
330
B9E
100
AcDbEntity
  8
1
100
AcDbText
 10
-110.0220608548302
 20
1.478208457928303
 30
0.0
 40
2.0
  1
XXXXXXXXXXXXXXXXXXXXXXXXXXXXXXXXXX
 41
0.8
  7
SANINDUSA
 11
-110.0220608548302
 21
2.478208457928303
 31
0.0
100
AcDbAttributeDefinition
  3
Localização do desenho:
  2
LOC-DWG
 70
     0
 74
     2
  0
LINE
  5
BB9
330
B9E
100
AcDbEntity
  8
3
100
AcDbLine
 10
-135.0
 20
4.0
 30
0.0
 11
0.0000000000004547
 21
4.0
 31
0.0
  0
LINE
  5
BBA
330
B9E
100
AcDbEntity
  8
3
100
AcDbLine
 10
-90.00000000000046
 20
12.0
 30
0.0
 11
-135.0
 21
12.0
 31
0.0
  0
LINE
  5
BBB
330
B9E
100
AcDbEntity
  8
3
100
AcDbLine
 10
-135.0
 20
32.5
 30
0.0
 11
-40.0
 21
32.5
 31
0.0
  0
TEXT
  5
BBC
330
B9E
100
AcDbEntity
  8
1
100
AcDbText
 10
-134.0
 20
1.25
 30
0.0
 40
2.0
  1
Localização do des.:
 41
0.8
  7
SANINDUSA
 11
-134.0
 21
2.25
 31
0.0
100
AcDbText
 73
     2
  0
LINE
  5
BBD
330
B9E
100
AcDbEntity
  8
3
100
AcDbLine
 10
-180.0
 20
65.0
 30
0.0
 11
0.0
 21
65.0
 31
0.0
  0
LINE
  5
BBE
330
B9E
100
AcDbEntity
  8
leg fin
100
AcDbLine
 10
-40.0
 20
25.05956924886846
 30
0.0
 11
-135.0
 21
25.05956924886846
 31
0.0
  0
LINE
  5
BBF
330
B9E
100
AcDbEntity
  8
leg fin
100
AcDbLine
 10
-40.0
 20
28.5
 30
0.0
 11
-135.0
 21
28.5
 31
0.0
  0
LINE
  5
BC0
330
B9E
100
AcDbEntity
  8
3
100
AcDbLine
 10
-135.0
 20
50.0
 30
0.0
 11
-40.0
 21
50.0
 31
0.0
  0
TEXT
  5
BC1
330
B9E
100
AcDbEntity
  8
1
100
AcDbText
 10
-134.0
 20
29.75
 30
0.0
 40
2.0
  1
Desenho nº:
 41
0.8
  7
SANINDUSA
 11
-134.0
 21
30.75
 31
0.0
100
AcDbText
 73
     2
  0
TEXT
  5
BC2
330
B9E
100
AcDbEntity
  8
1
100
AcDbText
 10
-134.0
 20
9.25
 30
0.0
 40
2.0
  1
Acabamento:
 41
0.8
  7
SANINDUSA
 11
-134.0
 21
10.25
 31
0.0
100
AcDbText
 73
     2
  0
LINE
  5
BC3
330
B9E
100
AcDbEntity
  8
3
100
AcDbLine
 10
-180.0
 20
20.0
 30
0.0
 11
0.0
 21
20.0
 31
0.0
  0
LINE
  5
BC4
330
B9E
100
AcDbEntity
  8
1
100
AcDbLine
 10
-174.5810776056337
 20
55.5
 30
0.0
 11
-174.5810776056337
 21
65.0
 31
0.0
  0
LINE
  5
BC5
330
B9E
100
AcDbEntity
  8
1
100
AcDbLine
 10
-168.9210461879161
 20
55.5
 30
0.0
 11
-168.9210461879161
 21
65.0
 31
0.0
  0
LINE
  5
BC6
330
B9E
100
AcDbEntity
  8
1
100
AcDbLine
 10
-154.0988595589306
 20
55.5
 30
0.0
 11
-154.0988595589306
 21
65.0
 31
0.0
  0
LINE
  5
BC7
330
B9E
100
AcDbEntity
  8
3
100
AcDbLine
 10
-180.0
 20
65.0
 30
0.0
 11
-180.0
 21
0.0
 31
0.0
  0
LINE
  5
BC8
330
B9E
100
AcDbEntity
  8
3
100
AcDbLine
 10
-135.0
 20
0.0
 30
0.0
 11
-135.0
 21
65.0
 31
0.0
  0
TEXT
  5
BC9
330
B9E
100
AcDbEntity
  8
1
100
AcDbText
 10
-179.0
 20
9.75
 30
0.0
 40
1.5
  1
Des.
 41
0.8
  7
SANINDUSA
 11
-179.0
 21
10.5
 31
0.0
100
AcDbText
 73
     2
  0
LINE
  5
BCA
330
B9E
100
AcDbEntity
  8
1
100
AcDbLine
 10
-168.9210461879161
 20
20.0
 30
0.0
 11
-168.9210461879161
 21
0.0
 31
0.0
  0
LINE
  5
BCB
330
B9E
100
AcDbEntity
  8
1
100
AcDbLine
 10
-154.0988595589306
 20
20.0
 30
0.0
 11
-154.0988595589306
 21
0.0
 31
0.0
  0
LINE
  5
BCC
330
B9E
100
AcDbEntity
  8
1
100
AcDbLine
 10
-180.0
 20
4.0
 30
0.0
 11
-135.0
 21
4.0
 31
0.0
  0
LINE
  5
BCD
330
B9E
100
AcDbEntity
  8
1
100
AcDbLine
 10
-180.0
 20
8.0
 30
0.0
 11
-135.0
 21
8.0
 31
0.0
  0
TEXT
  5
BCE
330
B9E
100
AcDbEntity
  8
1
100
AcDbText
 10
-179.0
 20
1.73257823687436
 30
0.0
 40
1.5
  1
Aprov.
 41
0.8
  7
SANINDUSA
 11
-179.0
 21
2.48257823687436
 31
0.0
100
AcDbText
 73
     2
  0
TEXT
  5
BCF
330
B9E
100
AcDbEntity
  8
1
100
AcDbText
 10
-179.0
 20
5.75
 30
0.0
 40
1.5
  1
Ver.
 41
0.8
  7
SANINDUSA
 11
-179.0
 21
6.5
 31
0.0
100
AcDbText
 73
     2
  0
LINE
  5
BD0
330
B9E
100
AcDbEntity
  8
1
100
AcDbLine
 10
-180.0
 20
16.0
 30
0.0
 11
-135.0
 21
16.0
 31
0.0
  0
LINE
  5
BD1
330
B9E
100
AcDbEntity
  8
1
100
AcDbLine
 10
-180.0
 20
12.0
 30
0.0
 11
-135.0
 21
12.0
 31
0.0
  0
TEXT
  5
BD2
330
B9E
100
AcDbEntity
  8
1
100
AcDbText
 10
-179.0
 20
13.75
 30
0.0
 40
1.5
  1
Proj.
 41
0.8
  7
SANINDUSA
 11
-179.0
 21
14.5
 31
0.0
100
AcDbText
 73
     2
  0
TEXT
  5
BD3
330
B9E
100
AcDbEntity
  8
1
100
AcDbText
 10
-167.9210461879161
 20
17.75
 30
0.0
 40
1.5
  1
Data
 41
0.8
  7
SANINDUSA
 11
-167.9210461879161
 21
18.5
 31
0.0
100
AcDbText
 73
     2
  0
TEXT
  5
BD4
330
B9E
100
AcDbEntity
  8
1
100
AcDbText
 10
-153.0988595589306
 20
17.75
 30
0.0
 40
1.5
  1
Nome
 41
0.8
  7
SANINDUSA
 11
-153.0988595589306
 21
18.5
 31
0.0
100
AcDbText
 73
     2
  0
LINE
  5
BD5
330
B9E
100
AcDbEntity
  8
leg fin
100
AcDbLine
 10
-130.0
 20
20.0
 30
0.0
 11
-130.0
 21
28.5
 31
0.0
  0
TEXT
  5
BD6
330
B9E
100
AcDbEntity
  8
1
100
AcDbText
 10
-134.0
 20
17.25
 30
0.0
 40
2.0
  1
Material:
 41
0.8
  7
SANINDUSA
 11
-134.0
 21
18.25
 31
0.0
100
AcDbText
 73
     2
  0
TEXT
  5
BD7
330
B9E
100
AcDbEntity
  8
1
100
AcDbText
 10
-129.0
 20
26.43288406845113
 30
0.0
 40
1.5
  1
Ano:
 41
0.8
  7
SANINDUSA
 11
-129.0
 21
27.18288406845113
 31
0.0
100
AcDbText
 73
     2
  0
LINE
  5
BD8
330
B9E
100
AcDbEntity
  8
1
100
AcDbLine
 10
-180.0
 20
55.5
 30
0.0
 11
-135.0
 21
55.5
 31
0.0
  0
TEXT
  5
BD9
330
B9E
100
AcDbEntity
  8
1
100
AcDbText
 10
-179.0
 20
52.67772246885193
 30
0.0
 40
1.5
  1
descrição
 41
0.8
  7
SANINDUSA
 11
-179.0
 21
53.42772246885193
 31
0.0
100
AcDbText
 73
     2
  0
TEXT
  5
BDA
330
B9E
100
AcDbEntity
  8
1
100
AcDbText
 10
-134.0
 20
47.25
 30
0.0
 40
2.0
  1
Peça:
 41
0.8
  7
SANINDUSA
 11
-134.0
 21
48.25
 31
0.0
100
AcDbText
 73
     2
  0
LINE
  5
BDB
330
B9E
100
AcDbEntity
  8
1
100
AcDbLine
 10
-180.0
 20
59.5
 30
0.0
 11
-135.0
 21
59.5
 31
0.0
  0
TEXT
  5
BDC
330
B9E
100
AcDbEntity
  8
1
100
AcDbText
 10
-173.5810776056337
 20
62.75
 30
0.0
 40
1.5
  1
Alt.
 41
0.8
  7
SANINDUSA
 11
-173.5810776056337
 21
63.5
 31
0.0
100
AcDbText
 73
     2
  0
TEXT
  5
BDD
330
B9E
100
AcDbEntity
  8
1
100
AcDbText
 10
-179.0
 20
62.75
 30
0.0
 40
1.5
  1
Rev.
 41
0.8
  7
SANINDUSA
 11
-179.0
 21
63.5
 31
0.0
100
AcDbText
 73
     2
  0
TEXT
  5
BDE
330
B9E
100
AcDbEntity
  8
1
100
AcDbText
 10
-167.9210461879161
 20
62.75
 30
0.0
 40
1.5
  1
Data
 41
0.8
  7
SANINDUSA
 11
-167.9210461879161
 21
63.5
 31
0.0
100
AcDbText
 73
     2
  0
TEXT
  5
BDF
330
B9E
100
AcDbEntity
  8
1
100
AcDbText
 10
-153.0988595589306
 20
62.75
 30
0.0
 40
1.5
  1
Nome
 41
0.8
  7
SANINDUSA
 11
-153.0988595589306
 21
63.5
 31
0.0
100
AcDbText
 73
     2
  0
TEXT
  5
BE0
330
B9E
100
AcDbEntity
  8
1
100
AcDbText
 10
-134.0
 20
62.25
 30
0.0
 40
2.0
  1
Produto:
 41
0.8
  7
SANINDUSA
 11
-134.0
 21
63.25
 31
0.0
100
AcDbText
 73
     2
  0
LINE
  5
BE1
330
B9E
100
AcDbEntity
  8
3
100
AcDbLine
 10
-40.0
 20
4.0
 30
0.0
 11
-40.0
 21
65.0
 31
0.0
  0
LWPOLYLINE
  5
BE2
102
{ACAD_REACTORS
330
BEC
102
}
330
B9E
100
AcDbEntity
  8
9
100
AcDbPolyline
 90
       12
 70
     1
 43
0.0
 10
-3.038714600644652
 20
58.90010174665076
 10
-5.726962862472191
 20
58.90010174665076
 10
-5.726962862472191
 20
58.5001017466509
 10
-3.038748516195028
 20
58.5001017466509
 42
-0.4142135623731731
 10
-2.638748516194482
 20
58.1001017466508
 10
-2.638748516194482
 20
57.42799728675596
 10
-5.21497371544865
 20
57.42799728675596
 42
0.4142135623731289
 10
-6.014973715448377
 20
56.627997286756
 10
-6.014973715448377
 20
55.92380871629643
 42
0.4142135623731132
 10
-5.21497371544865
 20
55.12380871629648
 10
-2.23871460064447
 20
55.12380871629648
 10
-2.23871460064447
 20
58.10010174665103
 42
0.4142135623730717
  0
LWPOLYLINE
  5
BE3
102
{ACAD_REACTORS
330
BEC
102
}
330
B9E
100
AcDbEntity
  8
9
100
AcDbPolyline
 90
       20
 70
     1
 43
0.0
 10
-10.01531287095122
 20
57.82799728675581
 10
-10.01531287095122
 20
58.10010174665103
 42
-0.4142135623730744
 10
-9.615312870951584
 20
58.5001017466509
 10
-6.92703069357276
 20
58.5001017466509
 10
-6.92703069357276
 20
58.90010174665076
 10
-9.615346786501959
 20
58.90010174665076
 42
0.4142135623730883
 10
-10.41534678650168
 20
58.1001017466508
 10
-10.41534678650168
 20
57.82796337120567
 42
0.4142135623730717
 10
-9.615346786501959
 20
57.02796337120571
 10
-7.423079531965413
 20
57.02796337120571
 42
-0.4142135623730847
 10
-7.023079531965322
 20
56.62796337120562
 10
-7.023079531965322
 20
55.90786840766487
 42
-0.4142135623730744
 10
-7.423079531965413
 20
55.507868407665
 10
-10.41534678650168
 20
55.507868407665
 10
-10.41534678650168
 20
55.12380871629648
 10
-7.445787917283723
 20
55.12380871629648
 42
0.4114777732064574
 10
-6.645822882998345
 20
55.9163291493976
 10
-6.639238813324936
 20
56.62051771985716
 42
0.4169546541682913
 10
-7.439203847610315
 20
57.42799728675596
 10
-9.615312870951584
 20
57.42799728675596
 42
-0.4142135623731576
  0
LWPOLYLINE
  5
BE4
102
{ACAD_REACTORS
330
BEC
102
}
330
B9E
100
AcDbEntity
  8
9
100
AcDbPolyline
 90
       12
 70
     1
 43
0.0
 10
-14.41561811090378
 20
58.90010174665076
 10
-14.79964388672215
 20
58.90010174665076
 10
-14.79964388672215
 20
55.92380871629643
 42
0.4142135623731133
 10
-13.99964388672242
 20
55.12380871629648
 10
-11.8233508563676
 20
55.12380871629648
 42
0.4142135623730872
 10
-11.02335085636741
 20
55.92380871629643
 10
-11.02335085636741
 20
58.90010174665076
 10
-11.42338477191788
 20
58.90010174665076
 10
-11.42338477191788
 20
55.91567577726095
 42
-0.4131711701795318
 10
-11.82196067063523
 20
55.51567831234956
 10
-14.0141940096214
 20
55.50787335710947
 42
-0.4152567234624407
 10
-14.41561811090378
 20
55.90787082202087
  0
LWPOLYLINE
  5
BE5
102
{ACAD_REACTORS
330
BEC
102
}
330
B9E
100
AcDbEntity
  8
9
100
AcDbPolyline
 90
        6
 70
     1
 43
0.0
 10
-15.80771578768872
 20
55.507868407665
 10
-18.39994912667453
 20
55.507868407665
 42
-0.4142135623731731
 10
-18.79994912667462
 20
55.90786840766487
 10
-18.79994912667462
 20
58.10010174665103
 42
-0.4142135623730744
 10
-18.39994912667453
 20
58.5001017466509
 10
-15.80771578768872
 20
58.5001017466509
  0
LWPOLYLINE
  5
BE6
102
{ACAD_REACTORS
330
BEC
102
}
330
B9E
100
AcDbEntity
  8
9
100
AcDbPolyline
 90
        8
 70
     1
 43
0.0
 10
-15.4236900118708
 20
59.87619128370352
 10
-15.80771578768872
 20
59.87619128370352
 10
-15.80771578768872
 20
58.90010174665076
 10
-18.39176256411201
 20
58.90010174665076
 42
0.4131164467977967
 10
-19.19175694739761
 20
58.1030995310698
 10
-19.1999120763262
 20
55.92680650071542
 42
0.4153115297271718
 10
-18.39991769304061
 20
55.12380871629648
 10
-15.4236900118708
 20
55.12380871629648
  0
LWPOLYLINE
  5
BE7
102
{ACAD_REACTORS
330
BEC
102
}
330
B9E
100
AcDbEntity
  8
9
100
AcDbPolyline
 90
       10
 70
     1
 43
0.0
 10
-20.59201288790928
 20
58.90010174665076
 10
-23.56830591826338
 20
58.90010174665076
 10
-23.56830591826338
 20
55.12380871629648
 10
-23.18424622689509
 20
55.12380871629648
 10
-23.18424622689509
 20
58.5001017466509
 10
-20.59204680345965
 20
58.5001017466509
 42
-0.4142135623730898
 10
-20.19204680345956
 20
58.1001017466508
 10
-20.19204680345956
 20
55.12380871629648
 10
-19.79201288790909
 20
55.12380871629648
 10
-19.79201288790909
 20
58.10010174665103
 42
0.4142135623731132
  0
LWPOLYLINE
  5
BE8
102
{ACAD_REACTORS
330
BEC
102
}
330
B9E
100
AcDbEntity
  8
9
100
AcDbPolyline
 90
        4
 70
     1
 43
0.0
 10
-24.19231812786165
 20
58.90010174665076
 10
-24.57637781922995
 20
58.90010174665076
 10
-24.57637781922995
 20
55.12380871629648
 10
-24.19231812786165
 20
55.12380871629648
  0
LWPOLYLINE
  5
BE9
102
{ACAD_REACTORS
330
BEC
102
}
330
B9E
100
AcDbEntity
  8
9
100
AcDbPolyline
 90
       10
 70
     1
 43
0.0
 10
-28.57661522808212
 20
58.5001017466509
 10
-25.98444972019706
 20
58.5001017466509
 42
-0.4142135623731731
 10
-25.58444972019652
 20
58.1001017466508
 10
-25.58444972019652
 20
55.12380871629648
 10
-25.2004239443786
 20
55.12380871629648
 10
-25.2004239443786
 20
58.10010174665103
 42
0.4142135623730717
 10
-26.00042394437833
 20
58.90010174665076
 10
-28.97664914363259
 20
58.90010174665076
 10
-28.97664914363259
 20
55.12380871629648
 10
-28.57661522808212
 20
55.12380871629648
  0
LWPOLYLINE
  5
BEA
102
{ACAD_REACTORS
330
BEC
102
}
330
B9E
100
AcDbEntity
  8
9
100
AcDbPolyline
 90
       12
 70
     1
 43
0.0
 10
-29.58465321349832
 20
58.10010174665103
 42
0.4142135623730716
 10
-30.3846532134985
 20
58.90010174665076
 10
-33.07296930642724
 20
58.90010174665076
 10
-33.07296930642724
 20
58.5001017466509
 10
-30.38468712904842
 20
58.5001017466509
 42
-0.4142135623730067
 10
-29.98468712904878
 20
58.1001017466508
 10
-29.98468712904878
 20
57.42799728675618
 10
-32.56098015940324
 20
57.42799728675596
 42
0.4142135623731289
 10
-33.36098015940343
 20
56.627997286756
 10
-33.36098015940343
 20
55.92380871629643
 42
0.4142135623731132
 10
-32.56098015940324
 20
55.12380871629648
 10
-29.58465321349832
 20
55.12380871629648
  0
LWPOLYLINE
  5
BEB
102
{ACAD_REACTORS
330
BEC
102
}
330
B9E
100
AcDbEntity
  8
9
100
AcDbPolyline
 90
       20
 70
     1
 43
0.0
 10
-34.7850262845518
 20
57.42799728675596
 10
-36.96125148380543
 20
57.42799728675596
 42
-0.4142135623730898
 10
-37.36125148380552
 20
57.82799728675604
 10
-37.36125148380552
 20
58.10010174665103
 42
-0.4142135623730744
 10
-36.96125148380543
 20
58.5001017466509
 10
-34.27303713752781
 20
58.50010174665067
 10
-34.27303713752781
 20
58.90010174665076
 10
-36.96128539935535
 20
58.90010174665076
 42
0.4142135623731289
 10
-37.76128539935553
 20
58.1001017466508
 10
-37.76128539935553
 20
57.82796337120567
 42
0.4142135623730716
 10
-36.9612853993558
 20
57.02796337120571
 10
-34.76901814481926
 20
57.02796337120571
 42
-0.414213562373168
 10
-34.36901814481962
 20
56.62796337120562
 10
-34.36901814481962
 20
55.90786840766487
 42
-0.4142135623730744
 10
-34.76901814481926
 20
55.507868407665
 10
-37.76128539935553
 20
55.507868407665
 10
-37.76128539935553
 20
55.12380871629648
 10
-34.7850262845518
 20
55.12380871629648
 42
0.4142135623731289
 10
-33.98502628455162
 20
55.92380871629643
 10
-33.98502628455162
 20
56.627997286756
 42
0.4142135623731132
  0
HATCH
  5
BEC
330
B9E
100
AcDbEntity
  8
9
100
AcDbHatch
 10
0.0
 20
0.0
 30
0.0
210
0.0
220
0.0
230
1.0
  2
SOLID
 70
     1
 71
     1
 91
       13
 92
        7
 72
     1
 73
     1
 93
       20
 10
-34.36901814481962
 20
55.90786840766487
 42
-0.414213562372991
 10
-34.76901814481926
 20
55.507868407665
 42
0.0
 10
-37.76128539935553
 20
55.507868407665
 42
0.0
 10
-37.76128539935553
 20
55.12380871629648
 42
0.0
 10
-34.7850262845518
 20
55.12380871629648
 42
0.4142135623731705
 10
-33.98502628455162
 20
55.92380871629666
 42
0.0
 10
-33.98502628455162
 20
56.627997286756
 42
0.4142135623731547
 10
-34.7850262845518
 20
57.42799728675596
 42
0.0
 10
-36.96125148380543
 20
57.42799728675596
 42
-0.4142135623730898
 10
-37.36125148380552
 20
57.82799728675604
 42
0.0
 10
-37.36125148380552
 20
58.1001017466508
 42
-0.4142135623731575
 10
-36.96125148380543
 20
58.5001017466509
 42
0.0
 10
-34.27303713752781
 20
58.50010174665067
 42
0.0
 10
-34.27303713752781
 20
58.90010174665076
 42
0.0
 10
-36.96128539935535
 20
58.90010174665076
 42
0.4142135623731705
 10
-37.76128539935553
 20
58.10010174665058
 42
0.0
 10
-37.76128539935553
 20
57.82796337120544
 42
0.4142135623730299
 10
-36.9612853993558
 20
57.02796337120571
 42
0.0
 10
-34.76901814481926
 20
57.02796337120571
 42
-0.4142135623730015
 10
-34.36901814481962
 20
56.62796337120608
 42
0.0
 97
        1
330
BEB
 92
        7
 72
     1
 73
     1
 93
       12
 10
-33.36098015940343
 20
55.92380871629666
 42
0.4142135623731547
 10
-32.56098015940324
 20
55.12380871629648
 42
0.0
 10
-29.58465321349877
 20
55.12380871629648
 42
0.0
 10
-29.58465321349832
 20
58.10010174665058
 42
0.4142135623731964
 10
-30.3846532134985
 20
58.90010174665076
 42
0.0
 10
-33.07296930642724
 20
58.90010174665076
 42
0.0
 10
-33.07296930642724
 20
58.50010174665067
 42
0.0
 10
-30.38468712904887
 20
58.5001017466509
 42
-0.4142135623732564
 10
-29.98468712904878
 20
58.10010174665103
 42
0.0
 10
-29.98468712904923
 20
57.42799728675596
 42
0.0
 10
-32.56098015940324
 20
57.42799728675596
 42
0.4142135623731705
 10
-33.36098015940343
 20
56.627997286756
 42
0.0
 97
        1
330
BEA
 92
       22
 72
     1
 73
     1
 93
        6
 10
-32.97692046803468
 20
56.62796337120562
 42
-0.4142135623731576
 10
-32.57692046803459
 20
57.02796337120571
 42
0.0
 10
-29.98468712904878
 20
57.02796337120571
 42
0.0
 10
-29.98468712904878
 20
55.507868407665
 42
0.0
 10
-32.57692046803459
 20
55.507868407665
 42
-0.4142135623731731
 10
-32.97692046803468
 20
55.90786840766487
 42
0.0
 97
        1
330
C11
 92
        7
 72
     1
 73
     1
 93
       10
 10
-28.57661522808212
 20
58.5001017466509
 42
0.0
 10
-25.98444972019661
 20
58.5001017466509
 42
-0.4142135623730067
 10
-25.58444972019652
 20
58.10010174665058
 42
0.0
 10
-25.58444972019606
 20
55.12380871629648
 42
0.0
 10
-25.20042394437906
 20
55.12380871629648
 42
0.0
 10
-25.2004239443786
 20
58.1001017466508
 42
0.4142135623731134
 10
-26.00042394437833
 20
58.90010174665076
 42
0.0
 10
-28.97664914363259
 20
58.90010174665076
 42
0.0
 10
-28.97664914363259
 20
55.12380871629648
 42
0.0
 10
-28.57661522808212
 20
55.12380871629648
 42
0.0
 97
        1
330
BE9
 92
        7
 72
     0
 73
     1
 93
        4
 10
-24.57637781922995
 20
55.12380871629648
 10
-24.19231812786165
 20
55.12380871629648
 10
-24.19231812786165
 20
58.90010174665076
 10
-24.57637781922995
 20
58.90010174665076
 97
        1
330
BE8
 92
        7
 72
     0
 73
     1
 93
        4
 10
-24.19231812786165
 20
59.87619128370352
 10
-24.5763778192304
 20
59.87619128370352
 10
-24.5763778192304
 20
59.28412752246913
 10
-24.1923181278612
 20
59.28412752246913
 97
        1
330
C12
 92
        7
 72
     1
 73
     1
 93
       10
 10
-23.18424622689509
 20
58.5001017466509
 42
0.0
 10
-20.59204680345965
 20
58.5001017466509
 42
-0.4142135623730898
 10
-20.19204680345956
 20
58.1001017466508
 42
0.0
 10
-20.19204680345956
 20
55.12380871629648
 42
0.0
 10
-19.79201288790909
 20
55.12380871629648
 42
0.0
 10
-19.79201288790909
 20
58.1001017466508
 42
0.4142135623731547
 10
-20.59201288790928
 20
58.90010174665076
 42
0.0
 10
-23.56830591826338
 20
58.90010174665076
 42
0.0
 10
-23.56830591826338
 20
55.12380871629648
 42
0.0
 10
-23.18424622689463
 20
55.12380871629648
 42
0.0
 97
        1
330
BE7
 92
        7
 72
     1
 73
     1
 93
        8
 10
-19.1999120763262
 20
55.92680650071542
 42
0.4153115297271299
 10
-18.39991769304061
 20
55.12380871629648
 42
0.0
 10
-15.4236900118708
 20
55.12380871629648
 42
0.0
 10
-15.4236900118708
 20
59.87619128370352
 42
0.0
 10
-15.80771578768872
 20
59.87619128370352
 42
0.0
 10
-15.80771578768872
 20
58.90010174665076
 42
0.0
 10
-18.39176256411201
 20
58.90010174665076
 42
0.4131164467977965
 10
-19.19175694739761
 20
58.1030995310698
 42
0.0
 97
        1
330
BE6
 92
       22
 72
     1
 73
     1
 93
        6
 10
-18.79994912667462
 20
58.1001017466508
 42
-0.4142135623731575
 10
-18.39994912667453
 20
58.5001017466509
 42
0.0
 10
-15.80771578768872
 20
58.50010174665067
 42
0.0
 10
-15.80771578768827
 20
55.507868407665
 42
0.0
 10
-18.39994912667453
 20
55.507868407665
 42
-0.4142135623731731
 10
-18.79994912667462
 20
55.90786840766487
 42
0.0
 97
        1
330
BE5
 92
        7
 72
     1
 73
     1
 93
       12
 10
-14.79964388672215
 20
55.92380871629621
 42
0.4142135623729885
 10
-13.99964388672242
 20
55.12380871629648
 42
0.0
 10
-11.8233508563676
 20
55.12380871629648
 42
0.4142135623731289
 10
-11.02335085636741
 20
55.92380871629666
 42
0.0
 10
-11.02335085636741
 20
58.90010174665076
 42
0.0
 10
-11.42338477191788
 20
58.90010174665076
 42
0.0
 10
-11.42338477191788
 20
55.91567577726095
 42
-0.4131711701795319
 10
-11.82196067063523
 20
55.51567831234956
 42
0.0
 10
-14.01419400962095
 20
55.50787335710947
 42
-0.4152567234626918
 10
-14.41561811090378
 20
55.90787082202087
 42
0.0
 10
-14.41561811090378
 20
58.90010174665076
 42
0.0
 10
-14.7996438867226
 20
58.90010174665076
 42
0.0
 97
        1
330
BE4
 92
        7
 72
     1
 73
     1
 93
       20
 10
-7.423079531965413
 20
57.02796337120571
 42
-0.414213562373168
 10
-7.023079531965322
 20
56.62796337120562
 42
0.0
 10
-7.023079531965322
 20
55.90786840766487
 42
-0.4142135623731575
 10
-7.423079531965413
 20
55.507868407665
 42
0.0
 10
-10.41534678650168
 20
55.507868407665
 42
0.0
 10
-10.41534678650168
 20
55.12380871629648
 42
0.0
 10
-7.445787917283723
 20
55.12380871629648
 42
0.4114777732065809
 10
-6.645822882998345
 20
55.91632914939783
 42
0.0
 10
-6.639238813324936
 20
56.62051771985716
 42
0.4169546541682913
 10
-7.439203847610315
 20
57.42799728675596
 42
0.0
 10
-9.615312870951584
 20
57.42799728675596
 42
-0.4142135623729911
 10
-10.01531287095122
 20
57.82799728675581
 42
0.0
 10
-10.01531287095122
 20
58.10010174665103
 42
-0.414213562372991
 10
-9.615312870951584
 20
58.5001017466509
 42
0.0
 10
-6.92703069357276
 20
58.50010174665067
 42
0.0
 10
-6.927030693572305
 20
58.90010174665076
 42
0.0
 10
-9.615346786501959
 20
58.90010174665076
 42
0.4142135623730467
 10
-10.41534678650168
 20
58.10010174665103
 42
0.0
 10
-10.41534678650168
 20
57.82796337120544
 42
0.4142135623730301
 10
-9.615346786501959
 20
57.02796337120571
 42
0.0
 97
        1
330
BE3
 92
        7
 72
     1
 73
     1
 93
       12
 10
-5.21497371544865
 20
57.42799728675596
 42
0.4142135623730871
 10
-6.014973715448377
 20
56.627997286756
 42
0.0
 10
-6.014973715448377
 20
55.92380871629621
 42
0.4142135623730715
 10
-5.21497371544865
 20
55.12380871629648
 42
0.0
 10
-2.23871460064447
 20
55.12380871629648
 42
0.0
 10
-2.23871460064447
 20
58.10010174665058
 42
0.414213562373155
 10
-3.038714600644652
 20
58.90010174665076
 42
0.0
 10
-5.726962862471737
 20
58.90010174665076
 42
0.0
 10
-5.726962862472191
 20
58.5001017466509
 42
0.0
 10
-3.038748516194573
 20
58.5001017466509
 42
-0.4142135623730067
 10
-2.638748516194482
 20
58.10010174665058
 42
0.0
 10
-2.638748516194482
 20
57.42799728675596
 42
0.0
 97
        1
330
BE2
 92
       22
 72
     1
 73
     1
 93
        6
 10
-2.638748516194937
 20
57.02796337120571
 42
0.0
 10
-2.638748516194482
 20
55.50786840766477
 42
0.0
 10
-5.21497371544865
 20
55.507868407665
 42
-0.4142135623731731
 10
-5.614973715448741
 20
55.90786840766509
 42
0.0
 10
-5.614973715448741
 20
56.62796337120562
 42
-0.4142135623731576
 10
-5.21497371544865
 20
57.02796337120571
 42
0.0
 97
        1
330
C0D
 75
     0
 76
     1
 47
0.0407044778999864
 98
       13
 10
-34.18710075113677
 20
56.16907953933765
 10
-33.12851374392494
 20
56.49471602641233
 10
-33.12851374392494
 20
56.49471602641233
 10
-28.77202873835904
 20
57.51232930166111
 10
-24.41554807250941
 20
57.91937341678636
 10
-24.41554807250941
 20
59.384734621186
 10
-23.31624584658039
 20
58.3264175319116
 10
-19.04119127844888
 20
57.75655517324913
 10
-19.04119127844888
 20
57.75655517324913
 10
-14.64399105416578
 20
57.43091868617466
 10
-8.048195057457178
 20
57.22739662861204
 10
-4.017427461911665
 20
57.18669281458665
 10
-4.017427461911665
 20
57.18669281458665
  0
TEXT
  5
BED
330
B9E
100
AcDbEntity
  8
leg fin
100
AcDbText
 10
3.391127401597259
 20
2.107634911895729
 30
0.0
 40
1.5
  1
Este desenho é propriedade da Sanindusa, S.A., e não pode ser copiado nem divulgado sem nossa autorização.
 50
90.0
 41
0.8
  7
SANINDUSA
100
AcDbText
  0
LINE
  5
BEE
330
B9E
100
AcDbEntity
  8
3
100
AcDbLine
 10
-90.0
 20
4.0
 30
0.0
 11
-90.0
 21
12.0
 31
0.0
  0
TEXT
  5
BEF
330
B9E
100
AcDbEntity
  8
1
100
AcDbText
 10
-39.0
 20
9.25
 30
0.0
 40
2.0
  1
Substituido por:
 41
0.8
  7
SANINDUSA
 11
-39.0
 21
10.25
 31
0.0
100
AcDbText
 73
     2
  0
POINT
  5
BF0
330
B9E
100
AcDbEntity
  8
SANINDUSA
100
AcDbPoint
 10
0.0
 20
0.0
 30
0.0
  0
TEXT
  5
BF1
330
B9E
100
AcDbEntity
  8
1
100
AcDbText
 10
-89.0
 20
16.74927010445663
 30
0.0
 40
2.0
  1
Normas:
 41
0.8
  7
SANINDUSA
 11
-89.0
 21
17.74927010445663
 31
0.0
100
AcDbText
 73
     2
  0
LINE
  5
BF2
330
B9E
100
AcDbEntity
  8
3
100
AcDbLine
 10
-90.0
 20
12.0
 30
0.0
 11
-90.0
 21
20.0
 31
0.0
  0
LINE
  5
BF3
330
B9E
100
AcDbEntity
  8
3
100
AcDbLine
 10
-110.546019464768
 20
12.0
 30
0.0
 11
-110.546019464768
 21
20.0
 31
0.0
  0
TEXT
  5
BF4
330
B9E
100
AcDbEntity
  8
1
100
AcDbText
 10
-109.6177520618648
 20
17.25
 30
0.0
 40
2.0
  1
Cor:
 41
0.8
  7
SANINDUSA
 11
-109.6177520618648
 21
18.25
 31
0.0
100
AcDbText
 73
     2
  0
LINE
  5
BF5
330
B9E
100
AcDbEntity
  8
leg fin
100
AcDbLine
 10
-91.42857142857156
 20
20.0
 30
0.0
 11
-91.42857142857156
 21
28.5
 31
0.0
  0
LINE
  5
BF6
330
B9E
100
AcDbEntity
  8
leg fin
100
AcDbLine
 10
-104.2857142857142
 20
20.0
 30
0.0
 11
-104.2857142857142
 21
28.5
 31
0.0
  0
LINE
  5
BF7
330
B9E
100
AcDbEntity
  8
leg fin
100
AcDbLine
 10
-117.1428571428573
 20
20.0
 30
0.0
 11
-117.1428571428573
 21
28.5
 31
0.0
  0
POINT
  5
BF8
330
B9E
100
AcDbEntity
  8
SANINDUSA
100
AcDbPoint
 10
-117.1428571428573
 20
28.5
 30
0.0
  0
POINT
  5
BF9
330
B9E
100
AcDbEntity
  8
SANINDUSA
100
AcDbPoint
 10
-104.2857142857142
 20
28.5
 30
0.0
  0
POINT
  5
BFA
330
B9E
100
AcDbEntity
  8
SANINDUSA
100
AcDbPoint
 10
-91.42857142857156
 20
28.5
 30
0.0
  0
TEXT
  5
BFB
330
B9E
100
AcDbEntity
  8
1
100
AcDbText
 10
-116.200160604496
 20
26.43288406845113
 30
0.0
 40
1.5
  1
Nº Seq.:
 41
0.8
  7
SANINDUSA
 11
-116.200160604496
 21
27.18288406845113
 31
0.0
100
AcDbText
 73
     2
  0
TEXT
  5
BFC
330
B9E
100
AcDbEntity
  8
1
100
AcDbText
 10
-103.2106584078738
 20
26.43288406845113
 30
0.0
 40
1.5
  1
Tipo:
 41
0.8
  7
SANINDUSA
 11
-103.2106584078738
 21
27.18288406845113
 31
0.0
100
AcDbText
 73
     2
  0
TEXT
  5
BFD
330
B9E
100
AcDbEntity
  8
1
100
AcDbText
 10
-90.22114672289353
 20
26.43288406845113
 30
0.0
 40
1.5
  1
Prod.:
 41
0.8
  7
SANINDUSA
 11
-90.22114672289353
 21
27.18288406845113
 31
0.0
100
AcDbText
 73
     2
  0
TEXT
  5
BFE
330
B9E
100
AcDbEntity
  8
1
100
AcDbText
 10
-64.77320576346574
 20
26.43288406845113
 30
0.0
 40
1.5
  1
Rev.:
 41
0.8
  7
SANINDUSA
 11
-64.77320576346574
 21
27.18288406845113
 31
0.0
100
AcDbText
 73
     2
  0
LINE
  5
BFF
330
B9E
100
AcDbEntity
  8
leg fin
100
AcDbLine
 10
-52.85714285714266
 20
20.0
 30
0.0
 11
-52.85714285714266
 21
28.5
 31
0.0
  0
LINE
  5
C00
330
B9E
100
AcDbEntity
  8
leg fin
100
AcDbLine
 10
-65.71428571428578
 20
20.0
 30
0.0
 11
-65.71428571428578
 21
28.5
 31
0.0
  0
LINE
  5
C01
330
B9E
100
AcDbEntity
  8
leg fin
100
AcDbLine
 10
-78.57142857142844
 20
20.0
 30
0.0
 11
-78.57142857142844
 21
28.5
 31
0.0
  0
POINT
  5
C02
330
B9E
100
AcDbEntity
  8
SANINDUSA
100
AcDbPoint
 10
-78.57142857142844
 20
28.5
 30
0.0
  0
POINT
  5
C03
330
B9E
100
AcDbEntity
  8
SANINDUSA
100
AcDbPoint
 10
-65.71428571428578
 20
28.5
 30
0.0
  0
POINT
  5
C04
330
B9E
100
AcDbEntity
  8
SANINDUSA
100
AcDbPoint
 10
-52.85714285714266
 20
28.5
 30
0.0
  0
TEXT
  5
C05
330
B9E
100
AcDbEntity
  8
1
100
AcDbText
 10
-77.61097961686573
 20
26.43288406845113
 30
0.0
 40
1.5
  1
Peça:
 41
0.8
  7
SANINDUSA
 11
-77.61097961686573
 21
27.18288406845113
 31
0.0
100
AcDbText
 73
     2
  0
TEXT
  5
C06
330
B9E
100
AcDbEntity
  8
1
100
AcDbText
 10
-52.06538060077036
 20
26.43288406845113
 30
0.0
 40
1.5
  1
Alt.:
 41
0.8
  7
SANINDUSA
 11
-52.06538060077036
 21
27.18288406845113
 31
0.0
100
AcDbText
 73
     2
  0
LINE
  5
C07
330
B9E
100
AcDbEntity
  8
3
100
AcDbLine
 10
0.0
 20
12.0
 30
0.0
 11
-40.0
 21
12.0
 31
0.0
  0
LINE
  5
C08
330
B9E
100
AcDbEntity
  8
3
100
AcDbLine
 10
-40.0
 20
32.5
 30
0.0
 11
0.0
 21
32.5
 31
0.0
  0
TEXT
  5
C09
330
B9E
100
AcDbEntity
  8
1
100
AcDbText
 10
-19.0
 20
29.75
 30
0.0
 40
2.0
  1
Folha:
 41
0.8
  7
SANINDUSA
 11
-19.0
 21
30.75
 31
0.0
100
AcDbText
 73
     2
  0
LINE
  5
C0A
330
B9E
100
AcDbEntity
  8
3
100
AcDbLine
 10
-20.0
 20
32.5
 30
0.0
 11
-20.0
 21
20.0
 31
0.0
  0
TEXT
  5
C0B
330
B9E
100
AcDbEntity
  8
1
100
AcDbText
 10
-39.0
 20
29.75
 30
0.0
 40
2.0
  1
Escala:
 41
0.8
  7
SANINDUSA
 11
-39.0
 21
30.75
 31
0.0
100
AcDbText
 73
     2
  0
TEXT
  5
C0C
330
B9E
100
AcDbEntity
  8
1
100
AcDbText
 10
-39.0
 20
17.25
 30
0.0
 40
2.0
  1
Substitui:
 41
0.8
  7
SANINDUSA
 11
-39.0
 21
18.25
 31
0.0
100
AcDbText
 73
     2
  0
LWPOLYLINE
  5
C0D
102
{ACAD_REACTORS
330
BEC
102
}
330
B9E
100
AcDbEntity
  8
9
100
AcDbPolyline
 90
        6
 70
     1
 43
0.0
 10
-2.638748516194482
 20
57.02796337120571
 10
-2.638748516194482
 20
55.50786840766477
 10
-5.21497371544865
 20
55.507868407665
 42
-0.4142135623730898
 10
-5.614973715448741
 20
55.90786840766487
 10
-5.614973715448741
 20
56.62796337120562
 42
-0.4142135623731576
 10
-5.21497371544865
 20
57.02796337120571
  0
LINE
  5
C0E
330
B9E
100
AcDbEntity
  8
3
100
AcDbLine
 10
-40.0
 20
50.0
 30
0.0
 11
0.0
 21
50.0
 31
0.0
  0
ATTDEF
  5
C0F
330
B9E
100
AcDbEntity
  8
1
100
AcDbText
 10
-31.30691739422431
 20
40.25
 30
0.0
 40
2.0
  1
XXXXXXXXXXXXXXX
 41
0.8
  7
SANINDUSA
 72
     4
 11
-20.0
 21
41.25
 31
0.0
100
AcDbAttributeDefinition
  3
Observações:
  2
OBS
 70
     0
  0
TEXT
  5
C10
330
B9E
100
AcDbEntity
  8
1
100
AcDbText
 10
-39.0
 20
47.25
 30
0.0
 40
2.0
  1
Observações:
 41
0.8
  7
SANINDUSA
 11
-39.0
 21
48.25
 31
0.0
100
AcDbText
 73
     2
  0
LWPOLYLINE
  5
C11
102
{ACAD_REACTORS
330
BEC
102
}
330
B9E
100
AcDbEntity
  8
9
100
AcDbPolyline
 90
        6
 70
     1
 43
0.0
 10
-29.98468712904878
 20
57.02796337120571
 10
-29.98468712904878
 20
55.507868407665
 10
-32.57692046803459
 20
55.507868407665
 42
-0.4142135623731731
 10
-32.97692046803468
 20
55.90786840766487
 10
-32.97692046803468
 20
56.62796337120562
 42
-0.4142135623731576
 10
-32.57692046803459
 20
57.02796337120571
  0
LWPOLYLINE
  5
C12
102
{ACAD_REACTORS
330
BEC
102
}
330
B9E
100
AcDbEntity
  8
9
100
AcDbPolyline
 90
        4
 70
     1
 43
0.0
 10
-24.19231812786165
 20
59.87619128370352
 10
-24.57637781922995
 20
59.87619128370352
 10
-24.57637781922995
 20
59.28412752246913
 10
-24.19231812786165
 20
59.28412752246913
  0
ENDBLK
  5
C14
330
B9E
100
AcDbEntity
  8
0
100
AcDbBlockEnd
  0
BLOCK
  5
10B4
330
10B3
100
AcDbEntity
  8
0
100
AcDbBlockBegin
  2
*D7
 70
     1
 10
0.0
 20
0.0
 30
0.0
  3
*D7
  1

  0
LINE
  5
10B5
330
10B3
100
AcDbEntity
  8
cotas
100
AcDbLine
 10
3732.200716346874
 20
1036.617824783563
 30
0.0
 11
3732.200716346874
 21
1261.617824783563
 31
0.0
  0
LINE
  5
10B6
330
10B3
100
AcDbEntity
  8
cotas
100
AcDbLine
 10
3816.250144781865
 20
1061.508457742544
 30
0.0
 11
3816.250144781865
 21
1261.617824783563
 31
0.0
  0
LINE
  5
10B7
330
10B3
100
AcDbEntity
  8
cotas
100
AcDbLine
 10
3742.200716346874
 20
1256.617824783563
 30
0.0
 11
3806.250144781865
 21
1256.617824783563
 31
0.0
  0
SOLID
  5
10B8
330
10B3
100
AcDbEntity
  8
cotas
100
AcDbTrace
 10
3742.200716346874
 20
1258.28449145023
 30
0.0
 11
3742.200716346874
 21
1254.951158116896
 31
0.0
 12
3732.200716346874
 22
1256.617824783563
 32
0.0
 13
3732.200716346874
 23
1256.617824783563
 33
0.0
  0
SOLID
  5
10B9
330
10B3
100
AcDbEntity
  8
cotas
100
AcDbTrace
 10
3806.250144781865
 20
1258.28449145023
 30
0.0
 11
3806.250144781865
 21
1254.951158116896
 31
0.0
 12
3816.250144781865
 22
1256.617824783563
 32
0.0
 13
3816.250144781865
 23
1256.617824783563
 33
0.0
  0
MTEXT
  5
10BA
330
10B3
100
AcDbEntity
  8
cotas
100
AcDbMText
 10
3774.225430564369
 20
1266.846165952133
 30
0.0
 40
10.0
 41
0.0
 71
     5
 72
     1
  1
84
  7
SANINDUSA
 73
     1
 44
1.0
1001
ACAD
1000
MTEXTBEGIN
1070
    73
1070
     1
1070
    44
1040
1.0
1070
    74
1070
     0
1000
MTEXTEND
  0
POINT
  5
10BB
330
10B3
100
AcDbEntity
  8
Defpoints
 62
     0
100
AcDbPoint
 10
3732.200716346874
 20
1031.617824783563
 30
0.0
  0
POINT
  5
10BC
330
10B3
100
AcDbEntity
  8
Defpoints
 62
     0
100
AcDbPoint
 10
3816.250144781865
 20
1056.508457742544
 30
0.0
  0
POINT
  5
10BD
330
10B3
100
AcDbEntity
  8
Defpoints
 62
     0
100
AcDbPoint
 10
3816.250144781865
 20
1256.617824783563
 30
0.0
  0
ENDBLK
  5
10BE
330
10B3
100
AcDbEntity
  8
0
100
AcDbBlockEnd
  0
BLOCK
  5
10C0
330
10BF
100
AcDbEntity
  8
0
100
AcDbBlockBegin
  2
*D8
 70
     1
 10
0.0
 20
0.0
 30
0.0
  3
*D8
  1

  0
LINE
  5
10C1
330
10BF
100
AcDbEntity
  8
cotas
100
AcDbLine
 10
3816.250144781865
 20
1061.508457742544
 30
0.0
 11
3816.250144781865
 21
1261.617824783563
 31
0.0
  0
LINE
  5
10C2
330
10BF
100
AcDbEntity
  8
cotas
100
AcDbLine
 10
3878.265675093286
 20
1036.617824783542
 30
0.0
 11
3878.265675093286
 21
1261.617824783563
 31
0.0
  0
LINE
  5
10C3
330
10BF
100
AcDbEntity
  8
cotas
100
AcDbLine
 10
3826.250144781865
 20
1256.617824783563
 30
0.0
 11
3868.265675093286
 21
1256.617824783563
 31
0.0
  0
SOLID
  5
10C4
330
10BF
100
AcDbEntity
  8
cotas
100
AcDbTrace
 10
3826.250144781865
 20
1258.28449145023
 30
0.0
 11
3826.250144781865
 21
1254.951158116896
 31
0.0
 12
3816.250144781865
 22
1256.617824783563
 32
0.0
 13
3816.250144781865
 23
1256.617824783563
 33
0.0
  0
SOLID
  5
10C5
330
10BF
100
AcDbEntity
  8
cotas
100
AcDbTrace
 10
3868.265675093286
 20
1258.28449145023
 30
0.0
 11
3868.265675093286
 21
1254.951158116896
 31
0.0
 12
3878.265675093286
 22
1256.617824783563
 32
0.0
 13
3878.265675093286
 23
1256.617824783563
 33
0.0
  0
MTEXT
  5
10C6
330
10BF
100
AcDbEntity
  8
cotas
100
AcDbMText
 10
3847.257909937576
 20
1266.826018201965
 30
0.0
 40
10.0
 41
0.0
 71
     5
 72
     1
  1
62
  7
SANINDUSA
 73
     1
 44
1.0
1001
ACAD
1000
MTEXTBEGIN
1070
    73
1070
     1
1070
    44
1040
1.0
1070
    74
1070
     0
1000
MTEXTEND
  0
POINT
  5
10C7
330
10BF
100
AcDbEntity
  8
Defpoints
 62
     0
100
AcDbPoint
 10
3816.250144781865
 20
1056.508457742544
 30
0.0
  0
POINT
  5
10C8
330
10BF
100
AcDbEntity
  8
Defpoints
 62
     0
100
AcDbPoint
 10
3878.265675093286
 20
1031.617824783541
 30
0.0
  0
POINT
  5
10C9
330
10BF
100
AcDbEntity
  8
Defpoints
 62
     0
100
AcDbPoint
 10
3878.265675093286
 20
1256.617824783563
 30
0.0
  0
ENDBLK
  5
10CA
330
10BF
100
AcDbEntity
  8
0
100
AcDbBlockEnd
  0
BLOCK
  5
10CC
330
10CB
100
AcDbEntity
  8
0
100
AcDbBlockBegin
  2
*D9
 70
     1
 10
0.0
 20
0.0
 30
0.0
  3
*D9
  1

  0
LINE
  5
10CD
330
10CB
100
AcDbEntity
  8
cotas
100
AcDbLine
 10
3816.250144781865
 20
1061.508457742544
 30
0.0
 11
3816.250144781865
 21
1286.617807484274
 31
0.0
  0
LINE
  5
10CE
330
10CB
100
AcDbEntity
  8
cotas
100
AcDbLine
 10
3986.250144781865
 20
1072.629689666605
 30
0.0
 11
3986.250144781865
 21
1286.617807484274
 31
0.0
  0
LINE
  5
10CF
330
10CB
100
AcDbEntity
  8
cotas
100
AcDbLine
 10
3826.250144781865
 20
1281.617807484274
 30
0.0
 11
3976.250144781865
 21
1281.617807484274
 31
0.0
  0
SOLID
  5
10D0
330
10CB
100
AcDbEntity
  8
cotas
100
AcDbTrace
 10
3826.250144781865
 20
1283.284474150941
 30
0.0
 11
3826.250144781865
 21
1279.951140817608
 31
0.0
 12
3816.250144781865
 22
1281.617807484274
 32
0.0
 13
3816.250144781865
 23
1281.617807484274
 33
0.0
  0
SOLID
  5
10D1
330
10CB
100
AcDbEntity
  8
cotas
100
AcDbTrace
 10
3976.250144781865
 20
1283.284474150941
 30
0.0
 11
3976.250144781865
 21
1279.951140817608
 31
0.0
 12
3986.250144781865
 22
1281.617807484274
 32
0.0
 13
3986.250144781865
 23
1281.617807484274
 33
0.0
  0
MTEXT
  5
10D2
330
10CB
100
AcDbEntity
  8
cotas
100
AcDbMText
 10
3901.250144781865
 20
1291.822642944315
 30
0.0
 40
10.0
 41
0.0
 71
     5
 72
     1
  1
170
  7
SANINDUSA
 73
     1
 44
1.0
1001
ACAD
1000
MTEXTBEGIN
1070
    73
1070
     1
1070
    44
1040
1.0
1070
    74
1070
     0
1000
MTEXTEND
  0
POINT
  5
10D3
330
10CB
100
AcDbEntity
  8
Defpoints
 62
     0
100
AcDbPoint
 10
3816.250144781865
 20
1056.508457742544
 30
0.0
  0
POINT
  5
10D4
330
10CB
100
AcDbEntity
  8
Defpoints
 62
     0
100
AcDbPoint
 10
3986.250144781865
 20
1067.629689666605
 30
0.0
  0
POINT
  5
10D5
330
10CB
100
AcDbEntity
  8
Defpoints
 62
     0
100
AcDbPoint
 10
3986.250144781865
 20
1281.617807484274
 30
0.0
  0
ENDBLK
  5
10D6
330
10CB
100
AcDbEntity
  8
0
100
AcDbBlockEnd
  0
BLOCK
  5
10D8
330
10D7
100
AcDbEntity
  8
0
100
AcDbBlockBegin
  2
*D10
 70
     1
 10
0.0
 20
0.0
 30
0.0
  3
*D10
  1

  0
LINE
  5
10D9
330
10D7
100
AcDbEntity
  8
cotas
100
AcDbLine
 10
3732.200716346874
 20
1036.617824783563
 30
0.0
 11
3732.200716346874
 21
1311.617824783563
 31
0.0
  0
LINE
  5
10DA
330
10D7
100
AcDbEntity
  8
cotas
100
AcDbLine
 10
3986.250144781865
 20
1072.629689666605
 30
0.0
 11
3986.250144781865
 21
1311.617824783563
 31
0.0
  0
LINE
  5
10DB
330
10D7
100
AcDbEntity
  8
cotas
100
AcDbLine
 10
3742.200716346874
 20
1306.617824783563
 30
0.0
 11
3976.250144781865
 21
1306.617824783563
 31
0.0
  0
SOLID
  5
10DC
330
10D7
100
AcDbEntity
  8
cotas
100
AcDbTrace
 10
3742.200716346874
 20
1308.28449145023
 30
0.0
 11
3742.200716346874
 21
1304.951158116896
 31
0.0
 12
3732.200716346874
 22
1306.617824783563
 32
0.0
 13
3732.200716346874
 23
1306.617824783563
 33
0.0
  0
SOLID
  5
10DD
330
10D7
100
AcDbEntity
  8
cotas
100
AcDbTrace
 10
3976.250144781865
 20
1308.28449145023
 30
0.0
 11
3976.250144781865
 21
1304.951158116896
 31
0.0
 12
3986.250144781865
 22
1306.617824783563
 32
0.0
 13
3986.250144781865
 23
1306.617824783563
 33
0.0
  0
MTEXT
  5
10DE
330
10D7
100
AcDbEntity
  8
cotas
100
AcDbMText
 10
3859.225430564369
 20
1316.826018201965
 30
0.0
 40
10.0
 41
0.0
 71
     5
 72
     1
  1
254
  7
SANINDUSA
 73
     1
 44
1.0
1001
ACAD
1000
MTEXTBEGIN
1070
    73
1070
     1
1070
    44
1040
1.0
1070
    74
1070
     0
1000
MTEXTEND
  0
POINT
  5
10DF
330
10D7
100
AcDbEntity
  8
Defpoints
 62
     0
100
AcDbPoint
 10
3732.200716346874
 20
1031.617824783563
 30
0.0
  0
POINT
  5
10E0
330
10D7
100
AcDbEntity
  8
Defpoints
 62
     0
100
AcDbPoint
 10
3986.250144781865
 20
1067.629689666605
 30
0.0
  0
POINT
  5
10E1
330
10D7
100
AcDbEntity
  8
Defpoints
 62
     0
100
AcDbPoint
 10
3986.250144781865
 20
1306.617824783563
 30
0.0
  0
ENDBLK
  5
10E2
330
10D7
100
AcDbEntity
  8
0
100
AcDbBlockEnd
  0
BLOCK
  5
10E4
330
10E3
100
AcDbEntity
  8
0
100
AcDbBlockBegin
  2
*D11
 70
     1
 10
0.0
 20
0.0
 30
0.0
  3
*D11
  1

  0
LINE
  5
10E5
330
10E3
100
AcDbEntity
  8
cotas
100
AcDbLine
 10
3732.200716346874
 20
1036.617824783563
 30
0.0
 11
3732.200716346874
 21
1336.617807484274
 31
0.0
  0
LINE
  5
10E6
330
10E3
100
AcDbEntity
  8
cotas
100
AcDbLine
 10
4334.240752671183
 20
1036.617824783563
 30
0.0
 11
4334.240752671183
 21
1336.617807484274
 31
0.0
  0
LINE
  5
10E7
330
10E3
100
AcDbEntity
  8
cotas
100
AcDbLine
 10
3742.200716346874
 20
1331.617807484274
 30
0.0
 11
4324.240752671182
 21
1331.617807484274
 31
0.0
  0
SOLID
  5
10E8
330
10E3
100
AcDbEntity
  8
cotas
100
AcDbTrace
 10
3742.200716346874
 20
1333.284474150941
 30
0.0
 11
3742.200716346874
 21
1329.951140817607
 31
0.0
 12
3732.200716346874
 22
1331.617807484274
 32
0.0
 13
3732.200716346874
 23
1331.617807484274
 33
0.0
  0
SOLID
  5
10E9
330
10E3
100
AcDbEntity
  8
cotas
100
AcDbTrace
 10
4324.240752671182
 20
1333.284474150941
 30
0.0
 11
4324.240752671182
 21
1329.951140817607
 31
0.0
 12
4334.240752671183
 22
1331.617807484274
 32
0.0
 13
4334.240752671183
 23
1331.617807484274
 33
0.0
  0
MTEXT
  5
10EA
330
10E3
100
AcDbEntity
  8
cotas
100
AcDbMText
 10
4033.220734509028
 20
1341.826000902676
 30
0.0
 40
10.0
 41
0.0
 71
     5
 72
     1
  1
602
  7
SANINDUSA
 73
     1
 44
1.0
1001
ACAD
1000
MTEXTBEGIN
1070
    73
1070
     1
1070
    44
1040
1.0
1070
    74
1070
     0
1000
MTEXTEND
  0
POINT
  5
10EB
330
10E3
100
AcDbEntity
  8
Defpoints
 62
     0
100
AcDbPoint
 10
3732.200716346874
 20
1031.617824783563
 30
0.0
  0
POINT
  5
10EC
330
10E3
100
AcDbEntity
  8
Defpoints
 62
     0
100
AcDbPoint
 10
4334.240752671183
 20
1031.617824783563
 30
0.0
  0
POINT
  5
10ED
330
10E3
100
AcDbEntity
  8
Defpoints
 62
     0
100
AcDbPoint
 10
4334.240752671183
 20
1331.617807484274
 30
0.0
  0
ENDBLK
  5
10EE
330
10E3
100
AcDbEntity
  8
0
100
AcDbBlockEnd
  0
BLOCK
  5
10F0
330
10EF
100
AcDbEntity
  8
0
100
AcDbBlockBegin
  2
*D12
 70
     1
 10
0.0
 20
0.0
 30
0.0
  3
*D12
  1

  0
LINE
  5
10F1
330
10EF
100
AcDbEntity
  8
cotas
100
AcDbLine
 10
3732.200716346874
 20
1026.617824783563
 30
0.0
 11
3732.200716346874
 21
800.597806621408
 31
0.0
  0
LINE
  5
10F2
330
10EF
100
AcDbEntity
  8
cotas
100
AcDbLine
 10
3878.265675093286
 20
1026.617824783541
 30
0.0
 11
3878.265675093286
 21
800.597806621408
 31
0.0
  0
LINE
  5
10F3
330
10EF
100
AcDbEntity
  8
cotas
100
AcDbLine
 10
3742.200716346874
 20
805.597806621408
 30
0.0
 11
3868.265675093286
 21
805.597806621408
 31
0.0
  0
SOLID
  5
10F4
330
10EF
100
AcDbEntity
  8
cotas
100
AcDbTrace
 10
3742.200716346874
 20
807.2644732880746
 30
0.0
 11
3742.200716346874
 21
803.9311399547413
 31
0.0
 12
3732.200716346874
 22
805.597806621408
 32
0.0
 13
3732.200716346874
 23
805.597806621408
 33
0.0
  0
SOLID
  5
10F5
330
10EF
100
AcDbEntity
  8
cotas
100
AcDbTrace
 10
3868.265675093286
 20
807.2644732880746
 30
0.0
 11
3868.265675093286
 21
803.9311399547413
 31
0.0
 12
3878.265675093286
 22
805.597806621408
 32
0.0
 13
3878.265675093286
 23
805.597806621408
 33
0.0
  0
MTEXT
  5
10F6
330
10EF
100
AcDbEntity
  8
cotas
100
AcDbMText
 10
3805.23319572008
 20
815.7959261647258
 30
0.0
 40
10.0
 41
0.0
 71
     5
 72
     1
  1
146
  7
SANINDUSA
 73
     1
 44
1.0
1001
ACAD
1000
MTEXTBEGIN
1070
    73
1070
     1
1070
    44
1040
1.0
1070
    74
1070
     0
1000
MTEXTEND
  0
POINT
  5
10F7
330
10EF
100
AcDbEntity
  8
Defpoints
 62
     0
100
AcDbPoint
 10
3732.200716346874
 20
1031.617824783563
 30
0.0
  0
POINT
  5
10F8
330
10EF
100
AcDbEntity
  8
Defpoints
 62
     0
100
AcDbPoint
 10
3878.265675093286
 20
1031.617824783541
 30
0.0
  0
POINT
  5
10F9
330
10EF
100
AcDbEntity
  8
Defpoints
 62
     0
100
AcDbPoint
 10
3878.265675093286
 20
805.597806621408
 30
0.0
  0
ENDBLK
  5
10FA
330
10EF
100
AcDbEntity
  8
0
100
AcDbBlockEnd
  0
BLOCK
  5
10FC
330
10FB
100
AcDbEntity
  8
0
100
AcDbBlockBegin
  2
*D13
 70
     1
 10
0.0
 20
0.0
 30
0.0
  3
*D13
  1

  0
LINE
  5
10FD
330
10FB
100
AcDbEntity
  8
cotas
100
AcDbLine
 10
3878.265675093286
 20
1026.617824783541
 30
0.0
 11
3878.265675093286
 21
800.597806621408
 31
0.0
  0
LINE
  5
10FE
330
10FB
100
AcDbEntity
  8
cotas
100
AcDbLine
 10
4297.752471700325
 20
1026.617824783563
 30
0.0
 11
4297.752471700325
 21
800.597806621408
 31
0.0
  0
LINE
  5
10FF
330
10FB
100
AcDbEntity
  8
cotas
100
AcDbLine
 10
3888.265675093286
 20
805.597806621408
 30
0.0
 11
4287.752471700325
 21
805.597806621408
 31
0.0
  0
SOLID
  5
1100
330
10FB
100
AcDbEntity
  8
cotas
100
AcDbTrace
 10
3888.265675093286
 20
807.2644732880746
 30
0.0
 11
3888.265675093286
 21
803.9311399547413
 31
0.0
 12
3878.265675093286
 22
805.597806621408
 32
0.0
 13
3878.265675093286
 23
805.597806621408
 33
0.0
  0
SOLID
  5
1101
330
10FB
100
AcDbEntity
  8
cotas
100
AcDbTrace
 10
4287.752471700325
 20
807.2644732880746
 30
0.0
 11
4287.752471700325
 21
803.9311399547413
 31
0.0
 12
4297.752471700325
 22
805.597806621408
 32
0.0
 13
4297.752471700325
 23
805.597806621408
 33
0.0
  0
MTEXT
  5
1102
330
10FB
100
AcDbEntity
  8
cotas
100
AcDbMText
 10
4088.009073396805
 20
815.8060000398096
 30
0.0
 40
10.0
 41
0.0
 71
     5
 72
     1
  1
420
  7
SANINDUSA
 73
     1
 44
1.0
1001
ACAD
1000
MTEXTBEGIN
1070
    73
1070
     1
1070
    44
1040
1.0
1070
    74
1070
     0
1000
MTEXTEND
  0
POINT
  5
1103
330
10FB
100
AcDbEntity
  8
Defpoints
 62
     0
100
AcDbPoint
 10
3878.265675093286
 20
1031.617824783541
 30
0.0
  0
POINT
  5
1104
330
10FB
100
AcDbEntity
  8
Defpoints
 62
     0
100
AcDbPoint
 10
4297.752471700325
 20
1031.617824783563
 30
0.0
  0
POINT
  5
1105
330
10FB
100
AcDbEntity
  8
Defpoints
 62
     0
100
AcDbPoint
 10
4297.752471700325
 20
805.597806621408
 30
0.0
  0
ENDBLK
  5
1106
330
10FB
100
AcDbEntity
  8
0
100
AcDbBlockEnd
  0
BLOCK
  5
1108
330
1107
100
AcDbEntity
  8
0
100
AcDbBlockBegin
  2
*D14
 70
     1
 10
0.0
 20
0.0
 30
0.0
  3
*D14
  1

  0
LINE
  5
1109
330
1107
100
AcDbEntity
  8
cotas
100
AcDbLine
 10
4297.752471700325
 20
1026.617824783563
 30
0.0
 11
4297.752471700325
 21
800.597806621408
 31
0.0
  0
LINE
  5
110A
330
1107
100
AcDbEntity
  8
cotas
100
AcDbLine
 10
4334.240752671183
 20
1026.617824783563
 30
0.0
 11
4334.240752671183
 21
800.597806621408
 31
0.0
  0
LINE
  5
110B
330
1107
100
AcDbEntity
  8
cotas
100
AcDbLine
 10
4307.752471700324
 20
805.597806621408
 30
0.0
 11
4324.240752671182
 21
805.597806621408
 31
0.0
  0
SOLID
  5
110C
330
1107
100
AcDbEntity
  8
cotas
100
AcDbTrace
 10
4307.752471700324
 20
807.2644732880746
 30
0.0
 11
4307.752471700324
 21
803.9311399547413
 31
0.0
 12
4297.752471700325
 22
805.597806621408
 32
0.0
 13
4297.752471700325
 23
805.597806621408
 33
0.0
  0
SOLID
  5
110D
330
1107
100
AcDbEntity
  8
cotas
100
AcDbTrace
 10
4324.240752671182
 20
807.2644732880746
 30
0.0
 11
4324.240752671182
 21
803.9311399547413
 31
0.0
 12
4334.240752671183
 22
805.597806621408
 32
0.0
 13
4334.240752671183
 23
805.597806621408
 33
0.0
  0
MTEXT
  5
110E
330
1107
100
AcDbEntity
  8
cotas
100
AcDbMText
 10
4315.996612185754
 20
815.8060000398096
 30
0.0
 40
10.0
 41
0.0
 71
     5
 72
     1
  1
36
  7
SANINDUSA
 73
     1
 44
1.0
1001
ACAD
1000
MTEXTBEGIN
1070
    73
1070
     1
1070
    44
1040
1.0
1070
    74
1070
     0
1000
MTEXTEND
  0
POINT
  5
110F
330
1107
100
AcDbEntity
  8
Defpoints
 62
     0
100
AcDbPoint
 10
4297.752471700325
 20
1031.617824783563
 30
0.0
  0
POINT
  5
1110
330
1107
100
AcDbEntity
  8
Defpoints
 62
     0
100
AcDbPoint
 10
4334.240752671183
 20
1031.617824783563
 30
0.0
  0
POINT
  5
1111
330
1107
100
AcDbEntity
  8
Defpoints
 62
     0
100
AcDbPoint
 10
4334.240752671183
 20
805.597806621408
 30
0.0
  0
ENDBLK
  5
1112
330
1107
100
AcDbEntity
  8
0
100
AcDbBlockEnd
  0
BLOCK
  5
1114
330
1113
100
AcDbEntity
  8
0
100
AcDbBlockBegin
  2
*D15
 70
     1
 10
0.0
 20
0.0
 30
0.0
  3
*D15
  1

  0
LINE
  5
1115
330
1113
100
AcDbEntity
  8
cotas
100
AcDbLine
 10
4138.159764037484
 20
867.8830666840454
 30
0.0
 11
4364.240752671183
 21
867.8830666840454
 31
0.0
  0
LINE
  5
1116
330
1113
100
AcDbEntity
  8
cotas
100
AcDbLine
 10
4138.159764037488
 20
1195.35258288294
 30
0.0
 11
4364.240752671183
 21
1195.35258288294
 31
0.0
  0
LINE
  5
1117
330
1113
100
AcDbEntity
  8
cotas
100
AcDbLine
 10
4359.240752671182
 20
877.8830666840454
 30
0.0
 11
4359.240752671182
 21
1185.35258288294
 31
0.0
  0
SOLID
  5
1118
330
1113
100
AcDbEntity
  8
cotas
100
AcDbTrace
 10
4357.574086004516
 20
877.8830666840454
 30
0.0
 11
4360.90741933785
 21
877.8830666840454
 31
0.0
 12
4359.240752671182
 22
867.8830666840454
 32
0.0
 13
4359.240752671182
 23
867.8830666840454
 33
0.0
  0
SOLID
  5
1119
330
1113
100
AcDbEntity
  8
cotas
100
AcDbTrace
 10
4357.574086004516
 20
1185.35258288294
 30
0.0
 11
4360.90741933785
 21
1185.35258288294
 31
0.0
 12
4359.240752671182
 22
1195.35258288294
 32
0.0
 13
4359.240752671182
 23
1195.35258288294
 33
0.0
  0
MTEXT
  5
111A
330
1113
100
AcDbEntity
  8
cotas
100
AcDbMText
 10
4349.032559252782
 20
1012.19946138631
 30
0.0
 40
10.0
 41
0.0
 71
     5
 72
     1
  1
330
  7
SANINDUSA
 11
0.0000000000000001
 21
1.0
 31
0.0
 73
     1
 44
1.0
1001
ACAD
1000
MTEXTBEGIN
1070
    73
1070
     1
1070
    44
1040
1.0
1070
    74
1070
     0
1000
MTEXTEND
  0
POINT
  5
111B
330
1113
100
AcDbEntity
  8
Defpoints
 62
     0
100
AcDbPoint
 10
4133.159764037483
 20
867.8830666840454
 30
0.0
  0
POINT
  5
111C
330
1113
100
AcDbEntity
  8
Defpoints
 62
     0
100
AcDbPoint
 10
4133.159764037487
 20
1195.35258288294
 30
0.0
  0
POINT
  5
111D
330
1113
100
AcDbEntity
  8
Defpoints
 62
     0
100
AcDbPoint
 10
4359.240752671182
 20
1195.35258288294
 30
0.0
  0
ENDBLK
  5
111E
330
1113
100
AcDbEntity
  8
0
100
AcDbBlockEnd
  0
BLOCK
  5
1120
330
111F
100
AcDbEntity
  8
0
100
AcDbBlockBegin
  2
*D16
 70
     1
 10
0.0
 20
0.0
 30
0.0
  3
*D16
  1

  0
LINE
  5
1121
330
111F
100
AcDbEntity
  8
cotas
100
AcDbLine
 10
4138.159764037488
 20
1195.35258288294
 30
0.0
 11
4364.240752671183
 21
1195.35258288294
 31
0.0
  0
LINE
  5
1122
330
111F
100
AcDbEntity
  8
cotas
100
AcDbLine
 10
4138.220734509029
 20
1232.637842945718
 30
0.0
 11
4364.240752671183
 21
1232.637842945718
 31
0.0
  0
LINE
  5
1123
330
111F
100
AcDbEntity
  8
cotas
100
AcDbLine
 10
4359.240752671182
 20
1205.352582882941
 30
0.0
 11
4359.240752671182
 21
1222.637842945718
 31
0.0
  0
SOLID
  5
1124
330
111F
100
AcDbEntity
  8
cotas
100
AcDbTrace
 10
4357.574086004516
 20
1205.352582882941
 30
0.0
 11
4360.90741933785
 21
1205.352582882941
 31
0.0
 12
4359.240752671182
 22
1195.35258288294
 32
0.0
 13
4359.240752671182
 23
1195.35258288294
 33
0.0
  0
SOLID
  5
1125
330
111F
100
AcDbEntity
  8
cotas
100
AcDbTrace
 10
4357.574086004516
 20
1222.637842945718
 30
0.0
 11
4360.90741933785
 21
1222.637842945718
 31
0.0
 12
4359.240752671182
 22
1232.637842945718
 32
0.0
 13
4359.240752671182
 23
1232.637842945718
 33
0.0
  0
MTEXT
  5
1126
330
111F
100
AcDbEntity
  8
cotas
100
AcDbMText
 10
4349.032559252782
 20
1213.99521291433
 30
0.0
 40
10.0
 41
0.0
 71
     5
 72
     1
  1
35
  7
SANINDUSA
 11
0.0000000000000001
 21
1.0
 31
0.0
 73
     1
 44
1.0
1001
ACAD
1000
MTEXTBEGIN
1070
    73
1070
     1
1070
    44
1040
1.0
1070
    74
1070
     0
1000
MTEXTEND
  0
POINT
  5
1127
330
111F
100
AcDbEntity
  8
Defpoints
 62
     0
100
AcDbPoint
 10
4133.159764037487
 20
1195.35258288294
 30
0.0
  0
POINT
  5
1128
330
111F
100
AcDbEntity
  8
Defpoints
 62
     0
100
AcDbPoint
 10
4133.220734509028
 20
1232.637842945718
 30
0.0
  0
POINT
  5
1129
330
111F
100
AcDbEntity
  8
Defpoints
 62
     0
100
AcDbPoint
 10
4359.240752671182
 20
1232.637842945718
 30
0.0
  0
ENDBLK
  5
112A
330
111F
100
AcDbEntity
  8
0
100
AcDbBlockEnd
  0
BLOCK
  5
112C
330
112B
100
AcDbEntity
  8
0
100
AcDbBlockBegin
  2
*D17
 70
     1
 10
0.0
 20
0.0
 30
0.0
  3
*D17
  1

  0
LINE
  5
112D
330
112B
100
AcDbEntity
  8
cotas
100
AcDbLine
 10
4138.159764037484
 20
867.8830666840454
 30
0.0
 11
4364.240752671183
 21
867.8830666840454
 31
0.0
  0
LINE
  5
112E
330
112B
100
AcDbEntity
  8
cotas
100
AcDbLine
 10
4138.220734509029
 20
830.597806621408
 30
0.0
 11
4364.240752671183
 21
830.597806621408
 31
0.0
  0
LINE
  5
112F
330
112B
100
AcDbEntity
  8
cotas
100
AcDbLine
 10
4359.240752671182
 20
857.8830666840454
 30
0.0
 11
4359.240752671182
 21
840.597806621408
 31
0.0
  0
SOLID
  5
1130
330
112B
100
AcDbEntity
  8
cotas
100
AcDbTrace
 10
4357.574086004516
 20
857.8830666840454
 30
0.0
 11
4360.90741933785
 21
857.8830666840454
 31
0.0
 12
4359.240752671182
 22
867.8830666840454
 32
0.0
 13
4359.240752671182
 23
867.8830666840454
 33
0.0
  0
SOLID
  5
1131
330
112B
100
AcDbEntity
  8
cotas
100
AcDbTrace
 10
4357.574086004516
 20
840.597806621408
 30
0.0
 11
4360.90741933785
 21
840.597806621408
 31
0.0
 12
4359.240752671182
 22
830.597806621408
 32
0.0
 13
4359.240752671182
 23
830.597806621408
 33
0.0
  0
MTEXT
  5
1132
330
112B
100
AcDbEntity
  8
cotas
100
AcDbMText
 10
4349.032559252782
 20
849.2404366527276
 30
0.0
 40
10.0
 41
0.0
 71
     5
 72
     1
  1
35
  7
SANINDUSA
 11
0.0000000000000001
 21
1.0
 31
0.0
 73
     1
 44
1.0
1001
ACAD
1000
MTEXTBEGIN
1070
    73
1070
     1
1070
    44
1040
1.0
1070
    74
1070
     0
1000
MTEXTEND
  0
POINT
  5
1133
330
112B
100
AcDbEntity
  8
Defpoints
 62
     0
100
AcDbPoint
 10
4133.159764037483
 20
867.8830666840454
 30
0.0
  0
POINT
  5
1134
330
112B
100
AcDbEntity
  8
Defpoints
 62
     0
100
AcDbPoint
 10
4133.220734509028
 20
830.597806621408
 30
0.0
  0
POINT
  5
1135
330
112B
100
AcDbEntity
  8
Defpoints
 62
     0
100
AcDbPoint
 10
4359.240752671182
 20
830.597806621408
 30
0.0
  0
ENDBLK
  5
1136
330
112B
100
AcDbEntity
  8
0
100
AcDbBlockEnd
  0
BLOCK
  5
1138
330
1137
100
AcDbEntity
  8
0
100
AcDbBlockBegin
  2
*D18
 70
     1
 10
0.0
 20
0.0
 30
0.0
  3
*D18
  1

  0
LINE
  5
1139
330
1137
100
AcDbEntity
  8
cotas
100
AcDbLine
 10
3030.745367007204
 20
1720.003914990669
 30
0.0
 11
3030.745367007204
 21
1783.956844210912
 31
0.0
  0
LINE
  5
113A
330
1137
100
AcDbEntity
  8
cotas
100
AcDbLine
 10
3432.785403331504
 20
1720.003914990669
 30
0.0
 11
3432.785403331504
 21
1783.956844210912
 31
0.0
  0
LINE
  5
113B
330
1137
100
AcDbEntity
  8
cotas
100
AcDbLine
 10
3040.745367007204
 20
1778.956844210912
 30
0.0
 11
3422.785403331505
 21
1778.956844210912
 31
0.0
  0
SOLID
  5
113C
330
1137
100
AcDbEntity
  8
cotas
100
AcDbTrace
 10
3040.745367007204
 20
1780.623510877578
 30
0.0
 11
3040.745367007204
 21
1777.290177544245
 31
0.0
 12
3030.745367007204
 22
1778.956844210912
 32
0.0
 13
3030.745367007204
 23
1778.956844210912
 33
0.0
  0
SOLID
  5
113D
330
1137
100
AcDbEntity
  8
cotas
100
AcDbTrace
 10
3422.785403331505
 20
1780.623510877578
 30
0.0
 11
3422.785403331505
 21
1777.290177544245
 31
0.0
 12
3432.785403331504
 22
1778.956844210912
 32
0.0
 13
3432.785403331504
 23
1778.956844210912
 33
0.0
  0
MTEXT
  5
113E
330
1137
100
AcDbEntity
  8
cotas
100
AcDbMText
 10
3231.765385169354
 20
1789.165037629314
 30
0.0
 40
10.0
 41
0.0
 71
     5
 72
     1
  1
402
  7
SANINDUSA
 73
     1
 44
1.0
1001
ACAD
1000
MTEXTBEGIN
1070
    73
1070
     1
1070
    44
1040
1.0
1070
    74
1070
     0
1000
MTEXTEND
  0
POINT
  5
113F
330
1137
100
AcDbEntity
  8
Defpoints
 62
     0
100
AcDbPoint
 10
3030.745367007204
 20
1715.003914990669
 30
0.0
  0
POINT
  5
1140
330
1137
100
AcDbEntity
  8
Defpoints
 62
     0
100
AcDbPoint
 10
3432.785403331504
 20
1715.003914990669
 30
0.0
  0
POINT
  5
1141
330
1137
100
AcDbEntity
  8
Defpoints
 62
     0
100
AcDbPoint
 10
3432.785403331504
 20
1778.956844210912
 30
0.0
  0
ENDBLK
  5
1142
330
1137
100
AcDbEntity
  8
0
100
AcDbBlockEnd
  0
BLOCK
  5
1144
330
1143
100
AcDbEntity
  8
0
100
AcDbBlockBegin
  2
*D19
 70
     1
 10
0.0
 20
0.0
 30
0.0
  3
*D19
  1

  0
LINE
  5
1145
330
1143
100
AcDbEntity
  8
cotas
100
AcDbLine
 10
3396.765381593083
 20
1753.956844210912
 30
0.0
 11
3464.114696027347
 21
1753.956844210912
 31
0.0
  0
LINE
  5
1146
330
1143
100
AcDbEntity
  8
cotas
100
AcDbLine
 10
3271.765385169361
 20
1566.956837058355
 30
0.0
 11
3464.114696027347
 21
1566.956837058355
 31
0.0
  0
LINE
  5
1147
330
1143
100
AcDbEntity
  8
cotas
100
AcDbLine
 10
3459.114696027346
 20
1743.956844210912
 30
0.0
 11
3459.114696027346
 21
1576.956837058355
 31
0.0
  0
SOLID
  5
1148
330
1143
100
AcDbEntity
  8
cotas
100
AcDbTrace
 10
3457.44802936068
 20
1743.956844210912
 30
0.0
 11
3460.781362694013
 21
1743.956844210912
 31
0.0
 12
3459.114696027346
 22
1753.956844210912
 32
0.0
 13
3459.114696027346
 23
1753.956844210912
 33
0.0
  0
SOLID
  5
1149
330
1143
100
AcDbEntity
  8
cotas
100
AcDbTrace
 10
3457.44802936068
 20
1576.956837058355
 30
0.0
 11
3460.781362694013
 21
1576.956837058355
 31
0.0
 12
3459.114696027346
 22
1566.956837058355
 32
0.0
 13
3459.114696027346
 23
1566.956837058355
 33
0.0
  0
MTEXT
  5
114A
330
1143
100
AcDbEntity
  8
cotas
100
AcDbMText
 10
3448.886354858777
 20
1660.456840634634
 30
0.0
 40
10.0
 41
0.0
 71
     5
 72
     1
  1
187
  7
SANINDUSA
 11
0.0000000000000001
 21
1.0
 31
0.0
 73
     1
 44
1.0
1001
ACAD
1000
MTEXTBEGIN
1070
    73
1070
     1
1070
    44
1040
1.0
1070
    74
1070
     0
1000
MTEXTEND
  0
POINT
  5
114B
330
1143
100
AcDbEntity
  8
Defpoints
 62
     0
100
AcDbPoint
 10
3391.765381593083
 20
1753.956844210912
 30
0.0
  0
POINT
  5
114C
330
1143
100
AcDbEntity
  8
Defpoints
 62
     0
100
AcDbPoint
 10
3266.765385169362
 20
1566.956837058355
 30
0.0
  0
POINT
  5
114D
330
1143
100
AcDbEntity
  8
Defpoints
 62
     0
100
AcDbPoint
 10
3459.114696027346
 20
1566.956837058355
 30
0.0
  0
ENDBLK
  5
114E
330
1143
100
AcDbEntity
  8
0
100
AcDbBlockEnd
  0
BLOCK
  5
1150
330
114F
100
AcDbEntity
  8
0
100
AcDbBlockBegin
  2
*D20
 70
     1
 10
0.0
 20
0.0
 30
0.0
  3
*D20
  1

  0
LINE
  5
1151
330
114F
100
AcDbEntity
  8
cotas
100
AcDbLine
 10
3731.700716346874
 20
1720.00391499067
 30
0.0
 11
3731.700716346874
 21
1808.956837058355
 31
0.0
  0
LINE
  5
1152
330
114F
100
AcDbEntity
  8
cotas
100
AcDbLine
 10
4333.720734509028
 20
1720.00391499067
 30
0.0
 11
4333.720734509028
 21
1808.956837058355
 31
0.0
  0
LINE
  5
1153
330
114F
100
AcDbEntity
  8
cotas
100
AcDbLine
 10
3741.700716346873
 20
1803.956837058355
 30
0.0
 11
4323.720734509028
 21
1803.956837058355
 31
0.0
  0
SOLID
  5
1154
330
114F
100
AcDbEntity
  8
cotas
100
AcDbTrace
 10
3741.700716346873
 20
1805.623503725022
 30
0.0
 11
3741.700716346873
 21
1802.290170391688
 31
0.0
 12
3731.700716346874
 22
1803.956837058355
 32
0.0
 13
3731.700716346874
 23
1803.956837058355
 33
0.0
  0
SOLID
  5
1155
330
114F
100
AcDbEntity
  8
cotas
100
AcDbTrace
 10
4323.720734509028
 20
1805.623503725022
 30
0.0
 11
4323.720734509028
 21
1802.290170391688
 31
0.0
 12
4333.720734509028
 22
1803.956837058355
 32
0.0
 13
4333.720734509028
 23
1803.956837058355
 33
0.0
  0
MTEXT
  5
1156
330
114F
100
AcDbEntity
  8
cotas
100
AcDbMText
 10
4032.710725427951
 20
1814.165030476756
 30
0.0
 40
10.0
 41
0.0
 71
     5
 72
     1
  1
602
  7
SANINDUSA
 73
     1
 44
1.0
1001
ACAD
1000
MTEXTBEGIN
1070
    73
1070
     1
1070
    44
1040
1.0
1070
    74
1070
     0
1000
MTEXTEND
  0
POINT
  5
1157
330
114F
100
AcDbEntity
  8
Defpoints
 62
     0
100
AcDbPoint
 10
3731.700716346874
 20
1715.003914990669
 30
0.0
  0
POINT
  5
1158
330
114F
100
AcDbEntity
  8
Defpoints
 62
     0
100
AcDbPoint
 10
4333.720734509028
 20
1715.003914990669
 30
0.0
  0
POINT
  5
1159
330
114F
100
AcDbEntity
  8
Defpoints
 62
     0
100
AcDbPoint
 10
4333.720734509028
 20
1803.956837058355
 30
0.0
  0
ENDBLK
  5
115A
330
114F
100
AcDbEntity
  8
0
100
AcDbBlockEnd
  0
BLOCK
  5
115C
330
115B
100
AcDbEntity
  8
0
100
AcDbBlockBegin
  2
*D21
 70
     1
 10
0.0
 20
0.0
 30
0.0
  3
*D21
  1

  0
LINE
  5
115D
330
115B
100
AcDbEntity
  8
cotas
100
AcDbLine
 10
3768.720734509029
 20
1753.956837058355
 30
0.0
 11
3700.364001567803
 21
1753.956837058355
 31
0.0
  0
LINE
  5
115E
330
115B
100
AcDbEntity
  8
cotas
100
AcDbLine
 10
3725.364001567803
 20
1663.956837058355
 30
0.0
 11
3700.364001567803
 21
1663.956837058355
 31
0.0
  0
LINE
  5
115F
330
115B
100
AcDbEntity
  8
cotas
100
AcDbLine
 10
3705.364001567803
 20
1743.956837058355
 30
0.0
 11
3705.364001567803
 21
1673.956837058354
 31
0.0
  0
SOLID
  5
1160
330
115B
100
AcDbEntity
  8
cotas
100
AcDbTrace
 10
3703.697334901136
 20
1743.956837058355
 30
0.0
 11
3707.03066823447
 21
1743.956837058355
 31
0.0
 12
3705.364001567803
 22
1753.956837058355
 32
0.0
 13
3705.364001567803
 23
1753.956837058355
 33
0.0
  0
SOLID
  5
1161
330
115B
100
AcDbEntity
  8
cotas
100
AcDbTrace
 10
3703.697334901136
 20
1673.956837058354
 30
0.0
 11
3707.03066823447
 21
1673.956837058354
 31
0.0
 12
3705.364001567803
 22
1663.956837058355
 32
0.0
 13
3705.364001567803
 23
1663.956837058355
 33
0.0
  0
MTEXT
  5
1162
330
115B
100
AcDbEntity
  8
cotas
100
AcDbMText
 10
3695.159166107762
 20
1708.956837058355
 30
0.0
 40
10.0
 41
0.0
 71
     5
 72
     1
  1
90
  7
SANINDUSA
 11
0.0000000000000001
 21
1.0
 31
0.0
 73
     1
 44
1.0
1001
ACAD
1000
MTEXTBEGIN
1070
    73
1070
     1
1070
    44
1040
1.0
1070
    74
1070
     0
1000
MTEXTEND
  0
POINT
  5
1163
330
115B
100
AcDbEntity
  8
Defpoints
 62
     0
100
AcDbPoint
 10
3773.720734509029
 20
1753.956837058355
 30
0.0
  0
POINT
  5
1164
330
115B
100
AcDbEntity
  8
Defpoints
 62
     0
100
AcDbPoint
 10
3730.364001567803
 20
1663.956837058355
 30
0.0
  0
POINT
  5
1165
330
115B
100
AcDbEntity
  8
Defpoints
 62
     0
100
AcDbPoint
 10
3705.364001567803
 20
1663.956837058355
 30
0.0
  0
ENDBLK
  5
1166
330
115B
100
AcDbEntity
  8
0
100
AcDbBlockEnd
  0
BLOCK
  5
1168
330
1167
100
AcDbEntity
  8
0
100
AcDbBlockBegin
  2
*D22
 70
     1
 10
0.0
 20
0.0
 30
0.0
  3
*D22
  1

  0
LINE
  5
1169
330
1167
100
AcDbEntity
  8
cotas
100
AcDbLine
 10
4298.720734509028
 20
1753.956844210912
 30
0.0
 11
4363.720734509028
 21
1753.956844210912
 31
0.0
  0
LINE
  5
116A
330
1167
100
AcDbEntity
  8
cotas
100
AcDbLine
 10
4298.720734509028
 20
1573.956837058355
 30
0.0
 11
4363.720734509028
 21
1573.956837058355
 31
0.0
  0
LINE
  5
116B
330
1167
100
AcDbEntity
  8
cotas
100
AcDbLine
 10
4358.720734509028
 20
1743.956844210912
 30
0.0
 11
4358.720734509028
 21
1583.956837058354
 31
0.0
  0
SOLID
  5
116C
330
1167
100
AcDbEntity
  8
cotas
100
AcDbTrace
 10
4357.054067842361
 20
1743.956844210912
 30
0.0
 11
4360.387401175695
 21
1743.956844210912
 31
0.0
 12
4358.720734509028
 22
1753.956844210912
 32
0.0
 13
4358.720734509028
 23
1753.956844210912
 33
0.0
  0
SOLID
  5
116D
330
1167
100
AcDbEntity
  8
cotas
100
AcDbTrace
 10
4357.054067842361
 20
1583.956837058354
 30
0.0
 11
4360.387401175695
 21
1583.956837058354
 31
0.0
 12
4358.720734509028
 22
1573.956837058355
 32
0.0
 13
4358.720734509028
 23
1573.956837058355
 33
0.0
  0
MTEXT
  5
116E
330
1167
100
AcDbEntity
  8
cotas
100
AcDbMText
 10
4348.492393340459
 20
1663.956840634634
 30
0.0
 40
10.0
 41
0.0
 71
     5
 72
     1
  1
180
  7
SANINDUSA
 11
0.0000000000000001
 21
1.0
 31
0.0
 73
     1
 44
1.0
1001
ACAD
1000
MTEXTBEGIN
1070
    73
1070
     1
1070
    44
1040
1.0
1070
    74
1070
     0
1000
MTEXTEND
  0
POINT
  5
116F
330
1167
100
AcDbEntity
  8
Defpoints
 62
     0
100
AcDbPoint
 10
4293.720734509029
 20
1753.956844210912
 30
0.0
  0
POINT
  5
1170
330
1167
100
AcDbEntity
  8
Defpoints
 62
     0
100
AcDbPoint
 10
4293.720734509029
 20
1573.956837058355
 30
0.0
  0
POINT
  5
1171
330
1167
100
AcDbEntity
  8
Defpoints
 62
     0
100
AcDbPoint
 10
4358.720734509028
 20
1573.956837058355
 30
0.0
  0
ENDBLK
  5
1172
330
1167
100
AcDbEntity
  8
0
100
AcDbBlockEnd
  0
BLOCK
  5
1174
330
1173
100
AcDbEntity
  8
0
100
AcDbBlockBegin
  2
*D23
 70
     1
 10
0.0
 20
0.0
 30
0.0
  3
*D23
  1

  0
LINE
  5
1175
330
1173
100
AcDbEntity
  8
cotas
100
AcDbLine
 10
3731.700716346874
 20
1720.00391499067
 30
0.0
 11
3731.700716346874
 21
1783.956837058355
 31
0.0
  0
LINE
  5
1176
330
1173
100
AcDbEntity
  8
cotas
100
AcDbLine
 10
4157.434200391479
 20
1666.956837058355
 30
0.0
 11
4157.434200391479
 21
1783.956837058355
 31
0.0
  0
LINE
  5
1177
330
1173
100
AcDbEntity
  8
cotas
100
AcDbLine
 10
3741.700716346873
 20
1778.956837058355
 30
0.0
 11
4147.434200391479
 21
1778.956837058355
 31
0.0
  0
SOLID
  5
1178
330
1173
100
AcDbEntity
  8
cotas
100
AcDbTrace
 10
3741.700716346873
 20
1780.623503725022
 30
0.0
 11
3741.700716346873
 21
1777.290170391688
 31
0.0
 12
3731.700716346874
 22
1778.956837058355
 32
0.0
 13
3731.700716346874
 23
1778.956837058355
 33
0.0
  0
SOLID
  5
1179
330
1173
100
AcDbEntity
  8
cotas
100
AcDbTrace
 10
4147.434200391479
 20
1780.623503725022
 30
0.0
 11
4147.434200391479
 21
1777.290170391688
 31
0.0
 12
4157.434200391479
 22
1778.956837058355
 32
0.0
 13
4157.434200391479
 23
1778.956837058355
 33
0.0
  0
MTEXT
  5
117A
330
1173
100
AcDbEntity
  8
cotas
100
AcDbMText
 10
3944.567458369176
 20
1789.165030476756
 30
0.0
 40
10.0
 41
0.0
 71
     5
 72
     1
  1
426
  7
SANINDUSA
 73
     1
 44
1.0
1001
ACAD
1000
MTEXTBEGIN
1070
    73
1070
     1
1070
    44
1040
1.0
1070
    74
1070
     0
1000
MTEXTEND
  0
POINT
  5
117B
330
1173
100
AcDbEntity
  8
Defpoints
 62
     0
100
AcDbPoint
 10
3731.700716346874
 20
1715.003914990669
 30
0.0
  0
POINT
  5
117C
330
1173
100
AcDbEntity
  8
Defpoints
 62
     0
100
AcDbPoint
 10
4157.434200391479
 20
1661.956837058355
 30
0.0
  0
POINT
  5
117D
330
1173
100
AcDbEntity
  8
Defpoints
 62
     0
100
AcDbPoint
 10
4157.434200391479
 20
1778.956837058355
 30
0.0
  0
ENDBLK
  5
117E
330
1173
100
AcDbEntity
  8
0
100
AcDbBlockEnd
  0
BLOCK
  5
1180
330
117F
100
AcDbEntity
  8
0
100
AcDbBlockBegin
  2
*D24
 70
     1
 10
0.0
 20
0.0
 30
0.0
  3
*D24
  1

  0
LINE
  5
1181
330
117F
100
AcDbEntity
  8
cotas
100
AcDbLine
 10
4157.434200391479
 20
1666.956837058355
 30
0.0
 11
4157.434200391479
 21
1783.956837058355
 31
0.0
  0
LINE
  5
1182
330
117F
100
AcDbEntity
  8
cotas
100
AcDbLine
 10
4333.720734509028
 20
1720.00391499067
 30
0.0
 11
4333.720734509028
 21
1783.956837058355
 31
0.0
  0
LINE
  5
1183
330
117F
100
AcDbEntity
  8
cotas
100
AcDbLine
 10
4167.434200391478
 20
1778.956837058355
 30
0.0
 11
4323.720734509028
 21
1778.956837058355
 31
0.0
  0
SOLID
  5
1184
330
117F
100
AcDbEntity
  8
cotas
100
AcDbTrace
 10
4167.434200391478
 20
1780.623503725022
 30
0.0
 11
4167.434200391478
 21
1777.290170391688
 31
0.0
 12
4157.434200391479
 22
1778.956837058355
 32
0.0
 13
4157.434200391479
 23
1778.956837058355
 33
0.0
  0
SOLID
  5
1185
330
117F
100
AcDbEntity
  8
cotas
100
AcDbTrace
 10
4323.720734509028
 20
1780.623503725022
 30
0.0
 11
4323.720734509028
 21
1777.290170391688
 31
0.0
 12
4333.720734509028
 22
1778.956837058355
 32
0.0
 13
4333.720734509028
 23
1778.956837058355
 33
0.0
  0
MTEXT
  5
1186
330
117F
100
AcDbEntity
  8
cotas
100
AcDbMText
 10
4245.577467450253
 20
1789.154956601673
 30
0.0
 40
10.0
 41
0.0
 71
     5
 72
     1
  1
176
  7
SANINDUSA
 73
     1
 44
1.0
1001
ACAD
1000
MTEXTBEGIN
1070
    73
1070
     1
1070
    44
1040
1.0
1070
    74
1070
     0
1000
MTEXTEND
  0
POINT
  5
1187
330
117F
100
AcDbEntity
  8
Defpoints
 62
     0
100
AcDbPoint
 10
4157.434200391479
 20
1661.956837058355
 30
0.0
  0
POINT
  5
1188
330
117F
100
AcDbEntity
  8
Defpoints
 62
     0
100
AcDbPoint
 10
4333.720734509028
 20
1715.003914990669
 30
0.0
  0
POINT
  5
1189
330
117F
100
AcDbEntity
  8
Defpoints
 62
     0
100
AcDbPoint
 10
4333.720734509028
 20
1778.956837058355
 30
0.0
  0
ENDBLK
  5
118A
330
117F
100
AcDbEntity
  8
0
100
AcDbBlockEnd
  0
BLOCK
  5
118C
330
118B
100
AcDbEntity
  8
0
100
AcDbBlockBegin
  2
*D25
 70
     1
 10
0.0
 20
0.0
 30
0.0
  3
*D25
  1

  0
LINE
  5
118D
330
118B
100
AcDbEntity
  8
cotas
100
AcDbLine
 10
4060.985404856131
 20
1559.267042035468
 30
0.0
 11
4033.158058392201
 21
1594.378967092796
 31
0.0
  0
MTEXT
  5
118E
330
118B
100
AcDbEntity
  8
cotas
100
AcDbMText
 10
4058.175018922473
 20
1579.242855373119
 30
0.0
 40
10.0
 41
0.0
 71
     5
 72
     1
  1
R10
  7
SANINDUSA
 11
0.6211200552359355
 21
-0.7837154311251684
 31
0.0
 73
     1
 44
1.0
1001
ACAD
1000
MTEXTBEGIN
1070
    73
1070
     1
1070
    44
1040
1.0
1070
    74
1070
     0
1000
MTEXTEND
  0
SOLID
  5
118F
330
118B
100
AcDbEntity
  8
cotas
100
AcDbTrace
 10
4034.46425077741
 20
1595.414167184856
 30
0.0
 11
4031.851866006992
 21
1593.343767000736
 31
0.0
 12
4026.946857839841
 22
1602.216121404048
 32
0.0
 13
4026.946857839841
 23
1602.216121404048
 33
0.0
  0
POINT
  5
1190
330
118B
100
AcDbEntity
  8
Defpoints
 62
     0
100
AcDbPoint
 10
4026.946857839841
 20
1602.216121404048
 30
0.0
  0
POINT
  5
1191
330
118B
100
AcDbEntity
  8
Defpoints
 62
     0
100
AcDbPoint
 10
4033.1580583922
 20
1594.378967092797
 30
0.0
  0
ENDBLK
  5
1192
330
118B
100
AcDbEntity
  8
0
100
AcDbBlockEnd
  0
BLOCK
  5
1194
330
1193
100
AcDbEntity
  8
0
100
AcDbBlockBegin
  2
*D26
 70
     1
 10
0.0
 20
0.0
 30
0.0
  3
*D26
  1

  0
LINE
  5
1195
330
1193
100
AcDbEntity
  8
cotas
100
AcDbLine
 10
3253.543458792728
 20
988.8276395410102
 30
0.0
 11
3265.264648283492
 21
999.0167141167702
 31
0.0
  0
LINE
  5
1196
330
1193
100
AcDbEntity
  8
cotas
100
AcDbLine
 10
3173.98486229028
 20
988.8276395410096
 30
0.0
 11
3162.26367279952
 21
999.0167141167626
 31
0.0
  0
ARC
  5
1197
330
1193
100
AcDbEntity
  8
cotas
100
AcDbCircle
 10
3213.764160541509
 20
954.2480231315641
 30
0.0
 40
63.23881542195028
100
AcDbArc
 50
50.06968979582509
 51
129.9303102041835
  0
SOLID
  5
1198
330
1193
100
AcDbEntity
  8
cotas
100
AcDbTrace
 10
3255.521793515632
 20
1003.930633596073
 30
0.0
 11
3253.186875630291
 21
1001.551711659601
 31
0.0
 12
3261.491100382379
 22
995.7364189718164
 32
0.0
 13
3261.491100382379
 23
995.7364189718164
 33
0.0
  0
SOLID
  5
1199
330
1193
100
AcDbEntity
  8
cotas
100
AcDbTrace
 10
3174.34144545272
 20
1001.551711659595
 30
0.0
 11
3172.00652756738
 21
1003.930633596067
 31
0.0
 12
3166.037220700633
 22
995.7364189718092
 32
0.0
 13
3166.037220700633
 23
995.7364189718092
 33
0.0
  0
MTEXT
  5
119A
102
{ACAD_XDICTIONARY
360
1A0A
102
}
330
1193
100
AcDbEntity
  8
cotas
100
AcDbMText
 10
3213.764160541505
 20
1028.843453731486
 30
0.0
 40
10.0
 41
0.0
 71
     5
 72
     1
  1
98,0\U+00B0
  7
SANINDUSA
 73
     1
 44
1.0
1001
ACAD
1000
MTEXTBEGIN
1070
    73
1070
     1
1070
    44
1040
1.0
1070
    74
1070
     0
1000
MTEXTEND
  0
POINT
  5
119B
330
1193
100
AcDbEntity
  8
Defpoints
 62
     0
100
AcDbPoint
 10
3231.548499790272
 20
1014.934636593318
 30
0.0
  0
POINT
  5
119C
330
1193
100
AcDbEntity
  8
Defpoints
 62
     0
100
AcDbPoint
 10
3190.264160541505
 20
974.6762614702584
 30
0.0
  0
POINT
  5
119D
330
1193
100
AcDbEntity
  8
Defpoints
 62
     0
100
AcDbPoint
 10
3249.769910891615
 20
985.5473443960564
 30
0.0
  0
POINT
  5
119E
330
1193
100
AcDbEntity
  8
Defpoints
 62
     0
100
AcDbPoint
 10
3237.264160541507
 20
974.6762614702584
 30
0.0
  0
POINT
  5
119F
330
1193
100
AcDbEntity
  8
Defpoints
 62
     0
100
AcDbPoint
 10
3177.758410191393
 20
985.5473443960564
 30
0.0
  0
ENDBLK
  5
11A0
330
1193
100
AcDbEntity
  8
0
100
AcDbBlockEnd
  0
BLOCK
  5
11A2
330
11A1
100
AcDbEntity
  8
0
100
AcDbBlockBegin
  2
*D27
 70
     1
 10
0.0
 20
0.0
 30
0.0
  3
*D27
  1

  0
LINE
  5
11A3
330
11A1
100
AcDbEntity
  8
cotas
100
AcDbLine
 10
3190.264160541505
 20
933.5423456929619
 30
0.0
 11
3190.264160541505
 21
904.3757118961748
 31
0.0
  0
LINE
  5
11A4
330
11A1
100
AcDbEntity
  8
cotas
100
AcDbLine
 10
3237.264160541507
 20
933.5423456929619
 30
0.0
 11
3237.264160541507
 21
904.3757118961748
 31
0.0
  0
LINE
  5
11A5
330
11A1
100
AcDbEntity
  8
cotas
100
AcDbLine
 10
3200.264160541505
 20
909.3757118961748
 30
0.0
 11
3227.264160541507
 21
909.3757118961748
 31
0.0
  0
SOLID
  5
11A6
330
11A1
100
AcDbEntity
  8
cotas
100
AcDbTrace
 10
3200.264160541505
 20
911.0423785628414
 30
0.0
 11
3200.264160541505
 21
907.7090452295081
 31
0.0
 12
3190.264160541505
 22
909.3757118961748
 32
0.0
 13
3190.264160541505
 23
909.3757118961748
 33
0.0
  0
SOLID
  5
11A7
330
11A1
100
AcDbEntity
  8
cotas
100
AcDbTrace
 10
3227.264160541507
 20
911.0423785628414
 30
0.0
 11
3227.264160541507
 21
907.7090452295081
 31
0.0
 12
3237.264160541507
 22
909.3757118961748
 32
0.0
 13
3237.264160541507
 23
909.3757118961748
 33
0.0
  0
MTEXT
  5
11A8
102
{ACAD_XDICTIONARY
360
1A0C
102
}
330
11A1
100
AcDbEntity
  8
cotas
100
AcDbMText
 10
3213.764160541506
 20
919.8726897336497
 30
0.0
 40
10.0
 41
0.0
 71
     5
 72
     1
  1
\U+00F847
  7
SANINDUSA
 73
     1
 44
1.0
1001
ACAD
1000
MTEXTBEGIN
1070
    73
1070
     1
1070
    44
1040
1.0
1070
    74
1070
     0
1000
MTEXTEND
  0
POINT
  5
11A9
330
11A1
100
AcDbEntity
  8
Defpoints
 62
     0
100
AcDbPoint
 10
3190.264160541505
 20
938.542345692962
 30
0.0
  0
POINT
  5
11AA
330
11A1
100
AcDbEntity
  8
Defpoints
 62
     0
100
AcDbPoint
 10
3237.264160541507
 20
938.542345692962
 30
0.0
  0
POINT
  5
11AB
330
11A1
100
AcDbEntity
  8
Defpoints
 62
     0
100
AcDbPoint
 10
3237.264160541507
 20
909.3757118961748
 30
0.0
  0
ENDBLK
  5
11AC
330
11A1
100
AcDbEntity
  8
0
100
AcDbBlockEnd
  0
BLOCK
  5
11AE
330
11AD
100
AcDbEntity
  8
0
100
AcDbBlockBegin
  2
*D28
 70
     1
 10
0.0
 20
0.0
 30
0.0
  3
*D28
  1

  0
LINE
  5
11AF
330
11AD
100
AcDbEntity
  8
cotas
100
AcDbLine
 10
3383.597189929521
 20
1702.3628590546
 30
0.0
 11
3411.449282038478
 21
1737.455158175763
 31
0.0
  0
MTEXT
  5
11B0
330
11AD
100
AcDbEntity
  8
cotas
100
AcDbMText
 10
3386.421657346655
 20
1722.336686214319
 30
0.0
 40
10.0
 41
0.0
 71
     5
 72
     1
  1
R40
  7
SANINDUSA
 11
0.6216723901999066
 21
0.7832773705802659
 31
0.0
 73
     1
 44
1.0
1001
ACAD
1000
MTEXTBEGIN
1070
    73
1070
     1
1070
    44
1040
1.0
1070
    74
1070
     0
1000
MTEXTEND
  0
SOLID
  5
11B1
330
11AD
100
AcDbEntity
  8
cotas
100
AcDbTrace
 10
3410.143819754178
 20
1738.491278826096
 30
0.0
 11
3412.754744322779
 21
1736.419037525429
 31
0.0
 12
3417.666005940477
 22
1745.287931881565
 32
0.0
 13
3417.666005940477
 23
1745.287931881565
 33
0.0
  0
POINT
  5
11B2
330
11AD
100
AcDbEntity
  8
Defpoints
 62
     0
100
AcDbPoint
 10
3417.666005940477
 20
1745.287931881565
 30
0.0
  0
POINT
  5
11B3
330
11AD
100
AcDbEntity
  8
Defpoints
 62
     0
100
AcDbPoint
 10
3392.799110332478
 20
1713.956837058351
 30
0.0
  0
ENDBLK
  5
11B4
330
11AD
100
AcDbEntity
  8
0
100
AcDbBlockEnd
  0
BLOCK
  5
11B6
330
11B5
100
AcDbEntity
  8
0
100
AcDbBlockBegin
  2
*D29
 70
     1
 10
0.0
 20
0.0
 30
0.0
  3
*D29
  1

  0
LINE
  5
11B7
330
11B5
100
AcDbEntity
  8
cotas
100
AcDbLine
 10
3383.103366011215
 20
1624.151648511032
 30
0.0
 11
3415.791977023324
 21
1593.514037596442
 31
0.0
  0
MTEXT
  5
11B8
330
11B5
100
AcDbEntity
  8
cotas
100
AcDbMText
 10
3402.778083582358
 20
1619.697787703537
 30
0.0
 40
10.0
 41
0.0
 71
     5
 72
     1
  1
R40
  7
SANINDUSA
 11
0.7296258701398765
 21
-0.6838465395266896
 31
0.0
 73
     1
 44
1.0
1001
ACAD
1000
MTEXTBEGIN
1070
    73
1070
     1
1070
    44
1040
1.0
1070
    74
1070
     0
1000
MTEXTEND
  0
SOLID
  5
11B9
330
11B5
100
AcDbEntity
  8
cotas
100
AcDbTrace
 10
3416.931721255869
 20
1594.730080713342
 30
0.0
 11
3414.65223279078
 21
1592.297994479543
 31
0.0
 12
3423.088235724723
 22
1586.675572201175
 32
0.0
 13
3423.088235724723
 23
1586.675572201175
 33
0.0
  0
POINT
  5
11BA
330
11B5
100
AcDbEntity
  8
Defpoints
 62
     0
100
AcDbPoint
 10
3423.088235724723
 20
1586.675572201175
 30
0.0
  0
POINT
  5
11BB
330
11B5
100
AcDbEntity
  8
Defpoints
 62
     0
100
AcDbPoint
 10
3393.884151080513
 20
1614.047288366008
 30
0.0
  0
ENDBLK
  5
11BC
330
11B5
100
AcDbEntity
  8
0
100
AcDbBlockEnd
  0
BLOCK
  5
11BE
330
11BD
100
AcDbEntity
  8
0
100
AcDbBlockBegin
  2
*D30
 70
     1
 10
0.0
 20
0.0
 30
0.0
  3
*D30
  1

  0
LINE
  5
11BF
330
11BD
100
AcDbEntity
  8
cotas
100
AcDbLine
 10
3078.093434820202
 20
1626.17060175436
 30
0.0
 11
3052.481694448541
 21
1589.411286641187
 31
0.0
  0
MTEXT
  5
11C0
330
11BD
100
AcDbEntity
  8
cotas
100
AcDbMText
 10
3059.772973327556
 20
1617.727138111204
 30
0.0
 40
10.0
 41
0.0
 71
     5
 72
     1
  1
R40
  7
SANINDUSA
 11
0.5716666378864077
 21
0.8204859871610549
 31
0.0
 73
     1
 44
1.0
1001
ACAD
1000
MTEXTBEGIN
1070
    73
1070
     1
1070
    44
1040
1.0
1070
    74
1070
     0
1000
MTEXTEND
  0
SOLID
  5
11C1
330
11BD
100
AcDbEntity
  8
cotas
100
AcDbTrace
 10
3051.114217803272
 20
1590.364064370998
 30
0.0
 11
3053.849171093809
 21
1588.458508911377
 31
0.0
 12
3046.765028069677
 22
1581.206426769577
 32
0.0
 13
3046.765028069677
 23
1581.206426769577
 33
0.0
  0
POINT
  5
11C2
330
11BD
100
AcDbEntity
  8
Defpoints
 62
     0
100
AcDbPoint
 10
3046.765028069677
 20
1581.206426769577
 30
0.0
  0
POINT
  5
11C3
330
11BD
100
AcDbEntity
  8
Defpoints
 62
     0
100
AcDbPoint
 10
3069.646619258192
 20
1614.047288366008
 30
0.0
  0
ENDBLK
  5
11C4
330
11BD
100
AcDbEntity
  8
0
100
AcDbBlockEnd
  0
BLOCK
  5
11C6
330
11C5
100
AcDbEntity
  8
0
100
AcDbBlockBegin
  2
*D31
 70
     1
 10
0.0
 20
0.0
 30
0.0
  3
*D31
  1

  0
LINE
  5
11C7
330
11C5
100
AcDbEntity
  8
cotas
100
AcDbLine
 10
3082.172075170761
 20
1704.564682570859
 30
0.0
 11
3047.544575369207
 21
1732.992569406645
 31
0.0
  0
MTEXT
  5
11C8
330
11C5
100
AcDbEntity
  8
cotas
100
AcDbMText
 10
3075.19805659201
 20
1723.493350047996
 30
0.0
 40
10.0
 41
0.0
 71
     5
 72
     1
  1
R40
  7
SANINDUSA
 11
0.7729028212339103
 21
-0.6345244116097208
 31
0.0
 73
     1
 44
1.0
1001
ACAD
1000
MTEXTBEGIN
1070
    73
1070
     1
1070
    44
1040
1.0
1070
    74
1070
     0
1000
MTEXTEND
  0
SOLID
  5
11C9
330
11C5
100
AcDbEntity
  8
cotas
100
AcDbTrace
 10
3048.602116055223
 20
1734.280740775368
 30
0.0
 11
3046.48703468319
 21
1731.704398037922
 31
0.0
 12
3039.815547156868
 22
1739.337813522742
 32
0.0
 13
3039.815547156868
 23
1739.337813522742
 33
0.0
  0
POINT
  5
11CA
330
11C5
100
AcDbEntity
  8
Defpoints
 62
     0
100
AcDbPoint
 10
3039.815547156868
 20
1739.337813522742
 30
0.0
  0
POINT
  5
11CB
330
11C5
100
AcDbEntity
  8
Defpoints
 62
     0
100
AcDbPoint
 10
3070.731660006228
 20
1713.956837058351
 30
0.0
  0
ENDBLK
  5
11CC
330
11C5
100
AcDbEntity
  8
0
100
AcDbBlockEnd
  0
BLOCK
  5
11CE
330
11CD
100
AcDbEntity
  8
0
100
AcDbBlockBegin
  2
*D32
 70
     1
 10
0.0
 20
0.0
 30
0.0
  3
*D32
  1

  0
LINE
  5
11CF
330
11CD
100
AcDbEntity
  8
cotas
100
AcDbLine
 10
2981.296082955564
 20
1147.868342131501
 30
0.0
 11
3015.054836498535
 21
1118.414054639188
 31
0.0
  0
MTEXT
  5
11D0
330
11CD
100
AcDbEntity
  8
cotas
100
AcDbMText
 10
3001.116907460796
 20
1144.117835028512
 30
0.0
 40
10.0
 41
0.0
 71
     5
 72
     1
  1
R40
  7
SANINDUSA
 11
0.7535119775968086
 21
-0.6574341789245116
 31
0.0
 73
     1
 44
1.0
1001
ACAD
1000
MTEXTBEGIN
1070
    73
1070
     1
1070
    44
1040
1.0
1070
    74
1070
     0
1000
MTEXTEND
  0
LINE
  5
11D1
330
11CD
100
AcDbEntity
  8
cotas
100
AcDbLine
 10
3052.730435378375
 20
1085.542345692962
 30
0.0
 11
3022.589956274502
 21
1111.839712849943
 31
0.0
  0
SOLID
  5
11D2
330
11CD
100
AcDbEntity
  8
cotas
100
AcDbTrace
 10
3016.150560130075
 20
1119.669907935183
 30
0.0
 11
3013.959112866994
 21
1117.158201343193
 31
0.0
 12
3022.589956274502
 22
1111.839712849943
 32
0.0
 13
3022.589956274502
 23
1111.839712849943
 33
0.0
  0
POINT
  5
11D3
330
11CD
100
AcDbEntity
  8
Defpoints
 62
     0
100
AcDbPoint
 10
3022.589956274502
 20
1111.839712849943
 30
0.0
  0
POINT
  5
11D4
330
11CD
100
AcDbEntity
  8
Defpoints
 62
     0
100
AcDbPoint
 10
3052.730435378375
 20
1085.542345692962
 30
0.0
  0
ENDBLK
  5
11D5
330
11CD
100
AcDbEntity
  8
0
100
AcDbBlockEnd
  0
BLOCK
  5
11D7
330
11D6
100
AcDbEntity
  8
0
100
AcDbBlockBegin
  2
*D33
 70
     1
 10
0.0
 20
0.0
 30
0.0
  3
*D33
  1

  0
LINE
  5
11D8
330
11D6
100
AcDbEntity
  8
cotas
100
AcDbLine
 10
3093.880669826413
 20
1152.233193702105
 30
0.0
 11
3065.712296224078
 21
1129.830831045535
 31
0.0
  0
MTEXT
  5
11D9
330
11D6
100
AcDbEntity
  8
cotas
100
AcDbMText
 10
3077.420479951935
 20
1152.052329052777
 30
0.0
 40
10.0
 41
0.0
 71
     5
 72
     1
  1
R5
  7
SANINDUSA
 11
0.7826592329516454
 21
0.6224504197729664
 31
0.0
 73
     1
 44
1.0
1001
ACAD
1000
MTEXTBEGIN
1070
    73
1070
     1
1070
    44
1040
1.0
1070
    74
1070
     0
1000
MTEXTEND
  0
LINE
  5
11DA
330
11D6
100
AcDbEntity
  8
cotas
100
AcDbLine
 10
3053.866282697072
 20
1120.409673302703
 30
0.0
 11
3057.885703894561
 21
1123.606326847805
 31
0.0
  0
SOLID
  5
11DB
330
11D6
100
AcDbEntity
  8
cotas
100
AcDbTrace
 10
3064.674878857789
 20
1131.135263100454
 30
0.0
 11
3066.749713590366
 21
1128.526398990616
 31
0.0
 12
3057.885703894561
 22
1123.606326847805
 32
0.0
 13
3057.885703894561
 23
1123.606326847805
 33
0.0
  0
POINT
  5
11DC
330
11D6
100
AcDbEntity
  8
Defpoints
 62
     0
100
AcDbPoint
 10
3057.885703894561
 20
1123.606326847805
 30
0.0
  0
POINT
  5
11DD
330
11D6
100
AcDbEntity
  8
Defpoints
 62
     0
100
AcDbPoint
 10
3053.866282697072
 20
1120.409673302703
 30
0.0
  0
ENDBLK
  5
11DE
330
11D6
100
AcDbEntity
  8
0
100
AcDbBlockEnd
  0
BLOCK
  5
11E0
330
11DF
100
AcDbEntity
  8
0
100
AcDbBlockBegin
  2
*D34
 70
     1
 10
0.0
 20
0.0
 30
0.0
  3
*D34
  1

  0
LINE
  5
11E1
330
11DF
100
AcDbEntity
  8
cotas
100
AcDbLine
 10
3057.318205064246
 20
1008.617610906349
 30
0.0
 11
3030.180575230556
 21
1032.258088291694
 31
0.0
  0
MTEXT
  5
11E2
330
11DF
100
AcDbEntity
  8
cotas
100
AcDbMText
 10
3054.156380936249
 20
1024.772283014098
 30
0.0
 40
10.0
 41
0.0
 71
     5
 72
     1
  1
R5
  7
SANINDUSA
 11
0.7540199817571046
 21
-0.6568514802533489
 31
0.0
 73
     1
 44
1.0
1001
ACAD
1000
MTEXTBEGIN
1070
    73
1070
     1
1070
    44
1040
1.0
1070
    74
1070
     0
1000
MTEXTEND
  0
SOLID
  5
11E3
330
11DF
100
AcDbEntity
  8
cotas
100
AcDbTrace
 10
3031.275327697645
 20
1033.514788261289
 30
0.0
 11
3029.085822763467
 21
1031.001388322098
 31
0.0
 12
3022.640375412985
 22
1038.826603094227
 32
0.0
 13
3022.640375412985
 23
1038.826603094227
 33
0.0
  0
POINT
  5
11E4
330
11DF
100
AcDbEntity
  8
Defpoints
 62
     0
100
AcDbPoint
 10
3022.640375412985
 20
1038.826603094227
 30
0.0
  0
POINT
  5
11E5
330
11DF
100
AcDbEntity
  8
Defpoints
 62
     0
100
AcDbPoint
 10
3026.410475321769
 20
1035.542345692961
 30
0.0
  0
ENDBLK
  5
11E6
330
11DF
100
AcDbEntity
  8
0
100
AcDbBlockEnd
  0
BLOCK
  5
11E8
330
11E7
100
AcDbEntity
  8
0
100
AcDbBlockBegin
  2
*D35
 70
     1
 10
0.0
 20
0.0
 30
0.0
  3
*D35
  1

  0
LINE
  5
11E9
330
11E7
100
AcDbEntity
  8
cotas
100
AcDbLine
 10
3436.67193850288
 20
1157.36851173601
 30
0.0
 11
3407.431232480136
 21
1123.424593227
 31
0.0
  0
MTEXT
  5
11EA
330
11E7
100
AcDbEntity
  8
cotas
100
AcDbMText
 10
3417.58327811023
 20
1150.845135921996
 30
0.0
 40
10.0
 41
0.0
 71
     5
 72
     1
  1
R40
  7
SANINDUSA
 11
0.652666935509917
 21
0.7576449506807884
 31
0.0
 73
     1
 44
1.0
1001
ACAD
1000
MTEXTBEGIN
1070
    73
1070
     1
1070
    44
1040
1.0
1070
    74
1070
     0
1000
MTEXTEND
  0
LINE
  5
11EB
330
11E7
100
AcDbEntity
  8
cotas
100
AcDbLine
 10
3374.797885704641
 20
1085.542345692962
 30
0.0
 11
3400.904563125037
 21
1115.848143720192
 31
0.0
  0
SOLID
  5
11EC
330
11E7
100
AcDbEntity
  8
cotas
100
AcDbTrace
 10
3406.168490895668
 20
1124.51237145285
 30
0.0
 11
3408.693974064604
 21
1122.33681500115
 31
0.0
 12
3400.904563125037
 22
1115.848143720192
 32
0.0
 13
3400.904563125037
 23
1115.848143720192
 33
0.0
  0
POINT
  5
11ED
330
11E7
100
AcDbEntity
  8
Defpoints
 62
     0
100
AcDbPoint
 10
3400.904563125037
 20
1115.848143720192
 30
0.0
  0
POINT
  5
11EE
330
11E7
100
AcDbEntity
  8
Defpoints
 62
     0
100
AcDbPoint
 10
3374.797885704641
 20
1085.542345692962
 30
0.0
  0
ENDBLK
  5
11EF
330
11E7
100
AcDbEntity
  8
0
100
AcDbBlockEnd
  0
BLOCK
  5
11F1
330
11F0
100
AcDbEntity
  8
0
100
AcDbBlockBegin
  2
*D36
 70
     1
 10
0.0
 20
0.0
 30
0.0
  3
*D36
  1

  0
LINE
  5
11F2
330
11F0
100
AcDbEntity
  8
cotas
100
AcDbLine
 10
3333.260571743689
 20
1151.707132765694
 30
0.0
 11
3361.707229420965
 21
1129.659212433174
 31
0.0
  0
MTEXT
  5
11F3
330
11F0
100
AcDbEntity
  8
cotas
100
AcDbMText
 10
3349.721735905997
 20
1151.732374533195
 30
0.0
 40
10.0
 41
0.0
 71
     5
 72
     1
  1
R5
  7
SANINDUSA
 11
0.790391365580595
 21
-0.6126022275634022
 31
0.0
 73
     1
 44
1.0
1001
ACAD
1000
MTEXTBEGIN
1070
    73
1070
     1
1070
    44
1040
1.0
1070
    74
1070
     0
1000
MTEXTEND
  0
LINE
  5
11F4
330
11F0
100
AcDbEntity
  8
cotas
100
AcDbLine
 10
3373.713265480585
 20
1120.35379140428
 30
0.0
 11
3369.611143076771
 21
1123.53319015754
 31
0.0
  0
SOLID
  5
11F5
330
11F0
100
AcDbEntity
  8
cotas
100
AcDbTrace
 10
3362.728233133571
 20
1130.976531375808
 30
0.0
 11
3360.686225708359
 21
1128.34189349054
 31
0.0
 12
3369.611143076771
 22
1123.53319015754
 32
0.0
 13
3369.611143076771
 23
1123.53319015754
 33
0.0
  0
POINT
  5
11F6
330
11F0
100
AcDbEntity
  8
Defpoints
 62
     0
100
AcDbPoint
 10
3369.611143076771
 20
1123.53319015754
 30
0.0
  0
POINT
  5
11F7
330
11F0
100
AcDbEntity
  8
Defpoints
 62
     0
100
AcDbPoint
 10
3373.713265480585
 20
1120.35379140428
 30
0.0
  0
ENDBLK
  5
11F8
330
11F0
100
AcDbEntity
  8
0
100
AcDbBlockEnd
  0
BLOCK
  5
11FA
330
11F9
100
AcDbEntity
  8
0
100
AcDbBlockBegin
  2
*D37
 70
     1
 10
0.0
 20
0.0
 30
0.0
  3
*D37
  1

  0
LINE
  5
11FB
330
11F9
100
AcDbEntity
  8
cotas
100
AcDbLine
 10
3351.001740549822
 20
1005.441473610888
 30
0.0
 11
3373.232089517628
 21
1033.745796757129
 31
0.0
  0
MTEXT
  5
11FC
330
11F9
100
AcDbEntity
  8
cotas
100
AcDbMText
 10
3351.082328547431
 20
1021.902459860196
 30
0.0
 40
10.0
 41
0.0
 71
     5
 72
     1
  1
R5
  7
SANINDUSA
 11
0.617671013492503
 21
0.7864365957222135
 31
0.0
 73
     1
 44
1.0
1001
ACAD
1000
MTEXTBEGIN
1070
    73
1070
     1
1070
    44
1040
1.0
1070
    74
1070
     0
1000
MTEXTEND
  0
LINE
  5
11FD
330
11F9
100
AcDbEntity
  8
cotas
100
AcDbLine
 10
3382.497154720015
 20
1045.542345692962
 30
0.0
 11
3379.408799652554
 21
1041.610162714352
 31
0.0
  0
SOLID
  5
11FE
330
11F9
100
AcDbEntity
  8
cotas
100
AcDbTrace
 10
3371.921361858092
 20
1034.775248446284
 30
0.0
 11
3374.542817177166
 21
1032.716345067975
 31
0.0
 12
3379.408799652554
 22
1041.610162714352
 32
0.0
 13
3379.408799652554
 23
1041.610162714352
 33
0.0
  0
POINT
  5
11FF
330
11F9
100
AcDbEntity
  8
Defpoints
 62
     0
100
AcDbPoint
 10
3379.408799652554
 20
1041.610162714352
 30
0.0
  0
POINT
  5
1200
330
11F9
100
AcDbEntity
  8
Defpoints
 62
     0
100
AcDbPoint
 10
3382.497154720015
 20
1045.542345692962
 30
0.0
  0
ENDBLK
  5
1201
330
11F9
100
AcDbEntity
  8
0
100
AcDbBlockEnd
  0
BLOCK
  5
1203
330
1202
100
AcDbEntity
  8
0
100
AcDbBlockBegin
  2
*D38
 70
     1
 10
0.0
 20
0.0
 30
0.0
  3
*D38
  1

  0
ARC
  5
1204
330
1202
100
AcDbEntity
  8
cotas
100
AcDbCircle
 10
4337.434200391485
 20
1573.956837058355
 30
0.0
 40
107.6088158184528
100
AcDbArc
 50
96.82636807384996
 51
174.6736319261544
  0
SOLID
  5
1205
330
1202
100
AcDbEntity
  8
cotas
100
AcDbTrace
 10
4324.522721089979
 20
1682.465073429756
 30
0.0
 11
4324.764712249606
 21
1679.140535658912
 31
0.0
 12
4334.617329982327
 22
1681.528778023217
 32
0.0
 13
4334.617329982327
 23
1681.528778023217
 33
0.0
  0
SOLID
  5
1206
330
1202
100
AcDbEntity
  8
cotas
100
AcDbTrace
 10
4231.95489708124
 20
1583.86859544197
 30
0.0
 11
4228.62516395638
 21
1584.023477423896
 31
0.0
 12
4229.825384573032
 22
1573.956837058355
 32
0.0
 13
4229.825384573032
 23
1573.956837058355
 33
0.0
  0
MTEXT
  5
1207
102
{ACAD_XDICTIONARY
360
1A0E
102
}
330
1202
100
AcDbEntity
  8
cotas
100
AcDbMText
 10
4252.219030968392
 20
1656.969779858611
 30
0.0
 40
10.0
 41
0.0
 71
     5
 72
     1
  1
88,5\U+00B0
  7
SANINDUSA
 11
0.6977904598416498
 21
0.7163019434246839
 31
0.0
 73
     1
 44
1.0
1001
ACAD
1000
MTEXTBEGIN
1070
    73
1070
     1
1070
    44
1040
1.0
1070
    74
1070
     0
1000
MTEXTEND
  0
POINT
  5
1208
330
1202
100
AcDbEntity
  8
Defpoints
 62
     0
100
AcDbPoint
 10
4282.011563048994
 20
1666.195595245206
 30
0.0
  0
POINT
  5
1209
330
1202
100
AcDbEntity
  8
Defpoints
 62
     0
100
AcDbPoint
 10
4296.373051829077
 20
1573.956837058355
 30
0.0
  0
POINT
  5
120A
330
1202
100
AcDbEntity
  8
Defpoints
 62
     0
100
AcDbPoint
 10
4336.359344828102
 20
1615.003914990669
 30
0.0
  0
POINT
  5
120B
330
1202
100
AcDbEntity
  8
Defpoints
 62
     0
100
AcDbPoint
 10
4333.740752671175
 20
1715.003914990669
 30
0.0
  0
POINT
  5
120C
330
1202
100
AcDbEntity
  8
Defpoints
 62
     0
100
AcDbPoint
 10
4161.324837320229
 20
1573.956837058355
 30
0.0
  0
ENDBLK
  5
120D
330
1202
100
AcDbEntity
  8
0
100
AcDbBlockEnd
  0
BLOCK
  5
120F
330
120E
100
AcDbEntity
  8
0
100
AcDbBlockBegin
  2
*D39
 70
     1
 10
0.0
 20
0.0
 30
0.0
  3
*D39
  1

  0
LINE
  5
1210
330
120E
100
AcDbEntity
  8
cotas
100
AcDbLine
 10
3731.831601088412
 20
1720.002201615547
 30
0.0
 11
3732.035110881113
 21
1727.773927050653
 31
0.0
  0
ARC
  5
1211
330
120E
100
AcDbEntity
  8
cotas
100
AcDbCircle
 10
3730.364001567803
 20
1663.956837058355
 30
0.0
 40
58.83896601153744
100
AcDbArc
 50
9.749485064244758
 51
78.75051493575617
  0
SOLID
  5
1212
330
120E
100
AcDbEntity
  8
cotas
100
AcDbTrace
 10
3790.013828668653
 20
1674.062295092091
 30
0.0
 11
3786.692552490721
 21
1673.779036092207
 31
0.0
 12
3789.202967579341
 22
1663.956837058355
 32
0.0
 13
3789.202967579341
 23
1663.956837058355
 33
0.0
  0
SOLID
  5
1213
330
120E
100
AcDbEntity
  8
cotas
100
AcDbTrace
 10
3741.657344345127
 20
1720.008970397329
 30
0.0
 11
3742.027447154053
 21
1723.321693600668
 31
0.0
 12
3731.904226139574
 22
1722.775640425776
 32
0.0
 13
3731.904226139574
 23
1722.775640425776
 33
0.0
  0
MTEXT
  5
1214
102
{ACAD_XDICTIONARY
360
1A10
102
}
330
120E
100
AcDbEntity
  8
cotas
100
AcDbMText
 10
3780.64523279367
 20
1712.938643935437
 30
0.0
 40
10.0
 41
0.0
 71
     5
 72
     1
  1
88,5\U+00B0
  7
SANINDUSA
 11
0.697790459841689
 21
-0.7163019434246456
 31
0.0
 73
     1
 44
1.0
1001
ACAD
1000
MTEXTBEGIN
1070
    73
1070
     1
1070
    44
1040
1.0
1070
    74
1070
     0
1000
MTEXTEND
  0
POINT
  5
1215
330
120E
100
AcDbEntity
  8
Defpoints
 62
     0
100
AcDbPoint
 10
3781.574830779158
 20
1692.930530174563
 30
0.0
  0
POINT
  5
1216
330
120E
100
AcDbEntity
  8
Defpoints
 62
     0
100
AcDbPoint
 10
3730.364001567803
 20
1663.956837058355
 30
0.0
  0
POINT
  5
1217
330
120E
100
AcDbEntity
  8
Defpoints
 62
     0
100
AcDbPoint
 10
3731.700716346874
 20
1715.003914990669
 30
0.0
  0
POINT
  5
1218
330
120E
100
AcDbEntity
  8
Defpoints
 62
     0
100
AcDbPoint
 10
3730.364001567803
 20
1663.956837058355
 30
0.0
  0
POINT
  5
1219
330
120E
100
AcDbEntity
  8
Defpoints
 62
     0
100
AcDbPoint
 10
3932.720734509028
 20
1663.956837058354
 30
0.0
  0
ENDBLK
  5
121A
330
120E
100
AcDbEntity
  8
0
100
AcDbBlockEnd
  0
BLOCK
  5
121C
330
121B
100
AcDbEntity
  8
0
100
AcDbBlockBegin
  2
*D40
 70
     1
 10
0.0
 20
0.0
 30
0.0
  3
*D40
  1

  0
LINE
  5
121D
330
121B
100
AcDbEntity
  8
cotas
100
AcDbLine
 10
3029.277767486582
 20
1658.958550433476
 30
0.0
 11
3029.040600993692
 21
1649.901527473208
 31
0.0
  0
ARC
  5
121E
330
121B
100
AcDbEntity
  8
cotas
100
AcDbCircle
 10
3031.76538516936
 20
1753.956837058355
 30
0.0
 40
99.09097896390788
100
AcDbArc
 50
274.2845952546705
 51
354.2154047453225
  0
SOLID
  5
121F
330
121B
100
AcDbEntity
  8
cotas
100
AcDbTrace
 10
3039.209029697817
 20
1653.476617352387
 30
0.0
 11
3039.128037076822
 21
1656.80896656975
 31
0.0
 12
3029.171485735232
 22
1654.899814098085
 32
0.0
 13
3029.171485735232
 23
1654.899814098085
 33
0.0
  0
SOLID
  5
1220
330
121B
100
AcDbEntity
  8
cotas
100
AcDbTrace
 10
3128.687233750679
 20
1744.053673363802
 30
0.0
 11
3132.016320915538
 21
1743.885477763749
 31
0.0
 12
3130.856364133267
 22
1753.956837058354
 32
0.0
 13
3130.856364133267
 23
1753.956837058354
 33
0.0
  0
MTEXT
  5
1221
102
{ACAD_XDICTIONARY
360
1A12
102
}
330
121B
100
AcDbEntity
  8
cotas
100
AcDbMText
 10
3092.994959824697
 20
1691.102920524958
 30
0.0
 40
10.0
 41
0.0
 71
     5
 72
     1
  1
91,5\U+00B0
  7
SANINDUSA
 11
0.7163019434246947
 21
0.6977904598416388
 31
0.0
 73
     1
 44
1.0
1001
ACAD
1000
MTEXTBEGIN
1070
    73
1070
     1
1070
    44
1040
1.0
1070
    74
1070
     0
1000
MTEXTEND
  0
POINT
  5
1222
330
121B
100
AcDbEntity
  8
Defpoints
 62
     0
100
AcDbPoint
 10
3079.805645050682
 20
1667.289914056782
 30
0.0
  0
POINT
  5
1223
330
121B
100
AcDbEntity
  8
Defpoints
 62
     0
100
AcDbPoint
 10
3231.765385169361
 20
1753.956837058355
 30
0.0
  0
POINT
  5
1224
330
121B
100
AcDbEntity
  8
Defpoints
 62
     0
100
AcDbPoint
 10
3029.408652228122
 20
1663.956837058355
 30
0.0
  0
POINT
  5
1225
330
121B
100
AcDbEntity
  8
Defpoints
 62
     0
100
AcDbPoint
 10
3030.7453670072
 20
1715.00391499067
 30
0.0
  0
POINT
  5
1226
330
121B
100
AcDbEntity
  8
Defpoints
 62
     0
100
AcDbPoint
 10
3070.731660006226
 20
1753.956837058355
 30
0.0
  0
ENDBLK
  5
1227
330
121B
100
AcDbEntity
  8
0
100
AcDbBlockEnd
  0
BLOCK
  5
1229
330
1228
100
AcDbEntity
  8
0
100
AcDbBlockBegin
  2
*D41
 70
     1
 10
0.0
 20
0.0
 30
0.0
  3
*D41
  1

  0
ARC
  5
122A
330
1228
100
AcDbEntity
  8
cotas
100
AcDbCircle
 10
3430.232955430747
 20
1753.956837058355
 30
0.0
 40
97.4343887193617
100
AcDbArc
 50
185.8830313560247
 51
265.6282016827558
  0
SOLID
  5
122B
330
1228
100
AcDbEntity
  8
cotas
100
AcDbTrace
 10
3331.647261825229
 20
1743.884485057114
 30
0.0
 11
3334.976203278937
 21
1744.055540337346
 31
0.0
 12
3332.798566711386
 22
1753.956837058354
 32
0.0
 13
3332.798566711386
 23
1753.956837058354
 33
0.0
  0
SOLID
  5
122C
330
1228
100
AcDbEntity
  8
cotas
100
AcDbTrace
 10
3422.847302691518
 20
1658.47209146575
 30
0.0
 11
3422.764100862504
 21
1655.139796675856
 31
0.0
 12
3432.802586146695
 22
1656.556338583761
 32
0.0
 13
3432.802586146695
 23
1656.556338583761
 33
0.0
  0
MTEXT
  5
122D
102
{ACAD_XDICTIONARY
360
1A14
102
}
330
1228
100
AcDbEntity
  8
cotas
100
AcDbMText
 10
3370.165378977676
 20
1692.28365081063
 30
0.0
 40
10.0
 41
0.0
 71
     5
 72
     1
  1
91,5\U+00B0
  7
SANINDUSA
 11
0.7163703421180334
 21
-0.697720239733442
 31
0.0
 73
     1
 44
1.0
1001
ACAD
1000
MTEXTBEGIN
1070
    73
1070
     1
1070
    44
1040
1.0
1070
    74
1070
     0
1000
MTEXTEND
  0
POINT
  5
122E
330
1228
100
AcDbEntity
  8
Defpoints
 62
     0
100
AcDbPoint
 10
3346.283876785457
 20
1704.499660635488
 30
0.0
  0
POINT
  5
122F
330
1228
100
AcDbEntity
  8
Defpoints
 62
     0
100
AcDbPoint
 10
3231.765385169361
 20
1753.956837058355
 30
0.0
  0
POINT
  5
1230
330
1228
100
AcDbEntity
  8
Defpoints
 62
     0
100
AcDbPoint
 10
3433.89882677851
 20
1615.003914990669
 30
0.0
  0
POINT
  5
1231
330
1228
100
AcDbEntity
  8
Defpoints
 62
     0
100
AcDbPoint
 10
3432.660109599048
 20
1661.956837058355
 30
0.0
  0
POINT
  5
1232
330
1228
100
AcDbEntity
  8
Defpoints
 62
     0
100
AcDbPoint
 10
3392.799110332481
 20
1753.956837058355
 30
0.0
  0
ENDBLK
  5
1233
330
1228
100
AcDbEntity
  8
0
100
AcDbBlockEnd
  0
BLOCK
  5
1235
330
1234
100
AcDbEntity
  8
0
100
AcDbBlockBegin
  2
*D42
 70
     1
 10
0.0
 20
0.0
 30
0.0
  3
*D42
  1

  0
LINE
  5
1236
330
1234
100
AcDbEntity
  8
cotas
100
AcDbLine
 10
3681.365145272368
 20
1801.321968878716
 30
0.0
 11
3735.748328586032
 21
1748.719046787323
 31
0.0
  0
MTEXT
  5
1237
330
1234
100
AcDbEntity
  8
cotas
100
AcDbMText
 10
3700.967334598355
 20
1796.559032680846
 30
0.0
 40
10.0
 41
0.0
 71
     5
 72
     1
  1
R40
  7
SANINDUSA
 11
0.7187736151972414
 21
-0.6952441945793493
 31
0.0
 73
     1
 44
1.0
1001
ACAD
1000
MTEXTBEGIN
1070
    73
1070
     1
1070
    44
1040
1.0
1070
    74
1070
     0
1000
MTEXTEND
  0
LINE
  5
1238
330
1234
100
AcDbEntity
  8
cotas
100
AcDbLine
 10
3771.687009345896
 20
1713.956837058354
 30
0.0
 11
3742.936064738004
 21
1741.76660484153
 31
0.0
  0
SOLID
  5
1239
330
1234
100
AcDbEntity
  8
cotas
100
AcDbTrace
 10
3736.907068910331
 20
1749.917002812652
 30
0.0
 11
3734.589588261734
 21
1747.521090761995
 31
0.0
 12
3742.936064738004
 22
1741.76660484153
 32
0.0
 13
3742.936064738004
 23
1741.76660484153
 33
0.0
  0
POINT
  5
123A
330
1234
100
AcDbEntity
  8
Defpoints
 62
     0
100
AcDbPoint
 10
3742.936064738004
 20
1741.76660484153
 30
0.0
  0
POINT
  5
123B
330
1234
100
AcDbEntity
  8
Defpoints
 62
     0
100
AcDbPoint
 10
3771.687009345896
 20
1713.956837058354
 30
0.0
  0
ENDBLK
  5
123C
330
1234
100
AcDbEntity
  8
0
100
AcDbBlockEnd
  0
BLOCK
  5
123E
330
123D
100
AcDbEntity
  8
0
100
AcDbBlockBegin
  2
*D43
 70
     1
 10
0.0
 20
0.0
 30
0.0
  3
*D43
  1

  0
LINE
  5
123F
330
123D
100
AcDbEntity
  8
cotas
100
AcDbLine
 10
4284.315472047881
 20
1702.555031162676
 30
0.0
 11
4312.885111994133
 21
1737.065669606444
 31
0.0
  0
MTEXT
  5
1240
330
123D
100
AcDbEntity
  8
cotas
100
AcDbMText
 10
4287.551122173115
 20
1722.466383599511
 30
0.0
 40
10.0
 41
0.0
 71
     5
 72
     1
  1
R40
  7
SANINDUSA
 11
0.6376884107325127
 21
0.7702944182696915
 31
0.0
 73
     1
 44
1.0
1001
ACAD
1000
MTEXTBEGIN
1070
    73
1070
     1
1070
    44
1040
1.0
1070
    74
1070
     0
1000
MTEXTEND
  0
SOLID
  5
1241
330
123D
100
AcDbEntity
  8
cotas
100
AcDbTrace
 10
4311.601287963682
 20
1738.128483624332
 30
0.0
 11
4314.168936024581
 21
1736.002855588556
 31
0.0
 12
4319.261996101458
 22
1744.768613789142
 32
0.0
 13
4319.261996101458
 23
1744.768613789142
 33
0.0
  0
POINT
  5
1242
330
123D
100
AcDbEntity
  8
Defpoints
 62
     0
100
AcDbPoint
 10
4319.261996101458
 20
1744.768613789142
 30
0.0
  0
POINT
  5
1243
330
123D
100
AcDbEntity
  8
Defpoints
 62
     0
100
AcDbPoint
 10
4293.754459672157
 20
1713.956837058354
 30
0.0
  0
ENDBLK
  5
1244
330
123D
100
AcDbEntity
  8
0
100
AcDbBlockEnd
  0
BLOCK
  5
14FF
330
14FE
100
AcDbEntity
  8
0
100
AcDbBlockBegin
  2
*D45
 70
     1
 10
0.0
 20
0.0
 30
0.0
  3
*D45
  1

  0
LINE
  5
17D5
330
14FE
100
AcDbEntity
  8
cotas
100
AcDbLine
 10
3054.522886033661
 20
2306.805414662826
 30
0.0
 11
3054.522886033661
 21
2506.914781703845
 31
0.0
  0
LINE
  5
17D6
330
14FE
100
AcDbEntity
  8
cotas
100
AcDbLine
 10
3116.538416345082
 20
2281.914781703823
 30
0.0
 11
3116.538416345082
 21
2506.914781703845
 31
0.0
  0
LINE
  5
17D7
330
14FE
100
AcDbEntity
  8
cotas
100
AcDbLine
 10
3056.522886033661
 20
2505.914781703845
 30
0.0
 11
3114.538416345082
 21
2505.914781703845
 31
0.0
  0
SOLID
  5
17D8
330
14FE
100
AcDbEntity
  8
cotas
100
AcDbTrace
 10
3056.522886033661
 20
2506.248115037178
 30
0.0
 11
3056.522886033661
 21
2505.581448370512
 31
0.0
 12
3054.522886033661
 22
2505.914781703845
 32
0.0
 13
3054.522886033661
 23
2505.914781703845
 33
0.0
  0
SOLID
  5
17D9
330
14FE
100
AcDbEntity
  8
cotas
100
AcDbTrace
 10
3114.538416345082
 20
2506.248115037178
 30
0.0
 11
3114.538416345082
 21
2505.581448370512
 31
0.0
 12
3116.538416345082
 22
2505.914781703845
 32
0.0
 13
3116.538416345082
 23
2505.914781703845
 33
0.0
  0
MTEXT
  5
17DA
330
14FE
100
AcDbEntity
  8
cotas
100
AcDbMText
 10
3085.530651189372
 20
2507.956420387526
 30
0.0
 40
2.0
 41
0.0
 71
     5
 72
     1
  1
62
  7
SANINDUSA
 73
     1
 44
1.0
1001
ACAD
1000
MTEXTBEGIN
1070
    73
1070
     1
1070
    44
1040
1.0
1070
    74
1070
     0
1000
MTEXTEND
  0
POINT
  5
17DB
330
14FE
100
AcDbEntity
  8
Defpoints
 62
     0
100
AcDbPoint
 10
3054.522886033661
 20
2305.805414662826
 30
0.0
  0
POINT
  5
17DC
330
14FE
100
AcDbEntity
  8
Defpoints
 62
     0
100
AcDbPoint
 10
3116.538416345082
 20
2280.914781703823
 30
0.0
  0
POINT
  5
17DD
330
14FE
100
AcDbEntity
  8
Defpoints
 62
     0
100
AcDbPoint
 10
3116.538416345082
 20
2505.914781703845
 30
0.0
  0
ENDBLK
  5
1500
330
14FE
100
AcDbEntity
  8
0
100
AcDbBlockEnd
  0
BLOCK
  5
150B
330
150A
100
AcDbEntity
  8
0
100
AcDbBlockBegin
  2
*D46
 70
     1
 10
0.0
 20
0.0
 30
0.0
  3
*D46
  1

  0
LINE
  5
17DE
330
150A
100
AcDbEntity
  8
cotas
100
AcDbLine
 10
3054.522886033661
 20
2306.805414662826
 30
0.0
 11
3054.522886033661
 21
2531.914764404556
 31
0.0
  0
LINE
  5
17DF
330
150A
100
AcDbEntity
  8
cotas
100
AcDbLine
 10
3224.522886033661
 20
2317.926646586887
 30
0.0
 11
3224.522886033661
 21
2531.914764404556
 31
0.0
  0
LINE
  5
17E0
330
150A
100
AcDbEntity
  8
cotas
100
AcDbLine
 10
3056.522886033661
 20
2530.914764404557
 30
0.0
 11
3222.522886033662
 21
2530.914764404557
 31
0.0
  0
SOLID
  5
17E1
330
150A
100
AcDbEntity
  8
cotas
100
AcDbTrace
 10
3056.522886033661
 20
2531.24809773789
 30
0.0
 11
3056.522886033661
 21
2530.581431071223
 31
0.0
 12
3054.522886033661
 22
2530.914764404557
 32
0.0
 13
3054.522886033661
 23
2530.914764404557
 33
0.0
  0
SOLID
  5
17E2
330
150A
100
AcDbEntity
  8
cotas
100
AcDbTrace
 10
3222.522886033662
 20
2531.24809773789
 30
0.0
 11
3222.522886033662
 21
2530.581431071223
 31
0.0
 12
3224.522886033661
 22
2530.914764404557
 32
0.0
 13
3224.522886033661
 23
2530.914764404557
 33
0.0
  0
MTEXT
  5
17E3
330
150A
100
AcDbEntity
  8
cotas
100
AcDbMText
 10
3139.522886033661
 20
2532.955731496564
 30
0.0
 40
2.0
 41
0.0
 71
     5
 72
     1
  1
170
  7
SANINDUSA
 73
     1
 44
1.0
1001
ACAD
1000
MTEXTBEGIN
1070
    73
1070
     1
1070
    44
1040
1.0
1070
    74
1070
     0
1000
MTEXTEND
  0
POINT
  5
17E4
330
150A
100
AcDbEntity
  8
Defpoints
 62
     0
100
AcDbPoint
 10
3054.522886033661
 20
2305.805414662826
 30
0.0
  0
POINT
  5
17E5
330
150A
100
AcDbEntity
  8
Defpoints
 62
     0
100
AcDbPoint
 10
3224.522886033661
 20
2316.926646586887
 30
0.0
  0
POINT
  5
17E6
330
150A
100
AcDbEntity
  8
Defpoints
 62
     0
100
AcDbPoint
 10
3224.522886033661
 20
2530.914764404557
 30
0.0
  0
ENDBLK
  5
150C
330
150A
100
AcDbEntity
  8
0
100
AcDbBlockEnd
  0
BLOCK
  5
1517
330
1516
100
AcDbEntity
  8
0
100
AcDbBlockBegin
  2
*D47
 70
     1
 10
0.0
 20
0.0
 30
0.0
  3
*D47
  1

  0
LINE
  5
17E7
330
1516
100
AcDbEntity
  8
cotas
100
AcDbLine
 10
2970.47345759867
 20
2281.914781703845
 30
0.0
 11
2970.47345759867
 21
2556.914781703845
 31
0.0
  0
LINE
  5
17E8
330
1516
100
AcDbEntity
  8
cotas
100
AcDbLine
 10
3224.522886033661
 20
2317.926646586887
 30
0.0
 11
3224.522886033661
 21
2556.914781703845
 31
0.0
  0
LINE
  5
17E9
330
1516
100
AcDbEntity
  8
cotas
100
AcDbLine
 10
2972.473457598669
 20
2555.914781703845
 30
0.0
 11
3222.522886033662
 21
2555.914781703845
 31
0.0
  0
SOLID
  5
17EA
330
1516
100
AcDbEntity
  8
cotas
100
AcDbTrace
 10
2972.473457598669
 20
2556.248115037178
 30
0.0
 11
2972.473457598669
 21
2555.581448370511
 31
0.0
 12
2970.47345759867
 22
2555.914781703845
 32
0.0
 13
2970.47345759867
 23
2555.914781703845
 33
0.0
  0
SOLID
  5
17EB
330
1516
100
AcDbEntity
  8
cotas
100
AcDbTrace
 10
3222.522886033662
 20
2556.248115037178
 30
0.0
 11
3222.522886033662
 21
2555.581448370511
 31
0.0
 12
3224.522886033661
 22
2555.914781703845
 32
0.0
 13
3224.522886033661
 23
2555.914781703845
 33
0.0
  0
MTEXT
  5
17EC
330
1516
100
AcDbEntity
  8
cotas
100
AcDbMText
 10
3097.498171816166
 20
2557.956420387526
 30
0.0
 40
2.0
 41
0.0
 71
     5
 72
     1
  1
254
  7
SANINDUSA
 73
     1
 44
1.0
1001
ACAD
1000
MTEXTBEGIN
1070
    73
1070
     1
1070
    44
1040
1.0
1070
    74
1070
     0
1000
MTEXTEND
  0
POINT
  5
17ED
330
1516
100
AcDbEntity
  8
Defpoints
 62
     0
100
AcDbPoint
 10
2970.47345759867
 20
2280.914781703845
 30
0.0
  0
POINT
  5
17EE
330
1516
100
AcDbEntity
  8
Defpoints
 62
     0
100
AcDbPoint
 10
3224.522886033661
 20
2316.926646586887
 30
0.0
  0
POINT
  5
17EF
330
1516
100
AcDbEntity
  8
Defpoints
 62
     0
100
AcDbPoint
 10
3224.522886033661
 20
2555.914781703845
 30
0.0
  0
ENDBLK
  5
1518
330
1516
100
AcDbEntity
  8
0
100
AcDbBlockEnd
  0
BLOCK
  5
1523
330
1522
100
AcDbEntity
  8
0
100
AcDbBlockBegin
  2
*D48
 70
     1
 10
0.0
 20
0.0
 30
0.0
  3
*D48
  1

  0
LINE
  5
17F0
330
1522
100
AcDbEntity
  8
cotas
100
AcDbLine
 10
2970.47345759867
 20
2281.914781703845
 30
0.0
 11
2970.47345759867
 21
2581.914764404556
 31
0.0
  0
LINE
  5
17F1
330
1522
100
AcDbEntity
  8
cotas
100
AcDbLine
 10
3572.51349392298
 20
2281.914781703845
 30
0.0
 11
3572.51349392298
 21
2581.914764404556
 31
0.0
  0
LINE
  5
17F2
330
1522
100
AcDbEntity
  8
cotas
100
AcDbLine
 10
2972.473457598669
 20
2580.914764404556
 30
0.0
 11
3570.513493922979
 21
2580.914764404556
 31
0.0
  0
SOLID
  5
17F3
330
1522
100
AcDbEntity
  8
cotas
100
AcDbTrace
 10
2972.473457598669
 20
2581.24809773789
 30
0.0
 11
2972.473457598669
 21
2580.581431071223
 31
0.0
 12
2970.47345759867
 22
2580.914764404556
 32
0.0
 13
2970.47345759867
 23
2580.914764404556
 33
0.0
  0
SOLID
  5
17F4
330
1522
100
AcDbEntity
  8
cotas
100
AcDbTrace
 10
3570.513493922979
 20
2581.24809773789
 30
0.0
 11
3570.513493922979
 21
2580.581431071223
 31
0.0
 12
3572.51349392298
 22
2580.914764404556
 32
0.0
 13
3572.51349392298
 23
2580.914764404556
 33
0.0
  0
MTEXT
  5
17F5
330
1522
100
AcDbEntity
  8
cotas
100
AcDbMText
 10
3271.493475760825
 20
2582.956403088237
 30
0.0
 40
2.0
 41
0.0
 71
     5
 72
     1
  1
602
  7
SANINDUSA
 73
     1
 44
1.0
1001
ACAD
1000
MTEXTBEGIN
1070
    73
1070
     1
1070
    44
1040
1.0
1070
    74
1070
     0
1000
MTEXTEND
  0
POINT
  5
17F6
330
1522
100
AcDbEntity
  8
Defpoints
 62
     0
100
AcDbPoint
 10
2970.47345759867
 20
2280.914781703845
 30
0.0
  0
POINT
  5
17F7
330
1522
100
AcDbEntity
  8
Defpoints
 62
     0
100
AcDbPoint
 10
3572.51349392298
 20
2280.914781703845
 30
0.0
  0
POINT
  5
17F8
330
1522
100
AcDbEntity
  8
Defpoints
 62
     0
100
AcDbPoint
 10
3572.51349392298
 20
2580.914764404556
 30
0.0
  0
ENDBLK
  5
1524
330
1522
100
AcDbEntity
  8
0
100
AcDbBlockEnd
  0
BLOCK
  5
152F
330
152E
100
AcDbEntity
  8
0
100
AcDbBlockBegin
  2
*D49
 70
     1
 10
0.0
 20
0.0
 30
0.0
  3
*D49
  1

  0
LINE
  5
17F9
330
152E
100
AcDbEntity
  8
cotas
100
AcDbLine
 10
2970.47345759867
 20
2279.914781703845
 30
0.0
 11
2970.47345759867
 21
2053.894763541689
 31
0.0
  0
LINE
  5
17FA
330
152E
100
AcDbEntity
  8
cotas
100
AcDbLine
 10
3116.538416345082
 20
2279.914781703823
 30
0.0
 11
3116.538416345082
 21
2053.894763541689
 31
0.0
  0
LINE
  5
17FB
330
152E
100
AcDbEntity
  8
cotas
100
AcDbLine
 10
2972.473457598669
 20
2054.894763541689
 30
0.0
 11
3114.538416345082
 21
2054.894763541689
 31
0.0
  0
SOLID
  5
17FC
330
152E
100
AcDbEntity
  8
cotas
100
AcDbTrace
 10
2972.473457598669
 20
2055.228096875023
 30
0.0
 11
2972.473457598669
 21
2054.561430208356
 31
0.0
 12
2970.47345759867
 22
2054.894763541689
 32
0.0
 13
2970.47345759867
 23
2054.894763541689
 33
0.0
  0
SOLID
  5
17FD
330
152E
100
AcDbEntity
  8
cotas
100
AcDbTrace
 10
3114.538416345082
 20
2055.228096875023
 30
0.0
 11
3114.538416345082
 21
2054.561430208356
 31
0.0
 12
3116.538416345082
 22
2054.894763541689
 32
0.0
 13
3116.538416345082
 23
2054.894763541689
 33
0.0
  0
MTEXT
  5
17FE
330
152E
100
AcDbEntity
  8
cotas
100
AcDbMText
 10
3043.505936971876
 20
2057.16205702725
 30
0.0
 40
2.0
 41
0.0
 71
     5
 72
     1
  1
146,1
  7
SANINDUSA
 73
     1
 44
1.0
1001
ACAD
1000
MTEXTBEGIN
1070
    73
1070
     1
1070
    44
1040
1.0
1070
    74
1070
     0
1000
MTEXTEND
  0
POINT
  5
17FF
330
152E
100
AcDbEntity
  8
Defpoints
 62
     0
100
AcDbPoint
 10
2970.47345759867
 20
2280.914781703845
 30
0.0
  0
POINT
  5
1800
330
152E
100
AcDbEntity
  8
Defpoints
 62
     0
100
AcDbPoint
 10
3116.538416345082
 20
2280.914781703823
 30
0.0
  0
POINT
  5
1801
330
152E
100
AcDbEntity
  8
Defpoints
 62
     0
100
AcDbPoint
 10
3116.538416345082
 20
2054.894763541689
 30
0.0
  0
ENDBLK
  5
1530
330
152E
100
AcDbEntity
  8
0
100
AcDbBlockEnd
  0
BLOCK
  5
153B
330
153A
100
AcDbEntity
  8
0
100
AcDbBlockBegin
  2
*D50
 70
     1
 10
0.0
 20
0.0
 30
0.0
  3
*D50
  1

  0
LINE
  5
1802
330
153A
100
AcDbEntity
  8
cotas
100
AcDbLine
 10
3116.538416345082
 20
2279.914781703823
 30
0.0
 11
3116.538416345082
 21
2053.894763541689
 31
0.0
  0
LINE
  5
1803
330
153A
100
AcDbEntity
  8
cotas
100
AcDbLine
 10
3536.025212952122
 20
2279.914781703845
 30
0.0
 11
3536.025212952122
 21
2053.894763541689
 31
0.0
  0
LINE
  5
1804
330
153A
100
AcDbEntity
  8
cotas
100
AcDbLine
 10
3118.538416345082
 20
2054.894763541689
 30
0.0
 11
3534.025212952121
 21
2054.894763541689
 31
0.0
  0
SOLID
  5
1805
330
153A
100
AcDbEntity
  8
cotas
100
AcDbTrace
 10
3118.538416345082
 20
2055.228096875023
 30
0.0
 11
3118.538416345082
 21
2054.561430208356
 31
0.0
 12
3116.538416345082
 22
2054.894763541689
 32
0.0
 13
3116.538416345082
 23
2054.894763541689
 33
0.0
  0
SOLID
  5
1806
330
153A
100
AcDbEntity
  8
cotas
100
AcDbTrace
 10
3534.025212952121
 20
2055.228096875023
 30
0.0
 11
3534.025212952121
 21
2054.561430208356
 31
0.0
 12
3536.025212952122
 22
2054.894763541689
 32
0.0
 13
3536.025212952122
 23
2054.894763541689
 33
0.0
  0
MTEXT
  5
1807
330
153A
100
AcDbEntity
  8
cotas
100
AcDbMText
 10
3326.281814648602
 20
2056.93640222537
 30
0.0
 40
2.0
 41
0.0
 71
     5
 72
     1
  1
420
  7
SANINDUSA
 73
     1
 44
1.0
1001
ACAD
1000
MTEXTBEGIN
1070
    73
1070
     1
1070
    44
1040
1.0
1070
    74
1070
     0
1000
MTEXTEND
  0
POINT
  5
1808
330
153A
100
AcDbEntity
  8
Defpoints
 62
     0
100
AcDbPoint
 10
3116.538416345082
 20
2280.914781703823
 30
0.0
  0
POINT
  5
1809
330
153A
100
AcDbEntity
  8
Defpoints
 62
     0
100
AcDbPoint
 10
3536.025212952122
 20
2280.914781703845
 30
0.0
  0
POINT
  5
180A
330
153A
100
AcDbEntity
  8
Defpoints
 62
     0
100
AcDbPoint
 10
3536.025212952122
 20
2054.894763541689
 30
0.0
  0
ENDBLK
  5
153C
330
153A
100
AcDbEntity
  8
0
100
AcDbBlockEnd
  0
BLOCK
  5
1547
330
1546
100
AcDbEntity
  8
0
100
AcDbBlockBegin
  2
*D51
 70
     1
 10
0.0
 20
0.0
 30
0.0
  3
*D51
  1

  0
LINE
  5
180B
330
1546
100
AcDbEntity
  8
cotas
100
AcDbLine
 10
3536.025212952122
 20
2279.914781703845
 30
0.0
 11
3536.025212952122
 21
2053.894763541689
 31
0.0
  0
LINE
  5
180C
330
1546
100
AcDbEntity
  8
cotas
100
AcDbLine
 10
3572.51349392298
 20
2279.914781703845
 30
0.0
 11
3572.51349392298
 21
2053.894763541689
 31
0.0
  0
LINE
  5
180D
330
1546
100
AcDbEntity
  8
cotas
100
AcDbLine
 10
3538.025212952122
 20
2054.894763541689
 30
0.0
 11
3570.513493922979
 21
2054.894763541689
 31
0.0
  0
SOLID
  5
180E
330
1546
100
AcDbEntity
  8
cotas
100
AcDbTrace
 10
3538.025212952122
 20
2055.228096875023
 30
0.0
 11
3538.025212952122
 21
2054.561430208356
 31
0.0
 12
3536.025212952122
 22
2054.894763541689
 32
0.0
 13
3536.025212952122
 23
2054.894763541689
 33
0.0
  0
SOLID
  5
180F
330
1546
100
AcDbEntity
  8
cotas
100
AcDbTrace
 10
3570.513493922979
 20
2055.228096875023
 30
0.0
 11
3570.513493922979
 21
2054.561430208356
 31
0.0
 12
3572.51349392298
 22
2054.894763541689
 32
0.0
 13
3572.51349392298
 23
2054.894763541689
 33
0.0
  0
MTEXT
  5
1810
330
1546
100
AcDbEntity
  8
cotas
100
AcDbMText
 10
3554.26935343755
 20
2057.164071802267
 30
0.0
 40
2.0
 41
0.0
 71
     5
 72
     1
  1
36,5
  7
SANINDUSA
 73
     1
 44
1.0
1001
ACAD
1000
MTEXTBEGIN
1070
    73
1070
     1
1070
    44
1040
1.0
1070
    74
1070
     0
1000
MTEXTEND
  0
POINT
  5
1811
330
1546
100
AcDbEntity
  8
Defpoints
 62
     0
100
AcDbPoint
 10
3536.025212952122
 20
2280.914781703845
 30
0.0
  0
POINT
  5
1812
330
1546
100
AcDbEntity
  8
Defpoints
 62
     0
100
AcDbPoint
 10
3572.51349392298
 20
2280.914781703845
 30
0.0
  0
POINT
  5
1813
330
1546
100
AcDbEntity
  8
Defpoints
 62
     0
100
AcDbPoint
 10
3572.51349392298
 20
2054.894763541689
 30
0.0
  0
ENDBLK
  5
1548
330
1546
100
AcDbEntity
  8
0
100
AcDbBlockEnd
  0
BLOCK
  5
1553
330
1552
100
AcDbEntity
  8
0
100
AcDbBlockBegin
  2
*D52
 70
     1
 10
0.0
 20
0.0
 30
0.0
  3
*D52
  1

  0
LINE
  5
1814
330
1552
100
AcDbEntity
  8
cotas
100
AcDbLine
 10
3372.43250528928
 20
2117.180023604327
 30
0.0
 11
3598.513493922979
 21
2117.180023604327
 31
0.0
  0
LINE
  5
1815
330
1552
100
AcDbEntity
  8
cotas
100
AcDbLine
 10
3372.432505289284
 20
2444.649539803223
 30
0.0
 11
3598.513493922979
 21
2444.649539803223
 31
0.0
  0
LINE
  5
1816
330
1552
100
AcDbEntity
  8
cotas
100
AcDbLine
 10
3597.51349392298
 20
2119.180023604327
 30
0.0
 11
3597.51349392298
 21
2442.649539803222
 31
0.0
  0
SOLID
  5
1817
330
1552
100
AcDbEntity
  8
cotas
100
AcDbTrace
 10
3597.180160589647
 20
2119.180023604327
 30
0.0
 11
3597.846827256314
 21
2119.180023604327
 31
0.0
 12
3597.51349392298
 22
2117.180023604327
 32
0.0
 13
3597.51349392298
 23
2117.180023604327
 33
0.0
  0
SOLID
  5
1818
330
1552
100
AcDbEntity
  8
cotas
100
AcDbTrace
 10
3597.180160589647
 20
2442.649539803222
 30
0.0
 11
3597.846827256314
 21
2442.649539803222
 31
0.0
 12
3597.51349392298
 22
2444.649539803223
 32
0.0
 13
3597.51349392298
 23
2444.649539803223
 33
0.0
  0
MTEXT
  5
1819
330
1552
100
AcDbEntity
  8
cotas
100
AcDbMText
 10
3595.471855239299
 20
2261.496418306592
 30
0.0
 40
2.0
 41
0.0
 71
     5
 72
     1
  1
330
  7
SANINDUSA
 11
0.0000000000000001
 21
1.0
 31
0.0
 73
     1
 44
1.0
1001
ACAD
1000
MTEXTBEGIN
1070
    73
1070
     1
1070
    44
1040
1.0
1070
    74
1070
     0
1000
MTEXTEND
  0
POINT
  5
181A
330
1552
100
AcDbEntity
  8
Defpoints
 62
     0
100
AcDbPoint
 10
3371.432505289281
 20
2117.180023604327
 30
0.0
  0
POINT
  5
181B
330
1552
100
AcDbEntity
  8
Defpoints
 62
     0
100
AcDbPoint
 10
3371.432505289284
 20
2444.649539803223
 30
0.0
  0
POINT
  5
181C
330
1552
100
AcDbEntity
  8
Defpoints
 62
     0
100
AcDbPoint
 10
3597.51349392298
 20
2444.649539803223
 30
0.0
  0
ENDBLK
  5
1554
330
1552
100
AcDbEntity
  8
0
100
AcDbBlockEnd
  0
BLOCK
  5
155F
330
155E
100
AcDbEntity
  8
0
100
AcDbBlockBegin
  2
*D53
 70
     1
 10
0.0
 20
0.0
 30
0.0
  3
*D53
  1

  0
LINE
  5
181D
330
155E
100
AcDbEntity
  8
cotas
100
AcDbLine
 10
3372.432505289284
 20
2444.649539803223
 30
0.0
 11
3598.513493922979
 21
2444.649539803223
 31
0.0
  0
LINE
  5
181E
330
155E
100
AcDbEntity
  8
cotas
100
AcDbLine
 10
3372.493475760825
 20
2481.934799866
 30
0.0
 11
3598.513493922979
 21
2481.934799866
 31
0.0
  0
LINE
  5
181F
330
155E
100
AcDbEntity
  8
cotas
100
AcDbLine
 10
3597.51349392298
 20
2446.649539803222
 30
0.0
 11
3597.51349392298
 21
2479.934799866
 31
0.0
  0
SOLID
  5
1820
330
155E
100
AcDbEntity
  8
cotas
100
AcDbTrace
 10
3597.180160589646
 20
2446.649539803222
 30
0.0
 11
3597.846827256313
 21
2446.649539803222
 31
0.0
 12
3597.51349392298
 22
2444.649539803223
 32
0.0
 13
3597.51349392298
 23
2444.649539803223
 33
0.0
  0
SOLID
  5
1821
330
155E
100
AcDbEntity
  8
cotas
100
AcDbTrace
 10
3597.180160589646
 20
2479.934799866
 30
0.0
 11
3597.846827256313
 21
2479.934799866
 31
0.0
 12
3597.51349392298
 22
2481.934799866
 32
0.0
 13
3597.51349392298
 23
2481.934799866
 33
0.0
  0
MTEXT
  5
1822
330
155E
100
AcDbEntity
  8
cotas
100
AcDbMText
 10
3595.471855239298
 20
2463.292169834612
 30
0.0
 40
2.0
 41
0.0
 71
     5
 72
     1
  1
35
  7
SANINDUSA
 11
0.0000000000000001
 21
1.0
 31
0.0
 73
     1
 44
1.0
1001
ACAD
1000
MTEXTBEGIN
1070
    73
1070
     1
1070
    44
1040
1.0
1070
    74
1070
     0
1000
MTEXTEND
  0
POINT
  5
1823
330
155E
100
AcDbEntity
  8
Defpoints
 62
     0
100
AcDbPoint
 10
3371.432505289284
 20
2444.649539803223
 30
0.0
  0
POINT
  5
1824
330
155E
100
AcDbEntity
  8
Defpoints
 62
     0
100
AcDbPoint
 10
3371.493475760825
 20
2481.934799866
 30
0.0
  0
POINT
  5
1825
330
155E
100
AcDbEntity
  8
Defpoints
 62
     0
100
AcDbPoint
 10
3597.51349392298
 20
2481.934799866
 30
0.0
  0
ENDBLK
  5
1560
330
155E
100
AcDbEntity
  8
0
100
AcDbBlockEnd
  0
BLOCK
  5
156B
330
156A
100
AcDbEntity
  8
0
100
AcDbBlockBegin
  2
*D54
 70
     1
 10
0.0
 20
0.0
 30
0.0
  3
*D54
  1

  0
LINE
  5
1826
330
156A
100
AcDbEntity
  8
cotas
100
AcDbLine
 10
3372.43250528928
 20
2117.180023604327
 30
0.0
 11
3598.513493922979
 21
2117.180023604327
 31
0.0
  0
LINE
  5
1827
330
156A
100
AcDbEntity
  8
cotas
100
AcDbLine
 10
3372.493475760825
 20
2079.89476354169
 30
0.0
 11
3598.513493922979
 21
2079.89476354169
 31
0.0
  0
LINE
  5
1828
330
156A
100
AcDbEntity
  8
cotas
100
AcDbLine
 10
3597.51349392298
 20
2115.180023604327
 30
0.0
 11
3597.51349392298
 21
2081.89476354169
 31
0.0
  0
SOLID
  5
1829
330
156A
100
AcDbEntity
  8
cotas
100
AcDbTrace
 10
3597.180160589646
 20
2115.180023604327
 30
0.0
 11
3597.846827256313
 21
2115.180023604327
 31
0.0
 12
3597.51349392298
 22
2117.180023604327
 32
0.0
 13
3597.51349392298
 23
2117.180023604327
 33
0.0
  0
SOLID
  5
182A
330
156A
100
AcDbEntity
  8
cotas
100
AcDbTrace
 10
3597.180160589646
 20
2081.89476354169
 30
0.0
 11
3597.846827256313
 21
2081.89476354169
 31
0.0
 12
3597.51349392298
 22
2079.89476354169
 32
0.0
 13
3597.51349392298
 23
2079.89476354169
 33
0.0
  0
MTEXT
  5
182B
330
156A
100
AcDbEntity
  8
cotas
100
AcDbMText
 10
3595.471855239298
 20
2098.53739357301
 30
0.0
 40
2.0
 41
0.0
 71
     5
 72
     1
  1
35
  7
SANINDUSA
 11
0.0000000000000001
 21
1.0
 31
0.0
 73
     1
 44
1.0
1001
ACAD
1000
MTEXTBEGIN
1070
    73
1070
     1
1070
    44
1040
1.0
1070
    74
1070
     0
1000
MTEXTEND
  0
POINT
  5
182C
330
156A
100
AcDbEntity
  8
Defpoints
 62
     0
100
AcDbPoint
 10
3371.432505289281
 20
2117.180023604327
 30
0.0
  0
POINT
  5
182D
330
156A
100
AcDbEntity
  8
Defpoints
 62
     0
100
AcDbPoint
 10
3371.493475760825
 20
2079.89476354169
 30
0.0
  0
POINT
  5
182E
330
156A
100
AcDbEntity
  8
Defpoints
 62
     0
100
AcDbPoint
 10
3597.51349392298
 20
2079.89476354169
 30
0.0
  0
ENDBLK
  5
156C
330
156A
100
AcDbEntity
  8
0
100
AcDbBlockEnd
  0
BLOCK
  5
1577
330
1576
100
AcDbEntity
  8
0
100
AcDbBlockBegin
  2
*D55
 70
     1
 10
0.0
 20
0.0
 30
0.0
  3
*D55
  1

  0
LINE
  5
1652
330
1576
100
AcDbEntity
  8
cotas
100
AcDbLine
 10
3770.259262864135
 20
2361.543912831007
 30
0.0
 11
3770.259262864135
 21
2425.49684205125
 31
0.0
  0
LINE
  5
1653
330
1576
100
AcDbEntity
  8
cotas
100
AcDbLine
 10
4172.299299188436
 20
2361.543912831007
 30
0.0
 11
4172.299299188436
 21
2425.49684205125
 31
0.0
  0
LINE
  5
1654
330
1576
100
AcDbEntity
  8
cotas
100
AcDbLine
 10
3772.259262864135
 20
2424.49684205125
 30
0.0
 11
4170.299299188435
 21
2424.49684205125
 31
0.0
  0
SOLID
  5
1655
330
1576
100
AcDbEntity
  8
cotas
100
AcDbTrace
 10
3772.259262864135
 20
2424.830175384584
 30
0.0
 11
3772.259262864135
 21
2424.163508717917
 31
0.0
 12
3770.259262864135
 22
2424.49684205125
 32
0.0
 13
3770.259262864135
 23
2424.49684205125
 33
0.0
  0
SOLID
  5
1656
330
1576
100
AcDbEntity
  8
cotas
100
AcDbTrace
 10
4170.299299188435
 20
2424.830175384584
 30
0.0
 11
4170.299299188435
 21
2424.163508717917
 31
0.0
 12
4172.299299188436
 22
2424.49684205125
 32
0.0
 13
4172.299299188436
 23
2424.49684205125
 33
0.0
  0
MTEXT
  5
1657
330
1576
100
AcDbEntity
  8
cotas
100
AcDbMText
 10
3971.279281026286
 20
2426.538480734931
 30
0.0
 40
2.0
 41
0.0
 71
     5
 72
     1
  1
402
  7
SANINDUSA
 73
     1
 44
1.0
1001
ACAD
1000
MTEXTBEGIN
1070
    73
1070
     1
1070
    44
1040
1.0
1070
    74
1070
     0
1000
MTEXTEND
  0
POINT
  5
1658
330
1576
100
AcDbEntity
  8
Defpoints
 62
     0
100
AcDbPoint
 10
3770.259262864135
 20
2360.543912831007
 30
0.0
  0
POINT
  5
1659
330
1576
100
AcDbEntity
  8
Defpoints
 62
     0
100
AcDbPoint
 10
4172.299299188436
 20
2360.543912831007
 30
0.0
  0
POINT
  5
165A
330
1576
100
AcDbEntity
  8
Defpoints
 62
     0
100
AcDbPoint
 10
4172.299299188436
 20
2424.49684205125
 30
0.0
  0
ENDBLK
  5
1578
330
1576
100
AcDbEntity
  8
0
100
AcDbBlockEnd
  0
BLOCK
  5
1583
330
1582
100
AcDbEntity
  8
0
100
AcDbBlockBegin
  2
*D56
 70
     1
 10
0.0
 20
0.0
 30
0.0
  3
*D56
  1

  0
LINE
  5
165B
330
1582
100
AcDbEntity
  8
cotas
100
AcDbLine
 10
4132.279277450014
 20
2399.49684205125
 30
0.0
 11
4199.628591884278
 21
2399.49684205125
 31
0.0
  0
LINE
  5
165C
330
1582
100
AcDbEntity
  8
cotas
100
AcDbLine
 10
4007.279281026292
 20
2212.496834898693
 30
0.0
 11
4199.628591884278
 21
2212.496834898693
 31
0.0
  0
LINE
  5
165D
330
1582
100
AcDbEntity
  8
cotas
100
AcDbLine
 10
4198.628591884277
 20
2397.49684205125
 30
0.0
 11
4198.628591884277
 21
2214.496834898693
 31
0.0
  0
SOLID
  5
165E
330
1582
100
AcDbEntity
  8
cotas
100
AcDbTrace
 10
4198.295258550944
 20
2397.49684205125
 30
0.0
 11
4198.96192521761
 21
2397.49684205125
 31
0.0
 12
4198.628591884277
 22
2399.49684205125
 32
0.0
 13
4198.628591884277
 23
2399.49684205125
 33
0.0
  0
SOLID
  5
165F
330
1582
100
AcDbEntity
  8
cotas
100
AcDbTrace
 10
4198.295258550944
 20
2214.496834898693
 30
0.0
 11
4198.96192521761
 21
2214.496834898693
 31
0.0
 12
4198.628591884277
 22
2212.496834898693
 32
0.0
 13
4198.628591884277
 23
2212.496834898693
 33
0.0
  0
MTEXT
  5
1660
330
1582
100
AcDbEntity
  8
cotas
100
AcDbMText
 10
4196.582923650563
 20
2305.996838474972
 30
0.0
 40
2.0
 41
0.0
 71
     5
 72
     1
  1
187
  7
SANINDUSA
 11
0.0000000000000001
 21
1.0
 31
0.0
 73
     1
 44
1.0
1001
ACAD
1000
MTEXTBEGIN
1070
    73
1070
     1
1070
    44
1040
1.0
1070
    74
1070
     0
1000
MTEXTEND
  0
POINT
  5
1661
330
1582
100
AcDbEntity
  8
Defpoints
 62
     0
100
AcDbPoint
 10
4131.279277450014
 20
2399.49684205125
 30
0.0
  0
POINT
  5
1662
330
1582
100
AcDbEntity
  8
Defpoints
 62
     0
100
AcDbPoint
 10
4006.279281026293
 20
2212.496834898693
 30
0.0
  0
POINT
  5
1663
330
1582
100
AcDbEntity
  8
Defpoints
 62
     0
100
AcDbPoint
 10
4198.628591884277
 20
2212.496834898693
 30
0.0
  0
ENDBLK
  5
1584
330
1582
100
AcDbEntity
  8
0
100
AcDbBlockEnd
  0
BLOCK
  5
158F
330
158E
100
AcDbEntity
  8
0
100
AcDbBlockBegin
  2
*D57
 70
     1
 10
0.0
 20
0.0
 30
0.0
  3
*D57
  1

  0
LINE
  5
1664
330
158E
100
AcDbEntity
  8
cotas
100
AcDbLine
 10
4471.214612203804
 20
2361.543912831008
 30
0.0
 11
4471.214612203804
 21
2450.496834898693
 31
0.0
  0
LINE
  5
1665
330
158E
100
AcDbEntity
  8
cotas
100
AcDbLine
 10
5073.234630365959
 20
2361.543912831008
 30
0.0
 11
5073.234630365959
 21
2450.496834898693
 31
0.0
  0
LINE
  5
1666
330
158E
100
AcDbEntity
  8
cotas
100
AcDbLine
 10
4473.214612203804
 20
2449.496834898693
 30
0.0
 11
5071.23463036596
 21
2449.496834898693
 31
0.0
  0
SOLID
  5
1667
330
158E
100
AcDbEntity
  8
cotas
100
AcDbTrace
 10
4473.214612203804
 20
2449.830168232027
 30
0.0
 11
4473.214612203804
 21
2449.16350156536
 31
0.0
 12
4471.214612203804
 22
2449.496834898693
 32
0.0
 13
4471.214612203804
 23
2449.496834898693
 33
0.0
  0
SOLID
  5
1668
330
158E
100
AcDbEntity
  8
cotas
100
AcDbTrace
 10
5071.23463036596
 20
2449.830168232027
 30
0.0
 11
5071.23463036596
 21
2449.16350156536
 31
0.0
 12
5073.234630365959
 22
2449.496834898693
 32
0.0
 13
5073.234630365959
 23
2449.496834898693
 33
0.0
  0
MTEXT
  5
1669
330
158E
100
AcDbEntity
  8
cotas
100
AcDbMText
 10
4772.224621284882
 20
2451.538473582374
 30
0.0
 40
2.0
 41
0.0
 71
     5
 72
     1
  1
602
  7
SANINDUSA
 73
     1
 44
1.0
1001
ACAD
1000
MTEXTBEGIN
1070
    73
1070
     1
1070
    44
1040
1.0
1070
    74
1070
     0
1000
MTEXTEND
  0
POINT
  5
166A
330
158E
100
AcDbEntity
  8
Defpoints
 62
     0
100
AcDbPoint
 10
4471.214612203804
 20
2360.543912831008
 30
0.0
  0
POINT
  5
166B
330
158E
100
AcDbEntity
  8
Defpoints
 62
     0
100
AcDbPoint
 10
5073.234630365959
 20
2360.543912831008
 30
0.0
  0
POINT
  5
166C
330
158E
100
AcDbEntity
  8
Defpoints
 62
     0
100
AcDbPoint
 10
5073.234630365959
 20
2449.496834898693
 30
0.0
  0
ENDBLK
  5
1590
330
158E
100
AcDbEntity
  8
0
100
AcDbBlockEnd
  0
BLOCK
  5
159B
330
159A
100
AcDbEntity
  8
0
100
AcDbBlockBegin
  2
*D58
 70
     1
 10
0.0
 20
0.0
 30
0.0
  3
*D58
  1

  0
LINE
  5
166D
330
159A
100
AcDbEntity
  8
cotas
100
AcDbLine
 10
4512.234630365959
 20
2399.496834898693
 30
0.0
 11
4443.877897424734
 21
2399.496834898693
 31
0.0
  0
LINE
  5
166E
330
159A
100
AcDbEntity
  8
cotas
100
AcDbLine
 10
4468.877897424734
 20
2309.496834898692
 30
0.0
 11
4443.877897424734
 21
2309.496834898692
 31
0.0
  0
LINE
  5
166F
330
159A
100
AcDbEntity
  8
cotas
100
AcDbLine
 10
4444.877897424734
 20
2397.496834898693
 30
0.0
 11
4444.877897424734
 21
2311.496834898692
 31
0.0
  0
SOLID
  5
1670
330
159A
100
AcDbEntity
  8
cotas
100
AcDbTrace
 10
4444.544564091401
 20
2397.496834898693
 30
0.0
 11
4445.211230758068
 21
2397.496834898693
 31
0.0
 12
4444.877897424734
 22
2399.496834898693
 32
0.0
 13
4444.877897424734
 23
2399.496834898693
 33
0.0
  0
SOLID
  5
1671
330
159A
100
AcDbEntity
  8
cotas
100
AcDbTrace
 10
4444.544564091401
 20
2311.496834898692
 30
0.0
 11
4445.211230758068
 21
2311.496834898692
 31
0.0
 12
4444.877897424734
 22
2309.496834898692
 32
0.0
 13
4444.877897424734
 23
2309.496834898692
 33
0.0
  0
MTEXT
  5
1672
330
159A
100
AcDbEntity
  8
cotas
100
AcDbMText
 10
4442.836930332725
 20
2354.496834898693
 30
0.0
 40
2.0
 41
0.0
 71
     5
 72
     1
  1
90
  7
SANINDUSA
 11
0.0000000000000001
 21
1.0
 31
0.0
 73
     1
 44
1.0
1001
ACAD
1000
MTEXTBEGIN
1070
    73
1070
     1
1070
    44
1040
1.0
1070
    74
1070
     0
1000
MTEXTEND
  0
POINT
  5
1673
330
159A
100
AcDbEntity
  8
Defpoints
 62
     0
100
AcDbPoint
 10
4513.23463036596
 20
2399.496834898693
 30
0.0
  0
POINT
  5
1674
330
159A
100
AcDbEntity
  8
Defpoints
 62
     0
100
AcDbPoint
 10
4469.877897424734
 20
2309.496834898692
 30
0.0
  0
POINT
  5
1675
330
159A
100
AcDbEntity
  8
Defpoints
 62
     0
100
AcDbPoint
 10
4444.877897424734
 20
2309.496834898692
 30
0.0
  0
ENDBLK
  5
159C
330
159A
100
AcDbEntity
  8
0
100
AcDbBlockEnd
  0
BLOCK
  5
15A7
330
15A6
100
AcDbEntity
  8
0
100
AcDbBlockBegin
  2
*D59
 70
     1
 10
0.0
 20
0.0
 30
0.0
  3
*D59
  1

  0
LINE
  5
1676
330
15A6
100
AcDbEntity
  8
cotas
100
AcDbLine
 10
5034.234630365959
 20
2399.49684205125
 30
0.0
 11
5099.234630365959
 21
2399.49684205125
 31
0.0
  0
LINE
  5
1677
330
15A6
100
AcDbEntity
  8
cotas
100
AcDbLine
 10
5034.234630365959
 20
2219.496834898693
 30
0.0
 11
5099.234630365959
 21
2219.496834898693
 31
0.0
  0
LINE
  5
1678
330
15A6
100
AcDbEntity
  8
cotas
100
AcDbLine
 10
5098.23463036596
 20
2397.49684205125
 30
0.0
 11
5098.23463036596
 21
2221.496834898692
 31
0.0
  0
SOLID
  5
1679
330
15A6
100
AcDbEntity
  8
cotas
100
AcDbTrace
 10
5097.901297032627
 20
2397.49684205125
 30
0.0
 11
5098.567963699292
 21
2397.49684205125
 31
0.0
 12
5098.23463036596
 22
2399.49684205125
 32
0.0
 13
5098.23463036596
 23
2399.49684205125
 33
0.0
  0
SOLID
  5
167A
330
15A6
100
AcDbEntity
  8
cotas
100
AcDbTrace
 10
5097.901297032627
 20
2221.496834898692
 30
0.0
 11
5098.567963699292
 21
2221.496834898692
 31
0.0
 12
5098.23463036596
 22
2219.496834898693
 32
0.0
 13
5098.23463036596
 23
2219.496834898693
 33
0.0
  0
MTEXT
  5
167B
330
15A6
100
AcDbEntity
  8
cotas
100
AcDbMText
 10
5096.188962132245
 20
2309.496838474972
 30
0.0
 40
2.0
 41
0.0
 71
     5
 72
     1
  1
180
  7
SANINDUSA
 11
0.0000000000000001
 21
1.0
 31
0.0
 73
     1
 44
1.0
1001
ACAD
1000
MTEXTBEGIN
1070
    73
1070
     1
1070
    44
1040
1.0
1070
    74
1070
     0
1000
MTEXTEND
  0
POINT
  5
167C
330
15A6
100
AcDbEntity
  8
Defpoints
 62
     0
100
AcDbPoint
 10
5033.23463036596
 20
2399.49684205125
 30
0.0
  0
POINT
  5
167D
330
15A6
100
AcDbEntity
  8
Defpoints
 62
     0
100
AcDbPoint
 10
5033.23463036596
 20
2219.496834898693
 30
0.0
  0
POINT
  5
167E
330
15A6
100
AcDbEntity
  8
Defpoints
 62
     0
100
AcDbPoint
 10
5098.23463036596
 20
2219.496834898693
 30
0.0
  0
ENDBLK
  5
15A8
330
15A6
100
AcDbEntity
  8
0
100
AcDbBlockEnd
  0
BLOCK
  5
15B3
330
15B2
100
AcDbEntity
  8
0
100
AcDbBlockBegin
  2
*D60
 70
     1
 10
0.0
 20
0.0
 30
0.0
  3
*D60
  1

  0
LINE
  5
167F
330
15B2
100
AcDbEntity
  8
cotas
100
AcDbLine
 10
4471.214612203804
 20
2361.543912831008
 30
0.0
 11
4471.214612203804
 21
2425.496834898693
 31
0.0
  0
LINE
  5
1680
330
15B2
100
AcDbEntity
  8
cotas
100
AcDbLine
 10
4896.948096248411
 20
2308.496834898693
 30
0.0
 11
4896.948096248411
 21
2425.496834898693
 31
0.0
  0
LINE
  5
1681
330
15B2
100
AcDbEntity
  8
cotas
100
AcDbLine
 10
4473.214612203804
 20
2424.496834898693
 30
0.0
 11
4894.94809624841
 21
2424.496834898693
 31
0.0
  0
SOLID
  5
1682
330
15B2
100
AcDbEntity
  8
cotas
100
AcDbTrace
 10
4473.214612203804
 20
2424.830168232027
 30
0.0
 11
4473.214612203804
 21
2424.16350156536
 31
0.0
 12
4471.214612203804
 22
2424.496834898693
 32
0.0
 13
4471.214612203804
 23
2424.496834898693
 33
0.0
  0
SOLID
  5
1683
330
15B2
100
AcDbEntity
  8
cotas
100
AcDbTrace
 10
4894.94809624841
 20
2424.830168232027
 30
0.0
 11
4894.94809624841
 21
2424.16350156536
 31
0.0
 12
4896.948096248411
 22
2424.496834898693
 32
0.0
 13
4896.948096248411
 23
2424.496834898693
 33
0.0
  0
MTEXT
  5
1684
330
15B2
100
AcDbEntity
  8
cotas
100
AcDbMText
 10
4684.081354226107
 20
2426.766143159271
 30
0.0
 40
2.0
 41
0.0
 71
     5
 72
     1
  1
425,7
  7
SANINDUSA
 73
     1
 44
1.0
1001
ACAD
1000
MTEXTBEGIN
1070
    73
1070
     1
1070
    44
1040
1.0
1070
    74
1070
     0
1000
MTEXTEND
  0
POINT
  5
1685
330
15B2
100
AcDbEntity
  8
Defpoints
 62
     0
100
AcDbPoint
 10
4471.214612203804
 20
2360.543912831008
 30
0.0
  0
POINT
  5
1686
330
15B2
100
AcDbEntity
  8
Defpoints
 62
     0
100
AcDbPoint
 10
4896.948096248411
 20
2307.496834898693
 30
0.0
  0
POINT
  5
1687
330
15B2
100
AcDbEntity
  8
Defpoints
 62
     0
100
AcDbPoint
 10
4896.948096248411
 20
2424.496834898693
 30
0.0
  0
ENDBLK
  5
15B4
330
15B2
100
AcDbEntity
  8
0
100
AcDbBlockEnd
  0
BLOCK
  5
15BF
330
15BE
100
AcDbEntity
  8
0
100
AcDbBlockBegin
  2
*D61
 70
     1
 10
0.0
 20
0.0
 30
0.0
  3
*D61
  1

  0
LINE
  5
1688
330
15BE
100
AcDbEntity
  8
cotas
100
AcDbLine
 10
4896.948096248411
 20
2308.496834898693
 30
0.0
 11
4896.948096248411
 21
2425.496834898693
 31
0.0
  0
LINE
  5
1689
330
15BE
100
AcDbEntity
  8
cotas
100
AcDbLine
 10
5073.234630365959
 20
2361.543912831008
 30
0.0
 11
5073.234630365959
 21
2425.496834898693
 31
0.0
  0
LINE
  5
168A
330
15BE
100
AcDbEntity
  8
cotas
100
AcDbLine
 10
4898.94809624841
 20
2424.496834898693
 30
0.0
 11
5071.23463036596
 21
2424.496834898693
 31
0.0
  0
SOLID
  5
168B
330
15BE
100
AcDbEntity
  8
cotas
100
AcDbTrace
 10
4898.94809624841
 20
2424.830168232027
 30
0.0
 11
4898.94809624841
 21
2424.16350156536
 31
0.0
 12
4896.948096248411
 22
2424.496834898693
 32
0.0
 13
4896.948096248411
 23
2424.496834898693
 33
0.0
  0
SOLID
  5
168C
330
15BE
100
AcDbEntity
  8
cotas
100
AcDbTrace
 10
5071.23463036596
 20
2424.830168232027
 30
0.0
 11
5071.23463036596
 21
2424.16350156536
 31
0.0
 12
5073.234630365959
 22
2424.496834898693
 32
0.0
 13
5073.234630365959
 23
2424.496834898693
 33
0.0
  0
MTEXT
  5
168D
330
15BE
100
AcDbEntity
  8
cotas
100
AcDbMText
 10
4985.091363307185
 20
2426.766143159271
 30
0.0
 40
2.0
 41
0.0
 71
     5
 72
     1
  1
176,3
  7
SANINDUSA
 73
     1
 44
1.0
1001
ACAD
1000
MTEXTBEGIN
1070
    73
1070
     1
1070
    44
1040
1.0
1070
    74
1070
     0
1000
MTEXTEND
  0
POINT
  5
168E
330
15BE
100
AcDbEntity
  8
Defpoints
 62
     0
100
AcDbPoint
 10
4896.948096248411
 20
2307.496834898693
 30
0.0
  0
POINT
  5
168F
330
15BE
100
AcDbEntity
  8
Defpoints
 62
     0
100
AcDbPoint
 10
5073.234630365959
 20
2360.543912831008
 30
0.0
  0
POINT
  5
1690
330
15BE
100
AcDbEntity
  8
Defpoints
 62
     0
100
AcDbPoint
 10
5073.234630365959
 20
2424.496834898693
 30
0.0
  0
ENDBLK
  5
15C0
330
15BE
100
AcDbEntity
  8
0
100
AcDbBlockEnd
  0
BLOCK
  5
15CB
330
15CA
100
AcDbEntity
  8
0
100
AcDbBlockBegin
  2
*D62
 70
     1
 10
0.0
 20
0.0
 30
0.0
  3
*D62
  1

  0
LINE
  5
1691
330
15CA
100
AcDbEntity
  8
cotas
100
AcDbLine
 10
4791.852842348434
 20
2215.716948174236
 30
0.0
 11
4767.702993807244
 21
2246.188688382136
 31
0.0
  0
MTEXT
  5
1692
330
15CA
100
AcDbEntity
  8
cotas
100
AcDbMText
 10
4791.290765161703
 20
2219.712110841766
 30
0.0
 40
2.0
 41
0.0
 71
     5
 72
     1
  1
R10
  7
SANINDUSA
 11
0.6211200552359355
 21
-0.7837154311251684
 31
0.0
 73
     1
 44
1.0
1001
ACAD
1000
MTEXTBEGIN
1070
    73
1070
     1
1070
    44
1040
1.0
1070
    74
1070
     0
1000
MTEXTEND
  0
SOLID
  5
1693
330
15CA
100
AcDbEntity
  8
cotas
100
AcDbTrace
 10
4767.964232284286
 20
2246.395728400548
 30
0.0
 11
4767.441755330202
 21
2245.981648363724
 31
0.0
 12
4766.460753696772
 22
2247.756119244387
 32
0.0
 13
4766.460753696772
 23
2247.756119244387
 33
0.0
  0
POINT
  5
1694
330
15CA
100
AcDbEntity
  8
Defpoints
 62
     0
100
AcDbPoint
 10
4766.460753696772
 20
2247.756119244387
 30
0.0
  0
POINT
  5
1695
330
15CA
100
AcDbEntity
  8
Defpoints
 62
     0
100
AcDbPoint
 10
4772.671954249131
 20
2239.918964933136
 30
0.0
  0
ENDBLK
  5
15CC
330
15CA
100
AcDbEntity
  8
0
100
AcDbBlockEnd
  0
BLOCK
  5
15D3
330
15D2
100
AcDbEntity
  8
0
100
AcDbBlockBegin
  2
*D63
 70
     1
 10
0.0
 20
0.0
 30
0.0
  3
*D63
  1

  0
LINE
  5
193F
330
15D2
100
AcDbEntity
  8
cotas
100
AcDbLine
 10
5451.596151147779
 20
2266.277050388825
 30
0.0
 11
5463.317340638543
 21
2276.466124964585
 31
0.0
  0
LINE
  5
1940
330
15D2
100
AcDbEntity
  8
cotas
100
AcDbLine
 10
5378.07523128711
 20
2266.277050388825
 30
0.0
 11
5366.35404179635
 21
2276.466124964578
 31
0.0
  0
ARC
  5
1941
330
15D2
100
AcDbEntity
  8
cotas
100
AcDbCircle
 10
5414.83569121745
 20
2234.321670095342
 30
0.0
 40
63.2388154219506
100
AcDbArc
 50
42.81212020601784
 51
137.1878797939908
  0
SOLID
  5
1942
330
15D2
100
AcDbEntity
  8
cotas
100
AcDbTrace
 10
5461.474888807128
 20
2277.521184840312
 30
0.0
 11
5460.97872820296
 21
2277.075910655887
 31
0.0
 12
5462.562631058319
 22
2275.810065935594
 32
0.0
 13
5462.562631058319
 23
2275.810065935594
 33
0.0
  0
SOLID
  5
1943
330
15D2
100
AcDbEntity
  8
cotas
100
AcDbTrace
 10
5368.692654231932
 20
2277.075910655881
 30
0.0
 11
5368.196493627764
 21
2277.521184840306
 31
0.0
 12
5367.108751376573
 22
2275.810065935587
 32
0.0
 13
5367.108751376573
 23
2275.810065935587
 33
0.0
  0
MTEXT
  5
1944
330
15D2
100
AcDbEntity
  8
cotas
100
AcDbMText
 10
5414.835691217445
 20
2299.831808552887
 30
0.0
 40
2.0
 41
0.0
 71
     5
 72
     1
  1
98,0\U+00B0
  7
SANINDUSA
 73
     1
 44
1.0
1001
ACAD
1000
MTEXTBEGIN
1070
    73
1070
     1
1070
    44
1040
1.0
1070
    74
1070
     0
1000
MTEXTEND
  0
POINT
  5
1945
330
15D2
100
AcDbEntity
  8
Defpoints
 62
     0
100
AcDbPoint
 10
5432.620030466212
 20
2295.008283557097
 30
0.0
  0
POINT
  5
1946
330
15D2
100
AcDbEntity
  8
Defpoints
 62
     0
100
AcDbPoint
 10
5391.335691217445
 20
2254.749908434036
 30
0.0
  0
POINT
  5
1947
330
15D2
100
AcDbEntity
  8
Defpoints
 62
     0
100
AcDbPoint
 10
5450.841441567555
 20
2265.620991359834
 30
0.0
  0
POINT
  5
1948
330
15D2
100
AcDbEntity
  8
Defpoints
 62
     0
100
AcDbPoint
 10
5438.335691217447
 20
2254.749908434036
 30
0.0
  0
POINT
  5
1949
330
15D2
100
AcDbEntity
  8
Defpoints
 62
     0
100
AcDbPoint
 10
5378.829940867333
 20
2265.620991359834
 30
0.0
  0
ENDBLK
  5
15D4
330
15D2
100
AcDbEntity
  8
0
100
AcDbBlockEnd
  0
BLOCK
  5
15E1
330
15E0
100
AcDbEntity
  8
0
100
AcDbBlockBegin
  2
*D64
 70
     1
 10
0.0
 20
0.0
 30
0.0
  3
*D64
  1

  0
LINE
  5
1936
330
15E0
100
AcDbEntity
  8
cotas
100
AcDbLine
 10
5391.335691217445
 20
2217.61599265674
 30
0.0
 11
5391.335691217445
 21
2188.449358859953
 31
0.0
  0
LINE
  5
1937
330
15E0
100
AcDbEntity
  8
cotas
100
AcDbLine
 10
5438.335691217447
 20
2217.61599265674
 30
0.0
 11
5438.335691217447
 21
2188.449358859953
 31
0.0
  0
LINE
  5
1938
330
15E0
100
AcDbEntity
  8
cotas
100
AcDbLine
 10
5393.335691217445
 20
2189.449358859953
 30
0.0
 11
5436.335691217447
 21
2189.449358859953
 31
0.0
  0
SOLID
  5
1939
330
15E0
100
AcDbEntity
  8
cotas
100
AcDbTrace
 10
5393.335691217445
 20
2189.782692193286
 30
0.0
 11
5393.335691217445
 21
2189.116025526619
 31
0.0
 12
5391.335691217445
 22
2189.449358859953
 32
0.0
 13
5391.335691217445
 23
2189.449358859953
 33
0.0
  0
SOLID
  5
193A
330
15E0
100
AcDbEntity
  8
cotas
100
AcDbTrace
 10
5436.335691217447
 20
2189.782692193286
 30
0.0
 11
5436.335691217447
 21
2189.116025526619
 31
0.0
 12
5438.335691217447
 22
2189.449358859953
 32
0.0
 13
5438.335691217447
 23
2189.449358859953
 33
0.0
  0
MTEXT
  5
193B
102
{ACAD_XDICTIONARY
360
1A16
102
}
330
15E0
100
AcDbEntity
  8
cotas
100
AcDbMText
 10
5414.835691217446
 20
2191.548754427447
 30
0.0
 40
2.0
 41
0.0
 71
     5
 72
     1
  1
\U+00F847
  7
SANINDUSA
 73
     1
 44
1.0
1001
ACAD
1000
MTEXTBEGIN
1070
    73
1070
     1
1070
    44
1040
1.0
1070
    74
1070
     0
1000
MTEXTEND
  0
POINT
  5
193C
330
15E0
100
AcDbEntity
  8
Defpoints
 62
     0
100
AcDbPoint
 10
5391.335691217445
 20
2218.61599265674
 30
0.0
  0
POINT
  5
193D
330
15E0
100
AcDbEntity
  8
Defpoints
 62
     0
100
AcDbPoint
 10
5438.335691217447
 20
2218.61599265674
 30
0.0
  0
POINT
  5
193E
330
15E0
100
AcDbEntity
  8
Defpoints
 62
     0
100
AcDbPoint
 10
5438.335691217447
 20
2189.449358859953
 30
0.0
  0
ENDBLK
  5
15E2
330
15E0
100
AcDbEntity
  8
0
100
AcDbBlockEnd
  0
BLOCK
  5
15ED
330
15EC
100
AcDbEntity
  8
0
100
AcDbBlockBegin
  2
*D65
 70
     1
 10
0.0
 20
0.0
 30
0.0
  3
*D65
  1

  0
LINE
  5
17CC
330
15EC
100
AcDbEntity
  8
cotas
100
AcDbLine
 10
2970.47345759867
 20
2281.914781703845
 30
0.0
 11
2970.47345759867
 21
2506.914781703845
 31
0.0
  0
LINE
  5
17CD
330
15EC
100
AcDbEntity
  8
cotas
100
AcDbLine
 10
3054.522886033661
 20
2306.805414662826
 30
0.0
 11
3054.522886033661
 21
2506.914781703845
 31
0.0
  0
LINE
  5
17CE
330
15EC
100
AcDbEntity
  8
cotas
100
AcDbLine
 10
2972.473457598669
 20
2505.914781703845
 30
0.0
 11
3052.522886033661
 21
2505.914781703845
 31
0.0
  0
SOLID
  5
17CF
330
15EC
100
AcDbEntity
  8
cotas
100
AcDbTrace
 10
2972.473457598669
 20
2506.248115037178
 30
0.0
 11
2972.473457598669
 21
2505.581448370512
 31
0.0
 12
2970.47345759867
 22
2505.914781703845
 32
0.0
 13
2970.47345759867
 23
2505.914781703845
 33
0.0
  0
SOLID
  5
17D0
330
15EC
100
AcDbEntity
  8
cotas
100
AcDbTrace
 10
3052.522886033661
 20
2506.248115037178
 30
0.0
 11
3052.522886033661
 21
2505.581448370512
 31
0.0
 12
3054.522886033661
 22
2505.914781703845
 32
0.0
 13
3054.522886033661
 23
2505.914781703845
 33
0.0
  0
MTEXT
  5
17D1
330
15EC
100
AcDbEntity
  8
cotas
100
AcDbMText
 10
3012.498171816166
 20
2507.960449937559
 30
0.0
 40
2.0
 41
0.0
 71
     5
 72
     1
  1
84
  7
SANINDUSA
 73
     1
 44
1.0
1001
ACAD
1000
MTEXTBEGIN
1070
    73
1070
     1
1070
    44
1040
1.0
1070
    74
1070
     0
1000
MTEXTEND
  0
POINT
  5
17D2
330
15EC
100
AcDbEntity
  8
Defpoints
 62
     0
100
AcDbPoint
 10
2970.47345759867
 20
2280.914781703845
 30
0.0
  0
POINT
  5
17D3
330
15EC
100
AcDbEntity
  8
Defpoints
 62
     0
100
AcDbPoint
 10
3054.522886033661
 20
2305.805414662826
 30
0.0
  0
POINT
  5
17D4
330
15EC
100
AcDbEntity
  8
Defpoints
 62
     0
100
AcDbPoint
 10
3054.522886033661
 20
2505.914781703845
 30
0.0
  0
ENDBLK
  5
15EE
330
15EC
100
AcDbEntity
  8
0
100
AcDbBlockEnd
  0
BLOCK
  5
16AB
330
16AA
100
AcDbEntity
  8
0
100
AcDbBlockBegin
  2
*D66
 70
     1
 10
0.0
 20
0.0
 30
0.0
  3
*D66
  1

  0
LINE
  5
175C
330
16AA
100
AcDbEntity
  8
cotas
100
AcDbLine
 10
4131.765233069239
 20
2358.806667061085
 30
0.0
 11
4155.936557017011
 21
2389.261374980746
 31
0.0
  0
MTEXT
  5
175D
330
16AA
100
AcDbEntity
  8
cotas
100
AcDbMText
 10
4132.330126552665
 20
2362.801432493029
 30
0.0
 40
2.0
 41
0.0
 71
     5
 72
     1
  1
R40
  7
SANINDUSA
 11
0.6216723901998927
 21
0.7832773705802769
 31
0.0
 73
     1
 44
1.0
1001
ACAD
1000
MTEXTBEGIN
1070
    73
1070
     1
1070
    44
1040
1.0
1070
    74
1070
     0
1000
MTEXTEND
  0
SOLID
  5
175E
330
16AA
100
AcDbEntity
  8
cotas
100
AcDbTrace
 10
4155.675464560151
 20
2389.468599110813
 30
0.0
 11
4156.197649473872
 21
2389.05415085068
 31
0.0
 12
4157.179901797412
 22
2390.827929721907
 32
0.0
 13
4157.179901797412
 23
2390.827929721907
 33
0.0
  0
POINT
  5
175F
330
16AA
100
AcDbEntity
  8
Defpoints
 62
     0
100
AcDbPoint
 10
4157.179901797412
 20
2390.827929721907
 30
0.0
  0
POINT
  5
1760
330
16AA
100
AcDbEntity
  8
Defpoints
 62
     0
100
AcDbPoint
 10
4132.313006189413
 20
2359.496834898692
 30
0.0
  0
ENDBLK
  5
16AC
330
16AA
100
AcDbEntity
  8
0
100
AcDbBlockEnd
  0
BLOCK
  5
16B3
330
16B2
100
AcDbEntity
  8
0
100
AcDbBlockBegin
  2
*D67
 70
     1
 10
0.0
 20
0.0
 30
0.0
  3
*D67
  1

  0
LINE
  5
1752
330
16B2
100
AcDbEntity
  8
cotas
100
AcDbLine
 10
4132.774202792432
 20
2260.171988143644
 30
0.0
 11
4161.142879841376
 21
2233.583263120569
 31
0.0
  0
MTEXT
  5
1753
330
16B2
100
AcDbEntity
  8
cotas
100
AcDbMText
 10
4136.70914630666
 20
2259.281215982144
 30
0.0
 40
2.0
 41
0.0
 71
     5
 72
     1
  1
R40
  7
SANINDUSA
 11
0.7296258701398662
 21
-0.6838465395267007
 31
0.0
 73
     1
 44
1.0
1001
ACAD
1000
MTEXTBEGIN
1070
    73
1070
     1
1070
    44
1040
1.0
1070
    74
1070
     0
1000
MTEXTEND
  0
SOLID
  5
1754
330
16B2
100
AcDbEntity
  8
cotas
100
AcDbTrace
 10
4161.370828687885
 20
2233.826471743948
 30
0.0
 11
4160.914930994866
 21
2233.340054497189
 31
0.0
 12
4162.602131581655
 22
2232.215570041515
 32
0.0
 13
4162.602131581655
 23
2232.215570041515
 33
0.0
  0
POINT
  5
1755
330
16B2
100
AcDbEntity
  8
Defpoints
 62
     0
100
AcDbPoint
 10
4162.602131581655
 20
2232.215570041515
 30
0.0
  0
POINT
  5
1756
330
16B2
100
AcDbEntity
  8
Defpoints
 62
     0
100
AcDbPoint
 10
4133.398046937446
 20
2259.587286206348
 30
0.0
  0
ENDBLK
  5
16B4
330
16B2
100
AcDbEntity
  8
0
100
AcDbBlockEnd
  0
BLOCK
  5
16BB
330
16BA
100
AcDbEntity
  8
0
100
AcDbBlockBegin
  2
*D68
 70
     1
 10
0.0
 20
0.0
 30
0.0
  3
*D68
  1

  0
LINE
  5
174D
330
16BA
100
AcDbEntity
  8
cotas
100
AcDbLine
 10
3809.649301080016
 20
2260.288817498075
 30
0.0
 11
3787.422257202383
 21
2228.387396584238
 31
0.0
  0
MTEXT
  5
174E
330
16BA
100
AcDbEntity
  8
cotas
100
AcDbMText
 10
3805.985208781487
 20
2258.600124769443
 30
0.0
 40
2.0
 41
0.0
 71
     5
 72
     1
  1
R40
  7
SANINDUSA
 11
0.5716666378864021
 21
0.8204859871610588
 31
0.0
 73
     1
 44
1.0
1001
ACAD
1000
MTEXTBEGIN
1070
    73
1070
     1
1070
    44
1040
1.0
1070
    74
1070
     0
1000
MTEXTEND
  0
SOLID
  5
174F
330
16BA
100
AcDbEntity
  8
cotas
100
AcDbTrace
 10
3787.148761873329
 20
2228.5779521302
 30
0.0
 11
3787.695752531436
 21
2228.196841038275
 31
0.0
 12
3786.278923926609
 22
2226.746424609916
 32
0.0
 13
3786.278923926609
 23
2226.746424609916
 33
0.0
  0
POINT
  5
1750
330
16BA
100
AcDbEntity
  8
Defpoints
 62
     0
100
AcDbPoint
 10
3786.278923926609
 20
2226.746424609916
 30
0.0
  0
POINT
  5
1751
330
16BA
100
AcDbEntity
  8
Defpoints
 62
     0
100
AcDbPoint
 10
3809.160515115126
 20
2259.587286206348
 30
0.0
  0
ENDBLK
  5
16BC
330
16BA
100
AcDbEntity
  8
0
100
AcDbBlockEnd
  0
BLOCK
  5
16C3
330
16C2
100
AcDbEntity
  8
0
100
AcDbBlockBegin
  2
*D69
 70
     1
 10
0.0
 20
0.0
 30
0.0
  3
*D69
  1

  0
LINE
  5
1757
330
16C2
100
AcDbEntity
  8
cotas
100
AcDbLine
 10
3810.926582392004
 20
2358.937737499076
 30
0.0
 11
3780.875248656265
 21
2383.608762539865
 31
0.0
  0
MTEXT
  5
1758
330
16C2
100
AcDbEntity
  8
cotas
100
AcDbMText
 10
3809.531778676254
 20
2362.723470994504
 30
0.0
 40
2.0
 41
0.0
 71
     5
 72
     1
  1
R40
  7
SANINDUSA
 11
0.772902821233899
 21
-0.6345244116097345
 31
0.0
 73
     1
 44
1.0
1001
ACAD
1000
MTEXTBEGIN
1070
    73
1070
     1
1070
    44
1040
1.0
1070
    74
1070
     0
1000
MTEXTEND
  0
SOLID
  5
1759
330
16C2
100
AcDbEntity
  8
cotas
100
AcDbTrace
 10
3781.086756793467
 20
2383.86639681361
 30
0.0
 11
3780.663740519062
 21
2383.351128266121
 31
0.0
 12
3779.329443013797
 22
2384.877811363085
 32
0.0
 13
3779.329443013797
 23
2384.877811363085
 33
0.0
  0
POINT
  5
175A
330
16C2
100
AcDbEntity
  8
Defpoints
 62
     0
100
AcDbPoint
 10
3779.329443013797
 20
2384.877811363085
 30
0.0
  0
POINT
  5
175B
330
16C2
100
AcDbEntity
  8
Defpoints
 62
     0
100
AcDbPoint
 10
3810.245555863156
 20
2359.496834898692
 30
0.0
  0
ENDBLK
  5
16C4
330
16C2
100
AcDbEntity
  8
0
100
AcDbBlockEnd
  0
BLOCK
  5
16CB
330
16CA
100
AcDbEntity
  8
0
100
AcDbBlockBegin
  2
*D70
 70
     1
 10
0.0
 20
0.0
 30
0.0
  3
*D70
  1

  0
LINE
  5
1930
330
16CA
100
AcDbEntity
  8
cotas
100
AcDbLine
 10
5215.402712286652
 20
2399.119085670031
 30
0.0
 11
5222.154462995246
 21
2393.228228171569
 31
0.0
  0
MTEXT
  5
1931
330
16CA
100
AcDbEntity
  8
cotas
100
AcDbMText
 10
5219.366877187699
 20
2398.368984249434
 30
0.0
 40
2.0
 41
0.0
 71
     5
 72
     1
  1
R40
  7
SANINDUSA
 11
0.7535119775968191
 21
-0.6574341789244996
 31
0.0
 73
     1
 44
1.0
1001
ACAD
1000
MTEXTBEGIN
1070
    73
1070
     1
1070
    44
1040
1.0
1070
    74
1070
     0
1000
MTEXTEND
  0
LINE
  5
1932
330
16CA
100
AcDbEntity
  8
cotas
100
AcDbLine
 10
5253.801966054312
 20
2365.615992656739
 30
0.0
 11
5223.661486950439
 21
2391.91335981372
 31
0.0
  0
SOLID
  5
1933
330
16CA
100
AcDbEntity
  8
cotas
100
AcDbTrace
 10
5222.373607721555
 20
2393.479398830768
 30
0.0
 11
5221.935318268937
 21
2392.97705751237
 31
0.0
 12
5223.661486950439
 22
2391.91335981372
 32
0.0
 13
5223.661486950439
 23
2391.91335981372
 33
0.0
  0
POINT
  5
1934
330
16CA
100
AcDbEntity
  8
Defpoints
 62
     0
100
AcDbPoint
 10
5223.661486950439
 20
2391.91335981372
 30
0.0
  0
POINT
  5
1935
330
16CA
100
AcDbEntity
  8
Defpoints
 62
     0
100
AcDbPoint
 10
5253.801966054312
 20
2365.615992656739
 30
0.0
  0
ENDBLK
  5
16CC
330
16CA
100
AcDbEntity
  8
0
100
AcDbBlockEnd
  0
BLOCK
  5
16D4
330
16D3
100
AcDbEntity
  8
0
100
AcDbBlockBegin
  2
*D71
 70
     1
 10
0.0
 20
0.0
 30
0.0
  3
*D71
  1

  0
LINE
  5
192A
330
16D3
100
AcDbEntity
  8
cotas
100
AcDbLine
 10
5268.231404823151
 20
2411.055739564759
 30
0.0
 11
5260.522553036403
 21
2404.92487465113
 31
0.0
  0
MTEXT
  5
192B
330
16D3
100
AcDbEntity
  8
cotas
100
AcDbMText
 10
5263.757975128815
 20
2410.375186277271
 30
0.0
 40
2.0
 41
0.0
 71
     5
 72
     1
  1
R5,1
  7
SANINDUSA
 11
0.7826592329515421
 21
0.6224504197730964
 31
0.0
 73
     1
 44
1.0
1001
ACAD
1000
MTEXTBEGIN
1070
    73
1070
     1
1070
    44
1040
1.0
1070
    74
1070
     0
1000
MTEXTEND
  0
LINE
  5
192C
330
16D3
100
AcDbEntity
  8
cotas
100
AcDbLine
 10
5254.93781337301
 20
2400.483320266479
 30
0.0
 11
5258.9572345705
 21
2403.679973811583
 31
0.0
  0
SOLID
  5
192D
330
16D3
100
AcDbEntity
  8
cotas
100
AcDbTrace
 10
5260.315069563145
 20
2405.185761062114
 30
0.0
 11
5260.73003650966
 21
2404.663988240146
 31
0.0
 12
5258.9572345705
 22
2403.679973811583
 32
0.0
 13
5258.9572345705
 23
2403.679973811583
 33
0.0
  0
POINT
  5
192E
330
16D3
100
AcDbEntity
  8
Defpoints
 62
     0
100
AcDbPoint
 10
5258.9572345705
 20
2403.679973811583
 30
0.0
  0
POINT
  5
192F
330
16D3
100
AcDbEntity
  8
Defpoints
 62
     0
100
AcDbPoint
 10
5254.93781337301
 20
2400.483320266479
 30
0.0
  0
ENDBLK
  5
16D5
330
16D3
100
AcDbEntity
  8
0
100
AcDbBlockEnd
  0
BLOCK
  5
16DD
330
16DC
100
AcDbEntity
  8
0
100
AcDbBlockBegin
  2
*D72
 70
     1
 10
0.0
 20
0.0
 30
0.0
  3
*D72
  1

  0
LINE
  5
1925
330
16DC
100
AcDbEntity
  8
cotas
100
AcDbLine
 10
5250.550763733745
 20
2295.52004290325
 30
0.0
 11
5225.219946052442
 21
2317.586547097497
 31
0.0
  0
MTEXT
  5
1926
330
16DC
100
AcDbEntity
  8
cotas
100
AcDbMText
 10
5249.918398908146
 20
2298.7509773248
 30
0.0
 40
2.0
 41
0.0
 71
     5
 72
     1
  1
R5
  7
SANINDUSA
 11
0.7540199817571497
 21
-0.6568514802532973
 31
0.0
 73
     1
 44
1.0
1001
ACAD
1000
MTEXTBEGIN
1070
    73
1070
     1
1070
    44
1040
1.0
1070
    74
1070
     0
1000
MTEXTEND
  0
SOLID
  5
1927
330
16DC
100
AcDbEntity
  8
cotas
100
AcDbTrace
 10
5225.43889654586
 20
2317.837887091416
 30
0.0
 11
5225.000995559025
 21
2317.335207103578
 31
0.0
 12
5223.711906088928
 22
2318.900250058004
 32
0.0
 13
5223.711906088928
 23
2318.900250058004
 33
0.0
  0
POINT
  5
1928
330
16DC
100
AcDbEntity
  8
Defpoints
 62
     0
100
AcDbPoint
 10
5223.711906088928
 20
2318.900250058004
 30
0.0
  0
POINT
  5
1929
330
16DC
100
AcDbEntity
  8
Defpoints
 62
     0
100
AcDbPoint
 10
5227.482005997711
 20
2315.615992656739
 30
0.0
  0
ENDBLK
  5
16DE
330
16DC
100
AcDbEntity
  8
0
100
AcDbBlockEnd
  0
BLOCK
  5
16E5
330
16E4
100
AcDbEntity
  8
0
100
AcDbBlockBegin
  2
*D73
 70
     1
 10
0.0
 20
0.0
 30
0.0
  3
*D73
  1

  0
LINE
  5
191F
330
16E4
100
AcDbEntity
  8
cotas
100
AcDbLine
 10
5609.129568876542
 20
2404.225864287135
 30
0.0
 11
5603.281427671994
 21
2397.437080585332
 31
0.0
  0
MTEXT
  5
1920
330
16E4
100
AcDbEntity
  8
cotas
100
AcDbMText
 10
5605.311836798013
 20
2402.921189124332
 30
0.0
 40
2.0
 41
0.0
 71
     5
 72
     1
  1
R40
  7
SANINDUSA
 11
0.6526669355098738
 21
0.7576449506808255
 31
0.0
 73
     1
 44
1.0
1001
ACAD
1000
MTEXTBEGIN
1070
    73
1070
     1
1070
    44
1040
1.0
1070
    74
1070
     0
1000
MTEXTEND
  0
LINE
  5
1921
330
16E4
100
AcDbEntity
  8
cotas
100
AcDbLine
 10
5575.86941638058
 20
2365.615992656739
 30
0.0
 11
5601.976093800975
 21
2395.921790683971
 31
0.0
  0
SOLID
  5
1922
330
16E4
100
AcDbEntity
  8
cotas
100
AcDbTrace
 10
5603.0288793551
 20
2397.654636230503
 30
0.0
 11
5603.533975988888
 21
2397.219524940162
 31
0.0
 12
5601.976093800975
 22
2395.921790683971
 32
0.0
 13
5601.976093800975
 23
2395.921790683971
 33
0.0
  0
POINT
  5
1923
330
16E4
100
AcDbEntity
  8
Defpoints
 62
     0
100
AcDbPoint
 10
5601.976093800975
 20
2395.921790683971
 30
0.0
  0
POINT
  5
1924
330
16E4
100
AcDbEntity
  8
Defpoints
 62
     0
100
AcDbPoint
 10
5575.86941638058
 20
2365.615992656739
 30
0.0
  0
ENDBLK
  5
16E6
330
16E4
100
AcDbEntity
  8
0
100
AcDbBlockEnd
  0
BLOCK
  5
16EE
330
16ED
100
AcDbEntity
  8
0
100
AcDbBlockBegin
  2
*D74
 70
     1
 10
0.0
 20
0.0
 30
0.0
  3
*D74
  1

  0
LINE
  5
1919
330
16ED
100
AcDbEntity
  8
cotas
100
AcDbLine
 10
5561.226641659728
 20
2410.935847250138
 30
0.0
 11
5569.101891021549
 21
2404.832041576445
 31
0.0
  0
MTEXT
  5
191A
330
16ED
100
AcDbEntity
  8
cotas
100
AcDbMText
 10
5565.764058270516
 20
2410.290188295856
 30
0.0
 40
2.0
 41
0.0
 71
     5
 72
     1
  1
R5,2
  7
SANINDUSA
 11
0.7903913655806494
 21
-0.612602227563332
 31
0.0
 73
     1
 44
1.0
1001
ACAD
1000
MTEXTBEGIN
1070
    73
1070
     1
1070
    44
1040
1.0
1070
    74
1070
     0
1000
MTEXTEND
  0
LINE
  5
191B
330
16ED
100
AcDbEntity
  8
cotas
100
AcDbLine
 10
5574.784796156525
 20
2400.427438368059
 30
0.0
 11
5570.682673752711
 21
2403.606837121318
 31
0.0
  0
SOLID
  5
191C
330
16ED
100
AcDbEntity
  8
cotas
100
AcDbTrace
 10
5569.306091764071
 20
2405.095505364972
 30
0.0
 11
5568.89769027903
 21
2404.568577787919
 31
0.0
 12
5570.682673752711
 22
2403.606837121318
 32
0.0
 13
5570.682673752711
 23
2403.606837121318
 33
0.0
  0
POINT
  5
191D
330
16ED
100
AcDbEntity
  8
Defpoints
 62
     0
100
AcDbPoint
 10
5570.682673752711
 20
2403.606837121318
 30
0.0
  0
POINT
  5
191E
330
16ED
100
AcDbEntity
  8
Defpoints
 62
     0
100
AcDbPoint
 10
5574.784796156525
 20
2400.427438368059
 30
0.0
  0
ENDBLK
  5
16EF
330
16ED
100
AcDbEntity
  8
0
100
AcDbBlockEnd
  0
BLOCK
  5
16F7
330
16F6
100
AcDbEntity
  8
0
100
AcDbBlockBegin
  2
*D75
 70
     1
 10
0.0
 20
0.0
 30
0.0
  3
*D75
  1

  0
LINE
  5
1913
330
16F6
100
AcDbEntity
  8
cotas
100
AcDbLine
 10
5574.798918507948
 20
2314.450071857436
 30
0.0
 11
5579.244988301509
 21
2320.110936486685
 31
0.0
  0
MTEXT
  5
1914
330
16F6
100
AcDbEntity
  8
cotas
100
AcDbMText
 10
5574.815036107469
 20
2317.742269107298
 30
0.0
 40
2.0
 41
0.0
 71
     5
 72
     1
  1
R5
  7
SANINDUSA
 11
0.6176710134924833
 21
0.7864365957222291
 31
0.0
 73
     1
 44
1.0
1001
ACAD
1000
MTEXTBEGIN
1070
    73
1070
     1
1070
    44
1040
1.0
1070
    74
1070
     0
1000
MTEXTEND
  0
LINE
  5
1915
330
16F6
100
AcDbEntity
  8
cotas
100
AcDbLine
 10
5583.568685395956
 20
2325.615992656741
 30
0.0
 11
5580.480330328493
 21
2321.68380967813
 31
0.0
  0
SOLID
  5
1916
330
16F6
100
AcDbEntity
  8
cotas
100
AcDbTrace
 10
5578.982842769601
 20
2320.316826824516
 30
0.0
 11
5579.507133833416
 21
2319.905046148854
 31
0.0
 12
5580.480330328493
 22
2321.68380967813
 32
0.0
 13
5580.480330328493
 23
2321.68380967813
 33
0.0
  0
POINT
  5
1917
330
16F6
100
AcDbEntity
  8
Defpoints
 62
     0
100
AcDbPoint
 10
5580.480330328493
 20
2321.68380967813
 30
0.0
  0
POINT
  5
1918
330
16F6
100
AcDbEntity
  8
Defpoints
 62
     0
100
AcDbPoint
 10
5583.568685395956
 20
2325.615992656741
 30
0.0
  0
ENDBLK
  5
16F8
330
16F6
100
AcDbEntity
  8
0
100
AcDbBlockEnd
  0
BLOCK
  5
1700
330
16FF
100
AcDbEntity
  8
0
100
AcDbBlockBegin
  2
*D76
 70
     1
 10
0.0
 20
0.0
 30
0.0
  3
*D76
  1

  0
ARC
  5
1702
330
16FF
100
AcDbEntity
  8
cotas
100
AcDbCircle
 10
5076.948096248418
 20
2219.496834898694
 30
0.0
 40
107.6088158184534
100
AcDbArc
 50
92.56490539406158
 51
178.9350946059437
  0
SOLID
  5
1703
330
16FF
100
AcDbEntity
  8
cotas
100
AcDbTrace
 10
5072.12066218962
 20
2327.330968391795
 30
0.0
 11
5072.144305891253
 21
2326.664721125522
 31
0.0
 12
5074.131225839258
 22
2327.068775863556
 32
0.0
 13
5074.131225839258
 23
2327.068775863556
 33
0.0
  0
SOLID
  5
1704
330
16FF
100
AcDbEntity
  8
cotas
100
AcDbTrace
 10
4969.691185207762
 20
2221.493650898848
 30
0.0
 11
4969.024547327831
 21
2221.499846178125
 31
0.0
 12
4969.339280429966
 22
2219.496834898693
 32
0.0
 13
4969.339280429966
 23
2219.496834898693
 33
0.0
  0
MTEXT
  5
1705
330
16FF
100
AcDbEntity
  8
cotas
100
AcDbMText
 10
4998.24073924349
 20
2296.170147517124
 30
0.0
 40
2.0
 41
0.0
 71
     5
 72
     1
  1
88,5\U+00B0
  7
SANINDUSA
 11
0.6977904598416497
 21
0.7163019434246839
 31
0.0
 73
     1
 44
1.0
1001
ACAD
1000
MTEXTBEGIN
1070
    73
1070
     1
1070
    44
1040
1.0
1070
    74
1070
     0
1000
MTEXTEND
  0
POINT
  5
1706
330
16FF
100
AcDbEntity
  8
Defpoints
 62
     0
100
AcDbPoint
 10
5021.525458905927
 20
2311.735593085545
 30
0.0
  0
POINT
  5
1707
330
16FF
100
AcDbEntity
  8
Defpoints
 62
     0
100
AcDbPoint
 10
5035.886947686007
 20
2219.496834898693
 30
0.0
  0
POINT
  5
1708
330
16FF
100
AcDbEntity
  8
Defpoints
 62
     0
100
AcDbPoint
 10
5075.873240685035
 20
2260.543912831007
 30
0.0
  0
POINT
  5
1709
330
16FF
100
AcDbEntity
  8
Defpoints
 62
     0
100
AcDbPoint
 10
5073.254648528108
 20
2360.543912831008
 30
0.0
  0
POINT
  5
170A
330
16FF
100
AcDbEntity
  8
Defpoints
 62
     0
100
AcDbPoint
 10
4900.838733177161
 20
2219.496834898693
 30
0.0
  0
ENDBLK
  5
1701
330
16FF
100
AcDbEntity
  8
0
100
AcDbBlockEnd
  0
BLOCK
  5
170C
330
170B
100
AcDbEntity
  8
0
100
AcDbBlockBegin
  2
*D77
 70
     1
 10
0.0
 20
0.0
 30
0.0
  3
*D77
  1

  0
LINE
  5
170E
330
170B
100
AcDbEntity
  8
cotas
100
AcDbLine
 10
4471.240789152112
 20
2361.543570155983
 30
0.0
 11
4471.444298944813
 21
2369.315295591089
 31
0.0
  0
ARC
  5
170F
330
170B
100
AcDbEntity
  8
cotas
100
AcDbCircle
 10
4469.877897424734
 20
2309.496834898692
 30
0.0
 40
58.83896601153683
100
AcDbArc
 50
1.947639194043003
 51
86.55236080595882
  0
SOLID
  5
1710
330
170B
100
AcDbEntity
  8
cotas
100
AcDbTrace
 10
4529.016157544744
 20
2311.502211209449
 30
0.0
 11
4528.349587167825
 21
2311.490880849453
 31
0.0
 12
4528.716863436271
 22
2309.496834898692
 32
0.0
 13
4528.716863436271
 23
2309.496834898692
 33
0.0
  0
SOLID
  5
1711
330
170B
100
AcDbEntity
  8
cotas
100
AcDbTrace
 10
4473.401870465627
 20
2367.896289816295
 30
0.0
 11
4473.430645721292
 21
2368.562335181947
 31
0.0
 12
4471.418121996505
 22
2368.315638266113
 32
0.0
 13
4471.418121996505
 23
2368.315638266113
 33
0.0
  0
MTEXT
  5
1712
330
170B
100
AcDbEntity
  8
cotas
100
AcDbMText
 10
4513.651316232436
 20
2352.139011593949
 30
0.0
 40
2.0
 41
0.0
 71
     5
 72
     1
  1
88,5\U+00B0
  7
SANINDUSA
 11
0.697790459841689
 21
-0.7163019434246456
 31
0.0
 73
     1
 44
1.0
1001
ACAD
1000
MTEXTBEGIN
1070
    73
1070
     1
1070
    44
1040
1.0
1070
    74
1070
     0
1000
MTEXTEND
  0
POINT
  5
1713
330
170B
100
AcDbEntity
  8
Defpoints
 62
     0
100
AcDbPoint
 10
4521.088726636089
 20
2338.470528014901
 30
0.0
  0
POINT
  5
1714
330
170B
100
AcDbEntity
  8
Defpoints
 62
     0
100
AcDbPoint
 10
4469.877897424734
 20
2309.496834898692
 30
0.0
  0
POINT
  5
1715
330
170B
100
AcDbEntity
  8
Defpoints
 62
     0
100
AcDbPoint
 10
4471.214612203804
 20
2360.543912831008
 30
0.0
  0
POINT
  5
1716
330
170B
100
AcDbEntity
  8
Defpoints
 62
     0
100
AcDbPoint
 10
4469.877897424734
 20
2309.496834898692
 30
0.0
  0
POINT
  5
1717
330
170B
100
AcDbEntity
  8
Defpoints
 62
     0
100
AcDbPoint
 10
4672.234630365959
 20
2309.496834898692
 30
0.0
  0
ENDBLK
  5
170D
330
170B
100
AcDbEntity
  8
0
100
AcDbBlockEnd
  0
BLOCK
  5
1719
330
1718
100
AcDbEntity
  8
0
100
AcDbBlockBegin
  2
*D78
 70
     1
 10
0.0
 20
0.0
 30
0.0
  3
*D78
  1

  0
LINE
  5
171B
330
1718
100
AcDbEntity
  8
cotas
100
AcDbLine
 10
3768.896371136745
 20
2308.497177573718
 30
0.0
 11
3768.659204643856
 21
2299.440154613447
 31
0.0
  0
ARC
  5
171C
330
1718
100
AcDbEntity
  8
cotas
100
AcDbCircle
 10
3771.27928102629
 20
2399.496834898693
 30
0.0
 40
99.09097896390788
100
AcDbArc
 50
269.6564473918158
 51
358.8435526081778
  0
SOLID
  5
171D
330
1718
100
AcDbEntity
  8
cotas
100
AcDbTrace
 10
3770.679760327162
 20
2300.074347066649
 30
0.0
 11
3770.690485218819
 21
2300.740927460257
 31
0.0
 12
3768.685381592165
 22
2300.439811938423
 32
0.0
 13
3768.685381592165
 23
2300.439811938423
 33
0.0
  0
SOLID
  5
171E
330
1718
100
AcDbEntity
  8
cotas
100
AcDbTrace
 10
3870.016760159146
 20
2397.500300656422
 30
0.0
 11
3870.683392877237
 21
2397.49357283242
 31
0.0
 12
3870.370259990198
 22
2399.496834898693
 32
0.0
 13
3870.370259990198
 23
2399.496834898693
 33
0.0
  0
MTEXT
  5
171F
330
1718
100
AcDbEntity
  8
cotas
100
AcDbMText
 10
3838.840987779266
 20
2330.142802945851
 30
0.0
 40
2.0
 41
0.0
 71
     5
 72
     1
  1
91,5\U+00B0
  7
SANINDUSA
 11
0.7163019434246947
 21
0.6977904598416388
 31
0.0
 73
     1
 44
1.0
1001
ACAD
1000
MTEXTBEGIN
1070
    73
1070
     1
1070
    44
1040
1.0
1070
    74
1070
     0
1000
MTEXTEND
  0
POINT
  5
1720
330
1718
100
AcDbEntity
  8
Defpoints
 62
     0
100
AcDbPoint
 10
3819.319540907614
 20
2312.82991189712
 30
0.0
  0
POINT
  5
1721
330
1718
100
AcDbEntity
  8
Defpoints
 62
     0
100
AcDbPoint
 10
3971.279281026293
 20
2399.496834898693
 30
0.0
  0
POINT
  5
1722
330
1718
100
AcDbEntity
  8
Defpoints
 62
     0
100
AcDbPoint
 10
3768.922548085053
 20
2309.496834898693
 30
0.0
  0
POINT
  5
1723
330
1718
100
AcDbEntity
  8
Defpoints
 62
     0
100
AcDbPoint
 10
3770.259262864131
 20
2360.543912831008
 30
0.0
  0
POINT
  5
1724
330
1718
100
AcDbEntity
  8
Defpoints
 62
     0
100
AcDbPoint
 10
3810.245555863157
 20
2399.496834898692
 30
0.0
  0
ENDBLK
  5
171A
330
1718
100
AcDbEntity
  8
0
100
AcDbBlockEnd
  0
BLOCK
  5
1726
330
1725
100
AcDbEntity
  8
0
100
AcDbBlockBegin
  2
*D79
 70
     1
 10
0.0
 20
0.0
 30
0.0
  3
*D79
  1

  0
ARC
  5
1728
330
1725
100
AcDbEntity
  8
cotas
100
AcDbCircle
 10
4169.74685128768
 20
2399.496834898693
 30
0.0
 40
97.43438871936245
100
AcDbArc
 50
181.176110122831
 51
270.3351229159492
  0
SOLID
  5
1729
330
1725
100
AcDbEntity
  8
cotas
100
AcDbTrace
 10
4071.999673425019
 20
2397.493519131534
 30
0.0
 11
4072.666304978871
 21
2397.500361342744
 31
0.0
 12
4072.312462568318
 22
2399.496834898693
 32
0.0
 13
4072.312462568318
 23
2399.496834898693
 33
0.0
  0
SOLID
  5
172A
330
1725
100
AcDbEntity
  8
cotas
100
AcDbTrace
 10
4170.311371011139
 20
2302.397402893361
 30
0.0
 11
4170.32211220989
 21
2301.730822762324
 31
0.0
 12
4172.316482003627
 22
2302.096336424099
 32
0.0
 13
4172.316482003627
 23
2302.096336424099
 33
0.0
  0
MTEXT
  5
172B
330
1725
100
AcDbEntity
  8
cotas
100
AcDbMText
 10
4103.347779952621
 20
2331.322912544387
 30
0.0
 40
2.0
 41
0.0
 71
     5
 72
     1
  1
91,5\U+00B0
  7
SANINDUSA
 11
0.7163703421180348
 21
-0.6977202397334408
 31
0.0
 73
     1
 44
1.0
1001
ACAD
1000
MTEXTBEGIN
1070
    73
1070
     1
1070
    44
1040
1.0
1070
    74
1070
     0
1000
MTEXTEND
  0
POINT
  5
172C
330
1725
100
AcDbEntity
  8
Defpoints
 62
     0
100
AcDbPoint
 10
4085.797772642389
 20
2350.039658475827
 30
0.0
  0
POINT
  5
172D
330
1725
100
AcDbEntity
  8
Defpoints
 62
     0
100
AcDbPoint
 10
3971.279281026293
 20
2399.496834898693
 30
0.0
  0
POINT
  5
172E
330
1725
100
AcDbEntity
  8
Defpoints
 62
     0
100
AcDbPoint
 10
4173.412722635441
 20
2260.543912831008
 30
0.0
  0
POINT
  5
172F
330
1725
100
AcDbEntity
  8
Defpoints
 62
     0
100
AcDbPoint
 10
4172.17400545598
 20
2307.496834898693
 30
0.0
  0
POINT
  5
1730
330
1725
100
AcDbEntity
  8
Defpoints
 62
     0
100
AcDbPoint
 10
4132.313006189413
 20
2399.496834898693
 30
0.0
  0
ENDBLK
  5
1727
330
1725
100
AcDbEntity
  8
0
100
AcDbBlockEnd
  0
BLOCK
  5
1732
330
1731
100
AcDbEntity
  8
0
100
AcDbBlockBegin
  2
*D80
 70
     1
 10
0.0
 20
0.0
 30
0.0
  3
*D80
  1

  0
LINE
  5
1742
330
1731
100
AcDbEntity
  8
cotas
100
AcDbLine
 10
4430.884910501901
 20
2437.183644579874
 30
0.0
 11
4481.012413364537
 21
2388.697091071028
 31
0.0
  0
MTEXT
  5
1743
330
1731
100
AcDbEntity
  8
cotas
100
AcDbMText
 10
4434.805348367098
 20
2436.2310573403
 30
0.0
 40
2.0
 41
0.0
 71
     5
 72
     1
  1
R40
  7
SANINDUSA
 11
0.7187736151972383
 21
-0.6952441945793525
 31
0.0
 73
     1
 44
1.0
1001
ACAD
1000
MTEXTBEGIN
1070
    73
1070
     1
1070
    44
1040
1.0
1070
    74
1070
     0
1000
MTEXTEND
  0
LINE
  5
1744
330
1731
100
AcDbEntity
  8
cotas
100
AcDbLine
 10
4511.200905202824
 20
2359.496834898692
 30
0.0
 11
4482.449960594932
 21
2387.306602681869
 31
0.0
  0
SOLID
  5
1745
330
1731
100
AcDbEntity
  8
cotas
100
AcDbTrace
 10
4481.244161429397
 20
2388.936682276093
 30
0.0
 11
4480.780665299678
 21
2388.457499865962
 31
0.0
 12
4482.449960594932
 22
2387.306602681869
 32
0.0
 13
4482.449960594932
 23
2387.306602681869
 33
0.0
  0
POINT
  5
1746
330
1731
100
AcDbEntity
  8
Defpoints
 62
     0
100
AcDbPoint
 10
4482.449960594932
 20
2387.306602681869
 30
0.0
  0
POINT
  5
1747
330
1731
100
AcDbEntity
  8
Defpoints
 62
     0
100
AcDbPoint
 10
4511.200905202824
 20
2359.496834898692
 30
0.0
  0
ENDBLK
  5
1733
330
1731
100
AcDbEntity
  8
0
100
AcDbBlockEnd
  0
BLOCK
  5
173B
330
173A
100
AcDbEntity
  8
0
100
AcDbBlockBegin
  2
*D81
 70
     1
 10
0.0
 20
0.0
 30
0.0
  3
*D81
  1

  0
LINE
  5
1748
330
173A
100
AcDbEntity
  8
cotas
100
AcDbLine
 10
5032.706470240383
 20
2358.818106707444
 30
0.0
 11
5057.500515136922
 21
2388.768022792941
 31
0.0
  0
MTEXT
  5
1749
330
173A
100
AcDbEntity
  8
cotas
100
AcDbMText
 10
5033.353600265429
 20
2362.80037719481
 30
0.0
 40
2.0
 41
0.0
 71
     5
 72
     1
  1
R40
  7
SANINDUSA
 11
0.6376884107325074
 21
0.7702944182696957
 31
0.0
 73
     1
 44
1.0
1001
ACAD
1000
MTEXTBEGIN
1070
    73
1070
     1
1070
    44
1040
1.0
1070
    74
1070
     0
1000
MTEXTEND
  0
SOLID
  5
174A
330
173A
100
AcDbEntity
  8
cotas
100
AcDbTrace
 10
5057.243750330832
 20
2388.980585596518
 30
0.0
 11
5057.757279943013
 21
2388.555459989363
 31
0.0
 12
5058.775891958387
 22
2390.30861162948
 32
0.0
 13
5058.775891958387
 23
2390.30861162948
 33
0.0
  0
POINT
  5
174B
330
173A
100
AcDbEntity
  8
Defpoints
 62
     0
100
AcDbPoint
 10
5058.775891958387
 20
2390.30861162948
 30
0.0
  0
POINT
  5
174C
330
173A
100
AcDbEntity
  8
Defpoints
 62
     0
100
AcDbPoint
 10
5033.268355529088
 20
2359.496834898693
 30
0.0
  0
ENDBLK
  5
173C
330
173A
100
AcDbEntity
  8
0
100
AcDbBlockEnd
  0
BLOCK
  5
194C
330
194B
100
AcDbEntity
  8
0
100
AcDbBlockBegin
  2
*D83
 70
     1
 10
0.0
 20
0.0
 30
0.0
  3
*D83
  1

  0
LINE
  5
1958
330
194B
100
AcDbEntity
  8
0
100
AcDbLine
 10
3770.259262864131
 20
2361.543912831008
 30
0.0
 11
3770.259262864131
 21
2529.430713398007
 31
0.0
  0
LINE
  5
1959
330
194B
100
AcDbEntity
  8
0
100
AcDbLine
 10
4172.299299188447
 20
2361.543912831008
 30
0.0
 11
4172.299299188447
 21
2529.430713398007
 31
0.0
  0
LINE
  5
195A
330
194B
100
AcDbEntity
  8
0
100
AcDbLine
 10
3772.259262864131
 20
2528.430713398007
 30
0.0
 11
4170.299299188448
 21
2528.430713398007
 31
0.0
  0
SOLID
  5
195B
330
194B
100
AcDbEntity
  8
0
100
AcDbTrace
 10
3772.259262864131
 20
2528.764046731341
 30
0.0
 11
3772.259262864131
 21
2528.097380064674
 31
0.0
 12
3770.259262864131
 22
2528.430713398007
 32
0.0
 13
3770.259262864131
 23
2528.430713398007
 33
0.0
  0
SOLID
  5
195C
330
194B
100
AcDbEntity
  8
0
100
AcDbTrace
 10
4170.299299188448
 20
2528.764046731341
 30
0.0
 11
4170.299299188448
 21
2528.097380064674
 31
0.0
 12
4172.299299188447
 22
2528.430713398007
 32
0.0
 13
4172.299299188447
 23
2528.430713398007
 33
0.0
  0
MTEXT
  5
195D
330
194B
100
AcDbEntity
  8
0
100
AcDbMText
 10
3971.279281026289
 20
2530.472352081688
 30
0.0
 40
2.0
 41
0.0
 71
     5
 72
     1
  1
402
  7
SANINDUSA
 73
     1
 44
1.0
1001
ACAD
1000
MTEXTBEGIN
1070
    73
1070
     1
1070
    44
1040
1.0
1070
    74
1070
     0
1000
MTEXTEND
  0
POINT
  5
195E
330
194B
100
AcDbEntity
  8
Defpoints
 62
     0
100
AcDbPoint
 10
3770.259262864131
 20
2360.543912831008
 30
0.0
  0
POINT
  5
195F
330
194B
100
AcDbEntity
  8
Defpoints
 62
     0
100
AcDbPoint
 10
4172.299299188447
 20
2360.543912831008
 30
0.0
  0
POINT
  5
1960
330
194B
100
AcDbEntity
  8
Defpoints
 62
     0
100
AcDbPoint
 10
4172.299299188447
 20
2528.430713398007
 30
0.0
  0
ENDBLK
  5
194D
330
194B
100
AcDbEntity
  8
0
100
AcDbBlockEnd
  0
ENDSEC
  0
SECTION
  2
ENTITIES
  0
LWPOLYLINE
  5
13CA
330
1F
100
AcDbEntity
  8
SANINDUSA
100
AcDbPolyline
 90
       20
 70
   128
 43
0.0
 10
4171.700967787409
 20
2360.464283699879
 10
4171.700285403569
 20
2360.449611659414
 10
4171.698229516553
 20
2360.434939618949
 10
4171.695290364032
 20
2360.42217969524
 10
4171.691299322033
 20
2360.409617475142
 10
4171.686193846272
 20
2360.39717292126
 10
4171.680041167928
 20
2360.385108506319
 10
4171.672978346395
 20
2360.373673380003
 10
4171.664954341637
 20
2360.362779133021
 10
4171.655876805412
 20
2360.35236953345
 10
4171.645892869622
 20
2360.342686011881
 10
4171.635268795454
 20
2360.333973560114
 10
4171.623879921301
 20
2360.326118430455
 10
4171.611607961832
 20
2360.319101882089
 10
4171.598687456536
 20
2360.313114876295
 10
4171.585660962704
 20
2360.308372223278
 10
4171.572189819214
 20
2360.304708483676
 10
4171.558155286843
 20
2360.302142838406
 10
4171.543848518476
 20
2360.300775648197
 10
4171.536375079745
 20
2360.30054894178
  0
LWPOLYLINE
  5
13CB
330
1F
100
AcDbEntity
  8
SANINDUSA
100
AcDbPolyline
 90
       20
 70
   128
 43
0.0
 10
4171.700967787409
 20
2360.464283699879
 10
4171.700285403569
 20
2360.478955740345
 10
4171.698229516553
 20
2360.493627780811
 10
4171.695290364032
 20
2360.506387704519
 10
4171.691299322033
 20
2360.518949924617
 10
4171.686193846272
 20
2360.5313944785
 10
4171.680041167928
 20
2360.54345889344
 10
4171.672978346395
 20
2360.554894019756
 10
4171.664954341637
 20
2360.56578826674
 10
4171.655876805412
 20
2360.57619786631
 10
4171.645892869622
 20
2360.585881387879
 10
4171.635268795454
 20
2360.594593839645
 10
4171.623879921301
 20
2360.602448969304
 10
4171.611607961832
 20
2360.60946551767
 10
4171.598687456536
 20
2360.615452523465
 10
4171.585660962704
 20
2360.620195176482
 10
4171.572189819214
 20
2360.623858916083
 10
4171.558155286843
 20
2360.626424561353
 10
4171.543848518476
 20
2360.627791751563
 10
4171.536375079745
 20
2360.628018457979
  0
ARC
  5
13CE
330
1F
100
AcDbEntity
  8
SANINDUSA
100
AcDbCircle
 10
4171.536436050217
 20
2360.464283699879
 30
0.0
 40
0.2010200181621551
100
AcDbArc
 50
270.0
 51
90.0
  0
LWPOLYLINE
  5
13D1
330
1F
100
AcDbEntity
  8
SANINDUSA
100
AcDbPolyline
 90
        3
 70
   128
 43
0.0
 10
4171.375408364188
 20
2360.315516723748
 10
4171.369310338674
 20
2360.318420203343
 10
4171.367844552255
 20
2360.31927955763
  0
LWPOLYLINE
  5
13D6
330
1F
100
AcDbEntity
  8
SANINDUSA
100
AcDbPolyline
 90
        3
 70
   128
 43
0.0
 10
4171.375408364188
 20
2360.613050676011
 10
4171.369310338674
 20
2360.610147196417
 10
4171.367844552255
 20
2360.60928784213
  0
LWPOLYLINE
  5
13D7
330
1F
100
AcDbEntity
  8
SANINDUSA
100
AcDbPolyline
 90
        7
 70
   128
 43
0.0
 10
4171.536375079745
 20
2360.30054894178
 10
4171.491423712589
 20
2360.300273116827
 10
4171.446472224695
 20
2360.299967900036
 10
4171.433286119326
 20
2360.30035846902
 10
4171.420172992078
 20
2360.301766243825
 10
4171.40687687434
 20
2360.304327978891
 10
4171.393842579894
 20
2360.30799843002
  0
LWPOLYLINE
  5
13DA
330
1F
100
AcDbEntity
  8
SANINDUSA
100
AcDbPolyline
 90
        7
 70
   128
 43
0.0
 10
4171.536375079745
 20
2360.628018457979
 10
4171.491423712589
 20
2360.628294282933
 10
4171.446472224695
 20
2360.628599499723
 10
4171.433286119326
 20
2360.62820893074
 10
4171.420172992078
 20
2360.626801155934
 10
4171.40687687434
 20
2360.624239420868
 10
4171.393842579894
 20
2360.620568969739
  0
ARC
  5
13DE
330
1F
100
AcDbEntity
  8
SANINDUSA
100
AcDbCircle
 10
4171.336436050218
 20
2360.464283699879
 30
0.0
 40
0.2010200181621551
100
AcDbArc
 50
90.0
 51
270.0
  0
LINE
  5
13DF
330
1F
100
AcDbEntity
  8
SANINDUSA
100
AcDbLine
 10
4171.336436050218
 20
2360.665303718042
 30
0.0
 11
4171.536436050217
 21
2360.665303718042
 31
0.0
  0
CIRCLE
  5
13E2
330
1F
100
AcDbEntity
  8
SANINDUSA
100
AcDbCircle
 10
4171.219436050217
 20
2360.464283699879
 30
0.0
 40
0.0175000000000001
  0
LINE
  5
13E4
330
1F
100
AcDbEntity
  8
SANINDUSA
100
AcDbLine
 10
4171.336436050218
 20
2360.263263681718
 30
0.0
 11
4171.536436050217
 21
2360.263263681718
 31
0.0
  0
ARC
  5
13E7
330
1F
100
AcDbEntity
  8
SANINDUSA
100
AcDbCircle
 10
4171.38944917221
 20
2360.464297969784
 30
0.0
 40
0.0360287338943597
100
AcDbArc
 50
180.0226931363062
 51
359.9773068636938
  0
ARC
  5
13E8
330
1F
100
AcDbEntity
  8
SANINDUSA
100
AcDbCircle
 10
4171.38944917221
 20
2360.464269429976
 30
0.0
 40
0.0360287338943597
100
AcDbArc
 50
0.0226931363062187
 51
179.9773068636937
  0
ARC
  5
13ED
330
1F
100
AcDbEntity
  8
SANINDUSA
100
AcDbCircle
 10
4171.336436050218
 20
2360.464283699879
 30
0.0
 40
0.2023567329412268
100
AcDbArc
 50
90.0
 51
270.0
  0
LINE
  5
13EF
330
1F
100
AcDbEntity
  8
SANINDUSA
100
AcDbLine
 10
4171.336436050218
 20
2360.666640432821
 30
0.0
 11
4171.536436050217
 21
2360.666640432821
 31
0.0
  0
LINE
  5
13F1
330
1F
100
AcDbEntity
  8
SANINDUSA
100
AcDbLine
 10
4171.336436050218
 20
2360.261926966939
 30
0.0
 11
4171.536436050217
 21
2360.261926966939
 31
0.0
  0
ARC
  5
13F2
330
1F
100
AcDbEntity
  8
SANINDUSA
100
AcDbCircle
 10
4171.536436050217
 20
2360.464283699879
 30
0.0
 40
0.2023567329412269
100
AcDbArc
 50
83.55527248106874
 51
90.0
  0
ARC
  5
13F3
330
1F
100
AcDbEntity
  8
SANINDUSA
100
AcDbCircle
 10
4171.562474229772
 20
2360.690644141762
 30
0.0
 40
0.0255001496397995
100
AcDbArc
 50
262.5084389858319
 51
267.0221867881577
  0
LINE
  5
13F4
330
1F
100
AcDbEntity
  8
SANINDUSA
100
AcDbLine
 10
4171.5611495161
 20
2360.666417141489
 30
0.0
 11
4171.5611495161
 21
2360.66517842431
 31
0.0
  0
ARC
  5
13F5
330
1F
100
AcDbEntity
  8
SANINDUSA
100
AcDbCircle
 10
4171.536436050217
 20
2360.464283699879
 30
0.0
 40
0.2036386103190738
100
AcDbArc
 50
276.9705657163849
 51
83.02943428361514
  0
LINE
  5
13F6
330
1F
100
AcDbEntity
  8
SANINDUSA
100
AcDbLine
 10
4171.5611495161
 20
2360.262150258271
 30
0.0
 11
4171.5611495161
 21
2360.26338897545
 31
0.0
  0
ARC
  5
13F7
330
1F
100
AcDbEntity
  8
SANINDUSA
100
AcDbCircle
 10
4171.562474229772
 20
2360.237923257998
 30
0.0
 40
0.0255001496401294
100
AcDbArc
 50
92.97781321184222
 51
97.49156101416815
  0
ARC
  5
13F8
330
1F
100
AcDbEntity
  8
SANINDUSA
100
AcDbCircle
 10
4171.536436050217
 20
2360.464283699879
 30
0.0
 40
0.2023567329412268
100
AcDbArc
 50
270.0
 51
276.4447275189312
  0
CIRCLE
  5
13F9
330
1F
100
AcDbEntity
  8
SANINDUSA
100
AcDbCircle
 10
4171.389436050218
 20
2360.464283699879
 30
0.0
 40
0.0235000000000001
  0
LWPOLYLINE
  5
13FA
330
1F
100
AcDbEntity
  8
SANINDUSA
100
AcDbPolyline
 90
        3
 70
   128
 43
0.0
 10
4171.393842579894
 20
2360.30799843002
 10
4171.381398135689
 20
2360.312664787611
 10
4171.375408364188
 20
2360.315516723748
  0
ARC
  5
13FB
330
1F
100
AcDbEntity
  8
SANINDUSA
100
AcDbCircle
 10
4171.447739156396
 20
2360.465085154867
 30
0.0
 40
0.166260097307124
100
AcDbArc
 50
180.2761947598131
 51
241.2793328575024
  0
LWPOLYLINE
  5
13FC
330
1F
100
AcDbEntity
  8
SANINDUSA
100
AcDbPolyline
 90
        3
 70
   128
 43
0.0
 10
4171.393842579894
 20
2360.620568969739
 10
4171.381398135689
 20
2360.615902612148
 10
4171.375408364188
 20
2360.613050676011
  0
ARC
  5
13FD
330
1F
100
AcDbEntity
  8
SANINDUSA
100
AcDbCircle
 10
4171.447739156396
 20
2360.463482244892
 30
0.0
 40
0.166260097307124
100
AcDbArc
 50
118.7206671424976
 51
179.7238052401868
  0
ARC
  5
1402
330
1F
100
AcDbEntity
  8
SANINDUSA
100
AcDbCircle
 10
4173.016088128098
 20
2360.442865753074
 30
0.0
 40
0.04
100
AcDbArc
 50
270.0
 51
1.49999999715483
  0
LINE
  5
1403
330
1F
100
AcDbEntity
  8
SANINDUSA
100
AcDbLine
 10
4172.451415792616
 20
2360.543912831007
 30
0.0
 11
4172.450079077836
 21
2360.492865753075
 31
0.0
  0
LINE
  5
1404
330
1F
100
AcDbEntity
  8
SANINDUSA
100
AcDbLine
 10
4173.056074421096
 20
2360.443912831007
 30
0.0
 11
4173.05345582894
 21
2360.543912831007
 31
0.0
  0
ARC
  5
1405
330
1F
100
AcDbEntity
  8
SANINDUSA
100
AcDbCircle
 10
4172.491402085614
 20
2360.542865753075
 30
0.0
 40
0.04
100
AcDbArc
 50
90.0
 51
178.5000000028451
  0
ARC
  5
1406
330
1F
100
AcDbEntity
  8
SANINDUSA
100
AcDbCircle
 10
4173.01346953594
 20
2360.542865753075
 30
0.0
 40
0.04
100
AcDbArc
 50
1.49999999715483
 51
76.0054025587074
  0
LWPOLYLINE
  5
1407
330
1F
100
AcDbEntity
  8
SANINDUSA
100
AcDbPolyline
 90
       14
 70
   128
 43
0.0
 10
4172.852422734458
 20
2360.582054794711
 10
4172.84592746341
 20
2360.582030844688
 10
4172.82444056782
 20
2360.581985990783
 10
4172.798166576923
 20
2360.581952347255
 10
4172.772597461348
 20
2360.581899380907
 10
4172.762336804453
 20
2360.581912049019
 10
4172.754046364209
 20
2360.581961706238
 10
4172.746675678707
 20
2360.582047273304
 10
4172.739978741136
 20
2360.582167615433
 10
4172.733629166061
 20
2360.582326700361
 10
4172.727033670249
 20
2360.582541283467
 10
4172.719932131596
 20
2360.582781124627
 10
4172.71277367358
 20
2360.582867811622
 10
4172.708286404052
 20
2360.582865753075
  0
LWPOLYLINE
  5
1408
330
1F
100
AcDbEntity
  8
SANINDUSA
100
AcDbPolyline
 90
       45
 70
   128
 43
0.0
 10
4173.022740247648
 20
2360.581761417992
 10
4173.022472712166
 20
2360.581798770223
 10
4173.022293113065
 20
2360.581815814927
 10
4173.022203859987
 20
2360.581821864175
 10
4173.022141155598
 20
2360.581825159798
 10
4173.022083923134
 20
2360.581827486385
 10
4173.022027154428
 20
2360.581829167538
 10
4173.021978037314
 20
2360.581830175007
 10
4173.021888662115
 20
2360.581831463029
 10
4173.021505873925
 20
2360.581835712137
 10
4173.020789795283
 20
2360.581842686457
 10
4173.019769148487
 20
2360.581851891526
 10
4173.018437954548
 20
2360.581863192627
 10
4173.016797575414
 20
2360.581876374797
 10
4173.014850663832
 20
2360.581891210333
 10
4173.012601456177
 20
2360.581907459615
 10
4173.010055057073
 20
2360.58192487885
 10
4173.007215578876
 20
2360.581943064032
 10
4173.004102296919
 20
2360.58196119552
 10
4173.000689968112
 20
2360.581979282535
 10
4172.996981525101
 20
2360.581997183486
 10
4172.992985418489
 20
2360.582014726598
 10
4172.988711780846
 20
2360.582031735347
 10
4172.984172399583
 20
2360.58204803054
 10
4172.979380623745
 20
2360.582063432622
 10
4172.974351990868
 20
2360.582077761991
 10
4172.96910441815
 20
2360.582090841834
 10
4172.963655118587
 20
2360.582102507952
 10
4172.958021917117
 20
2360.582112605227
 10
4172.952223027584
 20
2360.582121020265
 10
4172.946253750143
 20
2360.582127967941
 10
4172.940072960731
 20
2360.582133510408
 10
4172.933704625533
 20
2360.582137554994
 10
4172.927163304273
 20
2360.582140024962
 10
4172.920464656398
 20
2360.582140846745
 10
4172.913625292213
 20
2360.582139950885
 10
4172.906662624745
 20
2360.582137272886
 10
4172.89959525612
 20
2360.58213275439
 10
4172.892443092485
 20
2360.582126344815
 10
4172.885224808704
 20
2360.582117999964
 10
4172.877959001835
 20
2360.582107682532
 10
4172.870666886778
 20
2360.582095999163
 10
4172.863549130787
 20
2360.582092495121
 10
4172.856385985023
 20
2360.582083910526
 10
4172.852422734458
 20
2360.582054794711
  0
LINE
  5
1409
330
1F
100
AcDbEntity
  8
SANINDUSA
100
AcDbLine
 10
4172.740435810777
 20
2360.395865753075
 30
0.0
 11
4172.742911187681
 21
2360.424159440536
 31
0.0
  0
ARC
  5
140A
330
1F
100
AcDbEntity
  8
SANINDUSA
100
AcDbCircle
 10
4172.660528932421
 20
2360.395030295592
 30
0.0
 40
0.0099140401011529
100
AcDbArc
 50
4.780685747376407
 51
67.84345311019935
  0
LWPOLYLINE
  5
140B
330
1F
100
AcDbEntity
  8
SANINDUSA
100
AcDbPolyline
 90
        5
 70
   128
 43
0.0
 10
4172.88103991359
 20
2360.402865753075
 10
4172.879398588204
 20
2360.402933405129
 10
4172.878157728073
 20
2360.403182929428
 10
4172.877408555321
 20
2360.403656902097
 10
4172.87714927666
 20
2360.404410874537
  0
LINE
  5
140C
330
1F
100
AcDbEntity
  8
SANINDUSA
100
AcDbLine
 10
4173.016088128098
 20
2360.402865753075
 30
0.0
 11
4172.88103991359
 21
2360.402865753075
 31
0.0
  0
LINE
  5
140D
330
1F
100
AcDbEntity
  8
SANINDUSA
100
AcDbLine
 10
4172.87714927666
 20
2360.443912831007
 30
0.0
 11
4172.87714927666
 21
2360.404410874537
 31
0.0
  0
LINE
  5
140F
330
1F
100
AcDbEntity
  8
SANINDUSA
100
AcDbLine
 10
4172.450079077836
 20
2360.492865753075
 30
0.0
 11
4172.652435810777
 21
2360.492865753075
 31
0.0
  0
ARC
  5
1410
330
1F
100
AcDbEntity
  8
SANINDUSA
100
AcDbCircle
 10
4172.87514927666
 20
2360.490865753074
 30
0.0
 40
0.0019999999999997
100
AcDbArc
 50
0.0
 51
90.0
  0
LINE
  5
1412
330
1F
100
AcDbEntity
  8
SANINDUSA
100
AcDbLine
 10
4172.852435810778
 20
2360.492865753075
 30
0.0
 11
4172.87514927666
 21
2360.492865753075
 31
0.0
  0
LINE
  5
1413
330
1F
100
AcDbEntity
  8
SANINDUSA
100
AcDbLine
 10
4172.87714927666
 20
2360.443912831007
 30
0.0
 11
4172.87714927666
 21
2360.490865753074
 31
0.0
  0
LINE
  5
1415
330
1F
100
AcDbEntity
  8
SANINDUSA
100
AcDbLine
 10
4172.652435810777
 20
2360.492865753075
 30
0.0
 11
4172.852435810778
 21
2360.492865753075
 31
0.0
  0
LINE
  5
1416
330
1F
100
AcDbEntity
  8
SANINDUSA
100
AcDbLine
 10
4172.491402085614
 20
2360.582865753075
 30
0.0
 11
4172.652435810777
 21
2360.582865753075
 31
0.0
  0
LINE
  5
141B
330
1F
100
AcDbEntity
  8
SANINDUSA
100
AcDbLine
 10
4172.708286404052
 20
2360.582865753075
 30
0.0
 11
4172.652435810777
 21
2360.582865753075
 31
0.0
  0
ARC
  5
141C
330
1F
100
AcDbEntity
  8
SANINDUSA
100
AcDbCircle
 10
4173.021933445261
 20
2360.576826940318
 30
0.0
 40
0.0050000000000001
100
AcDbArc
 50
76.0056636718679
 51
80.71412799860487
  0
LWPOLYLINE
  5
141E
330
1F
100
AcDbEntity
  8
SANINDUSA
100
AcDbPolyline
 90
        9
 70
   128
 43
0.0
 10
4172.87714927666
 20
2360.445693198452
 10
4172.864652720597
 20
2360.442728445376
 10
4172.851317214684
 20
2360.440124547707
 10
4172.837751374481
 20
2360.438024838734
 10
4172.824051644601
 20
2360.436445284535
 10
4172.810281111021
 20
2360.435390515554
 10
4172.795845815579
 20
2360.434794617637
 10
4172.781405256951
 20
2360.434290342217
 10
4172.752524139695
 20
2360.43328179138
  0
ARC
  5
141F
330
1F
100
AcDbEntity
  8
SANINDUSA
100
AcDbCircle
 10
4172.752873134661
 20
2360.423287883109
 30
0.0
 40
0.0100000000000001
100
AcDbArc
 50
91.99999997771437
 51
175.0000000037089
  0
LINE
  5
1424
330
1F
100
AcDbEntity
  8
SANINDUSA
100
AcDbLine
 10
4172.67360618047
 20
2360.428064584274
 30
0.0
 11
4172.675226723644
 21
2360.405808103479
 31
0.0
  0
ARC
  5
1427
330
1F
100
AcDbEntity
  8
SANINDUSA
100
AcDbCircle
 10
4172.669348929907
 20
2360.421533334946
 30
0.0
 40
0.0077962426939888
100
AcDbArc
 50
56.9025691573605
 51
81.61941244129343
  0
LWPOLYLINE
  5
1429
330
1F
100
AcDbEntity
  8
SANINDUSA
100
AcDbPolyline
 90
       10
 70
   128
 43
0.0
 10
4172.582255497159
 20
2360.492865753075
 10
4172.585233940276
 20
2360.484804534466
 10
4172.590945771047
 20
2360.472199939251
 10
4172.596117641704
 20
2360.46265882606
 10
4172.601967142695
 20
2360.453502463657
 10
4172.608527301739
 20
2360.444865617497
 10
4172.613061408251
 20
2360.43973250683
 10
4172.617910886334
 20
2360.43489648022
 10
4172.617910930186
 20
2360.43489643932
 10
4172.617910930186
 20
2360.43489643932
  0
LINE
  5
142C
330
1F
100
AcDbEntity
  8
SANINDUSA
100
AcDbLine
 10
4172.740435810777
 20
2360.395865753075
 30
0.0
 11
4172.678556959275
 21
2360.395865753075
 31
0.0
  0
LWPOLYLINE
  5
1431
330
1F
100
AcDbEntity
  8
SANINDUSA
100
AcDbPolyline
 90
        8
 70
   128
 43
0.0
 10
4172.675226723644
 20
2360.405808103479
 10
4172.675507214465
 20
2360.405188363125
 10
4172.675582834679
 20
2360.40466319453
 10
4172.675575774846
 20
2360.40455037919
 10
4172.675431026487
 20
2360.404063514261
 10
4172.67504763176
 20
2360.403571516426
 10
4172.67360477796
 20
2360.402805038527
 10
4172.672869977099
 20
2360.40261714836
  0
ARC
  5
1433
330
1F
100
AcDbEntity
  8
SANINDUSA
100
AcDbCircle
 10
4172.754325016952
 20
2360.58115373634
 30
0.0
 40
0.2
100
AcDbArc
 50
226.9943533253625
 51
236.0841400305942
  0
LWPOLYLINE
  5
1434
330
1F
100
AcDbEntity
  8
SANINDUSA
100
AcDbPolyline
 90
        3
 70
   128
 43
0.0
 10
4172.672869977099
 20
2360.40261714836
 10
4172.670723303623
 20
2360.402412488133
 10
4172.668323609172
 20
2360.402838400418
  0
ARC
  5
1435
330
1F
100
AcDbEntity
  8
SANINDUSA
100
AcDbCircle
 10
4172.698527532714
 20
2360.49816794989
 30
0.0
 40
0.1
100
AcDbArc
 50
236.0841400305942
 51
252.4198744382424
  0
LINE
  5
1437
330
1F
100
AcDbEntity
  8
SANINDUSA
100
AcDbLine
 10
4172.673988642801
 20
2360.395865753075
 30
0.0
 11
4172.678556959275
 21
2360.395865753075
 31
0.0
  0
LINE
  5
1438
330
1F
100
AcDbEntity
  8
SANINDUSA
100
AcDbLine
 10
4172.673988642801
 20
2360.395865753075
 30
0.0
 11
4172.67043581092
 21
2360.395865753075
 31
0.0
  0
LWPOLYLINE
  5
143E
330
1F
100
AcDbEntity
  8
SANINDUSA
100
AcDbPolyline
 90
       14
 70
   128
 43
0.0
 10
4172.603840623672
 20
2360.492865753075
 10
4172.604177337618
 20
2360.49197561878
 10
4172.609140439067
 20
2360.481161104828
 10
4172.61494300236
 20
2360.470696280836
 10
4172.620061647937
 20
2360.46296093939
 10
4172.625774729287
 20
2360.455655711366
 10
4172.632352711399
 20
2360.448683214436
 10
4172.639642772796
 20
2360.442464999581
 10
4172.644368141014
 20
2360.439173294953
 10
4172.649339547963
 20
2360.436266815932
 10
4172.654689912081
 20
2360.43372389957
 10
4172.660244687981
 20
2360.431664824504
 10
4172.665302969092
 20
2360.43026253397
 10
4172.670485215467
 20
2360.429246327574
  0
LWPOLYLINE
  5
1440
330
1F
100
AcDbEntity
  8
SANINDUSA
100
AcDbPolyline
 90
       41
 70
   128
 43
0.0
 10
4172.267873517795
 20
2360.581938963143
 10
4172.267388324406
 20
2360.582038153832
 10
4172.266998294884
 20
2360.582074243246
 10
4172.266651100182
 20
2360.582088450073
 10
4172.266261479025
 20
2360.582092667609
 10
4172.265741204053
 20
2360.582095145555
 10
4172.265003213733
 20
2360.58210388568
 10
4172.264017887086
 20
2360.58211295891
 10
4172.262495326413
 20
2360.582122455027
 10
4172.260671186278
 20
2360.582129865359
 10
4172.258544448773
 20
2360.582135317315
 10
4172.256117195011
 20
2360.582138887014
 10
4172.253393723265
 20
2360.582140636243
 10
4172.250379967225
 20
2360.582140625102
 10
4172.247083131748
 20
2360.582138916275
 10
4172.243511499052
 20
2360.582135576321
 10
4172.239674253511
 20
2360.582130675823
 10
4172.235581312143
 20
2360.582124288991
 10
4172.231243007793
 20
2360.582116487528
 10
4172.226679594137
 20
2360.582107151813
 10
4172.221879515298
 20
2360.582096261265
 10
4172.216820212165
 20
2360.582083885634
 10
4172.211515466357
 20
2360.582070172069
 10
4172.205980552006
 20
2360.582055277347
 10
4172.200232232425
 20
2360.582039366772
 10
4172.194289391165
 20
2360.582022614766
 10
4172.188173423855
 20
2360.582005204705
 10
4172.181904382069
 20
2360.581987316312
 10
4172.175502668385
 20
2360.581969128819
 10
4172.168988724364
 20
2360.581950818733
 10
4172.16238272656
 20
2360.581932557772
 10
4172.155703259148
 20
2360.581914841241
 10
4172.148889546049
 20
2360.581898128911
 10
4172.141965856825
 20
2360.58188269553
 10
4172.134950524726
 20
2360.581868793081
 10
4172.12786047139
 20
2360.581856665872
 10
4172.120714159031
 20
2360.581846554904
 10
4172.113528907909
 20
2360.581838691576
 10
4172.106321870041
 20
2360.581833298562
 10
4172.099109894777
 20
2360.581830588559
 10
4172.098279104611
 20
2360.581830608716
  0
LWPOLYLINE
  5
1441
330
1F
100
AcDbEntity
  8
SANINDUSA
100
AcDbPolyline
 90
       40
 70
   128
 43
0.0
 10
4172.09827923999
 20
2360.581830571315
 10
4172.09767051889
 20
2360.581830549872
 10
4172.090512916071
 20
2360.581833143919
 10
4172.083350845546
 20
2360.581838396512
 10
4172.076200211983
 20
2360.581846109514
 10
4172.069077474149
 20
2360.581856074048
 10
4172.061999506193
 20
2360.581868071271
 10
4172.054983441459
 20
2360.581881873471
 10
4172.048046503475
 20
2360.581897245456
 10
4172.04120702912
 20
2360.581913943132
 10
4172.034481815864
 20
2360.581931720497
 10
4172.027882791973
 20
2360.581949945226
 10
4172.021442023527
 20
2360.58196803624
 10
4172.015097255682
 20
2360.581986052969
 10
4172.008868393006
 20
2360.582003825047
 10
4172.002775433546
 20
2360.582021177619
 10
4171.99683857516
 20
2360.58203793213
 10
4171.991077920376
 20
2360.582053908424
 10
4171.985513171564
 20
2360.582068926994
 10
4171.980164967084
 20
2360.582082807157
 10
4171.975051954798
 20
2360.582095376869
 10
4171.970190417793
 20
2360.582106474808
 10
4171.965595092593
 20
2360.582115949297
 10
4171.961277131102
 20
2360.582123780932
 10
4171.957212253111
 20
2360.582130204075
 10
4171.953381124638
 20
2360.582135198484
 10
4171.949805852139
 20
2360.582138665677
 10
4171.946496520967
 20
2360.582140529199
 10
4171.943462653007
 20
2360.582140715595
 10
4171.940713000766
 20
2360.582139154926
 10
4171.938255363879
 20
2360.582135780708
 10
4171.936096379964
 20
2360.582130528669
 10
4171.934241247511
 20
2360.582123332585
 10
4171.932693151961
 20
2360.582114111082
 10
4171.931451989446
 20
2360.582102722203
 10
4171.930749159351
 20
2360.58209462685
 10
4171.930223979945
 20
2360.582092331637
 10
4171.929804793276
 20
2360.582085667838
 10
4171.929332606995
 20
2360.582056157666
 10
4171.929204141611
 20
2360.582038628681
  0
LINE
  5
1442
330
1F
100
AcDbEntity
  8
SANINDUSA
100
AcDbLine
 10
4172.062666749641
 20
2360.402865753075
 30
0.0
 11
4172.063279170285
 21
2360.395865753075
 31
0.0
  0
LINE
  5
1443
330
1F
100
AcDbEntity
  8
SANINDUSA
100
AcDbLine
 10
4172.133279170285
 20
2360.395865753075
 30
0.0
 11
4172.13389159093
 21
2360.402865753075
 31
0.0
  0
ARC
  5
1444
330
1F
100
AcDbEntity
  8
SANINDUSA
100
AcDbCircle
 10
4171.936800972245
 20
2360.445854115807
 30
0.0
 40
0.0429897476260349
100
AcDbArc
 50
254.5850668255882
 51
270.4599011291823
  0
ARC
  5
1445
330
1F
100
AcDbEntity
  8
SANINDUSA
100
AcDbCircle
 10
4171.936160404373
 20
2360.442956204382
 30
0.0
 40
0.0400261090503994
100
AcDbArc
 50
178.6304967116525
 51
254.3663934988865
  0
ARC
  5
1447
330
1F
100
AcDbEntity
  8
SANINDUSA
100
AcDbCircle
 10
4172.260397936196
 20
2360.442956204382
 30
0.0
 40
0.0400261090503992
100
AcDbArc
 50
285.6336065011135
 51
1.369503288347491
  0
ARC
  5
1448
330
1F
100
AcDbEntity
  8
SANINDUSA
100
AcDbCircle
 10
4172.259757368325
 20
2360.445854115807
 30
0.0
 40
0.0429897476260355
100
AcDbArc
 50
269.5400988708177
 51
285.4149331744118
  0
LINE
  5
1449
330
1F
100
AcDbEntity
  8
SANINDUSA
100
AcDbLine
 10
4172.259412302405
 20
2360.402865753075
 30
0.0
 11
4171.937146038167
 21
2360.402865753075
 31
0.0
  0
LINE
  5
144A
330
1F
100
AcDbEntity
  8
SANINDUSA
100
AcDbLine
 10
4172.300635903226
 20
2360.492865753075
 30
0.0
 11
4172.299299188447
 21
2360.543912831007
 31
0.0
  0
LINE
  5
144B
330
1F
100
AcDbEntity
  8
SANINDUSA
100
AcDbLine
 10
4172.300635903226
 20
2360.492865753075
 30
0.0
 11
4172.299357129879
 21
2360.492865753075
 31
0.0
  0
ARC
  5
144C
330
1F
100
AcDbEntity
  8
SANINDUSA
100
AcDbCircle
 10
4172.302984738109
 20
2360.491525006599
 30
0.0
 40
0.0038674465197305
100
AcDbArc
 50
159.7159310679218
 51
189.8146946641216
  0
LINE
  5
144D
330
1F
100
AcDbEntity
  8
SANINDUSA
100
AcDbLine
 10
4172.300412611895
 20
2360.443912831007
 30
0.0
 11
4172.299173894716
 21
2360.490865753074
 31
0.0
  0
LINE
  5
144E
330
1F
100
AcDbEntity
  8
SANINDUSA
100
AcDbLine
 10
4171.896145728676
 20
2360.443912831007
 30
0.0
 11
4171.897384445856
 21
2360.490865753074
 31
0.0
  0
ARC
  5
144F
330
1F
100
AcDbEntity
  8
SANINDUSA
100
AcDbCircle
 10
4171.893573602463
 20
2360.491525006599
 30
0.0
 40
0.0038674465197288
100
AcDbArc
 50
350.1853053358784
 51
20.28406893207812
  0
LINE
  5
1450
330
1F
100
AcDbEntity
  8
SANINDUSA
100
AcDbLine
 10
4171.895922437345
 20
2360.492865753075
 30
0.0
 11
4171.897201210692
 21
2360.492865753075
 31
0.0
  0
LINE
  5
1451
330
1F
100
AcDbEntity
  8
SANINDUSA
100
AcDbLine
 10
4171.895922437345
 20
2360.492865753075
 30
0.0
 11
4171.897259152124
 21
2360.543912831007
 31
0.0
  0
ARC
  5
1453
330
1F
100
AcDbEntity
  8
SANINDUSA
100
AcDbCircle
 10
4171.937245445122
 20
2360.542865753075
 30
0.0
 40
0.04
100
AcDbArc
 50
102.3577787001318
 51
178.5000000028451
  0
ARC
  5
1456
330
1F
100
AcDbEntity
  8
SANINDUSA
100
AcDbCircle
 10
4172.259312895448
 20
2360.542865753075
 30
0.0
 40
0.0399999999999999
100
AcDbArc
 50
1.49999999715483
 51
77.64222129986816
  0
ARC
  5
1457
330
1F
100
AcDbEntity
  8
SANINDUSA
100
AcDbCircle
 10
4172.25952709007
 20
2360.545454372251
 30
0.0
 40
0.037411993992031
100
AcDbArc
 50
77.96091319041467
 51
90.32803690579664
  0
LWPOLYLINE
  5
1458
330
1F
100
AcDbEntity
  8
SANINDUSA
100
AcDbPolyline
 90
        4
 70
   128
 43
0.0
 10
4171.937245445122
 20
2360.582865753075
 10
4171.933078077962
 20
2360.582648073909
 10
4171.930085928725
 20
2360.582219804009
 10
4171.928684822776
 20
2360.581938963143
  0
LINE
  5
1459
330
1F
100
AcDbEntity
  8
SANINDUSA
100
AcDbLine
 10
4172.133279170285
 20
2360.395865753075
 30
0.0
 11
4172.063279170285
 21
2360.395865753075
 31
0.0
  0
LINE
  5
145A
330
1F
100
AcDbEntity
  8
SANINDUSA
100
AcDbLine
 10
4172.098279170285
 20
2360.582865753075
 30
0.0
 11
4172.259312895448
 21
2360.582865753075
 31
0.0
  0
LINE
  5
145B
330
1F
100
AcDbEntity
  8
SANINDUSA
100
AcDbLine
 10
4172.098279170285
 20
2360.582865753075
 30
0.0
 11
4171.937245445122
 21
2360.582865753075
 31
0.0
  0
ARC
  5
145F
330
1F
100
AcDbEntity
  8
SANINDUSA
100
AcDbCircle
 10
4173.180164254409
 20
2360.576714616601
 30
0.0
 40
0.0051355954523567
100
AcDbArc
 50
3.043631266453941
 51
91.93322252553555
  0
LINE
  5
1460
330
1F
100
AcDbEntity
  8
SANINDUSA
100
AcDbLine
 10
4173.340062132253
 20
2360.581847288991
 30
0.0
 11
4173.179991006654
 21
2360.581847288991
 31
0.0
  0
ARC
  5
1461
330
1F
100
AcDbEntity
  8
SANINDUSA
100
AcDbCircle
 10
4173.500011237193
 20
2360.576658734703
 30
0.0
 40
0.0051899888870884
100
AcDbArc
 50
88.65280771378627
 51
176.3703384979644
  0
LINE
  5
1463
330
1F
100
AcDbEntity
  8
SANINDUSA
100
AcDbLine
 10
4173.340062132253
 20
2360.581847288991
 30
0.0
 11
4173.500133257853
 21
2360.581847288991
 31
0.0
  0
LWPOLYLINE
  5
1464
330
1F
100
AcDbEntity
  8
SANINDUSA
100
AcDbPolyline
 90
        6
 70
   128
 43
0.0
 10
4173.502524613568
 20
2360.52370944632
 10
4173.505579418304
 20
2360.523287227027
 10
4173.508321398746
 20
2360.521893871308
 10
4173.510661947609
 20
2360.519589708662
 10
4173.512378683095
 20
2360.516352776924
 10
4173.513008660221
 20
2360.513268883638
  0
LWPOLYLINE
  5
1466
330
1F
100
AcDbEntity
  8
SANINDUSA
100
AcDbPolyline
 90
        9
 70
   128
 43
0.0
 10
4173.167115604285
 20
2360.513268883638
 10
4173.168064034243
 20
2360.517174744438
 10
4173.169000425924
 20
2360.518928686336
 10
4173.170264036238
 20
2360.520541785743
 10
4173.171703179258
 20
2360.521821137027
 10
4173.173415170988
 20
2360.522843530433
 10
4173.175042061244
 20
2360.523431031158
 10
4173.176815987572
 20
2360.523704503662
 10
4173.177599650938
 20
2360.52370944632
  0
LINE
  5
1468
330
1F
100
AcDbEntity
  8
SANINDUSA
100
AcDbLine
 10
4173.496467509952
 20
2360.523474899749
 30
0.0
 11
4173.502524613568
 21
2360.52370944632
 31
0.0
  0
LINE
  5
1469
330
1F
100
AcDbEntity
  8
SANINDUSA
100
AcDbLine
 10
4173.177599650938
 20
2360.52370944632
 30
0.0
 11
4173.1836567212
 21
2360.523474901041
 31
0.0
  0
LINE
  5
146A
330
1F
100
AcDbEntity
  8
SANINDUSA
100
AcDbLine
 10
4173.316562132253
 20
2360.430981204768
 30
0.0
 11
4173.363562132254
 21
2360.430981204768
 31
0.0
  0
LINE
  5
146B
330
1F
100
AcDbEntity
  8
SANINDUSA
100
AcDbLine
 10
4173.316562132253
 20
2360.430981204768
 30
0.0
 11
4173.304056453342
 21
2360.441852225594
 31
0.0
  0
LWPOLYLINE
  5
146C
330
1F
100
AcDbEntity
  8
SANINDUSA
100
AcDbPolyline
 90
       11
 70
   128
 43
0.0
 10
4173.340062132253
 20
2360.441860857754
 10
4173.334930854479
 20
2360.441861011898
 10
4173.329799576705
 20
2360.441861153285
 10
4173.32422766845
 20
2360.441860771809
 10
4173.31895152214
 20
2360.441859533384
 10
4173.314418512087
 20
2360.441857747455
 10
4173.310492566561
 20
2360.44185581528
 10
4173.307500872373
 20
2360.44185422773
 10
4173.305360116809
 20
2360.441853059771
 10
4173.304389802683
 20
2360.441852491555
 10
4173.304056453342
 20
2360.441852225594
  0
LWPOLYLINE
  5
146D
330
1F
100
AcDbEntity
  8
SANINDUSA
100
AcDbPolyline
 90
       11
 70
   128
 43
0.0
 10
4173.340062132253
 20
2360.441860857754
 10
4173.345193410027
 20
2360.441861011898
 10
4173.350324687802
 20
2360.441861153285
 10
4173.355896596057
 20
2360.441860771809
 10
4173.361172742367
 20
2360.441859533384
 10
4173.36570575242
 20
2360.441857747455
 10
4173.369631697947
 20
2360.44185581528
 10
4173.372623392134
 20
2360.44185422773
 10
4173.374764147698
 20
2360.441853059771
 10
4173.375734461824
 20
2360.441852491555
 10
4173.376067811165
 20
2360.441852225594
  0
LINE
  5
146E
330
1F
100
AcDbEntity
  8
SANINDUSA
100
AcDbLine
 10
4173.376067811165
 20
2360.441852225594
 30
0.0
 11
4173.363562132254
 21
2360.430981204768
 31
0.0
  0
LINE
  5
146F
330
1F
100
AcDbEntity
  8
SANINDUSA
100
AcDbLine
 10
4173.139042114091
 20
2360.542894366924
 30
0.0
 11
4173.137705399312
 21
2360.491847288991
 31
0.0
  0
ARC
  5
1470
330
1F
100
AcDbEntity
  8
SANINDUSA
100
AcDbCircle
 10
4173.17902840709
 20
2360.541847288991
 30
0.0
 40
0.04
100
AcDbArc
 50
90.0
 51
178.5000000028451
  0
LWPOLYLINE
  5
1471
330
1F
100
AcDbEntity
  8
SANINDUSA
100
AcDbPolyline
 90
       18
 70
   128
 43
0.0
 10
4173.304056453342
 20
2360.441852225594
 10
4173.292822918321
 20
2360.442588846027
 10
4173.281701185448
 20
2360.444542867458
 10
4173.270881437824
 20
2360.447661165368
 10
4173.260081547485
 20
2360.452087217968
 10
4173.249776803595
 20
2360.457641206584
 10
4173.24011251976
 20
2360.464195163779
 10
4173.230488803431
 20
2360.472275081077
 10
4173.2216963641
 20
2360.481299810138
 10
4173.213820161818
 20
2360.491099503328
 10
4173.20782983254
 20
2360.500025118748
 10
4173.202519315083
 20
2360.50940579534
 10
4173.19790923448
 20
2360.519153188129
 10
4173.194020215762
 20
2360.529178952135
 10
4173.190481304029
 20
2360.540827548516
 10
4173.187843397656
 20
2360.552749307982
 10
4173.186111997781
 20
2360.564837976056
 10
4173.185292605544
 20
2360.576987298266
  0
LINE
  5
1472
330
1F
100
AcDbEntity
  8
SANINDUSA
100
AcDbLine
 10
4173.316562132253
 20
2360.394847288991
 30
0.0
 11
4173.316562132253
 21
2360.430981204768
 31
0.0
  0
LINE
  5
1473
330
1F
100
AcDbEntity
  8
SANINDUSA
100
AcDbLine
 10
4173.316562132253
 20
2360.394847288991
 30
0.0
 11
4173.305062132254
 21
2360.394847288991
 31
0.0
  0
LINE
  5
1474
330
1F
100
AcDbEntity
  8
SANINDUSA
100
AcDbLine
 10
4173.305062132254
 20
2360.394847288991
 30
0.0
 11
4173.302568163579
 21
2360.42335348138
 31
0.0
  0
ARC
  5
1475
330
1F
100
AcDbEntity
  8
SANINDUSA
100
AcDbCircle
 10
4173.292602884377
 20
2360.422478662789
 30
0.0
 40
0.0100036042076099
100
AcDbArc
 50
5.016943891262644
 51
84.15397838690809
  0
LWPOLYLINE
  5
1476
330
1F
100
AcDbEntity
  8
SANINDUSA
100
AcDbPolyline
 90
       19
 70
   128
 43
0.0
 10
4173.176316958326
 20
2360.501498506622
 10
4173.177023513854
 20
2360.511602721422
 42
-0.4056101524107358
 10
4173.17806141716
 20
2360.512532150989
 10
4173.183470071175
 20
2360.512313792183
 10
4173.189264435528
 20
2360.512079885294
 42
-0.2704445479002977
 10
4173.190113874774
 20
2360.511537099711
 10
4173.196105579817
 20
2360.499855990081
 10
4173.203410741451
 20
2360.488260353916
 10
4173.209634886037
 20
2360.479949727926
 10
4173.216453996711
 20
2360.472082954954
 10
4173.223828767166
 20
2360.464739466271
 10
4173.231719891097
 20
2360.457998693149
 10
4173.239512645039
 20
2360.45231900023
 10
4173.24773734969
 20
2360.447229890232
 10
4173.256327849153
 20
2360.44279244721
 10
4173.26521798753
 20
2360.439067755219
 10
4173.274483603266
 20
2360.43606233397
 10
4173.283984436065
 20
2360.433837938859
 10
4173.293621805298
 20
2360.432430240418
  0
ARC
  5
1477
330
1F
100
AcDbEntity
  8
SANINDUSA
100
AcDbCircle
 10
4173.171329138074
 20
2360.501847288991
 30
0.0
 40
0.005
100
AcDbArc
 50
270.0
 51
356.0000000007515
  0
LINE
  5
1478
330
1F
100
AcDbEntity
  8
SANINDUSA
100
AcDbLine
 10
4173.171329138074
 20
2360.496847288991
 30
0.0
 11
4173.152708447033
 21
2360.496847288991
 31
0.0
  0
ARC
  5
1479
330
1F
100
AcDbEntity
  8
SANINDUSA
100
AcDbCircle
 10
4173.152708447033
 20
2360.491847288991
 30
0.0
 40
0.005
100
AcDbArc
 50
90.0
 51
177.9999999962464
  0
LINE
  5
147A
330
1F
100
AcDbEntity
  8
SANINDUSA
100
AcDbLine
 10
4173.147705399312
 20
2360.491847288991
 30
0.0
 11
4173.147711492898
 21
2360.492021786475
 31
0.0
  0
LINE
  5
147B
330
1F
100
AcDbEntity
  8
SANINDUSA
100
AcDbLine
 10
4173.147705399312
 20
2360.491847288991
 30
0.0
 11
4173.137705399312
 21
2360.491847288991
 31
0.0
  0
ARC
  5
147C
330
1F
100
AcDbEntity
  8
SANINDUSA
100
AcDbCircle
 10
4173.152708447033
 20
2360.491847288991
 30
0.0
 40
0.0150000000000001
100
AcDbArc
 50
90.0
 51
102.9697698781847
  0
ARC
  5
147D
330
1F
100
AcDbEntity
  8
SANINDUSA
100
AcDbCircle
 10
4173.149117456149
 20
2360.50743910686
 30
0.0
 40
0.001
100
AcDbArc
 50
178.5000000028451
 51
282.9697698781847
  0
LINE
  5
147E
330
1F
100
AcDbEntity
  8
SANINDUSA
100
AcDbLine
 10
4173.165734047558
 20
2360.506847288991
 30
0.0
 11
4173.152708447033
 21
2360.506847288991
 31
0.0
  0
ARC
  5
147F
330
1F
100
AcDbEntity
  8
SANINDUSA
100
AcDbCircle
 10
4173.345169279727
 20
2360.58239828224
 30
0.0
 40
0.170548867413979
100
AcDbArc
 50
184.0055919863001
 51
199.7339962848443
  0
ARC
  5
1480
330
1F
100
AcDbEntity
  8
SANINDUSA
100
AcDbCircle
 10
4173.183695414763
 20
2360.524474152164
 30
0.0
 40
0.001
100
AcDbArc
 50
267.7824685365272
 51
19.7339962848443
  0
ARC
  5
1481
330
1F
100
AcDbEntity
  8
SANINDUSA
100
AcDbCircle
 10
4173.17902840709
 20
2360.541847288991
 30
0.0
 40
0.03
100
AcDbArc
 50
99.90601222212813
 51
178.5000000028451
  0
ARC
  5
1482
330
1F
100
AcDbEntity
  8
SANINDUSA
100
AcDbCircle
 10
4173.174039465473
 20
2360.570414936104
 30
0.0
 40
0.001
100
AcDbArc
 50
4.005591986300109
 51
99.90601222212813
  0
LINE
  5
1483
330
1F
100
AcDbEntity
  8
SANINDUSA
100
AcDbLine
 10
4173.14903868734
 20
2360.54263259744
 30
0.0
 11
4173.148117798823
 21
2360.507465283808
 31
0.0
  0
LINE
  5
1484
330
1F
100
AcDbEntity
  8
SANINDUSA
100
AcDbLine
 10
4173.166731611607
 20
2360.507777532517
 30
0.0
 11
4173.167115604285
 21
2360.513268883638
 31
0.0
  0
ARC
  5
1485
330
1F
100
AcDbEntity
  8
SANINDUSA
100
AcDbCircle
 10
4173.165734047558
 20
2360.507847288991
 30
0.0
 40
0.001
100
AcDbArc
 50
270.0
 51
356.0000000007515
  0
LINE
  5
1486
330
1F
100
AcDbEntity
  8
SANINDUSA
100
AcDbLine
 10
4173.179991006654
 20
2360.581847288991
 30
0.0
 11
4173.17902840709
 21
2360.581847288991
 31
0.0
  0
LINE
  5
1488
330
1F
100
AcDbEntity
  8
SANINDUSA
100
AcDbLine
 10
4173.527415817473
 20
2360.496847288991
 30
0.0
 11
4173.508795126433
 21
2360.496847288991
 31
0.0
  0
ARC
  5
1489
330
1F
100
AcDbEntity
  8
SANINDUSA
100
AcDbCircle
 10
4173.508795126433
 20
2360.501847288991
 30
0.0
 40
0.0050000000000001
100
AcDbArc
 50
183.9999999992485
 51
270.0
  0
LWPOLYLINE
  5
148A
330
1F
100
AcDbEntity
  8
SANINDUSA
100
AcDbPolyline
 90
       20
 70
   128
 43
0.0
 10
4173.503807306181
 20
2360.501498506622
 10
4173.503100750744
 20
2360.511602720111
 42
0.4056105461214902
 10
4173.502062846088
 20
2360.512532149624
 10
4173.499881879531
 20
2360.512444096436
 10
4173.496654193331
 20
2360.512313792183
 10
4173.490859234289
 20
2360.512079869436
 42
0.2702020470669618
 10
4173.490010207208
 20
2360.511537889168
 10
4173.483878401517
 20
2360.499610250789
 10
4173.476389648523
 20
2360.487796369757
 10
4173.470585839693
 20
2360.480065132747
 10
4173.46427607321
 20
2360.472727471258
 10
4173.457487999372
 20
2360.46584652729
 10
4173.449591664779
 20
2360.458946005493
 10
4173.441174405549
 20
2360.452692678836
 10
4173.432016326432
 20
2360.447008727563
 10
4173.42239874633
 20
2360.442144380067
 10
4173.413858609907
 20
2360.438685126558
 10
4173.405074963373
 20
2360.435902608795
 10
4173.395860316209
 20
2360.433782676179
 10
4173.386502459208
 20
2360.432430240418
  0
ARC
  5
148B
330
1F
100
AcDbEntity
  8
SANINDUSA
100
AcDbCircle
 10
4173.387521374174
 20
2360.422478668659
 30
0.0
 40
0.0100035977611695
100
AcDbArc
 50
95.84599112687255
 51
174.9830866309633
  0
LINE
  5
148C
330
1F
100
AcDbEntity
  8
SANINDUSA
100
AcDbLine
 10
4173.377556100928
 20
2360.42335348138
 30
0.0
 11
4173.375062132254
 21
2360.394847288991
 31
0.0
  0
LINE
  5
148D
330
1F
100
AcDbEntity
  8
SANINDUSA
100
AcDbLine
 10
4173.375062132254
 20
2360.394847288991
 30
0.0
 11
4173.363562132254
 21
2360.394847288991
 31
0.0
  0
LINE
  5
148E
330
1F
100
AcDbEntity
  8
SANINDUSA
100
AcDbLine
 10
4173.363562132254
 20
2360.430981204768
 30
0.0
 11
4173.363562132254
 21
2360.394847288991
 31
0.0
  0
LWPOLYLINE
  5
148F
330
1F
100
AcDbEntity
  8
SANINDUSA
100
AcDbPolyline
 90
       19
 70
   128
 43
0.0
 10
4173.494831658963
 20
2360.576987298266
 10
4173.493926000245
 20
2360.564043036561
 10
4173.491983919337
 20
2360.551170100315
 10
4173.489012307913
 20
2360.53849790845
 10
4173.485018057651
 20
2360.52615587989
 10
4173.480891171819
 20
2360.516167844089
 10
4173.476025160073
 20
2360.506464515141
 10
4173.470447334124
 20
2360.497138982818
 10
4173.464185005682
 20
2360.488284336886
 10
4173.457265486455
 20
2360.479993667115
 10
4173.45023984806
 20
2360.472840768562
 10
4173.442640565757
 20
2360.466248622752
 10
4173.43452929626
 20
2360.460305743643
 10
4173.425967696283
 20
2360.4551006452
 10
4173.416918507097
 20
2360.450671655907
 10
4173.407458440256
 20
2360.447078699536
 10
4173.397708575381
 20
2360.444381527305
 10
4173.387789992101
 20
2360.44263989043
 10
4173.376067811165
 20
2360.441852225594
  0
ARC
  5
1490
330
1F
100
AcDbEntity
  8
SANINDUSA
100
AcDbCircle
 10
4173.501095857417
 20
2360.541847288991
 30
0.0
 40
0.0400000000000001
100
AcDbArc
 50
1.49999999715483
 51
90.0
  0
LINE
  5
1491
330
1F
100
AcDbEntity
  8
SANINDUSA
100
AcDbLine
 10
4173.542418865195
 20
2360.491847288991
 30
0.0
 11
4173.541082150415
 21
2360.542894366924
 31
0.0
  0
LINE
  5
1492
330
1F
100
AcDbEntity
  8
SANINDUSA
100
AcDbLine
 10
4173.542418865195
 20
2360.491847288991
 30
0.0
 11
4173.532418865195
 21
2360.491847288991
 31
0.0
  0
LINE
  5
1493
330
1F
100
AcDbEntity
  8
SANINDUSA
100
AcDbLine
 10
4173.532412771608
 20
2360.492021786475
 30
0.0
 11
4173.532418865195
 21
2360.491847288991
 31
0.0
  0
ARC
  5
1494
330
1F
100
AcDbEntity
  8
SANINDUSA
100
AcDbCircle
 10
4173.527415817473
 20
2360.491847288991
 30
0.0
 40
0.005
100
AcDbArc
 50
2.000000003753602
 51
90.0
  0
LINE
  5
1495
330
1F
100
AcDbEntity
  8
SANINDUSA
100
AcDbLine
 10
4173.532006465682
 20
2360.507465283808
 30
0.0
 11
4173.531085577166
 21
2360.54263259744
 31
0.0
  0
ARC
  5
1496
330
1F
100
AcDbEntity
  8
SANINDUSA
100
AcDbCircle
 10
4173.501095857417
 20
2360.541847288991
 30
0.0
 40
0.03
100
AcDbArc
 50
1.49999999715483
 51
80.09403326921681
  0
ARC
  5
1497
330
1F
100
AcDbEntity
  8
SANINDUSA
100
AcDbCircle
 10
4173.506084776359
 20
2360.570414940063
 30
0.0
 40
0.001
100
AcDbArc
 50
80.09403326921681
 51
175.9932373876113
  0
ARC
  5
1498
330
1F
100
AcDbEntity
  8
SANINDUSA
100
AcDbCircle
 10
4173.334930110256
 20
2360.582403540548
 30
0.0
 40
0.1705740256287816
100
AcDbArc
 50
340.2671514710742
 51
355.9932373876113
  0
ARC
  5
1499
330
1F
100
AcDbEntity
  8
SANINDUSA
100
AcDbCircle
 10
4173.496428816389
 20
2360.524474150873
 30
0.0
 40
0.001
100
AcDbArc
 50
160.2671514710742
 51
272.2175314634728
  0
LINE
  5
149A
330
1F
100
AcDbEntity
  8
SANINDUSA
100
AcDbLine
 10
4173.527415817473
 20
2360.506847288991
 30
0.0
 11
4173.51439021695
 21
2360.506847288991
 31
0.0
  0
ARC
  5
149B
330
1F
100
AcDbEntity
  8
SANINDUSA
100
AcDbCircle
 10
4173.51439021695
 20
2360.507847288991
 30
0.0
 40
0.001
100
AcDbArc
 50
183.9999999992485
 51
270.0
  0
ARC
  5
149C
330
1F
100
AcDbEntity
  8
SANINDUSA
100
AcDbCircle
 10
4173.527415817473
 20
2360.491847288991
 30
0.0
 40
0.015
100
AcDbArc
 50
77.03023012181529
 51
90.0
  0
ARC
  5
149D
330
1F
100
AcDbEntity
  8
SANINDUSA
100
AcDbCircle
 10
4173.531006808357
 20
2360.50743910686
 30
0.0
 40
0.001
100
AcDbArc
 50
257.0302301218153
 51
1.49999999715483
  0
LINE
  5
149E
330
1F
100
AcDbEntity
  8
SANINDUSA
100
AcDbLine
 10
4173.513008660221
 20
2360.513268883638
 30
0.0
 11
4173.513392652899
 21
2360.507777532517
 31
0.0
  0
LINE
  5
14A3
330
1F
100
AcDbEntity
  8
SANINDUSA
100
AcDbLine
 10
4173.316562132253
 20
2360.394847288991
 30
0.0
 11
4173.363562132254
 21
2360.394847288991
 31
0.0
  0
LINE
  5
14BC
330
1F
100
AcDbEntity
  8
SANINDUSA
100
AcDbLine
 10
4173.147705399312
 20
2360.491847288991
 30
0.0
 11
4173.201126973384
 21
2360.491847288991
 31
0.0
  0
LINE
  5
14BD
330
1F
100
AcDbEntity
  8
SANINDUSA
100
AcDbLine
 10
4173.479012756618
 20
2360.491847288991
 30
0.0
 11
4173.532418865195
 21
2360.491847288991
 31
0.0
  0
ARC
  5
14C0
330
1F
100
AcDbEntity
  8
SANINDUSA
100
AcDbCircle
 10
4173.339947030708
 20
2360.54298074348
 30
0.0
 40
0.0133493950535831
100
AcDbArc
 50
89.50597654917443
 51
270.4940234508256
  0
ARC
  5
14C1
330
1F
100
AcDbEntity
  8
SANINDUSA
100
AcDbCircle
 10
4173.340177233798
 20
2360.54298074348
 30
0.0
 40
0.0133493950535831
100
AcDbArc
 50
269.5059765491744
 51
90.49402345082558
  0
LINE
  5
1836
330
1F
100
AcDbEntity
  8
SANINDUSA
100
AcDbLine
 10
4172.67360618047
 20
2360.428064584274
 30
0.0
 11
4172.744310065474
 21
2360.428452556002
 31
0.0
  0
ENDSEC
  0
SECTION
  2
OBJECTS
  0
DICTIONARY
  5
C
330
0
100
AcDbDictionary
281
     1
  3
ACAD_2007HEADERVARS_RT
350
19D7
  3
ACAD_COLOR
350
EE6
  3
ACAD_GROUP
350
D
  3
ACAD_LAYOUT
350
1A
  3
ACAD_MATERIAL
350
EE5
  3
ACAD_MLEADERSTYLE
350
10A8
  3
ACAD_MLINESTYLE
350
17
  3
ACAD_PLOTSETTINGS
350
19
  3
ACAD_PLOTSTYLENAME
350
E
  3
ACAD_SCALELIST
350
1096
  3
ACAD_TABLESTYLE
350
EE7
  3
ACAD_VISUALSTYLE
350
1082
  3
ACDB_RECOMPOSE_DATA
350
19D5
  3
AcDbVariableDictionary
350
3D
  3
AEC_PROPERTY_SET_DEFS
350
13A2
  3
ASE_INDEX_DICTIONARY
350
1066
  3
Autodesk_PNP
350
10B2
  3
DWGPROPS
350
19D6
  0
DICTIONARY
  5
1051
330
2
100
AcDbDictionary
280
     1
281
     1
  3
ACAD_LAYERFILTERS
360
1065
  3
ACLYDICTIONARY
360
1064
  0
DICTIONARY
  5
1962
330
10
100
AcDbDictionary
280
     1
281
     1
  3
ADSK_XREC_LAYER_RECONCILED
360
1963
  0
DICTIONARY
  5
1964
330
2F
100
AcDbDictionary
280
     1
281
     1
  3
ADSK_XREC_LAYER_RECONCILED
360
1965
  0
DICTIONARY
  5
1966
330
30
100
AcDbDictionary
280
     1
281
     1
  3
ADSK_XREC_LAYER_RECONCILED
360
1967
  0
DICTIONARY
  5
1968
330
31
100
AcDbDictionary
280
     1
281
     1
  3
ADSK_XREC_LAYER_RECONCILED
360
1969
  0
DICTIONARY
  5
196A
330
32
100
AcDbDictionary
280
     1
281
     1
  3
ADSK_XREC_LAYER_RECONCILED
360
196B
  0
DICTIONARY
  5
196C
330
33
100
AcDbDictionary
280
     1
281
     1
  3
ADSK_XREC_LAYER_RECONCILED
360
196D
  0
DICTIONARY
  5
196E
330
34
100
AcDbDictionary
280
     1
281
     1
  3
ADSK_XREC_LAYER_RECONCILED
360
196F
  0
DICTIONARY
  5
1970
330
35
100
AcDbDictionary
280
     1
281
     1
  3
ADSK_XREC_LAYER_RECONCILED
360
1971
  0
DICTIONARY
  5
1972
330
36
100
AcDbDictionary
280
     1
281
     1
  3
ADSK_XREC_LAYER_RECONCILED
360
1973
  0
DICTIONARY
  5
1974
330
37
100
AcDbDictionary
280
     1
281
     1
  3
ADSK_XREC_LAYER_RECONCILED
360
1975
  0
DICTIONARY
  5
1976
330
5D6
100
AcDbDictionary
280
     1
281
     1
  3
ADSK_XREC_LAYER_RECONCILED
360
1977
  0
DICTIONARY
  5
1978
330
8AF
100
AcDbDictionary
280
     1
281
     1
  3
ADSK_XREC_LAYER_RECONCILED
360
1979
  0
DICTIONARY
  5
197A
330
8F8
100
AcDbDictionary
280
     1
281
     1
  3
ADSK_XREC_LAYER_RECONCILED
360
197B
  0
DICTIONARY
  5
197C
330
91D
100
AcDbDictionary
280
     1
281
     1
  3
ADSK_XREC_LAYER_RECONCILED
360
197D
  0
DICTIONARY
  5
197E
330
C7B
100
AcDbDictionary
280
     1
281
     1
  3
ADSK_XREC_LAYER_RECONCILED
360
197F
  0
DICTIONARY
  5
1980
330
1060
100
AcDbDictionary
280
     1
281
     1
  3
ADSK_XREC_LAYER_RECONCILED
360
1981
  0
DICTIONARY
  5
1A0A
330
119A
100
AcDbDictionary
280
     1
281
     1
  3
ACAD_MTEXT_RT
360
1A0B
  0
DICTIONARY
  5
1A0C
330
11A8
100
AcDbDictionary
280
     1
281
     1
  3
ACAD_MTEXT_RT
360
1A0D
  0
DICTIONARY
  5
1A0E
330
1207
100
AcDbDictionary
280
     1
281
     1
  3
ACAD_MTEXT_RT
360
1A0F
  0
DICTIONARY
  5
1A10
330
1214
100
AcDbDictionary
280
     1
281
     1
  3
ACAD_MTEXT_RT
360
1A11
  0
DICTIONARY
  5
1A12
330
1221
100
AcDbDictionary
280
     1
281
     1
  3
ACAD_MTEXT_RT
360
1A13
  0
DICTIONARY
  5
1A14
330
122D
100
AcDbDictionary
280
     1
281
     1
  3
ACAD_MTEXT_RT
360
1A15
  0
DICTIONARY
  5
1A16
330
193B
100
AcDbDictionary
280
     1
281
     1
  3
ACAD_MTEXT_RT
360
1A17
  0
DICTIONARY
  5
19D7
102
{ACAD_REACTORS
330
C
102
}
330
C
100
AcDbDictionary
281
     1
  3
DIMJOGANG
350
19D8
  0
DICTIONARY
  5
EE6
102
{ACAD_REACTORS
330
C
102
}
330
C
100
AcDbDictionary
281
     1
  0
DICTIONARY
  5
D
102
{ACAD_REACTORS
330
C
102
}
330
C
100
AcDbDictionary
281
     1
  0
DICTIONARY
  5
1A
102
{ACAD_REACTORS
330
C
102
}
330
C
100
AcDbDictionary
281
     1
  3
Layout1
350
1E
  3
Layout2
350
26
  3
Model
350
22
  0
DICTIONARY
  5
EE5
102
{ACAD_REACTORS
330
C
102
}
330
C
100
AcDbDictionary
281
     1
  3
ByBlock
350
1072
  3
ByLayer
350
106A
  3
Global
350
107A
  0
DICTIONARY
  5
10A8
102
{ACAD_REACTORS
330
C
102
}
330
C
100
AcDbDictionary
281
     1
  3
Standard
350
10A9
  0
DICTIONARY
  5
17
102
{ACAD_REACTORS
330
C
102
}
330
C
100
AcDbDictionary
281
     1
  3
Standard
350
18
  0
DICTIONARY
  5
19
102
{ACAD_REACTORS
330
C
102
}
330
C
100
AcDbDictionary
281
     1
  0
ACDBDICTIONARYWDFLT
  5
E
102
{ACAD_REACTORS
330
C
102
}
330
C
100
AcDbDictionary
281
     1
  3
Normal
350
F
100
AcDbDictionaryWithDefault
340
F
  0
DICTIONARY
  5
1096
102
{ACAD_REACTORS
330
C
102
}
330
C
100
AcDbDictionary
281
     1
  3
A0
350
1097
  3
A1
350
1098
  3
A2
350
1099
  3
A3
350
109A
  3
A4
350
109B
  3
A5
350
109C
  3
A6
350
109D
  3
A7
350
109E
  3
A8
350
109F
  3
A9
350
10A0
  3
B0
350
10A1
  3
B1
350
10A2
  3
B2
350
10A3
  3
B3
350
10A4
  3
B4
350
10A5
  3
B5
350
10A6
  3
B6
350
10A7
  0
DICTIONARY
  5
EE7
102
{ACAD_REACTORS
330
C
102
}
330
C
100
AcDbDictionary
281
     1
  3
Standard
350
EE8
  0
DICTIONARY
  5
1082
102
{ACAD_REACTORS
330
C
102
}
330
C
100
AcDbDictionary
281
     1
  3
2dWireframe
350
1088
  3
3D Hidden
350
108A
  3
3dWireframe
350
1089
  3
Basic
350
1087
  3
Brighten
350
108E
  3
ColorChange
350
1092
  3
Conceptual
350
108B
  3
Dim
350
108D
  3
EdgeColorOff
350
1095
  3
Facepattern
350
1091
  3
Flat
350
1083
  3
FlatWithEdges
350
1084
  3
Gouraud
350
1085
  3
GouraudWithEdges
350
1086
  3
JitterOff
350
1093
  3
Linepattern
350
1090
  3
OverhangOff
350
1094
  3
Realistic
350
108C
  3
Thicken
350
108F
  0
XRECORD
  5
19D5
102
{ACAD_REACTORS
330
C
102
}
330
C
100
AcDbXrecord
280
     1
 90
        1
330
EE8
  0
DICTIONARY
  5
3D
102
{ACAD_REACTORS
330
C
102
}
330
C
100
AcDbDictionary
281
     1
  3
CANNOSCALE
350
19CF
  3
CMLEADERSTYLE
350
19CE
  3
CTABLESTYLE
350
1049
  3
DIMASSOC
350
3F
  3
HIDETEXT
350
3E
  3
INDEXCTL
350
19D1
  3
SORTENTS
350
19D0
  3
XCLIPFRAME
350
19D2
  0
DICTIONARY
  5
13A2
102
{ACAD_REACTORS
330
C
102
}
330
C
100
AcDbDictionary
281
     1
  0
DICTIONARY
  5
1066
102
{ACAD_REACTORS
330
C
102
}
330
C
100
AcDbDictionary
281
     1
  3
ASEBlockHierarchyIndexRecord
350
1067
1001
DCO15
1040
1602247867.484
  0
DICTIONARY
  5
10B2
102
{ACAD_REACTORS
330
C
102
}
330
C
100
AcDbDictionary
281
     1
  0
XRECORD
  5
19D6
102
{ACAD_REACTORS
330
C
102
}
330
C
100
AcDbXrecord
280
     1
  1
DWGPROPS COOKIE
  2

  3

  4

  6

  7

  8
Julio
  9

300
=
301
=
302
=
303
=
304
=
305
=
306
=
307
=
308
=
309
=
 40
0.003197337962963
 41
2455296.515377778
 42
2455296.518574757
  1

 90
        0
  0
DICTIONARY
  5
1065
102
{ACAD_REACTORS
330
1051
102
}
330
1051
100
AcDbDictionary
281
     1
  0
DICTIONARY
  5
1064
102
{ACAD_REACTORS
330
1051
102
}
330
1051
100
AcDbDictionary
281
     1
1001
ACAD
1000
<All
  0
XRECORD
  5
1963
102
{ACAD_REACTORS
330
1962
102
}
330
1962
100
AcDbXrecord
280
     1
290
     1
  0
XRECORD
  5
1965
102
{ACAD_REACTORS
330
1964
102
}
330
1964
100
AcDbXrecord
280
     1
290
     1
  0
XRECORD
  5
1967
102
{ACAD_REACTORS
330
1966
102
}
330
1966
100
AcDbXrecord
280
     1
290
     1
  0
XRECORD
  5
1969
102
{ACAD_REACTORS
330
1968
102
}
330
1968
100
AcDbXrecord
280
     1
290
     1
  0
XRECORD
  5
196B
102
{ACAD_REACTORS
330
196A
102
}
330
196A
100
AcDbXrecord
280
     1
290
     1
  0
XRECORD
  5
196D
102
{ACAD_REACTORS
330
196C
102
}
330
196C
100
AcDbXrecord
280
     1
290
     1
  0
XRECORD
  5
196F
102
{ACAD_REACTORS
330
196E
102
}
330
196E
100
AcDbXrecord
280
     1
290
     1
  0
XRECORD
  5
1971
102
{ACAD_REACTORS
330
1970
102
}
330
1970
100
AcDbXrecord
280
     1
290
     1
  0
XRECORD
  5
1973
102
{ACAD_REACTORS
330
1972
102
}
330
1972
100
AcDbXrecord
280
     1
290
     1
  0
XRECORD
  5
1975
102
{ACAD_REACTORS
330
1974
102
}
330
1974
100
AcDbXrecord
280
     1
290
     1
  0
XRECORD
  5
1977
102
{ACAD_REACTORS
330
1976
102
}
330
1976
100
AcDbXrecord
280
     1
290
     1
  0
XRECORD
  5
1979
102
{ACAD_REACTORS
330
1978
102
}
330
1978
100
AcDbXrecord
280
     1
290
     1
  0
XRECORD
  5
197B
102
{ACAD_REACTORS
330
197A
102
}
330
197A
100
AcDbXrecord
280
     1
290
     1
  0
XRECORD
  5
197D
102
{ACAD_REACTORS
330
197C
102
}
330
197C
100
AcDbXrecord
280
     1
290
     1
  0
XRECORD
  5
197F
102
{ACAD_REACTORS
330
197E
102
}
330
197E
100
AcDbXrecord
280
     1
290
     1
  0
XRECORD
  5
1981
102
{ACAD_REACTORS
330
1980
102
}
330
1980
100
AcDbXrecord
280
     1
290
     1
  0
XRECORD
  5
1A0B
102
{ACAD_REACTORS
330
1A0A
102
}
330
1A0A
100
AcDbXrecord
280
     1
 40
3768.0
  1
98,0°
  0
XRECORD
  5
1A0D
102
{ACAD_REACTORS
330
1A0C
102
}
330
1A0C
100
AcDbXrecord
280
     1
 40
2546.0
  1
ø47
  0
XRECORD
  5
1A0F
102
{ACAD_REACTORS
330
1A0E
102
}
330
1A0E
100
AcDbXrecord
280
     1
 40
3787.0
  1
88,5°
  0
XRECORD
  5
1A11
102
{ACAD_REACTORS
330
1A10
102
}
330
1A10
100
AcDbXrecord
280
     1
 40
3787.0
  1
88,5°
  0
XRECORD
  5
1A13
102
{ACAD_REACTORS
330
1A12
102
}
330
1A12
100
AcDbXrecord
280
     1
 40
3774.0
  1
91,5°
  0
XRECORD
  5
1A15
102
{ACAD_REACTORS
330
1A14
102
}
330
1A14
100
AcDbXrecord
280
     1
 40
3774.0
  1
91,5°
  0
XRECORD
  5
1A17
102
{ACAD_REACTORS
330
1A16
102
}
330
1A16
100
AcDbXrecord
280
     1
 40
2546.0
  1
ø47
  0
XRECORD
  5
19D8
102
{ACAD_REACTORS
330
19D7
102
}
330
19D7
100
AcDbXrecord
280
     1
 40
1.570796326794896
  0
LAYOUT
  5
1E
102
{ACAD_XDICTIONARY
360
19D9
102
}
102
{ACAD_REACTORS
330
1A
102
}
330
1A
100
AcDbPlotSettings
  1

  2
Ploter HP500
  4

  6

 40
0.0
 41
0.0
 42
0.0
 43
0.0
 44
0.0
 45
0.0
 46
0.0
 47
0.0
 48
0.0
 49
0.0
140
0.0
141
0.0
142
1.0
143
1.0
 70
   688
 72
     0
 73
     0
 74
     5
  7
sanindusa.ctb
 75
    16
147
1.0
148
0.0
149
0.0
100
AcDbLayout
  1
Layout1
 70
     1
 71
     1
 10
0.0
 20
0.0
 11
420.0
 21
297.0
 12
0.0
 22
0.0
 32
0.0
 14
1.000000000000000E+20
 24
1.000000000000000E+20
 34
1.000000000000000E+20
 15
-1.000000000000000E+20
 25
-1.000000000000000E+20
 35
-1.000000000000000E+20
146
0.0
 13
0.0
 23
0.0
 33
0.0
 16
1.0
 26
0.0
 36
0.0
 17
0.0
 27
1.0
 37
0.0
 76
     0
330
1B
  0
LAYOUT
  5
26
102
{ACAD_XDICTIONARY
360
19DD
102
}
102
{ACAD_REACTORS
330
1A
102
}
330
1A
100
AcDbPlotSettings
  1

  2
Ploter HP500
  4

  6

 40
0.0
 41
0.0
 42
0.0
 43
0.0
 44
0.0
 45
0.0
 46
0.0
 47
0.0
 48
0.0
 49
0.0
140
0.0
141
0.0
142
1.0
143
1.0
 70
   688
 72
     0
 73
     0
 74
     5
  7
sanindusa.ctb
 75
    16
147
1.0
148
0.0
149
0.0
100
AcDbLayout
  1
Layout2
 70
     1
 71
     2
 10
0.0
 20
0.0
 11
12.0
 21
9.0
 12
0.0
 22
0.0
 32
0.0
 14
0.0
 24
0.0
 34
0.0
 15
0.0
 25
0.0
 35
0.0
146
0.0
 13
0.0
 23
0.0
 33
0.0
 16
1.0
 26
0.0
 36
0.0
 17
0.0
 27
1.0
 37
0.0
 76
     0
330
23
  0
LAYOUT
  5
22
102
{ACAD_XDICTIONARY
360
19DB
102
}
102
{ACAD_REACTORS
330
1A
102
}
330
1A
100
AcDbPlotSettings
  1

  2
Ploter HP500
  4
User268
  6

 40
4.995333194732666
 41
16.97565841674804
 42
4.995330810546875
 43
16.97567749023437
 44
209.9733276367187
 45
296.9259948730469
 46
0.0
 47
0.0
 48
0.0
 49
0.0
140
0.0
141
0.0
142
1.0
143
1.0
 70
 11952
 72
     1
 73
     1
 74
     0
  7
sanindusa.ctb
 75
     0
147
1.0
148
-427.5957866592534
149
7.362384574453926
100
AcDbLayout
  1
Model
 70
     1
 71
     0
 10
0.0
 20
0.0
 11
12.0
 21
9.0
 12
0.0
 22
0.0
 32
0.0
 14
0.0
 24
0.0
 34
0.0
 15
0.0
 25
0.0
 35
0.0
146
0.0
 13
0.0
 23
0.0
 33
0.0
 16
1.0
 26
0.0
 36
0.0
 17
0.0
 27
1.0
 37
0.0
 76
     0
330
1F
331
1068
  0
MATERIAL
  5
1072
102
{ACAD_XDICTIONARY
360
1073
102
}
102
{ACAD_REACTORS
330
EE5
102
}
330
EE5
100
AcDbMaterial
  1
ByBlock
 72
     0
 43
0.0008202099737533
 43
0.0
 43
0.0
 43
0.0
 43
0.0
 43
0.0008202099737533
 43
0.0
 43
0.0
 43
0.0
 43
0.0
 43
1.0
 43
0.0
 43
0.0
 43
0.0
 43
0.0
 43
1.0
 77
     0
 47
0.0008202099737533
 47
0.0
 47
0.0
 47
0.0
 47
0.0
 47
0.0008202099737533
 47
0.0
 47
0.0
 47
0.0
 47
0.0
 47
1.0
 47
0.0
 47
0.0
 47
0.0
 47
0.0
 47
1.0
171
     0
 49
0.0008202099737533
 49
0.0
 49
0.0
 49
0.0
 49
0.0
 49
0.0008202099737533
 49
0.0
 49
0.0
 49
0.0
 49
0.0
 49
1.0
 49
0.0
 49
0.0
 49
0.0
 49
0.0
 49
1.0
175
     0
142
0.0008202099737533
142
0.0
142
0.0
142
0.0
142
0.0
142
0.0008202099737533
142
0.0
142
0.0
142
0.0
142
0.0
142
1.0
142
0.0
142
0.0
142
0.0
142
0.0
142
1.0
179
     0
144
0.0008202099737533
144
0.0
144
0.0
144
0.0
144
0.0
144
0.0008202099737533
144
0.0
144
0.0
144
0.0
144
0.0
144
1.0
144
0.0
144
0.0
144
0.0
144
0.0
144
1.0
147
0.0008202099737533
147
0.0
147
0.0
147
0.0
147
0.0
147
0.0008202099737533
147
0.0
147
0.0
147
0.0
147
0.0
147
1.0
147
0.0
147
0.0
147
0.0
147
0.0
147
1.0
  0
MATERIAL
  5
106A
102
{ACAD_XDICTIONARY
360
106B
102
}
102
{ACAD_REACTORS
330
EE5
102
}
330
EE5
100
AcDbMaterial
  1
ByLayer
 72
     0
 43
0.0008202099737533
 43
0.0
 43
0.0
 43
0.0
 43
0.0
 43
0.0008202099737533
 43
0.0
 43
0.0
 43
0.0
 43
0.0
 43
1.0
 43
0.0
 43
0.0
 43
0.0
 43
0.0
 43
1.0
 77
     0
 47
0.0008202099737533
 47
0.0
 47
0.0
 47
0.0
 47
0.0
 47
0.0008202099737533
 47
0.0
 47
0.0
 47
0.0
 47
0.0
 47
1.0
 47
0.0
 47
0.0
 47
0.0
 47
0.0
 47
1.0
171
     0
 49
0.0008202099737533
 49
0.0
 49
0.0
 49
0.0
 49
0.0
 49
0.0008202099737533
 49
0.0
 49
0.0
 49
0.0
 49
0.0
 49
1.0
 49
0.0
 49
0.0
 49
0.0
 49
0.0
 49
1.0
175
     0
142
0.0008202099737533
142
0.0
142
0.0
142
0.0
142
0.0
142
0.0008202099737533
142
0.0
142
0.0
142
0.0
142
0.0
142
1.0
142
0.0
142
0.0
142
0.0
142
0.0
142
1.0
179
     0
144
0.0008202099737533
144
0.0
144
0.0
144
0.0
144
0.0
144
0.0008202099737533
144
0.0
144
0.0
144
0.0
144
0.0
144
1.0
144
0.0
144
0.0
144
0.0
144
0.0
144
1.0
147
0.0008202099737533
147
0.0
147
0.0
147
0.0
147
0.0
147
0.0008202099737533
147
0.0
147
0.0
147
0.0
147
0.0
147
1.0
147
0.0
147
0.0
147
0.0
147
0.0
147
1.0
  0
MATERIAL
  5
107A
102
{ACAD_XDICTIONARY
360
107B
102
}
102
{ACAD_REACTORS
330
EE5
102
}
330
EE5
100
AcDbMaterial
  1
Global
 72
     0
 43
0.0008202099737533
 43
0.0
 43
0.0
 43
0.0
 43
0.0
 43
0.0008202099737533
 43
0.0
 43
0.0
 43
0.0
 43
0.0
 43
1.0
 43
0.0
 43
0.0
 43
0.0
 43
0.0
 43
1.0
 77
     0
 47
0.0008202099737533
 47
0.0
 47
0.0
 47
0.0
 47
0.0
 47
0.0008202099737533
 47
0.0
 47
0.0
 47
0.0
 47
0.0
 47
1.0
 47
0.0
 47
0.0
 47
0.0
 47
0.0
 47
1.0
171
     0
 49
0.0008202099737533
 49
0.0
 49
0.0
 49
0.0
 49
0.0
 49
0.0008202099737533
 49
0.0
 49
0.0
 49
0.0
 49
0.0
 49
1.0
 49
0.0
 49
0.0
 49
0.0
 49
0.0
 49
1.0
175
     0
142
0.0008202099737533
142
0.0
142
0.0
142
0.0
142
0.0
142
0.0008202099737533
142
0.0
142
0.0
142
0.0
142
0.0
142
1.0
142
0.0
142
0.0
142
0.0
142
0.0
142
1.0
179
     0
144
0.0008202099737533
144
0.0
144
0.0
144
0.0
144
0.0
144
0.0008202099737533
144
0.0
144
0.0
144
0.0
144
0.0
144
1.0
144
0.0
144
0.0
144
0.0
144
0.0
144
1.0
147
0.0008202099737533
147
0.0
147
0.0
147
0.0
147
0.0
147
0.0008202099737533
147
0.0
147
0.0
147
0.0
147
0.0
147
1.0
147
0.0
147
0.0
147
0.0
147
0.0
147
1.0
  0
MLEADERSTYLE
  5
10A9
102
{ACAD_REACTORS
330
10A8
102
}
330
10A8
100
AcDbMLeaderStyle
170
     2
171
     1
172
     0
 90
        2
 40
0.0
 41
0.0
173
     1
 91
-1056964608
340
14
 92
       -2
290
     1
 42
2.0
291
     1
 43
0.36
  3
Standard
 44
4.0
300

342
11
174
     1
178
     6
175
     1
176
     0
 93
-1056964608
 45
4.0
292
     0
297
     0
 46
4.0
 94
-1056964608
 47
1.0
 49
1.0
140
1.0
293
     1
141
0.0
294
     1
177
     0
142
1.0
295
     0
296
     0
143
0.125
1001
ACAD_MLEADERVER
1070
     2
  0
MLINESTYLE
  5
18
102
{ACAD_REACTORS
330
17
102
}
330
17
100
AcDbMlineStyle
  2
STANDARD
 70
     0
  3

 62
   256
 51
90.0
 52
90.0
 71
     2
 49
0.5
 62
   256
  6
BYLAYER
 49
-0.5
 62
   256
  6
BYLAYER
  0
ACDBPLACEHOLDER
  5
F
102
{ACAD_REACTORS
330
E
102
}
330
E
  0
SCALE
  5
1097
102
{ACAD_REACTORS
330
1096
102
}
330
1096
100
AcDbScale
 70
     0
300
1:1
140
1.0
141
1.0
290
     1
  0
SCALE
  5
1098
102
{ACAD_REACTORS
330
1096
102
}
330
1096
100
AcDbScale
 70
     0
300
1:2
140
1.0
141
2.0
290
     0
  0
SCALE
  5
1099
102
{ACAD_REACTORS
330
1096
102
}
330
1096
100
AcDbScale
 70
     0
300
1:4
140
1.0
141
4.0
290
     0
  0
SCALE
  5
109A
102
{ACAD_REACTORS
330
1096
102
}
330
1096
100
AcDbScale
 70
     0
300
1:5
140
1.0
141
5.0
290
     0
  0
SCALE
  5
109B
102
{ACAD_REACTORS
330
1096
102
}
330
1096
100
AcDbScale
 70
     0
300
1:8
140
1.0
141
8.0
290
     0
  0
SCALE
  5
109C
102
{ACAD_REACTORS
330
1096
102
}
330
1096
100
AcDbScale
 70
     0
300
1:10
140
1.0
141
10.0
290
     0
  0
SCALE
  5
109D
102
{ACAD_REACTORS
330
1096
102
}
330
1096
100
AcDbScale
 70
     0
300
1:16
140
1.0
141
16.0
290
     0
  0
SCALE
  5
109E
102
{ACAD_REACTORS
330
1096
102
}
330
1096
100
AcDbScale
 70
     0
300
1:20
140
1.0
141
20.0
290
     0
  0
SCALE
  5
109F
102
{ACAD_REACTORS
330
1096
102
}
330
1096
100
AcDbScale
 70
     0
300
1:30
140
1.0
141
30.0
290
     0
  0
SCALE
  5
10A0
102
{ACAD_REACTORS
330
1096
102
}
330
1096
100
AcDbScale
 70
     0
300
1:40
140
1.0
141
40.0
290
     0
  0
SCALE
  5
10A1
102
{ACAD_REACTORS
330
1096
102
}
330
1096
100
AcDbScale
 70
     0
300
1:50
140
1.0
141
50.0
290
     0
  0
SCALE
  5
10A2
102
{ACAD_REACTORS
330
1096
102
}
330
1096
100
AcDbScale
 70
     0
300
1:100
140
1.0
141
100.0
290
     0
  0
SCALE
  5
10A3
102
{ACAD_REACTORS
330
1096
102
}
330
1096
100
AcDbScale
 70
     0
300
2:1
140
2.0
141
1.0
290
     0
  0
SCALE
  5
10A4
102
{ACAD_REACTORS
330
1096
102
}
330
1096
100
AcDbScale
 70
     0
300
4:1
140
4.0
141
1.0
290
     0
  0
SCALE
  5
10A5
102
{ACAD_REACTORS
330
1096
102
}
330
1096
100
AcDbScale
 70
     0
300
8:1
140
8.0
141
1.0
290
     0
  0
SCALE
  5
10A6
102
{ACAD_REACTORS
330
1096
102
}
330
1096
100
AcDbScale
 70
     0
300
10:1
140
10.0
141
1.0
290
     0
  0
SCALE
  5
10A7
102
{ACAD_REACTORS
330
1096
102
}
330
1096
100
AcDbScale
 70
     0
300
100:1
140
100.0
141
1.0
290
     0
  0
TABLESTYLE
  5
EE8
102
{ACAD_XDICTIONARY
360
19D3
102
}
102
{ACAD_REACTORS
330
EE7
102
}
330
EE7
100
AcDbTableStyle
  3
Standard
 70
     0
 71
     0
 40
1.5
 41
1.5
280
     0
281
     0
  7
Standard
140
4.5
170
     2
 62
     0
 63
     7
283
     0
274
    -2
284
     1
 64
     0
275
    -2
285
     1
 65
     0
276
    -2
286
     1
 66
     0
277
    -2
287
     1
 67
     0
278
    -2
288
     1
 68
     0
279
    -2
289
     1
 69
     0
  7
Standard
140
6.0
170
     5
 62
     0
 63
     7
283
     0
274
    -2
284
     1
 64
     0
275
    -2
285
     1
 65
     0
276
    -2
286
     1
 66
     0
277
    -2
287
     1
 67
     0
278
    -2
288
     1
 68
     0
279
    -2
289
     1
 69
     0
  7
Standard
140
4.5
170
     5
 62
     0
 63
     7
283
     0
274
    -2
284
     1
 64
     0
275
    -2
285
     1
 65
     0
276
    -2
286
     1
 66
     0
277
    -2
287
     1
 67
     0
278
    -2
288
     1
 68
     0
279
    -2
289
     1
 69
     0
  0
VISUALSTYLE
  5
1088
102
{ACAD_XDICTIONARY
360
19ED
102
}
102
{ACAD_REACTORS
330
1082
102
}
330
1082
100
AcDbVisualStyle
  2
2dWireframe
 70
     4
 71
     0
 72
     2
 73
     0
 90
        0
 40
-0.6
 41
-30.0
 62
     5
 63
     7
 74
     1
 91
        4
 64
     7
 65
   257
 75
     1
175
     1
 42
1.0
 92
        0
 66
   257
 43
1.0
 76
     1
 77
     6
 78
     2
 67
     7
 79
     5
170
     0
171
     0
290
     0
174
     0
 93
        1
 44
0.0
173
     0
291
     0
 45
0.0
1001
ACAD
1000
AcDbSavedByObjectVersion
1070
     0
  0
VISUALSTYLE
  5
108A
102
{ACAD_XDICTIONARY
360
19F1
102
}
102
{ACAD_REACTORS
330
1082
102
}
330
1082
100
AcDbVisualStyle
  2
3D Hidden
 70
     6
 71
     1
 72
     2
 73
     2
 90
        0
 40
-0.6
 41
-30.0
 62
     5
 63
     7
 74
     2
 91
        2
 64
     7
 65
   257
 75
     2
175
     1
 42
179.0
 92
        0
 66
   257
 43
1.0
 76
     1
 77
     6
 78
     2
 67
     7
 79
     3
170
     0
171
     0
290
     0
174
     0
 93
        1
 44
0.0
173
     0
291
     0
 45
0.0
1001
ACAD
1000
AcDbSavedByObjectVersion
1070
     0
  0
VISUALSTYLE
  5
1089
102
{ACAD_XDICTIONARY
360
19EF
102
}
102
{ACAD_REACTORS
330
1082
102
}
330
1082
100
AcDbVisualStyle
  2
3dWireframe
 70
     5
 71
     0
 72
     2
 73
     0
 90
        0
 40
-0.6
 41
-30.0
 62
     5
 63
     7
 74
     1
 91
        4
 64
     7
 65
   257
 75
     1
175
     1
 42
1.0
 92
        0
 66
   257
 43
1.0
 76
     1
 77
     6
 78
     2
 67
     7
 79
     5
170
     0
171
     0
290
     0
174
     0
 93
        1
 44
0.0
173
     0
291
     0
 45
0.0
1001
ACAD
1000
AcDbSavedByObjectVersion
1070
     0
  0
VISUALSTYLE
  5
1087
102
{ACAD_XDICTIONARY
360
19EB
102
}
102
{ACAD_REACTORS
330
1082
102
}
330
1082
100
AcDbVisualStyle
  2
Basic
 70
     7
 71
     1
 72
     0
 73
     1
 90
        0
 40
-0.6
 41
-30.0
 62
     5
 63
     7
 74
     0
 91
        4
 64
     7
 65
   257
 75
     1
175
     1
 42
1.0
 92
        8
 66
     7
 43
1.0
 76
     1
 77
     6
 78
     2
 67
     7
 79
     5
170
     0
171
     0
290
     0
174
     0
 93
        1
 44
0.0
173
     0
291
     1
 45
0.0
1001
ACAD
1000
AcDbSavedByObjectVersion
1070
     0
  0
VISUALSTYLE
  5
108E
102
{ACAD_XDICTIONARY
360
19F9
102
}
102
{ACAD_REACTORS
330
1082
102
}
330
1082
100
AcDbVisualStyle
  2
Brighten
 70
    12
 71
     2
 72
     2
 73
     0
 90
        0
 40
-0.6
 41
-30.0
 62
     5
 63
     7
 74
     1
 91
        4
 64
     7
 65
   257
 75
     1
175
     1
 42
1.0
 92
        8
 66
     7
 43
1.0
 76
     1
 77
     6
 78
     2
 67
     7
 79
     5
170
     0
171
     0
290
     0
174
     0
 93
        1
 44
50.0
173
     0
291
     1
 45
0.0
1001
ACAD
1000
AcDbSavedByObjectVersion
1070
     0
  0
VISUALSTYLE
  5
1092
102
{ACAD_XDICTIONARY
360
1A01
102
}
102
{ACAD_REACTORS
330
1082
102
}
330
1082
100
AcDbVisualStyle
  2
ColorChange
 70
    16
 71
     2
 72
     2
 73
     3
 90
        0
 40
-0.6
 41
-30.0
 62
     5
 63
     8
 74
     1
 91
        4
 64
     7
 65
   257
 75
     1
175
     1
 42
1.0
 92
        8
 66
     8
 43
1.0
 76
     1
 77
     6
 78
     2
 67
     7
 79
     5
170
     0
171
     0
290
     0
174
     0
 93
        1
 44
0.0
173
     0
291
     1
 45
0.0
1001
ACAD
1000
AcDbSavedByObjectVersion
1070
     0
  0
VISUALSTYLE
  5
108B
102
{ACAD_XDICTIONARY
360
19F3
102
}
102
{ACAD_REACTORS
330
1082
102
}
330
1082
100
AcDbVisualStyle
  2
Conceptual
 70
     9
 71
     3
 72
     2
 73
     0
 90
        0
 40
-0.6
 41
-30.0
 62
     5
 63
     7
 74
     2
 91
        2
 64
     7
 65
   257
 75
     1
175
     1
 42
179.0
 92
        8
 66
     7
 43
1.0
 76
     1
 77
     6
 78
     2
 67
     7
 79
     3
170
     0
171
     0
290
     0
174
     0
 93
        1
 44
0.0
173
     0
291
     0
 45
0.0
1001
ACAD
1000
AcDbSavedByObjectVersion
1070
     0
  0
VISUALSTYLE
  5
108D
102
{ACAD_XDICTIONARY
360
19F7
102
}
102
{ACAD_REACTORS
330
1082
102
}
330
1082
100
AcDbVisualStyle
  2
Dim
 70
    11
 71
     2
 72
     2
 73
     0
 90
        0
 40
-0.6
 41
-30.0
 62
     5
 63
     7
 74
     1
 91
        4
 64
     7
 65
   257
 75
     1
175
     1
 42
1.0
 92
        8
 66
     7
 43
1.0
 76
     1
 77
     6
 78
     2
 67
     7
 79
     5
170
     0
171
     0
290
     0
174
     0
 93
        1
 44
-50.0
173
     0
291
     1
 45
0.0
1001
ACAD
1000
AcDbSavedByObjectVersion
1070
     0
  0
VISUALSTYLE
  5
1095
102
{ACAD_XDICTIONARY
360
1A07
102
}
102
{ACAD_REACTORS
330
1082
102
}
330
1082
100
AcDbVisualStyle
  2
EdgeColorOff
 70
    22
 71
     2
 72
     2
 73
     0
 90
        0
 40
-0.6
 41
-30.0
 62
     5
 63
     7
 74
     1
 91
        4
 64
     7
 65
   257
 75
     1
175
     1
 42
1.0
 92
        8
 66
     7
 43
1.0
 76
     1
 77
     6
 78
     2
 67
     7
 79
     5
170
     0
171
     0
290
     0
174
     0
 93
        1
 44
0.0
173
     0
291
     1
 45
0.0
1001
ACAD
1000
AcDbSavedByObjectVersion
1070
     0
  0
VISUALSTYLE
  5
1091
102
{ACAD_XDICTIONARY
360
19FF
102
}
102
{ACAD_REACTORS
330
1082
102
}
330
1082
100
AcDbVisualStyle
  2
Facepattern
 70
    15
 71
     2
 72
     2
 73
     0
 90
        0
 40
-0.6
 41
-30.0
 62
     5
 63
     7
 74
     1
 91
        4
 64
     7
 65
   257
 75
     1
175
     1
 42
1.0
 92
        8
 66
     7
 43
1.0
 76
     1
 77
     6
 78
     2
 67
     7
 79
     5
170
     0
171
     0
290
     0
174
     0
 93
        1
 44
0.0
173
     0
291
     1
 45
0.0
1001
ACAD
1000
AcDbSavedByObjectVersion
1070
     0
  0
VISUALSTYLE
  5
1083
102
{ACAD_XDICTIONARY
360
19E3
102
}
102
{ACAD_REACTORS
330
1082
102
}
330
1082
100
AcDbVisualStyle
  2
Flat
 70
     0
 71
     2
 72
     1
 73
     1
 90
        2
 40
-0.6
 41
30.0
 62
     5
 63
     7
 74
     0
 91
        4
 64
     7
 65
   257
 75
     1
175
     1
 42
1.0
 92
        8
 66
     7
 43
1.0
 76
     1
 77
     6
 78
     2
 67
     7
 79
     5
170
     0
171
     0
290
     0
174
     0
 93
       13
 44
0.0
173
     0
291
     1
 45
0.0
1001
ACAD
1000
AcDbSavedByObjectVersion
1070
     0
  0
VISUALSTYLE
  5
1084
102
{ACAD_XDICTIONARY
360
19E5
102
}
102
{ACAD_REACTORS
330
1082
102
}
330
1082
100
AcDbVisualStyle
  2
FlatWithEdges
 70
     1
 71
     2
 72
     1
 73
     1
 90
        2
 40
-0.6
 41
30.0
 62
     5
 63
     7
 74
     1
 91
        4
 64
     7
 65
   257
 75
     1
175
     1
 42
1.0
 92
        0
 66
   257
 43
1.0
 76
     1
 77
     6
 78
     2
 67
     7
 79
     5
170
     0
171
     0
290
     0
174
     0
 93
       13
 44
0.0
173
     0
291
     1
 45
0.0
1001
ACAD
1000
AcDbSavedByObjectVersion
1070
     0
  0
VISUALSTYLE
  5
1085
102
{ACAD_XDICTIONARY
360
19E7
102
}
102
{ACAD_REACTORS
330
1082
102
}
330
1082
100
AcDbVisualStyle
  2
Gouraud
 70
     2
 71
     2
 72
     2
 73
     1
 90
        2
 40
-0.6
 41
30.0
 62
     5
 63
     7
 74
     0
 91
        4
 64
     7
 65
   257
 75
     1
175
     1
 42
1.0
 92
        0
 66
     7
 43
1.0
 76
     1
 77
     6
 78
     2
 67
     7
 79
     5
170
     0
171
     0
290
     0
174
     0
 93
       13
 44
0.0
173
     0
291
     1
 45
0.0
1001
ACAD
1000
AcDbSavedByObjectVersion
1070
     0
  0
VISUALSTYLE
  5
1086
102
{ACAD_XDICTIONARY
360
19E9
102
}
102
{ACAD_REACTORS
330
1082
102
}
330
1082
100
AcDbVisualStyle
  2
GouraudWithEdges
 70
     3
 71
     2
 72
     2
 73
     1
 90
        2
 40
-0.6
 41
30.0
 62
     5
 63
     7
 74
     1
 91
        4
 64
     7
 65
   257
 75
     1
175
     1
 42
1.0
 92
        0
 66
   257
 43
1.0
 76
     1
 77
     6
 78
     2
 67
     7
 79
     5
170
     0
171
     0
290
     0
174
     0
 93
       13
 44
0.0
173
     0
291
     1
 45
0.0
1001
ACAD
1000
AcDbSavedByObjectVersion
1070
     0
  0
VISUALSTYLE
  5
1093
102
{ACAD_XDICTIONARY
360
1A03
102
}
102
{ACAD_REACTORS
330
1082
102
}
330
1082
100
AcDbVisualStyle
  2
JitterOff
 70
    20
 71
     2
 72
     2
 73
     0
 90
        0
 40
-0.6
 41
-30.0
 62
     5
 63
     7
 74
     1
 91
        4
 64
     7
 65
   257
 75
     1
175
     1
 42
1.0
 92
       10
 66
     7
 43
1.0
 76
     1
 77
     6
 78
     2
 67
     7
 79
     5
170
     0
171
     0
290
     0
174
     0
 93
        1
 44
0.0
173
     0
291
     1
 45
0.0
1001
ACAD
1000
AcDbSavedByObjectVersion
1070
     0
  0
VISUALSTYLE
  5
1090
102
{ACAD_XDICTIONARY
360
19FD
102
}
102
{ACAD_REACTORS
330
1082
102
}
330
1082
100
AcDbVisualStyle
  2
Linepattern
 70
    14
 71
     2
 72
     2
 73
     0
 90
        0
 40
-0.6
 41
-30.0
 62
     5
 63
     7
 74
     1
 91
        4
 64
     7
 65
   257
 75
     7
175
     7
 42
1.0
 92
        8
 66
     7
 43
1.0
 76
     1
 77
     6
 78
     2
 67
     7
 79
     5
170
     0
171
     0
290
     0
174
     0
 93
        1
 44
0.0
173
     0
291
     1
 45
0.0
1001
ACAD
1000
AcDbSavedByObjectVersion
1070
     0
  0
VISUALSTYLE
  5
1094
102
{ACAD_XDICTIONARY
360
1A05
102
}
102
{ACAD_REACTORS
330
1082
102
}
330
1082
100
AcDbVisualStyle
  2
OverhangOff
 70
    21
 71
     2
 72
     2
 73
     0
 90
        0
 40
-0.6
 41
-30.0
 62
     5
 63
     7
 74
     1
 91
        4
 64
     7
 65
   257
 75
     1
175
     1
 42
1.0
 92
        9
 66
     7
 43
1.0
 76
     1
 77
     6
 78
     2
 67
     7
 79
     5
170
     0
171
     0
290
     0
174
     0
 93
        1
 44
0.0
173
     0
291
     1
 45
0.0
1001
ACAD
1000
AcDbSavedByObjectVersion
1070
     0
  0
VISUALSTYLE
  5
108C
102
{ACAD_XDICTIONARY
360
19F5
102
}
102
{ACAD_REACTORS
330
1082
102
}
330
1082
100
AcDbVisualStyle
  2
Realistic
 70
     8
 71
     2
 72
     2
 73
     0
 90
        0
 40
-0.6
 41
-30.0
 62
     5
 63
     7
 74
     1
 91
        0
 64
     7
 65
   257
 75
     1
175
     1
 42
1.0
 92
        8
 66
     8
 43
1.0
 76
     1
 77
     6
 78
     2
 67
     7
 79
     5
170
     0
171
     0
290
     0
174
     0
 93
       13
 44
0.0
173
     0
291
     0
 45
0.0
1001
ACAD
1000
AcDbSavedByObjectVersion
1070
     0
  0
VISUALSTYLE
  5
108F
102
{ACAD_XDICTIONARY
360
19FB
102
}
102
{ACAD_REACTORS
330
1082
102
}
330
1082
100
AcDbVisualStyle
  2
Thicken
 70
    13
 71
     2
 72
     2
 73
     0
 90
        0
 40
-0.6
 41
-30.0
 62
     5
 63
     7
 74
     1
 91
        4
 64
     7
 65
   257
 75
     1
175
     1
 42
1.0
 92
       12
 66
     7
 43
1.0
 76
     1
 77
     6
 78
     2
 67
     7
 79
     5
170
     0
171
     0
290
     0
174
     0
 93
        1
 44
0.0
173
     0
291
     1
 45
0.0
1001
ACAD
1000
AcDbSavedByObjectVersion
1070
     0
  0
DICTIONARYVAR
  5
19CF
102
{ACAD_REACTORS
330
3D
102
}
330
3D
100
DictionaryVariables
280
     0
  1
1:1
  0
DICTIONARYVAR
  5
19CE
102
{ACAD_REACTORS
330
3D
102
}
330
3D
100
DictionaryVariables
280
     0
  1
STANDARD
  0
DICTIONARYVAR
  5
1049
102
{ACAD_REACTORS
330
3D
102
}
330
3D
100
DictionaryVariables
280
     0
  1
STANDARD
  0
DICTIONARYVAR
  5
3F
102
{ACAD_REACTORS
330
3D
102
}
330
3D
100
DictionaryVariables
280
     0
  1
2
  0
DICTIONARYVAR
  5
3E
102
{ACAD_REACTORS
330
3D
102
}
330
3D
100
DictionaryVariables
280
     0
  1
1
  0
DICTIONARYVAR
  5
19D1
102
{ACAD_REACTORS
330
3D
102
}
330
3D
100
DictionaryVariables
280
     0
  1
0
  0
DICTIONARYVAR
  5
19D0
102
{ACAD_REACTORS
330
3D
102
}
330
3D
100
DictionaryVariables
280
     0
  1
127
  0
DICTIONARYVAR
  5
19D2
102
{ACAD_REACTORS
330
3D
102
}
330
3D
100
DictionaryVariables
280
     0
  1
0
  0
XRECORD
  5
1067
102
{ACAD_REACTORS
330
1066
102
}
330
1066
100
AcDbXrecord
280
     1
  0
DICTIONARY
  5
19D9
330
1E
100
AcDbDictionary
280
     1
281
     1
  3
ACAD_XREC_ROUNDTRIP
360
19DA
  0
DICTIONARY
  5
19DD
330
26
100
AcDbDictionary
280
     1
281
     1
  3
ACAD_XREC_ROUNDTRIP
360
19DE
  0
DICTIONARY
  5
19DB
330
22
100
AcDbDictionary
280
     1
281
     1
  3
ACAD_XREC_ROUNDTRIP
360
19DC
  0
DICTIONARY
  5
1073
330
1072
100
AcDbDictionary
280
     1
281
     1
  3
ACAD_XREC_ROUNDTRIP
360
19E1
  3
BUMPTILE
360
1075
  3
DIFFUSETILE
360
1074
  3
OPACITYTILE
360
1078
  3
REFLECTIONTILE
360
1077
  3
REFRACTIONTILE
360
1079
  3
SPECULARTILE
360
1076
  0
DICTIONARY
  5
106B
330
106A
100
AcDbDictionary
280
     1
281
     1
  3
ACAD_XREC_ROUNDTRIP
360
19E0
  3
BUMPTILE
360
106D
  3
DIFFUSETILE
360
106C
  3
OPACITYTILE
360
1070
  3
REFLECTIONTILE
360
106F
  3
REFRACTIONTILE
360
1071
  3
SPECULARTILE
360
106E
  0
DICTIONARY
  5
107B
330
107A
100
AcDbDictionary
280
     1
281
     1
  3
ACAD_XREC_ROUNDTRIP
360
19E2
  3
BUMPTILE
360
107D
  3
DIFFUSETILE
360
107C
  3
OPACITYTILE
360
1080
  3
REFLECTIONTILE
360
107F
  3
REFRACTIONTILE
360
1081
  3
SPECULARTILE
360
107E
  0
DICTIONARY
  5
19D3
330
EE8
100
AcDbDictionary
280
     1
281
     1
  3
ACAD_ROUNDTRIP_2008_TABLESTYLE_CELLSTYLEMAP
360
19D4
  3
ACAD_XREC_ROUNDTRIP
360
19DF
  0
DICTIONARY
  5
19ED
330
1088
100
AcDbDictionary
280
     1
281
     1
  3
ACAD_XREC_ROUNDTRIP
360
19EE
  0
DICTIONARY
  5
19F1
330
108A
100
AcDbDictionary
280
     1
281
     1
  3
ACAD_XREC_ROUNDTRIP
360
19F2
  0
DICTIONARY
  5
19EF
330
1089
100
AcDbDictionary
280
     1
281
     1
  3
ACAD_XREC_ROUNDTRIP
360
19F0
  0
DICTIONARY
  5
19EB
330
1087
100
AcDbDictionary
280
     1
281
     1
  3
ACAD_XREC_ROUNDTRIP
360
19EC
  0
DICTIONARY
  5
19F9
330
108E
100
AcDbDictionary
280
     1
281
     1
  3
ACAD_XREC_ROUNDTRIP
360
19FA
  0
DICTIONARY
  5
1A01
330
1092
100
AcDbDictionary
280
     1
281
     1
  3
ACAD_XREC_ROUNDTRIP
360
1A02
  0
DICTIONARY
  5
19F3
330
108B
100
AcDbDictionary
280
     1
281
     1
  3
ACAD_XREC_ROUNDTRIP
360
19F4
  0
DICTIONARY
  5
19F7
330
108D
100
AcDbDictionary
280
     1
281
     1
  3
ACAD_XREC_ROUNDTRIP
360
19F8
  0
DICTIONARY
  5
1A07
330
1095
100
AcDbDictionary
280
     1
281
     1
  3
ACAD_XREC_ROUNDTRIP
360
1A08
  0
DICTIONARY
  5
19FF
330
1091
100
AcDbDictionary
280
     1
281
     1
  3
ACAD_XREC_ROUNDTRIP
360
1A00
  0
DICTIONARY
  5
19E3
330
1083
100
AcDbDictionary
280
     1
281
     1
  3
ACAD_XREC_ROUNDTRIP
360
19E4
  0
DICTIONARY
  5
19E5
330
1084
100
AcDbDictionary
280
     1
281
     1
  3
ACAD_XREC_ROUNDTRIP
360
19E6
  0
DICTIONARY
  5
19E7
330
1085
100
AcDbDictionary
280
     1
281
     1
  3
ACAD_XREC_ROUNDTRIP
360
19E8
  0
DICTIONARY
  5
19E9
330
1086
100
AcDbDictionary
280
     1
281
     1
  3
ACAD_XREC_ROUNDTRIP
360
19EA
  0
DICTIONARY
  5
1A03
330
1093
100
AcDbDictionary
280
     1
281
     1
  3
ACAD_XREC_ROUNDTRIP
360
1A04
  0
DICTIONARY
  5
19FD
330
1090
100
AcDbDictionary
280
     1
281
     1
  3
ACAD_XREC_ROUNDTRIP
360
19FE
  0
DICTIONARY
  5
1A05
330
1094
100
AcDbDictionary
280
     1
281
     1
  3
ACAD_XREC_ROUNDTRIP
360
1A06
  0
DICTIONARY
  5
19F5
330
108C
100
AcDbDictionary
280
     1
281
     1
  3
ACAD_XREC_ROUNDTRIP
360
19F6
  0
DICTIONARY
  5
19FB
330
108F
100
AcDbDictionary
280
     1
281
     1
  3
ACAD_XREC_ROUNDTRIP
360
19FC
  0
XRECORD
  5
19DA
102
{ACAD_REACTORS
330
19D9
102
}
330
19D9
100
AcDbXrecord
280
     1
102
SHADEPLOT
 70
     0
102
SHADEPLOTRESLEVEL
 70
     2
102
SHADEPLOTCUSTOMDPI
 70
   300
  0
XRECORD
  5
19DE
102
{ACAD_REACTORS
330
19DD
102
}
330
19DD
100
AcDbXrecord
280
     1
102
SHADEPLOT
 70
     0
102
SHADEPLOTRESLEVEL
 70
     2
102
SHADEPLOTCUSTOMDPI
 70
   300
  0
XRECORD
  5
19DC
102
{ACAD_REACTORS
330
19DB
102
}
330
19DB
100
AcDbXrecord
280
     1
102
SHADEPLOT
 70
     0
102
SHADEPLOTRESLEVEL
 70
     2
102
SHADEPLOTCUSTOMDPI
 70
   300
  0
XRECORD
  5
19E1
102
{ACAD_REACTORS
330
1073
102
}
330
1073
100
AcDbXrecord
280
     1
102
MATERIAL
148
0.0
149
0.0
149
0.0
 93
        0
 94
      127
282
     0
 72
     0
 77
     0
171
     0
175
     0
179
     0
273
     0
  0
XRECORD
  5
1075
102
{ACAD_REACTORS
330
1073
102
}
330
1073
100
AcDbXrecord
280
     1
270
     1
271
     1
  0
XRECORD
  5
1074
102
{ACAD_REACTORS
330
1073
102
}
330
1073
100
AcDbXrecord
280
     1
270
     1
271
     1
  0
XRECORD
  5
1078
102
{ACAD_REACTORS
330
1073
102
}
330
1073
100
AcDbXrecord
280
     1
270
     1
271
     1
  0
XRECORD
  5
1077
102
{ACAD_REACTORS
330
1073
102
}
330
1073
100
AcDbXrecord
280
     1
270
     1
271
     1
  0
XRECORD
  5
1079
102
{ACAD_REACTORS
330
1073
102
}
330
1073
100
AcDbXrecord
280
     1
270
     1
271
     1
  0
XRECORD
  5
1076
102
{ACAD_REACTORS
330
1073
102
}
330
1073
100
AcDbXrecord
280
     1
270
     1
271
     1
  0
XRECORD
  5
19E0
102
{ACAD_REACTORS
330
106B
102
}
330
106B
100
AcDbXrecord
280
     1
102
MATERIAL
148
0.0
149
0.0
149
0.0
 93
        0
 94
      127
282
     0
 72
     0
 77
     0
171
     0
175
     0
179
     0
273
     0
  0
XRECORD
  5
106D
102
{ACAD_REACTORS
330
106B
102
}
330
106B
100
AcDbXrecord
280
     1
270
     1
271
     1
  0
XRECORD
  5
106C
102
{ACAD_REACTORS
330
106B
102
}
330
106B
100
AcDbXrecord
280
     1
270
     1
271
     1
  0
XRECORD
  5
1070
102
{ACAD_REACTORS
330
106B
102
}
330
106B
100
AcDbXrecord
280
     1
270
     1
271
     1
  0
XRECORD
  5
106F
102
{ACAD_REACTORS
330
106B
102
}
330
106B
100
AcDbXrecord
280
     1
270
     1
271
     1
  0
XRECORD
  5
1071
102
{ACAD_REACTORS
330
106B
102
}
330
106B
100
AcDbXrecord
280
     1
270
     1
271
     1
  0
XRECORD
  5
106E
102
{ACAD_REACTORS
330
106B
102
}
330
106B
100
AcDbXrecord
280
     1
270
     1
271
     1
  0
XRECORD
  5
19E2
102
{ACAD_REACTORS
330
107B
102
}
330
107B
100
AcDbXrecord
280
     1
102
MATERIAL
148
0.0
149
0.0
149
0.0
 93
        0
 94
      127
282
     0
 72
     0
 77
     0
171
     0
175
     0
179
     0
273
     0
  0
XRECORD
  5
107D
102
{ACAD_REACTORS
330
107B
102
}
330
107B
100
AcDbXrecord
280
     1
270
     1
271
     1
  0
XRECORD
  5
107C
102
{ACAD_REACTORS
330
107B
102
}
330
107B
100
AcDbXrecord
280
     1
270
     1
271
     1
  0
XRECORD
  5
1080
102
{ACAD_REACTORS
330
107B
102
}
330
107B
100
AcDbXrecord
280
     1
270
     1
271
     1
  0
XRECORD
  5
107F
102
{ACAD_REACTORS
330
107B
102
}
330
107B
100
AcDbXrecord
280
     1
270
     1
271
     1
  0
XRECORD
  5
1081
102
{ACAD_REACTORS
330
107B
102
}
330
107B
100
AcDbXrecord
280
     1
270
     1
271
     1
  0
XRECORD
  5
107E
102
{ACAD_REACTORS
330
107B
102
}
330
107B
100
AcDbXrecord
280
     1
270
     1
271
     1
  0
CELLSTYLEMAP
  5
19D4
102
{ACAD_REACTORS
330
19D3
102
}
330
19D3
100
AcDbCellStyleMap
 90
        3
300
CELLSTYLE
  1
TABLEFORMAT_BEGIN
 90
        5
170
     1
 91
        0
 92
    32768
 62
   257
 93
        1
300
CONTENTFORMAT
  1
CONTENTFORMAT_BEGIN
 90
        0
 91
        0
 92
        4
 93
        0
300

 40
0.0
140
1.0
 94
        5
 62
     0
340
11
144
6.0
309
CONTENTFORMAT_END
171
     1
301
MARGIN
  1
CELLMARGIN_BEGIN
 40
1.5
 40
1.5
 40
1.5
 40
1.5
 40
0.18
 40
0.18
309
CELLMARGIN_END
 94
        6
 95
        1
302
GRIDFORMAT
  1
GRIDFORMAT_BEGIN
 90
        0
 91
        1
 62
     0
 92
       -2
340
0
 93
        0
 40
0.045
309
GRIDFORMAT_END
 95
        2
302
GRIDFORMAT
  1
GRIDFORMAT_BEGIN
 90
        0
 91
        1
 62
     0
 92
       -2
340
0
 93
        0
 40
0.045
309
GRIDFORMAT_END
 95
        4
302
GRIDFORMAT
  1
GRIDFORMAT_BEGIN
 90
        0
 91
        1
 62
     0
 92
       -2
340
0
 93
        0
 40
0.045
309
GRIDFORMAT_END
 95
        8
302
GRIDFORMAT
  1
GRIDFORMAT_BEGIN
 90
        0
 91
        1
 62
     0
 92
       -2
340
0
 93
        0
 40
0.045
309
GRIDFORMAT_END
 95
       16
302
GRIDFORMAT
  1
GRIDFORMAT_BEGIN
 90
        0
 91
        1
 62
     0
 92
       -2
340
0
 93
        0
 40
0.045
309
GRIDFORMAT_END
 95
       32
302
GRIDFORMAT
  1
GRIDFORMAT_BEGIN
 90
        0
 91
        1
 62
     0
 92
       -2
340
0
 93
        0
 40
0.045
309
GRIDFORMAT_END
309
TABLEFORMAT_END
  1
CELLSTYLE_BEGIN
 90
        1
 91
        1
300
_TITLE
309
CELLSTYLE_END
300
CELLSTYLE
  1
TABLEFORMAT_BEGIN
 90
        5
170
     1
 91
        0
 92
        0
 62
   257
 93
        1
300
CONTENTFORMAT
  1
CONTENTFORMAT_BEGIN
 90
        0
 91
        0
 92
        4
 93
        0
300

 40
0.0
140
1.0
 94
        5
 62
     0
340
11
144
4.5
309
CONTENTFORMAT_END
171
     1
301
MARGIN
  1
CELLMARGIN_BEGIN
 40
1.5
 40
1.5
 40
1.5
 40
1.5
 40
0.18
 40
0.18
309
CELLMARGIN_END
 94
        6
 95
        1
302
GRIDFORMAT
  1
GRIDFORMAT_BEGIN
 90
        0
 91
        1
 62
     0
 92
       -2
340
0
 93
        0
 40
0.045
309
GRIDFORMAT_END
 95
        2
302
GRIDFORMAT
  1
GRIDFORMAT_BEGIN
 90
        0
 91
        1
 62
     0
 92
       -2
340
0
 93
        0
 40
0.045
309
GRIDFORMAT_END
 95
        4
302
GRIDFORMAT
  1
GRIDFORMAT_BEGIN
 90
        0
 91
        1
 62
     0
 92
       -2
340
0
 93
        0
 40
0.045
309
GRIDFORMAT_END
 95
        8
302
GRIDFORMAT
  1
GRIDFORMAT_BEGIN
 90
        0
 91
        1
 62
     0
 92
       -2
340
0
 93
        0
 40
0.045
309
GRIDFORMAT_END
 95
       16
302
GRIDFORMAT
  1
GRIDFORMAT_BEGIN
 90
        0
 91
        1
 62
     0
 92
       -2
340
0
 93
        0
 40
0.045
309
GRIDFORMAT_END
 95
       32
302
GRIDFORMAT
  1
GRIDFORMAT_BEGIN
 90
        0
 91
        1
 62
     0
 92
       -2
340
0
 93
        0
 40
0.045
309
GRIDFORMAT_END
309
TABLEFORMAT_END
  1
CELLSTYLE_BEGIN
 90
        2
 91
        1
300
_HEADER
309
CELLSTYLE_END
300
CELLSTYLE
  1
TABLEFORMAT_BEGIN
 90
        5
170
     1
 91
        0
 92
        0
 62
   257
 93
        1
300
CONTENTFORMAT
  1
CONTENTFORMAT_BEGIN
 90
        0
 91
        0
 92
        4
 93
        0
300

 40
0.0
140
1.0
 94
        2
 62
     0
340
11
144
4.5
309
CONTENTFORMAT_END
171
     1
301
MARGIN
  1
CELLMARGIN_BEGIN
 40
1.5
 40
1.5
 40
1.5
 40
1.5
 40
0.18
 40
0.18
309
CELLMARGIN_END
 94
        6
 95
        1
302
GRIDFORMAT
  1
GRIDFORMAT_BEGIN
 90
        0
 91
        1
 62
     0
 92
       -2
340
0
 93
        0
 40
0.045
309
GRIDFORMAT_END
 95
        2
302
GRIDFORMAT
  1
GRIDFORMAT_BEGIN
 90
        0
 91
        1
 62
     0
 92
       -2
340
0
 93
        0
 40
0.045
309
GRIDFORMAT_END
 95
        4
302
GRIDFORMAT
  1
GRIDFORMAT_BEGIN
 90
        0
 91
        1
 62
     0
 92
       -2
340
0
 93
        0
 40
0.045
309
GRIDFORMAT_END
 95
        8
302
GRIDFORMAT
  1
GRIDFORMAT_BEGIN
 90
        0
 91
        1
 62
     0
 92
       -2
340
0
 93
        0
 40
0.045
309
GRIDFORMAT_END
 95
       16
302
GRIDFORMAT
  1
GRIDFORMAT_BEGIN
 90
        0
 91
        1
 62
     0
 92
       -2
340
0
 93
        0
 40
0.045
309
GRIDFORMAT_END
 95
       32
302
GRIDFORMAT
  1
GRIDFORMAT_BEGIN
 90
        0
 91
        1
 62
     0
 92
       -2
340
0
 93
        0
 40
0.045
309
GRIDFORMAT_END
309
TABLEFORMAT_END
  1
CELLSTYLE_BEGIN
 90
        3
 91
        2
300
_DATA
309
CELLSTYLE_END
  0
XRECORD
  5
19DF
102
{ACAD_REACTORS
330
19D3
102
}
330
19D3
100
AcDbXrecord
280
     1
102
ACAD_ROUNDTRIP_PRE2007_TABLESTYLE
 90
        4
 91
        0
  1

 92
        4
 93
        0
  2

 94
        4
 95
        0
  3

  0
XRECORD
  5
19EE
102
{ACAD_REACTORS
330
19ED
102
}
330
19ED
100
AcDbXrecord
280
     1
102
RTVSPropertyOp0
 70
     1
102
RTVSPropertyOp1
 70
     1
102
RTVSPropertyOp2
 70
     1
102
RTVSPropertyOp3
 70
     1
102
RTVSPropertyOp4
 70
     1
102
RTVSPropertyOp5
 70
     1
102
RTVSPropertyOp6
 70
     1
102
RTVSPropertyOp7
 70
     1
102
RTVSPropertyOp8
 70
     1
102
RTVSPropertyOp9
 70
     1
102
RTVSPropertyOp10
 70
     1
102
RTVSPropertyOp11
 70
     1
102
RTVSPropertyOp12
 70
     1
102
RTVSPropertyOp13
 70
     1
102
RTVSPropertyOp14
 70
     1
102
RTVSPropertyOp15
 70
     1
102
RTVSPropertyOp16
 70
     1
102
RTVSPropertyOp17
 70
     1
102
RTVSPropertyOp18
 70
     1
102
RTVSPropertyOp19
 70
     1
102
RTVSPropertyOp20
 70
     1
102
RTVSPropertyOp21
 70
     1
102
RTVSPropertyOp22
 70
     1
102
RTVSPropertyOp23
 70
     1
102
RTVSPropertyOp24
 70
     1
102
RTVSPropertyOp25
 70
     1
102
RTVSPropertyOp26
 70
     1
102
RTVSPropertyOp27
 70
     1
  0
XRECORD
  5
19F2
102
{ACAD_REACTORS
330
19F1
102
}
330
19F1
100
AcDbXrecord
280
     1
102
RTVSPropertyOp0
 70
     1
102
RTVSPropertyOp1
 70
     1
102
RTVSPropertyOp2
 70
     1
102
RTVSPropertyOp3
 70
     1
102
RTVSPropertyOp4
 70
     1
102
RTVSPropertyOp5
 70
     1
102
RTVSPropertyOp6
 70
     1
102
RTVSPropertyOp7
 70
     1
102
RTVSPropertyOp8
 70
     1
102
RTVSPropertyOp9
 70
     1
102
RTVSPropertyOp10
 70
     1
102
RTVSPropertyOp11
 70
     1
102
RTVSPropertyOp12
 70
     1
102
RTVSPropertyOp13
 70
     1
102
RTVSPropertyOp14
 70
     1
102
RTVSPropertyOp15
 70
     1
102
RTVSPropertyOp16
 70
     1
102
RTVSPropertyOp17
 70
     1
102
RTVSPropertyOp18
 70
     1
102
RTVSPropertyOp19
 70
     1
102
RTVSPropertyOp20
 70
     1
102
RTVSPropertyOp21
 70
     1
102
RTVSPropertyOp22
 70
     1
102
RTVSPropertyOp23
 70
     1
102
RTVSPropertyOp24
 70
     1
102
RTVSPropertyOp25
 70
     1
102
RTVSPropertyOp26
 70
     1
102
RTVSPropertyOp27
 70
     1
  0
XRECORD
  5
19F0
102
{ACAD_REACTORS
330
19EF
102
}
330
19EF
100
AcDbXrecord
280
     1
102
RTVSPropertyOp0
 70
     1
102
RTVSPropertyOp1
 70
     1
102
RTVSPropertyOp2
 70
     1
102
RTVSPropertyOp3
 70
     1
102
RTVSPropertyOp4
 70
     1
102
RTVSPropertyOp5
 70
     1
102
RTVSPropertyOp6
 70
     1
102
RTVSPropertyOp7
 70
     1
102
RTVSPropertyOp8
 70
     1
102
RTVSPropertyOp9
 70
     1
102
RTVSPropertyOp10
 70
     1
102
RTVSPropertyOp11
 70
     1
102
RTVSPropertyOp12
 70
     1
102
RTVSPropertyOp13
 70
     1
102
RTVSPropertyOp14
 70
     1
102
RTVSPropertyOp15
 70
     1
102
RTVSPropertyOp16
 70
     1
102
RTVSPropertyOp17
 70
     1
102
RTVSPropertyOp18
 70
     1
102
RTVSPropertyOp19
 70
     1
102
RTVSPropertyOp20
 70
     1
102
RTVSPropertyOp21
 70
     1
102
RTVSPropertyOp22
 70
     1
102
RTVSPropertyOp23
 70
     1
102
RTVSPropertyOp24
 70
     1
102
RTVSPropertyOp25
 70
     1
102
RTVSPropertyOp26
 70
     1
102
RTVSPropertyOp27
 70
     1
  0
XRECORD
  5
19EC
102
{ACAD_REACTORS
330
19EB
102
}
330
19EB
100
AcDbXrecord
280
     1
102
RTVSPropertyOp0
 70
     1
102
RTVSPropertyOp1
 70
     1
102
RTVSPropertyOp2
 70
     1
102
RTVSPropertyOp3
 70
     1
102
RTVSPropertyOp4
 70
     1
102
RTVSPropertyOp5
 70
     1
102
RTVSPropertyOp6
 70
     1
102
RTVSPropertyOp7
 70
     1
102
RTVSPropertyOp8
 70
     1
102
RTVSPropertyOp9
 70
     1
102
RTVSPropertyOp10
 70
     1
102
RTVSPropertyOp11
 70
     1
102
RTVSPropertyOp12
 70
     1
102
RTVSPropertyOp13
 70
     1
102
RTVSPropertyOp14
 70
     1
102
RTVSPropertyOp15
 70
     1
102
RTVSPropertyOp16
 70
     1
102
RTVSPropertyOp17
 70
     1
102
RTVSPropertyOp18
 70
     1
102
RTVSPropertyOp19
 70
     1
102
RTVSPropertyOp20
 70
     1
102
RTVSPropertyOp21
 70
     1
102
RTVSPropertyOp22
 70
     1
102
RTVSPropertyOp23
 70
     1
102
RTVSPropertyOp24
 70
     1
102
RTVSPropertyOp25
 70
     1
102
RTVSPropertyOp26
 70
     1
102
RTVSPropertyOp27
 70
     1
  0
XRECORD
  5
19FA
102
{ACAD_REACTORS
330
19F9
102
}
330
19F9
100
AcDbXrecord
280
     1
102
RTVSPropertyOp0
 70
     1
102
RTVSPropertyOp1
 70
     1
102
RTVSPropertyOp2
 70
     1
102
RTVSPropertyOp3
 70
     1
102
RTVSPropertyOp4
 70
     1
102
RTVSPropertyOp5
 70
     1
102
RTVSPropertyOp6
 70
     1
102
RTVSPropertyOp7
 70
     1
102
RTVSPropertyOp8
 70
     1
102
RTVSPropertyOp9
 70
     1
102
RTVSPropertyOp10
 70
     1
102
RTVSPropertyOp11
 70
     1
102
RTVSPropertyOp12
 70
     1
102
RTVSPropertyOp13
 70
     1
102
RTVSPropertyOp14
 70
     1
102
RTVSPropertyOp15
 70
     1
102
RTVSPropertyOp16
 70
     1
102
RTVSPropertyOp17
 70
     1
102
RTVSPropertyOp18
 70
     1
102
RTVSPropertyOp19
 70
     1
102
RTVSPropertyOp20
 70
     1
102
RTVSPropertyOp21
 70
     1
102
RTVSPropertyOp22
 70
     1
102
RTVSPropertyOp23
 70
     1
102
RTVSPropertyOp24
 70
     1
102
RTVSPropertyOp25
 70
     1
102
RTVSPropertyOp26
 70
     1
102
RTVSPropertyOp27
 70
     1
  0
XRECORD
  5
1A02
102
{ACAD_REACTORS
330
1A01
102
}
330
1A01
100
AcDbXrecord
280
     1
102
RTVSPropertyOp0
 70
     1
102
RTVSPropertyOp1
 70
     1
102
RTVSPropertyOp2
 70
     1
102
RTVSPropertyOp3
 70
     1
102
RTVSPropertyOp4
 70
     1
102
RTVSPropertyOp5
 70
     1
102
RTVSPropertyOp6
 70
     1
102
RTVSPropertyOp7
 70
     1
102
RTVSPropertyOp8
 70
     1
102
RTVSPropertyOp9
 70
     1
102
RTVSPropertyOp10
 70
     1
102
RTVSPropertyOp11
 70
     1
102
RTVSPropertyOp12
 70
     1
102
RTVSPropertyOp13
 70
     1
102
RTVSPropertyOp14
 70
     1
102
RTVSPropertyOp15
 70
     1
102
RTVSPropertyOp16
 70
     1
102
RTVSPropertyOp17
 70
     1
102
RTVSPropertyOp18
 70
     1
102
RTVSPropertyOp19
 70
     1
102
RTVSPropertyOp20
 70
     1
102
RTVSPropertyOp21
 70
     1
102
RTVSPropertyOp22
 70
     1
102
RTVSPropertyOp23
 70
     1
102
RTVSPropertyOp24
 70
     1
102
RTVSPropertyOp25
 70
     1
102
RTVSPropertyOp26
 70
     1
102
RTVSPropertyOp27
 70
     1
  0
XRECORD
  5
19F4
102
{ACAD_REACTORS
330
19F3
102
}
330
19F3
100
AcDbXrecord
280
     1
102
RTVSPropertyOp0
 70
     1
102
RTVSPropertyOp1
 70
     1
102
RTVSPropertyOp2
 70
     1
102
RTVSPropertyOp3
 70
     1
102
RTVSPropertyOp4
 70
     1
102
RTVSPropertyOp5
 70
     1
102
RTVSPropertyOp6
 70
     1
102
RTVSPropertyOp7
 70
     1
102
RTVSPropertyOp8
 70
     1
102
RTVSPropertyOp9
 70
     1
102
RTVSPropertyOp10
 70
     1
102
RTVSPropertyOp11
 70
     1
102
RTVSPropertyOp12
 70
     1
102
RTVSPropertyOp13
 70
     1
102
RTVSPropertyOp14
 70
     1
102
RTVSPropertyOp15
 70
     1
102
RTVSPropertyOp16
 70
     1
102
RTVSPropertyOp17
 70
     1
102
RTVSPropertyOp18
 70
     1
102
RTVSPropertyOp19
 70
     1
102
RTVSPropertyOp20
 70
     1
102
RTVSPropertyOp21
 70
     1
102
RTVSPropertyOp22
 70
     1
102
RTVSPropertyOp23
 70
     1
102
RTVSPropertyOp24
 70
     1
102
RTVSPropertyOp25
 70
     1
102
RTVSPropertyOp26
 70
     1
102
RTVSPropertyOp27
 70
     1
  0
XRECORD
  5
19F8
102
{ACAD_REACTORS
330
19F7
102
}
330
19F7
100
AcDbXrecord
280
     1
102
RTVSPropertyOp0
 70
     1
102
RTVSPropertyOp1
 70
     1
102
RTVSPropertyOp2
 70
     1
102
RTVSPropertyOp3
 70
     1
102
RTVSPropertyOp4
 70
     1
102
RTVSPropertyOp5
 70
     1
102
RTVSPropertyOp6
 70
     1
102
RTVSPropertyOp7
 70
     1
102
RTVSPropertyOp8
 70
     1
102
RTVSPropertyOp9
 70
     1
102
RTVSPropertyOp10
 70
     1
102
RTVSPropertyOp11
 70
     1
102
RTVSPropertyOp12
 70
     1
102
RTVSPropertyOp13
 70
     1
102
RTVSPropertyOp14
 70
     1
102
RTVSPropertyOp15
 70
     1
102
RTVSPropertyOp16
 70
     1
102
RTVSPropertyOp17
 70
     1
102
RTVSPropertyOp18
 70
     1
102
RTVSPropertyOp19
 70
     1
102
RTVSPropertyOp20
 70
     1
102
RTVSPropertyOp21
 70
     1
102
RTVSPropertyOp22
 70
     1
102
RTVSPropertyOp23
 70
     1
102
RTVSPropertyOp24
 70
     1
102
RTVSPropertyOp25
 70
     1
102
RTVSPropertyOp26
 70
     1
102
RTVSPropertyOp27
 70
     1
  0
XRECORD
  5
1A08
102
{ACAD_REACTORS
330
1A07
102
}
330
1A07
100
AcDbXrecord
280
     1
102
RTVSPropertyOp0
 70
     0
102
RTVSPropertyOp1
 70
     0
102
RTVSPropertyOp2
 70
     0
102
RTVSPropertyOp3
 70
     0
102
RTVSPropertyOp4
 70
     0
102
RTVSPropertyOp5
 70
     0
102
RTVSPropertyOp6
 70
     0
102
RTVSPropertyOp7
 70
     0
102
RTVSPropertyOp8
 70
     0
102
RTVSPropertyOp9
 70
     0
102
RTVSPropertyOp10
 70
     0
102
RTVSPropertyOp11
 70
     0
102
RTVSPropertyOp12
 70
     0
102
RTVSPropertyOp13
 70
     0
102
RTVSPropertyOp14
 70
     2
102
RTVSPropertyOp15
 70
     0
102
RTVSPropertyOp16
 70
     0
102
RTVSPropertyOp17
 70
     0
102
RTVSPropertyOp18
 70
     0
102
RTVSPropertyOp19
 70
     0
102
RTVSPropertyOp20
 70
     0
102
RTVSPropertyOp21
 70
     0
102
RTVSPropertyOp22
 70
     0
102
RTVSPropertyOp23
 70
     0
102
RTVSPropertyOp24
 70
     0
102
RTVSPropertyOp25
 70
     0
102
RTVSPropertyOp26
 70
     0
102
RTVSPropertyOp27
 70
     0
  0
XRECORD
  5
1A00
102
{ACAD_REACTORS
330
19FF
102
}
330
19FF
100
AcDbXrecord
280
     1
102
RTVSPropertyOp0
 70
     1
102
RTVSPropertyOp1
 70
     1
102
RTVSPropertyOp2
 70
     1
102
RTVSPropertyOp3
 70
     1
102
RTVSPropertyOp4
 70
     1
102
RTVSPropertyOp5
 70
     1
102
RTVSPropertyOp6
 70
     1
102
RTVSPropertyOp7
 70
     1
102
RTVSPropertyOp8
 70
     1
102
RTVSPropertyOp9
 70
     1
102
RTVSPropertyOp10
 70
     1
102
RTVSPropertyOp11
 70
     1
102
RTVSPropertyOp12
 70
     1
102
RTVSPropertyOp13
 70
     1
102
RTVSPropertyOp14
 70
     1
102
RTVSPropertyOp15
 70
     1
102
RTVSPropertyOp16
 70
     1
102
RTVSPropertyOp17
 70
     1
102
RTVSPropertyOp18
 70
     1
102
RTVSPropertyOp19
 70
     1
102
RTVSPropertyOp20
 70
     1
102
RTVSPropertyOp21
 70
     1
102
RTVSPropertyOp22
 70
     1
102
RTVSPropertyOp23
 70
     1
102
RTVSPropertyOp24
 70
     1
102
RTVSPropertyOp25
 70
     1
102
RTVSPropertyOp26
 70
     1
102
RTVSPropertyOp27
 70
     1
  0
XRECORD
  5
19E4
102
{ACAD_REACTORS
330
19E3
102
}
330
19E3
100
AcDbXrecord
280
     1
102
RTVSPropertyOp0
 70
     1
102
RTVSPropertyOp1
 70
     1
102
RTVSPropertyOp2
 70
     1
102
RTVSPropertyOp3
 70
     1
102
RTVSPropertyOp4
 70
     1
102
RTVSPropertyOp5
 70
     1
102
RTVSPropertyOp6
 70
     1
102
RTVSPropertyOp7
 70
     1
102
RTVSPropertyOp8
 70
     1
102
RTVSPropertyOp9
 70
     1
102
RTVSPropertyOp10
 70
     1
102
RTVSPropertyOp11
 70
     1
102
RTVSPropertyOp12
 70
     1
102
RTVSPropertyOp13
 70
     1
102
RTVSPropertyOp14
 70
     1
102
RTVSPropertyOp15
 70
     1
102
RTVSPropertyOp16
 70
     1
102
RTVSPropertyOp17
 70
     1
102
RTVSPropertyOp18
 70
     1
102
RTVSPropertyOp19
 70
     1
102
RTVSPropertyOp20
 70
     1
102
RTVSPropertyOp21
 70
     1
102
RTVSPropertyOp22
 70
     1
102
RTVSPropertyOp23
 70
     1
102
RTVSPropertyOp24
 70
     1
102
RTVSPropertyOp25
 70
     1
102
RTVSPropertyOp26
 70
     1
102
RTVSPropertyOp27
 70
     1
  0
XRECORD
  5
19E6
102
{ACAD_REACTORS
330
19E5
102
}
330
19E5
100
AcDbXrecord
280
     1
102
RTVSPropertyOp0
 70
     1
102
RTVSPropertyOp1
 70
     1
102
RTVSPropertyOp2
 70
     1
102
RTVSPropertyOp3
 70
     1
102
RTVSPropertyOp4
 70
     1
102
RTVSPropertyOp5
 70
     1
102
RTVSPropertyOp6
 70
     1
102
RTVSPropertyOp7
 70
     1
102
RTVSPropertyOp8
 70
     1
102
RTVSPropertyOp9
 70
     1
102
RTVSPropertyOp10
 70
     1
102
RTVSPropertyOp11
 70
     1
102
RTVSPropertyOp12
 70
     1
102
RTVSPropertyOp13
 70
     1
102
RTVSPropertyOp14
 70
     1
102
RTVSPropertyOp15
 70
     1
102
RTVSPropertyOp16
 70
     1
102
RTVSPropertyOp17
 70
     1
102
RTVSPropertyOp18
 70
     1
102
RTVSPropertyOp19
 70
     1
102
RTVSPropertyOp20
 70
     1
102
RTVSPropertyOp21
 70
     1
102
RTVSPropertyOp22
 70
     1
102
RTVSPropertyOp23
 70
     1
102
RTVSPropertyOp24
 70
     1
102
RTVSPropertyOp25
 70
     1
102
RTVSPropertyOp26
 70
     1
102
RTVSPropertyOp27
 70
     1
  0
XRECORD
  5
19E8
102
{ACAD_REACTORS
330
19E7
102
}
330
19E7
100
AcDbXrecord
280
     1
102
RTVSPropertyOp0
 70
     1
102
RTVSPropertyOp1
 70
     1
102
RTVSPropertyOp2
 70
     1
102
RTVSPropertyOp3
 70
     1
102
RTVSPropertyOp4
 70
     1
102
RTVSPropertyOp5
 70
     1
102
RTVSPropertyOp6
 70
     1
102
RTVSPropertyOp7
 70
     1
102
RTVSPropertyOp8
 70
     1
102
RTVSPropertyOp9
 70
     1
102
RTVSPropertyOp10
 70
     1
102
RTVSPropertyOp11
 70
     1
102
RTVSPropertyOp12
 70
     1
102
RTVSPropertyOp13
 70
     1
102
RTVSPropertyOp14
 70
     1
102
RTVSPropertyOp15
 70
     1
102
RTVSPropertyOp16
 70
     1
102
RTVSPropertyOp17
 70
     1
102
RTVSPropertyOp18
 70
     1
102
RTVSPropertyOp19
 70
     1
102
RTVSPropertyOp20
 70
     1
102
RTVSPropertyOp21
 70
     1
102
RTVSPropertyOp22
 70
     1
102
RTVSPropertyOp23
 70
     1
102
RTVSPropertyOp24
 70
     1
102
RTVSPropertyOp25
 70
     1
102
RTVSPropertyOp26
 70
     1
102
RTVSPropertyOp27
 70
     1
  0
XRECORD
  5
19EA
102
{ACAD_REACTORS
330
19E9
102
}
330
19E9
100
AcDbXrecord
280
     1
102
RTVSPropertyOp0
 70
     1
102
RTVSPropertyOp1
 70
     1
102
RTVSPropertyOp2
 70
     1
102
RTVSPropertyOp3
 70
     1
102
RTVSPropertyOp4
 70
     1
102
RTVSPropertyOp5
 70
     1
102
RTVSPropertyOp6
 70
     1
102
RTVSPropertyOp7
 70
     1
102
RTVSPropertyOp8
 70
     1
102
RTVSPropertyOp9
 70
     1
102
RTVSPropertyOp10
 70
     1
102
RTVSPropertyOp11
 70
     1
102
RTVSPropertyOp12
 70
     1
102
RTVSPropertyOp13
 70
     1
102
RTVSPropertyOp14
 70
     1
102
RTVSPropertyOp15
 70
     1
102
RTVSPropertyOp16
 70
     1
102
RTVSPropertyOp17
 70
     1
102
RTVSPropertyOp18
 70
     1
102
RTVSPropertyOp19
 70
     1
102
RTVSPropertyOp20
 70
     1
102
RTVSPropertyOp21
 70
     1
102
RTVSPropertyOp22
 70
     1
102
RTVSPropertyOp23
 70
     1
102
RTVSPropertyOp24
 70
     1
102
RTVSPropertyOp25
 70
     1
102
RTVSPropertyOp26
 70
     1
102
RTVSPropertyOp27
 70
     1
  0
XRECORD
  5
1A04
102
{ACAD_REACTORS
330
1A03
102
}
330
1A03
100
AcDbXrecord
280
     1
102
RTVSPropertyOp0
 70
     0
102
RTVSPropertyOp1
 70
     0
102
RTVSPropertyOp2
 70
     0
102
RTVSPropertyOp3
 70
     0
102
RTVSPropertyOp4
 70
     0
102
RTVSPropertyOp5
 70
     0
102
RTVSPropertyOp6
 70
     0
102
RTVSPropertyOp7
 70
     0
102
RTVSPropertyOp8
 70
     0
102
RTVSPropertyOp9
 70
     0
102
RTVSPropertyOp10
 70
     0
102
RTVSPropertyOp11
 70
     0
102
RTVSPropertyOp12
 70
     0
102
RTVSPropertyOp13
 70
     0
102
RTVSPropertyOp14
 70
     2
102
RTVSPropertyOp15
 70
     0
102
RTVSPropertyOp16
 70
     0
102
RTVSPropertyOp17
 70
     0
102
RTVSPropertyOp18
 70
     0
102
RTVSPropertyOp19
 70
     0
102
RTVSPropertyOp20
 70
     0
102
RTVSPropertyOp21
 70
     0
102
RTVSPropertyOp22
 70
     0
102
RTVSPropertyOp23
 70
     0
102
RTVSPropertyOp24
 70
     0
102
RTVSPropertyOp25
 70
     0
102
RTVSPropertyOp26
 70
     0
102
RTVSPropertyOp27
 70
     0
  0
XRECORD
  5
19FE
102
{ACAD_REACTORS
330
19FD
102
}
330
19FD
100
AcDbXrecord
280
     1
102
RTVSPropertyOp0
 70
     1
102
RTVSPropertyOp1
 70
     1
102
RTVSPropertyOp2
 70
     1
102
RTVSPropertyOp3
 70
     1
102
RTVSPropertyOp4
 70
     1
102
RTVSPropertyOp5
 70
     1
102
RTVSPropertyOp6
 70
     1
102
RTVSPropertyOp7
 70
     1
102
RTVSPropertyOp8
 70
     1
102
RTVSPropertyOp9
 70
     1
102
RTVSPropertyOp10
 70
     1
102
RTVSPropertyOp11
 70
     1
102
RTVSPropertyOp12
 70
     1
102
RTVSPropertyOp13
 70
     1
102
RTVSPropertyOp14
 70
     1
102
RTVSPropertyOp15
 70
     1
102
RTVSPropertyOp16
 70
     1
102
RTVSPropertyOp17
 70
     1
102
RTVSPropertyOp18
 70
     1
102
RTVSPropertyOp19
 70
     1
102
RTVSPropertyOp20
 70
     1
102
RTVSPropertyOp21
 70
     1
102
RTVSPropertyOp22
 70
     1
102
RTVSPropertyOp23
 70
     1
102
RTVSPropertyOp24
 70
     1
102
RTVSPropertyOp25
 70
     1
102
RTVSPropertyOp26
 70
     1
102
RTVSPropertyOp27
 70
     1
  0
XRECORD
  5
1A06
102
{ACAD_REACTORS
330
1A05
102
}
330
1A05
100
AcDbXrecord
280
     1
102
RTVSPropertyOp0
 70
     0
102
RTVSPropertyOp1
 70
     0
102
RTVSPropertyOp2
 70
     0
102
RTVSPropertyOp3
 70
     0
102
RTVSPropertyOp4
 70
     0
102
RTVSPropertyOp5
 70
     0
102
RTVSPropertyOp6
 70
     0
102
RTVSPropertyOp7
 70
     0
102
RTVSPropertyOp8
 70
     0
102
RTVSPropertyOp9
 70
     0
102
RTVSPropertyOp10
 70
     0
102
RTVSPropertyOp11
 70
     0
102
RTVSPropertyOp12
 70
     0
102
RTVSPropertyOp13
 70
     0
102
RTVSPropertyOp14
 70
     2
102
RTVSPropertyOp15
 70
     0
102
RTVSPropertyOp16
 70
     0
102
RTVSPropertyOp17
 70
     0
102
RTVSPropertyOp18
 70
     0
102
RTVSPropertyOp19
 70
     0
102
RTVSPropertyOp20
 70
     0
102
RTVSPropertyOp21
 70
     0
102
RTVSPropertyOp22
 70
     0
102
RTVSPropertyOp23
 70
     0
102
RTVSPropertyOp24
 70
     0
102
RTVSPropertyOp25
 70
     0
102
RTVSPropertyOp26
 70
     0
102
RTVSPropertyOp27
 70
     0
  0
XRECORD
  5
19F6
102
{ACAD_REACTORS
330
19F5
102
}
330
19F5
100
AcDbXrecord
280
     1
102
RTVSPropertyOp0
 70
     1
102
RTVSPropertyOp1
 70
     1
102
RTVSPropertyOp2
 70
     1
102
RTVSPropertyOp3
 70
     1
102
RTVSPropertyOp4
 70
     1
102
RTVSPropertyOp5
 70
     1
102
RTVSPropertyOp6
 70
     1
102
RTVSPropertyOp7
 70
     1
102
RTVSPropertyOp8
 70
     1
102
RTVSPropertyOp9
 70
     1
102
RTVSPropertyOp10
 70
     1
102
RTVSPropertyOp11
 70
     1
102
RTVSPropertyOp12
 70
     1
102
RTVSPropertyOp13
 70
     1
102
RTVSPropertyOp14
 70
     1
102
RTVSPropertyOp15
 70
     1
102
RTVSPropertyOp16
 70
     1
102
RTVSPropertyOp17
 70
     1
102
RTVSPropertyOp18
 70
     1
102
RTVSPropertyOp19
 70
     1
102
RTVSPropertyOp20
 70
     1
102
RTVSPropertyOp21
 70
     1
102
RTVSPropertyOp22
 70
     1
102
RTVSPropertyOp23
 70
     1
102
RTVSPropertyOp24
 70
     1
102
RTVSPropertyOp25
 70
     1
102
RTVSPropertyOp26
 70
     1
102
RTVSPropertyOp27
 70
     1
  0
XRECORD
  5
19FC
102
{ACAD_REACTORS
330
19FB
102
}
330
19FB
100
AcDbXrecord
280
     1
102
RTVSPropertyOp0
 70
     1
102
RTVSPropertyOp1
 70
     1
102
RTVSPropertyOp2
 70
     1
102
RTVSPropertyOp3
 70
     1
102
RTVSPropertyOp4
 70
     1
102
RTVSPropertyOp5
 70
     1
102
RTVSPropertyOp6
 70
     1
102
RTVSPropertyOp7
 70
     1
102
RTVSPropertyOp8
 70
     1
102
RTVSPropertyOp9
 70
     1
102
RTVSPropertyOp10
 70
     1
102
RTVSPropertyOp11
 70
     1
102
RTVSPropertyOp12
 70
     1
102
RTVSPropertyOp13
 70
     1
102
RTVSPropertyOp14
 70
     1
102
RTVSPropertyOp15
 70
     1
102
RTVSPropertyOp16
 70
     1
102
RTVSPropertyOp17
 70
     1
102
RTVSPropertyOp18
 70
     1
102
RTVSPropertyOp19
 70
     1
102
RTVSPropertyOp20
 70
     1
102
RTVSPropertyOp21
 70
     1
102
RTVSPropertyOp22
 70
     1
102
RTVSPropertyOp23
 70
     1
102
RTVSPropertyOp24
 70
     1
102
RTVSPropertyOp25
 70
     1
102
RTVSPropertyOp26
 70
     1
102
RTVSPropertyOp27
 70
     1
  0
ENDSEC
  0
EOF
