  0
SECTION
  2
HEADER
  9
$ACADVER
  1
AC1015
  9
$ACADMAINTVER
 70
    20
  9
$DWGCODEPAGE
  3
ANSI_1252
  9
$INSBASE
 10
0.0
 20
0.0
 30
0.0
  9
$EXTMIN
 10
5174.067558590962
 20
2637.709407523227
 30
0.0
  9
$EXTMAX
 10
5176.385254801535
 20
2638.209407523228
 30
0.0
  9
$LIMMIN
 10
0.0
 20
0.0
  9
$LIMMAX
 10
420.0
 20
297.0
  9
$ORTHOMODE
 70
     0
  9
$REGENMODE
 70
     1
  9
$FILLMODE
 70
     1
  9
$QTEXTMODE
 70
     0
  9
$MIRRTEXT
 70
     1
  9
$LTSCALE
 40
1.0
  9
$ATTMODE
 70
     1
  9
$TEXTSIZE
 40
2.5
  9
$TRACEWID
 40
1.0
  9
$TEXTSTYLE
  7
SANINDUSA
  9
$CLAYER
  8
0
  9
$CELTYPE
  6
ByLayer
  9
$CECOLOR
 62
   256
  9
$CELTSCALE
 40
1.0
  9
$DISPSILH
 70
     0
  9
$DIMSCALE
 40
1.0
  9
$DIMASZ
 40
2.0
  9
$DIMEXO
 40
1.0
  9
$DIMDLI
 40
1.0
  9
$DIMRND
 40
0.0
  9
$DIMDLE
 40
0.0
  9
$DIMEXE
 40
1.0
  9
$DIMTP
 40
0.0
  9
$DIMTM
 40
0.0
  9
$DIMTXT
 40
2.0
  9
$DIMCEN
 40
0.0
  9
$DIMTSZ
 40
0.0
  9
$DIMTOL
 70
     0
  9
$DIMLIM
 70
     0
  9
$DIMTIH
 70
     0
  9
$DIMTOH
 70
     0
  9
$DIMSE1
 70
     0
  9
$DIMSE2
 70
     0
  9
$DIMTAD
 70
     1
  9
$DIMZIN
 70
     8
  9
$DIMBLK
  1

  9
$DIMASO
 70
     1
  9
$DIMSHO
 70
     1
  9
$DIMPOST
  1

  9
$DIMAPOST
  1

  9
$DIMALT
 70
     0
  9
$DIMALTD
 70
     3
  9
$DIMALTF
 40
0.03937007874016
  9
$DIMLFAC
 40
1.0
  9
$DIMTOFL
 70
     1
  9
$DIMTVP
 40
0.0
  9
$DIMTIX
 70
     0
  9
$DIMSOXD
 70
     0
  9
$DIMSAH
 70
     0
  9
$DIMBLK1
  1

  9
$DIMBLK2
  1

  9
$DIMSTYLE
  2
SANINDUSA
  9
$DIMCLRD
 70
   256
  9
$DIMCLRE
 70
   256
  9
$DIMCLRT
 70
   256
  9
$DIMTFAC
 40
1.0
  9
$DIMGAP
 40
1.0
  9
$DIMJUST
 70
     0
  9
$DIMSD1
 70
     0
  9
$DIMSD2
 70
     0
  9
$DIMTOLJ
 70
     0
  9
$DIMTZIN
 70
     8
  9
$DIMALTZ
 70
     0
  9
$DIMALTTZ
 70
     0
  9
$DIMUPT
 70
     0
  9
$DIMDEC
 70
     1
  9
$DIMTDEC
 70
     1
  9
$DIMALTU
 70
     2
  9
$DIMALTTD
 70
     3
  9
$DIMTXSTY
  7
SANINDUSA
  9
$DIMAUNIT
 70
     0
  9
$DIMADEC
 70
     1
  9
$DIMALTRND
 40
0.0
  9
$DIMAZIN
 70
     0
  9
$DIMDSEP
 70
    44
  9
$DIMATFIT
 70
     3
  9
$DIMFRAC
 70
     0
  9
$DIMLDRBLK
  1

  9
$DIMLUNIT
 70
     2
  9
$DIMLWD
 70
    -1
  9
$DIMLWE
 70
    -1
  9
$DIMTMOVE
 70
     0
  9
$LUNITS
 70
     2
  9
$LUPREC
 70
     4
  9
$SKETCHINC
 40
1.0
  9
$FILLETRAD
 40
0.0
  9
$AUNITS
 70
     0
  9
$AUPREC
 70
     0
  9
$MENU
  1
.
  9
$ELEVATION
 40
0.0
  9
$PELEVATION
 40
0.0
  9
$THICKNESS
 40
0.0
  9
$LIMCHECK
 70
     0
  9
$CHAMFERA
 40
10.0
  9
$CHAMFERB
 40
10.0
  9
$CHAMFERC
 40
20.0
  9
$CHAMFERD
 40
0.0
  9
$SKPOLY
 70
     0
  9
$TDCREATE
 40
2455296.504750069
  9
$TDUCREATE
 40
2455296.463083403
  9
$TDUPDATE
 40
2455296.510366389
  9
$TDUUPDATE
 40
2455296.468699722
  9
$TDINDWG
 40
0.0056168634
  9
$TDUSRTIMER
 40
0.0056168634
  9
$USRTIMER
 70
     1
  9
$ANGBASE
 50
0.0
  9
$ANGDIR
 70
     0
  9
$PDMODE
 70
     0
  9
$PDSIZE
 40
0.0
  9
$PLINEWID
 40
0.0
  9
$SPLFRAME
 70
     0
  9
$SPLINETYPE
 70
     6
  9
$SPLINESEGS
 70
     8
  9
$HANDSEED
  5
1E72
  9
$SURFTAB1
 70
     6
  9
$SURFTAB2
 70
     6
  9
$SURFTYPE
 70
     6
  9
$SURFU
 70
     6
  9
$SURFV
 70
     6
  9
$UCSBASE
  2

  9
$UCSNAME
  2

  9
$UCSORG
 10
0.0
 20
0.0
 30
0.0
  9
$UCSXDIR
 10
1.0
 20
0.0
 30
0.0
  9
$UCSYDIR
 10
0.0
 20
1.0
 30
0.0
  9
$UCSORTHOREF
  2

  9
$UCSORTHOVIEW
 70
     0
  9
$UCSORGTOP
 10
0.0
 20
0.0
 30
0.0
  9
$UCSORGBOTTOM
 10
0.0
 20
0.0
 30
0.0
  9
$UCSORGLEFT
 10
0.0
 20
0.0
 30
0.0
  9
$UCSORGRIGHT
 10
0.0
 20
0.0
 30
0.0
  9
$UCSORGFRONT
 10
0.0
 20
0.0
 30
0.0
  9
$UCSORGBACK
 10
0.0
 20
0.0
 30
0.0
  9
$PUCSBASE
  2

  9
$PUCSNAME
  2

  9
$PUCSORG
 10
0.0
 20
0.0
 30
0.0
  9
$PUCSXDIR
 10
1.0
 20
0.0
 30
0.0
  9
$PUCSYDIR
 10
0.0
 20
1.0
 30
0.0
  9
$PUCSORTHOREF
  2

  9
$PUCSORTHOVIEW
 70
     0
  9
$PUCSORGTOP
 10
0.0
 20
0.0
 30
0.0
  9
$PUCSORGBOTTOM
 10
0.0
 20
0.0
 30
0.0
  9
$PUCSORGLEFT
 10
0.0
 20
0.0
 30
0.0
  9
$PUCSORGRIGHT
 10
0.0
 20
0.0
 30
0.0
  9
$PUCSORGFRONT
 10
0.0
 20
0.0
 30
0.0
  9
$PUCSORGBACK
 10
0.0
 20
0.0
 30
0.0
  9
$USERI1
 70
     0
  9
$USERI2
 70
     0
  9
$USERI3
 70
     0
  9
$USERI4
 70
     0
  9
$USERI5
 70
     0
  9
$USERR1
 40
0.0
  9
$USERR2
 40
0.0
  9
$USERR3
 40
0.0
  9
$USERR4
 40
0.0
  9
$USERR5
 40
0.0
  9
$WORLDVIEW
 70
     1
  9
$SHADEDGE
 70
     3
  9
$SHADEDIF
 70
    70
  9
$TILEMODE
 70
     1
  9
$MAXACTVP
 70
    64
  9
$PINSBASE
 10
0.0
 20
0.0
 30
0.0
  9
$PLIMCHECK
 70
     0
  9
$PEXTMIN
 10
1.000000000000000E+20
 20
1.000000000000000E+20
 30
1.000000000000000E+20
  9
$PEXTMAX
 10
-1.000000000000000E+20
 20
-1.000000000000000E+20
 30
-1.000000000000000E+20
  9
$PLIMMIN
 10
0.0
 20
0.0
  9
$PLIMMAX
 10
420.0
 20
297.0
  9
$UNITMODE
 70
     0
  9
$VISRETAIN
 70
     1
  9
$PLINEGEN
 70
     0
  9
$PSLTSCALE
 70
     1
  9
$TREEDEPTH
 70
  3020
  9
$CMLSTYLE
  2
Standard
  9
$CMLJUST
 70
     0
  9
$CMLSCALE
 40
20.0
  9
$PROXYGRAPHICS
 70
     1
  9
$MEASUREMENT
 70
     1
  9
$CELWEIGHT
370
    -1
  9
$ENDCAPS
280
     0
  9
$JOINSTYLE
280
     0
  9
$LWDISPLAY
290
     0
  9
$INSUNITS
 70
     4
  9
$HYPERLINKBASE
  1

  9
$STYLESHEET
  1
sanindusa.ctb
  9
$XEDIT
290
     1
  9
$CEPSNTYPE
380
     0
  9
$PSTYLEMODE
290
     1
  9
$FINGERPRINTGUID
  2
{0D72EF26-376E-4148-A7FD-5E3D7C3D27E2}
  9
$VERSIONGUID
  2
{5A7E284C-E5A3-4734-9FD0-356DC50B037D}
  9
$EXTNAMES
290
     1
  9
$PSVPSCALE
 40
0.0
  9
$OLESTARTUP
290
     0
  0
ENDSEC
  0
SECTION
  2
CLASSES
  0
CLASS
  1
ACDBDICTIONARYWDFLT
  2
AcDbDictionaryWithDefault
  3
ObjectDBX Classes
 90
        0
280
     0
281
     0
  0
CLASS
  1
ACDBPLACEHOLDER
  2
AcDbPlaceHolder
  3
ObjectDBX Classes
 90
        0
280
     0
281
     0
  0
CLASS
  1
LAYOUT
  2
AcDbLayout
  3
ObjectDBX Classes
 90
        0
280
     0
281
     0
  0
CLASS
  1
DICTIONARYVAR
  2
AcDbDictionaryVar
  3
ObjectDBX Classes
 90
        0
280
     0
281
     0
  0
CLASS
  1
DIMASSOC
  2
AcDbDimAssoc
  3
"AcDbDimAssoc|Product Desc:     AcDim ARX App For Dimension|Company:          Autodesk, Inc.|WEB Address:      www.autodesk.com"
 90
        0
280
     0
281
     0
  0
CLASS
  1
TABLESTYLE
  2
AcDbTableStyle
  3
ObjectDBX Classes
 90
     4095
280
     0
281
     0
  0
CLASS
  1
MATERIAL
  2
AcDbMaterial
  3
ObjectDBX Classes
 90
     1153
280
     0
281
     0
  0
CLASS
  1
VISUALSTYLE
  2
AcDbVisualStyle
  3
ObjectDBX Classes
 90
     4095
280
     0
281
     0
  0
CLASS
  1
SCALE
  2
AcDbScale
  3
ObjectDBX Classes
 90
     1153
280
     0
281
     0
  0
CLASS
  1
MLEADERSTYLE
  2
AcDbMLeaderStyle
  3
ACDB_MLEADERSTYLE_CLASS
 90
     4095
280
     0
281
     0
  0
CLASS
  1
SORTENTSTABLE
  2
AcDbSortentsTable
  3
ObjectDBX Classes
 90
        0
280
     0
281
     0
  0
CLASS
  1
AEC_REFEDIT_STATUS_TRACKER
  2
AecDbRefEditStatusTracker
  3
AecArchBase60|Product Desc: Autodesk Architectural Desktop 2007 |Company: Autodesk,Inc. |WEB Address: www.autodesk.com
 90
      129
280
     0
281
     0
  0
CLASS
  1
NPOCOLLECTION
  2
AcDbImpNonPersistentObjectsCollection
  3
ObjectDBX Classes
 90
     1153
280
     0
281
     0
  0
CLASS
  1
CELLSTYLEMAP
  2
AcDbCellStyleMap
  3
ObjectDBX Classes
 90
     1152
280
     0
281
     0
  0
ENDSEC
  0
SECTION
  2
TABLES
  0
TABLE
  2
VPORT
  5
8
330
0
100
AcDbSymbolTable
 70
     1
  0
VPORT
  5
1068
330
8
100
AcDbSymbolTableRecord
100
AcDbViewportTableRecord
  2
*Active
 70
     0
 10
0.0
 20
0.0
 11
1.0
 21
1.0
 12
5175.226406696249
 22
2637.959407523227
 13
0.0
 23
0.0
 14
10.0
 24
10.0
 15
10.0
 25
10.0
 16
0.0
 26
0.0
 36
1.0
 17
0.0
 27
0.0
 37
0.0
 40
1.422732657954848
 41
1.635233160621761
 42
50.0
 43
0.0
 44
0.0
 50
0.0
 51
0.0
 71
     0
 72
   100
 73
     1
 74
     2
 75
     0
 76
     0
 77
     0
 78
     0
281
     0
 65
     1
110
0.0
120
0.0
130
0.0
111
1.0
121
0.0
131
0.0
112
0.0
122
1.0
132
0.0
 79
     0
146
0.0
  0
ENDTAB
  0
TABLE
  2
LTYPE
  5
5
330
0
100
AcDbSymbolTable
 70
     6
  0
LTYPE
  5
14
330
5
100
AcDbSymbolTableRecord
100
AcDbLinetypeTableRecord
  2
ByBlock
 70
     0
  3

 72
    65
 73
     0
 40
0.0
  0
LTYPE
  5
15
330
5
100
AcDbSymbolTableRecord
100
AcDbLinetypeTableRecord
  2
ByLayer
 70
     0
  3

 72
    65
 73
     0
 40
0.0
  0
LTYPE
  5
16
330
5
100
AcDbSymbolTableRecord
100
AcDbLinetypeTableRecord
  2
Continuous
 70
     0
  3
Solid line
 72
    65
 73
     0
 40
0.0
  0
LTYPE
  5
2D
330
5
100
AcDbSymbolTableRecord
100
AcDbLinetypeTableRecord
  2
DASHDOT
 70
     0
  3
Dash dot __ . __ . __ . __ . __ . __ . __ . __
 72
    65
 73
     4
 40
25.4
 49
12.7
 74
     0
 49
-6.349999999999999
 74
     0
 49
0.0
 74
     0
 49
-6.349999999999999
 74
     0
  0
LTYPE
  5
2E
330
5
100
AcDbSymbolTableRecord
100
AcDbLinetypeTableRecord
  2
HIDDEN
 70
     0
  3
Hidden __ __ __ __ __ __ __ __ __ __ __ __ __ _
 72
    65
 73
     2
 40
9.524999999999998
 49
6.349999999999999
 74
     0
 49
-3.174999999999999
 74
     0
  0
LTYPE
  5
C75
330
5
100
AcDbSymbolTableRecord
100
AcDbLinetypeTableRecord
  2
AM_ISO02W050
 70
     0
  3
__ __ __ __ __ __ __ __ __ __ __ __ __ __ __
 72
    65
 73
     2
 40
7.5
 49
6.0
 74
     0
 49
-1.5
 74
     0
  0
LTYPE
  5
C76
330
5
100
AcDbSymbolTableRecord
100
AcDbLinetypeTableRecord
  2
AM_ISO08W050
 70
     0
  3
____ . ____ . ____ . ____ . ____ . ____ . ____
 72
    65
 73
     4
 40
18.0
 49
12.0
 74
     0
 49
-1.5
 74
     0
 49
3.0
 74
     0
 49
-1.5
 74
     0
  0
ENDTAB
  0
TABLE
  2
LAYER
  5
2
102
{ACAD_XDICTIONARY
360
1051
102
}
330
0
100
AcDbSymbolTable
 70
    17
  0
LAYER
  5
10
102
{ACAD_XDICTIONARY
360
1DC4
102
}
330
2
100
AcDbSymbolTableRecord
100
AcDbLayerTableRecord
  2
0
 70
     0
 62
     7
  6
Continuous
370
    -3
390
F
  0
LAYER
  5
2F
102
{ACAD_XDICTIONARY
360
1DC6
102
}
330
2
100
AcDbSymbolTableRecord
100
AcDbLayerTableRecord
  2
1
 70
     0
 62
     1
  6
Continuous
370
    -3
390
F
  0
LAYER
  5
30
102
{ACAD_XDICTIONARY
360
1DC8
102
}
330
2
100
AcDbSymbolTableRecord
100
AcDbLayerTableRecord
  2
2
 70
     0
 62
     2
  6
Continuous
370
    -3
390
F
  0
LAYER
  5
31
102
{ACAD_XDICTIONARY
360
1DCA
102
}
330
2
100
AcDbSymbolTableRecord
100
AcDbLayerTableRecord
  2
3
 70
     0
 62
     3
  6
Continuous
370
    -3
390
F
  0
LAYER
  5
32
102
{ACAD_XDICTIONARY
360
1DCC
102
}
330
2
100
AcDbSymbolTableRecord
100
AcDbLayerTableRecord
  2
4
 70
     0
 62
     4
  6
Continuous
370
    -3
390
F
  0
LAYER
  5
33
102
{ACAD_XDICTIONARY
360
1DCE
102
}
330
2
100
AcDbSymbolTableRecord
100
AcDbLayerTableRecord
  2
5
 70
     0
 62
     5
  6
Continuous
370
    -3
390
F
  0
LAYER
  5
34
102
{ACAD_XDICTIONARY
360
1DD0
102
}
330
2
100
AcDbSymbolTableRecord
100
AcDbLayerTableRecord
  2
6
 70
     0
 62
     6
  6
Continuous
370
    -3
390
F
  0
LAYER
  5
35
102
{ACAD_XDICTIONARY
360
1DD2
102
}
330
2
100
AcDbSymbolTableRecord
100
AcDbLayerTableRecord
  2
7
 70
     0
 62
     7
  6
Continuous
370
    -3
390
F
  0
LAYER
  5
36
102
{ACAD_XDICTIONARY
360
1DD4
102
}
330
2
100
AcDbSymbolTableRecord
100
AcDbLayerTableRecord
  2
cen
 70
     0
 62
     7
  6
DASHDOT
370
    -3
390
F
  0
LAYER
  5
37
102
{ACAD_XDICTIONARY
360
1DD6
102
}
330
2
100
AcDbSymbolTableRecord
100
AcDbLayerTableRecord
  2
hid
 70
     0
 62
     7
  6
HIDDEN
370
    -3
390
F
  0
LAYER
  5
5D6
102
{ACAD_XDICTIONARY
360
1DD8
102
}
330
2
100
AcDbSymbolTableRecord
100
AcDbLayerTableRecord
  2
hatch
 70
     0
 62
     9
  6
Continuous
370
    -3
390
F
  0
LAYER
  5
8AF
102
{ACAD_XDICTIONARY
360
1DDA
102
}
330
2
100
AcDbSymbolTableRecord
100
AcDbLayerTableRecord
  2
9
 70
     0
 62
     9
  6
Continuous
370
    -3
390
F
  0
LAYER
  5
8F8
102
{ACAD_XDICTIONARY
360
1DDC
102
}
330
2
100
AcDbSymbolTableRecord
100
AcDbLayerTableRecord
  2
leg fin
 70
     0
 62
     9
  6
Continuous
370
    -3
390
F
  0
LAYER
  5
91D
102
{ACAD_XDICTIONARY
360
1DDE
102
}
330
2
100
AcDbSymbolTableRecord
100
AcDbLayerTableRecord
  2
cotas
 70
     0
 62
     1
  6
Continuous
370
    -3
390
F
  0
LAYER
  5
92F
330
2
100
AcDbSymbolTableRecord
100
AcDbLayerTableRecord
  2
Defpoints
 70
     0
 62
     7
  6
Continuous
290
     0
370
    -3
390
F
  0
LAYER
  5
C7B
102
{ACAD_XDICTIONARY
360
1DE0
102
}
330
2
100
AcDbSymbolTableRecord
100
AcDbLayerTableRecord
  2
SANINDUSA
 70
     0
 62
     3
  6
Continuous
370
    -3
390
F
  0
LAYER
  5
1060
102
{ACAD_XDICTIONARY
360
1DE2
102
}
330
2
100
AcDbSymbolTableRecord
100
AcDbLayerTableRecord
  2
hid1
 70
     0
 62
     9
  6
HIDDEN
370
    -3
390
F
1001
AcAecLayerStandard
1000

1000

  0
ENDTAB
  0
TABLE
  2
STYLE
  5
3
330
0
100
AcDbSymbolTable
 70
     4
  0
STYLE
  5
11
330
3
100
AcDbSymbolTableRecord
100
AcDbTextStyleTableRecord
  2
Standard
 70
     0
 40
0.0
 41
1.0
 50
0.0
 71
     0
 42
2.5
  3
Avgardn.ttf
  4

1001
ACAD
1000
AvantGarde Bk BT
1071
       34
  0
STYLE
  5
2C
330
3
100
AcDbSymbolTableRecord
100
AcDbTextStyleTableRecord
  2

 70
     1
 40
0.0
 41
1.0
 50
0.0
 71
     0
 42
2.5
  3
ltypeshp.shx
  4

  0
STYLE
  5
91F
330
3
100
AcDbSymbolTableRecord
100
AcDbTextStyleTableRecord
  2
SANINDUSA
 70
     0
 40
0.0
 41
1.0
 50
0.0
 71
     0
 42
2.5
  3
verdana.TTF
  4

1001
ACAD
1000
Verdana
1071
       34
  0
STYLE
  5
C7C
330
3
100
AcDbSymbolTableRecord
100
AcDbTextStyleTableRecord
  2
futura
 70
     0
 40
0.0
 41
1.0
 50
0.0
 71
     0
 42
2.5
  3
ZURCHN.TTF
  4

1001
ACAD
1000
Zurich BT
1071
       34
  0
ENDTAB
  0
TABLE
  2
VIEW
  5
6
330
0
100
AcDbSymbolTable
 70
     0
  0
ENDTAB
  0
TABLE
  2
UCS
  5
7
330
0
100
AcDbSymbolTable
 70
     0
  0
ENDTAB
  0
TABLE
  2
APPID
  5
9
330
0
100
AcDbSymbolTable
 70
    12
  0
APPID
  5
12
330
9
100
AcDbSymbolTableRecord
100
AcDbRegAppTableRecord
  2
ACAD
 70
     0
  0
APPID
  5
3A
330
9
100
AcDbSymbolTableRecord
100
AcDbRegAppTableRecord
  2
DCO15
 70
     0
  0
APPID
  5
EEE
330
9
100
AcDbSymbolTableRecord
100
AcDbRegAppTableRecord
  2
ACAD_DSTYLE_DIMTEXT_FILL
 70
     0
  0
APPID
  5
EEF
330
9
100
AcDbSymbolTableRecord
100
AcDbRegAppTableRecord
  2
ACAD_DSTYLE_DIMEXT_LENGTH
 70
     0
  0
APPID
  5
EF0
330
9
100
AcDbSymbolTableRecord
100
AcDbRegAppTableRecord
  2
ACAD_DSTYLE_DIMEXT_ENABLED
 70
     0
  0
APPID
  5
EF1
330
9
100
AcDbSymbolTableRecord
100
AcDbRegAppTableRecord
  2
ACAD_DSTYLE_DIM_LINETYPE
 70
     0
  0
APPID
  5
EF2
330
9
100
AcDbSymbolTableRecord
100
AcDbRegAppTableRecord
  2
ACAD_DSTYLE_DIM_EXT1_LINETYPE
 70
     0
  0
APPID
  5
EF3
330
9
100
AcDbSymbolTableRecord
100
AcDbRegAppTableRecord
  2
ACAD_DSTYLE_DIM_EXT2_LINETYPE
 70
     0
  0
APPID
  5
FAF
330
9
100
AcDbSymbolTableRecord
100
AcDbRegAppTableRecord
  2
ACAD_DSTYLE_DIMJOGGED_JOGANGLE_SYMBOL
 70
     0
  0
APPID
  5
1013
330
9
100
AcDbSymbolTableRecord
100
AcDbRegAppTableRecord
  2
ACAD_DSTYLE_DIMARC_LENGTH_SYMBOL
 70
     0
  0
APPID
  5
1061
330
9
100
AcDbSymbolTableRecord
100
AcDbRegAppTableRecord
  2
AcAecLayerStandard
 70
     0
  0
APPID
  5
1E67
330
9
100
AcDbSymbolTableRecord
100
AcDbRegAppTableRecord
  2
ACAD_MLEADERVER
 70
     0
  0
ENDTAB
  0
TABLE
  2
DIMSTYLE
  5
A
330
0
100
AcDbSymbolTable
 70
     4
100
AcDbDimStyleTable
 71
     1
340
921
  0
DIMSTYLE
105
45
330
A
100
AcDbSymbolTableRecord
100
AcDbDimStyleTableRecord
  2
STANDARD
 70
     0
289
     0
340
11
  0
DIMSTYLE
105
921
330
A
100
AcDbSymbolTableRecord
100
AcDbDimStyleTableRecord
  2
SANINDUSA
 70
     0
 41
2.0
 42
1.0
 43
1.0
 44
1.0
 73
     0
 74
     0
 77
     1
 78
     8
140
2.0
141
0.0
143
0.03937007874016
147
1.0
171
     3
172
     1
176
   256
177
   256
178
   256
179
     1
271
     1
272
     1
274
     3
278
    44
283
     0
284
     8
340
91F
371
    -1
372
    -1
1001
ACAD_DSTYLE_DIMJOGGED_JOGANGLE_SYMBOL
1070
   384
1040
1.570796326794896
  0
DIMSTYLE
105
C7D
330
A
100
AcDbSymbolTableRecord
100
AcDbDimStyleTableRecord
  2
AM_ISO
 70
     0
  4
"
 41
2.5
 42
1.0
 43
10.0
 44
1.0
 47
0.1
 48
0.1
 73
     0
 74
     0
 77
     1
 78
     8
 79
     2
140
3.5
141
0.0
143
0.0393701
146
0.71
147
1.5
172
     1
176
   256
177
   256
178
     2
271
     2
272
     3
274
     4
283
     0
284
     8
340
11
371
    -1
372
    -1
  0
ENDTAB
  0
TABLE
  2
BLOCK_RECORD
  5
1
330
0
100
AcDbSymbolTable
 70
   101
  0
BLOCK_RECORD
  5
1F
330
1
100
AcDbSymbolTableRecord
100
AcDbBlockTableRecord
  2
*Model_Space
340
22
  0
BLOCK_RECORD
  5
1B
330
1
100
AcDbSymbolTableRecord
100
AcDbBlockTableRecord
  2
*Paper_Space
340
1E
  0
BLOCK_RECORD
  5
23
330
1
100
AcDbSymbolTableRecord
100
AcDbBlockTableRecord
  2
*Paper_Space0
340
26
  0
BLOCK_RECORD
  5
919
330
1
100
AcDbSymbolTableRecord
100
AcDbBlockTableRecord
  2
_DotSmall
340
0
  0
BLOCK_RECORD
  5
922
330
1
100
AcDbSymbolTableRecord
100
AcDbBlockTableRecord
  2
base para cotas
340
0
310
2800000020000000200000000100080000000000000400000000000000000000000000000000000000000000000080000080000000808000800000008000800080800000C0C0C000C0DCC000F0CAA6000020400000206000002080000020A0000020C0000020E00000400000004020000040400000406000004080000040A0
310
000040C0000040E00000600000006020000060400000606000006080000060A0000060C0000060E00000800000008020000080400000806000008080000080A0000080C0000080E00000A0000000A0200000A0400000A0600000A0800000A0A00000A0C00000A0E00000C0000000C0200000C0400000C0600000C0800000C0
310
A00000C0C00000C0E00000E0000000E0200000E0400000E0600000E0800000E0A00000E0C00000E0E00040000000400020004000400040006000400080004000A0004000C0004000E00040200000402020004020400040206000402080004020A0004020C0004020E000404000004040200040404000404060004040800040
310
40A0004040C0004040E00040600000406020004060400040606000406080004060A0004060C0004060E00040800000408020004080400040806000408080004080A0004080C0004080E00040A0000040A0200040A0400040A0600040A0800040A0A00040A0C00040A0E00040C0000040C0200040C0400040C0600040C08000
310
40C0A00040C0C00040C0E00040E0000040E0200040E0400040E0600040E0800040E0A00040E0C00040E0E00080000000800020008000400080006000800080008000A0008000C0008000E00080200000802020008020400080206000802080008020A0008020C0008020E00080400000804020008040400080406000804080
310
008040A0008040C0008040E00080600000806020008060400080606000806080008060A0008060C0008060E00080800000808020008080400080806000808080008080A0008080C0008080E00080A0000080A0200080A0400080A0600080A0800080A0A00080A0C00080A0E00080C0000080C0200080C0400080C0600080C0
310
800080C0A00080C0C00080C0E00080E0000080E0200080E0400080E0600080E0800080E0A00080E0C00080E0E000C0000000C0002000C0004000C0006000C0008000C000A000C000C000C000E000C0200000C0202000C0204000C0206000C0208000C020A000C020C000C020E000C0400000C0402000C0404000C0406000C0
310
408000C040A000C040C000C040E000C0600000C0602000C0604000C0606000C0608000C060A000C060C000C060E000C0800000C0802000C0804000C0806000C0808000C080A000C080C000C080E000C0A00000C0A02000C0A04000C0A06000C0A08000C0A0A000C0A0C000C0A0E000C0C00000C0C02000C0C04000C0C06000
310
C0C08000C0C0A000F0FBFF00A4A0A000808080000000FF0000FF000000FFFF00FF000000FF00FF00FFFF0000FFFFFF00A4A4A4A4A4A4A4A4A4A4A4A4A4A4A4A4A4A4A4A4A4A4A4A4A4A4A4A4A4A4A4A4A4A4A4A4A4A4A4A4A4A4A4A4A4A4A4A4A4A4A4A4A4A4A4A4A4A4A4A4A4A4A4A4A4A4A4A4A4A4A4A4A4A4A4A4A4A4A4
310
A4A4A4A4A4A4A4A4A4A4A4A4A4A4A4A4A4A4A4A4A4A4A4A4A4A4A4A4A4A4A4A4A4A4A4A4A4A4A4A4A4A4A4A4A4A4A4A4A4A4A4A4A4A4A4A4A4A4A4A4A4A4A4A4A4A4A4A4A4A4A4A4A4A4A4A4A4A4A4A4A4A4A4A4A4A4A4A4A4A4A4A4A4A4A4A4A4A4A4A4A4A4A4A4A4A4A4A4A4A4A4A4A4A4A4A4A4A4A4A4A4A4A4A4A4A4A4
310
A4A4A4A4A4A4A4A4A4A4A4A4A4A4A4A4A4A4A4A4A4A4A4A4A4A4A4A4A4A4A4A4A4A4A4A4A4A4A4A4A4A4A4A4A4A4A4A4A4A4A4A4A4A4A4A4A4A4A4A4A4A4A4A4A4A4A4A4A4A4A4A4A4A4A4A4A4A4A4A4A4A4A4A4A4A4A4A4A4A4A4A4A4A4A4A4A4A4A4A4A4A4A4A4A4A4A4A4A4A4A4A4A4A4A4A4A4A4A4A4A4A4A4A4A4A4A4
310
A4A4A4A4A4A4A4A4A4A4A4A4A4A4A4A4A4A4A4A4A4A4A4A4A4A4A4A4A4A4A4A4A4A4A4A4A4A4A4A4A4A4A4A4A4A4A4A4A4A4A4A4A4A4A4A4A4A4A4A4A4A4A4A4A4A4A4A4A4A4A4A4A4A4A4A4A4A4A4A4A4A4A4A4A4A4A4A4A4A4A4A4A4A4A4A4A4A4A4A4A4A4A4A4A4A4A4A4A4A4A4A4A4A4A4A4F9F9F9F9F9F9F9F9F9F9F9
310
F9F9F9F9F9F9F9F9F9F9F9F9F9F9F9F9F9F9F9A4A4F9F9F9F9F9F9F9F9F9F9F9F9F9F9F9F9F9F9F9F9F9F9F9F9F9F9F9F9F9F9A4A4F9F9F9F9F9F9F9F9F9F9F9F9F9F9F9F9F9F9F9F9F9F9F9F9F9F9F9F9F9F9A4A4F9A4A4A4A4A4A4A4A4A4A4A4A4A4A4A4A4A4A4A4A4A4A4A4A4A4A4A4A4F9A4A4A4A4A4A4A4A4A4A4A4A4
310
A4A4A4A4A4A4A4A4A4A4A4A4A4A4A4A4A4A4A4A4A4A4A4A4A4A4A4A4A4A4A4A4A4A4A4A4A4A4A4A4A4A4A4A4A4A4A4A4A4A4A4A4A4A4A4A4A4A4A4A4A4A4A4A4A4A4A4A4A4A4A4A4A4A4A4A4A4A4A4A4A4A4A4A4A4A4A4A4A4A4A4A4A4A4A4A4A4A4A4A4A4A4A4A4A4A4A4A4A4A4A4A4A4A4A4A4A4A4A4A4A4A4A4A4A4A4A4
310
A4A4A4A4A4A4A4A4A4A4A4A4A4A4A4A4A4A4A4A4A4A4A4A4A4A4A4A4A4A4A4A4A4A4A4A4A4A4A4A4A4A4A4A4A4A4A4A4A4A4A4A4A4A4A4A4A4A4A4A4A4A4A4A4A4A4A4A4A4A4A4A4A4A4A4A4A4A4A4A4A4A4A4A4A4A4A4A4A4A4A4A4A4A4A4A4A4A4A4A4A4A4A4A4A4A4A4A4A4A4A4A4A4A4A4A4A4A4A4A4A4A4A4A4A4A4A4
310
A4A4A4A4A4A4A4A4A4A4A4A4A4A4A4A4A4A4A4A4A4A4A4A4A4A4A4A4A4A4A4A4A4A4A4A4A4A4A4A4A4A4A4A4A4A4A4A4A4A4A4A4A4A4A4A4A4A4A4A4A4A4A4A4A4A4A4A4A4A4A4A4A4A4A4A4A4A4A4A4A4A4A4A4A4A4A4A4A4A4A4A4A4A4A4A4A4A4A4A4A4A4A4A4A4A4A4A4A4A4A4A4A4A4A4A4A4A4A4A4A4A4A4A4A4A4A4
310
A4A4A4A4A4A4A4A4A4A4A4A4A4A4A4A4A4A4A4A4A4A4A4A4A4A4A4A4A4A4A4A4A4A4A4A4A4A4A4A4A4A4A4A4A4A4A4A4A4A4A4A4A4A4A4A4
1001
ACAD
1000
DesignCenter Data
1002
{
1070
     1
1070
     4
1002
}
  0
BLOCK_RECORD
  5
AA8
330
1
100
AcDbSymbolTableRecord
100
AcDbBlockTableRecord
  2
_CLOSED
340
0
  0
BLOCK_RECORD
  5
B79
330
1
100
AcDbSymbolTableRecord
100
AcDbBlockTableRecord
  2
nota revisoes
340
0
1001
ACAD
1000
DesignCenter Data
1002
{
1070
     1
1070
     4
1002
}
  0
BLOCK_RECORD
  5
B8E
330
1
100
AcDbSymbolTableRecord
100
AcDbBlockTableRecord
  2
a3l
340
0
1001
ACAD
1000
DesignCenter Data
1002
{
1070
     1
1070
     4
1002
}
  0
BLOCK_RECORD
  5
B9E
330
1
100
AcDbSymbolTableRecord
100
AcDbBlockTableRecord
  2
legenda desenvolvimento
340
0
1001
ACAD
1000
DesignCenter Data
1002
{
1070
     1
1070
     4
1002
}
  0
BLOCK_RECORD
  5
10B3
330
1
100
AcDbSymbolTableRecord
100
AcDbBlockTableRecord
  2
*D7
340
0
  0
BLOCK_RECORD
  5
10BF
330
1
100
AcDbSymbolTableRecord
100
AcDbBlockTableRecord
  2
*D8
340
0
  0
BLOCK_RECORD
  5
10CB
330
1
100
AcDbSymbolTableRecord
100
AcDbBlockTableRecord
  2
*D9
340
0
  0
BLOCK_RECORD
  5
10D7
330
1
100
AcDbSymbolTableRecord
100
AcDbBlockTableRecord
  2
*D10
340
0
  0
BLOCK_RECORD
  5
10E3
330
1
100
AcDbSymbolTableRecord
100
AcDbBlockTableRecord
  2
*D11
340
0
  0
BLOCK_RECORD
  5
10EB
330
1
100
AcDbSymbolTableRecord
100
AcDbBlockTableRecord
  2
*D12
340
0
  0
BLOCK_RECORD
  5
10F3
330
1
100
AcDbSymbolTableRecord
100
AcDbBlockTableRecord
  2
*D13
340
0
  0
BLOCK_RECORD
  5
10FB
330
1
100
AcDbSymbolTableRecord
100
AcDbBlockTableRecord
  2
*D14
340
0
  0
BLOCK_RECORD
  5
1103
330
1
100
AcDbSymbolTableRecord
100
AcDbBlockTableRecord
  2
*D15
340
0
  0
BLOCK_RECORD
  5
110F
330
1
100
AcDbSymbolTableRecord
100
AcDbBlockTableRecord
  2
*D16
340
0
  0
BLOCK_RECORD
  5
111B
330
1
100
AcDbSymbolTableRecord
100
AcDbBlockTableRecord
  2
*D17
340
0
  0
BLOCK_RECORD
  5
1127
330
1
100
AcDbSymbolTableRecord
100
AcDbBlockTableRecord
  2
*D18
340
0
  0
BLOCK_RECORD
  5
1133
330
1
100
AcDbSymbolTableRecord
100
AcDbBlockTableRecord
  2
*D19
340
0
  0
BLOCK_RECORD
  5
1141
330
1
100
AcDbSymbolTableRecord
100
AcDbBlockTableRecord
  2
*D20
340
0
  0
BLOCK_RECORD
  5
1149
330
1
100
AcDbSymbolTableRecord
100
AcDbBlockTableRecord
  2
*D21
340
0
  0
BLOCK_RECORD
  5
1155
330
1
100
AcDbSymbolTableRecord
100
AcDbBlockTableRecord
  2
*D22
340
0
  0
BLOCK_RECORD
  5
1161
330
1
100
AcDbSymbolTableRecord
100
AcDbBlockTableRecord
  2
*D23
340
0
  0
BLOCK_RECORD
  5
1169
330
1
100
AcDbSymbolTableRecord
100
AcDbBlockTableRecord
  2
*D24
340
0
  0
BLOCK_RECORD
  5
1171
330
1
100
AcDbSymbolTableRecord
100
AcDbBlockTableRecord
  2
*D25
340
0
  0
BLOCK_RECORD
  5
117A
330
1
100
AcDbSymbolTableRecord
100
AcDbBlockTableRecord
  2
*D26
340
0
  0
BLOCK_RECORD
  5
1183
330
1
100
AcDbSymbolTableRecord
100
AcDbBlockTableRecord
  2
*D27
340
0
  0
BLOCK_RECORD
  5
118F
330
1
100
AcDbSymbolTableRecord
100
AcDbBlockTableRecord
  2
*D28
340
0
  0
BLOCK_RECORD
  5
119B
330
1
100
AcDbSymbolTableRecord
100
AcDbBlockTableRecord
  2
*D29
340
0
  0
BLOCK_RECORD
  5
11A7
330
1
100
AcDbSymbolTableRecord
100
AcDbBlockTableRecord
  2
*D30
340
0
  0
BLOCK_RECORD
  5
11B5
330
1
100
AcDbSymbolTableRecord
100
AcDbBlockTableRecord
  2
*D31
340
0
  0
BLOCK_RECORD
  5
11C1
330
1
100
AcDbSymbolTableRecord
100
AcDbBlockTableRecord
  2
*D32
340
0
  0
BLOCK_RECORD
  5
11CD
330
1
100
AcDbSymbolTableRecord
100
AcDbBlockTableRecord
  2
*D33
340
0
  0
BLOCK_RECORD
  5
11DB
330
1
100
AcDbSymbolTableRecord
100
AcDbBlockTableRecord
  2
*D34
340
0
  0
BLOCK_RECORD
  5
11E7
330
1
100
AcDbSymbolTableRecord
100
AcDbBlockTableRecord
  2
*D35
340
0
  0
BLOCK_RECORD
  5
11F3
330
1
100
AcDbSymbolTableRecord
100
AcDbBlockTableRecord
  2
*D36
340
0
  0
BLOCK_RECORD
  5
11FF
330
1
100
AcDbSymbolTableRecord
100
AcDbBlockTableRecord
  2
*D37
340
0
  0
BLOCK_RECORD
  5
120D
330
1
100
AcDbSymbolTableRecord
100
AcDbBlockTableRecord
  2
*D38
340
0
  0
BLOCK_RECORD
  5
121B
330
1
100
AcDbSymbolTableRecord
100
AcDbBlockTableRecord
  2
*D39
340
0
  0
BLOCK_RECORD
  5
1223
330
1
100
AcDbSymbolTableRecord
100
AcDbBlockTableRecord
  2
*D40
340
0
  0
BLOCK_RECORD
  5
122B
330
1
100
AcDbSymbolTableRecord
100
AcDbBlockTableRecord
  2
*D41
340
0
  0
BLOCK_RECORD
  5
1239
330
1
100
AcDbSymbolTableRecord
100
AcDbBlockTableRecord
  2
*D42
340
0
  0
BLOCK_RECORD
  5
1247
330
1
100
AcDbSymbolTableRecord
100
AcDbBlockTableRecord
  2
*D43
340
0
  0
BLOCK_RECORD
  5
124F
330
1
100
AcDbSymbolTableRecord
100
AcDbBlockTableRecord
  2
*D44
340
0
  0
BLOCK_RECORD
  5
1257
330
1
100
AcDbSymbolTableRecord
100
AcDbBlockTableRecord
  2
*D45
340
0
  0
BLOCK_RECORD
  5
1265
330
1
100
AcDbSymbolTableRecord
100
AcDbBlockTableRecord
  2
*D46
340
0
  0
BLOCK_RECORD
  5
1273
330
1
100
AcDbSymbolTableRecord
100
AcDbBlockTableRecord
  2
*D47
340
0
  0
BLOCK_RECORD
  5
1281
330
1
100
AcDbSymbolTableRecord
100
AcDbBlockTableRecord
  2
*D48
340
0
  0
BLOCK_RECORD
  5
128A
330
1
100
AcDbSymbolTableRecord
100
AcDbBlockTableRecord
  2
*D49
340
0
  0
BLOCK_RECORD
  5
14E4
330
1
100
AcDbSymbolTableRecord
100
AcDbBlockTableRecord
  2
*D51
340
0
  0
BLOCK_RECORD
  5
14F0
330
1
100
AcDbSymbolTableRecord
100
AcDbBlockTableRecord
  2
*D52
340
0
  0
BLOCK_RECORD
  5
14FC
330
1
100
AcDbSymbolTableRecord
100
AcDbBlockTableRecord
  2
*D53
340
0
  0
BLOCK_RECORD
  5
1508
330
1
100
AcDbSymbolTableRecord
100
AcDbBlockTableRecord
  2
*D54
340
0
  0
BLOCK_RECORD
  5
1514
330
1
100
AcDbSymbolTableRecord
100
AcDbBlockTableRecord
  2
*D55
340
0
  0
BLOCK_RECORD
  5
1522
330
1
100
AcDbSymbolTableRecord
100
AcDbBlockTableRecord
  2
*D56
340
0
  0
BLOCK_RECORD
  5
152A
330
1
100
AcDbSymbolTableRecord
100
AcDbBlockTableRecord
  2
*D57
340
0
  0
BLOCK_RECORD
  5
1536
330
1
100
AcDbSymbolTableRecord
100
AcDbBlockTableRecord
  2
*D58
340
0
  0
BLOCK_RECORD
  5
1542
330
1
100
AcDbSymbolTableRecord
100
AcDbBlockTableRecord
  2
*D59
340
0
  0
BLOCK_RECORD
  5
154A
330
1
100
AcDbSymbolTableRecord
100
AcDbBlockTableRecord
  2
*D60
340
0
  0
BLOCK_RECORD
  5
1552
330
1
100
AcDbSymbolTableRecord
100
AcDbBlockTableRecord
  2
*D61
340
0
  0
BLOCK_RECORD
  5
155B
330
1
100
AcDbSymbolTableRecord
100
AcDbBlockTableRecord
  2
*D62
340
0
  0
BLOCK_RECORD
  5
1564
330
1
100
AcDbSymbolTableRecord
100
AcDbBlockTableRecord
  2
*D63
340
0
  0
BLOCK_RECORD
  5
1570
330
1
100
AcDbSymbolTableRecord
100
AcDbBlockTableRecord
  2
*D64
340
0
  0
BLOCK_RECORD
  5
157C
330
1
100
AcDbSymbolTableRecord
100
AcDbBlockTableRecord
  2
*D65
340
0
  0
BLOCK_RECORD
  5
1588
330
1
100
AcDbSymbolTableRecord
100
AcDbBlockTableRecord
  2
*D66
340
0
  0
BLOCK_RECORD
  5
1594
330
1
100
AcDbSymbolTableRecord
100
AcDbBlockTableRecord
  2
*D67
340
0
  0
BLOCK_RECORD
  5
15A0
330
1
100
AcDbSymbolTableRecord
100
AcDbBlockTableRecord
  2
*D68
340
0
  0
BLOCK_RECORD
  5
15AC
330
1
100
AcDbSymbolTableRecord
100
AcDbBlockTableRecord
  2
*D69
340
0
  0
BLOCK_RECORD
  5
15BA
330
1
100
AcDbSymbolTableRecord
100
AcDbBlockTableRecord
  2
*D70
340
0
  0
BLOCK_RECORD
  5
15C6
330
1
100
AcDbSymbolTableRecord
100
AcDbBlockTableRecord
  2
*D71
340
0
  0
BLOCK_RECORD
  5
15D2
330
1
100
AcDbSymbolTableRecord
100
AcDbBlockTableRecord
  2
*D72
340
0
  0
BLOCK_RECORD
  5
15DE
330
1
100
AcDbSymbolTableRecord
100
AcDbBlockTableRecord
  2
*D73
340
0
  0
BLOCK_RECORD
  5
15EC
330
1
100
AcDbSymbolTableRecord
100
AcDbBlockTableRecord
  2
*D74
340
0
  0
BLOCK_RECORD
  5
15FA
330
1
100
AcDbSymbolTableRecord
100
AcDbBlockTableRecord
  2
*D75
340
0
  0
BLOCK_RECORD
  5
1602
330
1
100
AcDbSymbolTableRecord
100
AcDbBlockTableRecord
  2
*D76
340
0
  0
BLOCK_RECORD
  5
160A
330
1
100
AcDbSymbolTableRecord
100
AcDbBlockTableRecord
  2
*D77
340
0
  0
BLOCK_RECORD
  5
1613
330
1
100
AcDbSymbolTableRecord
100
AcDbBlockTableRecord
  2
*D78
340
0
  0
BLOCK_RECORD
  5
161C
330
1
100
AcDbSymbolTableRecord
100
AcDbBlockTableRecord
  2
*D79
340
0
  0
BLOCK_RECORD
  5
1628
330
1
100
AcDbSymbolTableRecord
100
AcDbBlockTableRecord
  2
*D80
340
0
  0
BLOCK_RECORD
  5
1634
330
1
100
AcDbSymbolTableRecord
100
AcDbBlockTableRecord
  2
*D81
340
0
  0
BLOCK_RECORD
  5
1640
330
1
100
AcDbSymbolTableRecord
100
AcDbBlockTableRecord
  2
*D82
340
0
  0
BLOCK_RECORD
  5
164C
330
1
100
AcDbSymbolTableRecord
100
AcDbBlockTableRecord
  2
*D83
340
0
  0
BLOCK_RECORD
  5
1654
330
1
100
AcDbSymbolTableRecord
100
AcDbBlockTableRecord
  2
*D84
340
0
  0
BLOCK_RECORD
  5
165C
330
1
100
AcDbSymbolTableRecord
100
AcDbBlockTableRecord
  2
*D85
340
0
  0
BLOCK_RECORD
  5
1664
330
1
100
AcDbSymbolTableRecord
100
AcDbBlockTableRecord
  2
*D86
340
0
  0
BLOCK_RECORD
  5
1744
330
1
100
AcDbSymbolTableRecord
100
AcDbBlockTableRecord
  2
*D87
340
0
  0
BLOCK_RECORD
  5
1752
330
1
100
AcDbSymbolTableRecord
100
AcDbBlockTableRecord
  2
*D88
340
0
  0
BLOCK_RECORD
  5
1760
330
1
100
AcDbSymbolTableRecord
100
AcDbBlockTableRecord
  2
*D89
340
0
  0
BLOCK_RECORD
  5
1768
330
1
100
AcDbSymbolTableRecord
100
AcDbBlockTableRecord
  2
*D90
340
0
  0
BLOCK_RECORD
  5
1770
330
1
100
AcDbSymbolTableRecord
100
AcDbBlockTableRecord
  2
*D91
340
0
  0
BLOCK_RECORD
  5
177E
330
1
100
AcDbSymbolTableRecord
100
AcDbBlockTableRecord
  2
*D92
340
0
  0
BLOCK_RECORD
  5
178C
330
1
100
AcDbSymbolTableRecord
100
AcDbBlockTableRecord
  2
*D93
340
0
  0
BLOCK_RECORD
  5
17FC
330
1
100
AcDbSymbolTableRecord
100
AcDbBlockTableRecord
  2
*D94
340
0
  0
BLOCK_RECORD
  5
1808
330
1
100
AcDbSymbolTableRecord
100
AcDbBlockTableRecord
  2
*D95
340
0
  0
BLOCK_RECORD
  5
1814
330
1
100
AcDbSymbolTableRecord
100
AcDbBlockTableRecord
  2
*D96
340
0
  0
BLOCK_RECORD
  5
1822
330
1
100
AcDbSymbolTableRecord
100
AcDbBlockTableRecord
  2
*D97
340
0
  0
BLOCK_RECORD
  5
182A
330
1
100
AcDbSymbolTableRecord
100
AcDbBlockTableRecord
  2
*D98
340
0
  0
BLOCK_RECORD
  5
1832
330
1
100
AcDbSymbolTableRecord
100
AcDbBlockTableRecord
  2
*D99
340
0
  0
ENDTAB
  0
ENDSEC
  0
SECTION
  2
BLOCKS
  0
BLOCK
  5
20
330
1F
100
AcDbEntity
  8
0
100
AcDbBlockBegin
  2
*Model_Space
 70
     0
 10
0.0
 20
0.0
 30
0.0
  3
*Model_Space
  1

  0
ENDBLK
  5
21
330
1F
100
AcDbEntity
  8
0
100
AcDbBlockEnd
  0
BLOCK
  5
1C
330
1B
100
AcDbEntity
 67
     1
  8
0
100
AcDbBlockBegin
  2
*Paper_Space
 70
     0
 10
0.0
 20
0.0
 30
0.0
  3
*Paper_Space
  1

  0
ENDBLK
  5
1D
330
1B
100
AcDbEntity
 67
     1
  8
0
100
AcDbBlockEnd
  0
BLOCK
  5
24
330
23
100
AcDbEntity
 67
     1
  8
0
100
AcDbBlockBegin
  2
*Paper_Space0
 70
     0
 10
0.0
 20
0.0
 30
0.0
  3
*Paper_Space0
  1

  0
ENDBLK
  5
25
330
23
100
AcDbEntity
 67
     1
  8
0
100
AcDbBlockEnd
  0
BLOCK
  5
91B
330
919
100
AcDbEntity
  8
0
100
AcDbBlockBegin
  2
_DotSmall
 70
     0
 10
0.0
 20
0.0
 30
0.0
  3
_DotSmall
  1

  0
LWPOLYLINE
  5
91A
330
919
100
AcDbEntity
  8
0
  6
ByBlock
 62
     0
100
AcDbPolyline
 90
        2
 70
     1
 43
0.5
 10
-0.0625
 20
0.0
 42
1.0
 10
0.0625
 20
0.0
 42
1.0
  0
ENDBLK
  5
91C
330
919
100
AcDbEntity
  8
0
100
AcDbBlockEnd
  0
BLOCK
  5
92A
330
922
100
AcDbEntity
  8
0
100
AcDbBlockBegin
  2
base para cotas
 70
     0
 10
0.0
 20
0.0
 30
0.0
  3
base para cotas
  1

  0
LINE
  5
B36
330
922
100
AcDbEntity
  8
cotas
100
AcDbLine
 10
0.0
 20
-30.0
 30
0.0
 11
327.1260136525398
 21
-30.0
 31
0.0
  0
LINE
  5
B37
330
922
100
AcDbEntity
  8
cotas
100
AcDbLine
 10
0.0
 20
-25.0
 30
0.0
 11
327.1260136525398
 21
-25.0
 31
0.0
  0
LINE
  5
B38
330
922
100
AcDbEntity
  8
cotas
100
AcDbLine
 10
0.0
 20
-20.0
 30
0.0
 11
327.1260136525398
 21
-20.0
 31
0.0
  0
LINE
  5
B39
330
922
100
AcDbEntity
  8
cotas
100
AcDbLine
 10
0.0
 20
-15.0
 30
0.0
 11
327.1260136525398
 21
-15.0
 31
0.0
  0
LINE
  5
B3A
330
922
100
AcDbEntity
  8
cotas
100
AcDbLine
 10
0.0
 20
-10.0
 30
0.0
 11
327.1260136525398
 21
-10.0
 31
0.0
  0
LINE
  5
B3B
330
922
100
AcDbEntity
  8
cotas
100
AcDbLine
 10
0.0
 20
0.0
 30
0.0
 11
0.0
 21
-30.0
 31
0.0
  0
LINE
  5
B3C
330
922
100
AcDbEntity
  8
cotas
100
AcDbLine
 10
327.1260136525398
 20
-30.0
 30
0.0
 11
327.1260136525398
 21
0.0
 31
0.0
  0
ENDBLK
  5
92B
330
922
100
AcDbEntity
  8
0
100
AcDbBlockEnd
  0
BLOCK
  5
AAD
330
AA8
100
AcDbEntity
  8
0
100
AcDbBlockBegin
  2
_CLOSED
 70
     0
 10
0.0
 20
0.0
 30
0.0
  3
_CLOSED
  1

  0
LINE
  5
AA9
330
AA8
100
AcDbEntity
  8
0
100
AcDbLine
 10
-1.0
 20
0.166667
 30
0.0
 11
0.0
 21
0.0
 31
0.0
  0
LINE
  5
AAA
330
AA8
100
AcDbEntity
  8
0
100
AcDbLine
 10
0.0
 20
0.0
 30
0.0
 11
-1.0
 21
-0.166667
 31
0.0
  0
LINE
  5
AAB
330
AA8
100
AcDbEntity
  8
0
100
AcDbLine
 10
-1.0
 20
0.166667
 30
0.0
 11
-1.0
 21
-0.166667
 31
0.0
  0
LINE
  5
AAC
330
AA8
100
AcDbEntity
  8
0
100
AcDbLine
 10
0.0
 20
0.0
 30
0.0
 11
-1.0
 21
0.0
 31
0.0
  0
ENDBLK
  5
AAE
330
AA8
100
AcDbEntity
  8
0
100
AcDbBlockEnd
  0
BLOCK
  5
B7C
330
B79
100
AcDbEntity
  8
0
100
AcDbBlockBegin
  2
nota revisoes
 70
     0
 10
0.0
 20
0.0
 30
0.0
  3
nota revisoes
  1

  0
CIRCLE
  5
B7A
330
B79
100
AcDbEntity
  8
4
100
AcDbCircle
 10
0.0
 20
0.0
 30
0.0
 40
13.69426055101189
  0
TEXT
  5
B7B
330
B79
100
AcDbEntity
  8
4
100
AcDbText
 10
-5.496248358154345
 20
-5.354545554066362
 30
0.0
 40
12.0
  1
1
  7
SANINDUSA
 72
     1
 11
-0.249774214433728
 21
-5.354545554066362
 31
0.0
100
AcDbText
  0
ENDBLK
  5
B7D
330
B79
100
AcDbEntity
  8
0
100
AcDbBlockEnd
  0
BLOCK
  5
B9C
330
B8E
100
AcDbEntity
  8
0
100
AcDbBlockBegin
  2
a3l
 70
     0
 10
0.0
 20
0.0
 30
0.0
  3
a3l
  1

  0
LINE
  5
B8F
330
B8E
100
AcDbEntity
  8
1
100
AcDbLine
 10
-364.2925296599447
 20
-362.1188951399395
 30
0.0
 11
-364.2925296599447
 21
-65.11889513993946
 31
0.0
  0
LINE
  5
B90
330
B8E
100
AcDbEntity
  8
4
100
AcDbLine
 10
-369.2925296599447
 20
-357.1188951399395
 30
0.0
 11
-369.2925296599447
 21
-70.11889513993946
 31
0.0
  0
LINE
  5
B91
330
B8E
100
AcDbEntity
  8
1
100
AcDbLine
 10
-784.2925296599446
 20
-65.11889513993946
 30
0.0
 11
-784.2925296599446
 21
-362.1188951399395
 31
0.0
  0
LINE
  5
B92
330
B8E
100
AcDbEntity
  8
4
100
AcDbLine
 10
-759.2925296599446
 20
-357.1188951399395
 30
0.0
 11
-759.2925296599446
 21
-70.11889513993946
 31
0.0
  0
LINE
  5
B93
330
B8E
100
AcDbEntity
  8
1
100
AcDbLine
 10
-784.2925296599446
 20
-362.1188951399395
 30
0.0
 11
-364.2925296599447
 21
-362.1188951399395
 31
0.0
  0
LINE
  5
B94
330
B8E
100
AcDbEntity
  8
4
100
AcDbLine
 10
-759.2925296599446
 20
-357.1188951399395
 30
0.0
 11
-369.2925296599447
 21
-357.1188951399395
 31
0.0
  0
LINE
  5
B95
330
B8E
100
AcDbEntity
  8
1
100
AcDbLine
 10
-654.2925296599446
 20
-357.1188951399395
 30
0.0
 11
-654.2925296599446
 21
-362.1188951399395
 31
0.0
  0
LINE
  5
B96
330
B8E
100
AcDbEntity
  8
1
100
AcDbLine
 10
-364.2925296599447
 20
-65.11889513993946
 30
0.0
 11
-784.2925296599446
 21
-65.11889513993946
 31
0.0
  0
LINE
  5
B97
330
B8E
100
AcDbEntity
  8
4
100
AcDbLine
 10
-369.2925296599447
 20
-70.11889513993946
 30
0.0
 11
-759.2925296599446
 21
-70.11889513993946
 31
0.0
  0
LINE
  5
B98
330
B8E
100
AcDbEntity
  8
1
100
AcDbLine
 10
-654.2925296599446
 20
-65.11889513993946
 30
0.0
 11
-654.2925296599446
 21
-70.11889513993946
 31
0.0
  0
LINE
  5
B99
330
B8E
100
AcDbEntity
  8
1
100
AcDbLine
 10
-549.2925296599446
 20
-70.11889513993946
 30
0.0
 11
-549.2925296599446
 21
-65.11889513993946
 31
0.0
  0
LINE
  5
B9A
330
B8E
100
AcDbEntity
  8
1
100
AcDbLine
 10
-369.2925296599447
 20
-65.11889513993946
 30
0.0
 11
-364.2925296599447
 21
-65.11889513993946
 31
0.0
  0
LINE
  5
B9B
330
B8E
100
AcDbEntity
  8
1
100
AcDbLine
 10
-549.2925296599446
 20
-357.1188951399395
 30
0.0
 11
-549.2925296599446
 21
-362.1188951399395
 31
0.0
  0
ENDBLK
  5
B9D
330
B8E
100
AcDbEntity
  8
0
100
AcDbBlockEnd
  0
BLOCK
  5
C13
330
B9E
100
AcDbEntity
  8
0
100
AcDbBlockBegin
  2
legenda desenvolvimento
 70
     2
 10
0.0
 20
0.0
 30
0.0
  3
legenda desenvolvimento
  1

  0
ATTDEF
  5
B9F
330
B9E
100
AcDbEntity
  8
1
100
AcDbText
 10
-108.606245802552
 20
55.5
 30
0.0
 40
4.0
  1
XXXXXXXXXXXXXX
 41
0.8
  7
SANINDUSA
 72
     4
 11
-87.5
 21
57.5
 31
0.0
100
AcDbAttributeDefinition
  3
Nome do Produto:
  2
PRODUTO
 70
     0
  0
ATTDEF
  5
BA0
330
B9E
100
AcDbEntity
  8
1
100
AcDbText
 10
-97.9997966101695
 20
41.25
 30
0.0
 40
3.0
  1
XXXXXXXXX
 41
0.8
  7
futura
 72
     4
 11
-87.5
 21
42.75
 31
0.0
100
AcDbAttributeDefinition
  3
Nome da Peça:
  2
PECA
 70
     0
  0
ATTDEF
  5
BA1
330
B9E
100
AcDbEntity
  8
1
100
AcDbText
 10
-133.4422431161853
 20
21.11745296763252
 30
0.0
 40
2.5
  1
X
 41
0.8
  7
SANINDUSA
 72
     4
 11
-132.5
 21
22.36745296763252
 31
0.0
100
AcDbAttributeDefinition
  3
Cod. TESTE:
  2
TESTE
 70
     0
  0
ATTDEF
  5
BA2
330
B9E
100
AcDbEntity
  8
1
100
AcDbText
 10
-124.3844862323707
 20
21.11745296763252
 30
0.0
 40
2.5
  1
XX
 41
0.8
  7
SANINDUSA
 72
     4
 11
-122.5
 21
22.36745296763252
 31
0.0
100
AcDbAttributeDefinition
  3
Cod. Ano:
  2
ANO
 70
     0
  0
ATTDEF
  5
BA3
330
B9E
100
AcDbEntity
  8
1
100
AcDbText
 10
-112.526889953052
 20
21.11745296763252
 30
0.0
 40
2.5
  1
XXX
 41
0.8
  7
SANINDUSA
 72
     4
 11
-109.700160604496
 21
22.36745296763252
 31
0.0
100
AcDbAttributeDefinition
  3
Cod. Sequência:
  2
SEQUENCIA
 70
     0
  0
ATTDEF
  5
BA4
330
B9E
100
AcDbEntity
  8
1
100
AcDbText
 10
-99.35382430979316
 20
21.11745296763252
 30
0.0
 40
2.5
  1
XX
 41
0.8
  7
SANINDUSA
 72
     4
 11
-97.46933807742244
 21
22.36745296763252
 31
0.0
100
AcDbAttributeDefinition
  3
Cod. Tipo:
  2
TIPO
 70
     0
  0
ATTDEF
  5
BA5
330
B9E
100
AcDbEntity
  8
1
100
AcDbText
 10
-87.42035911468438
 20
21.11745296763252
 30
0.0
 40
2.5
  1
XXX
 41
0.8
  7
SANINDUSA
 72
     4
 11
-84.59362976612828
 21
22.36745296763252
 31
0.0
100
AcDbAttributeDefinition
  3
Cod. Produto:
  2
PRODUTO
 70
     0
  0
ATTDEF
  5
BA6
330
B9E
100
AcDbEntity
  8
1
100
AcDbText
 10
-74.62051971917853
 20
21.11745296763252
 30
0.0
 40
2.5
  1
XXX
 41
0.8
  7
SANINDUSA
 72
     4
 11
-71.79379037062244
 21
22.36745296763252
 31
0.0
100
AcDbAttributeDefinition
  3
Cod. Peça:
  2
PECA
 70
     0
  0
ATTDEF
  5
BA7
330
B9E
100
AcDbEntity
  8
1
100
AcDbText
 10
-61.10603446650329
 20
21.11745296763252
 30
0.0
 40
2.5
  1
XX
 41
0.8
  7
SANINDUSA
 72
     4
 11
-59.22154823413257
 21
22.36745296763252
 31
0.0
100
AcDbAttributeDefinition
  3
Cod. Revisão:
  2
REV
 70
     0
  0
ATTDEF
  5
BA8
330
B9E
100
AcDbEntity
  8
1
100
AcDbText
 10
-48.43615325006194
 20
21.11745296763252
 30
0.0
 40
2.5
  1
XX
 41
0.8
  7
SANINDUSA
 72
     4
 11
-46.55166701769121
 21
22.36745296763252
 31
0.0
100
AcDbAttributeDefinition
  3
Cod. Alteração:
  2
ALT
 70
     0
  0
ATTDEF
  5
BA9
330
B9E
100
AcDbEntity
  8
1
100
AcDbText
 10
-35.19086635325722
 20
23.98875083948959
 30
0.0
 40
3.0
  1
1/XXX
 41
0.8
  7
SANINDUSA
 72
     4
 11
-30.0
 21
25.25
 31
0.0
100
AcDbAttributeDefinition
  3
Escala geral:
  2
ESCALA
 70
     0
  0
ATTDEF
  5
BAA
330
B9E
100
AcDbEntity
  8
1
100
AcDbText
 10
-15.65345869711215
 20
23.75
 30
0.0
 40
3.0
  1
XXXXX
 41
0.8
  7
SANINDUSA
 72
     4
 11
-10.0
 21
25.25
 31
0.0
100
AcDbAttributeDefinition
  3
Folha:
  2
FOLHA
 70
     0
  0
ATTDEF
  5
BAB
330
B9E
100
AcDbEntity
  8
1
100
AcDbText
 10
-178.5146998822042
 20
56.9531347542807
 30
0.0
 40
2.0
  1
xx
 41
0.8
  7
SANINDUSA
 72
     4
 11
-177.2123493113513
 21
57.70330265219877
 31
0.0
100
AcDbAttributeDefinition
  3
revisão
  2
REV.
 70
     0
  0
ATTDEF
  5
BAC
330
B9E
100
AcDbEntity
  8
1
100
AcDbText
 10
-172.7849640077129
 20
56.9531347542807
 30
0.0
 40
2.0
  1
xx
 41
0.8
  7
SANINDUSA
 72
     4
 11
-171.48261343686
 21
57.70330265219877
 31
0.0
100
AcDbAttributeDefinition
  3
alteração
  2
ALT.
 70
     0
  0
ATTDEF
  5
BAD
330
B9E
100
AcDbEntity
  8
1
100
AcDbText
 10
-168.007199951307
 20
56.70330265219877
 30
0.0
 40
2.0
  1
xx/xx/xxxx
 41
0.8
  7
SANINDUSA
 11
-168.007199951307
 21
57.70330265219877
 31
0.0
100
AcDbAttributeDefinition
  3
data
  2
DATA
 70
     0
 74
     2
  0
ATTDEF
  5
BAE
330
B9E
100
AcDbEntity
  8
1
100
AcDbText
 10
-168.5396372253371
 20
13.15916722632639
 30
0.0
 40
2.0
  1
XX/XX/XXXX
 41
0.8
  7
SANINDUSA
 72
     4
 11
-161.5099528734231
 21
14.0
 31
0.0
100
AcDbAttributeDefinition
  3
Data projecto
  2
DATA_PROJ
 70
     0
  0
ATTDEF
  5
BAF
330
B9E
100
AcDbEntity
  8
1
100
AcDbText
 10
-150.8658110728766
 20
13.24983210208193
 30
0.0
 40
2.0
  1
xxxxxxxx
 41
0.8
  7
SANINDUSA
 72
     4
 11
-145.6564087894649
 21
14.0
 31
0.0
100
AcDbAttributeDefinition
  3
nome de quem projectou
  2
NOME
 70
     0
  0
ATTDEF
  5
BB0
330
B9E
100
AcDbEntity
  8
1
100
AcDbText
 10
-168.5396372253371
 20
9.159167226326394
 30
0.0
 40
2.0
  1
XX/XX/XXXX
 41
0.8
  7
SANINDUSA
 72
     4
 11
-161.5099528734231
 21
10.0
 31
0.0
100
AcDbAttributeDefinition
  3
Data desenhou
  2
DATA_DES
 70
     0
  0
ATTDEF
  5
BB1
330
B9E
100
AcDbEntity
  8
1
100
AcDbText
 10
-151.516986358303
 20
9.249832102081933
 30
0.0
 40
2.0
  1
xxxxxxxxx
 41
0.8
  7
SANINDUSA
 72
     4
 11
-145.6564087894649
 21
10.0
 31
0.0
100
AcDbAttributeDefinition
  3
nome
  2
NOME
 70
     0
  0
ATTDEF
  5
BB2
330
B9E
100
AcDbEntity
  8
1
100
AcDbText
 10
-127.2924214135946
 20
14.1979876583216
 30
0.0
 40
2.0
  1
Vitreous China
 41
0.8
  7
SANINDUSA
 72
     4
 11
-119.231709526422
 21
15.22216495852308
 31
0.0
100
AcDbAttributeDefinition
  3
Nome do Material:
  2
MATERIAL
 70
     0
  0
ATTDEF
  5
BB3
330
B9E
100
AcDbEntity
  8
1
100
AcDbText
 10
-103.1563452122093
 20
14.38019043949261
 30
0.0
 40
2.0
  1
Branco
 41
0.8
  7
SANINDUSA
 72
     4
 11
-99.33418268702462
 21
15.35937109765245
 31
0.0
100
AcDbAttributeDefinition
  3
cor da peça
  2
COR
 70
     0
  0
ATTDEF
  5
BB4
330
B9E
100
AcDbEntity
  8
1
100
AcDbText
 10
-116.7235057085292
 20
5.975822699798522
 30
0.0
 40
2.0
  1
Vidrado
 41
0.8
  7
SANINDUSA
 72
     4
 11
-112.5
 21
7.0
 31
0.0
100
AcDbAttributeDefinition
  3
Tipo de acabamento:
  2
ACABAMENTO
 70
     0
  0
ATTDEF
  5
BB5
330
B9E
100
AcDbEntity
  8
1
100
AcDbText
 10
-79.18527869967246
 20
16.65066409850533
 30
0.0
 40
2.0
  1
XXXXXXX
 41
0.8
  7
SANINDUSA
 72
     4
 11
-73.90871724903445
 21
17.65066409850533
 31
0.0
100
AcDbAttributeDefinition
  3
Normas
  2
NORMAS
 70
     0
  0
ATTDEF
  5
BB6
330
B9E
100
AcDbEntity
  8
1
100
AcDbText
 10
-30.55312290127603
 20
14.0
 30
0.0
 40
2.0
  1
XXXXXXXXXXXXXX
 41
0.8
  7
SANINDUSA
 72
     4
 11
-20.0
 21
15.0
 31
0.0
100
AcDbAttributeDefinition
  3
Substitui o desenho:
  2
SUBSTITUI
 70
     0
  0
ATTDEF
  5
BB7
330
B9E
100
AcDbEntity
  8
1
100
AcDbText
 10
-31.30691739422431
 20
6.0
 30
0.0
 40
2.0
  1
XXXXXXXXXXXXXXX
 41
0.8
  7
SANINDUSA
 72
     4
 11
-20.0
 21
7.0
 31
0.0
100
AcDbAttributeDefinition
  3
Substituido por:
  2
SUBSTITUIDO
 70
     0
  0
ATTDEF
  5
BB8
330
B9E
100
AcDbEntity
  8
1
100
AcDbText
 10
-110.0220608548302
 20
1.478208457928303
 30
0.0
 40
2.0
  1
XXXXXXXXXXXXXXXXXXXXXXXXXXXXXXXXXX
 41
0.8
  7
SANINDUSA
 11
-110.0220608548302
 21
2.478208457928303
 31
0.0
100
AcDbAttributeDefinition
  3
Localização do desenho:
  2
LOC-DWG
 70
     0
 74
     2
  0
LINE
  5
BB9
330
B9E
100
AcDbEntity
  8
3
100
AcDbLine
 10
-135.0
 20
4.0
 30
0.0
 11
0.0000000000004547
 21
4.0
 31
0.0
  0
LINE
  5
BBA
330
B9E
100
AcDbEntity
  8
3
100
AcDbLine
 10
-90.00000000000046
 20
12.0
 30
0.0
 11
-135.0
 21
12.0
 31
0.0
  0
LINE
  5
BBB
330
B9E
100
AcDbEntity
  8
3
100
AcDbLine
 10
-135.0
 20
32.5
 30
0.0
 11
-40.0
 21
32.5
 31
0.0
  0
TEXT
  5
BBC
330
B9E
100
AcDbEntity
  8
1
100
AcDbText
 10
-134.0
 20
1.25
 30
0.0
 40
2.0
  1
Localização do des.:
 41
0.8
  7
SANINDUSA
 11
-134.0
 21
2.25
 31
0.0
100
AcDbText
 73
     2
  0
LINE
  5
BBD
330
B9E
100
AcDbEntity
  8
3
100
AcDbLine
 10
-180.0
 20
65.0
 30
0.0
 11
0.0
 21
65.0
 31
0.0
  0
LINE
  5
BBE
330
B9E
100
AcDbEntity
  8
leg fin
100
AcDbLine
 10
-40.0
 20
25.05956924886846
 30
0.0
 11
-135.0
 21
25.05956924886846
 31
0.0
  0
LINE
  5
BBF
330
B9E
100
AcDbEntity
  8
leg fin
100
AcDbLine
 10
-40.0
 20
28.5
 30
0.0
 11
-135.0
 21
28.5
 31
0.0
  0
LINE
  5
BC0
330
B9E
100
AcDbEntity
  8
3
100
AcDbLine
 10
-135.0
 20
50.0
 30
0.0
 11
-40.0
 21
50.0
 31
0.0
  0
TEXT
  5
BC1
330
B9E
100
AcDbEntity
  8
1
100
AcDbText
 10
-134.0
 20
29.75
 30
0.0
 40
2.0
  1
Desenho nº:
 41
0.8
  7
SANINDUSA
 11
-134.0
 21
30.75
 31
0.0
100
AcDbText
 73
     2
  0
TEXT
  5
BC2
330
B9E
100
AcDbEntity
  8
1
100
AcDbText
 10
-134.0
 20
9.25
 30
0.0
 40
2.0
  1
Acabamento:
 41
0.8
  7
SANINDUSA
 11
-134.0
 21
10.25
 31
0.0
100
AcDbText
 73
     2
  0
LINE
  5
BC3
330
B9E
100
AcDbEntity
  8
3
100
AcDbLine
 10
-180.0
 20
20.0
 30
0.0
 11
0.0
 21
20.0
 31
0.0
  0
LINE
  5
BC4
330
B9E
100
AcDbEntity
  8
1
100
AcDbLine
 10
-174.5810776056337
 20
55.5
 30
0.0
 11
-174.5810776056337
 21
65.0
 31
0.0
  0
LINE
  5
BC5
330
B9E
100
AcDbEntity
  8
1
100
AcDbLine
 10
-168.9210461879161
 20
55.5
 30
0.0
 11
-168.9210461879161
 21
65.0
 31
0.0
  0
LINE
  5
BC6
330
B9E
100
AcDbEntity
  8
1
100
AcDbLine
 10
-154.0988595589306
 20
55.5
 30
0.0
 11
-154.0988595589306
 21
65.0
 31
0.0
  0
LINE
  5
BC7
330
B9E
100
AcDbEntity
  8
3
100
AcDbLine
 10
-180.0
 20
65.0
 30
0.0
 11
-180.0
 21
0.0
 31
0.0
  0
LINE
  5
BC8
330
B9E
100
AcDbEntity
  8
3
100
AcDbLine
 10
-135.0
 20
0.0
 30
0.0
 11
-135.0
 21
65.0
 31
0.0
  0
TEXT
  5
BC9
330
B9E
100
AcDbEntity
  8
1
100
AcDbText
 10
-179.0
 20
9.75
 30
0.0
 40
1.5
  1
Des.
 41
0.8
  7
SANINDUSA
 11
-179.0
 21
10.5
 31
0.0
100
AcDbText
 73
     2
  0
LINE
  5
BCA
330
B9E
100
AcDbEntity
  8
1
100
AcDbLine
 10
-168.9210461879161
 20
20.0
 30
0.0
 11
-168.9210461879161
 21
0.0
 31
0.0
  0
LINE
  5
BCB
330
B9E
100
AcDbEntity
  8
1
100
AcDbLine
 10
-154.0988595589306
 20
20.0
 30
0.0
 11
-154.0988595589306
 21
0.0
 31
0.0
  0
LINE
  5
BCC
330
B9E
100
AcDbEntity
  8
1
100
AcDbLine
 10
-180.0
 20
4.0
 30
0.0
 11
-135.0
 21
4.0
 31
0.0
  0
LINE
  5
BCD
330
B9E
100
AcDbEntity
  8
1
100
AcDbLine
 10
-180.0
 20
8.0
 30
0.0
 11
-135.0
 21
8.0
 31
0.0
  0
TEXT
  5
BCE
330
B9E
100
AcDbEntity
  8
1
100
AcDbText
 10
-179.0
 20
1.73257823687436
 30
0.0
 40
1.5
  1
Aprov.
 41
0.8
  7
SANINDUSA
 11
-179.0
 21
2.48257823687436
 31
0.0
100
AcDbText
 73
     2
  0
TEXT
  5
BCF
330
B9E
100
AcDbEntity
  8
1
100
AcDbText
 10
-179.0
 20
5.75
 30
0.0
 40
1.5
  1
Ver.
 41
0.8
  7
SANINDUSA
 11
-179.0
 21
6.5
 31
0.0
100
AcDbText
 73
     2
  0
LINE
  5
BD0
330
B9E
100
AcDbEntity
  8
1
100
AcDbLine
 10
-180.0
 20
16.0
 30
0.0
 11
-135.0
 21
16.0
 31
0.0
  0
LINE
  5
BD1
330
B9E
100
AcDbEntity
  8
1
100
AcDbLine
 10
-180.0
 20
12.0
 30
0.0
 11
-135.0
 21
12.0
 31
0.0
  0
TEXT
  5
BD2
330
B9E
100
AcDbEntity
  8
1
100
AcDbText
 10
-179.0
 20
13.75
 30
0.0
 40
1.5
  1
Proj.
 41
0.8
  7
SANINDUSA
 11
-179.0
 21
14.5
 31
0.0
100
AcDbText
 73
     2
  0
TEXT
  5
BD3
330
B9E
100
AcDbEntity
  8
1
100
AcDbText
 10
-167.9210461879161
 20
17.75
 30
0.0
 40
1.5
  1
Data
 41
0.8
  7
SANINDUSA
 11
-167.9210461879161
 21
18.5
 31
0.0
100
AcDbText
 73
     2
  0
TEXT
  5
BD4
330
B9E
100
AcDbEntity
  8
1
100
AcDbText
 10
-153.0988595589306
 20
17.75
 30
0.0
 40
1.5
  1
Nome
 41
0.8
  7
SANINDUSA
 11
-153.0988595589306
 21
18.5
 31
0.0
100
AcDbText
 73
     2
  0
LINE
  5
BD5
330
B9E
100
AcDbEntity
  8
leg fin
100
AcDbLine
 10
-130.0
 20
20.0
 30
0.0
 11
-130.0
 21
28.5
 31
0.0
  0
TEXT
  5
BD6
330
B9E
100
AcDbEntity
  8
1
100
AcDbText
 10
-134.0
 20
17.25
 30
0.0
 40
2.0
  1
Material:
 41
0.8
  7
SANINDUSA
 11
-134.0
 21
18.25
 31
0.0
100
AcDbText
 73
     2
  0
TEXT
  5
BD7
330
B9E
100
AcDbEntity
  8
1
100
AcDbText
 10
-129.0
 20
26.43288406845113
 30
0.0
 40
1.5
  1
Ano:
 41
0.8
  7
SANINDUSA
 11
-129.0
 21
27.18288406845113
 31
0.0
100
AcDbText
 73
     2
  0
LINE
  5
BD8
330
B9E
100
AcDbEntity
  8
1
100
AcDbLine
 10
-180.0
 20
55.5
 30
0.0
 11
-135.0
 21
55.5
 31
0.0
  0
TEXT
  5
BD9
330
B9E
100
AcDbEntity
  8
1
100
AcDbText
 10
-179.0
 20
52.67772246885193
 30
0.0
 40
1.5
  1
descrição
 41
0.8
  7
SANINDUSA
 11
-179.0
 21
53.42772246885193
 31
0.0
100
AcDbText
 73
     2
  0
TEXT
  5
BDA
330
B9E
100
AcDbEntity
  8
1
100
AcDbText
 10
-134.0
 20
47.25
 30
0.0
 40
2.0
  1
Peça:
 41
0.8
  7
SANINDUSA
 11
-134.0
 21
48.25
 31
0.0
100
AcDbText
 73
     2
  0
LINE
  5
BDB
330
B9E
100
AcDbEntity
  8
1
100
AcDbLine
 10
-180.0
 20
59.5
 30
0.0
 11
-135.0
 21
59.5
 31
0.0
  0
TEXT
  5
BDC
330
B9E
100
AcDbEntity
  8
1
100
AcDbText
 10
-173.5810776056337
 20
62.75
 30
0.0
 40
1.5
  1
Alt.
 41
0.8
  7
SANINDUSA
 11
-173.5810776056337
 21
63.5
 31
0.0
100
AcDbText
 73
     2
  0
TEXT
  5
BDD
330
B9E
100
AcDbEntity
  8
1
100
AcDbText
 10
-179.0
 20
62.75
 30
0.0
 40
1.5
  1
Rev.
 41
0.8
  7
SANINDUSA
 11
-179.0
 21
63.5
 31
0.0
100
AcDbText
 73
     2
  0
TEXT
  5
BDE
330
B9E
100
AcDbEntity
  8
1
100
AcDbText
 10
-167.9210461879161
 20
62.75
 30
0.0
 40
1.5
  1
Data
 41
0.8
  7
SANINDUSA
 11
-167.9210461879161
 21
63.5
 31
0.0
100
AcDbText
 73
     2
  0
TEXT
  5
BDF
330
B9E
100
AcDbEntity
  8
1
100
AcDbText
 10
-153.0988595589306
 20
62.75
 30
0.0
 40
1.5
  1
Nome
 41
0.8
  7
SANINDUSA
 11
-153.0988595589306
 21
63.5
 31
0.0
100
AcDbText
 73
     2
  0
TEXT
  5
BE0
330
B9E
100
AcDbEntity
  8
1
100
AcDbText
 10
-134.0
 20
62.25
 30
0.0
 40
2.0
  1
Produto:
 41
0.8
  7
SANINDUSA
 11
-134.0
 21
63.25
 31
0.0
100
AcDbText
 73
     2
  0
LINE
  5
BE1
330
B9E
100
AcDbEntity
  8
3
100
AcDbLine
 10
-40.0
 20
4.0
 30
0.0
 11
-40.0
 21
65.0
 31
0.0
  0
LWPOLYLINE
  5
BE2
102
{ACAD_REACTORS
330
BEC
102
}
330
B9E
100
AcDbEntity
  8
9
100
AcDbPolyline
 90
       12
 70
     1
 43
0.0
 10
-3.038714600644652
 20
58.90010174665076
 10
-5.726962862472191
 20
58.90010174665076
 10
-5.726962862472191
 20
58.5001017466509
 10
-3.038748516195028
 20
58.5001017466509
 42
-0.4142135623731731
 10
-2.638748516194482
 20
58.1001017466508
 10
-2.638748516194482
 20
57.42799728675596
 10
-5.21497371544865
 20
57.42799728675596
 42
0.4142135623731289
 10
-6.014973715448377
 20
56.627997286756
 10
-6.014973715448377
 20
55.92380871629643
 42
0.4142135623731132
 10
-5.21497371544865
 20
55.12380871629648
 10
-2.23871460064447
 20
55.12380871629648
 10
-2.23871460064447
 20
58.10010174665103
 42
0.4142135623730717
  0
LWPOLYLINE
  5
BE3
102
{ACAD_REACTORS
330
BEC
102
}
330
B9E
100
AcDbEntity
  8
9
100
AcDbPolyline
 90
       20
 70
     1
 43
0.0
 10
-10.01531287095122
 20
57.82799728675581
 10
-10.01531287095122
 20
58.10010174665103
 42
-0.4142135623730744
 10
-9.615312870951584
 20
58.5001017466509
 10
-6.92703069357276
 20
58.5001017466509
 10
-6.92703069357276
 20
58.90010174665076
 10
-9.615346786501959
 20
58.90010174665076
 42
0.4142135623730883
 10
-10.41534678650168
 20
58.1001017466508
 10
-10.41534678650168
 20
57.82796337120567
 42
0.4142135623730717
 10
-9.615346786501959
 20
57.02796337120571
 10
-7.423079531965413
 20
57.02796337120571
 42
-0.4142135623730847
 10
-7.023079531965322
 20
56.62796337120562
 10
-7.023079531965322
 20
55.90786840766487
 42
-0.4142135623730744
 10
-7.423079531965413
 20
55.507868407665
 10
-10.41534678650168
 20
55.507868407665
 10
-10.41534678650168
 20
55.12380871629648
 10
-7.445787917283723
 20
55.12380871629648
 42
0.4114777732064574
 10
-6.645822882998345
 20
55.9163291493976
 10
-6.639238813324936
 20
56.62051771985716
 42
0.4169546541682913
 10
-7.439203847610315
 20
57.42799728675596
 10
-9.615312870951584
 20
57.42799728675596
 42
-0.4142135623731576
  0
LWPOLYLINE
  5
BE4
102
{ACAD_REACTORS
330
BEC
102
}
330
B9E
100
AcDbEntity
  8
9
100
AcDbPolyline
 90
       12
 70
     1
 43
0.0
 10
-14.41561811090378
 20
58.90010174665076
 10
-14.79964388672215
 20
58.90010174665076
 10
-14.79964388672215
 20
55.92380871629643
 42
0.4142135623731133
 10
-13.99964388672242
 20
55.12380871629648
 10
-11.8233508563676
 20
55.12380871629648
 42
0.4142135623730872
 10
-11.02335085636741
 20
55.92380871629643
 10
-11.02335085636741
 20
58.90010174665076
 10
-11.42338477191788
 20
58.90010174665076
 10
-11.42338477191788
 20
55.91567577726095
 42
-0.4131711701795318
 10
-11.82196067063523
 20
55.51567831234956
 10
-14.0141940096214
 20
55.50787335710947
 42
-0.4152567234624407
 10
-14.41561811090378
 20
55.90787082202087
  0
LWPOLYLINE
  5
BE5
102
{ACAD_REACTORS
330
BEC
102
}
330
B9E
100
AcDbEntity
  8
9
100
AcDbPolyline
 90
        6
 70
     1
 43
0.0
 10
-15.80771578768872
 20
55.507868407665
 10
-18.39994912667453
 20
55.507868407665
 42
-0.4142135623731731
 10
-18.79994912667462
 20
55.90786840766487
 10
-18.79994912667462
 20
58.10010174665103
 42
-0.4142135623730744
 10
-18.39994912667453
 20
58.5001017466509
 10
-15.80771578768872
 20
58.5001017466509
  0
LWPOLYLINE
  5
BE6
102
{ACAD_REACTORS
330
BEC
102
}
330
B9E
100
AcDbEntity
  8
9
100
AcDbPolyline
 90
        8
 70
     1
 43
0.0
 10
-15.4236900118708
 20
59.87619128370352
 10
-15.80771578768872
 20
59.87619128370352
 10
-15.80771578768872
 20
58.90010174665076
 10
-18.39176256411201
 20
58.90010174665076
 42
0.4131164467977967
 10
-19.19175694739761
 20
58.1030995310698
 10
-19.1999120763262
 20
55.92680650071542
 42
0.4153115297271718
 10
-18.39991769304061
 20
55.12380871629648
 10
-15.4236900118708
 20
55.12380871629648
  0
LWPOLYLINE
  5
BE7
102
{ACAD_REACTORS
330
BEC
102
}
330
B9E
100
AcDbEntity
  8
9
100
AcDbPolyline
 90
       10
 70
     1
 43
0.0
 10
-20.59201288790928
 20
58.90010174665076
 10
-23.56830591826338
 20
58.90010174665076
 10
-23.56830591826338
 20
55.12380871629648
 10
-23.18424622689509
 20
55.12380871629648
 10
-23.18424622689509
 20
58.5001017466509
 10
-20.59204680345965
 20
58.5001017466509
 42
-0.4142135623730898
 10
-20.19204680345956
 20
58.1001017466508
 10
-20.19204680345956
 20
55.12380871629648
 10
-19.79201288790909
 20
55.12380871629648
 10
-19.79201288790909
 20
58.10010174665103
 42
0.4142135623731132
  0
LWPOLYLINE
  5
BE8
102
{ACAD_REACTORS
330
BEC
102
}
330
B9E
100
AcDbEntity
  8
9
100
AcDbPolyline
 90
        4
 70
     1
 43
0.0
 10
-24.19231812786165
 20
58.90010174665076
 10
-24.57637781922995
 20
58.90010174665076
 10
-24.57637781922995
 20
55.12380871629648
 10
-24.19231812786165
 20
55.12380871629648
  0
LWPOLYLINE
  5
BE9
102
{ACAD_REACTORS
330
BEC
102
}
330
B9E
100
AcDbEntity
  8
9
100
AcDbPolyline
 90
       10
 70
     1
 43
0.0
 10
-28.57661522808212
 20
58.5001017466509
 10
-25.98444972019706
 20
58.5001017466509
 42
-0.4142135623731731
 10
-25.58444972019652
 20
58.1001017466508
 10
-25.58444972019652
 20
55.12380871629648
 10
-25.2004239443786
 20
55.12380871629648
 10
-25.2004239443786
 20
58.10010174665103
 42
0.4142135623730717
 10
-26.00042394437833
 20
58.90010174665076
 10
-28.97664914363259
 20
58.90010174665076
 10
-28.97664914363259
 20
55.12380871629648
 10
-28.57661522808212
 20
55.12380871629648
  0
LWPOLYLINE
  5
BEA
102
{ACAD_REACTORS
330
BEC
102
}
330
B9E
100
AcDbEntity
  8
9
100
AcDbPolyline
 90
       12
 70
     1
 43
0.0
 10
-29.58465321349832
 20
58.10010174665103
 42
0.4142135623730716
 10
-30.3846532134985
 20
58.90010174665076
 10
-33.07296930642724
 20
58.90010174665076
 10
-33.07296930642724
 20
58.5001017466509
 10
-30.38468712904842
 20
58.5001017466509
 42
-0.4142135623730067
 10
-29.98468712904878
 20
58.1001017466508
 10
-29.98468712904878
 20
57.42799728675618
 10
-32.56098015940324
 20
57.42799728675596
 42
0.4142135623731289
 10
-33.36098015940343
 20
56.627997286756
 10
-33.36098015940343
 20
55.92380871629643
 42
0.4142135623731132
 10
-32.56098015940324
 20
55.12380871629648
 10
-29.58465321349832
 20
55.12380871629648
  0
LWPOLYLINE
  5
BEB
102
{ACAD_REACTORS
330
BEC
102
}
330
B9E
100
AcDbEntity
  8
9
100
AcDbPolyline
 90
       20
 70
     1
 43
0.0
 10
-34.7850262845518
 20
57.42799728675596
 10
-36.96125148380543
 20
57.42799728675596
 42
-0.4142135623730898
 10
-37.36125148380552
 20
57.82799728675604
 10
-37.36125148380552
 20
58.10010174665103
 42
-0.4142135623730744
 10
-36.96125148380543
 20
58.5001017466509
 10
-34.27303713752781
 20
58.50010174665067
 10
-34.27303713752781
 20
58.90010174665076
 10
-36.96128539935535
 20
58.90010174665076
 42
0.4142135623731289
 10
-37.76128539935553
 20
58.1001017466508
 10
-37.76128539935553
 20
57.82796337120567
 42
0.4142135623730716
 10
-36.9612853993558
 20
57.02796337120571
 10
-34.76901814481926
 20
57.02796337120571
 42
-0.414213562373168
 10
-34.36901814481962
 20
56.62796337120562
 10
-34.36901814481962
 20
55.90786840766487
 42
-0.4142135623730744
 10
-34.76901814481926
 20
55.507868407665
 10
-37.76128539935553
 20
55.507868407665
 10
-37.76128539935553
 20
55.12380871629648
 10
-34.7850262845518
 20
55.12380871629648
 42
0.4142135623731289
 10
-33.98502628455162
 20
55.92380871629643
 10
-33.98502628455162
 20
56.627997286756
 42
0.4142135623731132
  0
HATCH
  5
BEC
330
B9E
100
AcDbEntity
  8
9
100
AcDbHatch
 10
0.0
 20
0.0
 30
0.0
210
0.0
220
0.0
230
1.0
  2
SOLID
 70
     1
 71
     1
 91
       13
 92
        7
 72
     1
 73
     1
 93
       20
 10
-34.36901814481962
 20
55.90786840766487
 42
-0.414213562372991
 10
-34.76901814481926
 20
55.507868407665
 42
0.0
 10
-37.76128539935553
 20
55.507868407665
 42
0.0
 10
-37.76128539935553
 20
55.12380871629648
 42
0.0
 10
-34.7850262845518
 20
55.12380871629648
 42
0.4142135623731705
 10
-33.98502628455162
 20
55.92380871629666
 42
0.0
 10
-33.98502628455162
 20
56.627997286756
 42
0.4142135623731547
 10
-34.7850262845518
 20
57.42799728675596
 42
0.0
 10
-36.96125148380543
 20
57.42799728675596
 42
-0.4142135623730898
 10
-37.36125148380552
 20
57.82799728675604
 42
0.0
 10
-37.36125148380552
 20
58.1001017466508
 42
-0.4142135623731575
 10
-36.96125148380543
 20
58.5001017466509
 42
0.0
 10
-34.27303713752781
 20
58.50010174665067
 42
0.0
 10
-34.27303713752781
 20
58.90010174665076
 42
0.0
 10
-36.96128539935535
 20
58.90010174665076
 42
0.4142135623731705
 10
-37.76128539935553
 20
58.10010174665058
 42
0.0
 10
-37.76128539935553
 20
57.82796337120544
 42
0.4142135623730299
 10
-36.9612853993558
 20
57.02796337120571
 42
0.0
 10
-34.76901814481926
 20
57.02796337120571
 42
-0.4142135623730015
 10
-34.36901814481962
 20
56.62796337120608
 42
0.0
 97
        1
330
BEB
 92
        7
 72
     1
 73
     1
 93
       12
 10
-33.36098015940343
 20
55.92380871629666
 42
0.4142135623731547
 10
-32.56098015940324
 20
55.12380871629648
 42
0.0
 10
-29.58465321349877
 20
55.12380871629648
 42
0.0
 10
-29.58465321349832
 20
58.10010174665058
 42
0.4142135623731964
 10
-30.3846532134985
 20
58.90010174665076
 42
0.0
 10
-33.07296930642724
 20
58.90010174665076
 42
0.0
 10
-33.07296930642724
 20
58.50010174665067
 42
0.0
 10
-30.38468712904887
 20
58.5001017466509
 42
-0.4142135623732564
 10
-29.98468712904878
 20
58.10010174665103
 42
0.0
 10
-29.98468712904923
 20
57.42799728675596
 42
0.0
 10
-32.56098015940324
 20
57.42799728675596
 42
0.4142135623731705
 10
-33.36098015940343
 20
56.627997286756
 42
0.0
 97
        1
330
BEA
 92
       22
 72
     1
 73
     1
 93
        6
 10
-32.97692046803468
 20
56.62796337120562
 42
-0.4142135623731576
 10
-32.57692046803459
 20
57.02796337120571
 42
0.0
 10
-29.98468712904878
 20
57.02796337120571
 42
0.0
 10
-29.98468712904878
 20
55.507868407665
 42
0.0
 10
-32.57692046803459
 20
55.507868407665
 42
-0.4142135623731731
 10
-32.97692046803468
 20
55.90786840766487
 42
0.0
 97
        1
330
C11
 92
        7
 72
     1
 73
     1
 93
       10
 10
-28.57661522808212
 20
58.5001017466509
 42
0.0
 10
-25.98444972019661
 20
58.5001017466509
 42
-0.4142135623730067
 10
-25.58444972019652
 20
58.10010174665058
 42
0.0
 10
-25.58444972019606
 20
55.12380871629648
 42
0.0
 10
-25.20042394437906
 20
55.12380871629648
 42
0.0
 10
-25.2004239443786
 20
58.1001017466508
 42
0.4142135623731134
 10
-26.00042394437833
 20
58.90010174665076
 42
0.0
 10
-28.97664914363259
 20
58.90010174665076
 42
0.0
 10
-28.97664914363259
 20
55.12380871629648
 42
0.0
 10
-28.57661522808212
 20
55.12380871629648
 42
0.0
 97
        1
330
BE9
 92
        7
 72
     0
 73
     1
 93
        4
 10
-24.57637781922995
 20
55.12380871629648
 10
-24.19231812786165
 20
55.12380871629648
 10
-24.19231812786165
 20
58.90010174665076
 10
-24.57637781922995
 20
58.90010174665076
 97
        1
330
BE8
 92
        7
 72
     0
 73
     1
 93
        4
 10
-24.19231812786165
 20
59.87619128370352
 10
-24.5763778192304
 20
59.87619128370352
 10
-24.5763778192304
 20
59.28412752246913
 10
-24.1923181278612
 20
59.28412752246913
 97
        1
330
C12
 92
        7
 72
     1
 73
     1
 93
       10
 10
-23.18424622689509
 20
58.5001017466509
 42
0.0
 10
-20.59204680345965
 20
58.5001017466509
 42
-0.4142135623730898
 10
-20.19204680345956
 20
58.1001017466508
 42
0.0
 10
-20.19204680345956
 20
55.12380871629648
 42
0.0
 10
-19.79201288790909
 20
55.12380871629648
 42
0.0
 10
-19.79201288790909
 20
58.1001017466508
 42
0.4142135623731547
 10
-20.59201288790928
 20
58.90010174665076
 42
0.0
 10
-23.56830591826338
 20
58.90010174665076
 42
0.0
 10
-23.56830591826338
 20
55.12380871629648
 42
0.0
 10
-23.18424622689463
 20
55.12380871629648
 42
0.0
 97
        1
330
BE7
 92
        7
 72
     1
 73
     1
 93
        8
 10
-19.1999120763262
 20
55.92680650071542
 42
0.4153115297271299
 10
-18.39991769304061
 20
55.12380871629648
 42
0.0
 10
-15.4236900118708
 20
55.12380871629648
 42
0.0
 10
-15.4236900118708
 20
59.87619128370352
 42
0.0
 10
-15.80771578768872
 20
59.87619128370352
 42
0.0
 10
-15.80771578768872
 20
58.90010174665076
 42
0.0
 10
-18.39176256411201
 20
58.90010174665076
 42
0.4131164467977965
 10
-19.19175694739761
 20
58.1030995310698
 42
0.0
 97
        1
330
BE6
 92
       22
 72
     1
 73
     1
 93
        6
 10
-18.79994912667462
 20
58.1001017466508
 42
-0.4142135623731575
 10
-18.39994912667453
 20
58.5001017466509
 42
0.0
 10
-15.80771578768872
 20
58.50010174665067
 42
0.0
 10
-15.80771578768827
 20
55.507868407665
 42
0.0
 10
-18.39994912667453
 20
55.507868407665
 42
-0.4142135623731731
 10
-18.79994912667462
 20
55.90786840766487
 42
0.0
 97
        1
330
BE5
 92
        7
 72
     1
 73
     1
 93
       12
 10
-14.79964388672215
 20
55.92380871629621
 42
0.4142135623729885
 10
-13.99964388672242
 20
55.12380871629648
 42
0.0
 10
-11.8233508563676
 20
55.12380871629648
 42
0.4142135623731289
 10
-11.02335085636741
 20
55.92380871629666
 42
0.0
 10
-11.02335085636741
 20
58.90010174665076
 42
0.0
 10
-11.42338477191788
 20
58.90010174665076
 42
0.0
 10
-11.42338477191788
 20
55.91567577726095
 42
-0.4131711701795319
 10
-11.82196067063523
 20
55.51567831234956
 42
0.0
 10
-14.01419400962095
 20
55.50787335710947
 42
-0.4152567234626918
 10
-14.41561811090378
 20
55.90787082202087
 42
0.0
 10
-14.41561811090378
 20
58.90010174665076
 42
0.0
 10
-14.7996438867226
 20
58.90010174665076
 42
0.0
 97
        1
330
BE4
 92
        7
 72
     1
 73
     1
 93
       20
 10
-7.423079531965413
 20
57.02796337120571
 42
-0.414213562373168
 10
-7.023079531965322
 20
56.62796337120562
 42
0.0
 10
-7.023079531965322
 20
55.90786840766487
 42
-0.4142135623731575
 10
-7.423079531965413
 20
55.507868407665
 42
0.0
 10
-10.41534678650168
 20
55.507868407665
 42
0.0
 10
-10.41534678650168
 20
55.12380871629648
 42
0.0
 10
-7.445787917283723
 20
55.12380871629648
 42
0.4114777732065809
 10
-6.645822882998345
 20
55.91632914939783
 42
0.0
 10
-6.639238813324936
 20
56.62051771985716
 42
0.4169546541682913
 10
-7.439203847610315
 20
57.42799728675596
 42
0.0
 10
-9.615312870951584
 20
57.42799728675596
 42
-0.4142135623729911
 10
-10.01531287095122
 20
57.82799728675581
 42
0.0
 10
-10.01531287095122
 20
58.10010174665103
 42
-0.414213562372991
 10
-9.615312870951584
 20
58.5001017466509
 42
0.0
 10
-6.92703069357276
 20
58.50010174665067
 42
0.0
 10
-6.927030693572305
 20
58.90010174665076
 42
0.0
 10
-9.615346786501959
 20
58.90010174665076
 42
0.4142135623730467
 10
-10.41534678650168
 20
58.10010174665103
 42
0.0
 10
-10.41534678650168
 20
57.82796337120544
 42
0.4142135623730301
 10
-9.615346786501959
 20
57.02796337120571
 42
0.0
 97
        1
330
BE3
 92
        7
 72
     1
 73
     1
 93
       12
 10
-5.21497371544865
 20
57.42799728675596
 42
0.4142135623730871
 10
-6.014973715448377
 20
56.627997286756
 42
0.0
 10
-6.014973715448377
 20
55.92380871629621
 42
0.4142135623730715
 10
-5.21497371544865
 20
55.12380871629648
 42
0.0
 10
-2.23871460064447
 20
55.12380871629648
 42
0.0
 10
-2.23871460064447
 20
58.10010174665058
 42
0.414213562373155
 10
-3.038714600644652
 20
58.90010174665076
 42
0.0
 10
-5.726962862471737
 20
58.90010174665076
 42
0.0
 10
-5.726962862472191
 20
58.5001017466509
 42
0.0
 10
-3.038748516194573
 20
58.5001017466509
 42
-0.4142135623730067
 10
-2.638748516194482
 20
58.10010174665058
 42
0.0
 10
-2.638748516194482
 20
57.42799728675596
 42
0.0
 97
        1
330
BE2
 92
       22
 72
     1
 73
     1
 93
        6
 10
-2.638748516194937
 20
57.02796337120571
 42
0.0
 10
-2.638748516194482
 20
55.50786840766477
 42
0.0
 10
-5.21497371544865
 20
55.507868407665
 42
-0.4142135623731731
 10
-5.614973715448741
 20
55.90786840766509
 42
0.0
 10
-5.614973715448741
 20
56.62796337120562
 42
-0.4142135623731576
 10
-5.21497371544865
 20
57.02796337120571
 42
0.0
 97
        1
330
C0D
 75
     0
 76
     1
 47
0.0407044778999864
 98
       13
 10
-34.18710075113677
 20
56.16907953933765
 10
-33.12851374392494
 20
56.49471602641233
 10
-33.12851374392494
 20
56.49471602641233
 10
-28.77202873835904
 20
57.51232930166111
 10
-24.41554807250941
 20
57.91937341678636
 10
-24.41554807250941
 20
59.384734621186
 10
-23.31624584658039
 20
58.3264175319116
 10
-19.04119127844888
 20
57.75655517324913
 10
-19.04119127844888
 20
57.75655517324913
 10
-14.64399105416578
 20
57.43091868617466
 10
-8.048195057457178
 20
57.22739662861204
 10
-4.017427461911665
 20
57.18669281458665
 10
-4.017427461911665
 20
57.18669281458665
  0
TEXT
  5
BED
330
B9E
100
AcDbEntity
  8
leg fin
100
AcDbText
 10
3.391127401597259
 20
2.107634911895729
 30
0.0
 40
1.5
  1
Este desenho é propriedade da Sanindusa, S.A., e não pode ser copiado nem divulgado sem nossa autorização.
 50
90.0
 41
0.8
  7
SANINDUSA
100
AcDbText
  0
LINE
  5
BEE
330
B9E
100
AcDbEntity
  8
3
100
AcDbLine
 10
-90.0
 20
4.0
 30
0.0
 11
-90.0
 21
12.0
 31
0.0
  0
TEXT
  5
BEF
330
B9E
100
AcDbEntity
  8
1
100
AcDbText
 10
-39.0
 20
9.25
 30
0.0
 40
2.0
  1
Substituido por:
 41
0.8
  7
SANINDUSA
 11
-39.0
 21
10.25
 31
0.0
100
AcDbText
 73
     2
  0
POINT
  5
BF0
330
B9E
100
AcDbEntity
  8
SANINDUSA
100
AcDbPoint
 10
0.0
 20
0.0
 30
0.0
  0
TEXT
  5
BF1
330
B9E
100
AcDbEntity
  8
1
100
AcDbText
 10
-89.0
 20
16.74927010445663
 30
0.0
 40
2.0
  1
Normas:
 41
0.8
  7
SANINDUSA
 11
-89.0
 21
17.74927010445663
 31
0.0
100
AcDbText
 73
     2
  0
LINE
  5
BF2
330
B9E
100
AcDbEntity
  8
3
100
AcDbLine
 10
-90.0
 20
12.0
 30
0.0
 11
-90.0
 21
20.0
 31
0.0
  0
LINE
  5
BF3
330
B9E
100
AcDbEntity
  8
3
100
AcDbLine
 10
-110.546019464768
 20
12.0
 30
0.0
 11
-110.546019464768
 21
20.0
 31
0.0
  0
TEXT
  5
BF4
330
B9E
100
AcDbEntity
  8
1
100
AcDbText
 10
-109.6177520618648
 20
17.25
 30
0.0
 40
2.0
  1
Cor:
 41
0.8
  7
SANINDUSA
 11
-109.6177520618648
 21
18.25
 31
0.0
100
AcDbText
 73
     2
  0
LINE
  5
BF5
330
B9E
100
AcDbEntity
  8
leg fin
100
AcDbLine
 10
-91.42857142857156
 20
20.0
 30
0.0
 11
-91.42857142857156
 21
28.5
 31
0.0
  0
LINE
  5
BF6
330
B9E
100
AcDbEntity
  8
leg fin
100
AcDbLine
 10
-104.2857142857142
 20
20.0
 30
0.0
 11
-104.2857142857142
 21
28.5
 31
0.0
  0
LINE
  5
BF7
330
B9E
100
AcDbEntity
  8
leg fin
100
AcDbLine
 10
-117.1428571428573
 20
20.0
 30
0.0
 11
-117.1428571428573
 21
28.5
 31
0.0
  0
POINT
  5
BF8
330
B9E
100
AcDbEntity
  8
SANINDUSA
100
AcDbPoint
 10
-117.1428571428573
 20
28.5
 30
0.0
  0
POINT
  5
BF9
330
B9E
100
AcDbEntity
  8
SANINDUSA
100
AcDbPoint
 10
-104.2857142857142
 20
28.5
 30
0.0
  0
POINT
  5
BFA
330
B9E
100
AcDbEntity
  8
SANINDUSA
100
AcDbPoint
 10
-91.42857142857156
 20
28.5
 30
0.0
  0
TEXT
  5
BFB
330
B9E
100
AcDbEntity
  8
1
100
AcDbText
 10
-116.200160604496
 20
26.43288406845113
 30
0.0
 40
1.5
  1
Nº Seq.:
 41
0.8
  7
SANINDUSA
 11
-116.200160604496
 21
27.18288406845113
 31
0.0
100
AcDbText
 73
     2
  0
TEXT
  5
BFC
330
B9E
100
AcDbEntity
  8
1
100
AcDbText
 10
-103.2106584078738
 20
26.43288406845113
 30
0.0
 40
1.5
  1
Tipo:
 41
0.8
  7
SANINDUSA
 11
-103.2106584078738
 21
27.18288406845113
 31
0.0
100
AcDbText
 73
     2
  0
TEXT
  5
BFD
330
B9E
100
AcDbEntity
  8
1
100
AcDbText
 10
-90.22114672289353
 20
26.43288406845113
 30
0.0
 40
1.5
  1
Prod.:
 41
0.8
  7
SANINDUSA
 11
-90.22114672289353
 21
27.18288406845113
 31
0.0
100
AcDbText
 73
     2
  0
TEXT
  5
BFE
330
B9E
100
AcDbEntity
  8
1
100
AcDbText
 10
-64.77320576346574
 20
26.43288406845113
 30
0.0
 40
1.5
  1
Rev.:
 41
0.8
  7
SANINDUSA
 11
-64.77320576346574
 21
27.18288406845113
 31
0.0
100
AcDbText
 73
     2
  0
LINE
  5
BFF
330
B9E
100
AcDbEntity
  8
leg fin
100
AcDbLine
 10
-52.85714285714266
 20
20.0
 30
0.0
 11
-52.85714285714266
 21
28.5
 31
0.0
  0
LINE
  5
C00
330
B9E
100
AcDbEntity
  8
leg fin
100
AcDbLine
 10
-65.71428571428578
 20
20.0
 30
0.0
 11
-65.71428571428578
 21
28.5
 31
0.0
  0
LINE
  5
C01
330
B9E
100
AcDbEntity
  8
leg fin
100
AcDbLine
 10
-78.57142857142844
 20
20.0
 30
0.0
 11
-78.57142857142844
 21
28.5
 31
0.0
  0
POINT
  5
C02
330
B9E
100
AcDbEntity
  8
SANINDUSA
100
AcDbPoint
 10
-78.57142857142844
 20
28.5
 30
0.0
  0
POINT
  5
C03
330
B9E
100
AcDbEntity
  8
SANINDUSA
100
AcDbPoint
 10
-65.71428571428578
 20
28.5
 30
0.0
  0
POINT
  5
C04
330
B9E
100
AcDbEntity
  8
SANINDUSA
100
AcDbPoint
 10
-52.85714285714266
 20
28.5
 30
0.0
  0
TEXT
  5
C05
330
B9E
100
AcDbEntity
  8
1
100
AcDbText
 10
-77.61097961686573
 20
26.43288406845113
 30
0.0
 40
1.5
  1
Peça:
 41
0.8
  7
SANINDUSA
 11
-77.61097961686573
 21
27.18288406845113
 31
0.0
100
AcDbText
 73
     2
  0
TEXT
  5
C06
330
B9E
100
AcDbEntity
  8
1
100
AcDbText
 10
-52.06538060077036
 20
26.43288406845113
 30
0.0
 40
1.5
  1
Alt.:
 41
0.8
  7
SANINDUSA
 11
-52.06538060077036
 21
27.18288406845113
 31
0.0
100
AcDbText
 73
     2
  0
LINE
  5
C07
330
B9E
100
AcDbEntity
  8
3
100
AcDbLine
 10
0.0
 20
12.0
 30
0.0
 11
-40.0
 21
12.0
 31
0.0
  0
LINE
  5
C08
330
B9E
100
AcDbEntity
  8
3
100
AcDbLine
 10
-40.0
 20
32.5
 30
0.0
 11
0.0
 21
32.5
 31
0.0
  0
TEXT
  5
C09
330
B9E
100
AcDbEntity
  8
1
100
AcDbText
 10
-19.0
 20
29.75
 30
0.0
 40
2.0
  1
Folha:
 41
0.8
  7
SANINDUSA
 11
-19.0
 21
30.75
 31
0.0
100
AcDbText
 73
     2
  0
LINE
  5
C0A
330
B9E
100
AcDbEntity
  8
3
100
AcDbLine
 10
-20.0
 20
32.5
 30
0.0
 11
-20.0
 21
20.0
 31
0.0
  0
TEXT
  5
C0B
330
B9E
100
AcDbEntity
  8
1
100
AcDbText
 10
-39.0
 20
29.75
 30
0.0
 40
2.0
  1
Escala:
 41
0.8
  7
SANINDUSA
 11
-39.0
 21
30.75
 31
0.0
100
AcDbText
 73
     2
  0
TEXT
  5
C0C
330
B9E
100
AcDbEntity
  8
1
100
AcDbText
 10
-39.0
 20
17.25
 30
0.0
 40
2.0
  1
Substitui:
 41
0.8
  7
SANINDUSA
 11
-39.0
 21
18.25
 31
0.0
100
AcDbText
 73
     2
  0
LWPOLYLINE
  5
C0D
102
{ACAD_REACTORS
330
BEC
102
}
330
B9E
100
AcDbEntity
  8
9
100
AcDbPolyline
 90
        6
 70
     1
 43
0.0
 10
-2.638748516194482
 20
57.02796337120571
 10
-2.638748516194482
 20
55.50786840766477
 10
-5.21497371544865
 20
55.507868407665
 42
-0.4142135623730898
 10
-5.614973715448741
 20
55.90786840766487
 10
-5.614973715448741
 20
56.62796337120562
 42
-0.4142135623731576
 10
-5.21497371544865
 20
57.02796337120571
  0
LINE
  5
C0E
330
B9E
100
AcDbEntity
  8
3
100
AcDbLine
 10
-40.0
 20
50.0
 30
0.0
 11
0.0
 21
50.0
 31
0.0
  0
ATTDEF
  5
C0F
330
B9E
100
AcDbEntity
  8
1
100
AcDbText
 10
-31.30691739422431
 20
40.25
 30
0.0
 40
2.0
  1
XXXXXXXXXXXXXXX
 41
0.8
  7
SANINDUSA
 72
     4
 11
-20.0
 21
41.25
 31
0.0
100
AcDbAttributeDefinition
  3
Observações:
  2
OBS
 70
     0
  0
TEXT
  5
C10
330
B9E
100
AcDbEntity
  8
1
100
AcDbText
 10
-39.0
 20
47.25
 30
0.0
 40
2.0
  1
Observações:
 41
0.8
  7
SANINDUSA
 11
-39.0
 21
48.25
 31
0.0
100
AcDbText
 73
     2
  0
LWPOLYLINE
  5
C11
102
{ACAD_REACTORS
330
BEC
102
}
330
B9E
100
AcDbEntity
  8
9
100
AcDbPolyline
 90
        6
 70
     1
 43
0.0
 10
-29.98468712904878
 20
57.02796337120571
 10
-29.98468712904878
 20
55.507868407665
 10
-32.57692046803459
 20
55.507868407665
 42
-0.4142135623731731
 10
-32.97692046803468
 20
55.90786840766487
 10
-32.97692046803468
 20
56.62796337120562
 42
-0.4142135623731576
 10
-32.57692046803459
 20
57.02796337120571
  0
LWPOLYLINE
  5
C12
102
{ACAD_REACTORS
330
BEC
102
}
330
B9E
100
AcDbEntity
  8
9
100
AcDbPolyline
 90
        4
 70
     1
 43
0.0
 10
-24.19231812786165
 20
59.87619128370352
 10
-24.57637781922995
 20
59.87619128370352
 10
-24.57637781922995
 20
59.28412752246913
 10
-24.19231812786165
 20
59.28412752246913
  0
ENDBLK
  5
C14
330
B9E
100
AcDbEntity
  8
0
100
AcDbBlockEnd
  0
BLOCK
  5
10B4
330
10B3
100
AcDbEntity
  8
0
100
AcDbBlockBegin
  2
*D7
 70
     1
 10
0.0
 20
0.0
 30
0.0
  3
*D7
  1

  0
LINE
  5
10B5
330
10B3
100
AcDbEntity
  8
cotas
100
AcDbLine
 10
6349.632176200823
 20
1983.334029237721
 30
0.0
 11
6374.632176200822
 21
1983.334029237721
 31
0.0
  0
LINE
  5
10B6
330
10B3
100
AcDbEntity
  8
cotas
100
AcDbLine
 10
6333.841374626485
 20
1483.334029237721
 30
0.0
 11
6374.632176200822
 21
1483.334029237721
 31
0.0
  0
LINE
  5
10B7
330
10B3
100
AcDbEntity
  8
cotas
100
AcDbLine
 10
6369.632176200823
 20
1973.334029237721
 30
0.0
 11
6369.632176200823
 21
1493.334029237721
 31
0.0
  0
SOLID
  5
10B8
330
10B3
100
AcDbEntity
  8
cotas
100
AcDbTrace
 10
6367.965509534156
 20
1973.334029237721
 30
0.0
 11
6371.298842867489
 21
1973.334029237721
 31
0.0
 12
6369.632176200823
 22
1983.334029237721
 32
0.0
 13
6369.632176200823
 23
1983.334029237721
 33
0.0
  0
SOLID
  5
10B9
330
10B3
100
AcDbEntity
  8
cotas
100
AcDbTrace
 10
6367.965509534156
 20
1493.334029237721
 30
0.0
 11
6371.298842867489
 21
1493.334029237721
 31
0.0
 12
6369.632176200823
 22
1483.334029237721
 32
0.0
 13
6369.632176200823
 23
1483.334029237721
 33
0.0
  0
MTEXT
  5
10BA
330
10B3
100
AcDbEntity
  8
cotas
100
AcDbMText
 10
6359.427340740783
 20
1733.334029237722
 30
0.0
 40
10.0
 41
0.0
 71
     5
 72
     1
  1
500
  7
SANINDUSA
 11
0.0000000000000001
 21
1.0
 31
0.0
 73
     1
 44
1.0
1001
ACAD
1000
MTEXTBEGIN
1070
    73
1070
     1
1070
    44
1040
1.0
1070
    74
1070
     0
1000
MTEXTEND
  0
POINT
  5
10BB
330
10B3
100
AcDbEntity
  8
Defpoints
 62
     0
100
AcDbPoint
 10
6344.632176200823
 20
1983.334029237721
 30
0.0
  0
POINT
  5
10BC
330
10B3
100
AcDbEntity
  8
Defpoints
 62
     0
100
AcDbPoint
 10
6328.841374626485
 20
1483.334029237721
 30
0.0
  0
POINT
  5
10BD
330
10B3
100
AcDbEntity
  8
Defpoints
 62
     0
100
AcDbPoint
 10
6369.632176200823
 20
1483.334029237721
 30
0.0
  0
ENDBLK
  5
10BE
330
10B3
100
AcDbEntity
  8
0
100
AcDbBlockEnd
  0
BLOCK
  5
10C0
330
10BF
100
AcDbEntity
  8
0
100
AcDbBlockBegin
  2
*D8
 70
     1
 10
0.0
 20
0.0
 30
0.0
  3
*D8
  1

  0
LINE
  5
10C1
330
10BF
100
AcDbEntity
  8
cotas
100
AcDbLine
 10
6344.632176200823
 20
1988.334029237721
 30
0.0
 11
6344.632176200823
 21
2013.334029237721
 31
0.0
  0
LINE
  5
10C2
330
10BF
100
AcDbEntity
  8
cotas
100
AcDbLine
 10
5964.650602521772
 20
1948.872974444948
 30
0.0
 11
5964.650602521772
 21
2013.334029237721
 31
0.0
  0
LINE
  5
10C3
330
10BF
100
AcDbEntity
  8
cotas
100
AcDbLine
 10
6334.632176200823
 20
2008.334029237721
 30
0.0
 11
5974.650602521773
 21
2008.334029237721
 31
0.0
  0
SOLID
  5
10C4
330
10BF
100
AcDbEntity
  8
cotas
100
AcDbTrace
 10
6334.632176200823
 20
2010.000695904388
 30
0.0
 11
6334.632176200823
 21
2006.667362571054
 31
0.0
 12
6344.632176200823
 22
2008.334029237721
 32
0.0
 13
6344.632176200823
 23
2008.334029237721
 33
0.0
  0
SOLID
  5
10C5
330
10BF
100
AcDbEntity
  8
cotas
100
AcDbTrace
 10
5974.650602521773
 20
2010.000695904388
 30
0.0
 11
5974.650602521773
 21
2006.667362571054
 31
0.0
 12
5964.650602521772
 22
2008.334029237721
 32
0.0
 13
5964.650602521772
 23
2008.334029237721
 33
0.0
  0
MTEXT
  5
10C6
330
10BF
100
AcDbEntity
  8
cotas
100
AcDbMText
 10
6154.641389361297
 20
2018.562370406291
 30
0.0
 40
10.0
 41
0.0
 71
     5
 72
     1
  1
380
  7
SANINDUSA
 73
     1
 44
1.0
1001
ACAD
1000
MTEXTBEGIN
1070
    73
1070
     1
1070
    44
1040
1.0
1070
    74
1070
     0
1000
MTEXTEND
  0
POINT
  5
10C7
330
10BF
100
AcDbEntity
  8
Defpoints
 62
     0
100
AcDbPoint
 10
6344.632176200823
 20
1983.334029237721
 30
0.0
  0
POINT
  5
10C8
330
10BF
100
AcDbEntity
  8
Defpoints
 62
     0
100
AcDbPoint
 10
5964.650602521772
 20
1943.872974444948
 30
0.0
  0
POINT
  5
10C9
330
10BF
100
AcDbEntity
  8
Defpoints
 62
     0
100
AcDbPoint
 10
5964.650602521772
 20
2008.334029237721
 30
0.0
  0
ENDBLK
  5
10CA
330
10BF
100
AcDbEntity
  8
0
100
AcDbBlockEnd
  0
BLOCK
  5
10CC
330
10CB
100
AcDbEntity
  8
0
100
AcDbBlockBegin
  2
*D9
 70
     1
 10
0.0
 20
0.0
 30
0.0
  3
*D9
  1

  0
LINE
  5
10CD
330
10CB
100
AcDbEntity
  8
cotas
100
AcDbLine
 10
6708.560805941573
 20
1948.872974444948
 30
0.0
 11
6708.560805941573
 21
2013.334029237721
 31
0.0
  0
LINE
  5
10CE
330
10CB
100
AcDbEntity
  8
cotas
100
AcDbLine
 10
7208.523953299661
 20
1948.872974445815
 30
0.0
 11
7208.523953299661
 21
2013.334029237721
 31
0.0
  0
LINE
  5
10CF
330
10CB
100
AcDbEntity
  8
cotas
100
AcDbLine
 10
6718.560805941574
 20
2008.334029237721
 30
0.0
 11
7198.523953299662
 21
2008.334029237721
 31
0.0
  0
SOLID
  5
10D0
330
10CB
100
AcDbEntity
  8
cotas
100
AcDbTrace
 10
6718.560805941574
 20
2010.000695904388
 30
0.0
 11
6718.560805941574
 21
2006.667362571054
 31
0.0
 12
6708.560805941573
 22
2008.334029237721
 32
0.0
 13
6708.560805941573
 23
2008.334029237721
 33
0.0
  0
SOLID
  5
10D1
330
10CB
100
AcDbEntity
  8
cotas
100
AcDbTrace
 10
7198.523953299662
 20
2010.000695904388
 30
0.0
 11
7198.523953299662
 21
2006.667362571054
 31
0.0
 12
7208.523953299661
 22
2008.334029237721
 32
0.0
 13
7208.523953299661
 23
2008.334029237721
 33
0.0
  0
MTEXT
  5
10D2
330
10CB
100
AcDbEntity
  8
cotas
100
AcDbMText
 10
6958.542379620618
 20
2018.538864697761
 30
0.0
 40
10.0
 41
0.0
 71
     5
 72
     1
  1
500
  7
SANINDUSA
 73
     1
 44
1.0
1001
ACAD
1000
MTEXTBEGIN
1070
    73
1070
     1
1070
    44
1040
1.0
1070
    74
1070
     0
1000
MTEXTEND
  0
POINT
  5
10D3
330
10CB
100
AcDbEntity
  8
Defpoints
 62
     0
100
AcDbPoint
 10
6708.560805941573
 20
1943.872974444948
 30
0.0
  0
POINT
  5
10D4
330
10CB
100
AcDbEntity
  8
Defpoints
 62
     0
100
AcDbPoint
 10
7208.523953299661
 20
1943.872974445815
 30
0.0
  0
POINT
  5
10D5
330
10CB
100
AcDbEntity
  8
Defpoints
 62
     0
100
AcDbPoint
 10
7208.523953299661
 20
2008.334029237721
 30
0.0
  0
ENDBLK
  5
10D6
330
10CB
100
AcDbEntity
  8
0
100
AcDbBlockEnd
  0
BLOCK
  5
10D8
330
10D7
100
AcDbEntity
  8
0
100
AcDbBlockBegin
  2
*D10
 70
     1
 10
0.0
 20
0.0
 30
0.0
  3
*D10
  1

  0
LINE
  5
10D9
330
10D7
100
AcDbEntity
  8
cotas
100
AcDbLine
 10
7188.726268392257
 20
1483.334029237721
 30
0.0
 11
7240.523953299677
 21
1483.334029237721
 31
0.0
  0
LINE
  5
10DA
330
10D7
100
AcDbEntity
  8
cotas
100
AcDbLine
 10
7173.527584238681
 20
1983.334029237721
 30
0.0
 11
7240.523953299677
 21
1983.334029237721
 31
0.0
  0
LINE
  5
10DB
330
10D7
100
AcDbEntity
  8
cotas
100
AcDbLine
 10
7235.523953299678
 20
1493.334029237721
 30
0.0
 11
7235.523953299678
 21
1973.334029237721
 31
0.0
  0
SOLID
  5
10DC
330
10D7
100
AcDbEntity
  8
cotas
100
AcDbTrace
 10
7233.857286633011
 20
1493.334029237721
 30
0.0
 11
7237.190619966344
 21
1493.334029237721
 31
0.0
 12
7235.523953299678
 22
1483.334029237721
 32
0.0
 13
7235.523953299678
 23
1483.334029237721
 33
0.0
  0
SOLID
  5
10DD
330
10D7
100
AcDbEntity
  8
cotas
100
AcDbTrace
 10
7233.857286633011
 20
1973.334029237721
 30
0.0
 11
7237.190619966344
 21
1973.334029237721
 31
0.0
 12
7235.523953299678
 22
1983.334029237721
 32
0.0
 13
7235.523953299678
 23
1983.334029237721
 33
0.0
  0
MTEXT
  5
10DE
330
10D7
100
AcDbEntity
  8
cotas
100
AcDbMText
 10
7225.319117839638
 20
1733.334029237722
 30
0.0
 40
10.0
 41
0.0
 71
     5
 72
     1
  1
500
  7
SANINDUSA
 11
0.0000000000000001
 21
1.0
 31
0.0
 73
     1
 44
1.0
1001
ACAD
1000
MTEXTBEGIN
1070
    73
1070
     1
1070
    44
1040
1.0
1070
    74
1070
     0
1000
MTEXTEND
  0
POINT
  5
10DF
330
10D7
100
AcDbEntity
  8
Defpoints
 62
     0
100
AcDbPoint
 10
7183.726268392257
 20
1483.334029237721
 30
0.0
  0
POINT
  5
10E0
330
10D7
100
AcDbEntity
  8
Defpoints
 62
     0
100
AcDbPoint
 10
7168.527584238681
 20
1983.334029237721
 30
0.0
  0
POINT
  5
10E1
330
10D7
100
AcDbEntity
  8
Defpoints
 62
     0
100
AcDbPoint
 10
7235.523953299678
 20
1983.334029237721
 30
0.0
  0
ENDBLK
  5
10E2
330
10D7
100
AcDbEntity
  8
0
100
AcDbBlockEnd
  0
BLOCK
  5
10E4
330
10E3
100
AcDbEntity
  8
0
100
AcDbBlockBegin
  2
*D11
 70
     1
 10
0.0
 20
0.0
 30
0.0
  3
*D11
  1

  0
LINE
  5
10E5
330
10E3
100
AcDbEntity
  8
cotas
100
AcDbLine
 10
6758.966581679404
 20
1932.810725683685
 30
0.0
 11
6727.459706932961
 21
1964.662340025302
 31
0.0
  0
MTEXT
  5
10E6
330
10E3
100
AcDbEntity
  8
cotas
100
AcDbMText
 10
6753.98445239205
 20
1952.358354065688
 30
0.0
 40
10.0
 41
0.0
 71
     5
 72
     1
  1
R40
  7
SANINDUSA
 11
0.7032489356535738
 21
-0.7109436929195699
 31
0.0
 73
     1
 44
1.0
1001
ACAD
1000
MTEXTBEGIN
1070
    73
1070
     1
1070
    44
1040
1.0
1070
    74
1070
     0
1000
MTEXTEND
  0
SOLID
  5
10E7
330
10E3
100
AcDbEntity
  8
cotas
100
AcDbTrace
 10
6728.644613087826
 20
1965.834421584725
 30
0.0
 11
6726.274800778096
 21
1963.490258465879
 31
0.0
 12
6720.427217576426
 22
1971.771776954498
 32
0.0
 13
6720.427217576426
 23
1971.771776954498
 33
0.0
  0
POINT
  5
10E8
330
10E3
100
AcDbEntity
  8
Defpoints
 62
     0
100
AcDbPoint
 10
6720.427217576426
 20
1971.771776954498
 30
0.0
  0
POINT
  5
10E9
330
10E3
100
AcDbEntity
  8
Defpoints
 62
     0
100
AcDbPoint
 10
6748.557175002564
 20
1943.334029237719
 30
0.0
  0
ENDBLK
  5
10EA
330
10E3
100
AcDbEntity
  8
0
100
AcDbBlockEnd
  0
BLOCK
  5
10EC
330
10EB
100
AcDbEntity
  8
0
100
AcDbBlockBegin
  2
*D12
 70
     1
 10
0.0
 20
0.0
 30
0.0
  3
*D12
  1

  0
LINE
  5
10ED
330
10EB
100
AcDbEntity
  8
cotas
100
AcDbLine
 10
7160.131645815413
 20
1931.143710002914
 30
0.0
 11
7185.544216242655
 21
1968.040996579778
 31
0.0
  0
MTEXT
  5
10EE
330
10EB
100
AcDbEntity
  8
cotas
100
AcDbMText
 10
7161.597474480299
 20
1951.262923057155
 30
0.0
 40
10.0
 41
0.0
 71
     5
 72
     1
  1
R40
  7
SANINDUSA
 11
0.5672210667990446
 21
0.8235655780685311
 31
0.0
 73
     1
 44
1.0
1001
ACAD
1000
MTEXTBEGIN
1070
    73
1070
     1
1070
    44
1040
1.0
1070
    74
1070
     0
1000
MTEXTEND
  0
SOLID
  5
10EF
330
10EB
100
AcDbEntity
  8
cotas
100
AcDbTrace
 10
7184.171606945874
 20
1968.986365024443
 30
0.0
 11
7186.916825539437
 21
1967.095628135113
 31
0.0
 12
7191.216426910647
 22
1976.276652360463
 32
0.0
 13
7191.216426910647
 23
1976.276652360463
 33
0.0
  0
POINT
  5
10F0
330
10EB
100
AcDbEntity
  8
Defpoints
 62
     0
100
AcDbPoint
 10
7191.216426910647
 20
1976.276652360463
 30
0.0
  0
POINT
  5
10F1
330
10EB
100
AcDbEntity
  8
Defpoints
 62
     0
100
AcDbPoint
 10
7168.527584238683
 20
1943.33402923772
 30
0.0
  0
ENDBLK
  5
10F2
330
10EB
100
AcDbEntity
  8
0
100
AcDbBlockEnd
  0
BLOCK
  5
10F4
330
10F3
100
AcDbEntity
  8
0
100
AcDbBlockBegin
  2
*D13
 70
     1
 10
0.0
 20
0.0
 30
0.0
  3
*D13
  1

  0
LINE
  5
10F5
330
10F3
100
AcDbEntity
  8
cotas
100
AcDbLine
 10
7150.480802172509
 20
1540.365883361886
 30
0.0
 11
7190.345417830029
 21
1502.743202703072
 31
0.0
  0
MTEXT
  5
10F6
330
10F3
100
AcDbEntity
  8
cotas
100
AcDbMText
 10
7170.140029339421
 20
1535.844138698974
 30
0.0
 40
10.0
 41
0.0
 71
     5
 72
     1
  1
R40
  7
SANINDUSA
 11
0.7272611197117001
 21
-0.6863608844883896
 31
0.0
 73
     1
 44
1.0
1001
ACAD
1000
MTEXTBEGIN
1070
    73
1070
     1
1070
    44
1040
1.0
1070
    74
1070
     0
1000
MTEXTEND
  0
SOLID
  5
10F7
330
10F3
100
AcDbEntity
  8
cotas
100
AcDbTrace
 10
7191.48935263751
 20
1503.955304569257
 30
0.0
 11
7189.20148302255
 21
1501.531100836885
 31
0.0
 12
7197.618029027147
 22
1495.879593858188
 32
0.0
 13
7197.618029027147
 23
1495.879593858188
 33
0.0
  0
POINT
  5
10F8
330
10F3
100
AcDbEntity
  8
Defpoints
 62
     0
100
AcDbPoint
 10
7197.618029027147
 20
1495.879593858188
 30
0.0
  0
POINT
  5
10F9
330
10F3
100
AcDbEntity
  8
Defpoints
 62
     0
100
AcDbPoint
 10
7168.527584238681
 20
1523.334029237721
 30
0.0
  0
ENDBLK
  5
10FA
330
10F3
100
AcDbEntity
  8
0
100
AcDbBlockEnd
  0
BLOCK
  5
10FC
330
10FB
100
AcDbEntity
  8
0
100
AcDbBlockBegin
  2
*D14
 70
     1
 10
0.0
 20
0.0
 30
0.0
  3
*D14
  1

  0
LINE
  5
10FD
330
10FB
100
AcDbEntity
  8
cotas
100
AcDbLine
 10
6768.014151458146
 20
1541.877996463295
 30
0.0
 11
6726.840570963068
 21
1502.636466362063
 31
0.0
  0
MTEXT
  5
10FE
330
10FB
100
AcDbEntity
  8
cotas
100
AcDbMText
 10
6748.37733304402
 20
1537.259907013375
 30
0.0
 40
10.0
 41
0.0
 71
     5
 72
     1
  1
R40
  7
SANINDUSA
 11
0.7238868013166782
 21
0.6899187625217249
 31
0.0
 73
     1
 44
1.0
1001
ACAD
1000
MTEXTBEGIN
1070
    73
1070
     1
1070
    44
1040
1.0
1070
    74
1070
     0
1000
MTEXTEND
  0
SOLID
  5
10FF
330
10FB
100
AcDbEntity
  8
cotas
100
AcDbTrace
 10
6725.690706358865
 20
1503.842944364257
 30
0.0
 11
6727.990435567271
 21
1501.429988359869
 31
0.0
 12
6719.601702949901
 22
1495.737278736846
 32
0.0
 13
6719.601702949901
 23
1495.737278736846
 33
0.0
  0
POINT
  5
1100
330
10FB
100
AcDbEntity
  8
Defpoints
 62
     0
100
AcDbPoint
 10
6719.601702949901
 20
1495.737278736846
 30
0.0
  0
POINT
  5
1101
330
10FB
100
AcDbEntity
  8
Defpoints
 62
     0
100
AcDbPoint
 10
6748.55717500257
 20
1523.334029237716
 30
0.0
  0
ENDBLK
  5
1102
330
10FB
100
AcDbEntity
  8
0
100
AcDbBlockEnd
  0
BLOCK
  5
1104
330
1103
100
AcDbEntity
  8
0
100
AcDbBlockBegin
  2
*D15
 70
     1
 10
0.0
 20
0.0
 30
0.0
  3
*D15
  1

  0
LINE
  5
1105
330
1103
100
AcDbEntity
  8
cotas
100
AcDbLine
 10
6100.933668359908
 20
1041.027482622679
 30
0.0
 11
6100.933668359908
 21
1009.701992974666
 31
0.0
  0
LINE
  5
1106
330
1103
100
AcDbEntity
  8
cotas
100
AcDbLine
 10
6170.933668359907
 20
1041.027482622679
 30
0.0
 11
6170.933668359907
 21
1009.701992974666
 31
0.0
  0
LINE
  5
1107
330
1103
100
AcDbEntity
  8
cotas
100
AcDbLine
 10
6110.933668359908
 20
1014.701992974665
 30
0.0
 11
6160.933668359907
 21
1014.701992974665
 31
0.0
  0
SOLID
  5
1108
330
1103
100
AcDbEntity
  8
cotas
100
AcDbTrace
 10
6110.933668359908
 20
1016.368659641332
 30
0.0
 11
6110.933668359908
 21
1013.035326307999
 31
0.0
 12
6100.933668359908
 22
1014.701992974665
 32
0.0
 13
6100.933668359908
 23
1014.701992974665
 33
0.0
  0
SOLID
  5
1109
330
1103
100
AcDbEntity
  8
cotas
100
AcDbTrace
 10
6160.933668359907
 20
1016.368659641332
 30
0.0
 11
6160.933668359907
 21
1013.035326307999
 31
0.0
 12
6170.933668359907
 22
1014.701992974665
 32
0.0
 13
6170.933668359907
 23
1014.701992974665
 33
0.0
  0
MTEXT
  5
110A
102
{ACAD_XDICTIONARY
360
1E68
102
}
330
1103
100
AcDbEntity
  8
cotas
100
AcDbMText
 10
6135.933668359907
 20
1025.29970956298
 30
0.0
 40
10.0
 41
0.0
 71
     5
 72
     1
  1
\U+00F870
  7
SANINDUSA
 73
     1
 44
1.0
1001
ACAD
1000
MTEXTBEGIN
1070
    73
1070
     1
1070
    44
1040
1.0
1070
    74
1070
     0
1000
MTEXTEND
  0
POINT
  5
110B
330
1103
100
AcDbEntity
  8
Defpoints
 62
     0
100
AcDbPoint
 10
6100.933668359908
 20
1046.027482622679
 30
0.0
  0
POINT
  5
110C
330
1103
100
AcDbEntity
  8
Defpoints
 62
     0
100
AcDbPoint
 10
6170.933668359907
 20
1046.027482622679
 30
0.0
  0
POINT
  5
110D
330
1103
100
AcDbEntity
  8
Defpoints
 62
     0
100
AcDbPoint
 10
6170.933668359907
 20
1014.701992974665
 30
0.0
  0
ENDBLK
  5
110E
330
1103
100
AcDbEntity
  8
0
100
AcDbBlockEnd
  0
BLOCK
  5
1110
330
110F
100
AcDbEntity
  8
0
100
AcDbBlockBegin
  2
*D16
 70
     1
 10
0.0
 20
0.0
 30
0.0
  3
*D16
  1

  0
LINE
  5
1111
330
110F
100
AcDbEntity
  8
cotas
100
AcDbLine
 10
5950.933668359909
 20
1268.027482622664
 30
0.0
 11
5925.93366835991
 21
1268.027482622664
 31
0.0
  0
LINE
  5
1112
330
110F
100
AcDbEntity
  8
cotas
100
AcDbLine
 10
6094.927237034667
 20
1093.033073288415
 30
0.0
 11
5925.93366835991
 21
1093.033073288415
 31
0.0
  0
LINE
  5
1113
330
110F
100
AcDbEntity
  8
cotas
100
AcDbLine
 10
5930.93366835991
 20
1258.027482622664
 30
0.0
 11
5930.93366835991
 21
1103.033073288415
 31
0.0
  0
SOLID
  5
1114
330
110F
100
AcDbEntity
  8
cotas
100
AcDbTrace
 10
5929.267001693243
 20
1258.027482622664
 30
0.0
 11
5932.600335026577
 21
1258.027482622664
 31
0.0
 12
5930.93366835991
 22
1268.027482622664
 32
0.0
 13
5930.93366835991
 23
1268.027482622664
 33
0.0
  0
SOLID
  5
1115
330
110F
100
AcDbEntity
  8
cotas
100
AcDbTrace
 10
5929.267001693243
 20
1103.033073288415
 30
0.0
 11
5932.600335026577
 21
1103.033073288415
 31
0.0
 12
5930.93366835991
 22
1093.033073288415
 32
0.0
 13
5930.93366835991
 23
1093.033073288415
 33
0.0
  0
MTEXT
  5
1116
330
110F
100
AcDbEntity
  8
cotas
100
AcDbMText
 10
5920.812781858902
 20
1180.530277955541
 30
0.0
 40
10.0
 41
0.0
 71
     5
 72
     1
  1
175
  7
SANINDUSA
 11
0.0000000000000001
 21
1.0
 31
0.0
 73
     1
 44
1.0
1001
ACAD
1000
MTEXTBEGIN
1070
    73
1070
     1
1070
    44
1040
1.0
1070
    74
1070
     0
1000
MTEXTEND
  0
POINT
  5
1117
330
110F
100
AcDbEntity
  8
Defpoints
 62
     0
100
AcDbPoint
 10
5955.93366835991
 20
1268.027482622664
 30
0.0
  0
POINT
  5
1118
330
110F
100
AcDbEntity
  8
Defpoints
 62
     0
100
AcDbPoint
 10
6099.927237034667
 20
1093.033073288415
 30
0.0
  0
POINT
  5
1119
330
110F
100
AcDbEntity
  8
Defpoints
 62
     0
100
AcDbPoint
 10
5930.93366835991
 20
1093.033073288415
 30
0.0
  0
ENDBLK
  5
111A
330
110F
100
AcDbEntity
  8
0
100
AcDbBlockEnd
  0
BLOCK
  5
111C
330
111B
100
AcDbEntity
  8
0
100
AcDbBlockBegin
  2
*D17
 70
     1
 10
0.0
 20
0.0
 30
0.0
  3
*D17
  1

  0
LINE
  5
111D
330
111B
100
AcDbEntity
  8
cotas
100
AcDbLine
 10
5950.933668359909
 20
1268.027482622664
 30
0.0
 11
5900.933668359909
 21
1268.027482622664
 31
0.0
  0
LINE
  5
111E
330
111B
100
AcDbEntity
  8
cotas
100
AcDbLine
 10
6095.933668359908
 20
1046.027482622679
 30
0.0
 11
5900.933668359909
 21
1046.027482622679
 31
0.0
  0
LINE
  5
111F
330
111B
100
AcDbEntity
  8
cotas
100
AcDbLine
 10
5905.93366835991
 20
1258.027482622664
 30
0.0
 11
5905.93366835991
 21
1056.027482622679
 31
0.0
  0
SOLID
  5
1120
330
111B
100
AcDbEntity
  8
cotas
100
AcDbTrace
 10
5904.267001693242
 20
1258.027482622664
 30
0.0
 11
5907.600335026576
 21
1258.027482622664
 31
0.0
 12
5905.93366835991
 22
1268.027482622664
 32
0.0
 13
5905.93366835991
 23
1268.027482622664
 33
0.0
  0
SOLID
  5
1121
330
111B
100
AcDbEntity
  8
cotas
100
AcDbTrace
 10
5904.267001693242
 20
1056.027482622679
 30
0.0
 11
5907.600335026576
 21
1056.027482622679
 31
0.0
 12
5905.93366835991
 22
1046.027482622679
 32
0.0
 13
5905.93366835991
 23
1046.027482622679
 33
0.0
  0
MTEXT
  5
1122
330
111B
100
AcDbEntity
  8
cotas
100
AcDbMText
 10
5895.829571650708
 20
1157.027482622672
 30
0.0
 40
10.0
 41
0.0
 71
     5
 72
     1
  1
222
  7
SANINDUSA
 11
0.0000000000000001
 21
1.0
 31
0.0
 73
     1
 44
1.0
1001
ACAD
1000
MTEXTBEGIN
1070
    73
1070
     1
1070
    44
1040
1.0
1070
    74
1070
     0
1000
MTEXTEND
  0
POINT
  5
1123
330
111B
100
AcDbEntity
  8
Defpoints
 62
     0
100
AcDbPoint
 10
5955.93366835991
 20
1268.027482622664
 30
0.0
  0
POINT
  5
1124
330
111B
100
AcDbEntity
  8
Defpoints
 62
     0
100
AcDbPoint
 10
6100.933668359908
 20
1046.027482622679
 30
0.0
  0
POINT
  5
1125
330
111B
100
AcDbEntity
  8
Defpoints
 62
     0
100
AcDbPoint
 10
5905.93366835991
 20
1046.027482622679
 30
0.0
  0
ENDBLK
  5
1126
330
111B
100
AcDbEntity
  8
0
100
AcDbBlockEnd
  0
BLOCK
  5
1128
330
1127
100
AcDbEntity
  8
0
100
AcDbBlockBegin
  2
*D18
 70
     1
 10
0.0
 20
0.0
 30
0.0
  3
*D18
  1

  0
LINE
  5
1129
330
1127
100
AcDbEntity
  8
cotas
100
AcDbLine
 10
6095.933668359908
 20
1046.027482622679
 30
0.0
 11
5900.933668359909
 21
1046.027482622679
 31
0.0
  0
LINE
  5
112A
330
1127
100
AcDbEntity
  8
cotas
100
AcDbLine
 10
5964.724469934244
 20
768.0274826226718
 30
0.0
 11
5900.933668359909
 21
768.0274826226718
 31
0.0
  0
LINE
  5
112B
330
1127
100
AcDbEntity
  8
cotas
100
AcDbLine
 10
5905.93366835991
 20
1036.027482622679
 30
0.0
 11
5905.93366835991
 21
778.0274826226718
 31
0.0
  0
SOLID
  5
112C
330
1127
100
AcDbEntity
  8
cotas
100
AcDbTrace
 10
5904.267001693242
 20
1036.027482622679
 30
0.0
 11
5907.600335026576
 21
1036.027482622679
 31
0.0
 12
5905.93366835991
 22
1046.027482622679
 32
0.0
 13
5905.93366835991
 23
1046.027482622679
 33
0.0
  0
SOLID
  5
112D
330
1127
100
AcDbEntity
  8
cotas
100
AcDbTrace
 10
5904.267001693242
 20
778.0274826226718
 30
0.0
 11
5907.600335026576
 21
778.0274826226718
 31
0.0
 12
5905.93366835991
 22
768.0274826226718
 32
0.0
 13
5905.93366835991
 23
768.0274826226718
 33
0.0
  0
MTEXT
  5
112E
330
1127
100
AcDbEntity
  8
cotas
100
AcDbMText
 10
5895.70532719134
 20
907.0274826226764
 30
0.0
 40
10.0
 41
0.0
 71
     5
 72
     1
  1
278
  7
SANINDUSA
 11
0.0000000000000001
 21
1.0
 31
0.0
 73
     1
 44
1.0
1001
ACAD
1000
MTEXTBEGIN
1070
    73
1070
     1
1070
    44
1040
1.0
1070
    74
1070
     0
1000
MTEXTEND
  0
POINT
  5
112F
330
1127
100
AcDbEntity
  8
Defpoints
 62
     0
100
AcDbPoint
 10
6100.933668359908
 20
1046.027482622679
 30
0.0
  0
POINT
  5
1130
330
1127
100
AcDbEntity
  8
Defpoints
 62
     0
100
AcDbPoint
 10
5969.724469934245
 20
768.0274826226718
 30
0.0
  0
POINT
  5
1131
330
1127
100
AcDbEntity
  8
Defpoints
 62
     0
100
AcDbPoint
 10
5905.93366835991
 20
768.0274826226718
 30
0.0
  0
ENDBLK
  5
1132
330
1127
100
AcDbEntity
  8
0
100
AcDbBlockEnd
  0
BLOCK
  5
1134
330
1133
100
AcDbEntity
  8
0
100
AcDbBlockBegin
  2
*D19
 70
     1
 10
0.0
 20
0.0
 30
0.0
  3
*D19
  1

  0
LINE
  5
1135
330
1133
100
AcDbEntity
  8
cotas
100
AcDbLine
 10
6175.713647586265
 20
1096.313368433368
 30
0.0
 11
6186.197401529827
 21
1105.426756699038
 31
0.0
  0
LINE
  5
1136
330
1133
100
AcDbEntity
  8
cotas
100
AcDbLine
 10
6096.153689133554
 20
1096.313368433369
 30
0.0
 11
6085.669935189987
 21
1105.426756699045
 31
0.0
  0
ARC
  5
1137
330
1133
100
AcDbEntity
  8
cotas
100
AcDbCircle
 10
6135.933668359903
 20
1061.733160061278
 30
0.0
 40
61.60009954437344
100
AcDbArc
 50
50.31149160162128
 51
129.6885083983702
  0
SOLID
  5
1138
330
1133
100
AcDbEntity
  8
cotas
100
AcDbTrace
 10
6176.437269297739
 20
1110.328061998123
 30
0.0
 11
6174.107376414859
 21
1107.944218407318
 31
0.0
 12
6182.423853628714
 22
1102.146461554085
 32
0.0
 13
6182.423853628714
 23
1102.146461554085
 33
0.0
  0
SOLID
  5
1139
330
1133
100
AcDbEntity
  8
cotas
100
AcDbTrace
 10
6097.759960304955
 20
1107.944218407324
 30
0.0
 11
6095.430067422078
 21
1110.328061998129
 31
0.0
 12
6089.4434830911
 22
1102.146461554092
 32
0.0
 13
6089.4434830911
 23
1102.146461554092
 33
0.0
  0
MTEXT
  5
113A
102
{ACAD_XDICTIONARY
360
1E6A
102
}
330
1133
100
AcDbEntity
  8
cotas
100
AcDbMText
 10
6135.933668359909
 20
1134.689874783624
 30
0.0
 40
10.0
 41
0.0
 71
     5
 72
     1
  1
98,0\U+00B0
  7
SANINDUSA
 73
     1
 44
1.0
1001
ACAD
1000
MTEXTBEGIN
1070
    73
1070
     1
1070
    44
1040
1.0
1070
    74
1070
     0
1000
MTEXTEND
  0
POINT
  5
113B
330
1133
100
AcDbEntity
  8
Defpoints
 62
     0
100
AcDbPoint
 10
6153.257159648375
 20
1120.847193196017
 30
0.0
  0
POINT
  5
113C
330
1133
100
AcDbEntity
  8
Defpoints
 62
     0
100
AcDbPoint
 10
6099.927237034667
 20
1093.033073288415
 30
0.0
  0
POINT
  5
113D
330
1133
100
AcDbEntity
  8
Defpoints
 62
     0
100
AcDbPoint
 10
6159.433668359907
 20
1082.161398399968
 30
0.0
  0
POINT
  5
113E
330
1133
100
AcDbEntity
  8
Defpoints
 62
     0
100
AcDbPoint
 10
6171.940099685151
 20
1093.033073288415
 30
0.0
  0
POINT
  5
113F
330
1133
100
AcDbEntity
  8
Defpoints
 62
     0
100
AcDbPoint
 10
6112.433668359908
 20
1082.161398399968
 30
0.0
  0
ENDBLK
  5
1140
330
1133
100
AcDbEntity
  8
0
100
AcDbBlockEnd
  0
BLOCK
  5
1142
330
1141
100
AcDbEntity
  8
0
100
AcDbBlockBegin
  2
*D20
 70
     1
 10
0.0
 20
0.0
 30
0.0
  3
*D20
  1

  0
LINE
  5
1143
330
1141
100
AcDbEntity
  8
cotas
100
AcDbLine
 10
6213.19374121758
 20
1040.275176945202
 30
0.0
 11
6183.395593143849
 21
1073.730802239477
 31
0.0
  0
MTEXT
  5
1144
330
1141
100
AcDbEntity
  8
cotas
100
AcDbMText
 10
6209.24063388369
 20
1060.056590696588
 30
0.0
 40
10.0
 41
0.0
 71
     5
 72
     1
  1
R10
  7
SANINDUSA
 11
0.6651093161712525
 21
-0.7467460060436943
 31
0.0
 73
     1
 44
1.0
1001
ACAD
1000
MTEXTBEGIN
1070
    73
1070
     1
1070
    44
1040
1.0
1070
    74
1070
     0
1000
MTEXTEND
  0
SOLID
  5
1145
330
1141
100
AcDbEntity
  8
cotas
100
AcDbTrace
 10
6184.640169820588
 20
1074.839317766429
 30
0.0
 11
6182.151016467109
 21
1072.622286712525
 31
0.0
 12
6176.744499982136
 22
1081.198262299914
 32
0.0
 13
6176.744499982136
 23
1081.198262299914
 33
0.0
  0
POINT
  5
1146
330
1141
100
AcDbEntity
  8
Defpoints
 62
     0
100
AcDbPoint
 10
6176.744499982136
 20
1081.198262299914
 30
0.0
  0
POINT
  5
1147
330
1141
100
AcDbEntity
  8
Defpoints
 62
     0
100
AcDbPoint
 10
6183.395593143849
 20
1073.730802239477
 30
0.0
  0
ENDBLK
  5
1148
330
1141
100
AcDbEntity
  8
0
100
AcDbBlockEnd
  0
BLOCK
  5
114A
330
1149
100
AcDbEntity
  8
0
100
AcDbBlockBegin
  2
*D21
 70
     1
 10
0.0
 20
0.0
 30
0.0
  3
*D21
  1

  0
ARC
  5
114B
330
1149
100
AcDbEntity
  8
cotas
100
AcDbCircle
 10
6286.717557131535
 20
768.0274826226718
 30
0.0
 40
71.77993174679535
100
AcDbArc
 50
101.9886138324619
 51
172.0113861675383
  0
SOLID
  5
114C
330
1149
100
AcDbEntity
  8
cotas
100
AcDbTrace
 10
6271.575832108421
 20
839.8922848421284
 30
0.0
 11
6272.039414455792
 21
836.5913452004029
 31
0.0
 12
6281.710442207284
 22
839.6325620633783
 32
0.0
 13
6281.710442207284
 23
839.6325620633783
 33
0.0
  0
SOLID
  5
114D
330
1149
100
AcDbEntity
  8
cotas
100
AcDbTrace
 10
6217.296817202863
 20
777.8870968008782
 30
0.0
 11
6213.971580614358
 21
778.1192879755017
 31
0.0
 12
6214.937625384741
 22
768.0274826226718
 32
0.0
 13
6214.937625384741
 23
768.0274826226718
 33
0.0
  0
MTEXT
  5
114E
102
{ACAD_XDICTIONARY
360
1E6C
102
}
330
1149
100
AcDbEntity
  8
cotas
100
AcDbMText
 10
6225.915335798272
 20
824.7264712866222
 30
0.0
 40
10.0
 41
0.0
 71
     5
 72
     1
  1
86,0\U+00B0
  7
SANINDUSA
 11
0.6819983600624966
 21
0.7313537016191724
 31
0.0
 73
     1
 44
1.0
1001
ACAD
1000
MTEXTBEGIN
1070
    73
1070
     1
1070
    44
1040
1.0
1070
    74
1070
     0
1000
MTEXTEND
  0
POINT
  5
114F
330
1149
100
AcDbEntity
  8
Defpoints
 62
     0
100
AcDbPoint
 10
6247.974291743488
 20
828.4536192577897
 30
0.0
  0
POINT
  5
1150
330
1149
100
AcDbEntity
  8
Defpoints
 62
     0
100
AcDbPoint
 10
6286.717557131535
 20
768.0274826226718
 30
0.0
  0
POINT
  5
1151
330
1149
100
AcDbEntity
  8
Defpoints
 62
     0
100
AcDbPoint
 10
6262.598288249535
 20
1112.949097260009
 30
0.0
  0
POINT
  5
1152
330
1149
100
AcDbEntity
  8
Defpoints
 62
     0
100
AcDbPoint
 10
6286.717557131535
 20
768.0274826226718
 30
0.0
  0
POINT
  5
1153
330
1149
100
AcDbEntity
  8
Defpoints
 62
     0
100
AcDbPoint
 10
6135.933668359907
 20
768.0274826226723
 30
0.0
  0
ENDBLK
  5
1154
330
1149
100
AcDbEntity
  8
0
100
AcDbBlockEnd
  0
BLOCK
  5
1156
330
1155
100
AcDbEntity
  8
0
100
AcDbBlockBegin
  2
*D22
 70
     1
 10
0.0
 20
0.0
 30
0.0
  3
*D22
  1

  0
ARC
  5
1157
330
1155
100
AcDbEntity
  8
cotas
100
AcDbCircle
 10
5975.931839727009
 20
768.0274826226718
 30
0.0
 40
104.5001267118693
100
AcDbArc
 50
5.484937220463621
 51
82.51506277953607
  0
SOLID
  5
1158
330
1155
100
AcDbEntity
  8
cotas
100
AcDbTrace
 10
6081.618255926963
 20
778.0957741871944
 30
0.0
 11
6078.288740312087
 21
777.9362847474108
 31
0.0
 12
6080.431966438879
 22
768.0274826226718
 32
0.0
 13
6080.431966438879
 23
768.0274826226718
 33
0.0
  0
SOLID
  5
1159
330
1155
100
AcDbEntity
  8
cotas
100
AcDbTrace
 10
5989.406809991668
 20
869.9762179424265
 30
0.0
 11
5989.682400694016
 21
873.2981392051733
 31
0.0
 12
5979.578841554602
 22
872.463950680847
 32
0.0
 13
5979.578841554602
 23
872.463950680847
 33
0.0
  0
MTEXT
  5
115A
102
{ACAD_XDICTIONARY
360
1E6E
102
}
330
1155
100
AcDbEntity
  8
cotas
100
AcDbMText
 10
6059.272205305935
 20
848.5083381505578
 30
0.0
 40
10.0
 41
0.0
 71
     5
 72
     1
  1
88,0\U+00B0
  7
SANINDUSA
 11
0.6946583704589943
 21
-0.7193398003386541
 31
0.0
 73
     1
 44
1.0
1001
ACAD
1000
MTEXTBEGIN
1070
    73
1070
     1
1070
    44
1040
1.0
1070
    74
1070
     0
1000
MTEXTEND
  0
POINT
  5
115B
330
1155
100
AcDbEntity
  8
Defpoints
 62
     0
100
AcDbPoint
 10
6067.033421423754
 20
819.2210202533939
 30
0.0
  0
POINT
  5
115C
330
1155
100
AcDbEntity
  8
Defpoints
 62
     0
100
AcDbPoint
 10
6135.933668359907
 20
768.0274826226718
 30
0.0
  0
POINT
  5
115D
330
1155
100
AcDbEntity
  8
Defpoints
 62
     0
100
AcDbPoint
 10
5985.541210694064
 20
1043.20386352472
 30
0.0
  0
POINT
  5
115E
330
1155
100
AcDbEntity
  8
Defpoints
 62
     0
100
AcDbPoint
 10
5977.008872720941
 20
798.8696722309664
 30
0.0
  0
POINT
  5
115F
330
1155
100
AcDbEntity
  8
Defpoints
 62
     0
100
AcDbPoint
 10
6023.767387208852
 20
768.0274826226723
 30
0.0
  0
ENDBLK
  5
1160
330
1155
100
AcDbEntity
  8
0
100
AcDbBlockEnd
  0
BLOCK
  5
1162
330
1161
100
AcDbEntity
  8
0
100
AcDbBlockBegin
  2
*D23
 70
     1
 10
0.0
 20
0.0
 30
0.0
  3
*D23
  1

  0
LINE
  5
1163
330
1161
100
AcDbEntity
  8
cotas
100
AcDbLine
 10
6827.128700672942
 20
1003.718841180535
 30
0.0
 11
6767.755726308388
 21
949.989318138896
 31
0.0
  0
MTEXT
  5
1164
330
1161
100
AcDbEntity
  8
cotas
100
AcDbMText
 10
6804.135152408744
 20
996.6784173420956
 30
0.0
 40
10.0
 41
0.0
 71
     5
 72
     1
  1
R200
  7
SANINDUSA
 11
0.7414667011429992
 21
0.670989665416777
 31
0.0
 73
     1
 44
1.0
1001
ACAD
1000
MTEXTBEGIN
1070
    73
1070
     1
1070
    44
1040
1.0
1070
    74
1070
     0
1000
MTEXTEND
  0
SOLID
  5
1165
330
1161
100
AcDbEntity
  8
cotas
100
AcDbTrace
 10
6766.637410199361
 20
951.2250959741345
 30
0.0
 11
6768.874042417415
 21
948.7535403036581
 31
0.0
 12
6760.341059296958
 22
943.2794214847286
 32
0.0
 13
6760.341059296958
 23
943.2794214847286
 33
0.0
  0
POINT
  5
1166
330
1161
100
AcDbEntity
  8
Defpoints
 62
     0
100
AcDbPoint
 10
6760.341059296958
 20
943.2794214847286
 30
0.0
  0
POINT
  5
1167
330
1161
100
AcDbEntity
  8
Defpoints
 62
     0
100
AcDbPoint
 10
6908.634399525559
 20
1077.477354568085
 30
0.0
  0
ENDBLK
  5
1168
330
1161
100
AcDbEntity
  8
0
100
AcDbBlockEnd
  0
BLOCK
  5
116A
330
1169
100
AcDbEntity
  8
0
100
AcDbBlockBegin
  2
*D24
 70
     1
 10
0.0
 20
0.0
 30
0.0
  3
*D24
  1

  0
LINE
  5
116B
330
1169
100
AcDbEntity
  8
cotas
100
AcDbLine
 10
6806.515758555381
 20
1132.946266697449
 30
0.0
 11
6736.667506170132
 21
1163.758620918067
 31
0.0
  0
MTEXT
  5
116C
330
1169
100
AcDbEntity
  8
cotas
100
AcDbMText
 10
6790.666867088063
 20
1150.981274951998
 30
0.0
 40
10.0
 41
0.0
 71
     5
 72
     1
  1
R222
  7
SANINDUSA
 11
0.9149325609796274
 21
-0.4036067502647356
 31
0.0
 73
     1
 44
1.0
1001
ACAD
1000
MTEXTBEGIN
1070
    73
1070
     1
1070
    44
1040
1.0
1070
    74
1070
     0
1000
MTEXTEND
  0
SOLID
  5
116D
330
1169
100
AcDbEntity
  8
cotas
100
AcDbTrace
 10
6737.340184087239
 20
1165.283508519699
 30
0.0
 11
6735.994828253024
 21
1162.233733316434
 31
0.0
 12
6727.518180560335
 22
1167.794688420714
 32
0.0
 13
6727.518180560335
 23
1167.794688420714
 33
0.0
  0
POINT
  5
116E
330
1169
100
AcDbEntity
  8
Defpoints
 62
     0
100
AcDbPoint
 10
6727.518180560335
 20
1167.794688420714
 30
0.0
  0
POINT
  5
116F
330
1169
100
AcDbEntity
  8
Defpoints
 62
     0
100
AcDbPoint
 10
6930.633209097814
 20
1078.193989861942
 30
0.0
  0
ENDBLK
  5
1170
330
1169
100
AcDbEntity
  8
0
100
AcDbBlockEnd
  0
BLOCK
  5
1172
330
1171
100
AcDbEntity
  8
0
100
AcDbBlockBegin
  2
*D25
 70
     1
 10
0.0
 20
0.0
 30
0.0
  3
*D25
  1

  0
LINE
  5
1173
330
1171
100
AcDbEntity
  8
cotas
100
AcDbLine
 10
6369.699478223356
 20
747.7614428154829
 30
0.0
 11
6335.115473009983
 21
776.242227142046
 31
0.0
  0
MTEXT
  5
1174
330
1171
100
AcDbEntity
  8
cotas
100
AcDbMText
 10
6362.754401664574
 20
766.7007484835753
 30
0.0
 40
10.0
 41
0.0
 71
     5
 72
     1
  1
R40
  7
SANINDUSA
 11
0.7719320006402785
 21
-0.6357051096125445
 31
0.0
 73
     1
 44
1.0
1001
ACAD
1000
MTEXTBEGIN
1070
    73
1070
     1
1070
    44
1040
1.0
1070
    74
1070
     0
1000
MTEXTEND
  0
LINE
  5
1175
330
1171
100
AcDbEntity
  8
cotas
100
AcDbLine
 10
6296.518872977969
 20
808.0274826226723
 30
0.0
 11
6327.396153003579
 21
782.5992782381713
 31
0.0
  0
SOLID
  5
1176
330
1171
100
AcDbEntity
  8
cotas
100
AcDbTrace
 10
6336.174981526003
 20
777.5287804764466
 30
0.0
 11
6334.055964493962
 21
774.9556738076453
 31
0.0
 12
6327.396153003579
 22
782.5992782381713
 32
0.0
 13
6327.396153003579
 23
782.5992782381713
 33
0.0
  0
POINT
  5
1177
330
1171
100
AcDbEntity
  8
Defpoints
 62
     0
100
AcDbPoint
 10
6327.396153003579
 20
782.5992782381713
 30
0.0
  0
POINT
  5
1178
330
1171
100
AcDbEntity
  8
Defpoints
 62
     0
100
AcDbPoint
 10
6296.518872977969
 20
808.0274826226723
 30
0.0
  0
ENDBLK
  5
1179
330
1171
100
AcDbEntity
  8
0
100
AcDbBlockEnd
  0
BLOCK
  5
117B
330
117A
100
AcDbEntity
  8
0
100
AcDbBlockBegin
  2
*D26
 70
     1
 10
0.0
 20
0.0
 30
0.0
  3
*D26
  1

  0
LINE
  5
117C
330
117A
100
AcDbEntity
  8
cotas
100
AcDbLine
 10
6004.609987412176
 20
1300.458640517394
 30
0.0
 11
5980.170088951664
 21
1274.038676716563
 31
0.0
  0
MTEXT
  5
117D
330
117A
100
AcDbEntity
  8
cotas
100
AcDbMText
 10
5988.368143960143
 20
1297.780379140128
 30
0.0
 40
10.0
 41
0.0
 71
     5
 72
     1
  1
R5
  7
SANINDUSA
 11
0.6790634224239663
 21
0.7340796062593281
 31
0.0
 73
     1
 44
1.0
1001
ACAD
1000
MTEXTBEGIN
1070
    73
1070
     1
1070
    44
1040
1.0
1070
    74
1070
     0
1000
MTEXTEND
  0
LINE
  5
117E
330
117A
100
AcDbEntity
  8
cotas
100
AcDbLine
 10
5969.984137615307
 20
1263.027482622675
 30
0.0
 11
5973.379454727425
 21
1266.69788065397
 31
0.0
  0
SOLID
  5
117F
330
117A
100
AcDbEntity
  8
cotas
100
AcDbTrace
 10
5978.946622941232
 20
1275.170449087269
 30
0.0
 11
5981.393554962096
 21
1272.906904345856
 31
0.0
 12
5973.379454727425
 22
1266.69788065397
 32
0.0
 13
5973.379454727425
 23
1266.69788065397
 33
0.0
  0
POINT
  5
1180
330
117A
100
AcDbEntity
  8
Defpoints
 62
     0
100
AcDbPoint
 10
5973.379454727425
 20
1266.69788065397
 30
0.0
  0
POINT
  5
1181
330
117A
100
AcDbEntity
  8
Defpoints
 62
     0
100
AcDbPoint
 10
5969.984137615307
 20
1263.027482622675
 30
0.0
  0
ENDBLK
  5
1182
330
117A
100
AcDbEntity
  8
0
100
AcDbBlockEnd
  0
BLOCK
  5
1184
330
1183
100
AcDbEntity
  8
0
100
AcDbBlockBegin
  2
*D27
 70
     1
 10
0.0
 20
0.0
 30
0.0
  3
*D27
  1

  0
LINE
  5
1185
330
1183
100
AcDbEntity
  8
cotas
100
AcDbLine
 10
7124.868482585089
 20
1257.46398199523
 30
0.0
 11
7246.461980422527
 21
1257.46398199523
 31
0.0
  0
LINE
  5
1186
330
1183
100
AcDbEntity
  8
cotas
100
AcDbLine
 10
7216.123953299676
 20
1077.463564583746
 30
0.0
 11
7246.461980422527
 21
1077.463564583746
 31
0.0
  0
LINE
  5
1187
330
1183
100
AcDbEntity
  8
cotas
100
AcDbLine
 10
7241.461980422525
 20
1247.46398199523
 30
0.0
 11
7241.461980422525
 21
1087.463564583746
 31
0.0
  0
SOLID
  5
1188
330
1183
100
AcDbEntity
  8
cotas
100
AcDbTrace
 10
7239.795313755859
 20
1247.46398199523
 30
0.0
 11
7243.128647089193
 21
1247.46398199523
 31
0.0
 12
7241.461980422525
 22
1257.46398199523
 32
0.0
 13
7241.461980422525
 23
1257.46398199523
 33
0.0
  0
SOLID
  5
1189
330
1183
100
AcDbEntity
  8
cotas
100
AcDbTrace
 10
7239.795313755859
 20
1087.463564583746
 30
0.0
 11
7243.128647089193
 21
1087.463564583746
 31
0.0
 12
7241.461980422525
 22
1077.463564583746
 32
0.0
 13
7241.461980422525
 23
1077.463564583746
 33
0.0
  0
MTEXT
  5
118A
330
1183
100
AcDbEntity
  8
cotas
100
AcDbMText
 10
7231.233639253956
 20
1167.463773289489
 30
0.0
 40
10.0
 41
0.0
 71
     5
 72
     1
  1
180
  7
SANINDUSA
 11
0.0000000000000001
 21
1.0
 31
0.0
 73
     1
 44
1.0
1001
ACAD
1000
MTEXTBEGIN
1070
    73
1070
     1
1070
    44
1040
1.0
1070
    74
1070
     0
1000
MTEXTEND
  0
POINT
  5
118B
330
1183
100
AcDbEntity
  8
Defpoints
 62
     0
100
AcDbPoint
 10
7119.868482585089
 20
1257.46398199523
 30
0.0
  0
POINT
  5
118C
330
1183
100
AcDbEntity
  8
Defpoints
 62
     0
100
AcDbPoint
 10
7211.123953299676
 20
1077.463564583746
 30
0.0
  0
POINT
  5
118D
330
1183
100
AcDbEntity
  8
Defpoints
 62
     0
100
AcDbPoint
 10
7241.461980422525
 20
1077.463564583746
 30
0.0
  0
ENDBLK
  5
118E
330
1183
100
AcDbEntity
  8
0
100
AcDbBlockEnd
  0
BLOCK
  5
1190
330
118F
100
AcDbEntity
  8
0
100
AcDbBlockBegin
  2
*D28
 70
     1
 10
0.0
 20
0.0
 30
0.0
  3
*D28
  1

  0
LINE
  5
1191
330
118F
100
AcDbEntity
  8
cotas
100
AcDbLine
 10
7215.599237560773
 20
1077.463564583746
 30
0.0
 11
7246.537273139354
 21
1077.463564583746
 31
0.0
  0
LINE
  5
1192
330
118F
100
AcDbEntity
  8
cotas
100
AcDbLine
 10
7013.542379620623
 20
877.4773553407918
 30
0.0
 11
7246.537273139354
 21
877.4773553407918
 31
0.0
  0
LINE
  5
1193
330
118F
100
AcDbEntity
  8
cotas
100
AcDbLine
 10
7241.537273139353
 20
1067.463564583746
 30
0.0
 11
7241.537273139353
 21
887.4773553407917
 31
0.0
  0
SOLID
  5
1194
330
118F
100
AcDbEntity
  8
cotas
100
AcDbTrace
 10
7239.870606472686
 20
1067.463564583746
 30
0.0
 11
7243.203939806021
 21
1067.463564583746
 31
0.0
 12
7241.537273139353
 22
1077.463564583746
 32
0.0
 13
7241.537273139353
 23
1077.463564583746
 33
0.0
  0
SOLID
  5
1195
330
118F
100
AcDbEntity
  8
cotas
100
AcDbTrace
 10
7239.870606472686
 20
887.4773553407917
 30
0.0
 11
7243.203939806021
 21
887.4773553407917
 31
0.0
 12
7241.537273139353
 22
877.4773553407918
 32
0.0
 13
7241.537273139353
 23
877.4773553407918
 33
0.0
  0
MTEXT
  5
1196
330
118F
100
AcDbEntity
  8
cotas
100
AcDbMText
 10
7231.329079720952
 20
977.4704599622701
 30
0.0
 40
10.0
 41
0.0
 71
     5
 72
     1
  1
200
  7
SANINDUSA
 11
0.0000000000000001
 21
1.0
 31
0.0
 73
     1
 44
1.0
1001
ACAD
1000
MTEXTBEGIN
1070
    73
1070
     1
1070
    44
1040
1.0
1070
    74
1070
     0
1000
MTEXTEND
  0
POINT
  5
1197
330
118F
100
AcDbEntity
  8
Defpoints
 62
     0
100
AcDbPoint
 10
7210.599237560774
 20
1077.463564583746
 30
0.0
  0
POINT
  5
1198
330
118F
100
AcDbEntity
  8
Defpoints
 62
     0
100
AcDbPoint
 10
7008.542379620623
 20
877.4773553407918
 30
0.0
  0
POINT
  5
1199
330
118F
100
AcDbEntity
  8
Defpoints
 62
     0
100
AcDbPoint
 10
7241.537273139353
 20
877.4773553407918
 30
0.0
  0
ENDBLK
  5
119A
330
118F
100
AcDbEntity
  8
0
100
AcDbBlockEnd
  0
BLOCK
  5
119C
330
119B
100
AcDbEntity
  8
0
100
AcDbBlockBegin
  2
*D29
 70
     1
 10
0.0
 20
0.0
 30
0.0
  3
*D29
  1

  0
LINE
  5
119D
330
119B
100
AcDbEntity
  8
cotas
100
AcDbLine
 10
7124.868482585089
 20
1257.46398199523
 30
0.0
 11
7271.513638671186
 21
1257.46398199523
 31
0.0
  0
LINE
  5
119E
330
119B
100
AcDbEntity
  8
cotas
100
AcDbLine
 10
7013.542379620623
 20
877.4773553407918
 30
0.0
 11
7271.513638671186
 21
877.4773553407918
 31
0.0
  0
LINE
  5
119F
330
119B
100
AcDbEntity
  8
cotas
100
AcDbLine
 10
7266.513638671186
 20
1247.46398199523
 30
0.0
 11
7266.513638671186
 21
887.4773553407917
 31
0.0
  0
SOLID
  5
11A0
330
119B
100
AcDbEntity
  8
cotas
100
AcDbTrace
 10
7264.846972004519
 20
1247.46398199523
 30
0.0
 11
7268.180305337853
 21
1247.46398199523
 31
0.0
 12
7266.513638671186
 22
1257.46398199523
 32
0.0
 13
7266.513638671186
 23
1257.46398199523
 33
0.0
  0
SOLID
  5
11A1
330
119B
100
AcDbEntity
  8
cotas
100
AcDbTrace
 10
7264.846972004519
 20
887.4773553407917
 30
0.0
 11
7268.180305337853
 21
887.4773553407917
 31
0.0
 12
7266.513638671186
 22
877.4773553407918
 32
0.0
 13
7266.513638671186
 23
877.4773553407918
 33
0.0
  0
MTEXT
  5
11A2
330
119B
100
AcDbEntity
  8
cotas
100
AcDbMText
 10
7256.285297502618
 20
1067.470668668012
 30
0.0
 40
10.0
 41
0.0
 71
     5
 72
     1
  1
380
  7
SANINDUSA
 11
0.0000000000000001
 21
1.0
 31
0.0
 73
     1
 44
1.0
1001
ACAD
1000
MTEXTBEGIN
1070
    73
1070
     1
1070
    44
1040
1.0
1070
    74
1070
     0
1000
MTEXTEND
  0
POINT
  5
11A3
330
119B
100
AcDbEntity
  8
Defpoints
 62
     0
100
AcDbPoint
 10
7119.868482585089
 20
1257.46398199523
 30
0.0
  0
POINT
  5
11A4
330
119B
100
AcDbEntity
  8
Defpoints
 62
     0
100
AcDbPoint
 10
7008.542379620623
 20
877.4773553407918
 30
0.0
  0
POINT
  5
11A5
330
119B
100
AcDbEntity
  8
Defpoints
 62
     0
100
AcDbPoint
 10
7266.513638671186
 20
877.4773553407918
 30
0.0
  0
ENDBLK
  5
11A6
330
119B
100
AcDbEntity
  8
0
100
AcDbBlockEnd
  0
BLOCK
  5
11A8
330
11A7
100
AcDbEntity
  8
0
100
AcDbBlockBegin
  2
*D30
 70
     1
 10
0.0
 20
0.0
 30
0.0
  3
*D30
  1

  0
LINE
  5
11A9
330
11A7
100
AcDbEntity
  8
cotas
100
AcDbLine
 10
6903.542379620716
 20
1238.226141368869
 30
0.0
 11
6675.96080594157
 21
1238.226141368869
 31
0.0
  0
LINE
  5
11AA
330
11A7
100
AcDbEntity
  8
cotas
100
AcDbLine
 10
6792.215001857055
 20
1257.463037746006
 30
0.0
 11
6675.96080594157
 21
1257.463037746006
 31
0.0
  0
LINE
  5
11AB
330
11A7
100
AcDbEntity
  8
cotas
100
AcDbLine
 10
6680.96080594157
 20
1228.226141368869
 30
0.0
 11
6680.96080594157
 21
1218.226141368869
 31
0.0
  0
LINE
  5
11AC
330
11A7
100
AcDbEntity
  8
cotas
100
AcDbLine
 10
6680.96080594157
 20
1267.463037746006
 30
0.0
 11
6680.96080594157
 21
1302.177611285294
 31
0.0
  0
LINE
  5
11AD
330
11A7
100
AcDbEntity
  8
cotas
100
AcDbLine
 10
6680.96080594157
 20
1238.226141368869
 30
0.0
 11
6680.96080594157
 21
1257.463037746006
 31
0.0
  0
SOLID
  5
11AE
330
11A7
100
AcDbEntity
  8
cotas
100
AcDbTrace
 10
6679.294139274903
 20
1228.226141368869
 30
0.0
 11
6682.627472608236
 21
1228.226141368869
 31
0.0
 12
6680.96080594157
 22
1238.226141368869
 32
0.0
 13
6680.96080594157
 23
1238.226141368869
 33
0.0
  0
SOLID
  5
11AF
330
11A7
100
AcDbEntity
  8
cotas
100
AcDbTrace
 10
6679.294139274903
 20
1267.463037746006
 30
0.0
 11
6682.627472608236
 21
1267.463037746006
 31
0.0
 12
6680.96080594157
 22
1257.463037746006
 32
0.0
 13
6680.96080594157
 23
1257.463037746006
 33
0.0
  0
MTEXT
  5
11B0
330
11A7
100
AcDbEntity
  8
cotas
100
AcDbMText
 10
6670.762686398252
 20
1289.820324515652
 30
0.0
 40
10.0
 41
0.0
 71
     5
 72
     1
  1
19
  7
SANINDUSA
 11
0.0000000000000001
 21
1.0
 31
0.0
 73
     1
 44
1.0
1001
ACAD
1000
MTEXTBEGIN
1070
    73
1070
     1
1070
    44
1040
1.0
1070
    74
1070
     0
1000
MTEXTEND
  0
POINT
  5
11B1
330
11A7
100
AcDbEntity
  8
Defpoints
 62
     0
100
AcDbPoint
 10
6908.542379620716
 20
1238.226141368869
 30
0.0
  0
POINT
  5
11B2
330
11A7
100
AcDbEntity
  8
Defpoints
 62
     0
100
AcDbPoint
 10
6797.215001857054
 20
1257.463037746006
 30
0.0
  0
POINT
  5
11B3
330
11A7
100
AcDbEntity
  8
Defpoints
 62
     0
100
AcDbPoint
 10
6680.96080594157
 20
1257.463037746006
 30
0.0
  0
ENDBLK
  5
11B4
330
11A7
100
AcDbEntity
  8
0
100
AcDbBlockEnd
  0
BLOCK
  5
11B6
330
11B5
100
AcDbEntity
  8
0
100
AcDbBlockBegin
  2
*D31
 70
     1
 10
0.0
 20
0.0
 30
0.0
  3
*D31
  1

  0
LINE
  5
11B7
330
11B5
100
AcDbEntity
  8
cotas
100
AcDbLine
 10
6903.542379620716
 20
1238.226141368865
 30
0.0
 11
6675.96080594157
 21
1238.226141368865
 31
0.0
  0
LINE
  5
11B8
330
11B5
100
AcDbEntity
  8
cotas
100
AcDbLine
 10
6903.592618864911
 20
916.7232582994163
 30
0.0
 11
6675.96080594157
 21
916.7232582994163
 31
0.0
  0
LINE
  5
11B9
330
11B5
100
AcDbEntity
  8
cotas
100
AcDbLine
 10
6680.96080594157
 20
1228.226141368865
 30
0.0
 11
6680.96080594157
 21
926.7232582994163
 31
0.0
  0
SOLID
  5
11BA
330
11B5
100
AcDbEntity
  8
cotas
100
AcDbTrace
 10
6679.294139274903
 20
1228.226141368865
 30
0.0
 11
6682.627472608236
 21
1228.226141368865
 31
0.0
 12
6680.96080594157
 22
1238.226141368865
 32
0.0
 13
6680.96080594157
 23
1238.226141368865
 33
0.0
  0
SOLID
  5
11BB
330
11B5
100
AcDbEntity
  8
cotas
100
AcDbTrace
 10
6679.294139274903
 20
926.7232582994163
 30
0.0
 11
6682.627472608236
 21
926.7232582994163
 31
0.0
 12
6680.96080594157
 22
916.7232582994163
 32
0.0
 13
6680.96080594157
 23
916.7232582994163
 33
0.0
  0
MTEXT
  5
11BC
330
11B5
100
AcDbEntity
  8
cotas
100
AcDbMText
 10
6670.752612523168
 20
1077.474699834142
 30
0.0
 40
10.0
 41
0.0
 71
     5
 72
     1
  1
322
  7
SANINDUSA
 11
0.0000000000000001
 21
1.0
 31
0.0
 73
     1
 44
1.0
1001
ACAD
1000
MTEXTBEGIN
1070
    73
1070
     1
1070
    44
1040
1.0
1070
    74
1070
     0
1000
MTEXTEND
  0
POINT
  5
11BD
330
11B5
100
AcDbEntity
  8
Defpoints
 62
     0
100
AcDbPoint
 10
6908.542379620716
 20
1238.226141368865
 30
0.0
  0
POINT
  5
11BE
330
11B5
100
AcDbEntity
  8
Defpoints
 62
     0
100
AcDbPoint
 10
6908.592618864911
 20
916.7232582994163
 30
0.0
  0
POINT
  5
11BF
330
11B5
100
AcDbEntity
  8
Defpoints
 62
     0
100
AcDbPoint
 10
6680.96080594157
 20
916.7232582994163
 30
0.0
  0
ENDBLK
  5
11C0
330
11B5
100
AcDbEntity
  8
0
100
AcDbBlockEnd
  0
BLOCK
  5
11C2
330
11C1
100
AcDbEntity
  8
0
100
AcDbBlockBegin
  2
*D32
 70
     1
 10
0.0
 20
0.0
 30
0.0
  3
*D32
  1

  0
LINE
  5
11C3
330
11C1
100
AcDbEntity
  8
cotas
100
AcDbLine
 10
6903.592618859594
 20
916.7232582994163
 30
0.0
 11
6675.96080594157
 21
916.7232582994163
 31
0.0
  0
LINE
  5
11C4
330
11C1
100
AcDbEntity
  8
cotas
100
AcDbLine
 10
6903.542379620623
 20
877.4773757372445
 30
0.0
 11
6675.96080594157
 21
877.4773757372445
 31
0.0
  0
LINE
  5
11C5
330
11C1
100
AcDbEntity
  8
cotas
100
AcDbLine
 10
6680.96080594157
 20
906.7232582994163
 30
0.0
 11
6680.96080594157
 21
887.4773757372445
 31
0.0
  0
SOLID
  5
11C6
330
11C1
100
AcDbEntity
  8
cotas
100
AcDbTrace
 10
6679.294139274903
 20
906.7232582994163
 30
0.0
 11
6682.627472608236
 21
906.7232582994163
 31
0.0
 12
6680.96080594157
 22
916.7232582994163
 32
0.0
 13
6680.96080594157
 23
916.7232582994163
 33
0.0
  0
SOLID
  5
11C7
330
11C1
100
AcDbEntity
  8
cotas
100
AcDbTrace
 10
6679.294139274903
 20
887.4773757372445
 30
0.0
 11
6682.627472608236
 21
887.4773757372445
 31
0.0
 12
6680.96080594157
 22
877.4773757372445
 32
0.0
 13
6680.96080594157
 23
877.4773757372445
 33
0.0
  0
MTEXT
  5
11C8
330
11C1
100
AcDbEntity
  8
cotas
100
AcDbMText
 10
6670.752612523168
 20
897.1003170183314
 30
0.0
 40
10.0
 41
0.0
 71
     5
 72
     1
  1
39
  7
SANINDUSA
 11
0.0000000000000001
 21
1.0
 31
0.0
 73
     1
 44
1.0
1001
ACAD
1000
MTEXTBEGIN
1070
    73
1070
     1
1070
    44
1040
1.0
1070
    74
1070
     0
1000
MTEXTEND
  0
POINT
  5
11C9
330
11C1
100
AcDbEntity
  8
Defpoints
 62
     0
100
AcDbPoint
 10
6908.592618859595
 20
916.7232582994163
 30
0.0
  0
POINT
  5
11CA
330
11C1
100
AcDbEntity
  8
Defpoints
 62
     0
100
AcDbPoint
 10
6908.542379620623
 20
877.4773757372445
 30
0.0
  0
POINT
  5
11CB
330
11C1
100
AcDbEntity
  8
Defpoints
 62
     0
100
AcDbPoint
 10
6680.96080594157
 20
877.4773757372445
 30
0.0
  0
ENDBLK
  5
11CC
330
11C1
100
AcDbEntity
  8
0
100
AcDbBlockEnd
  0
BLOCK
  5
11CE
330
11CD
100
AcDbEntity
  8
0
100
AcDbBlockBegin
  2
*D33
 70
     1
 10
0.0
 20
0.0
 30
0.0
  3
*D33
  1

  0
LINE
  5
11CF
330
11CD
100
AcDbEntity
  8
cotas
100
AcDbLine
 10
6903.651980272968
 20
877.4773553407928
 30
0.0
 11
6675.96080594157
 21
877.4773553407928
 31
0.0
  0
LINE
  5
11D0
330
11CD
100
AcDbEntity
  8
cotas
100
AcDbLine
 10
6903.652156080443
 20
875.4773553485174
 30
0.0
 11
6675.96080594157
 21
875.4773553485174
 31
0.0
  0
LINE
  5
11D1
330
11CD
100
AcDbEntity
  8
cotas
100
AcDbLine
 10
6680.96080594157
 20
887.4773553407928
 30
0.0
 11
6680.96080594157
 21
897.4773553407928
 31
0.0
  0
LINE
  5
11D2
330
11CD
100
AcDbEntity
  8
cotas
100
AcDbLine
 10
6680.96080594157
 20
865.4773553485174
 30
0.0
 11
6680.96080594157
 21
838.7077112921037
 31
0.0
  0
LINE
  5
11D3
330
11CD
100
AcDbEntity
  8
cotas
100
AcDbLine
 10
6680.96080594157
 20
877.4773553407928
 30
0.0
 11
6680.96080594157
 21
875.4773553485174
 31
0.0
  0
SOLID
  5
11D4
330
11CD
100
AcDbEntity
  8
cotas
100
AcDbTrace
 10
6679.294139274903
 20
887.4773553407928
 30
0.0
 11
6682.627472608236
 21
887.4773553407928
 31
0.0
 12
6680.96080594157
 22
877.4773553407928
 32
0.0
 13
6680.96080594157
 23
877.4773553407928
 33
0.0
  0
SOLID
  5
11D5
330
11CD
100
AcDbEntity
  8
cotas
100
AcDbTrace
 10
6679.294139274903
 20
865.4773553485174
 30
0.0
 11
6682.627472608236
 21
865.4773553485174
 31
0.0
 12
6680.96080594157
 22
875.4773553485174
 32
0.0
 13
6680.96080594157
 23
875.4773553485174
 33
0.0
  0
MTEXT
  5
11D6
330
11CD
100
AcDbEntity
  8
cotas
100
AcDbMText
 10
6670.856709232369
 20
847.0925333203116
 30
0.0
 40
10.0
 41
0.0
 71
     5
 72
     1
  1
2
  7
SANINDUSA
 11
0.0000000000000001
 21
1.0
 31
0.0
 73
     1
 44
1.0
1001
ACAD
1000
MTEXTBEGIN
1070
    73
1070
     1
1070
    44
1040
1.0
1070
    74
1070
     0
1000
MTEXTEND
  0
POINT
  5
11D7
330
11CD
100
AcDbEntity
  8
Defpoints
 62
     0
100
AcDbPoint
 10
6908.65198027297
 20
877.4773553407928
 30
0.0
  0
POINT
  5
11D8
330
11CD
100
AcDbEntity
  8
Defpoints
 62
     0
100
AcDbPoint
 10
6908.652156080442
 20
875.4773553485174
 30
0.0
  0
POINT
  5
11D9
330
11CD
100
AcDbEntity
  8
Defpoints
 62
     0
100
AcDbPoint
 10
6680.96080594157
 20
875.4773553485174
 30
0.0
  0
ENDBLK
  5
11DA
330
11CD
100
AcDbEntity
  8
0
100
AcDbBlockEnd
  0
BLOCK
  5
11DC
330
11DB
100
AcDbEntity
  8
0
100
AcDbBlockBegin
  2
*D34
 70
     1
 10
0.0
 20
0.0
 30
0.0
  3
*D34
  1

  0
LINE
  5
11DD
330
11DB
100
AcDbEntity
  8
cotas
100
AcDbLine
 10
6747.621929377901
 20
1072.463564583696
 30
0.0
 11
6747.621929377901
 21
808.7077112921038
 31
0.0
  0
LINE
  5
11DE
330
11DB
100
AcDbEntity
  8
cotas
100
AcDbLine
 10
7169.462829863348
 20
1072.463564583746
 30
0.0
 11
7169.462829863348
 21
808.7077112921038
 31
0.0
  0
LINE
  5
11DF
330
11DB
100
AcDbEntity
  8
cotas
100
AcDbLine
 10
6757.621929377902
 20
813.7077112921037
 30
0.0
 11
7159.462829863348
 21
813.7077112921037
 31
0.0
  0
SOLID
  5
11E0
330
11DB
100
AcDbEntity
  8
cotas
100
AcDbTrace
 10
6757.621929377902
 20
815.3743779587705
 30
0.0
 11
6757.621929377902
 21
812.0410446254371
 31
0.0
 12
6747.621929377901
 22
813.7077112921037
 32
0.0
 13
6747.621929377901
 23
813.7077112921037
 33
0.0
  0
SOLID
  5
11E1
330
11DB
100
AcDbEntity
  8
cotas
100
AcDbTrace
 10
7159.462829863348
 20
815.3743779587705
 30
0.0
 11
7159.462829863348
 21
812.0410446254371
 31
0.0
 12
7169.462829863348
 22
813.7077112921037
 32
0.0
 13
7169.462829863348
 23
813.7077112921037
 33
0.0
  0
MTEXT
  5
11E2
330
11DB
100
AcDbEntity
  8
cotas
100
AcDbMText
 10
6958.542379620626
 20
823.8118080013046
 30
0.0
 40
10.0
 41
0.0
 71
     5
 72
     1
  1
422
  7
SANINDUSA
 73
     1
 44
1.0
1001
ACAD
1000
MTEXTBEGIN
1070
    73
1070
     1
1070
    44
1040
1.0
1070
    74
1070
     0
1000
MTEXTEND
  0
POINT
  5
11E3
330
11DB
100
AcDbEntity
  8
Defpoints
 62
     0
100
AcDbPoint
 10
6747.621929377901
 20
1077.463564583696
 30
0.0
  0
POINT
  5
11E4
330
11DB
100
AcDbEntity
  8
Defpoints
 62
     0
100
AcDbPoint
 10
7169.462829863348
 20
1077.463564583746
 30
0.0
  0
POINT
  5
11E5
330
11DB
100
AcDbEntity
  8
Defpoints
 62
     0
100
AcDbPoint
 10
7169.462829863348
 20
813.7077112921037
 30
0.0
  0
ENDBLK
  5
11E6
330
11DB
100
AcDbEntity
  8
0
100
AcDbBlockEnd
  0
BLOCK
  5
11E8
330
11E7
100
AcDbEntity
  8
0
100
AcDbBlockBegin
  2
*D35
 70
     1
 10
0.0
 20
0.0
 30
0.0
  3
*D35
  1

  0
LINE
  5
11E9
330
11E7
100
AcDbEntity
  8
cotas
100
AcDbLine
 10
7169.462829863348
 20
1072.463564583746
 30
0.0
 11
7169.462829863348
 21
808.7077112921038
 31
0.0
  0
LINE
  5
11EA
330
11E7
100
AcDbEntity
  8
cotas
100
AcDbLine
 10
7208.598392457578
 20
1072.463564583746
 30
0.0
 11
7208.598392457578
 21
808.7077112921038
 31
0.0
  0
LINE
  5
11EB
330
11E7
100
AcDbEntity
  8
cotas
100
AcDbLine
 10
7179.462829863348
 20
813.7077112921037
 30
0.0
 11
7198.598392457579
 21
813.7077112921037
 31
0.0
  0
SOLID
  5
11EC
330
11E7
100
AcDbEntity
  8
cotas
100
AcDbTrace
 10
7179.462829863348
 20
815.3743779587705
 30
0.0
 11
7179.462829863348
 21
812.0410446254371
 31
0.0
 12
7169.462829863348
 22
813.7077112921037
 32
0.0
 13
7169.462829863348
 23
813.7077112921037
 33
0.0
  0
SOLID
  5
11ED
330
11E7
100
AcDbEntity
  8
cotas
100
AcDbTrace
 10
7198.598392457579
 20
815.3743779587705
 30
0.0
 11
7198.598392457579
 21
812.0410446254371
 31
0.0
 12
7208.598392457578
 22
813.7077112921037
 32
0.0
 13
7208.598392457578
 23
813.7077112921037
 33
0.0
  0
MTEXT
  5
11EE
330
11E7
100
AcDbEntity
  8
cotas
100
AcDbMText
 10
7189.030611160463
 20
823.9159047105054
 30
0.0
 40
10.0
 41
0.0
 71
     5
 72
     1
  1
39
  7
SANINDUSA
 73
     1
 44
1.0
1001
ACAD
1000
MTEXTBEGIN
1070
    73
1070
     1
1070
    44
1040
1.0
1070
    74
1070
     0
1000
MTEXTEND
  0
POINT
  5
11EF
330
11E7
100
AcDbEntity
  8
Defpoints
 62
     0
100
AcDbPoint
 10
7169.462829863348
 20
1077.463564583746
 30
0.0
  0
POINT
  5
11F0
330
11E7
100
AcDbEntity
  8
Defpoints
 62
     0
100
AcDbPoint
 10
7208.598392457578
 20
1077.463564583746
 30
0.0
  0
POINT
  5
11F1
330
11E7
100
AcDbEntity
  8
Defpoints
 62
     0
100
AcDbPoint
 10
7208.598392457578
 20
813.7077112921037
 30
0.0
  0
ENDBLK
  5
11F2
330
11E7
100
AcDbEntity
  8
0
100
AcDbBlockEnd
  0
BLOCK
  5
11F4
330
11F3
100
AcDbEntity
  8
0
100
AcDbBlockBegin
  2
*D36
 70
     1
 10
0.0
 20
0.0
 30
0.0
  3
*D36
  1

  0
LINE
  5
11F5
330
11F3
100
AcDbEntity
  8
cotas
100
AcDbLine
 10
6747.621929377901
 20
1072.463564583696
 30
0.0
 11
6747.621929377901
 21
808.7077112921038
 31
0.0
  0
LINE
  5
11F6
330
11F3
100
AcDbEntity
  8
cotas
100
AcDbLine
 10
6708.634400000969
 20
1072.463564583746
 30
0.0
 11
6708.634400000969
 21
808.7077112921038
 31
0.0
  0
LINE
  5
11F7
330
11F3
100
AcDbEntity
  8
cotas
100
AcDbLine
 10
6737.621929377901
 20
813.7077112921037
 30
0.0
 11
6718.634400000969
 21
813.7077112921037
 31
0.0
  0
SOLID
  5
11F8
330
11F3
100
AcDbEntity
  8
cotas
100
AcDbTrace
 10
6737.621929377901
 20
815.3743779587705
 30
0.0
 11
6737.621929377901
 21
812.0410446254371
 31
0.0
 12
6747.621929377901
 22
813.7077112921037
 32
0.0
 13
6747.621929377901
 23
813.7077112921037
 33
0.0
  0
SOLID
  5
11F9
330
11F3
100
AcDbEntity
  8
cotas
100
AcDbTrace
 10
6718.634400000969
 20
815.3743779587705
 30
0.0
 11
6718.634400000969
 21
812.0410446254371
 31
0.0
 12
6708.634400000969
 22
813.7077112921037
 32
0.0
 13
6708.634400000969
 23
813.7077112921037
 33
0.0
  0
MTEXT
  5
11FA
330
11F3
100
AcDbEntity
  8
cotas
100
AcDbMText
 10
6728.128164689436
 20
823.9159047105054
 30
0.0
 40
10.0
 41
0.0
 71
     5
 72
     1
  1
39
  7
SANINDUSA
 73
     1
 44
1.0
1001
ACAD
1000
MTEXTBEGIN
1070
    73
1070
     1
1070
    44
1040
1.0
1070
    74
1070
     0
1000
MTEXTEND
  0
POINT
  5
11FB
330
11F3
100
AcDbEntity
  8
Defpoints
 62
     0
100
AcDbPoint
 10
6747.621929377901
 20
1077.463564583696
 30
0.0
  0
POINT
  5
11FC
330
11F3
100
AcDbEntity
  8
Defpoints
 62
     0
100
AcDbPoint
 10
6708.634400000969
 20
1077.463564583746
 30
0.0
  0
POINT
  5
11FD
330
11F3
100
AcDbEntity
  8
Defpoints
 62
     0
100
AcDbPoint
 10
6708.634400000969
 20
813.7077112921037
 30
0.0
  0
ENDBLK
  5
11FE
330
11F3
100
AcDbEntity
  8
0
100
AcDbBlockEnd
  0
BLOCK
  5
1200
330
11FF
100
AcDbEntity
  8
0
100
AcDbBlockBegin
  2
*D37
 70
     1
 10
0.0
 20
0.0
 30
0.0
  3
*D37
  1

  0
LINE
  5
1201
330
11FF
100
AcDbEntity
  8
cotas
100
AcDbLine
 10
7208.6004182969
 20
1073.201258192011
 30
0.0
 11
7208.6004182969
 21
808.7077112921038
 31
0.0
  0
LINE
  5
1202
330
11FF
100
AcDbEntity
  8
cotas
100
AcDbLine
 10
7210.599237560774
 20
1072.463564583746
 30
0.0
 11
7210.599237560774
 21
808.7077112921038
 31
0.0
  0
LINE
  5
1203
330
11FF
100
AcDbEntity
  8
cotas
100
AcDbLine
 10
7198.600418296901
 20
813.7077112921037
 30
0.0
 11
7188.600418296902
 21
813.7077112921037
 31
0.0
  0
LINE
  5
1204
330
11FF
100
AcDbEntity
  8
cotas
100
AcDbLine
 10
7220.599237560773
 20
813.7077112921037
 30
0.0
 11
7247.368881617188
 21
813.7077112921037
 31
0.0
  0
LINE
  5
1205
330
11FF
100
AcDbEntity
  8
cotas
100
AcDbLine
 10
7208.6004182969
 20
813.7077112921037
 30
0.0
 11
7210.599237560774
 21
813.7077112921037
 31
0.0
  0
SOLID
  5
1206
330
11FF
100
AcDbEntity
  8
cotas
100
AcDbTrace
 10
7198.600418296901
 20
815.3743779587705
 30
0.0
 11
7198.600418296901
 21
812.0410446254371
 31
0.0
 12
7208.6004182969
 22
813.7077112921037
 32
0.0
 13
7208.6004182969
 23
813.7077112921037
 33
0.0
  0
SOLID
  5
1207
330
11FF
100
AcDbEntity
  8
cotas
100
AcDbTrace
 10
7220.599237560773
 20
815.3743779587705
 30
0.0
 11
7220.599237560773
 21
812.0410446254371
 31
0.0
 12
7210.599237560774
 22
813.7077112921037
 32
0.0
 13
7210.599237560774
 23
813.7077112921037
 33
0.0
  0
MTEXT
  5
1208
330
11FF
100
AcDbEntity
  8
cotas
100
AcDbMText
 10
7238.984059588981
 20
823.8118080013046
 30
0.0
 40
10.0
 41
0.0
 71
     5
 72
     1
  1
2
  7
SANINDUSA
 73
     1
 44
1.0
1001
ACAD
1000
MTEXTBEGIN
1070
    73
1070
     1
1070
    44
1040
1.0
1070
    74
1070
     0
1000
MTEXTEND
  0
POINT
  5
1209
330
11FF
100
AcDbEntity
  8
Defpoints
 62
     0
100
AcDbPoint
 10
7208.6004182969
 20
1078.201258192011
 30
0.0
  0
POINT
  5
120A
330
11FF
100
AcDbEntity
  8
Defpoints
 62
     0
100
AcDbPoint
 10
7210.599237560774
 20
1077.463564583746
 30
0.0
  0
POINT
  5
120B
330
11FF
100
AcDbEntity
  8
Defpoints
 62
     0
100
AcDbPoint
 10
7210.599237560774
 20
813.7077112921037
 30
0.0
  0
ENDBLK
  5
120C
330
11FF
100
AcDbEntity
  8
0
100
AcDbBlockEnd
  0
BLOCK
  5
120E
330
120D
100
AcDbEntity
  8
0
100
AcDbBlockBegin
  2
*D38
 70
     1
 10
0.0
 20
0.0
 30
0.0
  3
*D38
  1

  0
LINE
  5
120F
330
120D
100
AcDbEntity
  8
cotas
100
AcDbLine
 10
6708.634400000969
 20
1072.463564583746
 30
0.0
 11
6708.634400000969
 21
808.7077112921038
 31
0.0
  0
LINE
  5
1210
330
120D
100
AcDbEntity
  8
cotas
100
AcDbLine
 10
6706.633209097813
 20
1073.193989861942
 30
0.0
 11
6706.633209097813
 21
808.7077112921038
 31
0.0
  0
LINE
  5
1211
330
120D
100
AcDbEntity
  8
cotas
100
AcDbLine
 10
6718.634400000969
 20
813.7077112921037
 30
0.0
 11
6728.634400000969
 21
813.7077112921037
 31
0.0
  0
LINE
  5
1212
330
120D
100
AcDbEntity
  8
cotas
100
AcDbLine
 10
6696.633209097814
 20
813.7077112921037
 30
0.0
 11
6669.8635650414
 21
813.7077112921037
 31
0.0
  0
LINE
  5
1213
330
120D
100
AcDbEntity
  8
cotas
100
AcDbLine
 10
6708.634400000969
 20
813.7077112921037
 30
0.0
 11
6706.633209097813
 21
813.7077112921037
 31
0.0
  0
SOLID
  5
1214
330
120D
100
AcDbEntity
  8
cotas
100
AcDbTrace
 10
6718.634400000969
 20
815.3743779587705
 30
0.0
 11
6718.634400000969
 21
812.0410446254371
 31
0.0
 12
6708.634400000969
 22
813.7077112921037
 32
0.0
 13
6708.634400000969
 23
813.7077112921037
 33
0.0
  0
SOLID
  5
1215
330
120D
100
AcDbEntity
  8
cotas
100
AcDbTrace
 10
6696.633209097814
 20
815.3743779587705
 30
0.0
 11
6696.633209097814
 21
812.0410446254371
 31
0.0
 12
6706.633209097813
 22
813.7077112921037
 32
0.0
 13
6706.633209097813
 23
813.7077112921037
 33
0.0
  0
MTEXT
  5
1216
330
120D
100
AcDbEntity
  8
cotas
100
AcDbMText
 10
6678.248387069607
 20
823.8118080013046
 30
0.0
 40
10.0
 41
0.0
 71
     5
 72
     1
  1
2
  7
SANINDUSA
 73
     1
 44
1.0
1001
ACAD
1000
MTEXTBEGIN
1070
    73
1070
     1
1070
    44
1040
1.0
1070
    74
1070
     0
1000
MTEXTEND
  0
POINT
  5
1217
330
120D
100
AcDbEntity
  8
Defpoints
 62
     0
100
AcDbPoint
 10
6708.634400000969
 20
1077.463564583746
 30
0.0
  0
POINT
  5
1218
330
120D
100
AcDbEntity
  8
Defpoints
 62
     0
100
AcDbPoint
 10
6706.633209097813
 20
1078.193989861942
 30
0.0
  0
POINT
  5
1219
330
120D
100
AcDbEntity
  8
Defpoints
 62
     0
100
AcDbPoint
 10
6706.633209097813
 20
813.7077112921037
 30
0.0
  0
ENDBLK
  5
121A
330
120D
100
AcDbEntity
  8
0
100
AcDbBlockEnd
  0
BLOCK
  5
121C
330
121B
100
AcDbEntity
  8
0
100
AcDbBlockBegin
  2
*D39
 70
     1
 10
0.0
 20
0.0
 30
0.0
  3
*D39
  1

  0
LINE
  5
121D
330
121B
100
AcDbEntity
  8
cotas
100
AcDbLine
 10
7082.004089630593
 20
999.579363204657
 30
0.0
 11
7138.902697840464
 21
939.1985956002404
 31
0.0
  0
MTEXT
  5
121E
330
121B
100
AcDbEntity
  8
cotas
100
AcDbMText
 10
7104.365554438847
 20
990.7342673186803
 30
0.0
 40
10.0
 41
0.0
 71
     5
 72
     1
  1
R200
  7
SANINDUSA
 11
0.68580974244786
 21
-0.7277808716664654
 31
0.0
 73
     1
 44
1.0
1001
ACAD
1000
MTEXTBEGIN
1070
    73
1070
     1
1070
    44
1040
1.0
1070
    74
1070
     0
1000
MTEXTEND
  0
SOLID
  5
121F
330
121B
100
AcDbEntity
  8
cotas
100
AcDbTrace
 10
7140.11566595991
 20
940.3416118376535
 30
0.0
 11
7137.689729721021
 21
938.0555793628268
 31
0.0
 12
7145.760795264944
 22
931.9207868835761
 32
0.0
 13
7145.760795264944
 23
931.9207868835761
 33
0.0
  0
POINT
  5
1220
330
121B
100
AcDbEntity
  8
Defpoints
 62
     0
100
AcDbPoint
 10
7145.760795264944
 20
931.9207868835761
 30
0.0
  0
POINT
  5
1221
330
121B
100
AcDbEntity
  8
Defpoints
 62
     0
100
AcDbPoint
 10
7008.59983762172
 20
1077.475909731339
 30
0.0
  0
ENDBLK
  5
1222
330
121B
100
AcDbEntity
  8
0
100
AcDbBlockEnd
  0
BLOCK
  5
1224
330
1223
100
AcDbEntity
  8
0
100
AcDbBlockBegin
  2
*D40
 70
     1
 10
0.0
 20
0.0
 30
0.0
  3
*D40
  1

  0
LINE
  5
1225
330
1223
100
AcDbEntity
  8
cotas
100
AcDbLine
 10
7100.671318395182
 20
1141.448181142988
 30
0.0
 11
7172.008498770548
 21
1181.00127616418
 31
0.0
  0
MTEXT
  5
1226
330
1223
100
AcDbEntity
  8
cotas
100
AcDbMText
 10
7114.819593733098
 20
1160.845995155062
 30
0.0
 40
10.0
 41
0.0
 71
     5
 72
     1
  1
R222
  7
SANINDUSA
 11
0.8745664173285277
 21
0.4849057451517192
 31
0.0
 73
     1
 44
1.0
1001
ACAD
1000
MTEXTBEGIN
1070
    73
1070
     1
1070
    44
1040
1.0
1070
    74
1070
     0
1000
MTEXTEND
  0
SOLID
  5
1227
330
1223
100
AcDbEntity
  8
cotas
100
AcDbTrace
 10
7171.200322528628
 20
1182.458886859728
 30
0.0
 11
7172.816675012467
 21
1179.543665468633
 31
0.0
 12
7180.754162943832
 22
1185.850333615698
 32
0.0
 13
7180.754162943832
 23
1185.850333615698
 33
0.0
  0
POINT
  5
1228
330
1223
100
AcDbEntity
  8
Defpoints
 62
     0
100
AcDbPoint
 10
7180.754162943832
 20
1185.850333615698
 30
0.0
  0
POINT
  5
1229
330
1223
100
AcDbEntity
  8
Defpoints
 62
     0
100
AcDbPoint
 10
6986.600418296892
 20
1078.201258192012
 30
0.0
  0
ENDBLK
  5
122A
330
1223
100
AcDbEntity
  8
0
100
AcDbBlockEnd
  0
BLOCK
  5
122C
330
122B
100
AcDbEntity
  8
0
100
AcDbBlockBegin
  2
*D41
 70
     1
 10
0.0
 20
0.0
 30
0.0
  3
*D41
  1

  0
LINE
  5
122D
330
122B
100
AcDbEntity
  8
cotas
100
AcDbLine
 10
6728.358490848996
 20
1483.334029237721
 30
0.0
 11
6678.560805941582
 21
1483.334029237721
 31
0.0
  0
LINE
  5
122E
330
122B
100
AcDbEntity
  8
cotas
100
AcDbLine
 10
6728.358490849
 20
1486.334029237721
 30
0.0
 11
6678.560805941582
 21
1486.334029237721
 31
0.0
  0
LINE
  5
122F
330
122B
100
AcDbEntity
  8
cotas
100
AcDbLine
 10
6683.560805941583
 20
1473.334029237721
 30
0.0
 11
6683.560805941583
 21
1463.334029237721
 31
0.0
  0
LINE
  5
1230
330
122B
100
AcDbEntity
  8
cotas
100
AcDbLine
 10
6683.560805941583
 20
1496.334029237721
 30
0.0
 11
6683.560805941583
 21
1522.922343542624
 31
0.0
  0
LINE
  5
1231
330
122B
100
AcDbEntity
  8
cotas
100
AcDbLine
 10
6683.560805941583
 20
1483.334029237721
 30
0.0
 11
6683.560805941583
 21
1486.334029237721
 31
0.0
  0
SOLID
  5
1232
330
122B
100
AcDbEntity
  8
cotas
100
AcDbTrace
 10
6681.894139274915
 20
1473.334029237721
 30
0.0
 11
6685.22747260825
 21
1473.334029237721
 31
0.0
 12
6683.560805941583
 22
1483.334029237721
 32
0.0
 13
6683.560805941583
 23
1483.334029237721
 33
0.0
  0
SOLID
  5
1233
330
122B
100
AcDbEntity
  8
cotas
100
AcDbTrace
 10
6681.894139274915
 20
1496.334029237721
 30
0.0
 11
6685.22747260825
 21
1496.334029237721
 31
0.0
 12
6683.560805941583
 22
1486.334029237721
 32
0.0
 13
6683.560805941583
 23
1486.334029237721
 33
0.0
  0
MTEXT
  5
1234
330
122B
100
AcDbEntity
  8
cotas
100
AcDbMText
 10
6673.352612523181
 20
1514.628186390174
 30
0.0
 40
10.0
 41
0.0
 71
     5
 72
     1
  1
3
  7
SANINDUSA
 11
0.0000000000000001
 21
1.0
 31
0.0
 73
     1
 44
1.0
1001
ACAD
1000
MTEXTBEGIN
1070
    73
1070
     1
1070
    44
1040
1.0
1070
    74
1070
     0
1000
MTEXTEND
  0
POINT
  5
1235
330
122B
100
AcDbEntity
  8
Defpoints
 62
     0
100
AcDbPoint
 10
6733.358490848996
 20
1483.334029237721
 30
0.0
  0
POINT
  5
1236
330
122B
100
AcDbEntity
  8
Defpoints
 62
     0
100
AcDbPoint
 10
6733.358490848999
 20
1486.334029237721
 30
0.0
  0
POINT
  5
1237
330
122B
100
AcDbEntity
  8
Defpoints
 62
     0
100
AcDbPoint
 10
6683.560805941583
 20
1486.334029237721
 30
0.0
  0
ENDBLK
  5
1238
330
122B
100
AcDbEntity
  8
0
100
AcDbBlockEnd
  0
BLOCK
  5
123A
330
1239
100
AcDbEntity
  8
0
100
AcDbBlockBegin
  2
*D42
 70
     1
 10
0.0
 20
0.0
 30
0.0
  3
*D42
  1

  0
LINE
  5
123B
330
1239
100
AcDbEntity
  8
cotas
100
AcDbLine
 10
5984.448287429195
 20
1483.334029237721
 30
0.0
 11
5934.650602521774
 21
1483.334029237721
 31
0.0
  0
LINE
  5
123C
330
1239
100
AcDbEntity
  8
cotas
100
AcDbLine
 10
5984.4482874292
 20
1486.334029237721
 30
0.0
 11
5934.650602521774
 21
1486.334029237721
 31
0.0
  0
LINE
  5
123D
330
1239
100
AcDbEntity
  8
cotas
100
AcDbLine
 10
5939.650602521773
 20
1473.334029237721
 30
0.0
 11
5939.650602521773
 21
1463.334029237721
 31
0.0
  0
LINE
  5
123E
330
1239
100
AcDbEntity
  8
cotas
100
AcDbLine
 10
5939.650602521773
 20
1496.334029237721
 30
0.0
 11
5939.650602521773
 21
1522.922343542624
 31
0.0
  0
LINE
  5
123F
330
1239
100
AcDbEntity
  8
cotas
100
AcDbLine
 10
5939.650602521773
 20
1483.334029237721
 30
0.0
 11
5939.650602521773
 21
1486.334029237721
 31
0.0
  0
SOLID
  5
1240
330
1239
100
AcDbEntity
  8
cotas
100
AcDbTrace
 10
5937.983935855107
 20
1473.334029237721
 30
0.0
 11
5941.317269188441
 21
1473.334029237721
 31
0.0
 12
5939.650602521773
 22
1483.334029237721
 32
0.0
 13
5939.650602521773
 23
1483.334029237721
 33
0.0
  0
SOLID
  5
1241
330
1239
100
AcDbEntity
  8
cotas
100
AcDbTrace
 10
5937.983935855107
 20
1496.334029237721
 30
0.0
 11
5941.317269188441
 21
1496.334029237721
 31
0.0
 12
5939.650602521773
 22
1486.334029237721
 32
0.0
 13
5939.650602521773
 23
1486.334029237721
 33
0.0
  0
MTEXT
  5
1242
330
1239
100
AcDbEntity
  8
cotas
100
AcDbMText
 10
5929.442409103372
 20
1514.628186390173
 30
0.0
 40
10.0
 41
0.0
 71
     5
 72
     1
  1
3
  7
SANINDUSA
 11
0.0000000000000001
 21
1.0
 31
0.0
 73
     1
 44
1.0
1001
ACAD
1000
MTEXTBEGIN
1070
    73
1070
     1
1070
    44
1040
1.0
1070
    74
1070
     0
1000
MTEXTEND
  0
POINT
  5
1243
330
1239
100
AcDbEntity
  8
Defpoints
 62
     0
100
AcDbPoint
 10
5989.448287429195
 20
1483.334029237721
 30
0.0
  0
POINT
  5
1244
330
1239
100
AcDbEntity
  8
Defpoints
 62
     0
100
AcDbPoint
 10
5989.448287429201
 20
1486.334029237721
 30
0.0
  0
POINT
  5
1245
330
1239
100
AcDbEntity
  8
Defpoints
 62
     0
100
AcDbPoint
 10
5939.650602521773
 20
1486.334029237721
 30
0.0
  0
ENDBLK
  5
1246
330
1239
100
AcDbEntity
  8
0
100
AcDbBlockEnd
  0
BLOCK
  5
1248
330
1247
100
AcDbEntity
  8
0
100
AcDbBlockBegin
  2
*D43
 70
     1
 10
0.0
 20
0.0
 30
0.0
  3
*D43
  1

  0
LINE
  5
1249
330
1247
100
AcDbEntity
  8
cotas
100
AcDbLine
 10
6026.642694972746
 20
1542.640888406116
 30
0.0
 11
5982.100482610658
 21
1503.543732751049
 31
0.0
  0
MTEXT
  5
124A
330
1247
100
AcDbEntity
  8
cotas
100
AcDbMText
 10
6006.833134095593
 20
1538.831336535993
 30
0.0
 40
10.0
 41
0.0
 71
     5
 72
     1
  1
R40
  7
SANINDUSA
 11
0.7515496324038021
 21
0.6596765495556971
 31
0.0
 73
     1
 44
1.0
1001
ACAD
1000
MTEXTBEGIN
1070
    73
1070
     1
1070
    44
1040
1.0
1070
    74
1070
     0
1000
MTEXTEND
  0
SOLID
  5
124B
330
1247
100
AcDbEntity
  8
cotas
100
AcDbTrace
 10
5981.001021694732
 20
1504.796315471723
 30
0.0
 11
5983.199943526584
 21
1502.291150030377
 31
0.0
 12
5974.58498628662
 22
1496.946967255493
 32
0.0
 13
5974.58498628662
 23
1496.946967255493
 33
0.0
  0
POINT
  5
124C
330
1247
100
AcDbEntity
  8
Defpoints
 62
     0
100
AcDbPoint
 10
5974.58498628662
 20
1496.946967255493
 30
0.0
  0
POINT
  5
124D
330
1247
100
AcDbEntity
  8
Defpoints
 62
     0
100
AcDbPoint
 10
6004.646971582769
 20
1523.334029237719
 30
0.0
  0
ENDBLK
  5
124E
330
1247
100
AcDbEntity
  8
0
100
AcDbBlockEnd
  0
BLOCK
  5
1250
330
124F
100
AcDbEntity
  8
0
100
AcDbBlockBegin
  2
*D44
 70
     1
 10
0.0
 20
0.0
 30
0.0
  3
*D44
  1

  0
LINE
  5
1251
330
124F
100
AcDbEntity
  8
cotas
100
AcDbLine
 10
6300.697800979875
 20
1561.298556015585
 30
0.0
 11
6333.244386683385
 21
1498.447463513371
 31
0.0
  0
MTEXT
  5
1252
330
124F
100
AcDbEntity
  8
cotas
100
AcDbMText
 10
6317.761358407698
 20
1550.539076683192
 30
0.0
 40
10.0
 41
0.0
 71
     5
 72
     1
  1
R40
  7
SANINDUSA
 11
0.4598397478423171
 21
-0.8880019179620695
 31
0.0
 73
     1
 44
1.0
1001
ACAD
1000
MTEXTBEGIN
1070
    73
1070
     1
1070
    44
1040
1.0
1070
    74
1070
     0
1000
MTEXTEND
  0
SOLID
  5
1253
330
124F
100
AcDbEntity
  8
cotas
100
AcDbTrace
 10
6334.724389879989
 20
1499.213863093108
 30
0.0
 11
6331.764383486781
 21
1497.681063933633
 31
0.0
 12
6337.842784161807
 22
1489.56744433375
 32
0.0
 13
6337.842784161807
 23
1489.56744433375
 33
0.0
  0
POINT
  5
1254
330
124F
100
AcDbEntity
  8
Defpoints
 62
     0
100
AcDbPoint
 10
6337.842784161807
 20
1489.56744433375
 30
0.0
  0
POINT
  5
1255
330
124F
100
AcDbEntity
  8
Defpoints
 62
     0
100
AcDbPoint
 10
6319.449194248115
 20
1525.087521052232
 30
0.0
  0
ENDBLK
  5
1256
330
124F
100
AcDbEntity
  8
0
100
AcDbBlockEnd
  0
BLOCK
  5
1258
330
1257
100
AcDbEntity
  8
0
100
AcDbBlockBegin
  2
*D45
 70
     1
 10
0.0
 20
0.0
 30
0.0
  3
*D45
  1

  0
LINE
  5
1259
330
1257
100
AcDbEntity
  8
cotas
100
AcDbLine
 10
5964.650602521772
 20
1948.872974444948
 30
0.0
 11
5964.650602521772
 21
2013.334029237721
 31
0.0
  0
LINE
  5
125A
330
1257
100
AcDbEntity
  8
cotas
100
AcDbLine
 10
5962.650602521773
 20
1738.334029237766
 30
0.0
 11
5962.650602521773
 21
2013.334029237721
 31
0.0
  0
LINE
  5
125B
330
1257
100
AcDbEntity
  8
cotas
100
AcDbLine
 10
5974.650602521773
 20
2008.334029237721
 30
0.0
 11
5984.650602521772
 21
2008.334029237721
 31
0.0
  0
LINE
  5
125C
330
1257
100
AcDbEntity
  8
cotas
100
AcDbLine
 10
5952.650602521774
 20
2008.334029237721
 30
0.0
 11
5925.880958465359
 21
2008.334029237721
 31
0.0
  0
LINE
  5
125D
330
1257
100
AcDbEntity
  8
cotas
100
AcDbLine
 10
5964.650602521772
 20
2008.334029237721
 30
0.0
 11
5962.650602521773
 21
2008.334029237721
 31
0.0
  0
SOLID
  5
125E
330
1257
100
AcDbEntity
  8
cotas
100
AcDbTrace
 10
5974.650602521773
 20
2010.000695904388
 30
0.0
 11
5974.650602521773
 21
2006.667362571054
 31
0.0
 12
5964.650602521772
 22
2008.334029237721
 32
0.0
 13
5964.650602521772
 23
2008.334029237721
 33
0.0
  0
SOLID
  5
125F
330
1257
100
AcDbEntity
  8
cotas
100
AcDbTrace
 10
5952.650602521774
 20
2010.000695904388
 30
0.0
 11
5952.650602521774
 21
2006.667362571054
 31
0.0
 12
5962.650602521773
 22
2008.334029237721
 32
0.0
 13
5962.650602521773
 23
2008.334029237721
 33
0.0
  0
MTEXT
  5
1260
330
1257
100
AcDbEntity
  8
cotas
100
AcDbMText
 10
5934.265780493566
 20
2018.438125946922
 30
0.0
 40
10.0
 41
0.0
 71
     5
 72
     1
  1
2
  7
SANINDUSA
 73
     1
 44
1.0
1001
ACAD
1000
MTEXTBEGIN
1070
    73
1070
     1
1070
    44
1040
1.0
1070
    74
1070
     0
1000
MTEXTEND
  0
POINT
  5
1261
330
1257
100
AcDbEntity
  8
Defpoints
 62
     0
100
AcDbPoint
 10
5964.650602521772
 20
1943.872974444948
 30
0.0
  0
POINT
  5
1262
330
1257
100
AcDbEntity
  8
Defpoints
 62
     0
100
AcDbPoint
 10
5962.650602521773
 20
1733.334029237765
 30
0.0
  0
POINT
  5
1263
330
1257
100
AcDbEntity
  8
Defpoints
 62
     0
100
AcDbPoint
 10
5962.650602521773
 20
2008.334029237721
 30
0.0
  0
ENDBLK
  5
1264
330
1257
100
AcDbEntity
  8
0
100
AcDbBlockEnd
  0
BLOCK
  5
1266
330
1265
100
AcDbEntity
  8
0
100
AcDbBlockBegin
  2
*D46
 70
     1
 10
0.0
 20
0.0
 30
0.0
  3
*D46
  1

  0
LINE
  5
1267
330
1265
100
AcDbEntity
  8
cotas
100
AcDbLine
 10
6708.560805941566
 20
1948.872974444959
 30
0.0
 11
6708.560805941566
 21
2013.334029237721
 31
0.0
  0
LINE
  5
1268
330
1265
100
AcDbEntity
  8
cotas
100
AcDbLine
 10
6706.560805941567
 20
1738.334029237722
 30
0.0
 11
6706.560805941567
 21
2013.334029237721
 31
0.0
  0
LINE
  5
1269
330
1265
100
AcDbEntity
  8
cotas
100
AcDbLine
 10
6718.560805941567
 20
2008.334029237721
 30
0.0
 11
6728.560805941566
 21
2008.334029237721
 31
0.0
  0
LINE
  5
126A
330
1265
100
AcDbEntity
  8
cotas
100
AcDbLine
 10
6696.560805941565
 20
2008.334029237721
 30
0.0
 11
6669.791161885152
 21
2008.334029237721
 31
0.0
  0
LINE
  5
126B
330
1265
100
AcDbEntity
  8
cotas
100
AcDbLine
 10
6708.560805941566
 20
2008.334029237721
 30
0.0
 11
6706.560805941567
 21
2008.334029237721
 31
0.0
  0
SOLID
  5
126C
330
1265
100
AcDbEntity
  8
cotas
100
AcDbTrace
 10
6718.560805941567
 20
2010.000695904388
 30
0.0
 11
6718.560805941567
 21
2006.667362571054
 31
0.0
 12
6708.560805941566
 22
2008.334029237721
 32
0.0
 13
6708.560805941566
 23
2008.334029237721
 33
0.0
  0
SOLID
  5
126D
330
1265
100
AcDbEntity
  8
cotas
100
AcDbTrace
 10
6696.560805941565
 20
2010.000695904388
 30
0.0
 11
6696.560805941565
 21
2006.667362571054
 31
0.0
 12
6706.560805941567
 22
2008.334029237721
 32
0.0
 13
6706.560805941567
 23
2008.334029237721
 33
0.0
  0
MTEXT
  5
126E
330
1265
100
AcDbEntity
  8
cotas
100
AcDbMText
 10
6678.17598391336
 20
2018.438125946921
 30
0.0
 40
10.0
 41
0.0
 71
     5
 72
     1
  1
2
  7
SANINDUSA
 73
     1
 44
1.0
1001
ACAD
1000
MTEXTBEGIN
1070
    73
1070
     1
1070
    44
1040
1.0
1070
    74
1070
     0
1000
MTEXTEND
  0
POINT
  5
126F
330
1265
100
AcDbEntity
  8
Defpoints
 62
     0
100
AcDbPoint
 10
6708.560805941566
 20
1943.872974444959
 30
0.0
  0
POINT
  5
1270
330
1265
100
AcDbEntity
  8
Defpoints
 62
     0
100
AcDbPoint
 10
6706.560805941567
 20
1733.334029237722
 30
0.0
  0
POINT
  5
1271
330
1265
100
AcDbEntity
  8
Defpoints
 62
     0
100
AcDbPoint
 10
6706.560805941567
 20
2008.334029237721
 30
0.0
  0
ENDBLK
  5
1272
330
1265
100
AcDbEntity
  8
0
100
AcDbBlockEnd
  0
BLOCK
  5
1274
330
1273
100
AcDbEntity
  8
0
100
AcDbBlockBegin
  2
*D47
 70
     1
 10
0.0
 20
0.0
 30
0.0
  3
*D47
  1

  0
LINE
  5
1275
330
1273
100
AcDbEntity
  8
cotas
100
AcDbLine
 10
7208.523953299661
 20
1948.872974445823
 30
0.0
 11
7208.523953299661
 21
2013.334029237721
 31
0.0
  0
LINE
  5
1276
330
1273
100
AcDbEntity
  8
cotas
100
AcDbLine
 10
7210.523953299677
 20
1738.334029237721
 30
0.0
 11
7210.523953299677
 21
2013.334029237721
 31
0.0
  0
LINE
  5
1277
330
1273
100
AcDbEntity
  8
cotas
100
AcDbLine
 10
7198.523953299662
 20
2008.334029237721
 30
0.0
 11
7188.523953299661
 21
2008.334029237721
 31
0.0
  0
LINE
  5
1278
330
1273
100
AcDbEntity
  8
cotas
100
AcDbLine
 10
7220.523953299677
 20
2008.334029237721
 30
0.0
 11
7247.293597356092
 21
2008.334029237721
 31
0.0
  0
LINE
  5
1279
330
1273
100
AcDbEntity
  8
cotas
100
AcDbLine
 10
7208.523953299661
 20
2008.334029237721
 30
0.0
 11
7210.523953299677
 21
2008.334029237721
 31
0.0
  0
SOLID
  5
127A
330
1273
100
AcDbEntity
  8
cotas
100
AcDbTrace
 10
7198.523953299662
 20
2010.000695904388
 30
0.0
 11
7198.523953299662
 21
2006.667362571054
 31
0.0
 12
7208.523953299661
 22
2008.334029237721
 32
0.0
 13
7208.523953299661
 23
2008.334029237721
 33
0.0
  0
SOLID
  5
127B
330
1273
100
AcDbEntity
  8
cotas
100
AcDbTrace
 10
7220.523953299677
 20
2010.000695904388
 30
0.0
 11
7220.523953299677
 21
2006.667362571054
 31
0.0
 12
7210.523953299677
 22
2008.334029237721
 32
0.0
 13
7210.523953299677
 23
2008.334029237721
 33
0.0
  0
MTEXT
  5
127C
330
1273
100
AcDbEntity
  8
cotas
100
AcDbMText
 10
7238.908775327884
 20
2018.438125946921
 30
0.0
 40
10.0
 41
0.0
 71
     5
 72
     1
  1
2
  7
SANINDUSA
 73
     1
 44
1.0
1001
ACAD
1000
MTEXTBEGIN
1070
    73
1070
     1
1070
    44
1040
1.0
1070
    74
1070
     0
1000
MTEXTEND
  0
POINT
  5
127D
330
1273
100
AcDbEntity
  8
Defpoints
 62
     0
100
AcDbPoint
 10
7208.523953299661
 20
1943.872974445823
 30
0.0
  0
POINT
  5
127E
330
1273
100
AcDbEntity
  8
Defpoints
 62
     0
100
AcDbPoint
 10
7210.523953299677
 20
1733.334029237721
 30
0.0
  0
POINT
  5
127F
330
1273
100
AcDbEntity
  8
Defpoints
 62
     0
100
AcDbPoint
 10
7210.523953299677
 20
2008.334029237721
 30
0.0
  0
ENDBLK
  5
1280
330
1273
100
AcDbEntity
  8
0
100
AcDbBlockEnd
  0
BLOCK
  5
1282
330
1281
100
AcDbEntity
  8
0
100
AcDbBlockBegin
  2
*D48
 70
     1
 10
0.0
 20
0.0
 30
0.0
  3
*D48
  1

  0
LINE
  5
1283
330
1281
100
AcDbEntity
  8
cotas
100
AcDbLine
 10
6266.320596920111
 20
1299.072230880672
 30
0.0
 11
6291.414416376505
 21
1273.272553574798
 31
0.0
  0
MTEXT
  5
1284
330
1281
100
AcDbEntity
  8
cotas
100
AcDbMText
 10
6282.624413892459
 20
1296.8015228727
 30
0.0
 40
10.0
 41
0.0
 71
     5
 72
     1
  1
R5
  7
SANINDUSA
 11
0.6972326398688101
 21
-0.7168449245838115
 31
0.0
 73
     1
 44
1.0
1001
ACAD
1000
MTEXTBEGIN
1070
    73
1070
     1
1070
    44
1040
1.0
1070
    74
1070
     0
1000
MTEXTEND
  0
LINE
  5
1285
330
1281
100
AcDbEntity
  8
cotas
100
AcDbLine
 10
6301.872905974537
 20
1262.51987970604
 30
0.0
 11
6298.386742775193
 21
1266.10410432896
 31
0.0
  0
SOLID
  5
1286
330
1281
100
AcDbEntity
  8
cotas
100
AcDbTrace
 10
6292.609157917477
 20
1274.434607974579
 30
0.0
 11
6290.219674835531
 21
1272.110499175016
 31
0.0
 12
6298.386742775193
 22
1266.10410432896
 32
0.0
 13
6298.386742775193
 23
1266.10410432896
 33
0.0
  0
POINT
  5
1287
330
1281
100
AcDbEntity
  8
Defpoints
 62
     0
100
AcDbPoint
 10
6298.386742775193
 20
1266.10410432896
 30
0.0
  0
POINT
  5
1288
330
1281
100
AcDbEntity
  8
Defpoints
 62
     0
100
AcDbPoint
 10
6301.872905974537
 20
1262.51987970604
 30
0.0
  0
ENDBLK
  5
1289
330
1281
100
AcDbEntity
  8
0
100
AcDbBlockEnd
  0
BLOCK
  5
128B
330
128A
100
AcDbEntity
  8
0
100
AcDbBlockBegin
  2
*D49
 70
     1
 10
0.0
 20
0.0
 30
0.0
  3
*D49
  1

  0
LINE
  5
128C
330
128A
100
AcDbEntity
  8
cotas
100
AcDbLine
 10
6365.139368686036
 20
1292.819207252394
 30
0.0
 11
6332.43384113747
 21
1262.199655325156
 31
0.0
  0
MTEXT
  5
128D
330
128A
100
AcDbEntity
  8
cotas
100
AcDbMText
 10
6345.46219419469
 20
1288.376213708182
 30
0.0
 40
10.0
 41
0.0
 71
     5
 72
     1
  1
R40
  7
SANINDUSA
 11
0.7300034555511187
 21
0.6834434540497304
 31
0.0
 73
     1
 44
1.0
1001
ACAD
1000
MTEXTBEGIN
1070
    73
1070
     1
1070
    44
1040
1.0
1070
    74
1070
     0
1000
MTEXTEND
  0
LINE
  5
128E
330
128A
100
AcDbEntity
  8
cotas
100
AcDbLine
 10
6295.933668359911
 20
1228.027482622666
 30
0.0
 11
6325.133806581958
 21
1255.365220784658
 31
0.0
  0
SOLID
  5
128F
330
128A
100
AcDbEntity
  8
cotas
100
AcDbTrace
 10
6331.294768714053
 20
1263.416327751074
 30
0.0
 11
6333.572913560885
 21
1260.982982899237
 31
0.0
 12
6325.133806581958
 22
1255.365220784658
 32
0.0
 13
6325.133806581958
 23
1255.365220784658
 33
0.0
  0
POINT
  5
1290
330
128A
100
AcDbEntity
  8
Defpoints
 62
     0
100
AcDbPoint
 10
6325.133806581958
 20
1255.365220784658
 30
0.0
  0
POINT
  5
1291
330
128A
100
AcDbEntity
  8
Defpoints
 62
     0
100
AcDbPoint
 10
6295.933668359911
 20
1228.027482622666
 30
0.0
  0
ENDBLK
  5
1292
330
128A
100
AcDbEntity
  8
0
100
AcDbBlockEnd
  0
BLOCK
  5
14E5
330
14E4
100
AcDbEntity
  8
0
100
AcDbBlockBegin
  2
*D51
 70
     1
 10
0.0
 20
0.0
 30
0.0
  3
*D51
  1

  0
LINE
  5
1AB2
330
14E4
100
AcDbEntity
  8
cotas
100
AcDbLine
 10
6011.712700872823
 20
2454.631001261606
 30
0.0
 11
6011.712700872823
 21
2423.305511613593
 31
0.0
  0
LINE
  5
1AB3
330
14E4
100
AcDbEntity
  8
cotas
100
AcDbLine
 10
6081.712700872822
 20
2454.631001261606
 30
0.0
 11
6081.712700872822
 21
2423.305511613593
 31
0.0
  0
LINE
  5
1AB4
330
14E4
100
AcDbEntity
  8
cotas
100
AcDbLine
 10
6013.712700872822
 20
2424.305511613593
 30
0.0
 11
6079.712700872822
 21
2424.305511613593
 31
0.0
  0
SOLID
  5
1AB5
330
14E4
100
AcDbEntity
  8
cotas
100
AcDbTrace
 10
6013.712700872822
 20
2424.638844946926
 30
0.0
 11
6013.712700872822
 21
2423.972178280259
 31
0.0
 12
6011.712700872823
 22
2424.305511613593
 32
0.0
 13
6011.712700872823
 23
2424.305511613593
 33
0.0
  0
SOLID
  5
1AB6
330
14E4
100
AcDbEntity
  8
cotas
100
AcDbTrace
 10
6079.712700872822
 20
2424.638844946926
 30
0.0
 11
6079.712700872822
 21
2423.972178280259
 31
0.0
 12
6081.712700872822
 22
2424.305511613593
 32
0.0
 13
6081.712700872822
 23
2424.305511613593
 33
0.0
  0
MTEXT
  5
1AB7
102
{ACAD_XDICTIONARY
360
1E70
102
}
330
14E4
100
AcDbEntity
  8
cotas
100
AcDbMText
 10
6046.712700872822
 20
2426.425054931255
 30
0.0
 40
2.0
 41
0.0
 71
     5
 72
     1
  1
\U+00F870
  7
SANINDUSA
 73
     1
 44
1.0
1001
ACAD
1000
MTEXTBEGIN
1070
    73
1070
     1
1070
    44
1040
1.0
1070
    74
1070
     0
1000
MTEXTEND
  0
POINT
  5
1AB8
330
14E4
100
AcDbEntity
  8
Defpoints
 62
     0
100
AcDbPoint
 10
6011.712700872823
 20
2455.631001261606
 30
0.0
  0
POINT
  5
1AB9
330
14E4
100
AcDbEntity
  8
Defpoints
 62
     0
100
AcDbPoint
 10
6081.712700872822
 20
2455.631001261606
 30
0.0
  0
POINT
  5
1ABA
330
14E4
100
AcDbEntity
  8
Defpoints
 62
     0
100
AcDbPoint
 10
6081.712700872822
 20
2424.305511613593
 30
0.0
  0
ENDBLK
  5
14E6
330
14E4
100
AcDbEntity
  8
0
100
AcDbBlockEnd
  0
BLOCK
  5
14F1
330
14F0
100
AcDbEntity
  8
0
100
AcDbBlockBegin
  2
*D52
 70
     1
 10
0.0
 20
0.0
 30
0.0
  3
*D52
  1

  0
LINE
  5
1675
330
14F0
100
AcDbEntity
  8
cotas
100
AcDbLine
 10
3921.723571016806
 20
1962.324454646535
 30
0.0
 11
3896.723571016806
 21
1962.324454646535
 31
0.0
  0
LINE
  5
1676
330
14F0
100
AcDbEntity
  8
cotas
100
AcDbLine
 10
4065.717139691563
 20
1787.330045312285
 30
0.0
 11
3896.723571016806
 21
1787.330045312285
 31
0.0
  0
LINE
  5
1677
330
14F0
100
AcDbEntity
  8
cotas
100
AcDbLine
 10
3897.723571016806
 20
1960.324454646535
 30
0.0
 11
3897.723571016806
 21
1789.330045312286
 31
0.0
  0
SOLID
  5
1678
330
14F0
100
AcDbEntity
  8
cotas
100
AcDbTrace
 10
3897.390237683473
 20
1960.324454646535
 30
0.0
 11
3898.05690435014
 21
1960.324454646535
 31
0.0
 12
3897.723571016806
 22
1962.324454646535
 32
0.0
 13
3897.723571016806
 23
1962.324454646535
 33
0.0
  0
SOLID
  5
1679
330
14F0
100
AcDbEntity
  8
cotas
100
AcDbTrace
 10
3897.390237683473
 20
1789.330045312286
 30
0.0
 11
3898.05690435014
 21
1789.330045312286
 31
0.0
 12
3897.723571016806
 22
1787.330045312285
 32
0.0
 13
3897.723571016806
 23
1787.330045312285
 33
0.0
  0
MTEXT
  5
167A
330
14F0
100
AcDbEntity
  8
cotas
100
AcDbMText
 10
3895.699393716604
 20
1874.827249979411
 30
0.0
 40
2.0
 41
0.0
 71
     5
 72
     1
  1
175
  7
SANINDUSA
 11
0.0000000000000001
 21
1.0
 31
0.0
 73
     1
 44
1.0
1001
ACAD
1000
MTEXTBEGIN
1070
    73
1070
     1
1070
    44
1040
1.0
1070
    74
1070
     0
1000
MTEXTEND
  0
POINT
  5
167B
330
14F0
100
AcDbEntity
  8
Defpoints
 62
     0
100
AcDbPoint
 10
3922.723571016806
 20
1962.324454646535
 30
0.0
  0
POINT
  5
167C
330
14F0
100
AcDbEntity
  8
Defpoints
 62
     0
100
AcDbPoint
 10
4066.717139691564
 20
1787.330045312285
 30
0.0
  0
POINT
  5
167D
330
14F0
100
AcDbEntity
  8
Defpoints
 62
     0
100
AcDbPoint
 10
3897.723571016806
 20
1787.330045312285
 30
0.0
  0
ENDBLK
  5
14F2
330
14F0
100
AcDbEntity
  8
0
100
AcDbBlockEnd
  0
BLOCK
  5
14FD
330
14FC
100
AcDbEntity
  8
0
100
AcDbBlockBegin
  2
*D53
 70
     1
 10
0.0
 20
0.0
 30
0.0
  3
*D53
  1

  0
LINE
  5
167E
330
14FC
100
AcDbEntity
  8
cotas
100
AcDbLine
 10
3921.723571016806
 20
1962.324454646535
 30
0.0
 11
3871.723571016806
 21
1962.324454646535
 31
0.0
  0
LINE
  5
167F
330
14FC
100
AcDbEntity
  8
cotas
100
AcDbLine
 10
4066.723571016804
 20
1740.324454646549
 30
0.0
 11
3871.723571016806
 21
1740.324454646549
 31
0.0
  0
LINE
  5
1680
330
14FC
100
AcDbEntity
  8
cotas
100
AcDbLine
 10
3872.723571016806
 20
1960.324454646535
 30
0.0
 11
3872.723571016806
 21
1742.324454646549
 31
0.0
  0
SOLID
  5
1681
330
14FC
100
AcDbEntity
  8
cotas
100
AcDbTrace
 10
3872.390237683473
 20
1960.324454646535
 30
0.0
 11
3873.05690435014
 21
1960.324454646535
 31
0.0
 12
3872.723571016806
 22
1962.324454646535
 32
0.0
 13
3872.723571016806
 23
1962.324454646535
 33
0.0
  0
SOLID
  5
1682
330
14FC
100
AcDbEntity
  8
cotas
100
AcDbTrace
 10
3872.390237683473
 20
1742.324454646549
 30
0.0
 11
3873.05690435014
 21
1742.324454646549
 31
0.0
 12
3872.723571016806
 22
1740.324454646549
 32
0.0
 13
3872.723571016806
 23
1740.324454646549
 33
0.0
  0
MTEXT
  5
1683
330
14FC
100
AcDbEntity
  8
cotas
100
AcDbMText
 10
3870.702751674965
 20
1851.324454646543
 30
0.0
 40
2.0
 41
0.0
 71
     5
 72
     1
  1
222
  7
SANINDUSA
 11
0.0000000000000001
 21
1.0
 31
0.0
 73
     1
 44
1.0
1001
ACAD
1000
MTEXTBEGIN
1070
    73
1070
     1
1070
    44
1040
1.0
1070
    74
1070
     0
1000
MTEXTEND
  0
POINT
  5
1684
330
14FC
100
AcDbEntity
  8
Defpoints
 62
     0
100
AcDbPoint
 10
3922.723571016806
 20
1962.324454646535
 30
0.0
  0
POINT
  5
1685
330
14FC
100
AcDbEntity
  8
Defpoints
 62
     0
100
AcDbPoint
 10
4067.723571016804
 20
1740.324454646549
 30
0.0
  0
POINT
  5
1686
330
14FC
100
AcDbEntity
  8
Defpoints
 62
     0
100
AcDbPoint
 10
3872.723571016806
 20
1740.324454646549
 30
0.0
  0
ENDBLK
  5
14FE
330
14FC
100
AcDbEntity
  8
0
100
AcDbBlockEnd
  0
BLOCK
  5
1509
330
1508
100
AcDbEntity
  8
0
100
AcDbBlockBegin
  2
*D54
 70
     1
 10
0.0
 20
0.0
 30
0.0
  3
*D54
  1

  0
LINE
  5
1687
330
1508
100
AcDbEntity
  8
cotas
100
AcDbLine
 10
4066.723571016804
 20
1740.324454646549
 30
0.0
 11
3871.723571016806
 21
1740.324454646549
 31
0.0
  0
LINE
  5
1688
330
1508
100
AcDbEntity
  8
cotas
100
AcDbLine
 10
3935.514372591141
 20
1462.324454646542
 30
0.0
 11
3871.723571016806
 21
1462.324454646542
 31
0.0
  0
LINE
  5
1689
330
1508
100
AcDbEntity
  8
cotas
100
AcDbLine
 10
3872.723571016806
 20
1738.324454646549
 30
0.0
 11
3872.723571016806
 21
1464.324454646542
 31
0.0
  0
SOLID
  5
168A
330
1508
100
AcDbEntity
  8
cotas
100
AcDbTrace
 10
3872.390237683473
 20
1738.324454646549
 30
0.0
 11
3873.05690435014
 21
1738.324454646549
 31
0.0
 12
3872.723571016806
 22
1740.324454646549
 32
0.0
 13
3872.723571016806
 23
1740.324454646549
 33
0.0
  0
SOLID
  5
168B
330
1508
100
AcDbEntity
  8
cotas
100
AcDbTrace
 10
3872.390237683473
 20
1464.324454646542
 30
0.0
 11
3873.05690435014
 21
1464.324454646542
 31
0.0
 12
3872.723571016806
 22
1462.324454646542
 32
0.0
 13
3872.723571016806
 23
1462.324454646542
 33
0.0
  0
MTEXT
  5
168C
330
1508
100
AcDbEntity
  8
cotas
100
AcDbMText
 10
3870.677902783092
 20
1601.324454646546
 30
0.0
 40
2.0
 41
0.0
 71
     5
 72
     1
  1
278
  7
SANINDUSA
 11
0.0000000000000001
 21
1.0
 31
0.0
 73
     1
 44
1.0
1001
ACAD
1000
MTEXTBEGIN
1070
    73
1070
     1
1070
    44
1040
1.0
1070
    74
1070
     0
1000
MTEXTEND
  0
POINT
  5
168D
330
1508
100
AcDbEntity
  8
Defpoints
 62
     0
100
AcDbPoint
 10
4067.723571016804
 20
1740.324454646549
 30
0.0
  0
POINT
  5
168E
330
1508
100
AcDbEntity
  8
Defpoints
 62
     0
100
AcDbPoint
 10
3936.514372591142
 20
1462.324454646542
 30
0.0
  0
POINT
  5
168F
330
1508
100
AcDbEntity
  8
Defpoints
 62
     0
100
AcDbPoint
 10
3872.723571016806
 20
1462.324454646542
 30
0.0
  0
ENDBLK
  5
150A
330
1508
100
AcDbEntity
  8
0
100
AcDbBlockEnd
  0
BLOCK
  5
1515
330
1514
100
AcDbEntity
  8
0
100
AcDbBlockBegin
  2
*D55
 70
     1
 10
0.0
 20
0.0
 30
0.0
  3
*D55
  1

  0
LINE
  5
1AA7
330
1514
100
AcDbEntity
  8
cotas
100
AcDbLine
 10
6083.473841778289
 20
2503.292650956333
 30
0.0
 11
6093.957595721851
 21
2512.406039222002
 31
0.0
  0
LINE
  5
1AA8
330
1514
100
AcDbEntity
  8
cotas
100
AcDbLine
 10
6009.951559967358
 20
2503.292650956333
 30
0.0
 11
5999.467806023792
 21
2512.406039222009
 31
0.0
  0
ARC
  5
1AA9
330
1514
100
AcDbEntity
  8
cotas
100
AcDbCircle
 10
6046.712700872818
 20
2471.336678700205
 30
0.0
 40
61.60009954437344
100
AcDbArc
 50
42.86033129176547
 51
137.139668708226
  0
SOLID
  5
1AAA
330
1514
100
AcDbEntity
  8
cotas
100
AcDbTrace
 10
6092.114424082915
 20
2513.460641310198
 30
0.0
 11
6091.618450858893
 21
2513.015158419956
 31
0.0
 12
6093.202886141629
 22
2511.749980193012
 32
0.0
 13
6093.202886141629
 23
2511.749980193012
 33
0.0
  0
SOLID
  5
1AAB
330
1514
100
AcDbEntity
  8
cotas
100
AcDbTrace
 10
6001.80695088675
 20
2513.015158419963
 30
0.0
 11
6001.310977662729
 21
2513.460641310204
 31
0.0
 12
6000.222515604015
 22
2511.749980193019
 32
0.0
 13
6000.222515604015
 23
2511.749980193019
 33
0.0
  0
MTEXT
  5
1AAC
330
1514
100
AcDbEntity
  8
cotas
100
AcDbMText
 10
6046.712700872824
 20
2535.208101280173
 30
0.0
 40
2.0
 41
0.0
 71
     5
 72
     1
  1
98,0\U+00B0
  7
SANINDUSA
 73
     1
 44
1.0
1001
ACAD
1000
MTEXTBEGIN
1070
    73
1070
     1
1070
    44
1040
1.0
1070
    74
1070
     0
1000
MTEXTEND
  0
POINT
  5
1AAD
330
1514
100
AcDbEntity
  8
Defpoints
 62
     0
100
AcDbPoint
 10
6064.036192161289
 20
2530.450711834944
 30
0.0
  0
POINT
  5
1AAE
330
1514
100
AcDbEntity
  8
Defpoints
 62
     0
100
AcDbPoint
 10
6010.706269547582
 20
2502.636591927342
 30
0.0
  0
POINT
  5
1AAF
330
1514
100
AcDbEntity
  8
Defpoints
 62
     0
100
AcDbPoint
 10
6070.212700872822
 20
2491.764917038895
 30
0.0
  0
POINT
  5
1AB0
330
1514
100
AcDbEntity
  8
Defpoints
 62
     0
100
AcDbPoint
 10
6082.719132198066
 20
2502.636591927342
 30
0.0
  0
POINT
  5
1AB1
330
1514
100
AcDbEntity
  8
Defpoints
 62
     0
100
AcDbPoint
 10
6023.212700872822
 20
2491.764917038895
 30
0.0
  0
ENDBLK
  5
1516
330
1514
100
AcDbEntity
  8
0
100
AcDbBlockEnd
  0
BLOCK
  5
1523
330
1522
100
AcDbEntity
  8
0
100
AcDbBlockBegin
  2
*D56
 70
     1
 10
0.0
 20
0.0
 30
0.0
  3
*D56
  1

  0
LINE
  5
1AA2
330
1522
100
AcDbEntity
  8
cotas
100
AcDbLine
 10
6114.713951765689
 20
2460.273961677667
 30
0.0
 11
6088.853751127392
 21
2489.308288926754
 31
0.0
  0
MTEXT
  5
1AA3
330
1522
100
AcDbEntity
  8
cotas
100
AcDbMText
 10
6113.923330298909
 20
2464.230244427945
 30
0.0
 40
2.0
 41
0.0
 71
     5
 72
     1
  1
R10
  7
SANINDUSA
 11
0.6651093161713036
 21
-0.7467460060436487
 31
0.0
 73
     1
 44
1.0
1001
ACAD
1000
MTEXTBEGIN
1070
    73
1070
     1
1070
    44
1040
1.0
1070
    74
1070
     0
1000
MTEXTEND
  0
SOLID
  5
1AA4
330
1522
100
AcDbEntity
  8
cotas
100
AcDbTrace
 10
6089.102666462739
 20
2489.529992032145
 30
0.0
 11
6088.604835792044
 21
2489.086585821364
 31
0.0
 12
6087.52353249505
 22
2490.801780938842
 32
0.0
 13
6087.52353249505
 23
2490.801780938842
 33
0.0
  0
POINT
  5
1AA5
330
1522
100
AcDbEntity
  8
Defpoints
 62
     0
100
AcDbPoint
 10
6087.52353249505
 20
2490.801780938842
 30
0.0
  0
POINT
  5
1AA6
330
1522
100
AcDbEntity
  8
Defpoints
 62
     0
100
AcDbPoint
 10
6094.174625656764
 20
2483.334320878404
 30
0.0
  0
ENDBLK
  5
1524
330
1522
100
AcDbEntity
  8
0
100
AcDbBlockEnd
  0
BLOCK
  5
152B
330
152A
100
AcDbEntity
  8
0
100
AcDbBlockBegin
  2
*D57
 70
     1
 10
0.0
 20
0.0
 30
0.0
  3
*D57
  1

  0
ARC
  5
1A99
330
152A
100
AcDbEntity
  8
cotas
100
AcDbCircle
 10
6197.49658964445
 20
2177.631001261598
 30
0.0
 40
71.77993174679449
100
AcDbArc
 50
95.59648056675891
 51
178.4035194332413
  0
SOLID
  5
1A9A
330
152A
100
AcDbEntity
  8
cotas
100
AcDbTrace
 10
6190.46860144995
 20
2249.40095136891
 30
0.0
 11
6190.52436627539
 21
2248.736621083067
 31
0.0
 12
6192.489474720199
 22
2249.236080702305
 32
0.0
 13
6192.489474720199
 23
2249.236080702305
 33
0.0
  0
SOLID
  5
1A9B
330
152A
100
AcDbEntity
  8
cotas
100
AcDbTrace
 10
6126.077821822728
 20
2179.626163342818
 30
0.0
 11
6125.411219854491
 21
2179.635450989803
 31
0.0
 12
6125.716657897655
 22
2177.631001261598
 32
0.0
 13
6125.716657897655
 23
2177.631001261598
 33
0.0
  0
MTEXT
  5
1A9C
330
152A
100
AcDbEntity
  8
cotas
100
AcDbMText
 10
6143.338930349805
 20
2228.133835583758
 30
0.0
 40
2.0
 41
0.0
 71
     5
 72
     1
  1
86,0\U+00B0
  7
SANINDUSA
 11
0.6819983600624965
 21
0.7313537016191724
 31
0.0
 73
     1
 44
1.0
1001
ACAD
1000
MTEXTBEGIN
1070
    73
1070
     1
1070
    44
1040
1.0
1070
    74
1070
     0
1000
MTEXTEND
  0
POINT
  5
1A9D
330
152A
100
AcDbEntity
  8
Defpoints
 62
     0
100
AcDbPoint
 10
6158.753324256402
 20
2238.057137896715
 30
0.0
  0
POINT
  5
1A9E
330
152A
100
AcDbEntity
  8
Defpoints
 62
     0
100
AcDbPoint
 10
6197.49658964445
 20
2177.631001261598
 30
0.0
  0
POINT
  5
1A9F
330
152A
100
AcDbEntity
  8
Defpoints
 62
     0
100
AcDbPoint
 10
6173.377320762451
 20
2522.552615898935
 30
0.0
  0
POINT
  5
1AA0
330
152A
100
AcDbEntity
  8
Defpoints
 62
     0
100
AcDbPoint
 10
6197.49658964445
 20
2177.631001261598
 30
0.0
  0
POINT
  5
1AA1
330
152A
100
AcDbEntity
  8
Defpoints
 62
     0
100
AcDbPoint
 10
6046.712700872822
 20
2177.631001261599
 30
0.0
  0
ENDBLK
  5
152C
330
152A
100
AcDbEntity
  8
0
100
AcDbBlockEnd
  0
BLOCK
  5
1537
330
1536
100
AcDbEntity
  8
0
100
AcDbBlockBegin
  2
*D58
 70
     1
 10
0.0
 20
0.0
 30
0.0
  3
*D58
  1

  0
ARC
  5
1A90
330
1536
100
AcDbEntity
  8
cotas
100
AcDbCircle
 10
5886.710872239922
 20
2177.631001261598
 30
0.0
 40
104.5001267118638
100
AcDbArc
 50
1.096585349846979
 51
86.90341465015277
  0
SOLID
  5
1A91
330
1536
100
AcDbEntity
  8
cotas
100
AcDbTrace
 10
5991.525178289869
 20
2179.634099475525
 30
0.0
 11
5990.858542148157
 21
2179.627719897933
 31
0.0
 12
5991.210998951786
 22
2177.631001261599
 32
0.0
 13
5991.210998951786
 23
2177.631001261599
 33
0.0
  0
SOLID
  5
1A92
330
1536
100
AcDbEntity
  8
cotas
100
AcDbTrace
 10
5892.34107579175
 20
2281.645542747836
 30
0.0
 11
5892.370716748905
 21
2282.311550148773
 31
0.0
 12
5890.357874067515
 22
2282.067469319768
 32
0.0
 13
5890.357874067515
 23
2282.067469319768
 33
0.0
  0
MTEXT
  5
1A93
330
1536
100
AcDbEntity
  8
cotas
100
AcDbMText
 10
5963.515825583129
 20
2251.800682554712
 30
0.0
 40
2.0
 41
0.0
 71
     5
 72
     1
  1
88,0\U+00B0
  7
SANINDUSA
 11
0.6946583704589943
 21
-0.7193398003386541
 31
0.0
 73
     1
 44
1.0
1001
ACAD
1000
MTEXTBEGIN
1070
    73
1070
     1
1070
    44
1040
1.0
1070
    74
1070
     0
1000
MTEXTEND
  0
POINT
  5
1A94
330
1536
100
AcDbEntity
  8
Defpoints
 62
     0
100
AcDbPoint
 10
5977.812453936661
 20
2228.824538892317
 30
0.0
  0
POINT
  5
1A95
330
1536
100
AcDbEntity
  8
Defpoints
 62
     0
100
AcDbPoint
 10
6046.712700872821
 20
2177.631001261598
 30
0.0
  0
POINT
  5
1A96
330
1536
100
AcDbEntity
  8
Defpoints
 62
     0
100
AcDbPoint
 10
5896.320243206979
 20
2452.807382163646
 30
0.0
  0
POINT
  5
1A97
330
1536
100
AcDbEntity
  8
Defpoints
 62
     0
100
AcDbPoint
 10
5887.787905233855
 20
2208.473190869893
 30
0.0
  0
POINT
  5
1A98
330
1536
100
AcDbEntity
  8
Defpoints
 62
     0
100
AcDbPoint
 10
5934.546419721766
 20
2177.631001261599
 30
0.0
  0
ENDBLK
  5
1538
330
1536
100
AcDbEntity
  8
0
100
AcDbBlockEnd
  0
BLOCK
  5
1543
330
1542
100
AcDbEntity
  8
0
100
AcDbBlockBegin
  2
*D59
 70
     1
 10
0.0
 20
0.0
 30
0.0
  3
*D59
  1

  0
LINE
  5
1929
330
1542
100
AcDbEntity
  8
cotas
100
AcDbLine
 10
4036.687646609139
 20
2388.704769333466
 30
0.0
 11
3984.29810341774
 21
2341.294896438101
 31
0.0
  0
MTEXT
  5
192A
330
1542
100
AcDbEntity
  8
cotas
100
AcDbMText
 10
4032.088936956299
 20
2387.296684565777
 30
0.0
 40
2.0
 41
0.0
 71
     5
 72
     1
  1
R200
  7
SANINDUSA
 11
0.7414667011430004
 21
0.670989665416776
 31
0.0
 73
     1
 44
1.0
1001
ACAD
1000
MTEXTBEGIN
1070
    73
1070
     1
1070
    44
1040
1.0
1070
    74
1070
     0
1000
MTEXTEND
  0
SOLID
  5
192B
330
1542
100
AcDbEntity
  8
cotas
100
AcDbTrace
 10
3984.074440195934
 20
2341.542052005149
 30
0.0
 11
3984.521766639545
 21
2341.047740871053
 31
0.0
 12
3982.815170015454
 22
2339.952917107268
 32
0.0
 13
3982.815170015454
 23
2339.952917107268
 33
0.0
  0
POINT
  5
192C
330
1542
100
AcDbEntity
  8
Defpoints
 62
     0
100
AcDbPoint
 10
3982.815170015454
 20
2339.952917107268
 30
0.0
  0
POINT
  5
192D
330
1542
100
AcDbEntity
  8
Defpoints
 62
     0
100
AcDbPoint
 10
4131.108510244056
 20
2474.150850190625
 30
0.0
  0
ENDBLK
  5
1544
330
1542
100
AcDbEntity
  8
0
100
AcDbBlockEnd
  0
BLOCK
  5
154B
330
154A
100
AcDbEntity
  8
0
100
AcDbBlockBegin
  2
*D60
 70
     1
 10
0.0
 20
0.0
 30
0.0
  3
*D60
  1

  0
LINE
  5
192E
330
154A
100
AcDbEntity
  8
cotas
100
AcDbLine
 10
4013.048290790294
 20
2536.6521152608
 30
0.0
 11
3951.82215640079
 21
2563.660970542724
 31
0.0
  0
MTEXT
  5
192F
330
154A
100
AcDbEntity
  8
cotas
100
AcDbMText
 10
4009.87851249683
 20
2540.259116911709
 30
0.0
 40
2.0
 41
0.0
 71
     5
 72
     1
  1
R222
  7
SANINDUSA
 11
0.9149325609796273
 21
-0.4036067502647355
 31
0.0
 73
     1
 44
1.0
1001
ACAD
1000
MTEXTBEGIN
1070
    73
1070
     1
1070
    44
1040
1.0
1070
    74
1070
     0
1000
MTEXTEND
  0
SOLID
  5
1930
330
154A
100
AcDbEntity
  8
cotas
100
AcDbTrace
 10
3951.956691984212
 20
2563.965948063051
 30
0.0
 11
3951.687620817369
 21
2563.355993022398
 31
0.0
 12
3949.992291278832
 22
2564.468184043253
 32
0.0
 13
3949.992291278832
 23
2564.468184043253
 33
0.0
  0
POINT
  5
1931
330
154A
100
AcDbEntity
  8
Defpoints
 62
     0
100
AcDbPoint
 10
3949.992291278832
 20
2564.468184043253
 30
0.0
  0
POINT
  5
1932
330
154A
100
AcDbEntity
  8
Defpoints
 62
     0
100
AcDbPoint
 10
4153.10731981631
 20
2474.867485484481
 30
0.0
  0
ENDBLK
  5
154C
330
154A
100
AcDbEntity
  8
0
100
AcDbBlockEnd
  0
BLOCK
  5
1553
330
1552
100
AcDbEntity
  8
0
100
AcDbBlockBegin
  2
*D61
 70
     1
 10
0.0
 20
0.0
 30
0.0
  3
*D61
  1

  0
LINE
  5
1A8A
330
1552
100
AcDbEntity
  8
cotas
100
AcDbLine
 10
6246.635850560449
 20
2185.235229792561
 30
0.0
 11
6239.719049517773
 21
2190.931386657874
 31
0.0
  0
MTEXT
  5
1A8B
330
1552
100
AcDbEntity
  8
cotas
100
AcDbMText
 10
6245.246835248693
 20
2189.02309092618
 30
0.0
 40
2.0
 41
0.0
 71
     5
 72
     1
  1
R40
  7
SANINDUSA
 11
0.7719320006402841
 21
-0.6357051096125376
 31
0.0
 73
     1
 44
1.0
1001
ACAD
1000
MTEXTBEGIN
1070
    73
1070
     1
1070
    44
1040
1.0
1070
    74
1070
     0
1000
MTEXTEND
  0
LINE
  5
1A8C
330
1552
100
AcDbEntity
  8
cotas
100
AcDbLine
 10
6207.297905490882
 20
2217.6310012616
 30
0.0
 11
6238.175185516492
 21
2192.202796877099
 31
0.0
  0
SOLID
  5
1A8D
330
1552
100
AcDbEntity
  8
cotas
100
AcDbTrace
 10
6239.930951220977
 20
2191.188697324754
 30
0.0
 11
6239.50714781457
 21
2190.674075990994
 31
0.0
 12
6238.175185516492
 22
2192.202796877099
 32
0.0
 13
6238.175185516492
 23
2192.202796877099
 33
0.0
  0
POINT
  5
1A8E
330
1552
100
AcDbEntity
  8
Defpoints
 62
     0
100
AcDbPoint
 10
6238.175185516492
 20
2192.202796877099
 30
0.0
  0
POINT
  5
1A8F
330
1552
100
AcDbEntity
  8
Defpoints
 62
     0
100
AcDbPoint
 10
6207.297905490882
 20
2217.6310012616
 30
0.0
  0
ENDBLK
  5
1554
330
1552
100
AcDbEntity
  8
0
100
AcDbBlockEnd
  0
BLOCK
  5
155C
330
155B
100
AcDbEntity
  8
0
100
AcDbBlockBegin
  2
*D62
 70
     1
 10
0.0
 20
0.0
 30
0.0
  3
*D62
  1

  0
LINE
  5
1A84
330
155B
100
AcDbEntity
  8
cotas
100
AcDbLine
 10
5890.404593777287
 20
2683.053551265588
 30
0.0
 11
5885.516614085188
 21
2677.769558505419
 31
0.0
  0
MTEXT
  5
1A85
330
155B
100
AcDbEntity
  8
cotas
100
AcDbMText
 10
5887.156225086881
 20
2682.517898990133
 30
0.0
 40
2.0
 41
0.0
 71
     5
 72
     1
  1
R5
  7
SANINDUSA
 11
0.6790634224236486
 21
0.7340796062596218
 31
0.0
 73
     1
 44
1.0
1001
ACAD
1000
MTEXTBEGIN
1070
    73
1070
     1
1070
    44
1040
1.0
1070
    74
1070
     0
1000
MTEXTEND
  0
LINE
  5
1A86
330
155B
100
AcDbEntity
  8
cotas
100
AcDbLine
 10
5880.763170128222
 20
2672.631001261603
 30
0.0
 11
5884.158487240341
 21
2676.3013992929
 31
0.0
  0
SOLID
  5
1A87
330
155B
100
AcDbEntity
  8
cotas
100
AcDbTrace
 10
5885.271920883101
 20
2677.99591297956
 30
0.0
 11
5885.761307287276
 21
2677.543204031277
 31
0.0
 12
5884.158487240341
 22
2676.3013992929
 32
0.0
 13
5884.158487240341
 23
2676.3013992929
 33
0.0
  0
POINT
  5
1A88
330
155B
100
AcDbEntity
  8
Defpoints
 62
     0
100
AcDbPoint
 10
5884.158487240341
 20
2676.3013992929
 30
0.0
  0
POINT
  5
1A89
330
155B
100
AcDbEntity
  8
Defpoints
 62
     0
100
AcDbPoint
 10
5880.763170128222
 20
2672.631001261603
 30
0.0
  0
ENDBLK
  5
155D
330
155B
100
AcDbEntity
  8
0
100
AcDbBlockEnd
  0
BLOCK
  5
1565
330
1564
100
AcDbEntity
  8
0
100
AcDbBlockBegin
  2
*D63
 70
     1
 10
0.0
 20
0.0
 30
0.0
  3
*D63
  1

  0
LINE
  5
1933
330
1564
100
AcDbEntity
  8
cotas
100
AcDbLine
 10
4343.342593303584
 20
2654.137477617769
 30
0.0
 11
4464.936091141022
 21
2654.137477617769
 31
0.0
  0
LINE
  5
1934
330
1564
100
AcDbEntity
  8
cotas
100
AcDbLine
 10
4434.598064018172
 20
2474.137060206285
 30
0.0
 11
4464.936091141022
 21
2474.137060206285
 31
0.0
  0
LINE
  5
1935
330
1564
100
AcDbEntity
  8
cotas
100
AcDbLine
 10
4463.936091141022
 20
2652.137477617769
 30
0.0
 11
4463.936091141022
 21
2476.137060206286
 31
0.0
  0
SOLID
  5
1936
330
1564
100
AcDbEntity
  8
cotas
100
AcDbTrace
 10
4463.602757807689
 20
2652.137477617769
 30
0.0
 11
4464.269424474355
 21
2652.137477617769
 31
0.0
 12
4463.936091141022
 22
2654.137477617769
 32
0.0
 13
4463.936091141022
 23
2654.137477617769
 33
0.0
  0
SOLID
  5
1937
330
1564
100
AcDbEntity
  8
cotas
100
AcDbTrace
 10
4463.602757807689
 20
2476.137060206286
 30
0.0
 11
4464.269424474355
 21
2476.137060206286
 31
0.0
 12
4463.936091141022
 22
2474.137060206285
 32
0.0
 13
4463.936091141022
 23
2474.137060206285
 33
0.0
  0
MTEXT
  5
1938
330
1564
100
AcDbEntity
  8
cotas
100
AcDbMText
 10
4461.890422907308
 20
2564.137268912028
 30
0.0
 40
2.0
 41
0.0
 71
     5
 72
     1
  1
180
  7
SANINDUSA
 11
0.0000000000000001
 21
1.0
 31
0.0
 73
     1
 44
1.0
1001
ACAD
1000
MTEXTBEGIN
1070
    73
1070
     1
1070
    44
1040
1.0
1070
    74
1070
     0
1000
MTEXTEND
  0
POINT
  5
1939
330
1564
100
AcDbEntity
  8
Defpoints
 62
     0
100
AcDbPoint
 10
4342.342593303585
 20
2654.137477617769
 30
0.0
  0
POINT
  5
193A
330
1564
100
AcDbEntity
  8
Defpoints
 62
     0
100
AcDbPoint
 10
4433.598064018172
 20
2474.137060206285
 30
0.0
  0
POINT
  5
193B
330
1564
100
AcDbEntity
  8
Defpoints
 62
     0
100
AcDbPoint
 10
4463.936091141022
 20
2474.137060206285
 30
0.0
  0
ENDBLK
  5
1566
330
1564
100
AcDbEntity
  8
0
100
AcDbBlockEnd
  0
BLOCK
  5
1571
330
1570
100
AcDbEntity
  8
0
100
AcDbBlockBegin
  2
*D64
 70
     1
 10
0.0
 20
0.0
 30
0.0
  3
*D64
  1

  0
LINE
  5
193C
330
1570
100
AcDbEntity
  8
cotas
100
AcDbLine
 10
4434.07334827927
 20
2474.137060206285
 30
0.0
 11
4465.01138385785
 21
2474.137060206285
 31
0.0
  0
LINE
  5
193D
330
1570
100
AcDbEntity
  8
cotas
100
AcDbLine
 10
4232.016490339119
 20
2274.150850963331
 30
0.0
 11
4465.01138385785
 21
2274.150850963331
 31
0.0
  0
LINE
  5
193E
330
1570
100
AcDbEntity
  8
cotas
100
AcDbLine
 10
4464.01138385785
 20
2472.137060206285
 30
0.0
 11
4464.01138385785
 21
2276.150850963331
 31
0.0
  0
SOLID
  5
193F
330
1570
100
AcDbEntity
  8
cotas
100
AcDbTrace
 10
4463.678050524516
 20
2472.137060206285
 30
0.0
 11
4464.344717191183
 21
2472.137060206285
 31
0.0
 12
4464.01138385785
 22
2474.137060206285
 32
0.0
 13
4464.01138385785
 23
2474.137060206285
 33
0.0
  0
SOLID
  5
1940
330
1570
100
AcDbEntity
  8
cotas
100
AcDbTrace
 10
4463.678050524516
 20
2276.150850963331
 30
0.0
 11
4464.344717191183
 21
2276.150850963331
 31
0.0
 12
4464.01138385785
 22
2274.150850963331
 32
0.0
 13
4464.01138385785
 23
2274.150850963331
 33
0.0
  0
MTEXT
  5
1941
330
1570
100
AcDbEntity
  8
cotas
100
AcDbMText
 10
4461.969745174168
 20
2374.143955584809
 30
0.0
 40
2.0
 41
0.0
 71
     5
 72
     1
  1
200
  7
SANINDUSA
 11
0.0000000000000001
 21
1.0
 31
0.0
 73
     1
 44
1.0
1001
ACAD
1000
MTEXTBEGIN
1070
    73
1070
     1
1070
    44
1040
1.0
1070
    74
1070
     0
1000
MTEXTEND
  0
POINT
  5
1942
330
1570
100
AcDbEntity
  8
Defpoints
 62
     0
100
AcDbPoint
 10
4433.07334827927
 20
2474.137060206285
 30
0.0
  0
POINT
  5
1943
330
1570
100
AcDbEntity
  8
Defpoints
 62
     0
100
AcDbPoint
 10
4231.016490339119
 20
2274.150850963331
 30
0.0
  0
POINT
  5
1944
330
1570
100
AcDbEntity
  8
Defpoints
 62
     0
100
AcDbPoint
 10
4464.01138385785
 20
2274.150850963331
 30
0.0
  0
ENDBLK
  5
1572
330
1570
100
AcDbEntity
  8
0
100
AcDbBlockEnd
  0
BLOCK
  5
157D
330
157C
100
AcDbEntity
  8
0
100
AcDbBlockBegin
  2
*D65
 70
     1
 10
0.0
 20
0.0
 30
0.0
  3
*D65
  1

  0
LINE
  5
1945
330
157C
100
AcDbEntity
  8
cotas
100
AcDbLine
 10
4343.342593303584
 20
2654.137477617769
 30
0.0
 11
4489.987749389682
 21
2654.137477617769
 31
0.0
  0
LINE
  5
1946
330
157C
100
AcDbEntity
  8
cotas
100
AcDbLine
 10
4232.016490339119
 20
2274.150850963331
 30
0.0
 11
4489.987749389682
 21
2274.150850963331
 31
0.0
  0
LINE
  5
1947
330
157C
100
AcDbEntity
  8
cotas
100
AcDbLine
 10
4488.987749389683
 20
2652.137477617769
 30
0.0
 11
4488.987749389683
 21
2276.150850963331
 31
0.0
  0
SOLID
  5
1948
330
157C
100
AcDbEntity
  8
cotas
100
AcDbTrace
 10
4488.65441605635
 20
2652.137477617769
 30
0.0
 11
4489.321082723016
 21
2652.137477617769
 31
0.0
 12
4488.987749389683
 22
2654.137477617769
 32
0.0
 13
4488.987749389683
 23
2654.137477617769
 33
0.0
  0
SOLID
  5
1949
330
157C
100
AcDbEntity
  8
cotas
100
AcDbTrace
 10
4488.65441605635
 20
2276.150850963331
 30
0.0
 11
4489.321082723016
 21
2276.150850963331
 31
0.0
 12
4488.987749389683
 22
2274.150850963331
 32
0.0
 13
4488.987749389683
 23
2274.150850963331
 33
0.0
  0
MTEXT
  5
194A
330
157C
100
AcDbEntity
  8
cotas
100
AcDbMText
 10
4486.942081155969
 20
2464.144164290551
 30
0.0
 40
2.0
 41
0.0
 71
     5
 72
     1
  1
380
  7
SANINDUSA
 11
0.0000000000000001
 21
1.0
 31
0.0
 73
     1
 44
1.0
1001
ACAD
1000
MTEXTBEGIN
1070
    73
1070
     1
1070
    44
1040
1.0
1070
    74
1070
     0
1000
MTEXTEND
  0
POINT
  5
194B
330
157C
100
AcDbEntity
  8
Defpoints
 62
     0
100
AcDbPoint
 10
4342.342593303585
 20
2654.137477617769
 30
0.0
  0
POINT
  5
194C
330
157C
100
AcDbEntity
  8
Defpoints
 62
     0
100
AcDbPoint
 10
4231.016490339119
 20
2274.150850963331
 30
0.0
  0
POINT
  5
194D
330
157C
100
AcDbEntity
  8
Defpoints
 62
     0
100
AcDbPoint
 10
4488.987749389683
 20
2274.150850963331
 30
0.0
  0
ENDBLK
  5
157E
330
157C
100
AcDbEntity
  8
0
100
AcDbBlockEnd
  0
BLOCK
  5
1589
330
1588
100
AcDbEntity
  8
0
100
AcDbBlockBegin
  2
*D66
 70
     1
 10
0.0
 20
0.0
 30
0.0
  3
*D66
  1

  0
LINE
  5
194E
330
1588
100
AcDbEntity
  8
cotas
100
AcDbLine
 10
4130.016490339214
 20
2634.899636991408
 30
0.0
 11
3902.434916660066
 21
2634.899636991408
 31
0.0
  0
LINE
  5
194F
330
1588
100
AcDbEntity
  8
cotas
100
AcDbLine
 10
4018.68911257555
 20
2654.136533368546
 30
0.0
 11
3902.434916660066
 21
2654.136533368546
 31
0.0
  0
LINE
  5
1950
330
1588
100
AcDbEntity
  8
cotas
100
AcDbLine
 10
3903.434916660066
 20
2636.899636991408
 30
0.0
 11
3903.434916660066
 21
2652.136533368546
 31
0.0
  0
SOLID
  5
1951
330
1588
100
AcDbEntity
  8
cotas
100
AcDbTrace
 10
3903.101583326733
 20
2636.899636991408
 30
0.0
 11
3903.7682499934
 21
2636.899636991408
 31
0.0
 12
3903.434916660066
 22
2634.899636991408
 32
0.0
 13
3903.434916660066
 23
2634.899636991408
 33
0.0
  0
SOLID
  5
1952
330
1588
100
AcDbEntity
  8
cotas
100
AcDbTrace
 10
3903.101583326733
 20
2652.136533368546
 30
0.0
 11
3903.7682499934
 21
2652.136533368546
 31
0.0
 12
3903.434916660066
 22
2654.136533368546
 32
0.0
 13
3903.434916660066
 23
2654.136533368546
 33
0.0
  0
MTEXT
  5
1953
330
1588
100
AcDbEntity
  8
cotas
100
AcDbMText
 10
3901.395292751402
 20
2644.518085179977
 30
0.0
 40
2.0
 41
0.0
 71
     5
 72
     1
  1
19
  7
SANINDUSA
 11
0.0000000000000001
 21
1.0
 31
0.0
 73
     1
 44
1.0
1001
ACAD
1000
MTEXTBEGIN
1070
    73
1070
     1
1070
    44
1040
1.0
1070
    74
1070
     0
1000
MTEXTEND
  0
POINT
  5
1954
330
1588
100
AcDbEntity
  8
Defpoints
 62
     0
100
AcDbPoint
 10
4131.016490339213
 20
2634.899636991408
 30
0.0
  0
POINT
  5
1955
330
1588
100
AcDbEntity
  8
Defpoints
 62
     0
100
AcDbPoint
 10
4019.689112575551
 20
2654.136533368546
 30
0.0
  0
POINT
  5
1956
330
1588
100
AcDbEntity
  8
Defpoints
 62
     0
100
AcDbPoint
 10
3903.434916660066
 20
2654.136533368546
 30
0.0
  0
ENDBLK
  5
158A
330
1588
100
AcDbEntity
  8
0
100
AcDbBlockEnd
  0
BLOCK
  5
1595
330
1594
100
AcDbEntity
  8
0
100
AcDbBlockBegin
  2
*D67
 70
     1
 10
0.0
 20
0.0
 30
0.0
  3
*D67
  1

  0
LINE
  5
1957
330
1594
100
AcDbEntity
  8
cotas
100
AcDbLine
 10
4130.016490339214
 20
2634.899636991405
 30
0.0
 11
3902.434916660066
 21
2634.899636991405
 31
0.0
  0
LINE
  5
1958
330
1594
100
AcDbEntity
  8
cotas
100
AcDbLine
 10
4130.066729583407
 20
2313.396753921956
 30
0.0
 11
3902.434916660066
 21
2313.396753921956
 31
0.0
  0
LINE
  5
1959
330
1594
100
AcDbEntity
  8
cotas
100
AcDbLine
 10
3903.434916660066
 20
2632.899636991405
 30
0.0
 11
3903.434916660066
 21
2315.396753921956
 31
0.0
  0
SOLID
  5
195A
330
1594
100
AcDbEntity
  8
cotas
100
AcDbTrace
 10
3903.101583326733
 20
2632.899636991405
 30
0.0
 11
3903.7682499934
 21
2632.899636991405
 31
0.0
 12
3903.434916660066
 22
2634.899636991405
 32
0.0
 13
3903.434916660066
 23
2634.899636991405
 33
0.0
  0
SOLID
  5
195B
330
1594
100
AcDbEntity
  8
cotas
100
AcDbTrace
 10
3903.101583326733
 20
2315.396753921956
 30
0.0
 11
3903.7682499934
 21
2315.396753921956
 31
0.0
 12
3903.434916660066
 22
2313.396753921956
 32
0.0
 13
3903.434916660066
 23
2313.396753921956
 33
0.0
  0
MTEXT
  5
195C
330
1594
100
AcDbEntity
  8
cotas
100
AcDbMText
 10
3901.393277976385
 20
2474.148195456681
 30
0.0
 40
2.0
 41
0.0
 71
     5
 72
     1
  1
322
  7
SANINDUSA
 11
0.0000000000000001
 21
1.0
 31
0.0
 73
     1
 44
1.0
1001
ACAD
1000
MTEXTBEGIN
1070
    73
1070
     1
1070
    44
1040
1.0
1070
    74
1070
     0
1000
MTEXTEND
  0
POINT
  5
195D
330
1594
100
AcDbEntity
  8
Defpoints
 62
     0
100
AcDbPoint
 10
4131.016490339213
 20
2634.899636991405
 30
0.0
  0
POINT
  5
195E
330
1594
100
AcDbEntity
  8
Defpoints
 62
     0
100
AcDbPoint
 10
4131.066729583407
 20
2313.396753921956
 30
0.0
  0
POINT
  5
195F
330
1594
100
AcDbEntity
  8
Defpoints
 62
     0
100
AcDbPoint
 10
3903.434916660066
 20
2313.396753921956
 30
0.0
  0
ENDBLK
  5
1596
330
1594
100
AcDbEntity
  8
0
100
AcDbBlockEnd
  0
BLOCK
  5
15A1
330
15A0
100
AcDbEntity
  8
0
100
AcDbBlockBegin
  2
*D68
 70
     1
 10
0.0
 20
0.0
 30
0.0
  3
*D68
  1

  0
LINE
  5
1960
330
15A0
100
AcDbEntity
  8
cotas
100
AcDbLine
 10
4130.06672957809
 20
2313.396753921956
 30
0.0
 11
3902.434916660066
 21
2313.396753921956
 31
0.0
  0
LINE
  5
1961
330
15A0
100
AcDbEntity
  8
cotas
100
AcDbLine
 10
4130.016490339119
 20
2274.150871359784
 30
0.0
 11
3902.434916660066
 21
2274.150871359784
 31
0.0
  0
LINE
  5
1962
330
15A0
100
AcDbEntity
  8
cotas
100
AcDbLine
 10
3903.434916660066
 20
2311.396753921956
 30
0.0
 11
3903.434916660066
 21
2276.150871359784
 31
0.0
  0
SOLID
  5
1963
330
15A0
100
AcDbEntity
  8
cotas
100
AcDbTrace
 10
3903.101583326733
 20
2311.396753921956
 30
0.0
 11
3903.7682499934
 21
2311.396753921956
 31
0.0
 12
3903.434916660066
 22
2313.396753921956
 32
0.0
 13
3903.434916660066
 23
2313.396753921956
 33
0.0
  0
SOLID
  5
1964
330
15A0
100
AcDbEntity
  8
cotas
100
AcDbTrace
 10
3903.101583326733
 20
2276.150871359784
 30
0.0
 11
3903.7682499934
 21
2276.150871359784
 31
0.0
 12
3903.434916660066
 22
2274.150871359784
 32
0.0
 13
3903.434916660066
 23
2274.150871359784
 33
0.0
  0
MTEXT
  5
1965
330
15A0
100
AcDbEntity
  8
cotas
100
AcDbMText
 10
3901.393277976385
 20
2293.77381264087
 30
0.0
 40
2.0
 41
0.0
 71
     5
 72
     1
  1
39
  7
SANINDUSA
 11
0.0000000000000001
 21
1.0
 31
0.0
 73
     1
 44
1.0
1001
ACAD
1000
MTEXTBEGIN
1070
    73
1070
     1
1070
    44
1040
1.0
1070
    74
1070
     0
1000
MTEXTEND
  0
POINT
  5
1966
330
15A0
100
AcDbEntity
  8
Defpoints
 62
     0
100
AcDbPoint
 10
4131.06672957809
 20
2313.396753921956
 30
0.0
  0
POINT
  5
1967
330
15A0
100
AcDbEntity
  8
Defpoints
 62
     0
100
AcDbPoint
 10
4131.01649033912
 20
2274.150871359784
 30
0.0
  0
POINT
  5
1968
330
15A0
100
AcDbEntity
  8
Defpoints
 62
     0
100
AcDbPoint
 10
3903.434916660066
 20
2274.150871359784
 30
0.0
  0
ENDBLK
  5
15A2
330
15A0
100
AcDbEntity
  8
0
100
AcDbBlockEnd
  0
BLOCK
  5
15AD
330
15AC
100
AcDbEntity
  8
0
100
AcDbBlockBegin
  2
*D69
 70
     1
 10
0.0
 20
0.0
 30
0.0
  3
*D69
  1

  0
LINE
  5
1969
330
15AC
100
AcDbEntity
  8
cotas
100
AcDbLine
 10
4130.126090991465
 20
2274.150850963332
 30
0.0
 11
3902.434916660066
 21
2274.150850963332
 31
0.0
  0
LINE
  5
196A
330
15AC
100
AcDbEntity
  8
cotas
100
AcDbLine
 10
4130.12626679894
 20
2272.150850971057
 30
0.0
 11
3902.434916660066
 21
2272.150850971057
 31
0.0
  0
LINE
  5
196B
330
15AC
100
AcDbEntity
  8
cotas
100
AcDbLine
 10
3903.434916660066
 20
2276.150850963333
 30
0.0
 11
3903.434916660066
 21
2278.150850963332
 31
0.0
  0
LINE
  5
196C
330
15AC
100
AcDbEntity
  8
cotas
100
AcDbLine
 10
3903.434916660066
 20
2270.150850971057
 30
0.0
 11
3903.434916660066
 21
2264.796922159774
 31
0.0
  0
LINE
  5
196D
330
15AC
100
AcDbEntity
  8
cotas
100
AcDbLine
 10
3903.434916660066
 20
2274.150850963332
 30
0.0
 11
3903.434916660066
 21
2272.150850971057
 31
0.0
  0
SOLID
  5
196E
330
15AC
100
AcDbEntity
  8
cotas
100
AcDbTrace
 10
3903.101583326733
 20
2276.150850963333
 30
0.0
 11
3903.7682499934
 21
2276.150850963333
 31
0.0
 12
3903.434916660066
 22
2274.150850963332
 32
0.0
 13
3903.434916660066
 23
2274.150850963332
 33
0.0
  0
SOLID
  5
196F
330
15AC
100
AcDbEntity
  8
cotas
100
AcDbTrace
 10
3903.101583326733
 20
2270.150850971057
 30
0.0
 11
3903.7682499934
 21
2270.150850971057
 31
0.0
 12
3903.434916660066
 22
2272.150850971057
 32
0.0
 13
3903.434916660066
 23
2272.150850971057
 33
0.0
  0
MTEXT
  5
1970
330
15AC
100
AcDbEntity
  8
cotas
100
AcDbMText
 10
3901.414097318225
 20
2266.473886565416
 30
0.0
 40
2.0
 41
0.0
 71
     5
 72
     1
  1
2
  7
SANINDUSA
 11
0.0000000000000001
 21
1.0
 31
0.0
 73
     1
 44
1.0
1001
ACAD
1000
MTEXTBEGIN
1070
    73
1070
     1
1070
    44
1040
1.0
1070
    74
1070
     0
1000
MTEXTEND
  0
POINT
  5
1971
330
15AC
100
AcDbEntity
  8
Defpoints
 62
     0
100
AcDbPoint
 10
4131.126090991465
 20
2274.150850963332
 30
0.0
  0
POINT
  5
1972
330
15AC
100
AcDbEntity
  8
Defpoints
 62
     0
100
AcDbPoint
 10
4131.126266798939
 20
2272.150850971057
 30
0.0
  0
POINT
  5
1973
330
15AC
100
AcDbEntity
  8
Defpoints
 62
     0
100
AcDbPoint
 10
3903.434916660066
 20
2272.150850971057
 30
0.0
  0
ENDBLK
  5
15AE
330
15AC
100
AcDbEntity
  8
0
100
AcDbBlockEnd
  0
BLOCK
  5
15BB
330
15BA
100
AcDbEntity
  8
0
100
AcDbBlockBegin
  2
*D70
 70
     1
 10
0.0
 20
0.0
 30
0.0
  3
*D70
  1

  0
LINE
  5
1974
330
15BA
100
AcDbEntity
  8
cotas
100
AcDbLine
 10
3970.096040096398
 20
2473.137060206235
 30
0.0
 11
3970.096040096398
 21
2209.381206914643
 31
0.0
  0
LINE
  5
1975
330
15BA
100
AcDbEntity
  8
cotas
100
AcDbLine
 10
4391.936940581844
 20
2473.137060206286
 30
0.0
 11
4391.936940581844
 21
2209.381206914643
 31
0.0
  0
LINE
  5
1976
330
15BA
100
AcDbEntity
  8
cotas
100
AcDbLine
 10
3972.096040096398
 20
2210.381206914643
 30
0.0
 11
4389.936940581844
 21
2210.381206914643
 31
0.0
  0
SOLID
  5
1977
330
15BA
100
AcDbEntity
  8
cotas
100
AcDbTrace
 10
3972.096040096398
 20
2210.714540247977
 30
0.0
 11
3972.096040096398
 21
2210.047873581309
 31
0.0
 12
3970.096040096398
 22
2210.381206914643
 32
0.0
 13
3970.096040096398
 23
2210.381206914643
 33
0.0
  0
SOLID
  5
1978
330
15BA
100
AcDbEntity
  8
cotas
100
AcDbTrace
 10
4389.936940581844
 20
2210.714540247977
 30
0.0
 11
4389.936940581844
 21
2210.047873581309
 31
0.0
 12
4391.936940581844
 22
2210.381206914643
 32
0.0
 13
4391.936940581844
 23
2210.381206914643
 33
0.0
  0
MTEXT
  5
1979
330
15BA
100
AcDbEntity
  8
cotas
100
AcDbMText
 10
4181.016490339121
 20
2212.402026256484
 30
0.0
 40
2.0
 41
0.0
 71
     5
 72
     1
  1
422
  7
SANINDUSA
 73
     1
 44
1.0
1001
ACAD
1000
MTEXTBEGIN
1070
    73
1070
     1
1070
    44
1040
1.0
1070
    74
1070
     0
1000
MTEXTEND
  0
POINT
  5
197A
330
15BA
100
AcDbEntity
  8
Defpoints
 62
     0
100
AcDbPoint
 10
3970.096040096398
 20
2474.137060206235
 30
0.0
  0
POINT
  5
197B
330
15BA
100
AcDbEntity
  8
Defpoints
 62
     0
100
AcDbPoint
 10
4391.936940581844
 20
2474.137060206285
 30
0.0
  0
POINT
  5
197C
330
15BA
100
AcDbEntity
  8
Defpoints
 62
     0
100
AcDbPoint
 10
4391.936940581844
 20
2210.381206914643
 30
0.0
  0
ENDBLK
  5
15BC
330
15BA
100
AcDbEntity
  8
0
100
AcDbBlockEnd
  0
BLOCK
  5
15C7
330
15C6
100
AcDbEntity
  8
0
100
AcDbBlockBegin
  2
*D71
 70
     1
 10
0.0
 20
0.0
 30
0.0
  3
*D71
  1

  0
LINE
  5
197D
330
15C6
100
AcDbEntity
  8
cotas
100
AcDbLine
 10
4391.936940581844
 20
2473.137060206286
 30
0.0
 11
4391.936940581844
 21
2209.381206914643
 31
0.0
  0
LINE
  5
197E
330
15C6
100
AcDbEntity
  8
cotas
100
AcDbLine
 10
4431.072503176074
 20
2473.137060206286
 30
0.0
 11
4431.072503176074
 21
2209.381206914643
 31
0.0
  0
LINE
  5
197F
330
15C6
100
AcDbEntity
  8
cotas
100
AcDbLine
 10
4393.936940581844
 20
2210.381206914643
 30
0.0
 11
4429.072503176075
 21
2210.381206914643
 31
0.0
  0
SOLID
  5
1980
330
15C6
100
AcDbEntity
  8
cotas
100
AcDbTrace
 10
4393.936940581844
 20
2210.714540247977
 30
0.0
 11
4393.936940581844
 21
2210.047873581309
 31
0.0
 12
4391.936940581844
 22
2210.381206914643
 32
0.0
 13
4391.936940581844
 23
2210.381206914643
 33
0.0
  0
SOLID
  5
1981
330
15C6
100
AcDbEntity
  8
cotas
100
AcDbTrace
 10
4429.072503176075
 20
2210.714540247977
 30
0.0
 11
4429.072503176075
 21
2210.047873581309
 31
0.0
 12
4431.072503176074
 22
2210.381206914643
 32
0.0
 13
4431.072503176074
 23
2210.381206914643
 33
0.0
  0
MTEXT
  5
1982
330
15C6
100
AcDbEntity
  8
cotas
100
AcDbMText
 10
4411.50472187896
 20
2212.422845598323
 30
0.0
 40
2.0
 41
0.0
 71
     5
 72
     1
  1
39
  7
SANINDUSA
 73
     1
 44
1.0
1001
ACAD
1000
MTEXTBEGIN
1070
    73
1070
     1
1070
    44
1040
1.0
1070
    74
1070
     0
1000
MTEXTEND
  0
POINT
  5
1983
330
15C6
100
AcDbEntity
  8
Defpoints
 62
     0
100
AcDbPoint
 10
4391.936940581844
 20
2474.137060206285
 30
0.0
  0
POINT
  5
1984
330
15C6
100
AcDbEntity
  8
Defpoints
 62
     0
100
AcDbPoint
 10
4431.072503176074
 20
2474.137060206285
 30
0.0
  0
POINT
  5
1985
330
15C6
100
AcDbEntity
  8
Defpoints
 62
     0
100
AcDbPoint
 10
4431.072503176074
 20
2210.381206914643
 30
0.0
  0
ENDBLK
  5
15C8
330
15C6
100
AcDbEntity
  8
0
100
AcDbBlockEnd
  0
BLOCK
  5
15D3
330
15D2
100
AcDbEntity
  8
0
100
AcDbBlockBegin
  2
*D72
 70
     1
 10
0.0
 20
0.0
 30
0.0
  3
*D72
  1

  0
LINE
  5
1986
330
15D2
100
AcDbEntity
  8
cotas
100
AcDbLine
 10
3970.096040096398
 20
2473.137060206235
 30
0.0
 11
3970.096040096398
 21
2209.381206914643
 31
0.0
  0
LINE
  5
1987
330
15D2
100
AcDbEntity
  8
cotas
100
AcDbLine
 10
3931.108510719466
 20
2473.137060206286
 30
0.0
 11
3931.108510719466
 21
2209.381206914643
 31
0.0
  0
LINE
  5
1988
330
15D2
100
AcDbEntity
  8
cotas
100
AcDbLine
 10
3968.096040096398
 20
2210.381206914643
 30
0.0
 11
3933.108510719466
 21
2210.381206914643
 31
0.0
  0
SOLID
  5
1989
330
15D2
100
AcDbEntity
  8
cotas
100
AcDbTrace
 10
3968.096040096398
 20
2210.714540247977
 30
0.0
 11
3968.096040096398
 21
2210.047873581309
 31
0.0
 12
3970.096040096398
 22
2210.381206914643
 32
0.0
 13
3970.096040096398
 23
2210.381206914643
 33
0.0
  0
SOLID
  5
198A
330
15D2
100
AcDbEntity
  8
cotas
100
AcDbTrace
 10
3933.108510719466
 20
2210.714540247977
 30
0.0
 11
3933.108510719466
 21
2210.047873581309
 31
0.0
 12
3931.108510719466
 22
2210.381206914643
 32
0.0
 13
3931.108510719466
 23
2210.381206914643
 33
0.0
  0
MTEXT
  5
198B
330
15D2
100
AcDbEntity
  8
cotas
100
AcDbMText
 10
3950.602275407932
 20
2212.422845598323
 30
0.0
 40
2.0
 41
0.0
 71
     5
 72
     1
  1
39
  7
SANINDUSA
 73
     1
 44
1.0
1001
ACAD
1000
MTEXTBEGIN
1070
    73
1070
     1
1070
    44
1040
1.0
1070
    74
1070
     0
1000
MTEXTEND
  0
POINT
  5
198C
330
15D2
100
AcDbEntity
  8
Defpoints
 62
     0
100
AcDbPoint
 10
3970.096040096398
 20
2474.137060206235
 30
0.0
  0
POINT
  5
198D
330
15D2
100
AcDbEntity
  8
Defpoints
 62
     0
100
AcDbPoint
 10
3931.108510719466
 20
2474.137060206285
 30
0.0
  0
POINT
  5
198E
330
15D2
100
AcDbEntity
  8
Defpoints
 62
     0
100
AcDbPoint
 10
3931.108510719466
 20
2210.381206914643
 30
0.0
  0
ENDBLK
  5
15D4
330
15D2
100
AcDbEntity
  8
0
100
AcDbBlockEnd
  0
BLOCK
  5
15DF
330
15DE
100
AcDbEntity
  8
0
100
AcDbBlockBegin
  2
*D73
 70
     1
 10
0.0
 20
0.0
 30
0.0
  3
*D73
  1

  0
LINE
  5
198F
330
15DE
100
AcDbEntity
  8
cotas
100
AcDbLine
 10
4431.074529015397
 20
2473.874753814551
 30
0.0
 11
4431.074529015397
 21
2209.381206914643
 31
0.0
  0
LINE
  5
1990
330
15DE
100
AcDbEntity
  8
cotas
100
AcDbLine
 10
4433.07334827927
 20
2473.137060206286
 30
0.0
 11
4433.07334827927
 21
2209.381206914643
 31
0.0
  0
LINE
  5
1991
330
15DE
100
AcDbEntity
  8
cotas
100
AcDbLine
 10
4429.074529015397
 20
2210.381206914643
 30
0.0
 11
4427.074529015397
 21
2210.381206914643
 31
0.0
  0
LINE
  5
1992
330
15DE
100
AcDbEntity
  8
cotas
100
AcDbLine
 10
4435.07334827927
 20
2210.381206914643
 30
0.0
 11
4440.427277090552
 21
2210.381206914643
 31
0.0
  0
LINE
  5
1993
330
15DE
100
AcDbEntity
  8
cotas
100
AcDbLine
 10
4431.074529015397
 20
2210.381206914643
 30
0.0
 11
4433.07334827927
 21
2210.381206914643
 31
0.0
  0
SOLID
  5
1994
330
15DE
100
AcDbEntity
  8
cotas
100
AcDbTrace
 10
4429.074529015397
 20
2210.714540247977
 30
0.0
 11
4429.074529015397
 21
2210.047873581309
 31
0.0
 12
4431.074529015397
 22
2210.381206914643
 32
0.0
 13
4431.074529015397
 23
2210.381206914643
 33
0.0
  0
SOLID
  5
1995
330
15DE
100
AcDbEntity
  8
cotas
100
AcDbTrace
 10
4435.07334827927
 20
2210.714540247977
 30
0.0
 11
4435.07334827927
 21
2210.047873581309
 31
0.0
 12
4433.07334827927
 22
2210.381206914643
 32
0.0
 13
4433.07334827927
 23
2210.381206914643
 33
0.0
  0
MTEXT
  5
1996
330
15DE
100
AcDbEntity
  8
cotas
100
AcDbMText
 10
4438.750312684912
 20
2212.402026256484
 30
0.0
 40
2.0
 41
0.0
 71
     5
 72
     1
  1
2
  7
SANINDUSA
 73
     1
 44
1.0
1001
ACAD
1000
MTEXTBEGIN
1070
    73
1070
     1
1070
    44
1040
1.0
1070
    74
1070
     0
1000
MTEXTEND
  0
POINT
  5
1997
330
15DE
100
AcDbEntity
  8
Defpoints
 62
     0
100
AcDbPoint
 10
4431.074529015397
 20
2474.874753814551
 30
0.0
  0
POINT
  5
1998
330
15DE
100
AcDbEntity
  8
Defpoints
 62
     0
100
AcDbPoint
 10
4433.07334827927
 20
2474.137060206285
 30
0.0
  0
POINT
  5
1999
330
15DE
100
AcDbEntity
  8
Defpoints
 62
     0
100
AcDbPoint
 10
4433.07334827927
 20
2210.381206914643
 30
0.0
  0
ENDBLK
  5
15E0
330
15DE
100
AcDbEntity
  8
0
100
AcDbBlockEnd
  0
BLOCK
  5
15ED
330
15EC
100
AcDbEntity
  8
0
100
AcDbBlockBegin
  2
*D74
 70
     1
 10
0.0
 20
0.0
 30
0.0
  3
*D74
  1

  0
LINE
  5
199A
330
15EC
100
AcDbEntity
  8
cotas
100
AcDbLine
 10
3931.108510719466
 20
2473.137060206286
 30
0.0
 11
3931.108510719466
 21
2209.381206914643
 31
0.0
  0
LINE
  5
199B
330
15EC
100
AcDbEntity
  8
cotas
100
AcDbLine
 10
3929.10731981631
 20
2473.867485484481
 30
0.0
 11
3929.10731981631
 21
2209.381206914643
 31
0.0
  0
LINE
  5
199C
330
15EC
100
AcDbEntity
  8
cotas
100
AcDbLine
 10
3933.108510719466
 20
2210.381206914643
 30
0.0
 11
3935.108510719466
 21
2210.381206914643
 31
0.0
  0
LINE
  5
199D
330
15EC
100
AcDbEntity
  8
cotas
100
AcDbLine
 10
3927.10731981631
 20
2210.381206914643
 30
0.0
 11
3921.753391005028
 21
2210.381206914643
 31
0.0
  0
LINE
  5
199E
330
15EC
100
AcDbEntity
  8
cotas
100
AcDbLine
 10
3931.108510719466
 20
2210.381206914643
 30
0.0
 11
3929.10731981631
 21
2210.381206914643
 31
0.0
  0
SOLID
  5
199F
330
15EC
100
AcDbEntity
  8
cotas
100
AcDbTrace
 10
3933.108510719466
 20
2210.714540247977
 30
0.0
 11
3933.108510719466
 21
2210.047873581309
 31
0.0
 12
3931.108510719466
 22
2210.381206914643
 32
0.0
 13
3931.108510719466
 23
2210.381206914643
 33
0.0
  0
SOLID
  5
19A0
330
15EC
100
AcDbEntity
  8
cotas
100
AcDbTrace
 10
3927.10731981631
 20
2210.714540247977
 30
0.0
 11
3927.10731981631
 21
2210.047873581309
 31
0.0
 12
3929.10731981631
 22
2210.381206914643
 32
0.0
 13
3929.10731981631
 23
2210.381206914643
 33
0.0
  0
MTEXT
  5
19A1
330
15EC
100
AcDbEntity
  8
cotas
100
AcDbMText
 10
3923.430355410669
 20
2212.402026256484
 30
0.0
 40
2.0
 41
0.0
 71
     5
 72
     1
  1
2
  7
SANINDUSA
 73
     1
 44
1.0
1001
ACAD
1000
MTEXTBEGIN
1070
    73
1070
     1
1070
    44
1040
1.0
1070
    74
1070
     0
1000
MTEXTEND
  0
POINT
  5
19A2
330
15EC
100
AcDbEntity
  8
Defpoints
 62
     0
100
AcDbPoint
 10
3931.108510719466
 20
2474.137060206285
 30
0.0
  0
POINT
  5
19A3
330
15EC
100
AcDbEntity
  8
Defpoints
 62
     0
100
AcDbPoint
 10
3929.10731981631
 20
2474.867485484481
 30
0.0
  0
POINT
  5
19A4
330
15EC
100
AcDbEntity
  8
Defpoints
 62
     0
100
AcDbPoint
 10
3929.10731981631
 20
2210.381206914643
 30
0.0
  0
ENDBLK
  5
15EE
330
15EC
100
AcDbEntity
  8
0
100
AcDbBlockEnd
  0
BLOCK
  5
15FB
330
15FA
100
AcDbEntity
  8
0
100
AcDbBlockBegin
  2
*D75
 70
     1
 10
0.0
 20
0.0
 30
0.0
  3
*D75
  1

  0
LINE
  5
19A5
330
15FA
100
AcDbEntity
  8
cotas
100
AcDbLine
 10
4316.423909872345
 20
2383.576079319109
 30
0.0
 11
4366.863286498544
 21
2330.049844249447
 31
0.0
  0
MTEXT
  5
19A6
330
15FA
100
AcDbEntity
  8
cotas
100
AcDbMText
 10
4320.896202833997
 20
2381.807060141913
 30
0.0
 40
2.0
 41
0.0
 71
     5
 72
     1
  1
R200
  7
SANINDUSA
 11
0.6858097424478587
 21
-0.7277808716664666
 31
0.0
 73
     1
 44
1.0
1001
ACAD
1000
MTEXTBEGIN
1070
    73
1070
     1
1070
    44
1040
1.0
1070
    74
1070
     0
1000
MTEXTEND
  0
SOLID
  5
19A7
330
15FA
100
AcDbEntity
  8
cotas
100
AcDbTrace
 10
4367.105880122432
 20
2330.27844749693
 30
0.0
 11
4366.620692874655
 21
2329.821241001965
 31
0.0
 12
4368.234905983439
 22
2328.594282506115
 32
0.0
 13
4368.234905983439
 23
2328.594282506115
 33
0.0
  0
POINT
  5
19A8
330
15FA
100
AcDbEntity
  8
Defpoints
 62
     0
100
AcDbPoint
 10
4368.234905983439
 20
2328.594282506115
 30
0.0
  0
POINT
  5
19A9
330
15FA
100
AcDbEntity
  8
Defpoints
 62
     0
100
AcDbPoint
 10
4231.073948340218
 20
2474.149405353879
 30
0.0
  0
ENDBLK
  5
15FC
330
15FA
100
AcDbEntity
  8
0
100
AcDbBlockEnd
  0
BLOCK
  5
1603
330
1602
100
AcDbEntity
  8
0
100
AcDbBlockBegin
  2
*D76
 70
     1
 10
0.0
 20
0.0
 30
0.0
  3
*D76
  1

  0
LINE
  5
19AA
330
1602
100
AcDbEntity
  8
cotas
100
AcDbLine
 10
4338.383677019097
 20
2546.570565047741
 30
0.0
 11
4401.47914082767
 21
2581.554017747933
 31
0.0
  0
MTEXT
  5
19AB
330
1602
100
AcDbEntity
  8
cotas
100
AcDbMText
 10
4341.213332086681
 20
2550.450127850155
 30
0.0
 40
2.0
 41
0.0
 71
     5
 72
     1
  1
R222
  7
SANINDUSA
 11
0.8745664173285273
 21
0.484905745151719
 31
0.0
 73
     1
 44
1.0
1001
ACAD
1000
MTEXTBEGIN
1070
    73
1070
     1
1070
    44
1040
1.0
1070
    74
1070
     0
1000
MTEXTEND
  0
SOLID
  5
19AC
330
1602
100
AcDbEntity
  8
cotas
100
AcDbTrace
 10
4401.317505579286
 20
2581.845539887042
 30
0.0
 11
4401.640776076055
 21
2581.262495608823
 31
0.0
 12
4403.228273662327
 22
2582.523829238236
 32
0.0
 13
4403.228273662327
 23
2582.523829238236
 33
0.0
  0
POINT
  5
19AD
330
1602
100
AcDbEntity
  8
Defpoints
 62
     0
100
AcDbPoint
 10
4403.228273662327
 20
2582.523829238236
 30
0.0
  0
POINT
  5
19AE
330
1602
100
AcDbEntity
  8
Defpoints
 62
     0
100
AcDbPoint
 10
4209.074529015388
 20
2474.874753814551
 30
0.0
  0
ENDBLK
  5
1604
330
1602
100
AcDbEntity
  8
0
100
AcDbBlockEnd
  0
BLOCK
  5
160B
330
160A
100
AcDbEntity
  8
0
100
AcDbBlockBegin
  2
*D77
 70
     1
 10
0.0
 20
0.0
 30
0.0
  3
*D77
  1

  0
LINE
  5
1A7E
330
160A
100
AcDbEntity
  8
cotas
100
AcDbLine
 10
6202.752546117092
 20
2682.301248278229
 30
0.0
 11
6207.771310008369
 21
2677.141312817054
 31
0.0
  0
MTEXT
  5
1A7F
330
160A
100
AcDbEntity
  8
cotas
100
AcDbMText
 10
6206.013309511559
 20
2681.847106676635
 30
0.0
 40
2.0
 41
0.0
 71
     5
 72
     1
  1
R5
  7
SANINDUSA
 11
0.6972326398687623
 21
-0.7168449245838579
 31
0.0
 73
     1
 44
1.0
1001
ACAD
1000
MTEXTBEGIN
1070
    73
1070
     1
1070
    44
1040
1.0
1070
    74
1070
     0
1000
MTEXTEND
  0
LINE
  5
1A80
330
160A
100
AcDbEntity
  8
cotas
100
AcDbLine
 10
6212.651938487452
 20
2672.123398344966
 30
0.0
 11
6209.165775288107
 21
2675.707622967886
 31
0.0
  0
SOLID
  5
1A81
330
160A
100
AcDbEntity
  8
cotas
100
AcDbTrace
 10
6208.010258316563
 20
2677.37372369701
 30
0.0
 11
6207.532361700175
 21
2676.908901937098
 31
0.0
 12
6209.165775288107
 22
2675.707622967886
 32
0.0
 13
6209.165775288107
 23
2675.707622967886
 33
0.0
  0
POINT
  5
1A82
330
160A
100
AcDbEntity
  8
Defpoints
 62
     0
100
AcDbPoint
 10
6209.165775288107
 20
2675.707622967886
 30
0.0
  0
POINT
  5
1A83
330
160A
100
AcDbEntity
  8
Defpoints
 62
     0
100
AcDbPoint
 10
6212.651938487452
 20
2672.123398344966
 30
0.0
  0
ENDBLK
  5
160C
330
160A
100
AcDbEntity
  8
0
100
AcDbBlockEnd
  0
BLOCK
  5
1614
330
1613
100
AcDbEntity
  8
0
100
AcDbBlockBegin
  2
*D78
 70
     1
 10
0.0
 20
0.0
 30
0.0
  3
*D78
  1

  0
LINE
  5
1A78
330
1613
100
AcDbEntity
  8
cotas
100
AcDbLine
 10
6243.913951515684
 20
2672.459536717133
 30
0.0
 11
6237.372846005972
 21
2666.335626331685
 31
0.0
  0
MTEXT
  5
1A79
330
1613
100
AcDbEntity
  8
cotas
100
AcDbMText
 10
6239.978516617416
 20
2671.570938008291
 30
0.0
 40
2.0
 41
0.0
 71
     5
 72
     1
  1
R40
  7
SANINDUSA
 11
0.730003455551075
 21
0.6834434540497771
 31
0.0
 73
     1
 44
1.0
1001
ACAD
1000
MTEXTBEGIN
1070
    73
1070
     1
1070
    44
1040
1.0
1070
    74
1070
     0
1000
MTEXTEND
  0
LINE
  5
1A7A
330
1613
100
AcDbEntity
  8
cotas
100
AcDbLine
 10
6206.712700872823
 20
2637.631001261591
 30
0.0
 11
6235.912839094869
 21
2664.968739423585
 31
0.0
  0
SOLID
  5
1A7B
330
1613
100
AcDbEntity
  8
cotas
100
AcDbTrace
 10
6237.145031521288
 20
2666.578960816869
 30
0.0
 11
6237.600660490655
 21
2666.092291846501
 31
0.0
 12
6235.912839094869
 22
2664.968739423585
 32
0.0
 13
6235.912839094869
 23
2664.968739423585
 33
0.0
  0
POINT
  5
1A7C
330
1613
100
AcDbEntity
  8
Defpoints
 62
     0
100
AcDbPoint
 10
6235.912839094869
 20
2664.968739423585
 30
0.0
  0
POINT
  5
1A7D
330
1613
100
AcDbEntity
  8
Defpoints
 62
     0
100
AcDbPoint
 10
6206.712700872823
 20
2637.631001261591
 30
0.0
  0
ENDBLK
  5
1615
330
1613
100
AcDbEntity
  8
0
100
AcDbBlockEnd
  0
BLOCK
  5
161D
330
161C
100
AcDbEntity
  8
0
100
AcDbBlockBegin
  2
*D79
 70
     1
 10
0.0
 20
0.0
 30
0.0
  3
*D79
  1

  0
LINE
  5
161F
330
161C
100
AcDbEntity
  8
cotas
100
AcDbLine
 10
4312.42207885772
 20
2677.631001261592
 30
0.0
 11
4337.422078857719
 21
2677.631001261592
 31
0.0
  0
LINE
  5
1620
330
161C
100
AcDbEntity
  8
cotas
100
AcDbLine
 10
4296.631277283381
 20
2177.631001261591
 30
0.0
 11
4337.422078857719
 21
2177.631001261591
 31
0.0
  0
LINE
  5
1621
330
161C
100
AcDbEntity
  8
cotas
100
AcDbLine
 10
4336.422078857719
 20
2675.631001261591
 30
0.0
 11
4336.422078857719
 21
2179.631001261592
 31
0.0
  0
SOLID
  5
1622
330
161C
100
AcDbEntity
  8
cotas
100
AcDbTrace
 10
4336.088745524386
 20
2675.631001261591
 30
0.0
 11
4336.755412191052
 21
2675.631001261591
 31
0.0
 12
4336.422078857719
 22
2677.631001261592
 32
0.0
 13
4336.422078857719
 23
2677.631001261592
 33
0.0
  0
SOLID
  5
1623
330
161C
100
AcDbEntity
  8
cotas
100
AcDbTrace
 10
4336.088745524386
 20
2179.631001261592
 30
0.0
 11
4336.755412191052
 21
2179.631001261592
 31
0.0
 12
4336.422078857719
 22
2177.631001261591
 32
0.0
 13
4336.422078857719
 23
2177.631001261591
 33
0.0
  0
MTEXT
  5
1624
330
161C
100
AcDbEntity
  8
cotas
100
AcDbMText
 10
4334.38111176571
 20
2427.631001261592
 30
0.0
 40
2.0
 41
0.0
 71
     5
 72
     1
  1
500
  7
SANINDUSA
 11
0.0000000000000001
 21
1.0
 31
0.0
 73
     1
 44
1.0
1001
ACAD
1000
MTEXTBEGIN
1070
    73
1070
     1
1070
    44
1040
1.0
1070
    74
1070
     0
1000
MTEXTEND
  0
POINT
  5
1625
330
161C
100
AcDbEntity
  8
Defpoints
 62
     0
100
AcDbPoint
 10
4311.422078857719
 20
2677.631001261592
 30
0.0
  0
POINT
  5
1626
330
161C
100
AcDbEntity
  8
Defpoints
 62
     0
100
AcDbPoint
 10
4295.631277283382
 20
2177.631001261591
 30
0.0
  0
POINT
  5
1627
330
161C
100
AcDbEntity
  8
Defpoints
 62
     0
100
AcDbPoint
 10
4336.422078857719
 20
2177.631001261591
 30
0.0
  0
ENDBLK
  5
161E
330
161C
100
AcDbEntity
  8
0
100
AcDbBlockEnd
  0
BLOCK
  5
1629
330
1628
100
AcDbEntity
  8
0
100
AcDbBlockBegin
  2
*D80
 70
     1
 10
0.0
 20
0.0
 30
0.0
  3
*D80
  1

  0
LINE
  5
162B
330
1628
100
AcDbEntity
  8
cotas
100
AcDbLine
 10
4311.422078857719
 20
2678.631001261591
 30
0.0
 11
4311.422078857719
 21
2703.631001261591
 31
0.0
  0
LINE
  5
162C
330
1628
100
AcDbEntity
  8
cotas
100
AcDbLine
 10
3931.440505178669
 20
2639.169946468818
 30
0.0
 11
3931.440505178669
 21
2703.631001261591
 31
0.0
  0
LINE
  5
162D
330
1628
100
AcDbEntity
  8
cotas
100
AcDbLine
 10
4309.422078857719
 20
2702.631001261591
 30
0.0
 11
3933.440505178669
 21
2702.631001261591
 31
0.0
  0
SOLID
  5
162E
330
1628
100
AcDbEntity
  8
cotas
100
AcDbTrace
 10
4309.422078857719
 20
2702.964334594925
 30
0.0
 11
4309.422078857719
 21
2702.297667928258
 31
0.0
 12
4311.422078857719
 22
2702.631001261591
 32
0.0
 13
4311.422078857719
 23
2702.631001261591
 33
0.0
  0
SOLID
  5
162F
330
1628
100
AcDbEntity
  8
cotas
100
AcDbTrace
 10
3933.440505178669
 20
2702.964334594925
 30
0.0
 11
3933.440505178669
 21
2702.297667928258
 31
0.0
 12
3931.440505178669
 22
2702.631001261591
 32
0.0
 13
3931.440505178669
 23
2702.631001261591
 33
0.0
  0
MTEXT
  5
1630
330
1628
100
AcDbEntity
  8
cotas
100
AcDbMText
 10
4121.431292018194
 20
2704.676669495305
 30
0.0
 40
2.0
 41
0.0
 71
     5
 72
     1
  1
380
  7
SANINDUSA
 73
     1
 44
1.0
1001
ACAD
1000
MTEXTBEGIN
1070
    73
1070
     1
1070
    44
1040
1.0
1070
    74
1070
     0
1000
MTEXTEND
  0
POINT
  5
1631
330
1628
100
AcDbEntity
  8
Defpoints
 62
     0
100
AcDbPoint
 10
4311.422078857719
 20
2677.631001261592
 30
0.0
  0
POINT
  5
1632
330
1628
100
AcDbEntity
  8
Defpoints
 62
     0
100
AcDbPoint
 10
3931.440505178669
 20
2638.169946468818
 30
0.0
  0
POINT
  5
1633
330
1628
100
AcDbEntity
  8
Defpoints
 62
     0
100
AcDbPoint
 10
3931.440505178669
 20
2702.631001261591
 30
0.0
  0
ENDBLK
  5
162A
330
1628
100
AcDbEntity
  8
0
100
AcDbBlockEnd
  0
BLOCK
  5
1635
330
1634
100
AcDbEntity
  8
0
100
AcDbBlockBegin
  2
*D81
 70
     1
 10
0.0
 20
0.0
 30
0.0
  3
*D81
  1

  0
LINE
  5
1637
330
1634
100
AcDbEntity
  8
cotas
100
AcDbLine
 10
4675.35070859847
 20
2639.169946468818
 30
0.0
 11
4675.35070859847
 21
2703.631001261591
 31
0.0
  0
LINE
  5
1638
330
1634
100
AcDbEntity
  8
cotas
100
AcDbLine
 10
5175.313855956558
 20
2639.169946469686
 30
0.0
 11
5175.313855956558
 21
2703.631001261591
 31
0.0
  0
LINE
  5
1639
330
1634
100
AcDbEntity
  8
cotas
100
AcDbLine
 10
4677.35070859847
 20
2702.631001261591
 30
0.0
 11
5173.313855956558
 21
2702.631001261591
 31
0.0
  0
SOLID
  5
163A
330
1634
100
AcDbEntity
  8
cotas
100
AcDbTrace
 10
4677.35070859847
 20
2702.964334594925
 30
0.0
 11
4677.35070859847
 21
2702.297667928258
 31
0.0
 12
4675.35070859847
 22
2702.631001261591
 32
0.0
 13
4675.35070859847
 23
2702.631001261591
 33
0.0
  0
SOLID
  5
163B
330
1634
100
AcDbEntity
  8
cotas
100
AcDbTrace
 10
5173.313855956558
 20
2702.964334594925
 30
0.0
 11
5173.313855956558
 21
2702.297667928258
 31
0.0
 12
5175.313855956558
 22
2702.631001261591
 32
0.0
 13
5175.313855956558
 23
2702.631001261591
 33
0.0
  0
MTEXT
  5
163C
330
1634
100
AcDbEntity
  8
cotas
100
AcDbMText
 10
4925.332282277514
 20
2704.671968353599
 30
0.0
 40
2.0
 41
0.0
 71
     5
 72
     1
  1
500
  7
SANINDUSA
 73
     1
 44
1.0
1001
ACAD
1000
MTEXTBEGIN
1070
    73
1070
     1
1070
    44
1040
1.0
1070
    74
1070
     0
1000
MTEXTEND
  0
POINT
  5
163D
330
1634
100
AcDbEntity
  8
Defpoints
 62
     0
100
AcDbPoint
 10
4675.35070859847
 20
2638.169946468818
 30
0.0
  0
POINT
  5
163E
330
1634
100
AcDbEntity
  8
Defpoints
 62
     0
100
AcDbPoint
 10
5175.313855956558
 20
2638.169946469686
 30
0.0
  0
POINT
  5
163F
330
1634
100
AcDbEntity
  8
Defpoints
 62
     0
100
AcDbPoint
 10
5175.313855956558
 20
2702.631001261591
 30
0.0
  0
ENDBLK
  5
1636
330
1634
100
AcDbEntity
  8
0
100
AcDbBlockEnd
  0
BLOCK
  5
1641
330
1640
100
AcDbEntity
  8
0
100
AcDbBlockBegin
  2
*D82
 70
     1
 10
0.0
 20
0.0
 30
0.0
  3
*D82
  1

  0
LINE
  5
1643
330
1640
100
AcDbEntity
  8
cotas
100
AcDbLine
 10
5151.516171049154
 20
2177.631001261591
 30
0.0
 11
5203.313855956574
 21
2177.631001261591
 31
0.0
  0
LINE
  5
1644
330
1640
100
AcDbEntity
  8
cotas
100
AcDbLine
 10
5136.317486895578
 20
2677.631001261592
 30
0.0
 11
5203.313855956574
 21
2677.631001261592
 31
0.0
  0
LINE
  5
1645
330
1640
100
AcDbEntity
  8
cotas
100
AcDbLine
 10
5202.313855956575
 20
2179.631001261592
 30
0.0
 11
5202.313855956575
 21
2675.631001261591
 31
0.0
  0
SOLID
  5
1646
330
1640
100
AcDbEntity
  8
cotas
100
AcDbTrace
 10
5201.980522623241
 20
2179.631001261592
 30
0.0
 11
5202.647189289907
 21
2179.631001261592
 31
0.0
 12
5202.313855956575
 22
2177.631001261591
 32
0.0
 13
5202.313855956575
 23
2177.631001261591
 33
0.0
  0
SOLID
  5
1647
330
1640
100
AcDbEntity
  8
cotas
100
AcDbTrace
 10
5201.980522623241
 20
2675.631001261591
 30
0.0
 11
5202.647189289907
 21
2675.631001261591
 31
0.0
 12
5202.313855956575
 22
2677.631001261592
 32
0.0
 13
5202.313855956575
 23
2677.631001261592
 33
0.0
  0
MTEXT
  5
1648
330
1640
100
AcDbEntity
  8
cotas
100
AcDbMText
 10
5200.272888864565
 20
2427.631001261592
 30
0.0
 40
2.0
 41
0.0
 71
     5
 72
     1
  1
500
  7
SANINDUSA
 11
0.0000000000000001
 21
1.0
 31
0.0
 73
     1
 44
1.0
1001
ACAD
1000
MTEXTBEGIN
1070
    73
1070
     1
1070
    44
1040
1.0
1070
    74
1070
     0
1000
MTEXTEND
  0
POINT
  5
1649
330
1640
100
AcDbEntity
  8
Defpoints
 62
     0
100
AcDbPoint
 10
5150.516171049154
 20
2177.631001261591
 30
0.0
  0
POINT
  5
164A
330
1640
100
AcDbEntity
  8
Defpoints
 62
     0
100
AcDbPoint
 10
5135.317486895577
 20
2677.631001261592
 30
0.0
  0
POINT
  5
164B
330
1640
100
AcDbEntity
  8
Defpoints
 62
     0
100
AcDbPoint
 10
5202.313855956575
 20
2677.631001261592
 30
0.0
  0
ENDBLK
  5
1642
330
1640
100
AcDbEntity
  8
0
100
AcDbBlockEnd
  0
BLOCK
  5
164D
330
164C
100
AcDbEntity
  8
0
100
AcDbBlockBegin
  2
*D83
 70
     1
 10
0.0
 20
0.0
 30
0.0
  3
*D83
  1

  0
LINE
  5
17C0
330
164C
100
AcDbEntity
  8
cotas
100
AcDbLine
 10
4715.966730180347
 20
2637.004568672525
 30
0.0
 11
4688.623618104637
 21
2664.646861592532
 31
0.0
  0
MTEXT
  5
17C1
330
164C
100
AcDbEntity
  8
cotas
100
AcDbMText
 10
4714.970304322875
 20
2640.914094348926
 30
0.0
 40
2.0
 41
0.0
 71
     5
 72
     1
  1
R40
  7
SANINDUSA
 11
0.7032489356535738
 21
-0.7109436929195699
 31
0.0
 73
     1
 44
1.0
1001
ACAD
1000
MTEXTBEGIN
1070
    73
1070
     1
1070
    44
1040
1.0
1070
    74
1070
     0
1000
MTEXTEND
  0
SOLID
  5
17C2
330
164C
100
AcDbEntity
  8
cotas
100
AcDbTrace
 10
4688.860599335609
 20
2664.881277904416
 30
0.0
 11
4688.386636873663
 21
2664.412445280647
 31
0.0
 12
4687.217120233329
 22
2666.068748978371
 32
0.0
 13
4687.217120233329
 23
2666.068748978371
 33
0.0
  0
POINT
  5
17C3
330
164C
100
AcDbEntity
  8
Defpoints
 62
     0
100
AcDbPoint
 10
4687.217120233329
 20
2666.068748978371
 30
0.0
  0
POINT
  5
17C4
330
164C
100
AcDbEntity
  8
Defpoints
 62
     0
100
AcDbPoint
 10
4715.347077659468
 20
2637.631001261592
 30
0.0
  0
ENDBLK
  5
164E
330
164C
100
AcDbEntity
  8
0
100
AcDbBlockEnd
  0
BLOCK
  5
1655
330
1654
100
AcDbEntity
  8
0
100
AcDbBlockBegin
  2
*D84
 70
     1
 10
0.0
 20
0.0
 30
0.0
  3
*D84
  1

  0
LINE
  5
17BB
330
1654
100
AcDbEntity
  8
cotas
100
AcDbLine
 10
5134.817692376009
 20
2636.905334345257
 30
0.0
 11
5156.871887433943
 21
2668.926493228197
 31
0.0
  0
MTEXT
  5
17BC
330
1654
100
AcDbEntity
  8
cotas
100
AcDbMText
 10
5135.110858108987
 20
2640.929176956105
 30
0.0
 40
2.0
 41
0.0
 71
     5
 72
     1
  1
R40
  7
SANINDUSA
 11
0.5672210667990446
 21
0.8235655780685311
 31
0.0
 73
     1
 44
1.0
1001
ACAD
1000
MTEXTBEGIN
1070
    73
1070
     1
1070
    44
1040
1.0
1070
    74
1070
     0
1000
MTEXTEND
  0
SOLID
  5
17BD
330
1654
100
AcDbEntity
  8
cotas
100
AcDbTrace
 10
5156.597365574587
 20
2669.115566917131
 30
0.0
 11
5157.146409293298
 21
2668.737419539264
 31
0.0
 12
5158.006329567541
 22
2670.573624384334
 32
0.0
 13
5158.006329567541
 23
2670.573624384334
 33
0.0
  0
POINT
  5
17BE
330
1654
100
AcDbEntity
  8
Defpoints
 62
     0
100
AcDbPoint
 10
5158.006329567541
 20
2670.573624384334
 30
0.0
  0
POINT
  5
17BF
330
1654
100
AcDbEntity
  8
Defpoints
 62
     0
100
AcDbPoint
 10
5135.317486895577
 20
2637.631001261592
 30
0.0
  0
ENDBLK
  5
1656
330
1654
100
AcDbEntity
  8
0
100
AcDbBlockEnd
  0
BLOCK
  5
165D
330
165C
100
AcDbEntity
  8
0
100
AcDbBlockBegin
  2
*D85
 70
     1
 10
0.0
 20
0.0
 30
0.0
  3
*D85
  1

  0
LINE
  5
17B6
330
165C
100
AcDbEntity
  8
cotas
100
AcDbLine
 10
5127.394726649007
 20
2225.108195604913
 30
0.0
 11
5162.953409444621
 21
2191.549287651035
 31
0.0
  0
MTEXT
  5
17B7
330
165C
100
AcDbEntity
  8
cotas
100
AcDbMText
 10
5131.326572082389
 20
2224.203846672331
 30
0.0
 40
2.0
 41
0.0
 71
     5
 72
     1
  1
R40
  7
SANINDUSA
 11
0.7272611197117001
 21
-0.6863608844883896
 31
0.0
 73
     1
 44
1.0
1001
ACAD
1000
MTEXTBEGIN
1070
    73
1070
     1
1070
    44
1040
1.0
1070
    74
1070
     0
1000
MTEXTEND
  0
SOLID
  5
17B8
330
165C
100
AcDbEntity
  8
cotas
100
AcDbTrace
 10
5163.182196406117
 20
2191.791708024272
 30
0.0
 11
5162.724622483125
 21
2191.306867277798
 31
0.0
 12
5164.407931684045
 22
2190.176565882058
 32
0.0
 13
5164.407931684045
 23
2190.176565882058
 33
0.0
  0
POINT
  5
17B9
330
165C
100
AcDbEntity
  8
Defpoints
 62
     0
100
AcDbPoint
 10
5164.407931684045
 20
2190.176565882058
 30
0.0
  0
POINT
  5
17BA
330
165C
100
AcDbEntity
  8
Defpoints
 62
     0
100
AcDbPoint
 10
5135.317486895577
 20
2217.631001261592
 30
0.0
  0
ENDBLK
  5
165E
330
165C
100
AcDbEntity
  8
0
100
AcDbBlockEnd
  0
BLOCK
  5
1665
330
1664
100
AcDbEntity
  8
0
100
AcDbBlockBegin
  2
*D86
 70
     1
 10
0.0
 20
0.0
 30
0.0
  3
*D86
  1

  0
LINE
  5
17B1
330
1664
100
AcDbEntity
  8
cotas
100
AcDbLine
 10
4724.727005345608
 20
2226.570780367929
 30
0.0
 11
4687.839379209434
 21
2191.414088285765
 31
0.0
  0
MTEXT
  5
17B2
330
1664
100
AcDbEntity
  8
cotas
100
AcDbMText
 10
4720.799641662782
 20
2225.647162477945
 30
0.0
 40
2.0
 41
0.0
 71
     5
 72
     1
  1
R40
  7
SANINDUSA
 11
0.7238868013166676
 21
0.689918762521736
 31
0.0
 73
     1
 44
1.0
1001
ACAD
1000
MTEXTBEGIN
1070
    73
1070
     1
1070
    44
1040
1.0
1070
    74
1070
     0
1000
MTEXTEND
  0
SOLID
  5
17B3
330
1664
100
AcDbEntity
  8
cotas
100
AcDbTrace
 10
4687.609406288594
 20
2191.655383886203
 30
0.0
 11
4688.069352130274
 21
2191.172792685326
 31
0.0
 12
4686.391605606801
 22
2190.034250760721
 32
0.0
 13
4686.391605606801
 23
2190.034250760721
 33
0.0
  0
POINT
  5
17B4
330
1664
100
AcDbEntity
  8
Defpoints
 62
     0
100
AcDbPoint
 10
4686.391605606801
 20
2190.034250760721
 30
0.0
  0
POINT
  5
17B5
330
1664
100
AcDbEntity
  8
Defpoints
 62
     0
100
AcDbPoint
 10
4715.347077659468
 20
2217.631001261592
 30
0.0
  0
ENDBLK
  5
1666
330
1664
100
AcDbEntity
  8
0
100
AcDbBlockEnd
  0
BLOCK
  5
1745
330
1744
100
AcDbEntity
  8
0
100
AcDbBlockBegin
  2
*D87
 70
     1
 10
0.0
 20
0.0
 30
0.0
  3
*D87
  1

  0
LINE
  5
1747
330
1744
100
AcDbEntity
  8
cotas
100
AcDbLine
 10
4699.148393505892
 20
2177.631001261591
 30
0.0
 11
4649.350708598479
 21
2177.631001261591
 31
0.0
  0
LINE
  5
1748
330
1744
100
AcDbEntity
  8
cotas
100
AcDbLine
 10
4699.148393505896
 20
2180.631001261591
 30
0.0
 11
4649.350708598479
 21
2180.631001261591
 31
0.0
  0
LINE
  5
1749
330
1744
100
AcDbEntity
  8
cotas
100
AcDbLine
 10
4650.350708598479
 20
2175.631001261591
 30
0.0
 11
4650.350708598479
 21
2173.631001261592
 31
0.0
  0
LINE
  5
174A
330
1744
100
AcDbEntity
  8
cotas
100
AcDbLine
 10
4650.350708598479
 20
2182.631001261591
 30
0.0
 11
4650.350708598479
 21
2187.948664122572
 31
0.0
  0
LINE
  5
174B
330
1744
100
AcDbEntity
  8
cotas
100
AcDbLine
 10
4650.350708598479
 20
2177.631001261591
 30
0.0
 11
4650.350708598479
 21
2180.631001261591
 31
0.0
  0
SOLID
  5
174C
330
1744
100
AcDbEntity
  8
cotas
100
AcDbTrace
 10
4650.017375265146
 20
2175.631001261591
 30
0.0
 11
4650.684041931812
 21
2175.631001261591
 31
0.0
 12
4650.350708598479
 22
2177.631001261591
 32
0.0
 13
4650.350708598479
 23
2177.631001261591
 33
0.0
  0
SOLID
  5
174D
330
1744
100
AcDbEntity
  8
cotas
100
AcDbTrace
 10
4650.017375265146
 20
2182.631001261591
 30
0.0
 11
4650.684041931812
 21
2182.631001261591
 31
0.0
 12
4650.350708598479
 22
2180.631001261591
 32
0.0
 13
4650.350708598479
 23
2180.631001261591
 33
0.0
  0
MTEXT
  5
174E
330
1744
100
AcDbEntity
  8
cotas
100
AcDbMText
 10
4648.309069914797
 20
2186.289832692082
 30
0.0
 40
2.0
 41
0.0
 71
     5
 72
     1
  1
3
  7
SANINDUSA
 11
0.0000000000000001
 21
1.0
 31
0.0
 73
     1
 44
1.0
1001
ACAD
1000
MTEXTBEGIN
1070
    73
1070
     1
1070
    44
1040
1.0
1070
    74
1070
     0
1000
MTEXTEND
  0
POINT
  5
174F
330
1744
100
AcDbEntity
  8
Defpoints
 62
     0
100
AcDbPoint
 10
4700.148393505892
 20
2177.631001261591
 30
0.0
  0
POINT
  5
1750
330
1744
100
AcDbEntity
  8
Defpoints
 62
     0
100
AcDbPoint
 10
4700.148393505897
 20
2180.631001261591
 30
0.0
  0
POINT
  5
1751
330
1744
100
AcDbEntity
  8
Defpoints
 62
     0
100
AcDbPoint
 10
4650.350708598479
 20
2180.631001261591
 30
0.0
  0
ENDBLK
  5
1746
330
1744
100
AcDbEntity
  8
0
100
AcDbBlockEnd
  0
BLOCK
  5
1753
330
1752
100
AcDbEntity
  8
0
100
AcDbBlockBegin
  2
*D88
 70
     1
 10
0.0
 20
0.0
 30
0.0
  3
*D88
  1

  0
LINE
  5
1755
330
1752
100
AcDbEntity
  8
cotas
100
AcDbLine
 10
3955.238190086092
 20
2177.631001261591
 30
0.0
 11
3905.44050517867
 21
2177.631001261591
 31
0.0
  0
LINE
  5
1756
330
1752
100
AcDbEntity
  8
cotas
100
AcDbLine
 10
3955.238190086097
 20
2180.631001261591
 30
0.0
 11
3905.44050517867
 21
2180.631001261591
 31
0.0
  0
LINE
  5
1757
330
1752
100
AcDbEntity
  8
cotas
100
AcDbLine
 10
3906.44050517867
 20
2175.631001261591
 30
0.0
 11
3906.44050517867
 21
2173.631001261592
 31
0.0
  0
LINE
  5
1758
330
1752
100
AcDbEntity
  8
cotas
100
AcDbLine
 10
3906.44050517867
 20
2182.631001261591
 30
0.0
 11
3906.44050517867
 21
2187.948664122572
 31
0.0
  0
LINE
  5
1759
330
1752
100
AcDbEntity
  8
cotas
100
AcDbLine
 10
3906.44050517867
 20
2177.631001261591
 30
0.0
 11
3906.44050517867
 21
2180.631001261591
 31
0.0
  0
SOLID
  5
175A
330
1752
100
AcDbEntity
  8
cotas
100
AcDbTrace
 10
3906.107171845336
 20
2175.631001261591
 30
0.0
 11
3906.773838512003
 21
2175.631001261591
 31
0.0
 12
3906.44050517867
 22
2177.631001261591
 32
0.0
 13
3906.44050517867
 23
2177.631001261591
 33
0.0
  0
SOLID
  5
175B
330
1752
100
AcDbEntity
  8
cotas
100
AcDbTrace
 10
3906.107171845336
 20
2182.631001261591
 30
0.0
 11
3906.773838512003
 21
2182.631001261591
 31
0.0
 12
3906.44050517867
 22
2180.631001261591
 32
0.0
 13
3906.44050517867
 23
2180.631001261591
 33
0.0
  0
MTEXT
  5
175C
330
1752
100
AcDbEntity
  8
cotas
100
AcDbMText
 10
3904.398866494989
 20
2186.289832692082
 30
0.0
 40
2.0
 41
0.0
 71
     5
 72
     1
  1
3
  7
SANINDUSA
 11
0.0000000000000001
 21
1.0
 31
0.0
 73
     1
 44
1.0
1001
ACAD
1000
MTEXTBEGIN
1070
    73
1070
     1
1070
    44
1040
1.0
1070
    74
1070
     0
1000
MTEXTEND
  0
POINT
  5
175D
330
1752
100
AcDbEntity
  8
Defpoints
 62
     0
100
AcDbPoint
 10
3956.238190086092
 20
2177.631001261591
 30
0.0
  0
POINT
  5
175E
330
1752
100
AcDbEntity
  8
Defpoints
 62
     0
100
AcDbPoint
 10
3956.238190086098
 20
2180.631001261591
 30
0.0
  0
POINT
  5
175F
330
1752
100
AcDbEntity
  8
Defpoints
 62
     0
100
AcDbPoint
 10
3906.44050517867
 20
2180.631001261591
 30
0.0
  0
ENDBLK
  5
1754
330
1752
100
AcDbEntity
  8
0
100
AcDbBlockEnd
  0
BLOCK
  5
1761
330
1760
100
AcDbEntity
  8
0
100
AcDbBlockBegin
  2
*D89
 70
     1
 10
0.0
 20
0.0
 30
0.0
  3
*D89
  1

  0
LINE
  5
17C5
330
1760
100
AcDbEntity
  8
cotas
100
AcDbLine
 10
3982.970461443973
 20
2227.754666662903
 30
0.0
 11
3942.877988208326
 21
2192.563292378478
 31
0.0
  0
MTEXT
  5
17C6
330
1760
100
AcDbEntity
  8
cotas
100
AcDbMText
 10
3979.008549268542
 20
2226.992756288879
 30
0.0
 40
2.0
 41
0.0
 71
     5
 72
     1
  1
R40
  7
SANINDUSA
 11
0.7515496324038084
 21
0.6596765495556899
 31
0.0
 73
     1
 44
1.0
1001
ACAD
1000
MTEXTBEGIN
1070
    73
1070
     1
1070
    44
1040
1.0
1070
    74
1070
     0
1000
MTEXTEND
  0
SOLID
  5
17C7
330
1760
100
AcDbEntity
  8
cotas
100
AcDbTrace
 10
3942.658096025141
 20
2192.813808922613
 30
0.0
 11
3943.097880391512
 21
2192.312775834343
 31
0.0
 12
3941.374888943519
 22
2191.243939279366
 32
0.0
 13
3941.374888943519
 23
2191.243939279366
 33
0.0
  0
POINT
  5
17C8
330
1760
100
AcDbEntity
  8
Defpoints
 62
     0
100
AcDbPoint
 10
3941.374888943519
 20
2191.243939279366
 30
0.0
  0
POINT
  5
17C9
330
1760
100
AcDbEntity
  8
Defpoints
 62
     0
100
AcDbPoint
 10
3971.436874239669
 20
2217.631001261592
 30
0.0
  0
ENDBLK
  5
1762
330
1760
100
AcDbEntity
  8
0
100
AcDbBlockEnd
  0
BLOCK
  5
1769
330
1768
100
AcDbEntity
  8
0
100
AcDbBlockBegin
  2
*D90
 70
     1
 10
0.0
 20
0.0
 30
0.0
  3
*D90
  1

  0
LINE
  5
17CA
330
1768
100
AcDbEntity
  8
cotas
100
AcDbLine
 10
4273.889018810232
 20
2243.233873401771
 30
0.0
 11
4303.713007323024
 21
2185.640420193548
 31
0.0
  0
MTEXT
  5
17CB
330
1768
100
AcDbEntity
  8
cotas
100
AcDbMText
 10
4277.301730295796
 20
2241.081977535293
 30
0.0
 40
2.0
 41
0.0
 71
     5
 72
     1
  1
R40
  7
SANINDUSA
 11
0.4598397478423123
 21
-0.888001917962072
 31
0.0
 73
     1
 44
1.0
1001
ACAD
1000
MTEXTBEGIN
1070
    73
1070
     1
1070
    44
1040
1.0
1070
    74
1070
     0
1000
MTEXTEND
  0
SOLID
  5
17CC
330
1768
100
AcDbEntity
  8
cotas
100
AcDbTrace
 10
4304.009007962344
 20
2185.793700109495
 30
0.0
 11
4303.417006683703
 21
2185.4871402776
 31
0.0
 12
4304.632686818708
 22
2183.864416357623
 32
0.0
 13
4304.632686818708
 23
2183.864416357623
 33
0.0
  0
POINT
  5
17CD
330
1768
100
AcDbEntity
  8
Defpoints
 62
     0
100
AcDbPoint
 10
4304.632686818708
 20
2183.864416357623
 30
0.0
  0
POINT
  5
17CE
330
1768
100
AcDbEntity
  8
Defpoints
 62
     0
100
AcDbPoint
 10
4286.239096905016
 20
2219.384493076105
 30
0.0
  0
ENDBLK
  5
176A
330
1768
100
AcDbEntity
  8
0
100
AcDbBlockEnd
  0
BLOCK
  5
1771
330
1770
100
AcDbEntity
  8
0
100
AcDbBlockBegin
  2
*D91
 70
     1
 10
0.0
 20
0.0
 30
0.0
  3
*D91
  1

  0
LINE
  5
1773
330
1770
100
AcDbEntity
  8
cotas
100
AcDbLine
 10
3931.440505178669
 20
2639.169946468818
 30
0.0
 11
3931.440505178669
 21
2703.631001261591
 31
0.0
  0
LINE
  5
1774
330
1770
100
AcDbEntity
  8
cotas
100
AcDbLine
 10
3929.44050517867
 20
2428.631001261636
 30
0.0
 11
3929.44050517867
 21
2703.631001261591
 31
0.0
  0
LINE
  5
1775
330
1770
100
AcDbEntity
  8
cotas
100
AcDbLine
 10
3933.440505178669
 20
2702.631001261591
 30
0.0
 11
3935.440505178669
 21
2702.631001261591
 31
0.0
  0
LINE
  5
1776
330
1770
100
AcDbEntity
  8
cotas
100
AcDbLine
 10
3927.44050517867
 20
2702.631001261591
 30
0.0
 11
3922.086576367387
 21
2702.631001261591
 31
0.0
  0
LINE
  5
1777
330
1770
100
AcDbEntity
  8
cotas
100
AcDbLine
 10
3931.440505178669
 20
2702.631001261591
 30
0.0
 11
3929.44050517867
 21
2702.631001261591
 31
0.0
  0
SOLID
  5
1778
330
1770
100
AcDbEntity
  8
cotas
100
AcDbTrace
 10
3933.440505178669
 20
2702.964334594925
 30
0.0
 11
3933.440505178669
 21
2702.297667928258
 31
0.0
 12
3931.440505178669
 22
2702.631001261591
 32
0.0
 13
3931.440505178669
 23
2702.631001261591
 33
0.0
  0
SOLID
  5
1779
330
1770
100
AcDbEntity
  8
cotas
100
AcDbTrace
 10
3927.44050517867
 20
2702.964334594925
 30
0.0
 11
3927.44050517867
 21
2702.297667928258
 31
0.0
 12
3929.44050517867
 22
2702.631001261591
 32
0.0
 13
3929.44050517867
 23
2702.631001261591
 33
0.0
  0
MTEXT
  5
177A
330
1770
100
AcDbEntity
  8
cotas
100
AcDbMText
 10
3923.763540773029
 20
2704.651820603432
 30
0.0
 40
2.0
 41
0.0
 71
     5
 72
     1
  1
2
  7
SANINDUSA
 73
     1
 44
1.0
1001
ACAD
1000
MTEXTBEGIN
1070
    73
1070
     1
1070
    44
1040
1.0
1070
    74
1070
     0
1000
MTEXTEND
  0
POINT
  5
177B
330
1770
100
AcDbEntity
  8
Defpoints
 62
     0
100
AcDbPoint
 10
3931.440505178669
 20
2638.169946468818
 30
0.0
  0
POINT
  5
177C
330
1770
100
AcDbEntity
  8
Defpoints
 62
     0
100
AcDbPoint
 10
3929.44050517867
 20
2427.631001261636
 30
0.0
  0
POINT
  5
177D
330
1770
100
AcDbEntity
  8
Defpoints
 62
     0
100
AcDbPoint
 10
3929.44050517867
 20
2702.631001261591
 30
0.0
  0
ENDBLK
  5
1772
330
1770
100
AcDbEntity
  8
0
100
AcDbBlockEnd
  0
BLOCK
  5
177F
330
177E
100
AcDbEntity
  8
0
100
AcDbBlockBegin
  2
*D92
 70
     1
 10
0.0
 20
0.0
 30
0.0
  3
*D92
  1

  0
LINE
  5
1781
330
177E
100
AcDbEntity
  8
cotas
100
AcDbLine
 10
4675.350708598463
 20
2639.169946468829
 30
0.0
 11
4675.350708598463
 21
2703.631001261591
 31
0.0
  0
LINE
  5
1782
330
177E
100
AcDbEntity
  8
cotas
100
AcDbLine
 10
4673.350708598462
 20
2428.631001261593
 30
0.0
 11
4673.350708598462
 21
2703.631001261591
 31
0.0
  0
LINE
  5
1783
330
177E
100
AcDbEntity
  8
cotas
100
AcDbLine
 10
4677.350708598463
 20
2702.631001261591
 30
0.0
 11
4679.350708598462
 21
2702.631001261591
 31
0.0
  0
LINE
  5
1784
330
177E
100
AcDbEntity
  8
cotas
100
AcDbLine
 10
4671.350708598462
 20
2702.631001261591
 30
0.0
 11
4665.996779787181
 21
2702.631001261591
 31
0.0
  0
LINE
  5
1785
330
177E
100
AcDbEntity
  8
cotas
100
AcDbLine
 10
4675.350708598463
 20
2702.631001261591
 30
0.0
 11
4673.350708598462
 21
2702.631001261591
 31
0.0
  0
SOLID
  5
1786
330
177E
100
AcDbEntity
  8
cotas
100
AcDbTrace
 10
4677.350708598463
 20
2702.964334594925
 30
0.0
 11
4677.350708598463
 21
2702.297667928258
 31
0.0
 12
4675.350708598463
 22
2702.631001261591
 32
0.0
 13
4675.350708598463
 23
2702.631001261591
 33
0.0
  0
SOLID
  5
1787
330
177E
100
AcDbEntity
  8
cotas
100
AcDbTrace
 10
4671.350708598462
 20
2702.964334594925
 30
0.0
 11
4671.350708598462
 21
2702.297667928258
 31
0.0
 12
4673.350708598462
 22
2702.631001261591
 32
0.0
 13
4673.350708598462
 23
2702.631001261591
 33
0.0
  0
MTEXT
  5
1788
330
177E
100
AcDbEntity
  8
cotas
100
AcDbMText
 10
4667.673744192821
 20
2704.651820603432
 30
0.0
 40
2.0
 41
0.0
 71
     5
 72
     1
  1
2
  7
SANINDUSA
 73
     1
 44
1.0
1001
ACAD
1000
MTEXTBEGIN
1070
    73
1070
     1
1070
    44
1040
1.0
1070
    74
1070
     0
1000
MTEXTEND
  0
POINT
  5
1789
330
177E
100
AcDbEntity
  8
Defpoints
 62
     0
100
AcDbPoint
 10
4675.350708598463
 20
2638.169946468829
 30
0.0
  0
POINT
  5
178A
330
177E
100
AcDbEntity
  8
Defpoints
 62
     0
100
AcDbPoint
 10
4673.350708598462
 20
2427.631001261593
 30
0.0
  0
POINT
  5
178B
330
177E
100
AcDbEntity
  8
Defpoints
 62
     0
100
AcDbPoint
 10
4673.350708598462
 20
2702.631001261591
 30
0.0
  0
ENDBLK
  5
1780
330
177E
100
AcDbEntity
  8
0
100
AcDbBlockEnd
  0
BLOCK
  5
178D
330
178C
100
AcDbEntity
  8
0
100
AcDbBlockBegin
  2
*D93
 70
     1
 10
0.0
 20
0.0
 30
0.0
  3
*D93
  1

  0
LINE
  5
17A6
330
178C
100
AcDbEntity
  8
cotas
100
AcDbLine
 10
5175.313855956558
 20
2639.169946469686
 30
0.0
 11
5175.313855956558
 21
2703.631001261584
 31
0.0
  0
LINE
  5
17A7
330
178C
100
AcDbEntity
  8
cotas
100
AcDbLine
 10
5177.313855956574
 20
2428.631001261584
 30
0.0
 11
5177.313855956574
 21
2703.631001261584
 31
0.0
  0
LINE
  5
17A8
330
178C
100
AcDbEntity
  8
cotas
100
AcDbLine
 10
5173.313855956558
 20
2702.631001261584
 30
0.0
 11
5171.313855956558
 21
2702.631001261584
 31
0.0
  0
LINE
  5
17A9
330
178C
100
AcDbEntity
  8
cotas
100
AcDbLine
 10
5179.313855956574
 20
2702.631001261584
 30
0.0
 11
5184.667784767857
 21
2702.631001261584
 31
0.0
  0
LINE
  5
17AA
330
178C
100
AcDbEntity
  8
cotas
100
AcDbLine
 10
5175.313855956558
 20
2702.631001261584
 30
0.0
 11
5177.313855956574
 21
2702.631001261584
 31
0.0
  0
SOLID
  5
17AB
330
178C
100
AcDbEntity
  8
cotas
100
AcDbTrace
 10
5173.313855956558
 20
2702.964334594917
 30
0.0
 11
5173.313855956558
 21
2702.29766792825
 31
0.0
 12
5175.313855956558
 22
2702.631001261584
 32
0.0
 13
5175.313855956558
 23
2702.631001261584
 33
0.0
  0
SOLID
  5
17AC
330
178C
100
AcDbEntity
  8
cotas
100
AcDbTrace
 10
5179.313855956574
 20
2702.964334594917
 30
0.0
 11
5179.313855956574
 21
2702.29766792825
 31
0.0
 12
5177.313855956574
 22
2702.631001261584
 32
0.0
 13
5177.313855956574
 23
2702.631001261584
 33
0.0
  0
MTEXT
  5
17AD
330
178C
100
AcDbEntity
  8
cotas
100
AcDbMText
 10
5182.990820362215
 20
2704.651820603424
 30
0.0
 40
2.0
 41
0.0
 71
     5
 72
     1
  1
2
  7
SANINDUSA
 73
     1
 44
1.0
1001
ACAD
1000
MTEXTBEGIN
1070
    73
1070
     1
1070
    44
1040
1.0
1070
    74
1070
     0
1000
MTEXTEND
  0
POINT
  5
17AE
330
178C
100
AcDbEntity
  8
Defpoints
 62
     0
100
AcDbPoint
 10
5175.313855956558
 20
2638.169946469686
 30
0.0
  0
POINT
  5
17AF
330
178C
100
AcDbEntity
  8
Defpoints
 62
     0
100
AcDbPoint
 10
5177.313855956574
 20
2427.631001261584
 30
0.0
  0
POINT
  5
17B0
330
178C
100
AcDbEntity
  8
Defpoints
 62
     0
100
AcDbPoint
 10
5177.313855956574
 20
2702.631001261584
 30
0.0
  0
ENDBLK
  5
178E
330
178C
100
AcDbEntity
  8
0
100
AcDbBlockEnd
  0
BLOCK
  5
17FD
330
17FC
100
AcDbEntity
  8
0
100
AcDbBlockBegin
  2
*D94
 70
     1
 10
0.0
 20
0.0
 30
0.0
  3
*D94
  1

  0
LINE
  5
18E7
330
17FC
100
AcDbEntity
  8
cotas
100
AcDbLine
 10
5373.845185557923
 20
2677.631001261592
 30
0.0
 11
5348.845185557923
 21
2677.631001261592
 31
0.0
  0
LINE
  5
18E8
330
17FC
100
AcDbEntity
  8
cotas
100
AcDbLine
 10
5389.635987132261
 20
2177.631001261591
 30
0.0
 11
5348.845185557923
 21
2177.631001261591
 31
0.0
  0
LINE
  5
18E9
330
17FC
100
AcDbEntity
  8
cotas
100
AcDbLine
 10
5349.845185557923
 20
2675.631001261591
 30
0.0
 11
5349.845185557923
 21
2179.631001261592
 31
0.0
  0
SOLID
  5
18EA
330
17FC
100
AcDbEntity
  8
cotas
100
AcDbTrace
 10
5349.511852224591
 20
2675.631001261591
 30
0.0
 11
5350.178518891256
 21
2675.631001261591
 31
0.0
 12
5349.845185557923
 22
2677.631001261592
 32
0.0
 13
5349.845185557923
 23
2677.631001261592
 33
0.0
  0
SOLID
  5
18EB
330
17FC
100
AcDbEntity
  8
cotas
100
AcDbTrace
 10
5349.511852224591
 20
2179.631001261592
 30
0.0
 11
5350.178518891256
 21
2179.631001261592
 31
0.0
 12
5349.845185557923
 22
2177.631001261591
 32
0.0
 13
5349.845185557923
 23
2177.631001261591
 33
0.0
  0
MTEXT
  5
18EC
330
17FC
100
AcDbEntity
  8
cotas
100
AcDbMText
 10
5347.804218465914
 20
2427.631001261592
 30
0.0
 40
2.0
 41
0.0
 71
     5
 72
     1
  1
500
  7
SANINDUSA
 11
0.0000000000000001
 21
1.0
 31
0.0
 73
     1
 44
1.0
1001
ACAD
1000
MTEXTBEGIN
1070
    73
1070
     1
1070
    44
1040
1.0
1070
    74
1070
     0
1000
MTEXTEND
  0
POINT
  5
18ED
330
17FC
100
AcDbEntity
  8
Defpoints
 62
     0
100
AcDbPoint
 10
5374.845185557923
 20
2677.631001261592
 30
0.0
  0
POINT
  5
18EE
330
17FC
100
AcDbEntity
  8
Defpoints
 62
     0
100
AcDbPoint
 10
5390.635987132261
 20
2177.631001261591
 30
0.0
  0
POINT
  5
18EF
330
17FC
100
AcDbEntity
  8
Defpoints
 62
     0
100
AcDbPoint
 10
5349.845185557923
 20
2177.631001261591
 30
0.0
  0
ENDBLK
  5
17FE
330
17FC
100
AcDbEntity
  8
0
100
AcDbBlockEnd
  0
BLOCK
  5
1809
330
1808
100
AcDbEntity
  8
0
100
AcDbBlockBegin
  2
*D95
 70
     1
 10
0.0
 20
0.0
 30
0.0
  3
*D95
  1

  0
LINE
  5
18F0
330
1808
100
AcDbEntity
  8
cotas
100
AcDbLine
 10
5374.845185557923
 20
2678.631001261591
 30
0.0
 11
5374.845185557923
 21
2703.631001261591
 31
0.0
  0
LINE
  5
18F1
330
1808
100
AcDbEntity
  8
cotas
100
AcDbLine
 10
5754.826759236974
 20
2639.169946468818
 30
0.0
 11
5754.826759236974
 21
2703.631001261591
 31
0.0
  0
LINE
  5
18F2
330
1808
100
AcDbEntity
  8
cotas
100
AcDbLine
 10
5376.845185557924
 20
2702.631001261591
 30
0.0
 11
5752.826759236974
 21
2702.631001261591
 31
0.0
  0
SOLID
  5
18F3
330
1808
100
AcDbEntity
  8
cotas
100
AcDbTrace
 10
5376.845185557924
 20
2702.964334594925
 30
0.0
 11
5376.845185557924
 21
2702.297667928258
 31
0.0
 12
5374.845185557923
 22
2702.631001261591
 32
0.0
 13
5374.845185557923
 23
2702.631001261591
 33
0.0
  0
SOLID
  5
18F4
330
1808
100
AcDbEntity
  8
cotas
100
AcDbTrace
 10
5752.826759236974
 20
2702.964334594925
 30
0.0
 11
5752.826759236974
 21
2702.297667928258
 31
0.0
 12
5754.826759236974
 22
2702.631001261591
 32
0.0
 13
5754.826759236974
 23
2702.631001261591
 33
0.0
  0
MTEXT
  5
18F5
330
1808
100
AcDbEntity
  8
cotas
100
AcDbMText
 10
5564.835972397448
 20
2704.676669495305
 30
0.0
 40
2.0
 41
0.0
 71
     5
 72
     1
  1
380
  7
SANINDUSA
 73
     1
 44
1.0
1001
ACAD
1000
MTEXTBEGIN
1070
    73
1070
     1
1070
    44
1040
1.0
1070
    74
1070
     0
1000
MTEXTEND
  0
POINT
  5
18F6
330
1808
100
AcDbEntity
  8
Defpoints
 62
     0
100
AcDbPoint
 10
5374.845185557923
 20
2677.631001261592
 30
0.0
  0
POINT
  5
18F7
330
1808
100
AcDbEntity
  8
Defpoints
 62
     0
100
AcDbPoint
 10
5754.826759236974
 20
2638.169946468818
 30
0.0
  0
POINT
  5
18F8
330
1808
100
AcDbEntity
  8
Defpoints
 62
     0
100
AcDbPoint
 10
5754.826759236974
 20
2702.631001261591
 30
0.0
  0
ENDBLK
  5
180A
330
1808
100
AcDbEntity
  8
0
100
AcDbBlockEnd
  0
BLOCK
  5
1815
330
1814
100
AcDbEntity
  8
0
100
AcDbBlockBegin
  2
*D96
 70
     1
 10
0.0
 20
0.0
 30
0.0
  3
*D96
  1

  0
LINE
  5
18F9
330
1814
100
AcDbEntity
  8
cotas
100
AcDbLine
 10
5731.029074329551
 20
2177.631001261591
 30
0.0
 11
5780.826759236973
 21
2177.631001261591
 31
0.0
  0
LINE
  5
18FA
330
1814
100
AcDbEntity
  8
cotas
100
AcDbLine
 10
5731.029074329545
 20
2180.631001261591
 30
0.0
 11
5780.826759236973
 21
2180.631001261591
 31
0.0
  0
LINE
  5
18FB
330
1814
100
AcDbEntity
  8
cotas
100
AcDbLine
 10
5779.826759236973
 20
2175.631001261591
 30
0.0
 11
5779.826759236973
 21
2173.631001261592
 31
0.0
  0
LINE
  5
18FC
330
1814
100
AcDbEntity
  8
cotas
100
AcDbLine
 10
5779.826759236973
 20
2182.631001261591
 30
0.0
 11
5779.826759236973
 21
2187.948664122572
 31
0.0
  0
LINE
  5
18FD
330
1814
100
AcDbEntity
  8
cotas
100
AcDbLine
 10
5779.826759236973
 20
2177.631001261591
 30
0.0
 11
5779.826759236973
 21
2180.631001261591
 31
0.0
  0
SOLID
  5
18FE
330
1814
100
AcDbEntity
  8
cotas
100
AcDbTrace
 10
5779.49342590364
 20
2175.631001261591
 30
0.0
 11
5780.160092570306
 21
2175.631001261591
 31
0.0
 12
5779.826759236973
 22
2177.631001261591
 32
0.0
 13
5779.826759236973
 23
2177.631001261591
 33
0.0
  0
SOLID
  5
18FF
330
1814
100
AcDbEntity
  8
cotas
100
AcDbTrace
 10
5779.49342590364
 20
2182.631001261591
 30
0.0
 11
5780.160092570306
 21
2182.631001261591
 31
0.0
 12
5779.826759236973
 22
2180.631001261591
 32
0.0
 13
5779.826759236973
 23
2180.631001261591
 33
0.0
  0
MTEXT
  5
1900
330
1814
100
AcDbEntity
  8
cotas
100
AcDbMText
 10
5777.785120553292
 20
2186.289832692083
 30
0.0
 40
2.0
 41
0.0
 71
     5
 72
     1
  1
3
  7
SANINDUSA
 11
0.0000000000000001
 21
1.0
 31
0.0
 73
     1
 44
1.0
1001
ACAD
1000
MTEXTBEGIN
1070
    73
1070
     1
1070
    44
1040
1.0
1070
    74
1070
     0
1000
MTEXTEND
  0
POINT
  5
1901
330
1814
100
AcDbEntity
  8
Defpoints
 62
     0
100
AcDbPoint
 10
5730.029074329551
 20
2177.631001261591
 30
0.0
  0
POINT
  5
1902
330
1814
100
AcDbEntity
  8
Defpoints
 62
     0
100
AcDbPoint
 10
5730.029074329546
 20
2180.631001261591
 30
0.0
  0
POINT
  5
1903
330
1814
100
AcDbEntity
  8
Defpoints
 62
     0
100
AcDbPoint
 10
5779.826759236973
 20
2180.631001261591
 30
0.0
  0
ENDBLK
  5
1816
330
1814
100
AcDbEntity
  8
0
100
AcDbBlockEnd
  0
BLOCK
  5
1823
330
1822
100
AcDbEntity
  8
0
100
AcDbBlockBegin
  2
*D97
 70
     1
 10
0.0
 20
0.0
 30
0.0
  3
*D97
  1

  0
LINE
  5
191F
330
1822
100
AcDbEntity
  8
cotas
100
AcDbLine
 10
5703.296802971671
 20
2227.754666662903
 30
0.0
 11
5743.389276207317
 21
2192.563292378477
 31
0.0
  0
MTEXT
  5
1920
330
1822
100
AcDbEntity
  8
cotas
100
AcDbMText
 10
5707.258715147101
 20
2226.992756288879
 30
0.0
 40
2.0
 41
0.0
 71
     5
 72
     1
  1
R40
  7
SANINDUSA
 11
0.7515496324038177
 21
-0.6596765495556794
 31
0.0
 73
     1
 44
1.0
1001
ACAD
1000
MTEXTBEGIN
1070
    73
1070
     1
1070
    44
1040
1.0
1070
    74
1070
     0
1000
MTEXTEND
  0
SOLID
  5
1921
330
1822
100
AcDbEntity
  8
cotas
100
AcDbTrace
 10
5743.609168390502
 20
2192.813808922611
 30
0.0
 11
5743.169384024132
 21
2192.312775834343
 31
0.0
 12
5744.892375472126
 22
2191.243939279366
 32
0.0
 13
5744.892375472126
 23
2191.243939279366
 33
0.0
  0
POINT
  5
1922
330
1822
100
AcDbEntity
  8
Defpoints
 62
     0
100
AcDbPoint
 10
5744.892375472126
 20
2191.243939279366
 30
0.0
  0
POINT
  5
1923
330
1822
100
AcDbEntity
  8
Defpoints
 62
     0
100
AcDbPoint
 10
5714.830390175974
 20
2217.631001261592
 30
0.0
  0
ENDBLK
  5
1824
330
1822
100
AcDbEntity
  8
0
100
AcDbBlockEnd
  0
BLOCK
  5
182B
330
182A
100
AcDbEntity
  8
0
100
AcDbBlockBegin
  2
*D98
 70
     1
 10
0.0
 20
0.0
 30
0.0
  3
*D98
  1

  0
LINE
  5
1924
330
182A
100
AcDbEntity
  8
cotas
100
AcDbLine
 10
5412.378245605411
 20
2243.233873401771
 30
0.0
 11
5382.554257092619
 21
2185.640420193548
 31
0.0
  0
MTEXT
  5
1925
330
182A
100
AcDbEntity
  8
cotas
100
AcDbMText
 10
5408.965534119846
 20
2241.081977535293
 30
0.0
 40
2.0
 41
0.0
 71
     5
 72
     1
  1
R40
  7
SANINDUSA
 11
0.4598397478423041
 21
0.8880019179620763
 31
0.0
 73
     1
 44
1.0
1001
ACAD
1000
MTEXTBEGIN
1070
    73
1070
     1
1070
    44
1040
1.0
1070
    74
1070
     0
1000
MTEXTEND
  0
SOLID
  5
1926
330
182A
100
AcDbEntity
  8
cotas
100
AcDbTrace
 10
5382.258256453298
 20
2185.793700109496
 30
0.0
 11
5382.850257731941
 21
2185.487140277601
 31
0.0
 12
5381.634577596935
 22
2183.864416357624
 32
0.0
 13
5381.634577596935
 23
2183.864416357624
 33
0.0
  0
POINT
  5
1927
330
182A
100
AcDbEntity
  8
Defpoints
 62
     0
100
AcDbPoint
 10
5381.634577596935
 20
2183.864416357624
 30
0.0
  0
POINT
  5
1928
330
182A
100
AcDbEntity
  8
Defpoints
 62
     0
100
AcDbPoint
 10
5400.028167510625
 20
2219.384493076105
 30
0.0
  0
ENDBLK
  5
182C
330
182A
100
AcDbEntity
  8
0
100
AcDbBlockEnd
  0
BLOCK
  5
1833
330
1832
100
AcDbEntity
  8
0
100
AcDbBlockBegin
  2
*D99
 70
     1
 10
0.0
 20
0.0
 30
0.0
  3
*D99
  1

  0
LINE
  5
190E
330
1832
100
AcDbEntity
  8
cotas
100
AcDbLine
 10
5754.826759236974
 20
2639.169946468818
 30
0.0
 11
5754.826759236974
 21
2703.631001261591
 31
0.0
  0
LINE
  5
190F
330
1832
100
AcDbEntity
  8
cotas
100
AcDbLine
 10
5756.826759236973
 20
2428.631001261636
 30
0.0
 11
5756.826759236973
 21
2703.631001261591
 31
0.0
  0
LINE
  5
1910
330
1832
100
AcDbEntity
  8
cotas
100
AcDbLine
 10
5752.826759236974
 20
2702.631001261591
 30
0.0
 11
5750.826759236974
 21
2702.631001261591
 31
0.0
  0
LINE
  5
1911
330
1832
100
AcDbEntity
  8
cotas
100
AcDbLine
 10
5758.826759236973
 20
2702.631001261591
 30
0.0
 11
5764.180688048256
 21
2702.631001261591
 31
0.0
  0
LINE
  5
1912
330
1832
100
AcDbEntity
  8
cotas
100
AcDbLine
 10
5754.826759236974
 20
2702.631001261591
 30
0.0
 11
5756.826759236973
 21
2702.631001261591
 31
0.0
  0
SOLID
  5
1913
330
1832
100
AcDbEntity
  8
cotas
100
AcDbTrace
 10
5752.826759236974
 20
2702.964334594925
 30
0.0
 11
5752.826759236974
 21
2702.297667928258
 31
0.0
 12
5754.826759236974
 22
2702.631001261591
 32
0.0
 13
5754.826759236974
 23
2702.631001261591
 33
0.0
  0
SOLID
  5
1914
330
1832
100
AcDbEntity
  8
cotas
100
AcDbTrace
 10
5758.826759236973
 20
2702.964334594925
 30
0.0
 11
5758.826759236973
 21
2702.297667928258
 31
0.0
 12
5756.826759236973
 22
2702.631001261591
 32
0.0
 13
5756.826759236973
 23
2702.631001261591
 33
0.0
  0
MTEXT
  5
1915
330
1832
100
AcDbEntity
  8
cotas
100
AcDbMText
 10
5762.503723642614
 20
2704.651820603432
 30
0.0
 40
2.0
 41
0.0
 71
     5
 72
     1
  1
2
  7
SANINDUSA
 73
     1
 44
1.0
1001
ACAD
1000
MTEXTBEGIN
1070
    73
1070
     1
1070
    44
1040
1.0
1070
    74
1070
     0
1000
MTEXTEND
  0
POINT
  5
1916
330
1832
100
AcDbEntity
  8
Defpoints
 62
     0
100
AcDbPoint
 10
5754.826759236974
 20
2638.169946468818
 30
0.0
  0
POINT
  5
1917
330
1832
100
AcDbEntity
  8
Defpoints
 62
     0
100
AcDbPoint
 10
5756.826759236973
 20
2427.631001261636
 30
0.0
  0
POINT
  5
1918
330
1832
100
AcDbEntity
  8
Defpoints
 62
     0
100
AcDbPoint
 10
5756.826759236973
 20
2702.631001261591
 30
0.0
  0
ENDBLK
  5
1834
330
1832
100
AcDbEntity
  8
0
100
AcDbBlockEnd
  0
ENDSEC
  0
SECTION
  2
ENTITIES
  0
ARC
  5
13C4
330
1F
100
AcDbEntity
  8
SANINDUSA
100
AcDbCircle
 10
5185.894554671467
 20
2637.959407523227
 30
0.0
 40
11.082661862244
100
AcDbArc
 50
178.911478227926
 51
181.088521772074
  0
ARC
  5
13CA
330
1F
100
AcDbEntity
  8
SANINDUSA
100
AcDbCircle
 10
5164.233194094337
 20
2637.959407523227
 30
0.0
 40
11.082661862244
100
AcDbArc
 50
358.911478227926
 51
1.088521772074
  0
ARC
  5
13CD
330
1F
100
AcDbEntity
  8
SANINDUSA
100
AcDbCircle
 10
5174.853889178283
 20
2637.749407523227
 30
0.0
 40
0.0400000000000002
100
AcDbArc
 50
180.7720055009116
 51
247.6683549794243
  0
LINE
  5
13CF
330
1F
100
AcDbEntity
  8
SANINDUSA
100
AcDbLine
 10
5174.83869049413
 20
2637.712407523227
 30
0.0
 11
5175.013874382901
 21
2637.712407523227
 31
0.0
  0
ARC
  5
13D1
330
1F
100
AcDbEntity
  8
SANINDUSA
100
AcDbCircle
 10
5175.27385958752
 20
2637.749407523227
 30
0.0
 40
0.0400000000000002
100
AcDbArc
 50
292.3316450205756
 51
359.2279944990883
  0
LINE
  5
13D2
330
1F
100
AcDbEntity
  8
SANINDUSA
100
AcDbLine
 10
5175.289058271673
 20
2637.712407523227
 30
0.0
 11
5175.113874382901
 21
2637.712407523227
 31
0.0
  0
ARC
  5
13D3
330
1F
100
AcDbEntity
  8
SANINDUSA
100
AcDbCircle
 10
5175.27385958752
 20
2638.169407523227
 30
0.0
 40
0.0400000000000002
100
AcDbArc
 50
0.7720055009116678
 51
90.0
  0
ARC
  5
13D4
330
1F
100
AcDbEntity
  8
SANINDUSA
100
AcDbCircle
 10
5174.853889178283
 20
2638.169407523227
 30
0.0
 40
0.0400000000000002
100
AcDbArc
 50
90.0
 51
179.2279944990883
  0
LINE
  5
13D5
330
1F
100
AcDbEntity
  8
SANINDUSA
100
AcDbLine
 10
5175.113874382901
 20
2637.712407523227
 30
0.0
 11
5175.013874382901
 21
2637.712407523227
 31
0.0
  0
LINE
  5
13D7
330
1F
100
AcDbEntity
  8
SANINDUSA
100
AcDbLine
 10
5174.83869049413
 20
2637.712407523227
 30
0.0
 11
5174.83869049413
 21
2637.709407523227
 31
0.0
  0
LINE
  5
13D8
330
1F
100
AcDbEntity
  8
SANINDUSA
100
AcDbLine
 10
5174.83869049413
 20
2637.709407523227
 30
0.0
 11
5175.013874382901
 21
2637.709407523227
 31
0.0
  0
LINE
  5
13DA
330
1F
100
AcDbEntity
  8
SANINDUSA
100
AcDbLine
 10
5175.289058271673
 20
2637.712407523227
 30
0.0
 11
5175.289058271673
 21
2637.709407523227
 31
0.0
  0
LINE
  5
13DB
330
1F
100
AcDbEntity
  8
SANINDUSA
100
AcDbLine
 10
5175.289058271673
 20
2637.709407523227
 30
0.0
 11
5175.113874382901
 21
2637.709407523227
 31
0.0
  0
LINE
  5
13DC
330
1F
100
AcDbEntity
  8
SANINDUSA
100
AcDbLine
 10
5175.113874382901
 20
2637.709407523227
 30
0.0
 11
5175.013874382901
 21
2637.709407523227
 31
0.0
  0
LINE
  5
13DD
330
1F
100
AcDbEntity
  8
SANINDUSA
100
AcDbLine
 10
5175.27385958752
 20
2638.209407523227
 30
0.0
 11
5174.853889178283
 21
2638.209407523227
 31
0.0
  0
ARC
  5
144E
330
1F
100
AcDbEntity
  8
SANINDUSA
100
AcDbCircle
 10
5174.347558590963
 20
2638.005913582172
 30
0.0
 40
0.2240000000000003
100
AcDbArc
 50
0.0
 51
53.4726943228217
  0
ARC
  5
144F
330
1F
100
AcDbEntity
  8
SANINDUSA
100
AcDbCircle
 10
5174.291558590963
 20
2638.005913582172
 30
0.0
 40
0.2240000000000002
100
AcDbArc
 50
126.5277114875391
 51
180.0
  0
ARC
  5
1450
330
1F
100
AcDbEntity
  8
SANINDUSA
100
AcDbCircle
 10
5174.269558590964
 20
2638.005913582172
 30
0.0
 40
0.2020000000000002
100
AcDbArc
 50
180.0
 51
270.0
  0
ARC
  5
1451
330
1F
100
AcDbEntity
  8
SANINDUSA
100
AcDbCircle
 10
5174.369558590964
 20
2638.005913582172
 30
0.0
 40
0.2020000000000002
100
AcDbArc
 50
270.0
 51
0.0
  0
LINE
  5
1452
330
1F
100
AcDbEntity
  8
SANINDUSA
100
AcDbLine
 10
5174.269558590964
 20
2637.803913582172
 30
0.0
 11
5174.369558590964
 21
2637.803913582172
 31
0.0
  0
ARC
  5
1454
330
1F
100
AcDbEntity
  8
SANINDUSA
100
AcDbCircle
 10
5174.291558590963
 20
2638.005913582172
 30
0.0
 40
0.2220000000000003
100
AcDbArc
 50
125.8247743529509
 51
180.0
  0
LINE
  5
1455
330
1F
100
AcDbEntity
  8
SANINDUSA
100
AcDbLine
 10
5174.161620143998
 20
2638.185913582172
 30
0.0
 11
5174.264651342869
 21
2638.185913582172
 31
0.0
  0
ARC
  5
1459
330
1F
100
AcDbEntity
  8
SANINDUSA
100
AcDbCircle
 10
5174.368459378998
 20
2638.004171391159
 30
0.0
 40
0.162250929316997
100
AcDbArc
 50
18.9336672408387
 51
42.69844454789009
  0
ARC
  5
145E
330
1F
100
AcDbEntity
  8
SANINDUSA
100
AcDbCircle
 10
5174.270659294902
 20
2638.004170509802
 30
0.0
 40
0.1622526234999855
100
AcDbArc
 50
137.3016840059755
 51
161.0685658132695
  0
LWPOLYLINE
  5
1462
330
1F
100
AcDbEntity
  8
SANINDUSA
100
AcDbPolyline
 90
       21
 70
   128
 43
0.0
 10
5174.108640514874
 20
2638.005913582172
 10
5174.108855733026
 20
2637.997788290688
 10
5174.109497673102
 20
2637.989685516751
 10
5174.110572328494
 20
2637.981560412914
 10
5174.112070414403
 20
2637.973502680118
 10
5174.115453118205
 20
2637.960402765417
 10
5174.119969818441
 20
2637.94754461631
 10
5174.125698282659
 20
2637.934839655463
 10
5174.132552627671
 20
2637.922584684373
 10
5174.140162698416
 20
2637.911339673247
 10
5174.148745961295
 20
2637.90069532565
 10
5174.15840735155
 20
2637.890597784656
 10
5174.168979033357
 20
2637.881299150068
 10
5174.179730061402
 20
2637.873338175703
 10
5174.191260126008
 20
2637.866193118576
 10
5174.203428895193
 20
2637.859989022868
 10
5174.2162564858
 20
2637.854757468329
 10
5174.229108507643
 20
2637.850731832637
 10
5174.242248077078
 20
2637.8477783687
 10
5174.255775528935
 20
2637.845905710047
 10
5174.26960949334
 20
2637.845177724238
  0
ARC
  5
1464
330
1F
100
AcDbEntity
  8
SANINDUSA
100
AcDbCircle
 10
5174.347558590963
 20
2638.005913582172
 30
0.0
 40
0.2219999999999999
100
AcDbArc
 50
0.0
 51
54.17522564704905
  0
LINE
  5
1468
330
1F
100
AcDbEntity
  8
SANINDUSA
100
AcDbLine
 10
5174.374465839058
 20
2638.185913582172
 30
0.0
 11
5174.47749703793
 21
2638.185913582172
 31
0.0
  0
LWPOLYLINE
  5
1469
330
1F
100
AcDbEntity
  8
SANINDUSA
100
AcDbPolyline
 90
       21
 70
   128
 43
0.0
 10
5174.369507688588
 20
2637.845177724238
 10
5174.378779223511
 20
2637.845533780379
 10
5174.388076571988
 20
2637.846429570894
 10
5174.397307084095
 20
2637.847858511884
 10
5174.406501005289
 20
2637.849830642009
 10
5174.419538638598
 20
2637.853604587859
 10
5174.432305534284
 20
2637.858484953038
 10
5174.444883848766
 20
2637.864557754852
 10
5174.456984842255
 20
2637.871738337576
 10
5174.467895463624
 20
2637.879523892993
 10
5174.47819859008
 20
2637.88823952802
 10
5174.487941660614
 20
2637.897989289965
 10
5174.496887952289
 20
2637.908605546883
 10
5174.504400419235
 20
2637.919177293683
 10
5174.511048019386
 20
2637.930312993719
 10
5174.516853482582
 20
2637.942099029657
 10
5174.52173776538
 20
2637.954485157007
 10
5174.525477815929
 20
2637.966849800087
 10
5174.528224599619
 20
2637.979630817623
 10
5174.529899285897
 20
2637.99259587423
 10
5174.530476667053
 20
2638.005913582172
  0
ARC
  5
146D
330
1F
100
AcDbEntity
  8
SANINDUSA
100
AcDbCircle
 10
5174.373364234236
 20
2638.005709101078
 30
0.0
 40
0.1571125658817452
100
AcDbArc
 50
0.0745701454099489
 51
18.98362202037458
  0
ARC
  5
146E
330
1F
100
AcDbEntity
  8
SANINDUSA
100
AcDbCircle
 10
5174.265777097662
 20
2638.005705020379
 30
0.0
 40
0.157136721196964
100
AcDbArc
 50
161.0202686529031
 51
179.9239533886872
  0
ARC
  5
146F
330
1F
100
AcDbEntity
  8
SANINDUSA
100
AcDbCircle
 10
5174.367892144971
 20
2638.003694249517
 30
0.0
 40
0.1629913805684487
100
AcDbArc
 50
42.68649376838577
 51
89.41418997323632
  0
ARC
  5
1474
330
1F
100
AcDbEntity
  8
SANINDUSA
100
AcDbCircle
 10
5174.271232978582
 20
2638.003676370067
 30
0.0
 40
0.1630093404638728
100
AcDbArc
 50
90.58853673223211
 51
137.310779232697
  0
LWPOLYLINE
  5
1475
330
1F
100
AcDbEntity
  8
SANINDUSA
100
AcDbPolyline
 90
        4
 70
   128
 43
0.0
 10
5174.369558590964
 20
2638.166677110878
 10
5174.359558911567
 20
2638.166738335806
 10
5174.319559043906
 20
2638.166864508504
 10
5174.26955859176
 20
2638.166677110885
  0
LINE
  5
1477
330
1F
100
AcDbEntity
  8
SANINDUSA
100
AcDbLine
 10
5174.264651342869
 20
2638.185913582172
 30
0.0
 11
5174.374465839058
 21
2638.185913582172
 31
0.0
  0
ARC
  5
1478
330
1F
100
AcDbEntity
  8
SANINDUSA
100
AcDbCircle
 10
5174.369558590964
 20
2638.005913582172
 30
0.0
 40
0.2
100
AcDbArc
 50
270.0
 51
0.0
  0
ARC
  5
147A
330
1F
100
AcDbEntity
  8
SANINDUSA
100
AcDbCircle
 10
5174.269558590964
 20
2638.005913582172
 30
0.0
 40
0.2
100
AcDbArc
 50
180.0
 51
270.0
  0
LWPOLYLINE
  5
147C
330
1F
100
AcDbEntity
  8
SANINDUSA
100
AcDbPolyline
 90
        6
 70
   128
 43
0.0
 10
5174.26960949334
 20
2637.845177724238
 10
5174.299575467625
 20
2637.845010432384
 10
5174.317057876422
 20
2637.844973729934
 10
5174.334540752465
 20
2637.844994361148
 10
5174.352024344455
 20
2637.845067371771
 10
5174.369507688588
 20
2637.845177724238
  0
LINE
  5
147E
330
1F
100
AcDbEntity
  8
SANINDUSA
100
AcDbLine
 10
5174.369558590964
 20
2637.805913582172
 30
0.0
 11
5174.269558590964
 21
2637.805913582172
 31
0.0
  0
SPLINE
  5
147F
330
1F
100
AcDbEntity
  8
SANINDUSA
100
AcDbSpline
210
0.0
220
0.0
230
1.0
 70
    11
 71
     3
 72
    70
 73
    66
 74
     0
 42
0.0000000001
 43
0.0000000001
 40
0.0
 40
0.0
 40
0.0
 40
0.0
 40
0.0312500000000001
 40
0.0312500000000001
 40
0.0625000000000001
 40
0.0625000000000001
 40
0.0937500000000002
 40
0.0937500000000002
 40
0.1250000000000002
 40
0.1250000000000002
 40
0.1562500000000002
 40
0.1562500000000002
 40
0.1875000000000003
 40
0.1875000000000003
 40
0.2187500000000003
 40
0.2187500000000003
 40
0.2500000000000004
 40
0.2500000000000004
 40
0.2812500000000004
 40
0.2812500000000004
 40
0.3125000000000005
 40
0.3125000000000005
 40
0.3437500000000005
 40
0.3437500000000005
 40
0.3750000000000004
 40
0.3750000000000004
 40
0.4062500000000005
 40
0.4062500000000005
 40
0.4375000000000005
 40
0.4375000000000005
 40
0.4687500000000005
 40
0.4687500000000005
 40
0.5000000000000005
 40
0.5000000000000005
 40
0.5312500000000004
 40
0.5312500000000004
 40
0.5625000000000004
 40
0.5625000000000004
 40
0.5937500000000002
 40
0.5937500000000002
 40
0.6250000000000002
 40
0.6250000000000002
 40
0.6562500000000001
 40
0.6562500000000001
 40
0.6875000000000001
 40
0.6875000000000001
 40
0.71875
 40
0.71875
 40
0.75
 40
0.75
 40
0.78125
 40
0.78125
 40
0.8124999999999998
 40
0.8124999999999998
 40
0.8437499999999998
 40
0.8437499999999998
 40
0.8749999999999998
 40
0.8749999999999998
 40
0.90625
 40
0.90625
 40
0.9375
 40
0.9375
 40
0.9687500000000001
 40
0.9687500000000001
 40
1.0
 40
1.0
 40
1.0
 40
1.0
 10
5174.283558590963
 20
2638.005913582172
 30
0.0
 10
5174.283558590963
 20
2638.003557387682
 30
0.0
 10
5174.283790650127
 20
2638.001201251453
 30
0.0
 10
5174.28470999161
 20
2637.996579409705
 30
0.0
 10
5174.285397251199
 20
2637.994313818471
 30
0.0
 10
5174.287200604388
 20
2637.989960138743
 30
0.0
 10
5174.288316653399
 20
2637.987872157902
 30
0.0
 10
5174.290934716442
 20
2637.983953949663
 30
0.0
 10
5174.292436665739
 20
2637.982123819151
 30
0.0
 10
5174.295768827943
 20
2637.978791656947
 30
0.0
 10
5174.297598958456
 20
2637.977289707651
 30
0.0
 10
5174.301517166694
 20
2637.974671644607
 30
0.0
 10
5174.303605147535
 20
2637.973555595596
 30
0.0
 10
5174.307958827262
 20
2637.971752242406
 30
0.0
 10
5174.310224418498
 20
2637.971064982819
 30
0.0
 10
5174.314846260244
 20
2637.970145641335
 30
0.0
 10
5174.317202396474
 20
2637.969913582172
 30
0.0
 10
5174.321914785453
 20
2637.969913582172
 30
0.0
 10
5174.324270921682
 20
2637.970145641335
 30
0.0
 10
5174.32889276343
 20
2637.971064982819
 30
0.0
 10
5174.331158354664
 20
2637.971752242406
 30
0.0
 10
5174.335512034393
 20
2637.973555595596
 30
0.0
 10
5174.337600015233
 20
2637.974671644607
 30
0.0
 10
5174.341518223471
 20
2637.977289707651
 30
0.0
 10
5174.343348353985
 20
2637.978791656947
 30
0.0
 10
5174.346680516188
 20
2637.982123819151
 30
0.0
 10
5174.348182465485
 20
2637.983953949663
 30
0.0
 10
5174.350800528529
 20
2637.987872157902
 30
0.0
 10
5174.351916577538
 20
2637.989960138743
 30
0.0
 10
5174.353719930728
 20
2637.994313818471
 30
0.0
 10
5174.354407190316
 20
2637.996579409705
 30
0.0
 10
5174.3553265318
 20
2638.001201251453
 30
0.0
 10
5174.355558590963
 20
2638.003557387682
 30
0.0
 10
5174.355558590963
 20
2638.008269776662
 30
0.0
 10
5174.3553265318
 20
2638.01062591289
 30
0.0
 10
5174.354407190316
 20
2638.015247754637
 30
0.0
 10
5174.353719930728
 20
2638.017513345872
 30
0.0
 10
5174.351916577538
 20
2638.021867025601
 30
0.0
 10
5174.350800528529
 20
2638.023955006441
 30
0.0
 10
5174.348182465485
 20
2638.02787321468
 30
0.0
 10
5174.346680516188
 20
2638.029703345193
 30
0.0
 10
5174.343348353985
 20
2638.033035507396
 30
0.0
 10
5174.341518223471
 20
2638.034537456693
 30
0.0
 10
5174.337600015233
 20
2638.037155519736
 30
0.0
 10
5174.335512034393
 20
2638.038271568747
 30
0.0
 10
5174.331158354664
 20
2638.040074921937
 30
0.0
 10
5174.32889276343
 20
2638.040762181525
 30
0.0
 10
5174.324270921682
 20
2638.041681523008
 30
0.0
 10
5174.321914785453
 20
2638.041913582172
 30
0.0
 10
5174.317202396474
 20
2638.041913582172
 30
0.0
 10
5174.314846260244
 20
2638.041681523008
 30
0.0
 10
5174.310224418498
 20
2638.040762181525
 30
0.0
 10
5174.307958827262
 20
2638.040074921937
 30
0.0
 10
5174.303605147535
 20
2638.038271568747
 30
0.0
 10
5174.301517166694
 20
2638.037155519736
 30
0.0
 10
5174.297598958456
 20
2638.034537456693
 30
0.0
 10
5174.295768827943
 20
2638.033035507396
 30
0.0
 10
5174.292436665739
 20
2638.029703345193
 30
0.0
 10
5174.290934716442
 20
2638.02787321468
 30
0.0
 10
5174.288316653399
 20
2638.023955006441
 30
0.0
 10
5174.287200604388
 20
2638.021867025601
 30
0.0
 10
5174.285397251199
 20
2638.017513345872
 30
0.0
 10
5174.28470999161
 20
2638.015247754637
 30
0.0
 10
5174.283790650127
 20
2638.01062591289
 30
0.0
 10
5174.283558590963
 20
2638.008269776662
 30
0.0
 10
5174.283558590963
 20
2638.005913582172
 30
0.0
  0
LINE
  5
1480
330
1F
100
AcDbEntity
  8
SANINDUSA
100
AcDbLine
 10
5174.480884693927
 20
2638.185913999584
 30
0.0
 11
5174.47749703793
 21
2638.185913582172
 31
0.0
  0
LINE
  5
1481
330
1F
100
AcDbEntity
  8
SANINDUSA
100
AcDbLine
 10
5174.161620143998
 20
2638.185913582172
 30
0.0
 11
5174.158231213199
 21
2638.185913055334
 31
0.0
  0
CIRCLE
  5
1482
330
1F
100
AcDbEntity
  8
SANINDUSA
100
AcDbCircle
 10
5174.319558590963
 20
2638.005913582172
 30
0.0
 40
0.0235
  0
LWPOLYLINE
  5
1486
330
1F
100
AcDbEntity
  8
SANINDUSA
100
AcDbPolyline
 90
       40
 70
   128
 43
0.0
 10
5176.351674998607
 20
2638.208903383236
 10
5176.351525532498
 20
2638.20892924206
 10
5176.351108069575
 20
2638.20896762115
 10
5176.350737495574
 20
2638.208980982693
 10
5176.350320217862
 20
2638.20898185309
 10
5176.349607377311
 20
2638.208976409539
 10
5176.348896899989
 20
2638.208976917401
 10
5176.347952431496
 20
2638.208984592348
 10
5176.346791708636
 20
2638.208992418881
 10
5176.345000810879
 20
2638.209001881784
 10
5176.342903773875
 20
2638.209010452806
 10
5176.340501382845
 20
2638.209018113933
 10
5176.337797112683
 20
2638.209024829266
 10
5176.334796290295
 20
2638.209030558153
 10
5176.331505863547
 20
2638.209035259667
 10
5176.327934272966
 20
2638.209038894792
 10
5176.324092753411
 20
2638.209041427002
 10
5176.319992754568
 20
2638.209042825724
 10
5176.315646676743
 20
2638.209043065155
 10
5176.311067745846
 20
2638.20904212444
 10
5176.306269466641
 20
2638.209039985236
 10
5176.301263462179
 20
2638.209036598888
 10
5176.296030909521
 20
2638.209032025511
 10
5176.290554914063
 20
2638.209026353768
 10
5176.284850889896
 20
2638.209019697748
 10
5176.278935718723
 20
2638.209012178695
 10
5176.272827695783
 20
2638.209003923997
 10
5176.266546472459
 20
2638.20899506605
 10
5176.260115476718
 20
2638.208985744658
 10
5176.253555822428
 20
2638.208976096951
 10
5176.246888782561
 20
2638.208966259334
 10
5176.240135469578
 20
2638.208956365837
 10
5176.23331653129
 20
2638.208946546615
 10
5176.226451889138
 20
2638.20893692678
 10
5176.219558923705
 20
2638.208928413955
 10
5176.212617850752
 20
2638.208921709217
 10
5176.205605409139
 20
2638.20891672354
 10
5176.198536538016
 20
2638.208913414915
 10
5176.191426694136
 20
2638.208911736642
 10
5176.185254649317
 20
2638.208911650771
  0
LWPOLYLINE
  5
1487
330
1F
100
AcDbEntity
  8
SANINDUSA
100
AcDbPolyline
 90
        7
 70
   128
 43
0.0
 10
5176.132772254086
 20
2638.209100249358
 10
5176.127321917419
 20
2638.20913571082
 10
5176.120617411773
 20
2638.209180707076
 10
5176.114003672832
 20
2638.209225290415
 10
5176.107523934014
 20
2638.209267937721
 10
5176.101228443173
 20
2638.209307072609
 10
5176.097028870718
 20
2638.209330721944
  0
LWPOLYLINE
  5
1488
330
1F
100
AcDbEntity
  8
SANINDUSA
100
AcDbPolyline
 90
        9
 70
   128
 43
0.0
 10
5176.185254993677
 20
2638.208905133323
 10
5176.17844230548
 20
2638.208909089673
 10
5176.171340664911
 20
2638.208920901782
 10
5176.164258762614
 20
2638.208940080752
 10
5176.157246600872
 20
2638.208966178512
 10
5176.15030336755
 20
2638.208998367331
 10
5176.143379576753
 20
2638.20903556208
 10
5176.13647287918
 20
2638.209076694399
 10
5176.132776954752
 20
2638.209100294114
  0
ARC
  5
148A
330
1F
100
AcDbEntity
  8
SANINDUSA
100
AcDbCircle
 10
5176.232707835495
 20
2638.015009220689
 30
0.0
 40
0.0100000000000001
100
AcDbArc
 50
96.00712807261984
 51
175.0000000037089
  0
ARC
  5
148C
330
1F
100
AcDbEntity
  8
SANINDUSA
100
AcDbCircle
 10
5176.1378017675
 20
2638.015009220689
 30
0.0
 40
0.0100000000000002
100
AcDbArc
 50
4.999999996291116
 51
83.99287192738016
  0
LWPOLYLINE
  5
148D
330
1F
100
AcDbEntity
  8
SANINDUSA
100
AcDbPolyline
 90
       11
 70
   128
 43
0.0
 10
5176.13884828939
 20
2638.024954309524
 10
5176.130379540982
 20
2638.026213102421
 10
5176.122045630739
 20
2638.028177234717
 10
5176.113672674712
 20
2638.030902693762
 10
5176.105548055407
 20
2638.034299364143
 10
5176.097829593089
 20
2638.038258668621
 10
5176.090423728055
 20
2638.042777138574
 10
5176.083210084393
 20
2638.047917429245
 10
5176.076361900895
 20
2638.053536644099
 10
5176.06995099447
 20
2638.059521215689
 10
5176.063888132563
 20
2638.065902674691
  0
ARC
  5
148E
330
1F
100
AcDbEntity
  8
SANINDUSA
100
AcDbCircle
 10
5176.219178679724
 20
2638.134004223087
 30
0.0
 40
0.1097620143608169
100
AcDbArc
 50
276.5300635700754
 51
307.7475539810385
  0
LINE
  5
148F
330
1F
100
AcDbEntity
  8
SANINDUSA
100
AcDbLine
 10
5176.147763714481
 20
2638.015880778117
 30
0.0
 11
5176.150254801497
 21
2637.987407523227
 31
0.0
  0
LINE
  5
1490
330
1F
100
AcDbEntity
  8
SANINDUSA
100
AcDbLine
 10
5176.220254801497
 20
2637.987407523227
 30
0.0
 11
5176.222745888513
 21
2638.015880778117
 31
0.0
  0
LINE
  5
1491
330
1F
100
AcDbEntity
  8
SANINDUSA
100
AcDbLine
 10
5176.005254801498
 20
2637.999407523227
 30
0.0
 11
5176.040381824649
 21
2637.999407523227
 31
0.0
  0
LINE
  5
1492
330
1F
100
AcDbEntity
  8
SANINDUSA
100
AcDbLine
 10
5176.005254801498
 20
2638.209407523227
 30
0.0
 11
5176.005254801498
 21
2637.999407523227
 31
0.0
  0
LINE
  5
1493
330
1F
100
AcDbEntity
  8
SANINDUSA
100
AcDbLine
 10
5176.005254801498
 20
2638.209407523227
 30
0.0
 11
5176.019304878225
 21
2638.209407523227
 31
0.0
  0
ARC
  5
1494
330
1F
100
AcDbEntity
  8
SANINDUSA
100
AcDbCircle
 10
5176.019304878225
 20
2638.204407523227
 30
0.0
 40
0.0050000000000001
100
AcDbArc
 50
1.147687376247187
 51
90.0
  0
LWPOLYLINE
  5
1495
330
1F
100
AcDbEntity
  8
SANINDUSA
100
AcDbPolyline
 90
       20
 70
   128
 43
0.0
 10
5176.149254801497
 20
2638.034407523227
 10
5176.138702921805
 20
2638.035044559531
 10
5176.128258756021
 20
2638.036907170755
 10
5176.118121671521
 20
2638.039922610369
 10
5176.108425945646
 20
2638.04400904385
 10
5176.099168180125
 20
2638.049071444518
 10
5176.09045123328
 20
2638.054977704284
 10
5176.081648676601
 20
2638.062217127643
 10
5176.073487236902
 20
2638.07023035603
 10
5176.065993566918
 20
2638.078885473315
 10
5176.05919431939
 20
2638.088050563372
 10
5176.052488021789
 20
2638.098632090267
 10
5176.046531169746
 20
2638.109697178848
 10
5176.041314150051
 20
2638.121153580088
 10
5176.036827349486
 20
2638.132909044957
 10
5176.033061154843
 20
2638.144871324429
 10
5176.029439265042
 20
2638.159520053297
 10
5176.026779954677
 20
2638.174405780413
 10
5176.025071924475
 20
2638.189433366216
 10
5176.024303875165
 20
2638.204507671147
  0
LINE
  5
1496
330
1F
100
AcDbEntity
  8
SANINDUSA
100
AcDbLine
 10
5176.149254801497
 20
2638.034407523227
 30
0.0
 11
5176.161754801498
 21
2638.023541439004
 31
0.0
  0
LINE
  5
1497
330
1F
100
AcDbEntity
  8
SANINDUSA
100
AcDbLine
 10
5176.161754801498
 20
2637.987407523227
 30
0.0
 11
5176.161754801498
 21
2638.023541439004
 31
0.0
  0
LINE
  5
1498
330
1F
100
AcDbEntity
  8
SANINDUSA
100
AcDbLine
 10
5176.150254801497
 20
2637.987407523227
 30
0.0
 11
5176.161754801498
 21
2637.987407523227
 31
0.0
  0
LINE
  5
1499
330
1F
100
AcDbEntity
  8
SANINDUSA
100
AcDbLine
 10
5176.042705745366
 20
2638.065955905471
 30
0.0
 11
5176.063888495542
 21
2638.065902788961
 31
0.0
  0
LINE
  5
149A
330
1F
100
AcDbEntity
  8
SANINDUSA
100
AcDbLine
 10
5176.042730820648
 20
2638.075955874032
 30
0.0
 11
5176.052444396987
 21
2638.07593151689
 31
0.0
  0
ARC
  5
149B
330
1F
100
AcDbEntity
  8
SANINDUSA
100
AcDbCircle
 10
5176.042705745366
 20
2638.065955905471
 30
0.0
 40
0.01
100
AcDbArc
 50
89.85632908807536
 51
177.9999999962464
  0
LINE
  5
149C
330
1F
100
AcDbEntity
  8
SANINDUSA
100
AcDbLine
 10
5176.015254801498
 20
2638.010407523227
 30
0.0
 11
5176.015254801498
 21
2638.170172130986
 31
0.0
  0
ARC
  5
149D
330
1F
100
AcDbEntity
  8
SANINDUSA
100
AcDbCircle
 10
5176.016254801496
 20
2638.010407523227
 30
0.0
 40
0.001
100
AcDbArc
 50
180.0
 51
270.0
  0
LINE
  5
149E
330
1F
100
AcDbEntity
  8
SANINDUSA
100
AcDbLine
 10
5176.029759248127
 20
2638.009407523227
 30
0.0
 11
5176.016254801496
 21
2638.009407523227
 31
0.0
  0
LINE
  5
149F
330
1F
100
AcDbEntity
  8
SANINDUSA
100
AcDbLine
 10
5176.032711837096
 20
2638.066304900438
 30
0.0
 11
5176.030758638954
 21
2638.01037262373
 31
0.0
  0
ARC
  5
14A0
330
1F
100
AcDbEntity
  8
SANINDUSA
100
AcDbCircle
 10
5176.029759248127
 20
2638.010407523227
 30
0.0
 40
0.001
100
AcDbArc
 50
270.0
 51
357.9999999962464
  0
ARC
  5
14A1
330
1F
100
AcDbEntity
  8
SANINDUSA
100
AcDbCircle
 10
5176.247844248201
 20
2638.206421018017
 30
0.0
 40
0.2334091586002094
100
AcDbArc
 50
188.8958821119061
 51
213.5323720554919
  0
ARC
  5
14A2
330
1F
100
AcDbEntity
  8
SANINDUSA
100
AcDbCircle
 10
5176.052446904516
 20
2638.076931513746
 30
0.0
 40
0.001
100
AcDbArc
 50
269.8563290880754
 51
33.53237205549192
  0
ARC
  5
14A3
330
1F
100
AcDbEntity
  8
SANINDUSA
100
AcDbCircle
 10
5176.016254801496
 20
2638.170172130986
 30
0.0
 40
0.001
100
AcDbArc
 50
8.895882111906139
 51
180.0
  0
LINE
  5
14A4
330
1F
100
AcDbEntity
  8
SANINDUSA
100
AcDbLine
 10
5176.042705762675
 20
2638.06595640115
 30
0.0
 11
5176.040381824649
 21
2637.999407523227
 31
0.0
  0
LINE
  5
14A5
330
1F
100
AcDbEntity
  8
SANINDUSA
100
AcDbLine
 10
5176.208754801496
 20
2637.987407523227
 30
0.0
 11
5176.220254801497
 21
2637.987407523227
 31
0.0
  0
LINE
  5
14A6
330
1F
100
AcDbEntity
  8
SANINDUSA
100
AcDbLine
 10
5176.208754801496
 20
2638.023541439004
 30
0.0
 11
5176.208754801496
 21
2637.987407523227
 31
0.0
  0
LINE
  5
14A7
330
1F
100
AcDbEntity
  8
SANINDUSA
100
AcDbLine
 10
5176.208754801496
 20
2638.023541439004
 30
0.0
 11
5176.221254801497
 21
2638.034407523227
 31
0.0
  0
LWPOLYLINE
  5
14A8
330
1F
100
AcDbEntity
  8
SANINDUSA
100
AcDbPolyline
 90
       20
 70
   128
 43
0.0
 10
5176.346195256257
 20
2638.204010237908
 10
5176.345350156889
 20
2638.18839377195
 10
5176.343492156093
 20
2638.172809258712
 10
5176.340604730652
 20
2638.157370108815
 10
5176.336671357347
 20
2638.142189732878
 10
5176.331675512958
 20
2638.127381541524
 10
5176.326279507975
 20
2638.114511762795
 10
5176.319954470895
 20
2638.102026308749
 10
5176.312687900034
 20
2638.090078778065
 10
5176.304467293713
 20
2638.078822769418
 10
5176.297673434465
 20
2638.070931042485
 10
5176.29029709288
 20
2638.063536020745
 10
5176.282368105829
 20
2638.056751139724
 10
5176.273916310177
 20
2638.050689834948
 10
5176.264245229137
 20
2638.045088373641
 10
5176.254008245771
 20
2638.040530978471
 10
5176.243360353936
 20
2638.037167255067
 10
5176.236078825133
 20
2638.035646695949
 10
5176.228685880101
 20
2638.034720472717
 10
5176.221254801497
 20
2638.034407523227
  0
ARC
  5
14A9
330
1F
100
AcDbEntity
  8
SANINDUSA
100
AcDbCircle
 10
5176.351194039112
 20
2638.20389992031
 30
0.0
 40
0.005
100
AcDbArc
 50
80.23005899010243
 51
178.7357508776511
  0
ARC
  5
14AA
330
1F
100
AcDbEntity
  8
SANINDUSA
100
AcDbCircle
 10
5176.345254801497
 20
2638.169407523227
 30
0.0
 40
0.04
100
AcDbArc
 50
0.0
 51
80.23005899010243
  0
ARC
  5
14AB
330
1F
100
AcDbEntity
  8
SANINDUSA
100
AcDbCircle
 10
5165.361254801497
 20
2637.959407523227
 30
0.0
 40
11.02599999999992
100
AcDbArc
 50
358.9086848234904
 51
1.091315176509593
  0
ARC
  5
14AC
330
1F
100
AcDbEntity
  8
SANINDUSA
100
AcDbCircle
 10
5176.345254801497
 20
2637.749407523227
 30
0.0
 40
0.04
100
AcDbArc
 50
292.3316450205756
 51
0.0
  0
LINE
  5
14AD
330
1F
100
AcDbEntity
  8
SANINDUSA
100
AcDbLine
 10
5176.36045348565
 20
2637.709407523227
 30
0.0
 11
5176.36045348565
 21
2637.712407523227
 31
0.0
  0
LINE
  5
14AE
330
1F
100
AcDbEntity
  8
SANINDUSA
100
AcDbLine
 10
5176.335453485651
 20
2637.709407523227
 30
0.0
 11
5176.36045348565
 21
2637.709407523227
 31
0.0
  0
LINE
  5
14AF
330
1F
100
AcDbEntity
  8
SANINDUSA
100
AcDbLine
 10
5176.335453485651
 20
2637.709407523227
 30
0.0
 11
5176.311845921197
 21
2638.047011423616
 31
0.0
  0
LINE
  5
14B0
330
1F
100
AcDbEntity
  8
SANINDUSA
100
AcDbLine
 10
5176.286373178235
 20
2638.047213671507
 30
0.0
 11
5176.311845921506
 21
2638.047011419201
 31
0.0
  0
ARC
  5
14B1
330
1F
100
AcDbEntity
  8
SANINDUSA
100
AcDbCircle
 10
5176.345254801497
 20
2638.169407523227
 30
0.0
 40
0.0300000000000001
100
AcDbArc
 50
359.831125553382
 51
69.06764450917671
  0
LWPOLYLINE
  5
14B2
330
1F
100
AcDbEntity
  8
SANINDUSA
100
AcDbPolyline
 90
       12
 70
   128
 43
0.0
 10
5176.355972766399
 20
2638.197427609386
 10
5176.354551450465
 20
2638.180037925421
 10
5176.35192291389
 20
2638.162789961719
 10
5176.349432578676
 20
2638.15117572028
 10
5176.346360418278
 20
2638.13969424133
 10
5176.342697586329
 20
2638.128396222431
 10
5176.338044685794
 20
2638.116401675417
 10
5176.332665307692
 20
2638.104715699863
 10
5176.326433454002
 20
2638.09321241671
 10
5176.304412209273
 20
2638.058600891613
 42
0.5891110986665734
 10
5176.305247978217
 20
2638.05706412175
 10
5176.311925318502
 20
2638.057011104002
  0
LINE
  5
14B3
330
1F
100
AcDbEntity
  8
SANINDUSA
100
AcDbLine
 10
5176.344713587548
 20
2637.720337766753
 30
0.0
 11
5176.321821562009
 21
2638.047708983939
 31
0.0
  0
ARC
  5
14B4
330
1F
100
AcDbEntity
  8
SANINDUSA
100
AcDbCircle
 10
5176.345711151598
 20
2637.720407523227
 30
0.0
 40
0.001
100
AcDbArc
 50
183.9999999992485
 51
270.0
  0
ARC
  5
14B5
330
1F
100
AcDbEntity
  8
SANINDUSA
100
AcDbCircle
 10
5176.311845921506
 20
2638.047011419201
 30
0.0
 40
0.01
100
AcDbArc
 50
3.999999999248528
 51
89.54508394439512
  0
LINE
  5
14B6
330
1F
100
AcDbEntity
  8
SANINDUSA
100
AcDbLine
 10
5176.345711151598
 20
2637.719407523227
 30
0.0
 11
5176.352903651215
 21
2637.719407523227
 31
0.0
  0
ARC
  5
14B7
330
1F
100
AcDbEntity
  8
SANINDUSA
100
AcDbCircle
 10
5176.345254801497
 20
2637.749407523227
 30
0.0
 40
0.03
100
AcDbArc
 50
292.3316450205756
 51
0.1688744466180189
  0
ARC
  5
14B8
330
1F
100
AcDbEntity
  8
SANINDUSA
100
AcDbCircle
 10
5176.36045348565
 20
2637.712407523227
 30
0.0
 40
0.01
100
AcDbArc
 50
112.3316450205756
 51
133.3417582365933
  0
ARC
  5
14B9
330
1F
100
AcDbEntity
  8
SANINDUSA
100
AcDbCircle
 10
5176.352903651215
 20
2637.720407523227
 30
0.0
 40
0.001
100
AcDbArc
 50
270.0
 51
313.3417582365933
  0
ARC
  5
14BA
330
1F
100
AcDbEntity
  8
SANINDUSA
100
AcDbCircle
 10
5165.361254801497
 20
2637.959407523227
 30
0.0
 40
11.01599999999992
100
AcDbArc
 50
358.9081540108022
 51
1.091845989197739
  0
SPLINE
  5
14BB
330
1F
100
AcDbEntity
  8
SANINDUSA
100
AcDbSpline
210
0.0
220
0.0
230
1.0
 70
    28
 71
     3
 72
    38
 73
    34
 74
     0
 42
0.0000000001
 43
0.0000000001
 40
0.0
 40
0.0
 40
0.0
 40
0.0
 40
0.0625000000000001
 40
0.0625000000000001
 40
0.1250000000000001
 40
0.1250000000000001
 40
0.1875000000000001
 40
0.1875000000000001
 40
0.2500000000000001
 40
0.2500000000000001
 40
0.3125000000000001
 40
0.3125000000000001
 40
0.3750000000000002
 40
0.3750000000000002
 40
0.4375000000000002
 40
0.4375000000000002
 40
0.5000000000000002
 40
0.5000000000000002
 40
0.5625000000000002
 40
0.5625000000000002
 40
0.6250000000000001
 40
0.6250000000000001
 40
0.6875000000000001
 40
0.6875000000000001
 40
0.7500000000000001
 40
0.7500000000000001
 40
0.8125000000000001
 40
0.8125000000000001
 40
0.875
 40
0.875
 40
0.9375
 40
0.9375
 40
1.0
 40
1.0
 40
1.0
 40
1.0
 10
5176.221254801497
 20
2638.034407523227
 30
0.0
 41
1.0
 10
5176.221254801497
 20
2638.034407523227
 30
0.0
 41
1.0
 10
5176.221022742334
 20
2638.034407523227
 30
0.0
 41
1.0
 10
5176.22010340085
 20
2638.034407523227
 30
0.0
 41
1.0
 10
5176.219416141263
 20
2638.034407523227
 30
0.0
 41
1.0
 10
5176.217612788073
 20
2638.034407523227
 30
0.0
 41
1.0
 10
5176.216496739062
 20
2638.034407523227
 30
0.0
 41
1.0
 10
5176.213878676018
 20
2638.034407523227
 30
0.0
 41
1.0
 10
5176.212376726722
 20
2638.034407523227
 30
0.0
 41
1.0
 10
5176.209044564519
 20
2638.034407523227
 30
0.0
 41
1.0
 10
5176.207214434005
 20
2638.034407523227
 30
0.0
 41
1.0
 10
5176.203296225766
 20
2638.034407523227
 30
0.0
 41
1.0
 10
5176.201208244926
 20
2638.034407523227
 30
0.0
 41
1.0
 10
5176.196854565198
 20
2638.034407523227
 30
0.0
 41
1.0
 10
5176.194588973963
 20
2638.034407523227
 30
0.0
 41
1.0
 10
5176.189967132216
 20
2638.034407523227
 30
0.0
 41
1.0
 10
5176.187610995988
 20
2638.034407523227
 30
0.0
 41
1.0
 10
5176.182898607007
 20
2638.034407523227
 30
0.0
 41
1.0
 10
5176.180542470778
 20
2638.034407523227
 30
0.0
 41
1.0
 10
5176.175920629031
 20
2638.034407523227
 30
0.0
 41
1.0
 10
5176.173655037796
 20
2638.034407523227
 30
0.0
 41
1.0
 10
5176.169301358068
 20
2638.034407523227
 30
0.0
 41
1.0
 10
5176.167213377228
 20
2638.034407523227
 30
0.0
 41
1.0
 10
5176.163295168989
 20
2638.034407523227
 30
0.0
 41
1.0
 10
5176.161465038476
 20
2638.034407523227
 30
0.0
 41
1.0
 10
5176.158132876272
 20
2638.034407523227
 30
0.0
 41
1.0
 10
5176.156630926977
 20
2638.034407523227
 30
0.0
 41
1.0
 10
5176.154012863932
 20
2638.034407523227
 30
0.0
 41
1.0
 10
5176.152896814921
 20
2638.034407523227
 30
0.0
 41
1.0
 10
5176.151093461732
 20
2638.034407523227
 30
0.0
 41
1.0
 10
5176.150406202145
 20
2638.034407523227
 30
0.0
 41
1.0
 10
5176.14948686066
 20
2638.034407523227
 30
0.0
 41
1.0
 10
5176.149254801497
 20
2638.034407523227
 30
0.0
 41
1.0
 10
5176.149254801497
 20
2638.034407523227
 30
0.0
 41
1.0
  0
LINE
  5
14BC
330
1F
100
AcDbEntity
  8
SANINDUSA
100
AcDbLine
 10
5176.161754801498
 20
2638.023541439004
 30
0.0
 11
5176.208754801496
 21
2638.023541439004
 31
0.0
  0
LINE
  5
14C4
330
1F
100
AcDbEntity
  8
SANINDUSA
100
AcDbLine
 10
5176.161754801498
 20
2637.987407523227
 30
0.0
 11
5176.208754801496
 21
2637.987407523227
 31
0.0
  0
LINE
  5
14C7
330
1F
100
AcDbEntity
  8
SANINDUSA
100
AcDbLine
 10
5176.005254801498
 20
2637.984583904129
 30
0.0
 11
5176.005254801498
 21
2637.999407523227
 31
0.0
  0
ARC
  5
14C9
330
1F
100
AcDbEntity
  8
SANINDUSA
100
AcDbCircle
 10
5176.071055855262
 20
2634.45129864308
 30
0.0
 40
3.75810976434102
100
AcDbArc
 50
89.60688558436292
 51
89.96069691480929
  0
LINE
  5
14CB
330
1F
100
AcDbEntity
  8
SANINDUSA
100
AcDbLine
 10
5176.019304878225
 20
2638.209407523227
 30
0.0
 11
5176.073633800585
 21
2638.209407523227
 31
0.0
  0
ELLIPSE
  5
14CD
330
1F
100
AcDbEntity
  8
SANINDUSA
100
AcDbEllipse
 10
5176.185254801497
 20
2638.10950302205
 30
0.0
 11
0.0000000000000026
 21
0.7359555084468522
 31
0.0
210
0.0
220
0.0
230
1.0
 40
0.2679491924311232
 41
2.140716148345347
 42
2.145565273541834
  0
ARC
  5
14CE
330
1F
100
AcDbEntity
  8
SANINDUSA
100
AcDbCircle
 10
5176.036685054729
 20
2637.766317786289
 30
0.0
 40
0.0566673384522007
100
AcDbArc
 50
236.3137365590446
 51
252.0538083900048
  0
LINE
  5
14CF
330
1F
100
AcDbEntity
  8
SANINDUSA
100
AcDbLine
 10
5176.005254801498
 20
2637.984583904129
 30
0.0
 11
5176.005254801498
 21
2637.719165623782
 31
0.0
  0
LINE
  5
14D0
330
1F
100
AcDbEntity
  8
SANINDUSA
100
AcDbLine
 10
5176.03108980786
 20
2637.709407523227
 30
0.0
 11
5176.019742409165
 21
2637.709407523227
 31
0.0
  0
LINE
  5
14D5
330
1F
100
AcDbEntity
  8
SANINDUSA
100
AcDbLine
 10
5176.036827161085
 20
2637.709407523227
 30
0.0
 11
5176.03108980786
 21
2637.709407523227
 31
0.0
  0
LINE
  5
14D6
330
1F
100
AcDbEntity
  8
SANINDUSA
100
AcDbLine
 10
5176.054762387449
 20
2637.709407523227
 30
0.0
 11
5176.036827161085
 21
2637.709407523227
 31
0.0
  0
LINE
  5
14D7
330
1F
100
AcDbEntity
  8
SANINDUSA
100
AcDbLine
 10
5176.070903743165
 20
2637.709407523227
 30
0.0
 11
5176.054762387449
 21
2637.709407523227
 31
0.0
  0
LINE
  5
14D8
330
1F
100
AcDbEntity
  8
SANINDUSA
100
AcDbLine
 10
5176.070903743165
 20
2637.709407523227
 30
0.0
 11
5176.335453485651
 21
2637.709407523227
 31
0.0
  0
LWPOLYLINE
  5
17CF
330
1F
100
AcDbEntity
  8
SANINDUSA
100
AcDbPolyline
 90
       34
 70
   128
 43
0.0
 10
5175.695387194176
 20
2638.209005695526
 10
5175.701974033983
 20
2638.209005845228
 10
5175.709102657087
 20
2638.209007418449
 10
5175.716198120619
 20
2638.209010454393
 10
5175.723244233017
 20
2638.209015000803
 10
5175.730225204154
 20
2638.209021101103
 10
5175.737125832853
 20
2638.209028790825
 10
5175.743933498726
 20
2638.209037264121
 10
5175.750654827107
 20
2638.209045840376
 10
5175.757322757334
 20
2638.209054479158
 10
5175.763917904887
 20
2638.209063071776
 10
5175.770420285224
 20
2638.209071505234
 10
5175.776809285093
 20
2638.209079662904
 10
5175.78306393171
 20
2638.209087425715
 10
5175.789163188993
 20
2638.209094673527
 10
5175.795086271249
 20
2638.209101286606
 10
5175.800810248341
 20
2638.20910714453
 10
5175.806316068965
 20
2638.209112134261
 10
5175.811586018579
 20
2638.209116148042
 10
5175.816603878593
 20
2638.209119084474
 10
5175.821360806679
 20
2638.209120904069
 10
5175.82588804861
 20
2638.209121691105
 10
5175.830198862354
 20
2638.209121464142
 10
5175.834274334103
 20
2638.209120232772
 10
5175.838101090416
 20
2638.209118012111
 10
5175.841666409499
 20
2638.209114821449
 10
5175.844958443605
 20
2638.209110684151
 10
5175.847966324123
 20
2638.209105627547
 10
5175.850679685228
 20
2638.20909968426
 10
5175.85309078136
 20
2638.209092887757
 10
5175.855193430504
 20
2638.209085271875
 10
5175.856983187605
 20
2638.209076867211
 10
5175.858457707017
 20
2638.209067691852
 10
5175.858580915367
 20
2638.209066977504
  0
LWPOLYLINE
  5
17D0
330
1F
100
AcDbEntity
  8
SANINDUSA
100
AcDbPolyline
 90
        6
 70
   128
 43
0.0
 10
5175.630472375786
 20
2638.209243830553
 10
5175.636756576442
 20
2638.209207609955
 10
5175.643591353304
 20
2638.209168862806
 10
5175.650531135068
 20
2638.209131338656
 10
5175.657529483029
 20
2638.209096458369
 10
5175.661260185312
 20
2638.20908002522
  0
LWPOLYLINE
  5
17D1
330
1F
100
AcDbEntity
  8
SANINDUSA
100
AcDbPolyline
 90
        7
 70
   128
 43
0.0
 10
5175.661257436722
 20
2638.209080476206
 10
5175.663332595843
 20
2638.209071049224
 10
5175.670394645563
 20
2638.209043833321
 10
5175.677502071045
 20
2638.209022388013
 10
5175.684624464523
 20
2638.209008484276
 10
5175.691682090484
 20
2638.209002684782
 10
5175.695387194176
 20
2638.209005695526
  0
LINE
  5
17D4
330
1F
100
AcDbEntity
  8
SANINDUSA
100
AcDbLine
 10
5175.513387286183
 20
2637.74886857802
 30
0.0
 11
5175.513387286183
 21
2638.169946468434
 31
0.0
  0
ARC
  5
17D7
330
1F
100
AcDbEntity
  8
SANINDUSA
100
AcDbCircle
 10
5164.812706997612
 20
2637.959407523227
 30
0.0
 40
11.08266186224861
100
AcDbArc
 50
358.911478227926
 51
1.088521772074
  0
ARC
  5
17D9
330
1F
100
AcDbEntity
  8
SANINDUSA
100
AcDbCircle
 10
5175.8533724908
 20
2638.169407523227
 30
0.0
 40
0.0400000000000003
100
AcDbArc
 50
0.7720055009116678
 51
82.51823694742318
  0
ARC
  5
17DB
330
1F
100
AcDbEntity
  8
SANINDUSA
100
AcDbCircle
 10
5175.8533724908
 20
2637.749407523227
 30
0.0
 40
0.0400000000000001
100
AcDbArc
 50
292.3316450205756
 51
359.2279944990883
  0
LINE
  5
17DD
330
1F
100
AcDbEntity
  8
SANINDUSA
100
AcDbLine
 10
5175.695387286182
 20
2637.712407523227
 30
0.0
 11
5175.868571174954
 21
2637.712407523227
 31
0.0
  0
LINE
  5
17DE
330
1F
100
AcDbEntity
  8
SANINDUSA
100
AcDbLine
 10
5175.513387286183
 20
2637.74886857802
 30
0.0
 11
5175.513387286183
 21
2637.720083411853
 31
0.0
  0
LINE
  5
17DF
330
1F
100
AcDbEntity
  8
SANINDUSA
100
AcDbLine
 10
5175.528662348465
 20
2637.712407523227
 30
0.0
 11
5175.695387286182
 21
2637.712407523227
 31
0.0
  0
LINE
  5
17E0
330
1F
100
AcDbEntity
  8
SANINDUSA
100
AcDbLine
 10
5175.589015722454
 20
2638.209407523227
 30
0.0
 11
5175.513387286183
 21
2638.209407523227
 31
0.0
  0
LINE
  5
17E1
330
1F
100
AcDbEntity
  8
SANINDUSA
100
AcDbLine
 10
5175.513387286183
 20
2638.209407523227
 30
0.0
 11
5175.513387286183
 21
2638.169946468434
 31
0.0
  0
LWPOLYLINE
  5
17E2
330
1F
100
AcDbEntity
  8
SANINDUSA
100
AcDbPolyline
 90
        5
 70
   128
 43
0.0
 10
5175.589015722454
 20
2638.209407523227
 10
5175.599858650567
 20
2638.209387999866
 10
5175.611474930342
 20
2638.209336304618
 10
5175.623987494165
 20
2638.209261501901
 10
5175.630472375786
 20
2638.209243830553
  0
ELLIPSE
  5
17E4
330
1F
100
AcDbEntity
  8
SANINDUSA
100
AcDbEllipse
 10
5175.695387286182
 20
2638.10950302205
 30
0.0
 11
-0.0000000000000008
 21
0.7381395218142626
 31
0.0
210
0.0
220
0.0
230
-1.0
 40
0.2679491924311232
 41
4.13953531860038
 42
4.144364177693077
  0
LINE
  5
17E5
330
1F
100
AcDbEntity
  8
SANINDUSA
100
AcDbLine
 10
5175.529178087757
 20
2637.709407523227
 30
0.0
 11
5175.695387286182
 21
2637.709407523227
 31
0.0
  0
LINE
  5
17E6
330
1F
100
AcDbEntity
  8
SANINDUSA
100
AcDbLine
 10
5175.868571174954
 20
2637.712407523227
 30
0.0
 11
5175.868571174954
 21
2637.709407523227
 31
0.0
  0
LINE
  5
17E7
330
1F
100
AcDbEntity
  8
SANINDUSA
100
AcDbLine
 10
5175.695387286182
 20
2637.709407523227
 30
0.0
 11
5175.868571174954
 21
2637.709407523227
 31
0.0
  0
ARC
  5
17EF
330
1F
100
AcDbEntity
  8
SANINDUSA
100
AcDbCircle
 10
5175.538570268135
 20
2637.751161015041
 30
0.0
 40
0.04
100
AcDbArc
 50
230.9812595007055
 51
255.6586670991851
  0
ENDSEC
  0
SECTION
  2
OBJECTS
  0
DICTIONARY
  5
C
330
0
100
AcDbDictionary
281
     1
  3
ACAD_2007HEADERVARS_RT
350
1E35
  3
ACAD_COLOR
350
EE6
  3
ACAD_GROUP
350
D
  3
ACAD_LAYOUT
350
1A
  3
ACAD_MATERIAL
350
EE5
  3
ACAD_MLEADERSTYLE
350
10A8
  3
ACAD_MLINESTYLE
350
17
  3
ACAD_PLOTSETTINGS
350
19
  3
ACAD_PLOTSTYLENAME
350
E
  3
ACAD_SCALELIST
350
1096
  3
ACAD_TABLESTYLE
350
EE7
  3
ACAD_VISUALSTYLE
350
1082
  3
ACDB_RECOMPOSE_DATA
350
1E33
  3
AcDbVariableDictionary
350
3D
  3
AEC_PROPERTY_SET_DEFS
350
13BC
  3
ASE_INDEX_DICTIONARY
350
1066
  3
Autodesk_PNP
350
10B2
  3
DWGPROPS
350
1E34
  0
DICTIONARY
  5
1051
330
2
100
AcDbDictionary
280
     1
281
     1
  3
ACAD_LAYERFILTERS
360
1065
  3
ACLYDICTIONARY
360
1064
  0
DICTIONARY
  5
1DC4
330
10
100
AcDbDictionary
280
     1
281
     1
  3
ADSK_XREC_LAYER_RECONCILED
360
1DC5
  0
DICTIONARY
  5
1DC6
330
2F
100
AcDbDictionary
280
     1
281
     1
  3
ADSK_XREC_LAYER_RECONCILED
360
1DC7
  0
DICTIONARY
  5
1DC8
330
30
100
AcDbDictionary
280
     1
281
     1
  3
ADSK_XREC_LAYER_RECONCILED
360
1DC9
  0
DICTIONARY
  5
1DCA
330
31
100
AcDbDictionary
280
     1
281
     1
  3
ADSK_XREC_LAYER_RECONCILED
360
1DCB
  0
DICTIONARY
  5
1DCC
330
32
100
AcDbDictionary
280
     1
281
     1
  3
ADSK_XREC_LAYER_RECONCILED
360
1DCD
  0
DICTIONARY
  5
1DCE
330
33
100
AcDbDictionary
280
     1
281
     1
  3
ADSK_XREC_LAYER_RECONCILED
360
1DCF
  0
DICTIONARY
  5
1DD0
330
34
100
AcDbDictionary
280
     1
281
     1
  3
ADSK_XREC_LAYER_RECONCILED
360
1DD1
  0
DICTIONARY
  5
1DD2
330
35
100
AcDbDictionary
280
     1
281
     1
  3
ADSK_XREC_LAYER_RECONCILED
360
1DD3
  0
DICTIONARY
  5
1DD4
330
36
100
AcDbDictionary
280
     1
281
     1
  3
ADSK_XREC_LAYER_RECONCILED
360
1DD5
  0
DICTIONARY
  5
1DD6
330
37
100
AcDbDictionary
280
     1
281
     1
  3
ADSK_XREC_LAYER_RECONCILED
360
1DD7
  0
DICTIONARY
  5
1DD8
330
5D6
100
AcDbDictionary
280
     1
281
     1
  3
ADSK_XREC_LAYER_RECONCILED
360
1DD9
  0
DICTIONARY
  5
1DDA
330
8AF
100
AcDbDictionary
280
     1
281
     1
  3
ADSK_XREC_LAYER_RECONCILED
360
1DDB
  0
DICTIONARY
  5
1DDC
330
8F8
100
AcDbDictionary
280
     1
281
     1
  3
ADSK_XREC_LAYER_RECONCILED
360
1DDD
  0
DICTIONARY
  5
1DDE
330
91D
100
AcDbDictionary
280
     1
281
     1
  3
ADSK_XREC_LAYER_RECONCILED
360
1DDF
  0
DICTIONARY
  5
1DE0
330
C7B
100
AcDbDictionary
280
     1
281
     1
  3
ADSK_XREC_LAYER_RECONCILED
360
1DE1
  0
DICTIONARY
  5
1DE2
330
1060
100
AcDbDictionary
280
     1
281
     1
  3
ADSK_XREC_LAYER_RECONCILED
360
1DE3
  0
DICTIONARY
  5
1E68
330
110A
100
AcDbDictionary
280
     1
281
     1
  3
ACAD_MTEXT_RT
360
1E69
  0
DICTIONARY
  5
1E6A
330
113A
100
AcDbDictionary
280
     1
281
     1
  3
ACAD_MTEXT_RT
360
1E6B
  0
DICTIONARY
  5
1E6C
330
114E
100
AcDbDictionary
280
     1
281
     1
  3
ACAD_MTEXT_RT
360
1E6D
  0
DICTIONARY
  5
1E6E
330
115A
100
AcDbDictionary
280
     1
281
     1
  3
ACAD_MTEXT_RT
360
1E6F
  0
DICTIONARY
  5
1E70
330
1AB7
100
AcDbDictionary
280
     1
281
     1
  3
ACAD_MTEXT_RT
360
1E71
  0
DICTIONARY
  5
1E35
102
{ACAD_REACTORS
330
C
102
}
330
C
100
AcDbDictionary
281
     1
  3
DIMJOGANG
350
1E36
  0
DICTIONARY
  5
EE6
102
{ACAD_REACTORS
330
C
102
}
330
C
100
AcDbDictionary
281
     1
  0
DICTIONARY
  5
D
102
{ACAD_REACTORS
330
C
102
}
330
C
100
AcDbDictionary
281
     1
  0
DICTIONARY
  5
1A
102
{ACAD_REACTORS
330
C
102
}
330
C
100
AcDbDictionary
281
     1
  3
Layout1
350
1E
  3
Layout2
350
26
  3
Model
350
22
  0
DICTIONARY
  5
EE5
102
{ACAD_REACTORS
330
C
102
}
330
C
100
AcDbDictionary
281
     1
  3
ByBlock
350
1072
  3
ByLayer
350
106A
  3
Global
350
107A
  0
DICTIONARY
  5
10A8
102
{ACAD_REACTORS
330
C
102
}
330
C
100
AcDbDictionary
281
     1
  3
Standard
350
10A9
  0
DICTIONARY
  5
17
102
{ACAD_REACTORS
330
C
102
}
330
C
100
AcDbDictionary
281
     1
  3
Standard
350
18
  0
DICTIONARY
  5
19
102
{ACAD_REACTORS
330
C
102
}
330
C
100
AcDbDictionary
281
     1
  0
ACDBDICTIONARYWDFLT
  5
E
102
{ACAD_REACTORS
330
C
102
}
330
C
100
AcDbDictionary
281
     1
  3
Normal
350
F
100
AcDbDictionaryWithDefault
340
F
  0
DICTIONARY
  5
1096
102
{ACAD_REACTORS
330
C
102
}
330
C
100
AcDbDictionary
281
     1
  3
A0
350
1097
  3
A1
350
1098
  3
A2
350
1099
  3
A3
350
109A
  3
A4
350
109B
  3
A5
350
109C
  3
A6
350
109D
  3
A7
350
109E
  3
A8
350
109F
  3
A9
350
10A0
  3
B0
350
10A1
  3
B1
350
10A2
  3
B2
350
10A3
  3
B3
350
10A4
  3
B4
350
10A5
  3
B5
350
10A6
  3
B6
350
10A7
  0
DICTIONARY
  5
EE7
102
{ACAD_REACTORS
330
C
102
}
330
C
100
AcDbDictionary
281
     1
  3
Standard
350
EE8
  0
DICTIONARY
  5
1082
102
{ACAD_REACTORS
330
C
102
}
330
C
100
AcDbDictionary
281
     1
  3
2dWireframe
350
1088
  3
3D Hidden
350
108A
  3
3dWireframe
350
1089
  3
Basic
350
1087
  3
Brighten
350
108E
  3
ColorChange
350
1092
  3
Conceptual
350
108B
  3
Dim
350
108D
  3
EdgeColorOff
350
1095
  3
Facepattern
350
1091
  3
Flat
350
1083
  3
FlatWithEdges
350
1084
  3
Gouraud
350
1085
  3
GouraudWithEdges
350
1086
  3
JitterOff
350
1093
  3
Linepattern
350
1090
  3
OverhangOff
350
1094
  3
Realistic
350
108C
  3
Thicken
350
108F
  0
XRECORD
  5
1E33
102
{ACAD_REACTORS
330
C
102
}
330
C
100
AcDbXrecord
280
     1
 90
        1
330
EE8
  0
DICTIONARY
  5
3D
102
{ACAD_REACTORS
330
C
102
}
330
C
100
AcDbDictionary
281
     1
  3
CANNOSCALE
350
1E2D
  3
CMLEADERSTYLE
350
1E2C
  3
CTABLESTYLE
350
1049
  3
DIMASSOC
350
3F
  3
HIDETEXT
350
3E
  3
INDEXCTL
350
1E2F
  3
SORTENTS
350
1E2E
  3
XCLIPFRAME
350
1E30
  0
DICTIONARY
  5
13BC
102
{ACAD_REACTORS
330
C
102
}
330
C
100
AcDbDictionary
281
     1
  0
DICTIONARY
  5
1066
102
{ACAD_REACTORS
330
C
102
}
330
C
100
AcDbDictionary
281
     1
  3
ASEBlockHierarchyIndexRecord
350
1067
1001
DCO15
1040
1602247867.484
  0
DICTIONARY
  5
10B2
102
{ACAD_REACTORS
330
C
102
}
330
C
100
AcDbDictionary
281
     1
  0
XRECORD
  5
1E34
102
{ACAD_REACTORS
330
C
102
}
330
C
100
AcDbXrecord
280
     1
  1
DWGPROPS COOKIE
  2

  3

  4

  6

  7

  8
Julio
  9

300
=
301
=
302
=
303
=
304
=
305
=
306
=
307
=
308
=
309
=
 40
0.0056164930555556
 41
2455296.504750069
 42
2455296.510366389
  1

 90
        0
  0
DICTIONARY
  5
1065
102
{ACAD_REACTORS
330
1051
102
}
330
1051
100
AcDbDictionary
281
     1
  0
DICTIONARY
  5
1064
102
{ACAD_REACTORS
330
1051
102
}
330
1051
100
AcDbDictionary
281
     1
1001
ACAD
1000
<All
  0
XRECORD
  5
1DC5
102
{ACAD_REACTORS
330
1DC4
102
}
330
1DC4
100
AcDbXrecord
280
     1
290
     1
  0
XRECORD
  5
1DC7
102
{ACAD_REACTORS
330
1DC6
102
}
330
1DC6
100
AcDbXrecord
280
     1
290
     1
  0
XRECORD
  5
1DC9
102
{ACAD_REACTORS
330
1DC8
102
}
330
1DC8
100
AcDbXrecord
280
     1
290
     1
  0
XRECORD
  5
1DCB
102
{ACAD_REACTORS
330
1DCA
102
}
330
1DCA
100
AcDbXrecord
280
     1
290
     1
  0
XRECORD
  5
1DCD
102
{ACAD_REACTORS
330
1DCC
102
}
330
1DCC
100
AcDbXrecord
280
     1
290
     1
  0
XRECORD
  5
1DCF
102
{ACAD_REACTORS
330
1DCE
102
}
330
1DCE
100
AcDbXrecord
280
     1
290
     1
  0
XRECORD
  5
1DD1
102
{ACAD_REACTORS
330
1DD0
102
}
330
1DD0
100
AcDbXrecord
280
     1
290
     1
  0
XRECORD
  5
1DD3
102
{ACAD_REACTORS
330
1DD2
102
}
330
1DD2
100
AcDbXrecord
280
     1
290
     1
  0
XRECORD
  5
1DD5
102
{ACAD_REACTORS
330
1DD4
102
}
330
1DD4
100
AcDbXrecord
280
     1
290
     1
  0
XRECORD
  5
1DD7
102
{ACAD_REACTORS
330
1DD6
102
}
330
1DD6
100
AcDbXrecord
280
     1
290
     1
  0
XRECORD
  5
1DD9
102
{ACAD_REACTORS
330
1DD8
102
}
330
1DD8
100
AcDbXrecord
280
     1
290
     1
  0
XRECORD
  5
1DDB
102
{ACAD_REACTORS
330
1DDA
102
}
330
1DDA
100
AcDbXrecord
280
     1
290
     1
  0
XRECORD
  5
1DDD
102
{ACAD_REACTORS
330
1DDC
102
}
330
1DDC
100
AcDbXrecord
280
     1
290
     1
  0
XRECORD
  5
1DDF
102
{ACAD_REACTORS
330
1DDE
102
}
330
1DDE
100
AcDbXrecord
280
     1
290
     1
  0
XRECORD
  5
1DE1
102
{ACAD_REACTORS
330
1DE0
102
}
330
1DE0
100
AcDbXrecord
280
     1
290
     1
  0
XRECORD
  5
1DE3
102
{ACAD_REACTORS
330
1DE2
102
}
330
1DE2
100
AcDbXrecord
280
     1
290
     1
  0
XRECORD
  5
1E69
102
{ACAD_REACTORS
330
1E68
102
}
330
1E68
100
AcDbXrecord
280
     1
 40
2507.0
  1
ø70
  0
XRECORD
  5
1E6B
102
{ACAD_REACTORS
330
1E6A
102
}
330
1E6A
100
AcDbXrecord
280
     1
 40
3768.0
  1
98,0°
  0
XRECORD
  5
1E6D
102
{ACAD_REACTORS
330
1E6C
102
}
330
1E6C
100
AcDbXrecord
280
     1
 40
3763.0
  1
86,0°
  0
XRECORD
  5
1E6F
102
{ACAD_REACTORS
330
1E6E
102
}
330
1E6E
100
AcDbXrecord
280
     1
 40
3767.0
  1
88,0°
  0
XRECORD
  5
1E71
102
{ACAD_REACTORS
330
1E70
102
}
330
1E70
100
AcDbXrecord
280
     1
 40
2507.0
  1
ø70
  0
XRECORD
  5
1E36
102
{ACAD_REACTORS
330
1E35
102
}
330
1E35
100
AcDbXrecord
280
     1
 40
1.570796326794896
  0
LAYOUT
  5
1E
102
{ACAD_XDICTIONARY
360
1E37
102
}
102
{ACAD_REACTORS
330
1A
102
}
330
1A
100
AcDbPlotSettings
  1

  2
Ploter HP500
  4

  6

 40
0.0
 41
0.0
 42
0.0
 43
0.0
 44
0.0
 45
0.0
 46
0.0
 47
0.0
 48
0.0
 49
0.0
140
0.0
141
0.0
142
1.0
143
1.0
 70
   688
 72
     0
 73
     0
 74
     5
  7
sanindusa.ctb
 75
    16
147
1.0
148
0.0
149
0.0
100
AcDbLayout
  1
Layout1
 70
     1
 71
     1
 10
0.0
 20
0.0
 11
420.0
 21
297.0
 12
0.0
 22
0.0
 32
0.0
 14
1.000000000000000E+20
 24
1.000000000000000E+20
 34
1.000000000000000E+20
 15
-1.000000000000000E+20
 25
-1.000000000000000E+20
 35
-1.000000000000000E+20
146
0.0
 13
0.0
 23
0.0
 33
0.0
 16
1.0
 26
0.0
 36
0.0
 17
0.0
 27
1.0
 37
0.0
 76
     0
330
1B
  0
LAYOUT
  5
26
102
{ACAD_XDICTIONARY
360
1E3B
102
}
102
{ACAD_REACTORS
330
1A
102
}
330
1A
100
AcDbPlotSettings
  1

  2
Ploter HP500
  4

  6

 40
0.0
 41
0.0
 42
0.0
 43
0.0
 44
0.0
 45
0.0
 46
0.0
 47
0.0
 48
0.0
 49
0.0
140
0.0
141
0.0
142
1.0
143
1.0
 70
   688
 72
     0
 73
     0
 74
     5
  7
sanindusa.ctb
 75
    16
147
1.0
148
0.0
149
0.0
100
AcDbLayout
  1
Layout2
 70
     1
 71
     2
 10
0.0
 20
0.0
 11
12.0
 21
9.0
 12
0.0
 22
0.0
 32
0.0
 14
0.0
 24
0.0
 34
0.0
 15
0.0
 25
0.0
 35
0.0
146
0.0
 13
0.0
 23
0.0
 33
0.0
 16
1.0
 26
0.0
 36
0.0
 17
0.0
 27
1.0
 37
0.0
 76
     0
330
23
  0
LAYOUT
  5
22
102
{ACAD_XDICTIONARY
360
1E39
102
}
102
{ACAD_REACTORS
330
1A
102
}
330
1A
100
AcDbPlotSettings
  1

  2
Ploter HP500
  4
User268
  6

 40
4.995333194732666
 41
16.97565841674804
 42
4.995330810546875
 43
16.97567749023437
 44
209.9733276367187
 45
296.9259948730469
 46
0.0
 47
0.0
 48
0.0
 49
0.0
140
0.0
141
0.0
142
1.0
143
1.0
 70
 11952
 72
     1
 73
     1
 74
     0
  7
sanindusa.ctb
 75
     0
147
1.0
148
-427.5957866592534
149
7.362384574453926
100
AcDbLayout
  1
Model
 70
     1
 71
     0
 10
0.0
 20
0.0
 11
12.0
 21
9.0
 12
0.0
 22
0.0
 32
0.0
 14
0.0
 24
0.0
 34
0.0
 15
0.0
 25
0.0
 35
0.0
146
0.0
 13
0.0
 23
0.0
 33
0.0
 16
1.0
 26
0.0
 36
0.0
 17
0.0
 27
1.0
 37
0.0
 76
     0
330
1F
331
1068
  0
MATERIAL
  5
1072
102
{ACAD_XDICTIONARY
360
1073
102
}
102
{ACAD_REACTORS
330
EE5
102
}
330
EE5
100
AcDbMaterial
  1
ByBlock
 72
     0
 43
0.0008202099737533
 43
0.0
 43
0.0
 43
0.0
 43
0.0
 43
0.0008202099737533
 43
0.0
 43
0.0
 43
0.0
 43
0.0
 43
1.0
 43
0.0
 43
0.0
 43
0.0
 43
0.0
 43
1.0
 77
     0
 47
0.0008202099737533
 47
0.0
 47
0.0
 47
0.0
 47
0.0
 47
0.0008202099737533
 47
0.0
 47
0.0
 47
0.0
 47
0.0
 47
1.0
 47
0.0
 47
0.0
 47
0.0
 47
0.0
 47
1.0
171
     0
 49
0.0008202099737533
 49
0.0
 49
0.0
 49
0.0
 49
0.0
 49
0.0008202099737533
 49
0.0
 49
0.0
 49
0.0
 49
0.0
 49
1.0
 49
0.0
 49
0.0
 49
0.0
 49
0.0
 49
1.0
175
     0
142
0.0008202099737533
142
0.0
142
0.0
142
0.0
142
0.0
142
0.0008202099737533
142
0.0
142
0.0
142
0.0
142
0.0
142
1.0
142
0.0
142
0.0
142
0.0
142
0.0
142
1.0
179
     0
144
0.0008202099737533
144
0.0
144
0.0
144
0.0
144
0.0
144
0.0008202099737533
144
0.0
144
0.0
144
0.0
144
0.0
144
1.0
144
0.0
144
0.0
144
0.0
144
0.0
144
1.0
147
0.0008202099737533
147
0.0
147
0.0
147
0.0
147
0.0
147
0.0008202099737533
147
0.0
147
0.0
147
0.0
147
0.0
147
1.0
147
0.0
147
0.0
147
0.0
147
0.0
147
1.0
  0
MATERIAL
  5
106A
102
{ACAD_XDICTIONARY
360
106B
102
}
102
{ACAD_REACTORS
330
EE5
102
}
330
EE5
100
AcDbMaterial
  1
ByLayer
 72
     0
 43
0.0008202099737533
 43
0.0
 43
0.0
 43
0.0
 43
0.0
 43
0.0008202099737533
 43
0.0
 43
0.0
 43
0.0
 43
0.0
 43
1.0
 43
0.0
 43
0.0
 43
0.0
 43
0.0
 43
1.0
 77
     0
 47
0.0008202099737533
 47
0.0
 47
0.0
 47
0.0
 47
0.0
 47
0.0008202099737533
 47
0.0
 47
0.0
 47
0.0
 47
0.0
 47
1.0
 47
0.0
 47
0.0
 47
0.0
 47
0.0
 47
1.0
171
     0
 49
0.0008202099737533
 49
0.0
 49
0.0
 49
0.0
 49
0.0
 49
0.0008202099737533
 49
0.0
 49
0.0
 49
0.0
 49
0.0
 49
1.0
 49
0.0
 49
0.0
 49
0.0
 49
0.0
 49
1.0
175
     0
142
0.0008202099737533
142
0.0
142
0.0
142
0.0
142
0.0
142
0.0008202099737533
142
0.0
142
0.0
142
0.0
142
0.0
142
1.0
142
0.0
142
0.0
142
0.0
142
0.0
142
1.0
179
     0
144
0.0008202099737533
144
0.0
144
0.0
144
0.0
144
0.0
144
0.0008202099737533
144
0.0
144
0.0
144
0.0
144
0.0
144
1.0
144
0.0
144
0.0
144
0.0
144
0.0
144
1.0
147
0.0008202099737533
147
0.0
147
0.0
147
0.0
147
0.0
147
0.0008202099737533
147
0.0
147
0.0
147
0.0
147
0.0
147
1.0
147
0.0
147
0.0
147
0.0
147
0.0
147
1.0
  0
MATERIAL
  5
107A
102
{ACAD_XDICTIONARY
360
107B
102
}
102
{ACAD_REACTORS
330
EE5
102
}
330
EE5
100
AcDbMaterial
  1
Global
 72
     0
 43
0.0008202099737533
 43
0.0
 43
0.0
 43
0.0
 43
0.0
 43
0.0008202099737533
 43
0.0
 43
0.0
 43
0.0
 43
0.0
 43
1.0
 43
0.0
 43
0.0
 43
0.0
 43
0.0
 43
1.0
 77
     0
 47
0.0008202099737533
 47
0.0
 47
0.0
 47
0.0
 47
0.0
 47
0.0008202099737533
 47
0.0
 47
0.0
 47
0.0
 47
0.0
 47
1.0
 47
0.0
 47
0.0
 47
0.0
 47
0.0
 47
1.0
171
     0
 49
0.0008202099737533
 49
0.0
 49
0.0
 49
0.0
 49
0.0
 49
0.0008202099737533
 49
0.0
 49
0.0
 49
0.0
 49
0.0
 49
1.0
 49
0.0
 49
0.0
 49
0.0
 49
0.0
 49
1.0
175
     0
142
0.0008202099737533
142
0.0
142
0.0
142
0.0
142
0.0
142
0.0008202099737533
142
0.0
142
0.0
142
0.0
142
0.0
142
1.0
142
0.0
142
0.0
142
0.0
142
0.0
142
1.0
179
     0
144
0.0008202099737533
144
0.0
144
0.0
144
0.0
144
0.0
144
0.0008202099737533
144
0.0
144
0.0
144
0.0
144
0.0
144
1.0
144
0.0
144
0.0
144
0.0
144
0.0
144
1.0
147
0.0008202099737533
147
0.0
147
0.0
147
0.0
147
0.0
147
0.0008202099737533
147
0.0
147
0.0
147
0.0
147
0.0
147
1.0
147
0.0
147
0.0
147
0.0
147
0.0
147
1.0
  0
MLEADERSTYLE
  5
10A9
102
{ACAD_REACTORS
330
10A8
102
}
330
10A8
100
AcDbMLeaderStyle
170
     2
171
     1
172
     0
 90
        2
 40
0.0
 41
0.0
173
     1
 91
-1056964608
340
14
 92
       -2
290
     1
 42
2.0
291
     1
 43
0.36
  3
Standard
 44
4.0
300

342
11
174
     1
178
     6
175
     1
176
     0
 93
-1056964608
 45
4.0
292
     0
297
     0
 46
4.0
 94
-1056964608
 47
1.0
 49
1.0
140
1.0
293
     1
141
0.0
294
     1
177
     0
142
1.0
295
     0
296
     0
143
0.125
1001
ACAD_MLEADERVER
1070
     2
  0
MLINESTYLE
  5
18
102
{ACAD_REACTORS
330
17
102
}
330
17
100
AcDbMlineStyle
  2
STANDARD
 70
     0
  3

 62
   256
 51
90.0
 52
90.0
 71
     2
 49
0.5
 62
   256
  6
BYLAYER
 49
-0.5
 62
   256
  6
BYLAYER
  0
ACDBPLACEHOLDER
  5
F
102
{ACAD_REACTORS
330
E
102
}
330
E
  0
SCALE
  5
1097
102
{ACAD_REACTORS
330
1096
102
}
330
1096
100
AcDbScale
 70
     0
300
1:1
140
1.0
141
1.0
290
     1
  0
SCALE
  5
1098
102
{ACAD_REACTORS
330
1096
102
}
330
1096
100
AcDbScale
 70
     0
300
1:2
140
1.0
141
2.0
290
     0
  0
SCALE
  5
1099
102
{ACAD_REACTORS
330
1096
102
}
330
1096
100
AcDbScale
 70
     0
300
1:4
140
1.0
141
4.0
290
     0
  0
SCALE
  5
109A
102
{ACAD_REACTORS
330
1096
102
}
330
1096
100
AcDbScale
 70
     0
300
1:5
140
1.0
141
5.0
290
     0
  0
SCALE
  5
109B
102
{ACAD_REACTORS
330
1096
102
}
330
1096
100
AcDbScale
 70
     0
300
1:8
140
1.0
141
8.0
290
     0
  0
SCALE
  5
109C
102
{ACAD_REACTORS
330
1096
102
}
330
1096
100
AcDbScale
 70
     0
300
1:10
140
1.0
141
10.0
290
     0
  0
SCALE
  5
109D
102
{ACAD_REACTORS
330
1096
102
}
330
1096
100
AcDbScale
 70
     0
300
1:16
140
1.0
141
16.0
290
     0
  0
SCALE
  5
109E
102
{ACAD_REACTORS
330
1096
102
}
330
1096
100
AcDbScale
 70
     0
300
1:20
140
1.0
141
20.0
290
     0
  0
SCALE
  5
109F
102
{ACAD_REACTORS
330
1096
102
}
330
1096
100
AcDbScale
 70
     0
300
1:30
140
1.0
141
30.0
290
     0
  0
SCALE
  5
10A0
102
{ACAD_REACTORS
330
1096
102
}
330
1096
100
AcDbScale
 70
     0
300
1:40
140
1.0
141
40.0
290
     0
  0
SCALE
  5
10A1
102
{ACAD_REACTORS
330
1096
102
}
330
1096
100
AcDbScale
 70
     0
300
1:50
140
1.0
141
50.0
290
     0
  0
SCALE
  5
10A2
102
{ACAD_REACTORS
330
1096
102
}
330
1096
100
AcDbScale
 70
     0
300
1:100
140
1.0
141
100.0
290
     0
  0
SCALE
  5
10A3
102
{ACAD_REACTORS
330
1096
102
}
330
1096
100
AcDbScale
 70
     0
300
2:1
140
2.0
141
1.0
290
     0
  0
SCALE
  5
10A4
102
{ACAD_REACTORS
330
1096
102
}
330
1096
100
AcDbScale
 70
     0
300
4:1
140
4.0
141
1.0
290
     0
  0
SCALE
  5
10A5
102
{ACAD_REACTORS
330
1096
102
}
330
1096
100
AcDbScale
 70
     0
300
8:1
140
8.0
141
1.0
290
     0
  0
SCALE
  5
10A6
102
{ACAD_REACTORS
330
1096
102
}
330
1096
100
AcDbScale
 70
     0
300
10:1
140
10.0
141
1.0
290
     0
  0
SCALE
  5
10A7
102
{ACAD_REACTORS
330
1096
102
}
330
1096
100
AcDbScale
 70
     0
300
100:1
140
100.0
141
1.0
290
     0
  0
TABLESTYLE
  5
EE8
102
{ACAD_XDICTIONARY
360
1E31
102
}
102
{ACAD_REACTORS
330
EE7
102
}
330
EE7
100
AcDbTableStyle
  3
Standard
 70
     0
 71
     0
 40
1.5
 41
1.5
280
     0
281
     0
  7
Standard
140
4.5
170
     2
 62
     0
 63
     7
283
     0
274
    -2
284
     1
 64
     0
275
    -2
285
     1
 65
     0
276
    -2
286
     1
 66
     0
277
    -2
287
     1
 67
     0
278
    -2
288
     1
 68
     0
279
    -2
289
     1
 69
     0
  7
Standard
140
6.0
170
     5
 62
     0
 63
     7
283
     0
274
    -2
284
     1
 64
     0
275
    -2
285
     1
 65
     0
276
    -2
286
     1
 66
     0
277
    -2
287
     1
 67
     0
278
    -2
288
     1
 68
     0
279
    -2
289
     1
 69
     0
  7
Standard
140
4.5
170
     5
 62
     0
 63
     7
283
     0
274
    -2
284
     1
 64
     0
275
    -2
285
     1
 65
     0
276
    -2
286
     1
 66
     0
277
    -2
287
     1
 67
     0
278
    -2
288
     1
 68
     0
279
    -2
289
     1
 69
     0
  0
VISUALSTYLE
  5
1088
102
{ACAD_XDICTIONARY
360
1E4B
102
}
102
{ACAD_REACTORS
330
1082
102
}
330
1082
100
AcDbVisualStyle
  2
2dWireframe
 70
     4
 71
     0
 72
     2
 73
     0
 90
        0
 40
-0.6
 41
-30.0
 62
     5
 63
     7
 74
     1
 91
        4
 64
     7
 65
   257
 75
     1
175
     1
 42
1.0
 92
        0
 66
   257
 43
1.0
 76
     1
 77
     6
 78
     2
 67
     7
 79
     5
170
     0
171
     0
290
     0
174
     0
 93
        1
 44
0.0
173
     0
291
     0
 45
0.0
1001
ACAD
1000
AcDbSavedByObjectVersion
1070
     0
  0
VISUALSTYLE
  5
108A
102
{ACAD_XDICTIONARY
360
1E4F
102
}
102
{ACAD_REACTORS
330
1082
102
}
330
1082
100
AcDbVisualStyle
  2
3D Hidden
 70
     6
 71
     1
 72
     2
 73
     2
 90
        0
 40
-0.6
 41
-30.0
 62
     5
 63
     7
 74
     2
 91
        2
 64
     7
 65
   257
 75
     2
175
     1
 42
179.0
 92
        0
 66
   257
 43
1.0
 76
     1
 77
     6
 78
     2
 67
     7
 79
     3
170
     0
171
     0
290
     0
174
     0
 93
        1
 44
0.0
173
     0
291
     0
 45
0.0
1001
ACAD
1000
AcDbSavedByObjectVersion
1070
     0
  0
VISUALSTYLE
  5
1089
102
{ACAD_XDICTIONARY
360
1E4D
102
}
102
{ACAD_REACTORS
330
1082
102
}
330
1082
100
AcDbVisualStyle
  2
3dWireframe
 70
     5
 71
     0
 72
     2
 73
     0
 90
        0
 40
-0.6
 41
-30.0
 62
     5
 63
     7
 74
     1
 91
        4
 64
     7
 65
   257
 75
     1
175
     1
 42
1.0
 92
        0
 66
   257
 43
1.0
 76
     1
 77
     6
 78
     2
 67
     7
 79
     5
170
     0
171
     0
290
     0
174
     0
 93
        1
 44
0.0
173
     0
291
     0
 45
0.0
1001
ACAD
1000
AcDbSavedByObjectVersion
1070
     0
  0
VISUALSTYLE
  5
1087
102
{ACAD_XDICTIONARY
360
1E49
102
}
102
{ACAD_REACTORS
330
1082
102
}
330
1082
100
AcDbVisualStyle
  2
Basic
 70
     7
 71
     1
 72
     0
 73
     1
 90
        0
 40
-0.6
 41
-30.0
 62
     5
 63
     7
 74
     0
 91
        4
 64
     7
 65
   257
 75
     1
175
     1
 42
1.0
 92
        8
 66
     7
 43
1.0
 76
     1
 77
     6
 78
     2
 67
     7
 79
     5
170
     0
171
     0
290
     0
174
     0
 93
        1
 44
0.0
173
     0
291
     1
 45
0.0
1001
ACAD
1000
AcDbSavedByObjectVersion
1070
     0
  0
VISUALSTYLE
  5
108E
102
{ACAD_XDICTIONARY
360
1E57
102
}
102
{ACAD_REACTORS
330
1082
102
}
330
1082
100
AcDbVisualStyle
  2
Brighten
 70
    12
 71
     2
 72
     2
 73
     0
 90
        0
 40
-0.6
 41
-30.0
 62
     5
 63
     7
 74
     1
 91
        4
 64
     7
 65
   257
 75
     1
175
     1
 42
1.0
 92
        8
 66
     7
 43
1.0
 76
     1
 77
     6
 78
     2
 67
     7
 79
     5
170
     0
171
     0
290
     0
174
     0
 93
        1
 44
50.0
173
     0
291
     1
 45
0.0
1001
ACAD
1000
AcDbSavedByObjectVersion
1070
     0
  0
VISUALSTYLE
  5
1092
102
{ACAD_XDICTIONARY
360
1E5F
102
}
102
{ACAD_REACTORS
330
1082
102
}
330
1082
100
AcDbVisualStyle
  2
ColorChange
 70
    16
 71
     2
 72
     2
 73
     3
 90
        0
 40
-0.6
 41
-30.0
 62
     5
 63
     8
 74
     1
 91
        4
 64
     7
 65
   257
 75
     1
175
     1
 42
1.0
 92
        8
 66
     8
 43
1.0
 76
     1
 77
     6
 78
     2
 67
     7
 79
     5
170
     0
171
     0
290
     0
174
     0
 93
        1
 44
0.0
173
     0
291
     1
 45
0.0
1001
ACAD
1000
AcDbSavedByObjectVersion
1070
     0
  0
VISUALSTYLE
  5
108B
102
{ACAD_XDICTIONARY
360
1E51
102
}
102
{ACAD_REACTORS
330
1082
102
}
330
1082
100
AcDbVisualStyle
  2
Conceptual
 70
     9
 71
     3
 72
     2
 73
     0
 90
        0
 40
-0.6
 41
-30.0
 62
     5
 63
     7
 74
     2
 91
        2
 64
     7
 65
   257
 75
     1
175
     1
 42
179.0
 92
        8
 66
     7
 43
1.0
 76
     1
 77
     6
 78
     2
 67
     7
 79
     3
170
     0
171
     0
290
     0
174
     0
 93
        1
 44
0.0
173
     0
291
     0
 45
0.0
1001
ACAD
1000
AcDbSavedByObjectVersion
1070
     0
  0
VISUALSTYLE
  5
108D
102
{ACAD_XDICTIONARY
360
1E55
102
}
102
{ACAD_REACTORS
330
1082
102
}
330
1082
100
AcDbVisualStyle
  2
Dim
 70
    11
 71
     2
 72
     2
 73
     0
 90
        0
 40
-0.6
 41
-30.0
 62
     5
 63
     7
 74
     1
 91
        4
 64
     7
 65
   257
 75
     1
175
     1
 42
1.0
 92
        8
 66
     7
 43
1.0
 76
     1
 77
     6
 78
     2
 67
     7
 79
     5
170
     0
171
     0
290
     0
174
     0
 93
        1
 44
-50.0
173
     0
291
     1
 45
0.0
1001
ACAD
1000
AcDbSavedByObjectVersion
1070
     0
  0
VISUALSTYLE
  5
1095
102
{ACAD_XDICTIONARY
360
1E65
102
}
102
{ACAD_REACTORS
330
1082
102
}
330
1082
100
AcDbVisualStyle
  2
EdgeColorOff
 70
    22
 71
     2
 72
     2
 73
     0
 90
        0
 40
-0.6
 41
-30.0
 62
     5
 63
     7
 74
     1
 91
        4
 64
     7
 65
   257
 75
     1
175
     1
 42
1.0
 92
        8
 66
     7
 43
1.0
 76
     1
 77
     6
 78
     2
 67
     7
 79
     5
170
     0
171
     0
290
     0
174
     0
 93
        1
 44
0.0
173
     0
291
     1
 45
0.0
1001
ACAD
1000
AcDbSavedByObjectVersion
1070
     0
  0
VISUALSTYLE
  5
1091
102
{ACAD_XDICTIONARY
360
1E5D
102
}
102
{ACAD_REACTORS
330
1082
102
}
330
1082
100
AcDbVisualStyle
  2
Facepattern
 70
    15
 71
     2
 72
     2
 73
     0
 90
        0
 40
-0.6
 41
-30.0
 62
     5
 63
     7
 74
     1
 91
        4
 64
     7
 65
   257
 75
     1
175
     1
 42
1.0
 92
        8
 66
     7
 43
1.0
 76
     1
 77
     6
 78
     2
 67
     7
 79
     5
170
     0
171
     0
290
     0
174
     0
 93
        1
 44
0.0
173
     0
291
     1
 45
0.0
1001
ACAD
1000
AcDbSavedByObjectVersion
1070
     0
  0
VISUALSTYLE
  5
1083
102
{ACAD_XDICTIONARY
360
1E41
102
}
102
{ACAD_REACTORS
330
1082
102
}
330
1082
100
AcDbVisualStyle
  2
Flat
 70
     0
 71
     2
 72
     1
 73
     1
 90
        2
 40
-0.6
 41
30.0
 62
     5
 63
     7
 74
     0
 91
        4
 64
     7
 65
   257
 75
     1
175
     1
 42
1.0
 92
        8
 66
     7
 43
1.0
 76
     1
 77
     6
 78
     2
 67
     7
 79
     5
170
     0
171
     0
290
     0
174
     0
 93
       13
 44
0.0
173
     0
291
     1
 45
0.0
1001
ACAD
1000
AcDbSavedByObjectVersion
1070
     0
  0
VISUALSTYLE
  5
1084
102
{ACAD_XDICTIONARY
360
1E43
102
}
102
{ACAD_REACTORS
330
1082
102
}
330
1082
100
AcDbVisualStyle
  2
FlatWithEdges
 70
     1
 71
     2
 72
     1
 73
     1
 90
        2
 40
-0.6
 41
30.0
 62
     5
 63
     7
 74
     1
 91
        4
 64
     7
 65
   257
 75
     1
175
     1
 42
1.0
 92
        0
 66
   257
 43
1.0
 76
     1
 77
     6
 78
     2
 67
     7
 79
     5
170
     0
171
     0
290
     0
174
     0
 93
       13
 44
0.0
173
     0
291
     1
 45
0.0
1001
ACAD
1000
AcDbSavedByObjectVersion
1070
     0
  0
VISUALSTYLE
  5
1085
102
{ACAD_XDICTIONARY
360
1E45
102
}
102
{ACAD_REACTORS
330
1082
102
}
330
1082
100
AcDbVisualStyle
  2
Gouraud
 70
     2
 71
     2
 72
     2
 73
     1
 90
        2
 40
-0.6
 41
30.0
 62
     5
 63
     7
 74
     0
 91
        4
 64
     7
 65
   257
 75
     1
175
     1
 42
1.0
 92
        0
 66
     7
 43
1.0
 76
     1
 77
     6
 78
     2
 67
     7
 79
     5
170
     0
171
     0
290
     0
174
     0
 93
       13
 44
0.0
173
     0
291
     1
 45
0.0
1001
ACAD
1000
AcDbSavedByObjectVersion
1070
     0
  0
VISUALSTYLE
  5
1086
102
{ACAD_XDICTIONARY
360
1E47
102
}
102
{ACAD_REACTORS
330
1082
102
}
330
1082
100
AcDbVisualStyle
  2
GouraudWithEdges
 70
     3
 71
     2
 72
     2
 73
     1
 90
        2
 40
-0.6
 41
30.0
 62
     5
 63
     7
 74
     1
 91
        4
 64
     7
 65
   257
 75
     1
175
     1
 42
1.0
 92
        0
 66
   257
 43
1.0
 76
     1
 77
     6
 78
     2
 67
     7
 79
     5
170
     0
171
     0
290
     0
174
     0
 93
       13
 44
0.0
173
     0
291
     1
 45
0.0
1001
ACAD
1000
AcDbSavedByObjectVersion
1070
     0
  0
VISUALSTYLE
  5
1093
102
{ACAD_XDICTIONARY
360
1E61
102
}
102
{ACAD_REACTORS
330
1082
102
}
330
1082
100
AcDbVisualStyle
  2
JitterOff
 70
    20
 71
     2
 72
     2
 73
     0
 90
        0
 40
-0.6
 41
-30.0
 62
     5
 63
     7
 74
     1
 91
        4
 64
     7
 65
   257
 75
     1
175
     1
 42
1.0
 92
       10
 66
     7
 43
1.0
 76
     1
 77
     6
 78
     2
 67
     7
 79
     5
170
     0
171
     0
290
     0
174
     0
 93
        1
 44
0.0
173
     0
291
     1
 45
0.0
1001
ACAD
1000
AcDbSavedByObjectVersion
1070
     0
  0
VISUALSTYLE
  5
1090
102
{ACAD_XDICTIONARY
360
1E5B
102
}
102
{ACAD_REACTORS
330
1082
102
}
330
1082
100
AcDbVisualStyle
  2
Linepattern
 70
    14
 71
     2
 72
     2
 73
     0
 90
        0
 40
-0.6
 41
-30.0
 62
     5
 63
     7
 74
     1
 91
        4
 64
     7
 65
   257
 75
     7
175
     7
 42
1.0
 92
        8
 66
     7
 43
1.0
 76
     1
 77
     6
 78
     2
 67
     7
 79
     5
170
     0
171
     0
290
     0
174
     0
 93
        1
 44
0.0
173
     0
291
     1
 45
0.0
1001
ACAD
1000
AcDbSavedByObjectVersion
1070
     0
  0
VISUALSTYLE
  5
1094
102
{ACAD_XDICTIONARY
360
1E63
102
}
102
{ACAD_REACTORS
330
1082
102
}
330
1082
100
AcDbVisualStyle
  2
OverhangOff
 70
    21
 71
     2
 72
     2
 73
     0
 90
        0
 40
-0.6
 41
-30.0
 62
     5
 63
     7
 74
     1
 91
        4
 64
     7
 65
   257
 75
     1
175
     1
 42
1.0
 92
        9
 66
     7
 43
1.0
 76
     1
 77
     6
 78
     2
 67
     7
 79
     5
170
     0
171
     0
290
     0
174
     0
 93
        1
 44
0.0
173
     0
291
     1
 45
0.0
1001
ACAD
1000
AcDbSavedByObjectVersion
1070
     0
  0
VISUALSTYLE
  5
108C
102
{ACAD_XDICTIONARY
360
1E53
102
}
102
{ACAD_REACTORS
330
1082
102
}
330
1082
100
AcDbVisualStyle
  2
Realistic
 70
     8
 71
     2
 72
     2
 73
     0
 90
        0
 40
-0.6
 41
-30.0
 62
     5
 63
     7
 74
     1
 91
        0
 64
     7
 65
   257
 75
     1
175
     1
 42
1.0
 92
        8
 66
     8
 43
1.0
 76
     1
 77
     6
 78
     2
 67
     7
 79
     5
170
     0
171
     0
290
     0
174
     0
 93
       13
 44
0.0
173
     0
291
     0
 45
0.0
1001
ACAD
1000
AcDbSavedByObjectVersion
1070
     0
  0
VISUALSTYLE
  5
108F
102
{ACAD_XDICTIONARY
360
1E59
102
}
102
{ACAD_REACTORS
330
1082
102
}
330
1082
100
AcDbVisualStyle
  2
Thicken
 70
    13
 71
     2
 72
     2
 73
     0
 90
        0
 40
-0.6
 41
-30.0
 62
     5
 63
     7
 74
     1
 91
        4
 64
     7
 65
   257
 75
     1
175
     1
 42
1.0
 92
       12
 66
     7
 43
1.0
 76
     1
 77
     6
 78
     2
 67
     7
 79
     5
170
     0
171
     0
290
     0
174
     0
 93
        1
 44
0.0
173
     0
291
     1
 45
0.0
1001
ACAD
1000
AcDbSavedByObjectVersion
1070
     0
  0
DICTIONARYVAR
  5
1E2D
102
{ACAD_REACTORS
330
3D
102
}
330
3D
100
DictionaryVariables
280
     0
  1
1:1
  0
DICTIONARYVAR
  5
1E2C
102
{ACAD_REACTORS
330
3D
102
}
330
3D
100
DictionaryVariables
280
     0
  1
STANDARD
  0
DICTIONARYVAR
  5
1049
102
{ACAD_REACTORS
330
3D
102
}
330
3D
100
DictionaryVariables
280
     0
  1
STANDARD
  0
DICTIONARYVAR
  5
3F
102
{ACAD_REACTORS
330
3D
102
}
330
3D
100
DictionaryVariables
280
     0
  1
2
  0
DICTIONARYVAR
  5
3E
102
{ACAD_REACTORS
330
3D
102
}
330
3D
100
DictionaryVariables
280
     0
  1
1
  0
DICTIONARYVAR
  5
1E2F
102
{ACAD_REACTORS
330
3D
102
}
330
3D
100
DictionaryVariables
280
     0
  1
0
  0
DICTIONARYVAR
  5
1E2E
102
{ACAD_REACTORS
330
3D
102
}
330
3D
100
DictionaryVariables
280
     0
  1
127
  0
DICTIONARYVAR
  5
1E30
102
{ACAD_REACTORS
330
3D
102
}
330
3D
100
DictionaryVariables
280
     0
  1
0
  0
XRECORD
  5
1067
102
{ACAD_REACTORS
330
1066
102
}
330
1066
100
AcDbXrecord
280
     1
  0
DICTIONARY
  5
1E37
330
1E
100
AcDbDictionary
280
     1
281
     1
  3
ACAD_XREC_ROUNDTRIP
360
1E38
  0
DICTIONARY
  5
1E3B
330
26
100
AcDbDictionary
280
     1
281
     1
  3
ACAD_XREC_ROUNDTRIP
360
1E3C
  0
DICTIONARY
  5
1E39
330
22
100
AcDbDictionary
280
     1
281
     1
  3
ACAD_XREC_ROUNDTRIP
360
1E3A
  0
DICTIONARY
  5
1073
330
1072
100
AcDbDictionary
280
     1
281
     1
  3
ACAD_XREC_ROUNDTRIP
360
1E3F
  3
BUMPTILE
360
1075
  3
DIFFUSETILE
360
1074
  3
OPACITYTILE
360
1078
  3
REFLECTIONTILE
360
1077
  3
REFRACTIONTILE
360
1079
  3
SPECULARTILE
360
1076
  0
DICTIONARY
  5
106B
330
106A
100
AcDbDictionary
280
     1
281
     1
  3
ACAD_XREC_ROUNDTRIP
360
1E3E
  3
BUMPTILE
360
106D
  3
DIFFUSETILE
360
106C
  3
OPACITYTILE
360
1070
  3
REFLECTIONTILE
360
106F
  3
REFRACTIONTILE
360
1071
  3
SPECULARTILE
360
106E
  0
DICTIONARY
  5
107B
330
107A
100
AcDbDictionary
280
     1
281
     1
  3
ACAD_XREC_ROUNDTRIP
360
1E40
  3
BUMPTILE
360
107D
  3
DIFFUSETILE
360
107C
  3
OPACITYTILE
360
1080
  3
REFLECTIONTILE
360
107F
  3
REFRACTIONTILE
360
1081
  3
SPECULARTILE
360
107E
  0
DICTIONARY
  5
1E31
330
EE8
100
AcDbDictionary
280
     1
281
     1
  3
ACAD_ROUNDTRIP_2008_TABLESTYLE_CELLSTYLEMAP
360
1E32
  3
ACAD_XREC_ROUNDTRIP
360
1E3D
  0
DICTIONARY
  5
1E4B
330
1088
100
AcDbDictionary
280
     1
281
     1
  3
ACAD_XREC_ROUNDTRIP
360
1E4C
  0
DICTIONARY
  5
1E4F
330
108A
100
AcDbDictionary
280
     1
281
     1
  3
ACAD_XREC_ROUNDTRIP
360
1E50
  0
DICTIONARY
  5
1E4D
330
1089
100
AcDbDictionary
280
     1
281
     1
  3
ACAD_XREC_ROUNDTRIP
360
1E4E
  0
DICTIONARY
  5
1E49
330
1087
100
AcDbDictionary
280
     1
281
     1
  3
ACAD_XREC_ROUNDTRIP
360
1E4A
  0
DICTIONARY
  5
1E57
330
108E
100
AcDbDictionary
280
     1
281
     1
  3
ACAD_XREC_ROUNDTRIP
360
1E58
  0
DICTIONARY
  5
1E5F
330
1092
100
AcDbDictionary
280
     1
281
     1
  3
ACAD_XREC_ROUNDTRIP
360
1E60
  0
DICTIONARY
  5
1E51
330
108B
100
AcDbDictionary
280
     1
281
     1
  3
ACAD_XREC_ROUNDTRIP
360
1E52
  0
DICTIONARY
  5
1E55
330
108D
100
AcDbDictionary
280
     1
281
     1
  3
ACAD_XREC_ROUNDTRIP
360
1E56
  0
DICTIONARY
  5
1E65
330
1095
100
AcDbDictionary
280
     1
281
     1
  3
ACAD_XREC_ROUNDTRIP
360
1E66
  0
DICTIONARY
  5
1E5D
330
1091
100
AcDbDictionary
280
     1
281
     1
  3
ACAD_XREC_ROUNDTRIP
360
1E5E
  0
DICTIONARY
  5
1E41
330
1083
100
AcDbDictionary
280
     1
281
     1
  3
ACAD_XREC_ROUNDTRIP
360
1E42
  0
DICTIONARY
  5
1E43
330
1084
100
AcDbDictionary
280
     1
281
     1
  3
ACAD_XREC_ROUNDTRIP
360
1E44
  0
DICTIONARY
  5
1E45
330
1085
100
AcDbDictionary
280
     1
281
     1
  3
ACAD_XREC_ROUNDTRIP
360
1E46
  0
DICTIONARY
  5
1E47
330
1086
100
AcDbDictionary
280
     1
281
     1
  3
ACAD_XREC_ROUNDTRIP
360
1E48
  0
DICTIONARY
  5
1E61
330
1093
100
AcDbDictionary
280
     1
281
     1
  3
ACAD_XREC_ROUNDTRIP
360
1E62
  0
DICTIONARY
  5
1E5B
330
1090
100
AcDbDictionary
280
     1
281
     1
  3
ACAD_XREC_ROUNDTRIP
360
1E5C
  0
DICTIONARY
  5
1E63
330
1094
100
AcDbDictionary
280
     1
281
     1
  3
ACAD_XREC_ROUNDTRIP
360
1E64
  0
DICTIONARY
  5
1E53
330
108C
100
AcDbDictionary
280
     1
281
     1
  3
ACAD_XREC_ROUNDTRIP
360
1E54
  0
DICTIONARY
  5
1E59
330
108F
100
AcDbDictionary
280
     1
281
     1
  3
ACAD_XREC_ROUNDTRIP
360
1E5A
  0
XRECORD
  5
1E38
102
{ACAD_REACTORS
330
1E37
102
}
330
1E37
100
AcDbXrecord
280
     1
102
SHADEPLOT
 70
     0
102
SHADEPLOTRESLEVEL
 70
     2
102
SHADEPLOTCUSTOMDPI
 70
   300
  0
XRECORD
  5
1E3C
102
{ACAD_REACTORS
330
1E3B
102
}
330
1E3B
100
AcDbXrecord
280
     1
102
SHADEPLOT
 70
     0
102
SHADEPLOTRESLEVEL
 70
     2
102
SHADEPLOTCUSTOMDPI
 70
   300
  0
XRECORD
  5
1E3A
102
{ACAD_REACTORS
330
1E39
102
}
330
1E39
100
AcDbXrecord
280
     1
102
SHADEPLOT
 70
     0
102
SHADEPLOTRESLEVEL
 70
     2
102
SHADEPLOTCUSTOMDPI
 70
   300
  0
XRECORD
  5
1E3F
102
{ACAD_REACTORS
330
1073
102
}
330
1073
100
AcDbXrecord
280
     1
102
MATERIAL
148
0.0
149
0.0
149
0.0
 93
        0
 94
      127
282
     0
 72
     0
 77
     0
171
     0
175
     0
179
     0
273
     0
  0
XRECORD
  5
1075
102
{ACAD_REACTORS
330
1073
102
}
330
1073
100
AcDbXrecord
280
     1
270
     1
271
     1
  0
XRECORD
  5
1074
102
{ACAD_REACTORS
330
1073
102
}
330
1073
100
AcDbXrecord
280
     1
270
     1
271
     1
  0
XRECORD
  5
1078
102
{ACAD_REACTORS
330
1073
102
}
330
1073
100
AcDbXrecord
280
     1
270
     1
271
     1
  0
XRECORD
  5
1077
102
{ACAD_REACTORS
330
1073
102
}
330
1073
100
AcDbXrecord
280
     1
270
     1
271
     1
  0
XRECORD
  5
1079
102
{ACAD_REACTORS
330
1073
102
}
330
1073
100
AcDbXrecord
280
     1
270
     1
271
     1
  0
XRECORD
  5
1076
102
{ACAD_REACTORS
330
1073
102
}
330
1073
100
AcDbXrecord
280
     1
270
     1
271
     1
  0
XRECORD
  5
1E3E
102
{ACAD_REACTORS
330
106B
102
}
330
106B
100
AcDbXrecord
280
     1
102
MATERIAL
148
0.0
149
0.0
149
0.0
 93
        0
 94
      127
282
     0
 72
     0
 77
     0
171
     0
175
     0
179
     0
273
     0
  0
XRECORD
  5
106D
102
{ACAD_REACTORS
330
106B
102
}
330
106B
100
AcDbXrecord
280
     1
270
     1
271
     1
  0
XRECORD
  5
106C
102
{ACAD_REACTORS
330
106B
102
}
330
106B
100
AcDbXrecord
280
     1
270
     1
271
     1
  0
XRECORD
  5
1070
102
{ACAD_REACTORS
330
106B
102
}
330
106B
100
AcDbXrecord
280
     1
270
     1
271
     1
  0
XRECORD
  5
106F
102
{ACAD_REACTORS
330
106B
102
}
330
106B
100
AcDbXrecord
280
     1
270
     1
271
     1
  0
XRECORD
  5
1071
102
{ACAD_REACTORS
330
106B
102
}
330
106B
100
AcDbXrecord
280
     1
270
     1
271
     1
  0
XRECORD
  5
106E
102
{ACAD_REACTORS
330
106B
102
}
330
106B
100
AcDbXrecord
280
     1
270
     1
271
     1
  0
XRECORD
  5
1E40
102
{ACAD_REACTORS
330
107B
102
}
330
107B
100
AcDbXrecord
280
     1
102
MATERIAL
148
0.0
149
0.0
149
0.0
 93
        0
 94
      127
282
     0
 72
     0
 77
     0
171
     0
175
     0
179
     0
273
     0
  0
XRECORD
  5
107D
102
{ACAD_REACTORS
330
107B
102
}
330
107B
100
AcDbXrecord
280
     1
270
     1
271
     1
  0
XRECORD
  5
107C
102
{ACAD_REACTORS
330
107B
102
}
330
107B
100
AcDbXrecord
280
     1
270
     1
271
     1
  0
XRECORD
  5
1080
102
{ACAD_REACTORS
330
107B
102
}
330
107B
100
AcDbXrecord
280
     1
270
     1
271
     1
  0
XRECORD
  5
107F
102
{ACAD_REACTORS
330
107B
102
}
330
107B
100
AcDbXrecord
280
     1
270
     1
271
     1
  0
XRECORD
  5
1081
102
{ACAD_REACTORS
330
107B
102
}
330
107B
100
AcDbXrecord
280
     1
270
     1
271
     1
  0
XRECORD
  5
107E
102
{ACAD_REACTORS
330
107B
102
}
330
107B
100
AcDbXrecord
280
     1
270
     1
271
     1
  0
CELLSTYLEMAP
  5
1E32
102
{ACAD_REACTORS
330
1E31
102
}
330
1E31
100
AcDbCellStyleMap
 90
        3
300
CELLSTYLE
  1
TABLEFORMAT_BEGIN
 90
        5
170
     1
 91
        0
 92
    32768
 62
   257
 93
        1
300
CONTENTFORMAT
  1
CONTENTFORMAT_BEGIN
 90
        0
 91
        0
 92
        4
 93
        0
300

 40
0.0
140
1.0
 94
        5
 62
     0
340
11
144
6.0
309
CONTENTFORMAT_END
171
     1
301
MARGIN
  1
CELLMARGIN_BEGIN
 40
1.5
 40
1.5
 40
1.5
 40
1.5
 40
0.18
 40
0.18
309
CELLMARGIN_END
 94
        6
 95
        1
302
GRIDFORMAT
  1
GRIDFORMAT_BEGIN
 90
        0
 91
        1
 62
     0
 92
       -2
340
0
 93
        0
 40
0.045
309
GRIDFORMAT_END
 95
        2
302
GRIDFORMAT
  1
GRIDFORMAT_BEGIN
 90
        0
 91
        1
 62
     0
 92
       -2
340
0
 93
        0
 40
0.045
309
GRIDFORMAT_END
 95
        4
302
GRIDFORMAT
  1
GRIDFORMAT_BEGIN
 90
        0
 91
        1
 62
     0
 92
       -2
340
0
 93
        0
 40
0.045
309
GRIDFORMAT_END
 95
        8
302
GRIDFORMAT
  1
GRIDFORMAT_BEGIN
 90
        0
 91
        1
 62
     0
 92
       -2
340
0
 93
        0
 40
0.045
309
GRIDFORMAT_END
 95
       16
302
GRIDFORMAT
  1
GRIDFORMAT_BEGIN
 90
        0
 91
        1
 62
     0
 92
       -2
340
0
 93
        0
 40
0.045
309
GRIDFORMAT_END
 95
       32
302
GRIDFORMAT
  1
GRIDFORMAT_BEGIN
 90
        0
 91
        1
 62
     0
 92
       -2
340
0
 93
        0
 40
0.045
309
GRIDFORMAT_END
309
TABLEFORMAT_END
  1
CELLSTYLE_BEGIN
 90
        1
 91
        1
300
_TITLE
309
CELLSTYLE_END
300
CELLSTYLE
  1
TABLEFORMAT_BEGIN
 90
        5
170
     1
 91
        0
 92
        0
 62
   257
 93
        1
300
CONTENTFORMAT
  1
CONTENTFORMAT_BEGIN
 90
        0
 91
        0
 92
        4
 93
        0
300

 40
0.0
140
1.0
 94
        5
 62
     0
340
11
144
4.5
309
CONTENTFORMAT_END
171
     1
301
MARGIN
  1
CELLMARGIN_BEGIN
 40
1.5
 40
1.5
 40
1.5
 40
1.5
 40
0.18
 40
0.18
309
CELLMARGIN_END
 94
        6
 95
        1
302
GRIDFORMAT
  1
GRIDFORMAT_BEGIN
 90
        0
 91
        1
 62
     0
 92
       -2
340
0
 93
        0
 40
0.045
309
GRIDFORMAT_END
 95
        2
302
GRIDFORMAT
  1
GRIDFORMAT_BEGIN
 90
        0
 91
        1
 62
     0
 92
       -2
340
0
 93
        0
 40
0.045
309
GRIDFORMAT_END
 95
        4
302
GRIDFORMAT
  1
GRIDFORMAT_BEGIN
 90
        0
 91
        1
 62
     0
 92
       -2
340
0
 93
        0
 40
0.045
309
GRIDFORMAT_END
 95
        8
302
GRIDFORMAT
  1
GRIDFORMAT_BEGIN
 90
        0
 91
        1
 62
     0
 92
       -2
340
0
 93
        0
 40
0.045
309
GRIDFORMAT_END
 95
       16
302
GRIDFORMAT
  1
GRIDFORMAT_BEGIN
 90
        0
 91
        1
 62
     0
 92
       -2
340
0
 93
        0
 40
0.045
309
GRIDFORMAT_END
 95
       32
302
GRIDFORMAT
  1
GRIDFORMAT_BEGIN
 90
        0
 91
        1
 62
     0
 92
       -2
340
0
 93
        0
 40
0.045
309
GRIDFORMAT_END
309
TABLEFORMAT_END
  1
CELLSTYLE_BEGIN
 90
        2
 91
        1
300
_HEADER
309
CELLSTYLE_END
300
CELLSTYLE
  1
TABLEFORMAT_BEGIN
 90
        5
170
     1
 91
        0
 92
        0
 62
   257
 93
        1
300
CONTENTFORMAT
  1
CONTENTFORMAT_BEGIN
 90
        0
 91
        0
 92
        4
 93
        0
300

 40
0.0
140
1.0
 94
        2
 62
     0
340
11
144
4.5
309
CONTENTFORMAT_END
171
     1
301
MARGIN
  1
CELLMARGIN_BEGIN
 40
1.5
 40
1.5
 40
1.5
 40
1.5
 40
0.18
 40
0.18
309
CELLMARGIN_END
 94
        6
 95
        1
302
GRIDFORMAT
  1
GRIDFORMAT_BEGIN
 90
        0
 91
        1
 62
     0
 92
       -2
340
0
 93
        0
 40
0.045
309
GRIDFORMAT_END
 95
        2
302
GRIDFORMAT
  1
GRIDFORMAT_BEGIN
 90
        0
 91
        1
 62
     0
 92
       -2
340
0
 93
        0
 40
0.045
309
GRIDFORMAT_END
 95
        4
302
GRIDFORMAT
  1
GRIDFORMAT_BEGIN
 90
        0
 91
        1
 62
     0
 92
       -2
340
0
 93
        0
 40
0.045
309
GRIDFORMAT_END
 95
        8
302
GRIDFORMAT
  1
GRIDFORMAT_BEGIN
 90
        0
 91
        1
 62
     0
 92
       -2
340
0
 93
        0
 40
0.045
309
GRIDFORMAT_END
 95
       16
302
GRIDFORMAT
  1
GRIDFORMAT_BEGIN
 90
        0
 91
        1
 62
     0
 92
       -2
340
0
 93
        0
 40
0.045
309
GRIDFORMAT_END
 95
       32
302
GRIDFORMAT
  1
GRIDFORMAT_BEGIN
 90
        0
 91
        1
 62
     0
 92
       -2
340
0
 93
        0
 40
0.045
309
GRIDFORMAT_END
309
TABLEFORMAT_END
  1
CELLSTYLE_BEGIN
 90
        3
 91
        2
300
_DATA
309
CELLSTYLE_END
  0
XRECORD
  5
1E3D
102
{ACAD_REACTORS
330
1E31
102
}
330
1E31
100
AcDbXrecord
280
     1
102
ACAD_ROUNDTRIP_PRE2007_TABLESTYLE
 90
        4
 91
        0
  1

 92
        4
 93
        0
  2

 94
        4
 95
        0
  3

  0
XRECORD
  5
1E4C
102
{ACAD_REACTORS
330
1E4B
102
}
330
1E4B
100
AcDbXrecord
280
     1
102
RTVSPropertyOp0
 70
     1
102
RTVSPropertyOp1
 70
     1
102
RTVSPropertyOp2
 70
     1
102
RTVSPropertyOp3
 70
     1
102
RTVSPropertyOp4
 70
     1
102
RTVSPropertyOp5
 70
     1
102
RTVSPropertyOp6
 70
     1
102
RTVSPropertyOp7
 70
     1
102
RTVSPropertyOp8
 70
     1
102
RTVSPropertyOp9
 70
     1
102
RTVSPropertyOp10
 70
     1
102
RTVSPropertyOp11
 70
     1
102
RTVSPropertyOp12
 70
     1
102
RTVSPropertyOp13
 70
     1
102
RTVSPropertyOp14
 70
     1
102
RTVSPropertyOp15
 70
     1
102
RTVSPropertyOp16
 70
     1
102
RTVSPropertyOp17
 70
     1
102
RTVSPropertyOp18
 70
     1
102
RTVSPropertyOp19
 70
     1
102
RTVSPropertyOp20
 70
     1
102
RTVSPropertyOp21
 70
     1
102
RTVSPropertyOp22
 70
     1
102
RTVSPropertyOp23
 70
     1
102
RTVSPropertyOp24
 70
     1
102
RTVSPropertyOp25
 70
     1
102
RTVSPropertyOp26
 70
     1
102
RTVSPropertyOp27
 70
     1
  0
XRECORD
  5
1E50
102
{ACAD_REACTORS
330
1E4F
102
}
330
1E4F
100
AcDbXrecord
280
     1
102
RTVSPropertyOp0
 70
     1
102
RTVSPropertyOp1
 70
     1
102
RTVSPropertyOp2
 70
     1
102
RTVSPropertyOp3
 70
     1
102
RTVSPropertyOp4
 70
     1
102
RTVSPropertyOp5
 70
     1
102
RTVSPropertyOp6
 70
     1
102
RTVSPropertyOp7
 70
     1
102
RTVSPropertyOp8
 70
     1
102
RTVSPropertyOp9
 70
     1
102
RTVSPropertyOp10
 70
     1
102
RTVSPropertyOp11
 70
     1
102
RTVSPropertyOp12
 70
     1
102
RTVSPropertyOp13
 70
     1
102
RTVSPropertyOp14
 70
     1
102
RTVSPropertyOp15
 70
     1
102
RTVSPropertyOp16
 70
     1
102
RTVSPropertyOp17
 70
     1
102
RTVSPropertyOp18
 70
     1
102
RTVSPropertyOp19
 70
     1
102
RTVSPropertyOp20
 70
     1
102
RTVSPropertyOp21
 70
     1
102
RTVSPropertyOp22
 70
     1
102
RTVSPropertyOp23
 70
     1
102
RTVSPropertyOp24
 70
     1
102
RTVSPropertyOp25
 70
     1
102
RTVSPropertyOp26
 70
     1
102
RTVSPropertyOp27
 70
     1
  0
XRECORD
  5
1E4E
102
{ACAD_REACTORS
330
1E4D
102
}
330
1E4D
100
AcDbXrecord
280
     1
102
RTVSPropertyOp0
 70
     1
102
RTVSPropertyOp1
 70
     1
102
RTVSPropertyOp2
 70
     1
102
RTVSPropertyOp3
 70
     1
102
RTVSPropertyOp4
 70
     1
102
RTVSPropertyOp5
 70
     1
102
RTVSPropertyOp6
 70
     1
102
RTVSPropertyOp7
 70
     1
102
RTVSPropertyOp8
 70
     1
102
RTVSPropertyOp9
 70
     1
102
RTVSPropertyOp10
 70
     1
102
RTVSPropertyOp11
 70
     1
102
RTVSPropertyOp12
 70
     1
102
RTVSPropertyOp13
 70
     1
102
RTVSPropertyOp14
 70
     1
102
RTVSPropertyOp15
 70
     1
102
RTVSPropertyOp16
 70
     1
102
RTVSPropertyOp17
 70
     1
102
RTVSPropertyOp18
 70
     1
102
RTVSPropertyOp19
 70
     1
102
RTVSPropertyOp20
 70
     1
102
RTVSPropertyOp21
 70
     1
102
RTVSPropertyOp22
 70
     1
102
RTVSPropertyOp23
 70
     1
102
RTVSPropertyOp24
 70
     1
102
RTVSPropertyOp25
 70
     1
102
RTVSPropertyOp26
 70
     1
102
RTVSPropertyOp27
 70
     1
  0
XRECORD
  5
1E4A
102
{ACAD_REACTORS
330
1E49
102
}
330
1E49
100
AcDbXrecord
280
     1
102
RTVSPropertyOp0
 70
     1
102
RTVSPropertyOp1
 70
     1
102
RTVSPropertyOp2
 70
     1
102
RTVSPropertyOp3
 70
     1
102
RTVSPropertyOp4
 70
     1
102
RTVSPropertyOp5
 70
     1
102
RTVSPropertyOp6
 70
     1
102
RTVSPropertyOp7
 70
     1
102
RTVSPropertyOp8
 70
     1
102
RTVSPropertyOp9
 70
     1
102
RTVSPropertyOp10
 70
     1
102
RTVSPropertyOp11
 70
     1
102
RTVSPropertyOp12
 70
     1
102
RTVSPropertyOp13
 70
     1
102
RTVSPropertyOp14
 70
     1
102
RTVSPropertyOp15
 70
     1
102
RTVSPropertyOp16
 70
     1
102
RTVSPropertyOp17
 70
     1
102
RTVSPropertyOp18
 70
     1
102
RTVSPropertyOp19
 70
     1
102
RTVSPropertyOp20
 70
     1
102
RTVSPropertyOp21
 70
     1
102
RTVSPropertyOp22
 70
     1
102
RTVSPropertyOp23
 70
     1
102
RTVSPropertyOp24
 70
     1
102
RTVSPropertyOp25
 70
     1
102
RTVSPropertyOp26
 70
     1
102
RTVSPropertyOp27
 70
     1
  0
XRECORD
  5
1E58
102
{ACAD_REACTORS
330
1E57
102
}
330
1E57
100
AcDbXrecord
280
     1
102
RTVSPropertyOp0
 70
     1
102
RTVSPropertyOp1
 70
     1
102
RTVSPropertyOp2
 70
     1
102
RTVSPropertyOp3
 70
     1
102
RTVSPropertyOp4
 70
     1
102
RTVSPropertyOp5
 70
     1
102
RTVSPropertyOp6
 70
     1
102
RTVSPropertyOp7
 70
     1
102
RTVSPropertyOp8
 70
     1
102
RTVSPropertyOp9
 70
     1
102
RTVSPropertyOp10
 70
     1
102
RTVSPropertyOp11
 70
     1
102
RTVSPropertyOp12
 70
     1
102
RTVSPropertyOp13
 70
     1
102
RTVSPropertyOp14
 70
     1
102
RTVSPropertyOp15
 70
     1
102
RTVSPropertyOp16
 70
     1
102
RTVSPropertyOp17
 70
     1
102
RTVSPropertyOp18
 70
     1
102
RTVSPropertyOp19
 70
     1
102
RTVSPropertyOp20
 70
     1
102
RTVSPropertyOp21
 70
     1
102
RTVSPropertyOp22
 70
     1
102
RTVSPropertyOp23
 70
     1
102
RTVSPropertyOp24
 70
     1
102
RTVSPropertyOp25
 70
     1
102
RTVSPropertyOp26
 70
     1
102
RTVSPropertyOp27
 70
     1
  0
XRECORD
  5
1E60
102
{ACAD_REACTORS
330
1E5F
102
}
330
1E5F
100
AcDbXrecord
280
     1
102
RTVSPropertyOp0
 70
     1
102
RTVSPropertyOp1
 70
     1
102
RTVSPropertyOp2
 70
     1
102
RTVSPropertyOp3
 70
     1
102
RTVSPropertyOp4
 70
     1
102
RTVSPropertyOp5
 70
     1
102
RTVSPropertyOp6
 70
     1
102
RTVSPropertyOp7
 70
     1
102
RTVSPropertyOp8
 70
     1
102
RTVSPropertyOp9
 70
     1
102
RTVSPropertyOp10
 70
     1
102
RTVSPropertyOp11
 70
     1
102
RTVSPropertyOp12
 70
     1
102
RTVSPropertyOp13
 70
     1
102
RTVSPropertyOp14
 70
     1
102
RTVSPropertyOp15
 70
     1
102
RTVSPropertyOp16
 70
     1
102
RTVSPropertyOp17
 70
     1
102
RTVSPropertyOp18
 70
     1
102
RTVSPropertyOp19
 70
     1
102
RTVSPropertyOp20
 70
     1
102
RTVSPropertyOp21
 70
     1
102
RTVSPropertyOp22
 70
     1
102
RTVSPropertyOp23
 70
     1
102
RTVSPropertyOp24
 70
     1
102
RTVSPropertyOp25
 70
     1
102
RTVSPropertyOp26
 70
     1
102
RTVSPropertyOp27
 70
     1
  0
XRECORD
  5
1E52
102
{ACAD_REACTORS
330
1E51
102
}
330
1E51
100
AcDbXrecord
280
     1
102
RTVSPropertyOp0
 70
     1
102
RTVSPropertyOp1
 70
     1
102
RTVSPropertyOp2
 70
     1
102
RTVSPropertyOp3
 70
     1
102
RTVSPropertyOp4
 70
     1
102
RTVSPropertyOp5
 70
     1
102
RTVSPropertyOp6
 70
     1
102
RTVSPropertyOp7
 70
     1
102
RTVSPropertyOp8
 70
     1
102
RTVSPropertyOp9
 70
     1
102
RTVSPropertyOp10
 70
     1
102
RTVSPropertyOp11
 70
     1
102
RTVSPropertyOp12
 70
     1
102
RTVSPropertyOp13
 70
     1
102
RTVSPropertyOp14
 70
     1
102
RTVSPropertyOp15
 70
     1
102
RTVSPropertyOp16
 70
     1
102
RTVSPropertyOp17
 70
     1
102
RTVSPropertyOp18
 70
     1
102
RTVSPropertyOp19
 70
     1
102
RTVSPropertyOp20
 70
     1
102
RTVSPropertyOp21
 70
     1
102
RTVSPropertyOp22
 70
     1
102
RTVSPropertyOp23
 70
     1
102
RTVSPropertyOp24
 70
     1
102
RTVSPropertyOp25
 70
     1
102
RTVSPropertyOp26
 70
     1
102
RTVSPropertyOp27
 70
     1
  0
XRECORD
  5
1E56
102
{ACAD_REACTORS
330
1E55
102
}
330
1E55
100
AcDbXrecord
280
     1
102
RTVSPropertyOp0
 70
     1
102
RTVSPropertyOp1
 70
     1
102
RTVSPropertyOp2
 70
     1
102
RTVSPropertyOp3
 70
     1
102
RTVSPropertyOp4
 70
     1
102
RTVSPropertyOp5
 70
     1
102
RTVSPropertyOp6
 70
     1
102
RTVSPropertyOp7
 70
     1
102
RTVSPropertyOp8
 70
     1
102
RTVSPropertyOp9
 70
     1
102
RTVSPropertyOp10
 70
     1
102
RTVSPropertyOp11
 70
     1
102
RTVSPropertyOp12
 70
     1
102
RTVSPropertyOp13
 70
     1
102
RTVSPropertyOp14
 70
     1
102
RTVSPropertyOp15
 70
     1
102
RTVSPropertyOp16
 70
     1
102
RTVSPropertyOp17
 70
     1
102
RTVSPropertyOp18
 70
     1
102
RTVSPropertyOp19
 70
     1
102
RTVSPropertyOp20
 70
     1
102
RTVSPropertyOp21
 70
     1
102
RTVSPropertyOp22
 70
     1
102
RTVSPropertyOp23
 70
     1
102
RTVSPropertyOp24
 70
     1
102
RTVSPropertyOp25
 70
     1
102
RTVSPropertyOp26
 70
     1
102
RTVSPropertyOp27
 70
     1
  0
XRECORD
  5
1E66
102
{ACAD_REACTORS
330
1E65
102
}
330
1E65
100
AcDbXrecord
280
     1
102
RTVSPropertyOp0
 70
     0
102
RTVSPropertyOp1
 70
     0
102
RTVSPropertyOp2
 70
     0
102
RTVSPropertyOp3
 70
     0
102
RTVSPropertyOp4
 70
     0
102
RTVSPropertyOp5
 70
     0
102
RTVSPropertyOp6
 70
     0
102
RTVSPropertyOp7
 70
     0
102
RTVSPropertyOp8
 70
     0
102
RTVSPropertyOp9
 70
     0
102
RTVSPropertyOp10
 70
     0
102
RTVSPropertyOp11
 70
     0
102
RTVSPropertyOp12
 70
     0
102
RTVSPropertyOp13
 70
     0
102
RTVSPropertyOp14
 70
     2
102
RTVSPropertyOp15
 70
     0
102
RTVSPropertyOp16
 70
     0
102
RTVSPropertyOp17
 70
     0
102
RTVSPropertyOp18
 70
     0
102
RTVSPropertyOp19
 70
     0
102
RTVSPropertyOp20
 70
     0
102
RTVSPropertyOp21
 70
     0
102
RTVSPropertyOp22
 70
     0
102
RTVSPropertyOp23
 70
     0
102
RTVSPropertyOp24
 70
     0
102
RTVSPropertyOp25
 70
     0
102
RTVSPropertyOp26
 70
     0
102
RTVSPropertyOp27
 70
     0
  0
XRECORD
  5
1E5E
102
{ACAD_REACTORS
330
1E5D
102
}
330
1E5D
100
AcDbXrecord
280
     1
102
RTVSPropertyOp0
 70
     1
102
RTVSPropertyOp1
 70
     1
102
RTVSPropertyOp2
 70
     1
102
RTVSPropertyOp3
 70
     1
102
RTVSPropertyOp4
 70
     1
102
RTVSPropertyOp5
 70
     1
102
RTVSPropertyOp6
 70
     1
102
RTVSPropertyOp7
 70
     1
102
RTVSPropertyOp8
 70
     1
102
RTVSPropertyOp9
 70
     1
102
RTVSPropertyOp10
 70
     1
102
RTVSPropertyOp11
 70
     1
102
RTVSPropertyOp12
 70
     1
102
RTVSPropertyOp13
 70
     1
102
RTVSPropertyOp14
 70
     1
102
RTVSPropertyOp15
 70
     1
102
RTVSPropertyOp16
 70
     1
102
RTVSPropertyOp17
 70
     1
102
RTVSPropertyOp18
 70
     1
102
RTVSPropertyOp19
 70
     1
102
RTVSPropertyOp20
 70
     1
102
RTVSPropertyOp21
 70
     1
102
RTVSPropertyOp22
 70
     1
102
RTVSPropertyOp23
 70
     1
102
RTVSPropertyOp24
 70
     1
102
RTVSPropertyOp25
 70
     1
102
RTVSPropertyOp26
 70
     1
102
RTVSPropertyOp27
 70
     1
  0
XRECORD
  5
1E42
102
{ACAD_REACTORS
330
1E41
102
}
330
1E41
100
AcDbXrecord
280
     1
102
RTVSPropertyOp0
 70
     1
102
RTVSPropertyOp1
 70
     1
102
RTVSPropertyOp2
 70
     1
102
RTVSPropertyOp3
 70
     1
102
RTVSPropertyOp4
 70
     1
102
RTVSPropertyOp5
 70
     1
102
RTVSPropertyOp6
 70
     1
102
RTVSPropertyOp7
 70
     1
102
RTVSPropertyOp8
 70
     1
102
RTVSPropertyOp9
 70
     1
102
RTVSPropertyOp10
 70
     1
102
RTVSPropertyOp11
 70
     1
102
RTVSPropertyOp12
 70
     1
102
RTVSPropertyOp13
 70
     1
102
RTVSPropertyOp14
 70
     1
102
RTVSPropertyOp15
 70
     1
102
RTVSPropertyOp16
 70
     1
102
RTVSPropertyOp17
 70
     1
102
RTVSPropertyOp18
 70
     1
102
RTVSPropertyOp19
 70
     1
102
RTVSPropertyOp20
 70
     1
102
RTVSPropertyOp21
 70
     1
102
RTVSPropertyOp22
 70
     1
102
RTVSPropertyOp23
 70
     1
102
RTVSPropertyOp24
 70
     1
102
RTVSPropertyOp25
 70
     1
102
RTVSPropertyOp26
 70
     1
102
RTVSPropertyOp27
 70
     1
  0
XRECORD
  5
1E44
102
{ACAD_REACTORS
330
1E43
102
}
330
1E43
100
AcDbXrecord
280
     1
102
RTVSPropertyOp0
 70
     1
102
RTVSPropertyOp1
 70
     1
102
RTVSPropertyOp2
 70
     1
102
RTVSPropertyOp3
 70
     1
102
RTVSPropertyOp4
 70
     1
102
RTVSPropertyOp5
 70
     1
102
RTVSPropertyOp6
 70
     1
102
RTVSPropertyOp7
 70
     1
102
RTVSPropertyOp8
 70
     1
102
RTVSPropertyOp9
 70
     1
102
RTVSPropertyOp10
 70
     1
102
RTVSPropertyOp11
 70
     1
102
RTVSPropertyOp12
 70
     1
102
RTVSPropertyOp13
 70
     1
102
RTVSPropertyOp14
 70
     1
102
RTVSPropertyOp15
 70
     1
102
RTVSPropertyOp16
 70
     1
102
RTVSPropertyOp17
 70
     1
102
RTVSPropertyOp18
 70
     1
102
RTVSPropertyOp19
 70
     1
102
RTVSPropertyOp20
 70
     1
102
RTVSPropertyOp21
 70
     1
102
RTVSPropertyOp22
 70
     1
102
RTVSPropertyOp23
 70
     1
102
RTVSPropertyOp24
 70
     1
102
RTVSPropertyOp25
 70
     1
102
RTVSPropertyOp26
 70
     1
102
RTVSPropertyOp27
 70
     1
  0
XRECORD
  5
1E46
102
{ACAD_REACTORS
330
1E45
102
}
330
1E45
100
AcDbXrecord
280
     1
102
RTVSPropertyOp0
 70
     1
102
RTVSPropertyOp1
 70
     1
102
RTVSPropertyOp2
 70
     1
102
RTVSPropertyOp3
 70
     1
102
RTVSPropertyOp4
 70
     1
102
RTVSPropertyOp5
 70
     1
102
RTVSPropertyOp6
 70
     1
102
RTVSPropertyOp7
 70
     1
102
RTVSPropertyOp8
 70
     1
102
RTVSPropertyOp9
 70
     1
102
RTVSPropertyOp10
 70
     1
102
RTVSPropertyOp11
 70
     1
102
RTVSPropertyOp12
 70
     1
102
RTVSPropertyOp13
 70
     1
102
RTVSPropertyOp14
 70
     1
102
RTVSPropertyOp15
 70
     1
102
RTVSPropertyOp16
 70
     1
102
RTVSPropertyOp17
 70
     1
102
RTVSPropertyOp18
 70
     1
102
RTVSPropertyOp19
 70
     1
102
RTVSPropertyOp20
 70
     1
102
RTVSPropertyOp21
 70
     1
102
RTVSPropertyOp22
 70
     1
102
RTVSPropertyOp23
 70
     1
102
RTVSPropertyOp24
 70
     1
102
RTVSPropertyOp25
 70
     1
102
RTVSPropertyOp26
 70
     1
102
RTVSPropertyOp27
 70
     1
  0
XRECORD
  5
1E48
102
{ACAD_REACTORS
330
1E47
102
}
330
1E47
100
AcDbXrecord
280
     1
102
RTVSPropertyOp0
 70
     1
102
RTVSPropertyOp1
 70
     1
102
RTVSPropertyOp2
 70
     1
102
RTVSPropertyOp3
 70
     1
102
RTVSPropertyOp4
 70
     1
102
RTVSPropertyOp5
 70
     1
102
RTVSPropertyOp6
 70
     1
102
RTVSPropertyOp7
 70
     1
102
RTVSPropertyOp8
 70
     1
102
RTVSPropertyOp9
 70
     1
102
RTVSPropertyOp10
 70
     1
102
RTVSPropertyOp11
 70
     1
102
RTVSPropertyOp12
 70
     1
102
RTVSPropertyOp13
 70
     1
102
RTVSPropertyOp14
 70
     1
102
RTVSPropertyOp15
 70
     1
102
RTVSPropertyOp16
 70
     1
102
RTVSPropertyOp17
 70
     1
102
RTVSPropertyOp18
 70
     1
102
RTVSPropertyOp19
 70
     1
102
RTVSPropertyOp20
 70
     1
102
RTVSPropertyOp21
 70
     1
102
RTVSPropertyOp22
 70
     1
102
RTVSPropertyOp23
 70
     1
102
RTVSPropertyOp24
 70
     1
102
RTVSPropertyOp25
 70
     1
102
RTVSPropertyOp26
 70
     1
102
RTVSPropertyOp27
 70
     1
  0
XRECORD
  5
1E62
102
{ACAD_REACTORS
330
1E61
102
}
330
1E61
100
AcDbXrecord
280
     1
102
RTVSPropertyOp0
 70
     0
102
RTVSPropertyOp1
 70
     0
102
RTVSPropertyOp2
 70
     0
102
RTVSPropertyOp3
 70
     0
102
RTVSPropertyOp4
 70
     0
102
RTVSPropertyOp5
 70
     0
102
RTVSPropertyOp6
 70
     0
102
RTVSPropertyOp7
 70
     0
102
RTVSPropertyOp8
 70
     0
102
RTVSPropertyOp9
 70
     0
102
RTVSPropertyOp10
 70
     0
102
RTVSPropertyOp11
 70
     0
102
RTVSPropertyOp12
 70
     0
102
RTVSPropertyOp13
 70
     0
102
RTVSPropertyOp14
 70
     2
102
RTVSPropertyOp15
 70
     0
102
RTVSPropertyOp16
 70
     0
102
RTVSPropertyOp17
 70
     0
102
RTVSPropertyOp18
 70
     0
102
RTVSPropertyOp19
 70
     0
102
RTVSPropertyOp20
 70
     0
102
RTVSPropertyOp21
 70
     0
102
RTVSPropertyOp22
 70
     0
102
RTVSPropertyOp23
 70
     0
102
RTVSPropertyOp24
 70
     0
102
RTVSPropertyOp25
 70
     0
102
RTVSPropertyOp26
 70
     0
102
RTVSPropertyOp27
 70
     0
  0
XRECORD
  5
1E5C
102
{ACAD_REACTORS
330
1E5B
102
}
330
1E5B
100
AcDbXrecord
280
     1
102
RTVSPropertyOp0
 70
     1
102
RTVSPropertyOp1
 70
     1
102
RTVSPropertyOp2
 70
     1
102
RTVSPropertyOp3
 70
     1
102
RTVSPropertyOp4
 70
     1
102
RTVSPropertyOp5
 70
     1
102
RTVSPropertyOp6
 70
     1
102
RTVSPropertyOp7
 70
     1
102
RTVSPropertyOp8
 70
     1
102
RTVSPropertyOp9
 70
     1
102
RTVSPropertyOp10
 70
     1
102
RTVSPropertyOp11
 70
     1
102
RTVSPropertyOp12
 70
     1
102
RTVSPropertyOp13
 70
     1
102
RTVSPropertyOp14
 70
     1
102
RTVSPropertyOp15
 70
     1
102
RTVSPropertyOp16
 70
     1
102
RTVSPropertyOp17
 70
     1
102
RTVSPropertyOp18
 70
     1
102
RTVSPropertyOp19
 70
     1
102
RTVSPropertyOp20
 70
     1
102
RTVSPropertyOp21
 70
     1
102
RTVSPropertyOp22
 70
     1
102
RTVSPropertyOp23
 70
     1
102
RTVSPropertyOp24
 70
     1
102
RTVSPropertyOp25
 70
     1
102
RTVSPropertyOp26
 70
     1
102
RTVSPropertyOp27
 70
     1
  0
XRECORD
  5
1E64
102
{ACAD_REACTORS
330
1E63
102
}
330
1E63
100
AcDbXrecord
280
     1
102
RTVSPropertyOp0
 70
     0
102
RTVSPropertyOp1
 70
     0
102
RTVSPropertyOp2
 70
     0
102
RTVSPropertyOp3
 70
     0
102
RTVSPropertyOp4
 70
     0
102
RTVSPropertyOp5
 70
     0
102
RTVSPropertyOp6
 70
     0
102
RTVSPropertyOp7
 70
     0
102
RTVSPropertyOp8
 70
     0
102
RTVSPropertyOp9
 70
     0
102
RTVSPropertyOp10
 70
     0
102
RTVSPropertyOp11
 70
     0
102
RTVSPropertyOp12
 70
     0
102
RTVSPropertyOp13
 70
     0
102
RTVSPropertyOp14
 70
     2
102
RTVSPropertyOp15
 70
     0
102
RTVSPropertyOp16
 70
     0
102
RTVSPropertyOp17
 70
     0
102
RTVSPropertyOp18
 70
     0
102
RTVSPropertyOp19
 70
     0
102
RTVSPropertyOp20
 70
     0
102
RTVSPropertyOp21
 70
     0
102
RTVSPropertyOp22
 70
     0
102
RTVSPropertyOp23
 70
     0
102
RTVSPropertyOp24
 70
     0
102
RTVSPropertyOp25
 70
     0
102
RTVSPropertyOp26
 70
     0
102
RTVSPropertyOp27
 70
     0
  0
XRECORD
  5
1E54
102
{ACAD_REACTORS
330
1E53
102
}
330
1E53
100
AcDbXrecord
280
     1
102
RTVSPropertyOp0
 70
     1
102
RTVSPropertyOp1
 70
     1
102
RTVSPropertyOp2
 70
     1
102
RTVSPropertyOp3
 70
     1
102
RTVSPropertyOp4
 70
     1
102
RTVSPropertyOp5
 70
     1
102
RTVSPropertyOp6
 70
     1
102
RTVSPropertyOp7
 70
     1
102
RTVSPropertyOp8
 70
     1
102
RTVSPropertyOp9
 70
     1
102
RTVSPropertyOp10
 70
     1
102
RTVSPropertyOp11
 70
     1
102
RTVSPropertyOp12
 70
     1
102
RTVSPropertyOp13
 70
     1
102
RTVSPropertyOp14
 70
     1
102
RTVSPropertyOp15
 70
     1
102
RTVSPropertyOp16
 70
     1
102
RTVSPropertyOp17
 70
     1
102
RTVSPropertyOp18
 70
     1
102
RTVSPropertyOp19
 70
     1
102
RTVSPropertyOp20
 70
     1
102
RTVSPropertyOp21
 70
     1
102
RTVSPropertyOp22
 70
     1
102
RTVSPropertyOp23
 70
     1
102
RTVSPropertyOp24
 70
     1
102
RTVSPropertyOp25
 70
     1
102
RTVSPropertyOp26
 70
     1
102
RTVSPropertyOp27
 70
     1
  0
XRECORD
  5
1E5A
102
{ACAD_REACTORS
330
1E59
102
}
330
1E59
100
AcDbXrecord
280
     1
102
RTVSPropertyOp0
 70
     1
102
RTVSPropertyOp1
 70
     1
102
RTVSPropertyOp2
 70
     1
102
RTVSPropertyOp3
 70
     1
102
RTVSPropertyOp4
 70
     1
102
RTVSPropertyOp5
 70
     1
102
RTVSPropertyOp6
 70
     1
102
RTVSPropertyOp7
 70
     1
102
RTVSPropertyOp8
 70
     1
102
RTVSPropertyOp9
 70
     1
102
RTVSPropertyOp10
 70
     1
102
RTVSPropertyOp11
 70
     1
102
RTVSPropertyOp12
 70
     1
102
RTVSPropertyOp13
 70
     1
102
RTVSPropertyOp14
 70
     1
102
RTVSPropertyOp15
 70
     1
102
RTVSPropertyOp16
 70
     1
102
RTVSPropertyOp17
 70
     1
102
RTVSPropertyOp18
 70
     1
102
RTVSPropertyOp19
 70
     1
102
RTVSPropertyOp20
 70
     1
102
RTVSPropertyOp21
 70
     1
102
RTVSPropertyOp22
 70
     1
102
RTVSPropertyOp23
 70
     1
102
RTVSPropertyOp24
 70
     1
102
RTVSPropertyOp25
 70
     1
102
RTVSPropertyOp26
 70
     1
102
RTVSPropertyOp27
 70
     1
  0
ENDSEC
  0
EOF
