  0
SECTION
  2
HEADER
  9
$ACADVER
  1
AC1015
  9
$ACADMAINTVER
 70
    20
  9
$DWGCODEPAGE
  3
ANSI_1252
  9
$INSBASE
 10
0.0
 20
0.0
 30
0.0
  9
$EXTMIN
 10
5270.018129643719
 20
2602.65975222209
 30
0.0
  9
$EXTMAX
 10
5272.616348456891
 20
2603.108691073527
 30
0.0000000000000049
  9
$LIMMIN
 10
0.0
 20
0.0
  9
$LIMMAX
 10
420.0
 20
297.0
  9
$ORTHOMODE
 70
     0
  9
$REGENMODE
 70
     1
  9
$FILLMODE
 70
     1
  9
$QTEXTMODE
 70
     0
  9
$MIRRTEXT
 70
     1
  9
$LTSCALE
 40
1.0
  9
$ATTMODE
 70
     1
  9
$TEXTSIZE
 40
2.5
  9
$TRACEWID
 40
1.0
  9
$TEXTSTYLE
  7
SANINDUSA
  9
$CLAYER
  8
0
  9
$CELTYPE
  6
ByLayer
  9
$CECOLOR
 62
   256
  9
$CELTSCALE
 40
1.0
  9
$DISPSILH
 70
     0
  9
$DIMSCALE
 40
1.0
  9
$DIMASZ
 40
2.0
  9
$DIMEXO
 40
1.0
  9
$DIMDLI
 40
1.0
  9
$DIMRND
 40
0.0
  9
$DIMDLE
 40
0.0
  9
$DIMEXE
 40
1.0
  9
$DIMTP
 40
0.0
  9
$DIMTM
 40
0.0
  9
$DIMTXT
 40
2.0
  9
$DIMCEN
 40
0.0
  9
$DIMTSZ
 40
0.0
  9
$DIMTOL
 70
     0
  9
$DIMLIM
 70
     0
  9
$DIMTIH
 70
     0
  9
$DIMTOH
 70
     0
  9
$DIMSE1
 70
     0
  9
$DIMSE2
 70
     0
  9
$DIMTAD
 70
     1
  9
$DIMZIN
 70
     8
  9
$DIMBLK
  1

  9
$DIMASO
 70
     1
  9
$DIMSHO
 70
     1
  9
$DIMPOST
  1

  9
$DIMAPOST
  1

  9
$DIMALT
 70
     0
  9
$DIMALTD
 70
     3
  9
$DIMALTF
 40
0.03937007874016
  9
$DIMLFAC
 40
1.0
  9
$DIMTOFL
 70
     1
  9
$DIMTVP
 40
0.0
  9
$DIMTIX
 70
     0
  9
$DIMSOXD
 70
     0
  9
$DIMSAH
 70
     0
  9
$DIMBLK1
  1

  9
$DIMBLK2
  1

  9
$DIMSTYLE
  2
SANINDUSA
  9
$DIMCLRD
 70
   256
  9
$DIMCLRE
 70
   256
  9
$DIMCLRT
 70
   256
  9
$DIMTFAC
 40
1.0
  9
$DIMGAP
 40
1.0
  9
$DIMJUST
 70
     0
  9
$DIMSD1
 70
     0
  9
$DIMSD2
 70
     0
  9
$DIMTOLJ
 70
     0
  9
$DIMTZIN
 70
     8
  9
$DIMALTZ
 70
     0
  9
$DIMALTTZ
 70
     0
  9
$DIMUPT
 70
     0
  9
$DIMDEC
 70
     1
  9
$DIMTDEC
 70
     1
  9
$DIMALTU
 70
     2
  9
$DIMALTTD
 70
     3
  9
$DIMTXSTY
  7
SANINDUSA
  9
$DIMAUNIT
 70
     0
  9
$DIMADEC
 70
     1
  9
$DIMALTRND
 40
0.0
  9
$DIMAZIN
 70
     0
  9
$DIMDSEP
 70
    44
  9
$DIMATFIT
 70
     3
  9
$DIMFRAC
 70
     0
  9
$DIMLDRBLK
  1

  9
$DIMLUNIT
 70
     2
  9
$DIMLWD
 70
    -1
  9
$DIMLWE
 70
    -1
  9
$DIMTMOVE
 70
     0
  9
$LUNITS
 70
     2
  9
$LUPREC
 70
     4
  9
$SKETCHINC
 40
1.0
  9
$FILLETRAD
 40
0.0
  9
$AUNITS
 70
     0
  9
$AUPREC
 70
     0
  9
$MENU
  1
.
  9
$ELEVATION
 40
0.0
  9
$PELEVATION
 40
0.0
  9
$THICKNESS
 40
0.0
  9
$LIMCHECK
 70
     0
  9
$CHAMFERA
 40
10.0
  9
$CHAMFERB
 40
10.0
  9
$CHAMFERC
 40
20.0
  9
$CHAMFERD
 40
0.0
  9
$SKPOLY
 70
     0
  9
$TDCREATE
 40
2455296.511020683
  9
$TDUCREATE
 40
2455296.469354017
  9
$TDUPDATE
 40
2455296.513516343
  9
$TDUUPDATE
 40
2455296.471849676
  9
$TDINDWG
 40
0.0024962037
  9
$TDUSRTIMER
 40
0.0024962037
  9
$USRTIMER
 70
     1
  9
$ANGBASE
 50
0.0
  9
$ANGDIR
 70
     0
  9
$PDMODE
 70
     0
  9
$PDSIZE
 40
0.0
  9
$PLINEWID
 40
0.0
  9
$SPLFRAME
 70
     0
  9
$SPLINETYPE
 70
     6
  9
$SPLINESEGS
 70
     8
  9
$HANDSEED
  5
1E44
  9
$SURFTAB1
 70
     6
  9
$SURFTAB2
 70
     6
  9
$SURFTYPE
 70
     6
  9
$SURFU
 70
     6
  9
$SURFV
 70
     6
  9
$UCSBASE
  2

  9
$UCSNAME
  2

  9
$UCSORG
 10
0.0
 20
0.0
 30
0.0
  9
$UCSXDIR
 10
1.0
 20
0.0
 30
0.0
  9
$UCSYDIR
 10
0.0
 20
1.0
 30
0.0
  9
$UCSORTHOREF
  2

  9
$UCSORTHOVIEW
 70
     0
  9
$UCSORGTOP
 10
0.0
 20
0.0
 30
0.0
  9
$UCSORGBOTTOM
 10
0.0
 20
0.0
 30
0.0
  9
$UCSORGLEFT
 10
0.0
 20
0.0
 30
0.0
  9
$UCSORGRIGHT
 10
0.0
 20
0.0
 30
0.0
  9
$UCSORGFRONT
 10
0.0
 20
0.0
 30
0.0
  9
$UCSORGBACK
 10
0.0
 20
0.0
 30
0.0
  9
$PUCSBASE
  2

  9
$PUCSNAME
  2

  9
$PUCSORG
 10
0.0
 20
0.0
 30
0.0
  9
$PUCSXDIR
 10
1.0
 20
0.0
 30
0.0
  9
$PUCSYDIR
 10
0.0
 20
1.0
 30
0.0
  9
$PUCSORTHOREF
  2

  9
$PUCSORTHOVIEW
 70
     0
  9
$PUCSORGTOP
 10
0.0
 20
0.0
 30
0.0
  9
$PUCSORGBOTTOM
 10
0.0
 20
0.0
 30
0.0
  9
$PUCSORGLEFT
 10
0.0
 20
0.0
 30
0.0
  9
$PUCSORGRIGHT
 10
0.0
 20
0.0
 30
0.0
  9
$PUCSORGFRONT
 10
0.0
 20
0.0
 30
0.0
  9
$PUCSORGBACK
 10
0.0
 20
0.0
 30
0.0
  9
$USERI1
 70
     0
  9
$USERI2
 70
     0
  9
$USERI3
 70
     0
  9
$USERI4
 70
     0
  9
$USERI5
 70
     0
  9
$USERR1
 40
0.0
  9
$USERR2
 40
0.0
  9
$USERR3
 40
0.0
  9
$USERR4
 40
0.0
  9
$USERR5
 40
0.0
  9
$WORLDVIEW
 70
     1
  9
$SHADEDGE
 70
     3
  9
$SHADEDIF
 70
    70
  9
$TILEMODE
 70
     1
  9
$MAXACTVP
 70
    64
  9
$PINSBASE
 10
0.0
 20
0.0
 30
0.0
  9
$PLIMCHECK
 70
     0
  9
$PEXTMIN
 10
1.000000000000000E+20
 20
1.000000000000000E+20
 30
1.000000000000000E+20
  9
$PEXTMAX
 10
-1.000000000000000E+20
 20
-1.000000000000000E+20
 30
-1.000000000000000E+20
  9
$PLIMMIN
 10
0.0
 20
0.0
  9
$PLIMMAX
 10
420.0
 20
297.0
  9
$UNITMODE
 70
     0
  9
$VISRETAIN
 70
     1
  9
$PLINEGEN
 70
     0
  9
$PSLTSCALE
 70
     1
  9
$TREEDEPTH
 70
  3020
  9
$CMLSTYLE
  2
Standard
  9
$CMLJUST
 70
     0
  9
$CMLSCALE
 40
20.0
  9
$PROXYGRAPHICS
 70
     1
  9
$MEASUREMENT
 70
     1
  9
$CELWEIGHT
370
    -1
  9
$ENDCAPS
280
     0
  9
$JOINSTYLE
280
     0
  9
$LWDISPLAY
290
     0
  9
$INSUNITS
 70
     4
  9
$HYPERLINKBASE
  1

  9
$STYLESHEET
  1
sanindusa.ctb
  9
$XEDIT
290
     1
  9
$CEPSNTYPE
380
     0
  9
$PSTYLEMODE
290
     1
  9
$FINGERPRINTGUID
  2
{9F5C1DA0-0B4D-4EBA-A208-46CA3AD7F7C4}
  9
$VERSIONGUID
  2
{259AF4E7-E66A-41F2-971B-272BD61C8319}
  9
$EXTNAMES
290
     1
  9
$PSVPSCALE
 40
0.0
  9
$OLESTARTUP
290
     0
  0
ENDSEC
  0
SECTION
  2
CLASSES
  0
CLASS
  1
ACDBDICTIONARYWDFLT
  2
AcDbDictionaryWithDefault
  3
ObjectDBX Classes
 90
        0
280
     0
281
     0
  0
CLASS
  1
ACDBPLACEHOLDER
  2
AcDbPlaceHolder
  3
ObjectDBX Classes
 90
        0
280
     0
281
     0
  0
CLASS
  1
LAYOUT
  2
AcDbLayout
  3
ObjectDBX Classes
 90
        0
280
     0
281
     0
  0
CLASS
  1
DICTIONARYVAR
  2
AcDbDictionaryVar
  3
ObjectDBX Classes
 90
        0
280
     0
281
     0
  0
CLASS
  1
DIMASSOC
  2
AcDbDimAssoc
  3
"AcDbDimAssoc|Product Desc:     AcDim ARX App For Dimension|Company:          Autodesk, Inc.|WEB Address:      www.autodesk.com"
 90
        0
280
     0
281
     0
  0
CLASS
  1
TABLESTYLE
  2
AcDbTableStyle
  3
ObjectDBX Classes
 90
     4095
280
     0
281
     0
  0
CLASS
  1
MATERIAL
  2
AcDbMaterial
  3
ObjectDBX Classes
 90
     1153
280
     0
281
     0
  0
CLASS
  1
VISUALSTYLE
  2
AcDbVisualStyle
  3
ObjectDBX Classes
 90
     4095
280
     0
281
     0
  0
CLASS
  1
SCALE
  2
AcDbScale
  3
ObjectDBX Classes
 90
     1153
280
     0
281
     0
  0
CLASS
  1
MLEADERSTYLE
  2
AcDbMLeaderStyle
  3
ACDB_MLEADERSTYLE_CLASS
 90
     4095
280
     0
281
     0
  0
CLASS
  1
SORTENTSTABLE
  2
AcDbSortentsTable
  3
ObjectDBX Classes
 90
        0
280
     0
281
     0
  0
CLASS
  1
AEC_REFEDIT_STATUS_TRACKER
  2
AecDbRefEditStatusTracker
  3
AecArchBase60|Product Desc: Autodesk Architectural Desktop 2007 |Company: Autodesk,Inc. |WEB Address: www.autodesk.com
 90
      129
280
     0
281
     0
  0
CLASS
  1
NPOCOLLECTION
  2
AcDbImpNonPersistentObjectsCollection
  3
ObjectDBX Classes
 90
     1153
280
     0
281
     0
  0
CLASS
  1
CELLSTYLEMAP
  2
AcDbCellStyleMap
  3
ObjectDBX Classes
 90
     1152
280
     0
281
     0
  0
ENDSEC
  0
SECTION
  2
TABLES
  0
TABLE
  2
VPORT
  5
8
330
0
100
AcDbSymbolTable
 70
     1
  0
VPORT
  5
1068
330
8
100
AcDbSymbolTableRecord
100
AcDbViewportTableRecord
  2
*Active
 70
     0
 10
0.0
 20
0.0
 11
1.0
 21
1.0
 12
5271.317239050304
 22
2602.884221647808
 13
0.0
 23
0.0
 14
10.0
 24
10.0
 15
10.0
 25
10.0
 16
0.0
 26
0.0
 36
1.0
 17
0.0
 27
0.0
 37
0.0
 40
1.594933253612212
 41
1.635233160621761
 42
50.0
 43
0.0
 44
0.0
 50
0.0
 51
0.0
 71
     0
 72
   100
 73
     1
 74
     2
 75
     0
 76
     0
 77
     0
 78
     0
281
     0
 65
     1
110
0.0
120
0.0
130
0.0
111
1.0
121
0.0
131
0.0
112
0.0
122
1.0
132
0.0
 79
     0
146
0.0
  0
ENDTAB
  0
TABLE
  2
LTYPE
  5
5
330
0
100
AcDbSymbolTable
 70
     5
  0
LTYPE
  5
14
330
5
100
AcDbSymbolTableRecord
100
AcDbLinetypeTableRecord
  2
ByBlock
 70
     0
  3

 72
    65
 73
     0
 40
0.0
  0
LTYPE
  5
15
330
5
100
AcDbSymbolTableRecord
100
AcDbLinetypeTableRecord
  2
ByLayer
 70
     0
  3

 72
    65
 73
     0
 40
0.0
  0
LTYPE
  5
16
330
5
100
AcDbSymbolTableRecord
100
AcDbLinetypeTableRecord
  2
Continuous
 70
     0
  3
Solid line
 72
    65
 73
     0
 40
0.0
  0
LTYPE
  5
2D
330
5
100
AcDbSymbolTableRecord
100
AcDbLinetypeTableRecord
  2
DASHDOT
 70
     0
  3
Dash dot __ . __ . __ . __ . __ . __ . __ . __
 72
    65
 73
     4
 40
25.4
 49
12.7
 74
     0
 49
-6.349999999999999
 74
     0
 49
0.0
 74
     0
 49
-6.349999999999999
 74
     0
  0
LTYPE
  5
2E
330
5
100
AcDbSymbolTableRecord
100
AcDbLinetypeTableRecord
  2
HIDDEN
 70
     0
  3
Hidden __ __ __ __ __ __ __ __ __ __ __ __ __ _
 72
    65
 73
     2
 40
9.524999999999998
 49
6.349999999999999
 74
     0
 49
-3.174999999999999
 74
     0
  0
LTYPE
  5
C75
330
5
100
AcDbSymbolTableRecord
100
AcDbLinetypeTableRecord
  2
AM_ISO02W050
 70
     0
  3
__ __ __ __ __ __ __ __ __ __ __ __ __ __ __
 72
    65
 73
     2
 40
7.5
 49
6.0
 74
     0
 49
-1.5
 74
     0
  0
LTYPE
  5
C76
330
5
100
AcDbSymbolTableRecord
100
AcDbLinetypeTableRecord
  2
AM_ISO08W050
 70
     0
  3
____ . ____ . ____ . ____ . ____ . ____ . ____
 72
    65
 73
     4
 40
18.0
 49
12.0
 74
     0
 49
-1.5
 74
     0
 49
3.0
 74
     0
 49
-1.5
 74
     0
  0
ENDTAB
  0
TABLE
  2
LAYER
  5
2
102
{ACAD_XDICTIONARY
360
1051
102
}
330
0
100
AcDbSymbolTable
 70
    17
  0
LAYER
  5
10
102
{ACAD_XDICTIONARY
360
1D36
102
}
330
2
100
AcDbSymbolTableRecord
100
AcDbLayerTableRecord
  2
0
 70
     0
 62
     7
  6
Continuous
370
    -3
390
F
  0
LAYER
  5
2F
102
{ACAD_XDICTIONARY
360
1D38
102
}
330
2
100
AcDbSymbolTableRecord
100
AcDbLayerTableRecord
  2
1
 70
     0
 62
     1
  6
Continuous
370
    -3
390
F
  0
LAYER
  5
30
102
{ACAD_XDICTIONARY
360
1D3A
102
}
330
2
100
AcDbSymbolTableRecord
100
AcDbLayerTableRecord
  2
2
 70
     0
 62
     2
  6
Continuous
370
    -3
390
F
  0
LAYER
  5
31
102
{ACAD_XDICTIONARY
360
1D3C
102
}
330
2
100
AcDbSymbolTableRecord
100
AcDbLayerTableRecord
  2
3
 70
     0
 62
     3
  6
Continuous
370
    -3
390
F
  0
LAYER
  5
32
102
{ACAD_XDICTIONARY
360
1D3E
102
}
330
2
100
AcDbSymbolTableRecord
100
AcDbLayerTableRecord
  2
4
 70
     0
 62
     4
  6
Continuous
370
    -3
390
F
  0
LAYER
  5
33
102
{ACAD_XDICTIONARY
360
1D40
102
}
330
2
100
AcDbSymbolTableRecord
100
AcDbLayerTableRecord
  2
5
 70
     0
 62
     5
  6
Continuous
370
    -3
390
F
  0
LAYER
  5
34
102
{ACAD_XDICTIONARY
360
1D42
102
}
330
2
100
AcDbSymbolTableRecord
100
AcDbLayerTableRecord
  2
6
 70
     0
 62
     6
  6
Continuous
370
    -3
390
F
  0
LAYER
  5
35
102
{ACAD_XDICTIONARY
360
1D44
102
}
330
2
100
AcDbSymbolTableRecord
100
AcDbLayerTableRecord
  2
7
 70
     0
 62
     7
  6
Continuous
370
    -3
390
F
  0
LAYER
  5
36
102
{ACAD_XDICTIONARY
360
1D46
102
}
330
2
100
AcDbSymbolTableRecord
100
AcDbLayerTableRecord
  2
cen
 70
     0
 62
     7
  6
DASHDOT
370
    -3
390
F
  0
LAYER
  5
37
102
{ACAD_XDICTIONARY
360
1D48
102
}
330
2
100
AcDbSymbolTableRecord
100
AcDbLayerTableRecord
  2
hid
 70
     0
 62
     7
  6
HIDDEN
370
    -3
390
F
  0
LAYER
  5
5D6
102
{ACAD_XDICTIONARY
360
1D4A
102
}
330
2
100
AcDbSymbolTableRecord
100
AcDbLayerTableRecord
  2
hatch
 70
     0
 62
     9
  6
Continuous
370
    -3
390
F
  0
LAYER
  5
8AF
102
{ACAD_XDICTIONARY
360
1D4C
102
}
330
2
100
AcDbSymbolTableRecord
100
AcDbLayerTableRecord
  2
9
 70
     0
 62
     9
  6
Continuous
370
    -3
390
F
  0
LAYER
  5
8F8
102
{ACAD_XDICTIONARY
360
1D4E
102
}
330
2
100
AcDbSymbolTableRecord
100
AcDbLayerTableRecord
  2
leg fin
 70
     0
 62
     9
  6
Continuous
370
    -3
390
F
  0
LAYER
  5
91D
102
{ACAD_XDICTIONARY
360
1D50
102
}
330
2
100
AcDbSymbolTableRecord
100
AcDbLayerTableRecord
  2
cotas
 70
     0
 62
     1
  6
Continuous
370
    -3
390
F
  0
LAYER
  5
92F
330
2
100
AcDbSymbolTableRecord
100
AcDbLayerTableRecord
  2
Defpoints
 70
     0
 62
     7
  6
Continuous
290
     0
370
    -3
390
F
  0
LAYER
  5
C7B
102
{ACAD_XDICTIONARY
360
1D52
102
}
330
2
100
AcDbSymbolTableRecord
100
AcDbLayerTableRecord
  2
SANINDUSA
 70
     0
 62
     3
  6
Continuous
370
    -3
390
F
  0
LAYER
  5
1060
102
{ACAD_XDICTIONARY
360
1D54
102
}
330
2
100
AcDbSymbolTableRecord
100
AcDbLayerTableRecord
  2
hid1
 70
     0
 62
     9
  6
HIDDEN
370
    -3
390
F
1001
AcAecLayerStandard
1000

1000

  0
ENDTAB
  0
TABLE
  2
STYLE
  5
3
330
0
100
AcDbSymbolTable
 70
     4
  0
STYLE
  5
11
330
3
100
AcDbSymbolTableRecord
100
AcDbTextStyleTableRecord
  2
Standard
 70
     0
 40
0.0
 41
1.0
 50
0.0
 71
     0
 42
2.5
  3
Avgardn.ttf
  4

1001
ACAD
1000
AvantGarde Bk BT
1071
       34
  0
STYLE
  5
2C
330
3
100
AcDbSymbolTableRecord
100
AcDbTextStyleTableRecord
  2

 70
     1
 40
0.0
 41
1.0
 50
0.0
 71
     0
 42
2.5
  3
ltypeshp.shx
  4

  0
STYLE
  5
91F
330
3
100
AcDbSymbolTableRecord
100
AcDbTextStyleTableRecord
  2
SANINDUSA
 70
     0
 40
0.0
 41
1.0
 50
0.0
 71
     0
 42
2.5
  3
verdana.TTF
  4

1001
ACAD
1000
Verdana
1071
       34
  0
STYLE
  5
C7C
330
3
100
AcDbSymbolTableRecord
100
AcDbTextStyleTableRecord
  2
futura
 70
     0
 40
0.0
 41
1.0
 50
0.0
 71
     0
 42
2.5
  3
ZURCHN.TTF
  4

1001
ACAD
1000
Zurich BT
1071
       34
  0
ENDTAB
  0
TABLE
  2
VIEW
  5
6
330
0
100
AcDbSymbolTable
 70
     0
  0
ENDTAB
  0
TABLE
  2
UCS
  5
7
330
0
100
AcDbSymbolTable
 70
     0
  0
ENDTAB
  0
TABLE
  2
APPID
  5
9
330
0
100
AcDbSymbolTable
 70
    12
  0
APPID
  5
12
330
9
100
AcDbSymbolTableRecord
100
AcDbRegAppTableRecord
  2
ACAD
 70
     0
  0
APPID
  5
3A
330
9
100
AcDbSymbolTableRecord
100
AcDbRegAppTableRecord
  2
DCO15
 70
     0
  0
APPID
  5
EEE
330
9
100
AcDbSymbolTableRecord
100
AcDbRegAppTableRecord
  2
ACAD_DSTYLE_DIMTEXT_FILL
 70
     0
  0
APPID
  5
EEF
330
9
100
AcDbSymbolTableRecord
100
AcDbRegAppTableRecord
  2
ACAD_DSTYLE_DIMEXT_LENGTH
 70
     0
  0
APPID
  5
EF0
330
9
100
AcDbSymbolTableRecord
100
AcDbRegAppTableRecord
  2
ACAD_DSTYLE_DIMEXT_ENABLED
 70
     0
  0
APPID
  5
EF1
330
9
100
AcDbSymbolTableRecord
100
AcDbRegAppTableRecord
  2
ACAD_DSTYLE_DIM_LINETYPE
 70
     0
  0
APPID
  5
EF2
330
9
100
AcDbSymbolTableRecord
100
AcDbRegAppTableRecord
  2
ACAD_DSTYLE_DIM_EXT1_LINETYPE
 70
     0
  0
APPID
  5
EF3
330
9
100
AcDbSymbolTableRecord
100
AcDbRegAppTableRecord
  2
ACAD_DSTYLE_DIM_EXT2_LINETYPE
 70
     0
  0
APPID
  5
FAF
330
9
100
AcDbSymbolTableRecord
100
AcDbRegAppTableRecord
  2
ACAD_DSTYLE_DIMJOGGED_JOGANGLE_SYMBOL
 70
     0
  0
APPID
  5
1013
330
9
100
AcDbSymbolTableRecord
100
AcDbRegAppTableRecord
  2
ACAD_DSTYLE_DIMARC_LENGTH_SYMBOL
 70
     0
  0
APPID
  5
1061
330
9
100
AcDbSymbolTableRecord
100
AcDbRegAppTableRecord
  2
AcAecLayerStandard
 70
     0
  0
APPID
  5
1E31
330
9
100
AcDbSymbolTableRecord
100
AcDbRegAppTableRecord
  2
ACAD_MLEADERVER
 70
     0
  0
ENDTAB
  0
TABLE
  2
DIMSTYLE
  5
A
330
0
100
AcDbSymbolTable
 70
     3
100
AcDbDimStyleTable
 71
     1
340
921
  0
DIMSTYLE
105
45
330
A
100
AcDbSymbolTableRecord
100
AcDbDimStyleTableRecord
  2
STANDARD
 70
     0
289
     0
340
11
  0
DIMSTYLE
105
921
330
A
100
AcDbSymbolTableRecord
100
AcDbDimStyleTableRecord
  2
SANINDUSA
 70
     0
 41
2.0
 42
1.0
 43
1.0
 44
1.0
 73
     0
 74
     0
 77
     1
 78
     8
140
2.0
141
0.0
143
0.03937007874016
147
1.0
171
     3
172
     1
176
   256
177
   256
178
   256
179
     1
271
     1
272
     1
274
     3
278
    44
283
     0
284
     8
340
91F
371
    -1
372
    -1
1001
ACAD_DSTYLE_DIMJOGGED_JOGANGLE_SYMBOL
1070
   384
1040
1.570796326794896
  0
DIMSTYLE
105
C7D
330
A
100
AcDbSymbolTableRecord
100
AcDbDimStyleTableRecord
  2
AM_ISO
 70
     0
  4
"
 41
2.5
 42
1.0
 43
10.0
 44
1.0
 47
0.1
 48
0.1
 73
     0
 74
     0
 77
     1
 78
     8
 79
     2
140
3.5
141
0.0
143
0.0393701
146
0.71
147
1.5
172
     1
176
   256
177
   256
178
     2
271
     2
272
     3
274
     4
283
     0
284
     8
340
11
371
    -1
372
    -1
  0
ENDTAB
  0
TABLE
  2
BLOCK_RECORD
  5
1
330
0
100
AcDbSymbolTable
 70
    89
  0
BLOCK_RECORD
  5
1F
330
1
100
AcDbSymbolTableRecord
100
AcDbBlockTableRecord
  2
*Model_Space
340
22
  0
BLOCK_RECORD
  5
1B
330
1
100
AcDbSymbolTableRecord
100
AcDbBlockTableRecord
  2
*Paper_Space
340
1E
  0
BLOCK_RECORD
  5
23
330
1
100
AcDbSymbolTableRecord
100
AcDbBlockTableRecord
  2
*Paper_Space0
340
26
  0
BLOCK_RECORD
  5
919
330
1
100
AcDbSymbolTableRecord
100
AcDbBlockTableRecord
  2
_DotSmall
340
0
102
{BLKREFS
331
1193
331
1CFD
102
}
  0
BLOCK_RECORD
  5
922
330
1
100
AcDbSymbolTableRecord
100
AcDbBlockTableRecord
  2
base para cotas
340
0
310
2800000020000000200000000100080000000000000400000000000000000000000000000000000000000000000080000080000000808000800000008000800080800000C0C0C000C0DCC000F0CAA6000020400000206000002080000020A0000020C0000020E00000400000004020000040400000406000004080000040A0
310
000040C0000040E00000600000006020000060400000606000006080000060A0000060C0000060E00000800000008020000080400000806000008080000080A0000080C0000080E00000A0000000A0200000A0400000A0600000A0800000A0A00000A0C00000A0E00000C0000000C0200000C0400000C0600000C0800000C0
310
A00000C0C00000C0E00000E0000000E0200000E0400000E0600000E0800000E0A00000E0C00000E0E00040000000400020004000400040006000400080004000A0004000C0004000E00040200000402020004020400040206000402080004020A0004020C0004020E000404000004040200040404000404060004040800040
310
40A0004040C0004040E00040600000406020004060400040606000406080004060A0004060C0004060E00040800000408020004080400040806000408080004080A0004080C0004080E00040A0000040A0200040A0400040A0600040A0800040A0A00040A0C00040A0E00040C0000040C0200040C0400040C0600040C08000
310
40C0A00040C0C00040C0E00040E0000040E0200040E0400040E0600040E0800040E0A00040E0C00040E0E00080000000800020008000400080006000800080008000A0008000C0008000E00080200000802020008020400080206000802080008020A0008020C0008020E00080400000804020008040400080406000804080
310
008040A0008040C0008040E00080600000806020008060400080606000806080008060A0008060C0008060E00080800000808020008080400080806000808080008080A0008080C0008080E00080A0000080A0200080A0400080A0600080A0800080A0A00080A0C00080A0E00080C0000080C0200080C0400080C0600080C0
310
800080C0A00080C0C00080C0E00080E0000080E0200080E0400080E0600080E0800080E0A00080E0C00080E0E000C0000000C0002000C0004000C0006000C0008000C000A000C000C000C000E000C0200000C0202000C0204000C0206000C0208000C020A000C020C000C020E000C0400000C0402000C0404000C0406000C0
310
408000C040A000C040C000C040E000C0600000C0602000C0604000C0606000C0608000C060A000C060C000C060E000C0800000C0802000C0804000C0806000C0808000C080A000C080C000C080E000C0A00000C0A02000C0A04000C0A06000C0A08000C0A0A000C0A0C000C0A0E000C0C00000C0C02000C0C04000C0C06000
310
C0C08000C0C0A000F0FBFF00A4A0A000808080000000FF0000FF000000FFFF00FF000000FF00FF00FFFF0000FFFFFF00A4A4A4A4A4A4A4A4A4A4A4A4A4A4A4A4A4A4A4A4A4A4A4A4A4A4A4A4A4A4A4A4A4A4A4A4A4A4A4A4A4A4A4A4A4A4A4A4A4A4A4A4A4A4A4A4A4A4A4A4A4A4A4A4A4A4A4A4A4A4A4A4A4A4A4A4A4A4A4
310
A4A4A4A4A4A4A4A4A4A4A4A4A4A4A4A4A4A4A4A4A4A4A4A4A4A4A4A4A4A4A4A4A4A4A4A4A4A4A4A4A4A4A4A4A4A4A4A4A4A4A4A4A4A4A4A4A4A4A4A4A4A4A4A4A4A4A4A4A4A4A4A4A4A4A4A4A4A4A4A4A4A4A4A4A4A4A4A4A4A4A4A4A4A4A4A4A4A4A4A4A4A4A4A4A4A4A4A4A4A4A4A4A4A4A4A4A4A4A4A4A4A4A4A4A4A4A4
310
A4A4A4A4A4A4A4A4A4A4A4A4A4A4A4A4A4A4A4A4A4A4A4A4A4A4A4A4A4A4A4A4A4A4A4A4A4A4A4A4A4A4A4A4A4A4A4A4A4A4A4A4A4A4A4A4A4A4A4A4A4A4A4A4A4A4A4A4A4A4A4A4A4A4A4A4A4A4A4A4A4A4A4A4A4A4A4A4A4A4A4A4A4A4A4A4A4A4A4A4A4A4A4A4A4A4A4A4A4A4A4A4A4A4A4A4A4A4A4A4A4A4A4A4A4A4A4
310
A4A4A4A4A4A4A4A4A4A4A4A4A4A4A4A4A4A4A4A4A4A4A4A4A4A4A4A4A4A4A4A4A4A4A4A4A4A4A4A4A4A4A4A4A4A4A4A4A4A4A4A4A4A4A4A4A4A4A4A4A4A4A4A4A4A4A4A4A4A4A4A4A4A4A4A4A4A4A4A4A4A4A4A4A4A4A4A4A4A4A4A4A4A4A4A4A4A4A4A4A4A4A4A4A4A4A4A4A4A4A4A4A4A4A4A4F9F9F9F9F9F9F9F9F9F9F9
310
F9F9F9F9F9F9F9F9F9F9F9F9F9F9F9F9F9F9F9A4A4F9F9F9F9F9F9F9F9F9F9F9F9F9F9F9F9F9F9F9F9F9F9F9F9F9F9F9F9F9F9A4A4F9F9F9F9F9F9F9F9F9F9F9F9F9F9F9F9F9F9F9F9F9F9F9F9F9F9F9F9F9F9A4A4F9A4A4A4A4A4A4A4A4A4A4A4A4A4A4A4A4A4A4A4A4A4A4A4A4A4A4A4A4F9A4A4A4A4A4A4A4A4A4A4A4A4
310
A4A4A4A4A4A4A4A4A4A4A4A4A4A4A4A4A4A4A4A4A4A4A4A4A4A4A4A4A4A4A4A4A4A4A4A4A4A4A4A4A4A4A4A4A4A4A4A4A4A4A4A4A4A4A4A4A4A4A4A4A4A4A4A4A4A4A4A4A4A4A4A4A4A4A4A4A4A4A4A4A4A4A4A4A4A4A4A4A4A4A4A4A4A4A4A4A4A4A4A4A4A4A4A4A4A4A4A4A4A4A4A4A4A4A4A4A4A4A4A4A4A4A4A4A4A4A4
310
A4A4A4A4A4A4A4A4A4A4A4A4A4A4A4A4A4A4A4A4A4A4A4A4A4A4A4A4A4A4A4A4A4A4A4A4A4A4A4A4A4A4A4A4A4A4A4A4A4A4A4A4A4A4A4A4A4A4A4A4A4A4A4A4A4A4A4A4A4A4A4A4A4A4A4A4A4A4A4A4A4A4A4A4A4A4A4A4A4A4A4A4A4A4A4A4A4A4A4A4A4A4A4A4A4A4A4A4A4A4A4A4A4A4A4A4A4A4A4A4A4A4A4A4A4A4A4
310
A4A4A4A4A4A4A4A4A4A4A4A4A4A4A4A4A4A4A4A4A4A4A4A4A4A4A4A4A4A4A4A4A4A4A4A4A4A4A4A4A4A4A4A4A4A4A4A4A4A4A4A4A4A4A4A4A4A4A4A4A4A4A4A4A4A4A4A4A4A4A4A4A4A4A4A4A4A4A4A4A4A4A4A4A4A4A4A4A4A4A4A4A4A4A4A4A4A4A4A4A4A4A4A4A4A4A4A4A4A4A4A4A4A4A4A4A4A4A4A4A4A4A4A4A4A4A4
310
A4A4A4A4A4A4A4A4A4A4A4A4A4A4A4A4A4A4A4A4A4A4A4A4A4A4A4A4A4A4A4A4A4A4A4A4A4A4A4A4A4A4A4A4A4A4A4A4A4A4A4A4A4A4A4A4
1001
ACAD
1000
DesignCenter Data
1002
{
1070
     1
1070
     4
1002
}
  0
BLOCK_RECORD
  5
AA8
330
1
100
AcDbSymbolTableRecord
100
AcDbBlockTableRecord
  2
_CLOSED
340
0
  0
BLOCK_RECORD
  5
B79
330
1
100
AcDbSymbolTableRecord
100
AcDbBlockTableRecord
  2
nota revisoes
340
0
1001
ACAD
1000
DesignCenter Data
1002
{
1070
     1
1070
     4
1002
}
  0
BLOCK_RECORD
  5
B8E
330
1
100
AcDbSymbolTableRecord
100
AcDbBlockTableRecord
  2
a3l
340
0
1001
ACAD
1000
DesignCenter Data
1002
{
1070
     1
1070
     4
1002
}
  0
BLOCK_RECORD
  5
B9E
330
1
100
AcDbSymbolTableRecord
100
AcDbBlockTableRecord
  2
legenda desenvolvimento
340
0
1001
ACAD
1000
DesignCenter Data
1002
{
1070
     1
1070
     4
1002
}
  0
BLOCK_RECORD
  5
10B3
330
1
100
AcDbSymbolTableRecord
100
AcDbBlockTableRecord
  2
*D7
340
0
  0
BLOCK_RECORD
  5
10BF
330
1
100
AcDbSymbolTableRecord
100
AcDbBlockTableRecord
  2
*D8
340
0
  0
BLOCK_RECORD
  5
10CB
330
1
100
AcDbSymbolTableRecord
100
AcDbBlockTableRecord
  2
*D9
340
0
  0
BLOCK_RECORD
  5
10D7
330
1
100
AcDbSymbolTableRecord
100
AcDbBlockTableRecord
  2
*D10
340
0
  0
BLOCK_RECORD
  5
10E3
330
1
100
AcDbSymbolTableRecord
100
AcDbBlockTableRecord
  2
*D11
340
0
  0
BLOCK_RECORD
  5
10EF
330
1
100
AcDbSymbolTableRecord
100
AcDbBlockTableRecord
  2
*D12
340
0
  0
BLOCK_RECORD
  5
10FB
330
1
100
AcDbSymbolTableRecord
100
AcDbBlockTableRecord
  2
*D13
340
0
  0
BLOCK_RECORD
  5
1107
330
1
100
AcDbSymbolTableRecord
100
AcDbBlockTableRecord
  2
*D14
340
0
  0
BLOCK_RECORD
  5
1113
330
1
100
AcDbSymbolTableRecord
100
AcDbBlockTableRecord
  2
*D15
340
0
  0
BLOCK_RECORD
  5
111F
330
1
100
AcDbSymbolTableRecord
100
AcDbBlockTableRecord
  2
*D16
340
0
  0
BLOCK_RECORD
  5
112B
330
1
100
AcDbSymbolTableRecord
100
AcDbBlockTableRecord
  2
*D17
340
0
  0
BLOCK_RECORD
  5
1137
330
1
100
AcDbSymbolTableRecord
100
AcDbBlockTableRecord
  2
*D18
340
0
  0
BLOCK_RECORD
  5
1143
330
1
100
AcDbSymbolTableRecord
100
AcDbBlockTableRecord
  2
*D19
340
0
  0
BLOCK_RECORD
  5
114F
330
1
100
AcDbSymbolTableRecord
100
AcDbBlockTableRecord
  2
*D20
340
0
  0
BLOCK_RECORD
  5
115B
330
1
100
AcDbSymbolTableRecord
100
AcDbBlockTableRecord
  2
*D21
340
0
  0
BLOCK_RECORD
  5
1167
330
1
100
AcDbSymbolTableRecord
100
AcDbBlockTableRecord
  2
*D22
340
0
  0
BLOCK_RECORD
  5
1173
330
1
100
AcDbSymbolTableRecord
100
AcDbBlockTableRecord
  2
*D23
340
0
  0
BLOCK_RECORD
  5
1181
330
1
100
AcDbSymbolTableRecord
100
AcDbBlockTableRecord
  2
*D24
340
0
  0
BLOCK_RECORD
  5
118D
330
1
100
AcDbSymbolTableRecord
100
AcDbBlockTableRecord
  2
*D25
340
0
  0
BLOCK_RECORD
  5
119A
330
1
100
AcDbSymbolTableRecord
100
AcDbBlockTableRecord
  2
*D26
340
0
  0
BLOCK_RECORD
  5
11A6
330
1
100
AcDbSymbolTableRecord
100
AcDbBlockTableRecord
  2
*D27
340
0
  0
BLOCK_RECORD
  5
11B2
330
1
100
AcDbSymbolTableRecord
100
AcDbBlockTableRecord
  2
*D28
340
0
  0
BLOCK_RECORD
  5
11C0
330
1
100
AcDbSymbolTableRecord
100
AcDbBlockTableRecord
  2
*D29
340
0
  0
BLOCK_RECORD
  5
11CC
330
1
100
AcDbSymbolTableRecord
100
AcDbBlockTableRecord
  2
*D30
340
0
  0
BLOCK_RECORD
  5
11D5
330
1
100
AcDbSymbolTableRecord
100
AcDbBlockTableRecord
  2
*D31
340
0
  0
BLOCK_RECORD
  5
11DE
330
1
100
AcDbSymbolTableRecord
100
AcDbBlockTableRecord
  2
*D32
340
0
  0
BLOCK_RECORD
  5
11E7
330
1
100
AcDbSymbolTableRecord
100
AcDbBlockTableRecord
  2
*D33
340
0
  0
BLOCK_RECORD
  5
11F0
330
1
100
AcDbSymbolTableRecord
100
AcDbBlockTableRecord
  2
*D34
340
0
  0
BLOCK_RECORD
  5
11F8
330
1
100
AcDbSymbolTableRecord
100
AcDbBlockTableRecord
  2
*D35
340
0
  0
BLOCK_RECORD
  5
1201
330
1
100
AcDbSymbolTableRecord
100
AcDbBlockTableRecord
  2
*D36
340
0
  0
BLOCK_RECORD
  5
1209
330
1
100
AcDbSymbolTableRecord
100
AcDbBlockTableRecord
  2
*D37
340
0
  0
BLOCK_RECORD
  5
1212
330
1
100
AcDbSymbolTableRecord
100
AcDbBlockTableRecord
  2
*D38
340
0
  0
BLOCK_RECORD
  5
121A
330
1
100
AcDbSymbolTableRecord
100
AcDbBlockTableRecord
  2
*D39
340
0
  0
BLOCK_RECORD
  5
1228
330
1
100
AcDbSymbolTableRecord
100
AcDbBlockTableRecord
  2
*D40
340
0
  0
BLOCK_RECORD
  5
1236
330
1
100
AcDbSymbolTableRecord
100
AcDbBlockTableRecord
  2
*D41
340
0
  0
BLOCK_RECORD
  5
1241
330
1
100
AcDbSymbolTableRecord
100
AcDbBlockTableRecord
  2
*D42
340
0
  0
BLOCK_RECORD
  5
1249
330
1
100
AcDbSymbolTableRecord
100
AcDbBlockTableRecord
  2
*D43
340
0
  0
BLOCK_RECORD
  5
158E
330
1
100
AcDbSymbolTableRecord
100
AcDbBlockTableRecord
  2
*D45
340
0
  0
BLOCK_RECORD
  5
159A
330
1
100
AcDbSymbolTableRecord
100
AcDbBlockTableRecord
  2
*D46
340
0
  0
BLOCK_RECORD
  5
15A6
330
1
100
AcDbSymbolTableRecord
100
AcDbBlockTableRecord
  2
*D47
340
0
  0
BLOCK_RECORD
  5
15B2
330
1
100
AcDbSymbolTableRecord
100
AcDbBlockTableRecord
  2
*D48
340
0
  0
BLOCK_RECORD
  5
15BE
330
1
100
AcDbSymbolTableRecord
100
AcDbBlockTableRecord
  2
*D49
340
0
  0
BLOCK_RECORD
  5
15CA
330
1
100
AcDbSymbolTableRecord
100
AcDbBlockTableRecord
  2
*D50
340
0
  0
BLOCK_RECORD
  5
15D6
330
1
100
AcDbSymbolTableRecord
100
AcDbBlockTableRecord
  2
*D51
340
0
  0
BLOCK_RECORD
  5
15E2
330
1
100
AcDbSymbolTableRecord
100
AcDbBlockTableRecord
  2
*D52
340
0
  0
BLOCK_RECORD
  5
15EE
330
1
100
AcDbSymbolTableRecord
100
AcDbBlockTableRecord
  2
*D53
340
0
  0
BLOCK_RECORD
  5
15FA
330
1
100
AcDbSymbolTableRecord
100
AcDbBlockTableRecord
  2
*D54
340
0
  0
BLOCK_RECORD
  5
1606
330
1
100
AcDbSymbolTableRecord
100
AcDbBlockTableRecord
  2
*D55
340
0
  0
BLOCK_RECORD
  5
1612
330
1
100
AcDbSymbolTableRecord
100
AcDbBlockTableRecord
  2
*D56
340
0
  0
BLOCK_RECORD
  5
161E
330
1
100
AcDbSymbolTableRecord
100
AcDbBlockTableRecord
  2
*D57
340
0
  0
BLOCK_RECORD
  5
162A
330
1
100
AcDbSymbolTableRecord
100
AcDbBlockTableRecord
  2
*D58
340
0
  0
BLOCK_RECORD
  5
1636
330
1
100
AcDbSymbolTableRecord
100
AcDbBlockTableRecord
  2
*D59
340
0
  0
BLOCK_RECORD
  5
1642
330
1
100
AcDbSymbolTableRecord
100
AcDbBlockTableRecord
  2
*D60
340
0
  0
BLOCK_RECORD
  5
164E
330
1
100
AcDbSymbolTableRecord
100
AcDbBlockTableRecord
  2
*D61
340
0
  0
BLOCK_RECORD
  5
165A
330
1
100
AcDbSymbolTableRecord
100
AcDbBlockTableRecord
  2
*D62
340
0
  0
BLOCK_RECORD
  5
1667
330
1
100
AcDbSymbolTableRecord
100
AcDbBlockTableRecord
  2
*D63
340
0
  0
BLOCK_RECORD
  5
1697
330
1
100
AcDbSymbolTableRecord
100
AcDbBlockTableRecord
  2
*D64
340
0
  0
BLOCK_RECORD
  5
172B
330
1
100
AcDbSymbolTableRecord
100
AcDbBlockTableRecord
  2
*D65
340
0
  0
BLOCK_RECORD
  5
1737
330
1
100
AcDbSymbolTableRecord
100
AcDbBlockTableRecord
  2
*D66
340
0
  0
BLOCK_RECORD
  5
1745
330
1
100
AcDbSymbolTableRecord
100
AcDbBlockTableRecord
  2
*D67
340
0
  0
BLOCK_RECORD
  5
1751
330
1
100
AcDbSymbolTableRecord
100
AcDbBlockTableRecord
  2
*D68
340
0
  0
BLOCK_RECORD
  5
175A
330
1
100
AcDbSymbolTableRecord
100
AcDbBlockTableRecord
  2
*D69
340
0
  0
BLOCK_RECORD
  5
1763
330
1
100
AcDbSymbolTableRecord
100
AcDbBlockTableRecord
  2
*D70
340
0
  0
BLOCK_RECORD
  5
176C
330
1
100
AcDbSymbolTableRecord
100
AcDbBlockTableRecord
  2
*D71
340
0
  0
BLOCK_RECORD
  5
1775
330
1
100
AcDbSymbolTableRecord
100
AcDbBlockTableRecord
  2
*D72
340
0
  0
BLOCK_RECORD
  5
177D
330
1
100
AcDbSymbolTableRecord
100
AcDbBlockTableRecord
  2
*D73
340
0
  0
BLOCK_RECORD
  5
1786
330
1
100
AcDbSymbolTableRecord
100
AcDbBlockTableRecord
  2
*D74
340
0
  0
BLOCK_RECORD
  5
178E
330
1
100
AcDbSymbolTableRecord
100
AcDbBlockTableRecord
  2
*D75
340
0
  0
BLOCK_RECORD
  5
1797
330
1
100
AcDbSymbolTableRecord
100
AcDbBlockTableRecord
  2
*D76
340
0
  0
BLOCK_RECORD
  5
179F
330
1
100
AcDbSymbolTableRecord
100
AcDbBlockTableRecord
  2
*D77
340
0
  0
BLOCK_RECORD
  5
17AD
330
1
100
AcDbSymbolTableRecord
100
AcDbBlockTableRecord
  2
*D78
340
0
  0
BLOCK_RECORD
  5
17BB
330
1
100
AcDbSymbolTableRecord
100
AcDbBlockTableRecord
  2
*D79
340
0
  0
BLOCK_RECORD
  5
17C6
330
1
100
AcDbSymbolTableRecord
100
AcDbBlockTableRecord
  2
*D80
340
0
  0
BLOCK_RECORD
  5
17CE
330
1
100
AcDbSymbolTableRecord
100
AcDbBlockTableRecord
  2
*D81
340
0
  0
BLOCK_RECORD
  5
185E
330
1
100
AcDbSymbolTableRecord
100
AcDbBlockTableRecord
  2
*D82
340
0
  0
BLOCK_RECORD
  5
186A
330
1
100
AcDbSymbolTableRecord
100
AcDbBlockTableRecord
  2
*D83
340
0
  0
BLOCK_RECORD
  5
1888
330
1
100
AcDbSymbolTableRecord
100
AcDbBlockTableRecord
  2
*D84
340
0
  0
BLOCK_RECORD
  5
1890
330
1
100
AcDbSymbolTableRecord
100
AcDbBlockTableRecord
  2
*D85
340
0
  0
BLOCK_RECORD
  5
1899
330
1
100
AcDbSymbolTableRecord
100
AcDbBlockTableRecord
  2
*D86
340
0
  0
BLOCK_RECORD
  5
18A1
330
1
100
AcDbSymbolTableRecord
100
AcDbBlockTableRecord
  2
*D87
340
0
  0
BLOCK_RECORD
  5
1D1F
330
1
100
AcDbSymbolTableRecord
100
AcDbBlockTableRecord
  2
*D88
340
0
  0
ENDTAB
  0
ENDSEC
  0
SECTION
  2
BLOCKS
  0
BLOCK
  5
20
330
1F
100
AcDbEntity
  8
0
100
AcDbBlockBegin
  2
*Model_Space
 70
     0
 10
0.0
 20
0.0
 30
0.0
  3
*Model_Space
  1

  0
ENDBLK
  5
21
330
1F
100
AcDbEntity
  8
0
100
AcDbBlockEnd
  0
BLOCK
  5
1C
330
1B
100
AcDbEntity
 67
     1
  8
0
100
AcDbBlockBegin
  2
*Paper_Space
 70
     0
 10
0.0
 20
0.0
 30
0.0
  3
*Paper_Space
  1

  0
ENDBLK
  5
1D
330
1B
100
AcDbEntity
 67
     1
  8
0
100
AcDbBlockEnd
  0
BLOCK
  5
24
330
23
100
AcDbEntity
 67
     1
  8
0
100
AcDbBlockBegin
  2
*Paper_Space0
 70
     0
 10
0.0
 20
0.0
 30
0.0
  3
*Paper_Space0
  1

  0
ENDBLK
  5
25
330
23
100
AcDbEntity
 67
     1
  8
0
100
AcDbBlockEnd
  0
BLOCK
  5
91B
330
919
100
AcDbEntity
  8
0
100
AcDbBlockBegin
  2
_DotSmall
 70
     0
 10
0.0
 20
0.0
 30
0.0
  3
_DotSmall
  1

  0
LWPOLYLINE
  5
91A
330
919
100
AcDbEntity
  8
0
  6
ByBlock
 62
     0
100
AcDbPolyline
 90
        2
 70
     1
 43
0.5
 10
-0.0625
 20
0.0
 42
1.0
 10
0.0625
 20
0.0
 42
1.0
  0
ENDBLK
  5
91C
330
919
100
AcDbEntity
  8
0
100
AcDbBlockEnd
  0
BLOCK
  5
92A
330
922
100
AcDbEntity
  8
0
100
AcDbBlockBegin
  2
base para cotas
 70
     0
 10
0.0
 20
0.0
 30
0.0
  3
base para cotas
  1

  0
LINE
  5
B36
330
922
100
AcDbEntity
  8
cotas
100
AcDbLine
 10
0.0
 20
-30.0
 30
0.0
 11
327.1260136525398
 21
-30.0
 31
0.0
  0
LINE
  5
B37
330
922
100
AcDbEntity
  8
cotas
100
AcDbLine
 10
0.0
 20
-25.0
 30
0.0
 11
327.1260136525398
 21
-25.0
 31
0.0
  0
LINE
  5
B38
330
922
100
AcDbEntity
  8
cotas
100
AcDbLine
 10
0.0
 20
-20.0
 30
0.0
 11
327.1260136525398
 21
-20.0
 31
0.0
  0
LINE
  5
B39
330
922
100
AcDbEntity
  8
cotas
100
AcDbLine
 10
0.0
 20
-15.0
 30
0.0
 11
327.1260136525398
 21
-15.0
 31
0.0
  0
LINE
  5
B3A
330
922
100
AcDbEntity
  8
cotas
100
AcDbLine
 10
0.0
 20
-10.0
 30
0.0
 11
327.1260136525398
 21
-10.0
 31
0.0
  0
LINE
  5
B3B
330
922
100
AcDbEntity
  8
cotas
100
AcDbLine
 10
0.0
 20
0.0
 30
0.0
 11
0.0
 21
-30.0
 31
0.0
  0
LINE
  5
B3C
330
922
100
AcDbEntity
  8
cotas
100
AcDbLine
 10
327.1260136525398
 20
-30.0
 30
0.0
 11
327.1260136525398
 21
0.0
 31
0.0
  0
ENDBLK
  5
92B
330
922
100
AcDbEntity
  8
0
100
AcDbBlockEnd
  0
BLOCK
  5
AAD
330
AA8
100
AcDbEntity
  8
0
100
AcDbBlockBegin
  2
_CLOSED
 70
     0
 10
0.0
 20
0.0
 30
0.0
  3
_CLOSED
  1

  0
LINE
  5
AA9
330
AA8
100
AcDbEntity
  8
0
100
AcDbLine
 10
-1.0
 20
0.166667
 30
0.0
 11
0.0
 21
0.0
 31
0.0
  0
LINE
  5
AAA
330
AA8
100
AcDbEntity
  8
0
100
AcDbLine
 10
0.0
 20
0.0
 30
0.0
 11
-1.0
 21
-0.166667
 31
0.0
  0
LINE
  5
AAB
330
AA8
100
AcDbEntity
  8
0
100
AcDbLine
 10
-1.0
 20
0.166667
 30
0.0
 11
-1.0
 21
-0.166667
 31
0.0
  0
LINE
  5
AAC
330
AA8
100
AcDbEntity
  8
0
100
AcDbLine
 10
0.0
 20
0.0
 30
0.0
 11
-1.0
 21
0.0
 31
0.0
  0
ENDBLK
  5
AAE
330
AA8
100
AcDbEntity
  8
0
100
AcDbBlockEnd
  0
BLOCK
  5
B7C
330
B79
100
AcDbEntity
  8
0
100
AcDbBlockBegin
  2
nota revisoes
 70
     0
 10
0.0
 20
0.0
 30
0.0
  3
nota revisoes
  1

  0
CIRCLE
  5
B7A
330
B79
100
AcDbEntity
  8
4
100
AcDbCircle
 10
0.0
 20
0.0
 30
0.0
 40
13.69426055101189
  0
TEXT
  5
B7B
330
B79
100
AcDbEntity
  8
4
100
AcDbText
 10
-5.496248358154345
 20
-5.354545554066362
 30
0.0
 40
12.0
  1
1
  7
SANINDUSA
 72
     1
 11
-0.249774214433728
 21
-5.354545554066362
 31
0.0
100
AcDbText
  0
ENDBLK
  5
B7D
330
B79
100
AcDbEntity
  8
0
100
AcDbBlockEnd
  0
BLOCK
  5
B9C
330
B8E
100
AcDbEntity
  8
0
100
AcDbBlockBegin
  2
a3l
 70
     0
 10
0.0
 20
0.0
 30
0.0
  3
a3l
  1

  0
LINE
  5
B8F
330
B8E
100
AcDbEntity
  8
1
100
AcDbLine
 10
-364.2925296599447
 20
-362.1188951399395
 30
0.0
 11
-364.2925296599447
 21
-65.11889513993946
 31
0.0
  0
LINE
  5
B90
330
B8E
100
AcDbEntity
  8
4
100
AcDbLine
 10
-369.2925296599447
 20
-357.1188951399395
 30
0.0
 11
-369.2925296599447
 21
-70.11889513993946
 31
0.0
  0
LINE
  5
B91
330
B8E
100
AcDbEntity
  8
1
100
AcDbLine
 10
-784.2925296599446
 20
-65.11889513993946
 30
0.0
 11
-784.2925296599446
 21
-362.1188951399395
 31
0.0
  0
LINE
  5
B92
330
B8E
100
AcDbEntity
  8
4
100
AcDbLine
 10
-759.2925296599446
 20
-357.1188951399395
 30
0.0
 11
-759.2925296599446
 21
-70.11889513993946
 31
0.0
  0
LINE
  5
B93
330
B8E
100
AcDbEntity
  8
1
100
AcDbLine
 10
-784.2925296599446
 20
-362.1188951399395
 30
0.0
 11
-364.2925296599447
 21
-362.1188951399395
 31
0.0
  0
LINE
  5
B94
330
B8E
100
AcDbEntity
  8
4
100
AcDbLine
 10
-759.2925296599446
 20
-357.1188951399395
 30
0.0
 11
-369.2925296599447
 21
-357.1188951399395
 31
0.0
  0
LINE
  5
B95
330
B8E
100
AcDbEntity
  8
1
100
AcDbLine
 10
-654.2925296599446
 20
-357.1188951399395
 30
0.0
 11
-654.2925296599446
 21
-362.1188951399395
 31
0.0
  0
LINE
  5
B96
330
B8E
100
AcDbEntity
  8
1
100
AcDbLine
 10
-364.2925296599447
 20
-65.11889513993946
 30
0.0
 11
-784.2925296599446
 21
-65.11889513993946
 31
0.0
  0
LINE
  5
B97
330
B8E
100
AcDbEntity
  8
4
100
AcDbLine
 10
-369.2925296599447
 20
-70.11889513993946
 30
0.0
 11
-759.2925296599446
 21
-70.11889513993946
 31
0.0
  0
LINE
  5
B98
330
B8E
100
AcDbEntity
  8
1
100
AcDbLine
 10
-654.2925296599446
 20
-65.11889513993946
 30
0.0
 11
-654.2925296599446
 21
-70.11889513993946
 31
0.0
  0
LINE
  5
B99
330
B8E
100
AcDbEntity
  8
1
100
AcDbLine
 10
-549.2925296599446
 20
-70.11889513993946
 30
0.0
 11
-549.2925296599446
 21
-65.11889513993946
 31
0.0
  0
LINE
  5
B9A
330
B8E
100
AcDbEntity
  8
1
100
AcDbLine
 10
-369.2925296599447
 20
-65.11889513993946
 30
0.0
 11
-364.2925296599447
 21
-65.11889513993946
 31
0.0
  0
LINE
  5
B9B
330
B8E
100
AcDbEntity
  8
1
100
AcDbLine
 10
-549.2925296599446
 20
-357.1188951399395
 30
0.0
 11
-549.2925296599446
 21
-362.1188951399395
 31
0.0
  0
ENDBLK
  5
B9D
330
B8E
100
AcDbEntity
  8
0
100
AcDbBlockEnd
  0
BLOCK
  5
C13
330
B9E
100
AcDbEntity
  8
0
100
AcDbBlockBegin
  2
legenda desenvolvimento
 70
     2
 10
0.0
 20
0.0
 30
0.0
  3
legenda desenvolvimento
  1

  0
ATTDEF
  5
B9F
330
B9E
100
AcDbEntity
  8
1
100
AcDbText
 10
-108.606245802552
 20
55.5
 30
0.0
 40
4.0
  1
XXXXXXXXXXXXXX
 41
0.8
  7
SANINDUSA
 72
     4
 11
-87.5
 21
57.5
 31
0.0
100
AcDbAttributeDefinition
  3
Nome do Produto:
  2
PRODUTO
 70
     0
  0
ATTDEF
  5
BA0
330
B9E
100
AcDbEntity
  8
1
100
AcDbText
 10
-97.9997966101695
 20
41.25
 30
0.0
 40
3.0
  1
XXXXXXXXX
 41
0.8
  7
futura
 72
     4
 11
-87.5
 21
42.75
 31
0.0
100
AcDbAttributeDefinition
  3
Nome da Peça:
  2
PECA
 70
     0
  0
ATTDEF
  5
BA1
330
B9E
100
AcDbEntity
  8
1
100
AcDbText
 10
-133.4422431161853
 20
21.11745296763252
 30
0.0
 40
2.5
  1
X
 41
0.8
  7
SANINDUSA
 72
     4
 11
-132.5
 21
22.36745296763252
 31
0.0
100
AcDbAttributeDefinition
  3
Cod. TESTE:
  2
TESTE
 70
     0
  0
ATTDEF
  5
BA2
330
B9E
100
AcDbEntity
  8
1
100
AcDbText
 10
-124.3844862323707
 20
21.11745296763252
 30
0.0
 40
2.5
  1
XX
 41
0.8
  7
SANINDUSA
 72
     4
 11
-122.5
 21
22.36745296763252
 31
0.0
100
AcDbAttributeDefinition
  3
Cod. Ano:
  2
ANO
 70
     0
  0
ATTDEF
  5
BA3
330
B9E
100
AcDbEntity
  8
1
100
AcDbText
 10
-112.526889953052
 20
21.11745296763252
 30
0.0
 40
2.5
  1
XXX
 41
0.8
  7
SANINDUSA
 72
     4
 11
-109.700160604496
 21
22.36745296763252
 31
0.0
100
AcDbAttributeDefinition
  3
Cod. Sequência:
  2
SEQUENCIA
 70
     0
  0
ATTDEF
  5
BA4
330
B9E
100
AcDbEntity
  8
1
100
AcDbText
 10
-99.35382430979316
 20
21.11745296763252
 30
0.0
 40
2.5
  1
XX
 41
0.8
  7
SANINDUSA
 72
     4
 11
-97.46933807742244
 21
22.36745296763252
 31
0.0
100
AcDbAttributeDefinition
  3
Cod. Tipo:
  2
TIPO
 70
     0
  0
ATTDEF
  5
BA5
330
B9E
100
AcDbEntity
  8
1
100
AcDbText
 10
-87.42035911468438
 20
21.11745296763252
 30
0.0
 40
2.5
  1
XXX
 41
0.8
  7
SANINDUSA
 72
     4
 11
-84.59362976612828
 21
22.36745296763252
 31
0.0
100
AcDbAttributeDefinition
  3
Cod. Produto:
  2
PRODUTO
 70
     0
  0
ATTDEF
  5
BA6
330
B9E
100
AcDbEntity
  8
1
100
AcDbText
 10
-74.62051971917853
 20
21.11745296763252
 30
0.0
 40
2.5
  1
XXX
 41
0.8
  7
SANINDUSA
 72
     4
 11
-71.79379037062244
 21
22.36745296763252
 31
0.0
100
AcDbAttributeDefinition
  3
Cod. Peça:
  2
PECA
 70
     0
  0
ATTDEF
  5
BA7
330
B9E
100
AcDbEntity
  8
1
100
AcDbText
 10
-61.10603446650329
 20
21.11745296763252
 30
0.0
 40
2.5
  1
XX
 41
0.8
  7
SANINDUSA
 72
     4
 11
-59.22154823413257
 21
22.36745296763252
 31
0.0
100
AcDbAttributeDefinition
  3
Cod. Revisão:
  2
REV
 70
     0
  0
ATTDEF
  5
BA8
330
B9E
100
AcDbEntity
  8
1
100
AcDbText
 10
-48.43615325006194
 20
21.11745296763252
 30
0.0
 40
2.5
  1
XX
 41
0.8
  7
SANINDUSA
 72
     4
 11
-46.55166701769121
 21
22.36745296763252
 31
0.0
100
AcDbAttributeDefinition
  3
Cod. Alteração:
  2
ALT
 70
     0
  0
ATTDEF
  5
BA9
330
B9E
100
AcDbEntity
  8
1
100
AcDbText
 10
-35.19086635325722
 20
23.98875083948959
 30
0.0
 40
3.0
  1
1/XXX
 41
0.8
  7
SANINDUSA
 72
     4
 11
-30.0
 21
25.25
 31
0.0
100
AcDbAttributeDefinition
  3
Escala geral:
  2
ESCALA
 70
     0
  0
ATTDEF
  5
BAA
330
B9E
100
AcDbEntity
  8
1
100
AcDbText
 10
-15.65345869711215
 20
23.75
 30
0.0
 40
3.0
  1
XXXXX
 41
0.8
  7
SANINDUSA
 72
     4
 11
-10.0
 21
25.25
 31
0.0
100
AcDbAttributeDefinition
  3
Folha:
  2
FOLHA
 70
     0
  0
ATTDEF
  5
BAB
330
B9E
100
AcDbEntity
  8
1
100
AcDbText
 10
-178.5146998822042
 20
56.9531347542807
 30
0.0
 40
2.0
  1
xx
 41
0.8
  7
SANINDUSA
 72
     4
 11
-177.2123493113513
 21
57.70330265219877
 31
0.0
100
AcDbAttributeDefinition
  3
revisão
  2
REV.
 70
     0
  0
ATTDEF
  5
BAC
330
B9E
100
AcDbEntity
  8
1
100
AcDbText
 10
-172.7849640077129
 20
56.9531347542807
 30
0.0
 40
2.0
  1
xx
 41
0.8
  7
SANINDUSA
 72
     4
 11
-171.48261343686
 21
57.70330265219877
 31
0.0
100
AcDbAttributeDefinition
  3
alteração
  2
ALT.
 70
     0
  0
ATTDEF
  5
BAD
330
B9E
100
AcDbEntity
  8
1
100
AcDbText
 10
-168.007199951307
 20
56.70330265219877
 30
0.0
 40
2.0
  1
xx/xx/xxxx
 41
0.8
  7
SANINDUSA
 11
-168.007199951307
 21
57.70330265219877
 31
0.0
100
AcDbAttributeDefinition
  3
data
  2
DATA
 70
     0
 74
     2
  0
ATTDEF
  5
BAE
330
B9E
100
AcDbEntity
  8
1
100
AcDbText
 10
-168.5396372253371
 20
13.15916722632639
 30
0.0
 40
2.0
  1
XX/XX/XXXX
 41
0.8
  7
SANINDUSA
 72
     4
 11
-161.5099528734231
 21
14.0
 31
0.0
100
AcDbAttributeDefinition
  3
Data projecto
  2
DATA_PROJ
 70
     0
  0
ATTDEF
  5
BAF
330
B9E
100
AcDbEntity
  8
1
100
AcDbText
 10
-150.8658110728766
 20
13.24983210208193
 30
0.0
 40
2.0
  1
xxxxxxxx
 41
0.8
  7
SANINDUSA
 72
     4
 11
-145.6564087894649
 21
14.0
 31
0.0
100
AcDbAttributeDefinition
  3
nome de quem projectou
  2
NOME
 70
     0
  0
ATTDEF
  5
BB0
330
B9E
100
AcDbEntity
  8
1
100
AcDbText
 10
-168.5396372253371
 20
9.159167226326394
 30
0.0
 40
2.0
  1
XX/XX/XXXX
 41
0.8
  7
SANINDUSA
 72
     4
 11
-161.5099528734231
 21
10.0
 31
0.0
100
AcDbAttributeDefinition
  3
Data desenhou
  2
DATA_DES
 70
     0
  0
ATTDEF
  5
BB1
330
B9E
100
AcDbEntity
  8
1
100
AcDbText
 10
-151.516986358303
 20
9.249832102081933
 30
0.0
 40
2.0
  1
xxxxxxxxx
 41
0.8
  7
SANINDUSA
 72
     4
 11
-145.6564087894649
 21
10.0
 31
0.0
100
AcDbAttributeDefinition
  3
nome
  2
NOME
 70
     0
  0
ATTDEF
  5
BB2
330
B9E
100
AcDbEntity
  8
1
100
AcDbText
 10
-127.2924214135946
 20
14.1979876583216
 30
0.0
 40
2.0
  1
Vitreous China
 41
0.8
  7
SANINDUSA
 72
     4
 11
-119.231709526422
 21
15.22216495852308
 31
0.0
100
AcDbAttributeDefinition
  3
Nome do Material:
  2
MATERIAL
 70
     0
  0
ATTDEF
  5
BB3
330
B9E
100
AcDbEntity
  8
1
100
AcDbText
 10
-103.1563452122093
 20
14.38019043949261
 30
0.0
 40
2.0
  1
Branco
 41
0.8
  7
SANINDUSA
 72
     4
 11
-99.33418268702462
 21
15.35937109765245
 31
0.0
100
AcDbAttributeDefinition
  3
cor da peça
  2
COR
 70
     0
  0
ATTDEF
  5
BB4
330
B9E
100
AcDbEntity
  8
1
100
AcDbText
 10
-116.7235057085292
 20
5.975822699798522
 30
0.0
 40
2.0
  1
Vidrado
 41
0.8
  7
SANINDUSA
 72
     4
 11
-112.5
 21
7.0
 31
0.0
100
AcDbAttributeDefinition
  3
Tipo de acabamento:
  2
ACABAMENTO
 70
     0
  0
ATTDEF
  5
BB5
330
B9E
100
AcDbEntity
  8
1
100
AcDbText
 10
-79.18527869967246
 20
16.65066409850533
 30
0.0
 40
2.0
  1
XXXXXXX
 41
0.8
  7
SANINDUSA
 72
     4
 11
-73.90871724903445
 21
17.65066409850533
 31
0.0
100
AcDbAttributeDefinition
  3
Normas
  2
NORMAS
 70
     0
  0
ATTDEF
  5
BB6
330
B9E
100
AcDbEntity
  8
1
100
AcDbText
 10
-30.55312290127603
 20
14.0
 30
0.0
 40
2.0
  1
XXXXXXXXXXXXXX
 41
0.8
  7
SANINDUSA
 72
     4
 11
-20.0
 21
15.0
 31
0.0
100
AcDbAttributeDefinition
  3
Substitui o desenho:
  2
SUBSTITUI
 70
     0
  0
ATTDEF
  5
BB7
330
B9E
100
AcDbEntity
  8
1
100
AcDbText
 10
-31.30691739422431
 20
6.0
 30
0.0
 40
2.0
  1
XXXXXXXXXXXXXXX
 41
0.8
  7
SANINDUSA
 72
     4
 11
-20.0
 21
7.0
 31
0.0
100
AcDbAttributeDefinition
  3
Substituido por:
  2
SUBSTITUIDO
 70
     0
  0
ATTDEF
  5
BB8
330
B9E
100
AcDbEntity
  8
1
100
AcDbText
 10
-110.0220608548302
 20
1.478208457928303
 30
0.0
 40
2.0
  1
XXXXXXXXXXXXXXXXXXXXXXXXXXXXXXXXXX
 41
0.8
  7
SANINDUSA
 11
-110.0220608548302
 21
2.478208457928303
 31
0.0
100
AcDbAttributeDefinition
  3
Localização do desenho:
  2
LOC-DWG
 70
     0
 74
     2
  0
LINE
  5
BB9
330
B9E
100
AcDbEntity
  8
3
100
AcDbLine
 10
-135.0
 20
4.0
 30
0.0
 11
0.0000000000004547
 21
4.0
 31
0.0
  0
LINE
  5
BBA
330
B9E
100
AcDbEntity
  8
3
100
AcDbLine
 10
-90.00000000000046
 20
12.0
 30
0.0
 11
-135.0
 21
12.0
 31
0.0
  0
LINE
  5
BBB
330
B9E
100
AcDbEntity
  8
3
100
AcDbLine
 10
-135.0
 20
32.5
 30
0.0
 11
-40.0
 21
32.5
 31
0.0
  0
TEXT
  5
BBC
330
B9E
100
AcDbEntity
  8
1
100
AcDbText
 10
-134.0
 20
1.25
 30
0.0
 40
2.0
  1
Localização do des.:
 41
0.8
  7
SANINDUSA
 11
-134.0
 21
2.25
 31
0.0
100
AcDbText
 73
     2
  0
LINE
  5
BBD
330
B9E
100
AcDbEntity
  8
3
100
AcDbLine
 10
-180.0
 20
65.0
 30
0.0
 11
0.0
 21
65.0
 31
0.0
  0
LINE
  5
BBE
330
B9E
100
AcDbEntity
  8
leg fin
100
AcDbLine
 10
-40.0
 20
25.05956924886846
 30
0.0
 11
-135.0
 21
25.05956924886846
 31
0.0
  0
LINE
  5
BBF
330
B9E
100
AcDbEntity
  8
leg fin
100
AcDbLine
 10
-40.0
 20
28.5
 30
0.0
 11
-135.0
 21
28.5
 31
0.0
  0
LINE
  5
BC0
330
B9E
100
AcDbEntity
  8
3
100
AcDbLine
 10
-135.0
 20
50.0
 30
0.0
 11
-40.0
 21
50.0
 31
0.0
  0
TEXT
  5
BC1
330
B9E
100
AcDbEntity
  8
1
100
AcDbText
 10
-134.0
 20
29.75
 30
0.0
 40
2.0
  1
Desenho nº:
 41
0.8
  7
SANINDUSA
 11
-134.0
 21
30.75
 31
0.0
100
AcDbText
 73
     2
  0
TEXT
  5
BC2
330
B9E
100
AcDbEntity
  8
1
100
AcDbText
 10
-134.0
 20
9.25
 30
0.0
 40
2.0
  1
Acabamento:
 41
0.8
  7
SANINDUSA
 11
-134.0
 21
10.25
 31
0.0
100
AcDbText
 73
     2
  0
LINE
  5
BC3
330
B9E
100
AcDbEntity
  8
3
100
AcDbLine
 10
-180.0
 20
20.0
 30
0.0
 11
0.0
 21
20.0
 31
0.0
  0
LINE
  5
BC4
330
B9E
100
AcDbEntity
  8
1
100
AcDbLine
 10
-174.5810776056337
 20
55.5
 30
0.0
 11
-174.5810776056337
 21
65.0
 31
0.0
  0
LINE
  5
BC5
330
B9E
100
AcDbEntity
  8
1
100
AcDbLine
 10
-168.9210461879161
 20
55.5
 30
0.0
 11
-168.9210461879161
 21
65.0
 31
0.0
  0
LINE
  5
BC6
330
B9E
100
AcDbEntity
  8
1
100
AcDbLine
 10
-154.0988595589306
 20
55.5
 30
0.0
 11
-154.0988595589306
 21
65.0
 31
0.0
  0
LINE
  5
BC7
330
B9E
100
AcDbEntity
  8
3
100
AcDbLine
 10
-180.0
 20
65.0
 30
0.0
 11
-180.0
 21
0.0
 31
0.0
  0
LINE
  5
BC8
330
B9E
100
AcDbEntity
  8
3
100
AcDbLine
 10
-135.0
 20
0.0
 30
0.0
 11
-135.0
 21
65.0
 31
0.0
  0
TEXT
  5
BC9
330
B9E
100
AcDbEntity
  8
1
100
AcDbText
 10
-179.0
 20
9.75
 30
0.0
 40
1.5
  1
Des.
 41
0.8
  7
SANINDUSA
 11
-179.0
 21
10.5
 31
0.0
100
AcDbText
 73
     2
  0
LINE
  5
BCA
330
B9E
100
AcDbEntity
  8
1
100
AcDbLine
 10
-168.9210461879161
 20
20.0
 30
0.0
 11
-168.9210461879161
 21
0.0
 31
0.0
  0
LINE
  5
BCB
330
B9E
100
AcDbEntity
  8
1
100
AcDbLine
 10
-154.0988595589306
 20
20.0
 30
0.0
 11
-154.0988595589306
 21
0.0
 31
0.0
  0
LINE
  5
BCC
330
B9E
100
AcDbEntity
  8
1
100
AcDbLine
 10
-180.0
 20
4.0
 30
0.0
 11
-135.0
 21
4.0
 31
0.0
  0
LINE
  5
BCD
330
B9E
100
AcDbEntity
  8
1
100
AcDbLine
 10
-180.0
 20
8.0
 30
0.0
 11
-135.0
 21
8.0
 31
0.0
  0
TEXT
  5
BCE
330
B9E
100
AcDbEntity
  8
1
100
AcDbText
 10
-179.0
 20
1.73257823687436
 30
0.0
 40
1.5
  1
Aprov.
 41
0.8
  7
SANINDUSA
 11
-179.0
 21
2.48257823687436
 31
0.0
100
AcDbText
 73
     2
  0
TEXT
  5
BCF
330
B9E
100
AcDbEntity
  8
1
100
AcDbText
 10
-179.0
 20
5.75
 30
0.0
 40
1.5
  1
Ver.
 41
0.8
  7
SANINDUSA
 11
-179.0
 21
6.5
 31
0.0
100
AcDbText
 73
     2
  0
LINE
  5
BD0
330
B9E
100
AcDbEntity
  8
1
100
AcDbLine
 10
-180.0
 20
16.0
 30
0.0
 11
-135.0
 21
16.0
 31
0.0
  0
LINE
  5
BD1
330
B9E
100
AcDbEntity
  8
1
100
AcDbLine
 10
-180.0
 20
12.0
 30
0.0
 11
-135.0
 21
12.0
 31
0.0
  0
TEXT
  5
BD2
330
B9E
100
AcDbEntity
  8
1
100
AcDbText
 10
-179.0
 20
13.75
 30
0.0
 40
1.5
  1
Proj.
 41
0.8
  7
SANINDUSA
 11
-179.0
 21
14.5
 31
0.0
100
AcDbText
 73
     2
  0
TEXT
  5
BD3
330
B9E
100
AcDbEntity
  8
1
100
AcDbText
 10
-167.9210461879161
 20
17.75
 30
0.0
 40
1.5
  1
Data
 41
0.8
  7
SANINDUSA
 11
-167.9210461879161
 21
18.5
 31
0.0
100
AcDbText
 73
     2
  0
TEXT
  5
BD4
330
B9E
100
AcDbEntity
  8
1
100
AcDbText
 10
-153.0988595589306
 20
17.75
 30
0.0
 40
1.5
  1
Nome
 41
0.8
  7
SANINDUSA
 11
-153.0988595589306
 21
18.5
 31
0.0
100
AcDbText
 73
     2
  0
LINE
  5
BD5
330
B9E
100
AcDbEntity
  8
leg fin
100
AcDbLine
 10
-130.0
 20
20.0
 30
0.0
 11
-130.0
 21
28.5
 31
0.0
  0
TEXT
  5
BD6
330
B9E
100
AcDbEntity
  8
1
100
AcDbText
 10
-134.0
 20
17.25
 30
0.0
 40
2.0
  1
Material:
 41
0.8
  7
SANINDUSA
 11
-134.0
 21
18.25
 31
0.0
100
AcDbText
 73
     2
  0
TEXT
  5
BD7
330
B9E
100
AcDbEntity
  8
1
100
AcDbText
 10
-129.0
 20
26.43288406845113
 30
0.0
 40
1.5
  1
Ano:
 41
0.8
  7
SANINDUSA
 11
-129.0
 21
27.18288406845113
 31
0.0
100
AcDbText
 73
     2
  0
LINE
  5
BD8
330
B9E
100
AcDbEntity
  8
1
100
AcDbLine
 10
-180.0
 20
55.5
 30
0.0
 11
-135.0
 21
55.5
 31
0.0
  0
TEXT
  5
BD9
330
B9E
100
AcDbEntity
  8
1
100
AcDbText
 10
-179.0
 20
52.67772246885193
 30
0.0
 40
1.5
  1
descrição
 41
0.8
  7
SANINDUSA
 11
-179.0
 21
53.42772246885193
 31
0.0
100
AcDbText
 73
     2
  0
TEXT
  5
BDA
330
B9E
100
AcDbEntity
  8
1
100
AcDbText
 10
-134.0
 20
47.25
 30
0.0
 40
2.0
  1
Peça:
 41
0.8
  7
SANINDUSA
 11
-134.0
 21
48.25
 31
0.0
100
AcDbText
 73
     2
  0
LINE
  5
BDB
330
B9E
100
AcDbEntity
  8
1
100
AcDbLine
 10
-180.0
 20
59.5
 30
0.0
 11
-135.0
 21
59.5
 31
0.0
  0
TEXT
  5
BDC
330
B9E
100
AcDbEntity
  8
1
100
AcDbText
 10
-173.5810776056337
 20
62.75
 30
0.0
 40
1.5
  1
Alt.
 41
0.8
  7
SANINDUSA
 11
-173.5810776056337
 21
63.5
 31
0.0
100
AcDbText
 73
     2
  0
TEXT
  5
BDD
330
B9E
100
AcDbEntity
  8
1
100
AcDbText
 10
-179.0
 20
62.75
 30
0.0
 40
1.5
  1
Rev.
 41
0.8
  7
SANINDUSA
 11
-179.0
 21
63.5
 31
0.0
100
AcDbText
 73
     2
  0
TEXT
  5
BDE
330
B9E
100
AcDbEntity
  8
1
100
AcDbText
 10
-167.9210461879161
 20
62.75
 30
0.0
 40
1.5
  1
Data
 41
0.8
  7
SANINDUSA
 11
-167.9210461879161
 21
63.5
 31
0.0
100
AcDbText
 73
     2
  0
TEXT
  5
BDF
330
B9E
100
AcDbEntity
  8
1
100
AcDbText
 10
-153.0988595589306
 20
62.75
 30
0.0
 40
1.5
  1
Nome
 41
0.8
  7
SANINDUSA
 11
-153.0988595589306
 21
63.5
 31
0.0
100
AcDbText
 73
     2
  0
TEXT
  5
BE0
330
B9E
100
AcDbEntity
  8
1
100
AcDbText
 10
-134.0
 20
62.25
 30
0.0
 40
2.0
  1
Produto:
 41
0.8
  7
SANINDUSA
 11
-134.0
 21
63.25
 31
0.0
100
AcDbText
 73
     2
  0
LINE
  5
BE1
330
B9E
100
AcDbEntity
  8
3
100
AcDbLine
 10
-40.0
 20
4.0
 30
0.0
 11
-40.0
 21
65.0
 31
0.0
  0
LWPOLYLINE
  5
BE2
102
{ACAD_REACTORS
330
BEC
102
}
330
B9E
100
AcDbEntity
  8
9
100
AcDbPolyline
 90
       12
 70
     1
 43
0.0
 10
-3.038714600644652
 20
58.90010174665076
 10
-5.726962862472191
 20
58.90010174665076
 10
-5.726962862472191
 20
58.5001017466509
 10
-3.038748516195028
 20
58.5001017466509
 42
-0.4142135623731731
 10
-2.638748516194482
 20
58.1001017466508
 10
-2.638748516194482
 20
57.42799728675596
 10
-5.21497371544865
 20
57.42799728675596
 42
0.4142135623731289
 10
-6.014973715448377
 20
56.627997286756
 10
-6.014973715448377
 20
55.92380871629643
 42
0.4142135623731132
 10
-5.21497371544865
 20
55.12380871629648
 10
-2.23871460064447
 20
55.12380871629648
 10
-2.23871460064447
 20
58.10010174665103
 42
0.4142135623730717
  0
LWPOLYLINE
  5
BE3
102
{ACAD_REACTORS
330
BEC
102
}
330
B9E
100
AcDbEntity
  8
9
100
AcDbPolyline
 90
       20
 70
     1
 43
0.0
 10
-10.01531287095122
 20
57.82799728675581
 10
-10.01531287095122
 20
58.10010174665103
 42
-0.4142135623730744
 10
-9.615312870951584
 20
58.5001017466509
 10
-6.92703069357276
 20
58.5001017466509
 10
-6.92703069357276
 20
58.90010174665076
 10
-9.615346786501959
 20
58.90010174665076
 42
0.4142135623730883
 10
-10.41534678650168
 20
58.1001017466508
 10
-10.41534678650168
 20
57.82796337120567
 42
0.4142135623730717
 10
-9.615346786501959
 20
57.02796337120571
 10
-7.423079531965413
 20
57.02796337120571
 42
-0.4142135623730847
 10
-7.023079531965322
 20
56.62796337120562
 10
-7.023079531965322
 20
55.90786840766487
 42
-0.4142135623730744
 10
-7.423079531965413
 20
55.507868407665
 10
-10.41534678650168
 20
55.507868407665
 10
-10.41534678650168
 20
55.12380871629648
 10
-7.445787917283723
 20
55.12380871629648
 42
0.4114777732064574
 10
-6.645822882998345
 20
55.9163291493976
 10
-6.639238813324936
 20
56.62051771985716
 42
0.4169546541682913
 10
-7.439203847610315
 20
57.42799728675596
 10
-9.615312870951584
 20
57.42799728675596
 42
-0.4142135623731576
  0
LWPOLYLINE
  5
BE4
102
{ACAD_REACTORS
330
BEC
102
}
330
B9E
100
AcDbEntity
  8
9
100
AcDbPolyline
 90
       12
 70
     1
 43
0.0
 10
-14.41561811090378
 20
58.90010174665076
 10
-14.79964388672215
 20
58.90010174665076
 10
-14.79964388672215
 20
55.92380871629643
 42
0.4142135623731133
 10
-13.99964388672242
 20
55.12380871629648
 10
-11.8233508563676
 20
55.12380871629648
 42
0.4142135623730872
 10
-11.02335085636741
 20
55.92380871629643
 10
-11.02335085636741
 20
58.90010174665076
 10
-11.42338477191788
 20
58.90010174665076
 10
-11.42338477191788
 20
55.91567577726095
 42
-0.4131711701795318
 10
-11.82196067063523
 20
55.51567831234956
 10
-14.0141940096214
 20
55.50787335710947
 42
-0.4152567234624407
 10
-14.41561811090378
 20
55.90787082202087
  0
LWPOLYLINE
  5
BE5
102
{ACAD_REACTORS
330
BEC
102
}
330
B9E
100
AcDbEntity
  8
9
100
AcDbPolyline
 90
        6
 70
     1
 43
0.0
 10
-15.80771578768872
 20
55.507868407665
 10
-18.39994912667453
 20
55.507868407665
 42
-0.4142135623731731
 10
-18.79994912667462
 20
55.90786840766487
 10
-18.79994912667462
 20
58.10010174665103
 42
-0.4142135623730744
 10
-18.39994912667453
 20
58.5001017466509
 10
-15.80771578768872
 20
58.5001017466509
  0
LWPOLYLINE
  5
BE6
102
{ACAD_REACTORS
330
BEC
102
}
330
B9E
100
AcDbEntity
  8
9
100
AcDbPolyline
 90
        8
 70
     1
 43
0.0
 10
-15.4236900118708
 20
59.87619128370352
 10
-15.80771578768872
 20
59.87619128370352
 10
-15.80771578768872
 20
58.90010174665076
 10
-18.39176256411201
 20
58.90010174665076
 42
0.4131164467977967
 10
-19.19175694739761
 20
58.1030995310698
 10
-19.1999120763262
 20
55.92680650071542
 42
0.4153115297271718
 10
-18.39991769304061
 20
55.12380871629648
 10
-15.4236900118708
 20
55.12380871629648
  0
LWPOLYLINE
  5
BE7
102
{ACAD_REACTORS
330
BEC
102
}
330
B9E
100
AcDbEntity
  8
9
100
AcDbPolyline
 90
       10
 70
     1
 43
0.0
 10
-20.59201288790928
 20
58.90010174665076
 10
-23.56830591826338
 20
58.90010174665076
 10
-23.56830591826338
 20
55.12380871629648
 10
-23.18424622689509
 20
55.12380871629648
 10
-23.18424622689509
 20
58.5001017466509
 10
-20.59204680345965
 20
58.5001017466509
 42
-0.4142135623730898
 10
-20.19204680345956
 20
58.1001017466508
 10
-20.19204680345956
 20
55.12380871629648
 10
-19.79201288790909
 20
55.12380871629648
 10
-19.79201288790909
 20
58.10010174665103
 42
0.4142135623731132
  0
LWPOLYLINE
  5
BE8
102
{ACAD_REACTORS
330
BEC
102
}
330
B9E
100
AcDbEntity
  8
9
100
AcDbPolyline
 90
        4
 70
     1
 43
0.0
 10
-24.19231812786165
 20
58.90010174665076
 10
-24.57637781922995
 20
58.90010174665076
 10
-24.57637781922995
 20
55.12380871629648
 10
-24.19231812786165
 20
55.12380871629648
  0
LWPOLYLINE
  5
BE9
102
{ACAD_REACTORS
330
BEC
102
}
330
B9E
100
AcDbEntity
  8
9
100
AcDbPolyline
 90
       10
 70
     1
 43
0.0
 10
-28.57661522808212
 20
58.5001017466509
 10
-25.98444972019706
 20
58.5001017466509
 42
-0.4142135623731731
 10
-25.58444972019652
 20
58.1001017466508
 10
-25.58444972019652
 20
55.12380871629648
 10
-25.2004239443786
 20
55.12380871629648
 10
-25.2004239443786
 20
58.10010174665103
 42
0.4142135623730717
 10
-26.00042394437833
 20
58.90010174665076
 10
-28.97664914363259
 20
58.90010174665076
 10
-28.97664914363259
 20
55.12380871629648
 10
-28.57661522808212
 20
55.12380871629648
  0
LWPOLYLINE
  5
BEA
102
{ACAD_REACTORS
330
BEC
102
}
330
B9E
100
AcDbEntity
  8
9
100
AcDbPolyline
 90
       12
 70
     1
 43
0.0
 10
-29.58465321349832
 20
58.10010174665103
 42
0.4142135623730716
 10
-30.3846532134985
 20
58.90010174665076
 10
-33.07296930642724
 20
58.90010174665076
 10
-33.07296930642724
 20
58.5001017466509
 10
-30.38468712904842
 20
58.5001017466509
 42
-0.4142135623730067
 10
-29.98468712904878
 20
58.1001017466508
 10
-29.98468712904878
 20
57.42799728675618
 10
-32.56098015940324
 20
57.42799728675596
 42
0.4142135623731289
 10
-33.36098015940343
 20
56.627997286756
 10
-33.36098015940343
 20
55.92380871629643
 42
0.4142135623731132
 10
-32.56098015940324
 20
55.12380871629648
 10
-29.58465321349832
 20
55.12380871629648
  0
LWPOLYLINE
  5
BEB
102
{ACAD_REACTORS
330
BEC
102
}
330
B9E
100
AcDbEntity
  8
9
100
AcDbPolyline
 90
       20
 70
     1
 43
0.0
 10
-34.7850262845518
 20
57.42799728675596
 10
-36.96125148380543
 20
57.42799728675596
 42
-0.4142135623730898
 10
-37.36125148380552
 20
57.82799728675604
 10
-37.36125148380552
 20
58.10010174665103
 42
-0.4142135623730744
 10
-36.96125148380543
 20
58.5001017466509
 10
-34.27303713752781
 20
58.50010174665067
 10
-34.27303713752781
 20
58.90010174665076
 10
-36.96128539935535
 20
58.90010174665076
 42
0.4142135623731289
 10
-37.76128539935553
 20
58.1001017466508
 10
-37.76128539935553
 20
57.82796337120567
 42
0.4142135623730716
 10
-36.9612853993558
 20
57.02796337120571
 10
-34.76901814481926
 20
57.02796337120571
 42
-0.414213562373168
 10
-34.36901814481962
 20
56.62796337120562
 10
-34.36901814481962
 20
55.90786840766487
 42
-0.4142135623730744
 10
-34.76901814481926
 20
55.507868407665
 10
-37.76128539935553
 20
55.507868407665
 10
-37.76128539935553
 20
55.12380871629648
 10
-34.7850262845518
 20
55.12380871629648
 42
0.4142135623731289
 10
-33.98502628455162
 20
55.92380871629643
 10
-33.98502628455162
 20
56.627997286756
 42
0.4142135623731132
  0
HATCH
  5
BEC
330
B9E
100
AcDbEntity
  8
9
100
AcDbHatch
 10
0.0
 20
0.0
 30
0.0
210
0.0
220
0.0
230
1.0
  2
SOLID
 70
     1
 71
     1
 91
       13
 92
        7
 72
     1
 73
     1
 93
       20
 10
-34.36901814481962
 20
55.90786840766487
 42
-0.414213562372991
 10
-34.76901814481926
 20
55.507868407665
 42
0.0
 10
-37.76128539935553
 20
55.507868407665
 42
0.0
 10
-37.76128539935553
 20
55.12380871629648
 42
0.0
 10
-34.7850262845518
 20
55.12380871629648
 42
0.4142135623731705
 10
-33.98502628455162
 20
55.92380871629666
 42
0.0
 10
-33.98502628455162
 20
56.627997286756
 42
0.4142135623731547
 10
-34.7850262845518
 20
57.42799728675596
 42
0.0
 10
-36.96125148380543
 20
57.42799728675596
 42
-0.4142135623730898
 10
-37.36125148380552
 20
57.82799728675604
 42
0.0
 10
-37.36125148380552
 20
58.1001017466508
 42
-0.4142135623731575
 10
-36.96125148380543
 20
58.5001017466509
 42
0.0
 10
-34.27303713752781
 20
58.50010174665067
 42
0.0
 10
-34.27303713752781
 20
58.90010174665076
 42
0.0
 10
-36.96128539935535
 20
58.90010174665076
 42
0.4142135623731705
 10
-37.76128539935553
 20
58.10010174665058
 42
0.0
 10
-37.76128539935553
 20
57.82796337120544
 42
0.4142135623730299
 10
-36.9612853993558
 20
57.02796337120571
 42
0.0
 10
-34.76901814481926
 20
57.02796337120571
 42
-0.4142135623730015
 10
-34.36901814481962
 20
56.62796337120608
 42
0.0
 97
        1
330
BEB
 92
        7
 72
     1
 73
     1
 93
       12
 10
-33.36098015940343
 20
55.92380871629666
 42
0.4142135623731547
 10
-32.56098015940324
 20
55.12380871629648
 42
0.0
 10
-29.58465321349877
 20
55.12380871629648
 42
0.0
 10
-29.58465321349832
 20
58.10010174665058
 42
0.4142135623731964
 10
-30.3846532134985
 20
58.90010174665076
 42
0.0
 10
-33.07296930642724
 20
58.90010174665076
 42
0.0
 10
-33.07296930642724
 20
58.50010174665067
 42
0.0
 10
-30.38468712904887
 20
58.5001017466509
 42
-0.4142135623732564
 10
-29.98468712904878
 20
58.10010174665103
 42
0.0
 10
-29.98468712904923
 20
57.42799728675596
 42
0.0
 10
-32.56098015940324
 20
57.42799728675596
 42
0.4142135623731705
 10
-33.36098015940343
 20
56.627997286756
 42
0.0
 97
        1
330
BEA
 92
       22
 72
     1
 73
     1
 93
        6
 10
-32.97692046803468
 20
56.62796337120562
 42
-0.4142135623731576
 10
-32.57692046803459
 20
57.02796337120571
 42
0.0
 10
-29.98468712904878
 20
57.02796337120571
 42
0.0
 10
-29.98468712904878
 20
55.507868407665
 42
0.0
 10
-32.57692046803459
 20
55.507868407665
 42
-0.4142135623731731
 10
-32.97692046803468
 20
55.90786840766487
 42
0.0
 97
        1
330
C11
 92
        7
 72
     1
 73
     1
 93
       10
 10
-28.57661522808212
 20
58.5001017466509
 42
0.0
 10
-25.98444972019661
 20
58.5001017466509
 42
-0.4142135623730067
 10
-25.58444972019652
 20
58.10010174665058
 42
0.0
 10
-25.58444972019606
 20
55.12380871629648
 42
0.0
 10
-25.20042394437906
 20
55.12380871629648
 42
0.0
 10
-25.2004239443786
 20
58.1001017466508
 42
0.4142135623731134
 10
-26.00042394437833
 20
58.90010174665076
 42
0.0
 10
-28.97664914363259
 20
58.90010174665076
 42
0.0
 10
-28.97664914363259
 20
55.12380871629648
 42
0.0
 10
-28.57661522808212
 20
55.12380871629648
 42
0.0
 97
        1
330
BE9
 92
        7
 72
     0
 73
     1
 93
        4
 10
-24.57637781922995
 20
55.12380871629648
 10
-24.19231812786165
 20
55.12380871629648
 10
-24.19231812786165
 20
58.90010174665076
 10
-24.57637781922995
 20
58.90010174665076
 97
        1
330
BE8
 92
        7
 72
     0
 73
     1
 93
        4
 10
-24.19231812786165
 20
59.87619128370352
 10
-24.5763778192304
 20
59.87619128370352
 10
-24.5763778192304
 20
59.28412752246913
 10
-24.1923181278612
 20
59.28412752246913
 97
        1
330
C12
 92
        7
 72
     1
 73
     1
 93
       10
 10
-23.18424622689509
 20
58.5001017466509
 42
0.0
 10
-20.59204680345965
 20
58.5001017466509
 42
-0.4142135623730898
 10
-20.19204680345956
 20
58.1001017466508
 42
0.0
 10
-20.19204680345956
 20
55.12380871629648
 42
0.0
 10
-19.79201288790909
 20
55.12380871629648
 42
0.0
 10
-19.79201288790909
 20
58.1001017466508
 42
0.4142135623731547
 10
-20.59201288790928
 20
58.90010174665076
 42
0.0
 10
-23.56830591826338
 20
58.90010174665076
 42
0.0
 10
-23.56830591826338
 20
55.12380871629648
 42
0.0
 10
-23.18424622689463
 20
55.12380871629648
 42
0.0
 97
        1
330
BE7
 92
        7
 72
     1
 73
     1
 93
        8
 10
-19.1999120763262
 20
55.92680650071542
 42
0.4153115297271299
 10
-18.39991769304061
 20
55.12380871629648
 42
0.0
 10
-15.4236900118708
 20
55.12380871629648
 42
0.0
 10
-15.4236900118708
 20
59.87619128370352
 42
0.0
 10
-15.80771578768872
 20
59.87619128370352
 42
0.0
 10
-15.80771578768872
 20
58.90010174665076
 42
0.0
 10
-18.39176256411201
 20
58.90010174665076
 42
0.4131164467977965
 10
-19.19175694739761
 20
58.1030995310698
 42
0.0
 97
        1
330
BE6
 92
       22
 72
     1
 73
     1
 93
        6
 10
-18.79994912667462
 20
58.1001017466508
 42
-0.4142135623731575
 10
-18.39994912667453
 20
58.5001017466509
 42
0.0
 10
-15.80771578768872
 20
58.50010174665067
 42
0.0
 10
-15.80771578768827
 20
55.507868407665
 42
0.0
 10
-18.39994912667453
 20
55.507868407665
 42
-0.4142135623731731
 10
-18.79994912667462
 20
55.90786840766487
 42
0.0
 97
        1
330
BE5
 92
        7
 72
     1
 73
     1
 93
       12
 10
-14.79964388672215
 20
55.92380871629621
 42
0.4142135623729885
 10
-13.99964388672242
 20
55.12380871629648
 42
0.0
 10
-11.8233508563676
 20
55.12380871629648
 42
0.4142135623731289
 10
-11.02335085636741
 20
55.92380871629666
 42
0.0
 10
-11.02335085636741
 20
58.90010174665076
 42
0.0
 10
-11.42338477191788
 20
58.90010174665076
 42
0.0
 10
-11.42338477191788
 20
55.91567577726095
 42
-0.4131711701795319
 10
-11.82196067063523
 20
55.51567831234956
 42
0.0
 10
-14.01419400962095
 20
55.50787335710947
 42
-0.4152567234626918
 10
-14.41561811090378
 20
55.90787082202087
 42
0.0
 10
-14.41561811090378
 20
58.90010174665076
 42
0.0
 10
-14.7996438867226
 20
58.90010174665076
 42
0.0
 97
        1
330
BE4
 92
        7
 72
     1
 73
     1
 93
       20
 10
-7.423079531965413
 20
57.02796337120571
 42
-0.414213562373168
 10
-7.023079531965322
 20
56.62796337120562
 42
0.0
 10
-7.023079531965322
 20
55.90786840766487
 42
-0.4142135623731575
 10
-7.423079531965413
 20
55.507868407665
 42
0.0
 10
-10.41534678650168
 20
55.507868407665
 42
0.0
 10
-10.41534678650168
 20
55.12380871629648
 42
0.0
 10
-7.445787917283723
 20
55.12380871629648
 42
0.4114777732065809
 10
-6.645822882998345
 20
55.91632914939783
 42
0.0
 10
-6.639238813324936
 20
56.62051771985716
 42
0.4169546541682913
 10
-7.439203847610315
 20
57.42799728675596
 42
0.0
 10
-9.615312870951584
 20
57.42799728675596
 42
-0.4142135623729911
 10
-10.01531287095122
 20
57.82799728675581
 42
0.0
 10
-10.01531287095122
 20
58.10010174665103
 42
-0.414213562372991
 10
-9.615312870951584
 20
58.5001017466509
 42
0.0
 10
-6.92703069357276
 20
58.50010174665067
 42
0.0
 10
-6.927030693572305
 20
58.90010174665076
 42
0.0
 10
-9.615346786501959
 20
58.90010174665076
 42
0.4142135623730467
 10
-10.41534678650168
 20
58.10010174665103
 42
0.0
 10
-10.41534678650168
 20
57.82796337120544
 42
0.4142135623730301
 10
-9.615346786501959
 20
57.02796337120571
 42
0.0
 97
        1
330
BE3
 92
        7
 72
     1
 73
     1
 93
       12
 10
-5.21497371544865
 20
57.42799728675596
 42
0.4142135623730871
 10
-6.014973715448377
 20
56.627997286756
 42
0.0
 10
-6.014973715448377
 20
55.92380871629621
 42
0.4142135623730715
 10
-5.21497371544865
 20
55.12380871629648
 42
0.0
 10
-2.23871460064447
 20
55.12380871629648
 42
0.0
 10
-2.23871460064447
 20
58.10010174665058
 42
0.414213562373155
 10
-3.038714600644652
 20
58.90010174665076
 42
0.0
 10
-5.726962862471737
 20
58.90010174665076
 42
0.0
 10
-5.726962862472191
 20
58.5001017466509
 42
0.0
 10
-3.038748516194573
 20
58.5001017466509
 42
-0.4142135623730067
 10
-2.638748516194482
 20
58.10010174665058
 42
0.0
 10
-2.638748516194482
 20
57.42799728675596
 42
0.0
 97
        1
330
BE2
 92
       22
 72
     1
 73
     1
 93
        6
 10
-2.638748516194937
 20
57.02796337120571
 42
0.0
 10
-2.638748516194482
 20
55.50786840766477
 42
0.0
 10
-5.21497371544865
 20
55.507868407665
 42
-0.4142135623731731
 10
-5.614973715448741
 20
55.90786840766509
 42
0.0
 10
-5.614973715448741
 20
56.62796337120562
 42
-0.4142135623731576
 10
-5.21497371544865
 20
57.02796337120571
 42
0.0
 97
        1
330
C0D
 75
     0
 76
     1
 47
0.0407044778999864
 98
       13
 10
-34.18710075113677
 20
56.16907953933765
 10
-33.12851374392494
 20
56.49471602641233
 10
-33.12851374392494
 20
56.49471602641233
 10
-28.77202873835904
 20
57.51232930166111
 10
-24.41554807250941
 20
57.91937341678636
 10
-24.41554807250941
 20
59.384734621186
 10
-23.31624584658039
 20
58.3264175319116
 10
-19.04119127844888
 20
57.75655517324913
 10
-19.04119127844888
 20
57.75655517324913
 10
-14.64399105416578
 20
57.43091868617466
 10
-8.048195057457178
 20
57.22739662861204
 10
-4.017427461911665
 20
57.18669281458665
 10
-4.017427461911665
 20
57.18669281458665
  0
TEXT
  5
BED
330
B9E
100
AcDbEntity
  8
leg fin
100
AcDbText
 10
3.391127401597259
 20
2.107634911895729
 30
0.0
 40
1.5
  1
Este desenho é propriedade da Sanindusa, S.A., e não pode ser copiado nem divulgado sem nossa autorização.
 50
90.0
 41
0.8
  7
SANINDUSA
100
AcDbText
  0
LINE
  5
BEE
330
B9E
100
AcDbEntity
  8
3
100
AcDbLine
 10
-90.0
 20
4.0
 30
0.0
 11
-90.0
 21
12.0
 31
0.0
  0
TEXT
  5
BEF
330
B9E
100
AcDbEntity
  8
1
100
AcDbText
 10
-39.0
 20
9.25
 30
0.0
 40
2.0
  1
Substituido por:
 41
0.8
  7
SANINDUSA
 11
-39.0
 21
10.25
 31
0.0
100
AcDbText
 73
     2
  0
POINT
  5
BF0
330
B9E
100
AcDbEntity
  8
SANINDUSA
100
AcDbPoint
 10
0.0
 20
0.0
 30
0.0
  0
TEXT
  5
BF1
330
B9E
100
AcDbEntity
  8
1
100
AcDbText
 10
-89.0
 20
16.74927010445663
 30
0.0
 40
2.0
  1
Normas:
 41
0.8
  7
SANINDUSA
 11
-89.0
 21
17.74927010445663
 31
0.0
100
AcDbText
 73
     2
  0
LINE
  5
BF2
330
B9E
100
AcDbEntity
  8
3
100
AcDbLine
 10
-90.0
 20
12.0
 30
0.0
 11
-90.0
 21
20.0
 31
0.0
  0
LINE
  5
BF3
330
B9E
100
AcDbEntity
  8
3
100
AcDbLine
 10
-110.546019464768
 20
12.0
 30
0.0
 11
-110.546019464768
 21
20.0
 31
0.0
  0
TEXT
  5
BF4
330
B9E
100
AcDbEntity
  8
1
100
AcDbText
 10
-109.6177520618648
 20
17.25
 30
0.0
 40
2.0
  1
Cor:
 41
0.8
  7
SANINDUSA
 11
-109.6177520618648
 21
18.25
 31
0.0
100
AcDbText
 73
     2
  0
LINE
  5
BF5
330
B9E
100
AcDbEntity
  8
leg fin
100
AcDbLine
 10
-91.42857142857156
 20
20.0
 30
0.0
 11
-91.42857142857156
 21
28.5
 31
0.0
  0
LINE
  5
BF6
330
B9E
100
AcDbEntity
  8
leg fin
100
AcDbLine
 10
-104.2857142857142
 20
20.0
 30
0.0
 11
-104.2857142857142
 21
28.5
 31
0.0
  0
LINE
  5
BF7
330
B9E
100
AcDbEntity
  8
leg fin
100
AcDbLine
 10
-117.1428571428573
 20
20.0
 30
0.0
 11
-117.1428571428573
 21
28.5
 31
0.0
  0
POINT
  5
BF8
330
B9E
100
AcDbEntity
  8
SANINDUSA
100
AcDbPoint
 10
-117.1428571428573
 20
28.5
 30
0.0
  0
POINT
  5
BF9
330
B9E
100
AcDbEntity
  8
SANINDUSA
100
AcDbPoint
 10
-104.2857142857142
 20
28.5
 30
0.0
  0
POINT
  5
BFA
330
B9E
100
AcDbEntity
  8
SANINDUSA
100
AcDbPoint
 10
-91.42857142857156
 20
28.5
 30
0.0
  0
TEXT
  5
BFB
330
B9E
100
AcDbEntity
  8
1
100
AcDbText
 10
-116.200160604496
 20
26.43288406845113
 30
0.0
 40
1.5
  1
Nº Seq.:
 41
0.8
  7
SANINDUSA
 11
-116.200160604496
 21
27.18288406845113
 31
0.0
100
AcDbText
 73
     2
  0
TEXT
  5
BFC
330
B9E
100
AcDbEntity
  8
1
100
AcDbText
 10
-103.2106584078738
 20
26.43288406845113
 30
0.0
 40
1.5
  1
Tipo:
 41
0.8
  7
SANINDUSA
 11
-103.2106584078738
 21
27.18288406845113
 31
0.0
100
AcDbText
 73
     2
  0
TEXT
  5
BFD
330
B9E
100
AcDbEntity
  8
1
100
AcDbText
 10
-90.22114672289353
 20
26.43288406845113
 30
0.0
 40
1.5
  1
Prod.:
 41
0.8
  7
SANINDUSA
 11
-90.22114672289353
 21
27.18288406845113
 31
0.0
100
AcDbText
 73
     2
  0
TEXT
  5
BFE
330
B9E
100
AcDbEntity
  8
1
100
AcDbText
 10
-64.77320576346574
 20
26.43288406845113
 30
0.0
 40
1.5
  1
Rev.:
 41
0.8
  7
SANINDUSA
 11
-64.77320576346574
 21
27.18288406845113
 31
0.0
100
AcDbText
 73
     2
  0
LINE
  5
BFF
330
B9E
100
AcDbEntity
  8
leg fin
100
AcDbLine
 10
-52.85714285714266
 20
20.0
 30
0.0
 11
-52.85714285714266
 21
28.5
 31
0.0
  0
LINE
  5
C00
330
B9E
100
AcDbEntity
  8
leg fin
100
AcDbLine
 10
-65.71428571428578
 20
20.0
 30
0.0
 11
-65.71428571428578
 21
28.5
 31
0.0
  0
LINE
  5
C01
330
B9E
100
AcDbEntity
  8
leg fin
100
AcDbLine
 10
-78.57142857142844
 20
20.0
 30
0.0
 11
-78.57142857142844
 21
28.5
 31
0.0
  0
POINT
  5
C02
330
B9E
100
AcDbEntity
  8
SANINDUSA
100
AcDbPoint
 10
-78.57142857142844
 20
28.5
 30
0.0
  0
POINT
  5
C03
330
B9E
100
AcDbEntity
  8
SANINDUSA
100
AcDbPoint
 10
-65.71428571428578
 20
28.5
 30
0.0
  0
POINT
  5
C04
330
B9E
100
AcDbEntity
  8
SANINDUSA
100
AcDbPoint
 10
-52.85714285714266
 20
28.5
 30
0.0
  0
TEXT
  5
C05
330
B9E
100
AcDbEntity
  8
1
100
AcDbText
 10
-77.61097961686573
 20
26.43288406845113
 30
0.0
 40
1.5
  1
Peça:
 41
0.8
  7
SANINDUSA
 11
-77.61097961686573
 21
27.18288406845113
 31
0.0
100
AcDbText
 73
     2
  0
TEXT
  5
C06
330
B9E
100
AcDbEntity
  8
1
100
AcDbText
 10
-52.06538060077036
 20
26.43288406845113
 30
0.0
 40
1.5
  1
Alt.:
 41
0.8
  7
SANINDUSA
 11
-52.06538060077036
 21
27.18288406845113
 31
0.0
100
AcDbText
 73
     2
  0
LINE
  5
C07
330
B9E
100
AcDbEntity
  8
3
100
AcDbLine
 10
0.0
 20
12.0
 30
0.0
 11
-40.0
 21
12.0
 31
0.0
  0
LINE
  5
C08
330
B9E
100
AcDbEntity
  8
3
100
AcDbLine
 10
-40.0
 20
32.5
 30
0.0
 11
0.0
 21
32.5
 31
0.0
  0
TEXT
  5
C09
330
B9E
100
AcDbEntity
  8
1
100
AcDbText
 10
-19.0
 20
29.75
 30
0.0
 40
2.0
  1
Folha:
 41
0.8
  7
SANINDUSA
 11
-19.0
 21
30.75
 31
0.0
100
AcDbText
 73
     2
  0
LINE
  5
C0A
330
B9E
100
AcDbEntity
  8
3
100
AcDbLine
 10
-20.0
 20
32.5
 30
0.0
 11
-20.0
 21
20.0
 31
0.0
  0
TEXT
  5
C0B
330
B9E
100
AcDbEntity
  8
1
100
AcDbText
 10
-39.0
 20
29.75
 30
0.0
 40
2.0
  1
Escala:
 41
0.8
  7
SANINDUSA
 11
-39.0
 21
30.75
 31
0.0
100
AcDbText
 73
     2
  0
TEXT
  5
C0C
330
B9E
100
AcDbEntity
  8
1
100
AcDbText
 10
-39.0
 20
17.25
 30
0.0
 40
2.0
  1
Substitui:
 41
0.8
  7
SANINDUSA
 11
-39.0
 21
18.25
 31
0.0
100
AcDbText
 73
     2
  0
LWPOLYLINE
  5
C0D
102
{ACAD_REACTORS
330
BEC
102
}
330
B9E
100
AcDbEntity
  8
9
100
AcDbPolyline
 90
        6
 70
     1
 43
0.0
 10
-2.638748516194482
 20
57.02796337120571
 10
-2.638748516194482
 20
55.50786840766477
 10
-5.21497371544865
 20
55.507868407665
 42
-0.4142135623730898
 10
-5.614973715448741
 20
55.90786840766487
 10
-5.614973715448741
 20
56.62796337120562
 42
-0.4142135623731576
 10
-5.21497371544865
 20
57.02796337120571
  0
LINE
  5
C0E
330
B9E
100
AcDbEntity
  8
3
100
AcDbLine
 10
-40.0
 20
50.0
 30
0.0
 11
0.0
 21
50.0
 31
0.0
  0
ATTDEF
  5
C0F
330
B9E
100
AcDbEntity
  8
1
100
AcDbText
 10
-31.30691739422431
 20
40.25
 30
0.0
 40
2.0
  1
XXXXXXXXXXXXXXX
 41
0.8
  7
SANINDUSA
 72
     4
 11
-20.0
 21
41.25
 31
0.0
100
AcDbAttributeDefinition
  3
Observações:
  2
OBS
 70
     0
  0
TEXT
  5
C10
330
B9E
100
AcDbEntity
  8
1
100
AcDbText
 10
-39.0
 20
47.25
 30
0.0
 40
2.0
  1
Observações:
 41
0.8
  7
SANINDUSA
 11
-39.0
 21
48.25
 31
0.0
100
AcDbText
 73
     2
  0
LWPOLYLINE
  5
C11
102
{ACAD_REACTORS
330
BEC
102
}
330
B9E
100
AcDbEntity
  8
9
100
AcDbPolyline
 90
        6
 70
     1
 43
0.0
 10
-29.98468712904878
 20
57.02796337120571
 10
-29.98468712904878
 20
55.507868407665
 10
-32.57692046803459
 20
55.507868407665
 42
-0.4142135623731731
 10
-32.97692046803468
 20
55.90786840766487
 10
-32.97692046803468
 20
56.62796337120562
 42
-0.4142135623731576
 10
-32.57692046803459
 20
57.02796337120571
  0
LWPOLYLINE
  5
C12
102
{ACAD_REACTORS
330
BEC
102
}
330
B9E
100
AcDbEntity
  8
9
100
AcDbPolyline
 90
        4
 70
     1
 43
0.0
 10
-24.19231812786165
 20
59.87619128370352
 10
-24.57637781922995
 20
59.87619128370352
 10
-24.57637781922995
 20
59.28412752246913
 10
-24.19231812786165
 20
59.28412752246913
  0
ENDBLK
  5
C14
330
B9E
100
AcDbEntity
  8
0
100
AcDbBlockEnd
  0
BLOCK
  5
10B4
330
10B3
100
AcDbEntity
  8
0
100
AcDbBlockBegin
  2
*D7
 70
     1
 10
0.0
 20
0.0
 30
0.0
  3
*D7
  1

  0
LINE
  5
10B5
330
10B3
100
AcDbEntity
  8
cotas
100
AcDbLine
 10
3743.665142341587
 20
1636.534078638026
 30
0.0
 11
3743.665142341587
 21
1703.58121975766
 31
0.0
  0
LINE
  5
10B6
330
10B3
100
AcDbEntity
  8
cotas
100
AcDbLine
 10
4301.51543121483
 20
1636.534078638022
 30
0.0
 11
4301.51543121483
 21
1703.58121975766
 31
0.0
  0
LINE
  5
10B7
330
10B3
100
AcDbEntity
  8
cotas
100
AcDbLine
 10
3753.665142341587
 20
1698.581219757659
 30
0.0
 11
4291.515431214829
 21
1698.581219757659
 31
0.0
  0
SOLID
  5
10B8
330
10B3
100
AcDbEntity
  8
cotas
100
AcDbTrace
 10
3753.665142341587
 20
1700.247886424326
 30
0.0
 11
3753.665142341587
 21
1696.914553090993
 31
0.0
 12
3743.665142341587
 22
1698.581219757659
 32
0.0
 13
3743.665142341587
 23
1698.581219757659
 33
0.0
  0
SOLID
  5
10B9
330
10B3
100
AcDbEntity
  8
cotas
100
AcDbTrace
 10
4291.515431214829
 20
1700.247886424326
 30
0.0
 11
4291.515431214829
 21
1696.914553090993
 31
0.0
 12
4301.51543121483
 22
1698.581219757659
 32
0.0
 13
4301.51543121483
 23
1698.581219757659
 33
0.0
  0
MTEXT
  5
10BA
330
10B3
100
AcDbEntity
  8
cotas
100
AcDbMText
 10
4022.590286778208
 20
1708.809560926229
 30
0.0
 40
10.0
 41
0.0
 71
     5
 72
     1
  1
558
  7
SANINDUSA
 73
     1
 44
1.0
1001
ACAD
1000
MTEXTBEGIN
1070
    73
1070
     1
1070
    44
1040
1.0
1070
    74
1070
     0
1000
MTEXTEND
  0
POINT
  5
10BB
330
10B3
100
AcDbEntity
  8
Defpoints
 62
     0
100
AcDbPoint
 10
3743.665142341587
 20
1631.534078638026
 30
0.0
  0
POINT
  5
10BC
330
10B3
100
AcDbEntity
  8
Defpoints
 62
     0
100
AcDbPoint
 10
4301.51543121483
 20
1631.534078638022
 30
0.0
  0
POINT
  5
10BD
330
10B3
100
AcDbEntity
  8
Defpoints
 62
     0
100
AcDbPoint
 10
4301.51543121483
 20
1698.581219757659
 30
0.0
  0
ENDBLK
  5
10BE
330
10B3
100
AcDbEntity
  8
0
100
AcDbBlockEnd
  0
BLOCK
  5
10C0
330
10BF
100
AcDbEntity
  8
0
100
AcDbBlockBegin
  2
*D8
 70
     1
 10
0.0
 20
0.0
 30
0.0
  3
*D8
  1

  0
LINE
  5
10C1
330
10BF
100
AcDbEntity
  8
cotas
100
AcDbLine
 10
4266.528033003579
 20
1672.58115657034
 30
0.0
 11
4332.590286778206
 21
1672.58115657034
 31
0.0
  0
LINE
  5
10C2
330
10BF
100
AcDbEntity
  8
cotas
100
AcDbLine
 10
4279.109230212459
 20
1492.581156570341
 30
0.0
 11
4332.590286778206
 21
1492.581156570341
 31
0.0
  0
LINE
  5
10C3
330
10BF
100
AcDbEntity
  8
cotas
100
AcDbLine
 10
4327.590286778206
 20
1662.581156570341
 30
0.0
 11
4327.590286778206
 21
1502.581156570341
 31
0.0
  0
SOLID
  5
10C4
330
10BF
100
AcDbEntity
  8
cotas
100
AcDbTrace
 10
4325.923620111539
 20
1662.581156570341
 30
0.0
 11
4329.256953444873
 21
1662.581156570341
 31
0.0
 12
4327.590286778206
 22
1672.58115657034
 32
0.0
 13
4327.590286778206
 23
1672.58115657034
 33
0.0
  0
SOLID
  5
10C5
330
10BF
100
AcDbEntity
  8
cotas
100
AcDbTrace
 10
4325.923620111539
 20
1502.581156570341
 30
0.0
 11
4329.256953444873
 21
1502.581156570341
 31
0.0
 12
4327.590286778206
 22
1492.581156570341
 32
0.0
 13
4327.590286778206
 23
1492.581156570341
 33
0.0
  0
MTEXT
  5
10C6
330
10BF
100
AcDbEntity
  8
cotas
100
AcDbMText
 10
4317.361945609636
 20
1582.581156570341
 30
0.0
 40
10.0
 41
0.0
 71
     5
 72
     1
  1
180
  7
SANINDUSA
 11
0.0000000000000001
 21
1.0
 31
0.0
 73
     1
 44
1.0
1001
ACAD
1000
MTEXTBEGIN
1070
    73
1070
     1
1070
    44
1040
1.0
1070
    74
1070
     0
1000
MTEXTEND
  0
POINT
  5
10C7
330
10BF
100
AcDbEntity
  8
Defpoints
 62
     0
100
AcDbPoint
 10
4261.528033003579
 20
1672.58115657034
 30
0.0
  0
POINT
  5
10C8
330
10BF
100
AcDbEntity
  8
Defpoints
 62
     0
100
AcDbPoint
 10
4274.109230212459
 20
1492.581156570341
 30
0.0
  0
POINT
  5
10C9
330
10BF
100
AcDbEntity
  8
Defpoints
 62
     0
100
AcDbPoint
 10
4327.590286778206
 20
1492.581156570341
 30
0.0
  0
ENDBLK
  5
10CA
330
10BF
100
AcDbEntity
  8
0
100
AcDbBlockEnd
  0
BLOCK
  5
10CC
330
10CB
100
AcDbEntity
  8
0
100
AcDbBlockBegin
  2
*D9
 70
     1
 10
0.0
 20
0.0
 30
0.0
  3
*D9
  1

  0
LINE
  5
10CD
330
10CB
100
AcDbEntity
  8
cotas
100
AcDbLine
 10
3408.174655433877
 20
1675.581156570342
 30
0.0
 11
3408.174655433877
 21
1703.5811637229
 31
0.0
  0
LINE
  5
10CE
330
10CB
100
AcDbEntity
  8
cotas
100
AcDbLine
 10
2959.249510997253
 20
1636.534078638028
 30
0.0
 11
2959.249510997253
 21
1703.5811637229
 31
0.0
  0
LINE
  5
10CF
330
10CB
100
AcDbEntity
  8
cotas
100
AcDbLine
 10
3398.174655433877
 20
1698.5811637229
 30
0.0
 11
2969.249510997253
 21
1698.5811637229
 31
0.0
  0
SOLID
  5
10D0
330
10CB
100
AcDbEntity
  8
cotas
100
AcDbTrace
 10
3398.174655433877
 20
1700.247830389567
 30
0.0
 11
3398.174655433877
 21
1696.914497056233
 31
0.0
 12
3408.174655433877
 22
1698.5811637229
 32
0.0
 13
3408.174655433877
 23
1698.5811637229
 33
0.0
  0
SOLID
  5
10D1
330
10CB
100
AcDbEntity
  8
cotas
100
AcDbTrace
 10
2969.249510997253
 20
1700.247830389567
 30
0.0
 11
2969.249510997253
 21
1696.914497056233
 31
0.0
 12
2959.249510997253
 22
1698.5811637229
 32
0.0
 13
2959.249510997253
 23
1698.5811637229
 33
0.0
  0
MTEXT
  5
10D2
330
10CB
100
AcDbEntity
  8
cotas
100
AcDbMText
 10
3183.712083215565
 20
1708.779283266218
 30
0.0
 40
10.0
 41
0.0
 71
     5
 72
     1
  1
449
  7
SANINDUSA
 73
     1
 44
1.0
1001
ACAD
1000
MTEXTBEGIN
1070
    73
1070
     1
1070
    44
1040
1.0
1070
    74
1070
     0
1000
MTEXTEND
  0
POINT
  5
10D3
330
10CB
100
AcDbEntity
  8
Defpoints
 62
     0
100
AcDbPoint
 10
3408.174655433877
 20
1670.581156570342
 30
0.0
  0
POINT
  5
10D4
330
10CB
100
AcDbEntity
  8
Defpoints
 62
     0
100
AcDbPoint
 10
2959.249510997253
 20
1631.534078638028
 30
0.0
  0
POINT
  5
10D5
330
10CB
100
AcDbEntity
  8
Defpoints
 62
     0
100
AcDbPoint
 10
2959.249510997253
 20
1698.5811637229
 30
0.0
  0
ENDBLK
  5
10D6
330
10CB
100
AcDbEntity
  8
0
100
AcDbBlockEnd
  0
BLOCK
  5
10D8
330
10D7
100
AcDbEntity
  8
0
100
AcDbBlockBegin
  2
*D10
 70
     1
 10
0.0
 20
0.0
 30
0.0
  3
*D10
  1

  0
LINE
  5
10D9
330
10D7
100
AcDbEntity
  8
cotas
100
AcDbLine
 10
3411.174649473413
 20
1672.581163722898
 30
0.0
 11
3443.674655433877
 21
1672.581163722898
 31
0.0
  0
LINE
  5
10DA
330
10D7
100
AcDbEntity
  8
cotas
100
AcDbLine
 10
3221.174655433877
 20
1485.581156570342
 30
0.0
 11
3443.674655433877
 21
1485.581156570342
 31
0.0
  0
LINE
  5
10DB
330
10D7
100
AcDbEntity
  8
cotas
100
AcDbLine
 10
3438.674655433877
 20
1662.581163722898
 30
0.0
 11
3438.674655433877
 21
1495.581156570342
 31
0.0
  0
SOLID
  5
10DC
330
10D7
100
AcDbEntity
  8
cotas
100
AcDbTrace
 10
3437.007988767211
 20
1662.581163722898
 30
0.0
 11
3440.341322100544
 21
1662.581163722898
 31
0.0
 12
3438.674655433877
 22
1672.581163722898
 32
0.0
 13
3438.674655433877
 23
1672.581163722898
 33
0.0
  0
SOLID
  5
10DD
330
10D7
100
AcDbEntity
  8
cotas
100
AcDbTrace
 10
3437.007988767211
 20
1495.581156570342
 30
0.0
 11
3440.341322100544
 21
1495.581156570342
 31
0.0
 12
3438.674655433877
 22
1485.581156570342
 32
0.0
 13
3438.674655433877
 23
1485.581156570342
 33
0.0
  0
MTEXT
  5
10DE
330
10D7
100
AcDbEntity
  8
cotas
100
AcDbMText
 10
3428.446314265308
 20
1579.08116014662
 30
0.0
 40
10.0
 41
0.0
 71
     5
 72
     1
  1
187
  7
SANINDUSA
 11
0.0000000000000001
 21
1.0
 31
0.0
 73
     1
 44
1.0
1001
ACAD
1000
MTEXTBEGIN
1070
    73
1070
     1
1070
    44
1040
1.0
1070
    74
1070
     0
1000
MTEXTEND
  0
POINT
  5
10DF
330
10D7
100
AcDbEntity
  8
Defpoints
 62
     0
100
AcDbPoint
 10
3406.174649473412
 20
1672.581163722898
 30
0.0
  0
POINT
  5
10E0
330
10D7
100
AcDbEntity
  8
Defpoints
 62
     0
100
AcDbPoint
 10
3216.174655433877
 20
1485.581156570342
 30
0.0
  0
POINT
  5
10E1
330
10D7
100
AcDbEntity
  8
Defpoints
 62
     0
100
AcDbPoint
 10
3438.674655433877
 20
1485.581156570342
 30
0.0
  0
ENDBLK
  5
10E2
330
10D7
100
AcDbEntity
  8
0
100
AcDbBlockEnd
  0
BLOCK
  5
10E4
330
10E3
100
AcDbEntity
  8
0
100
AcDbBlockBegin
  2
*D11
 70
     1
 10
0.0
 20
0.0
 30
0.0
  3
*D11
  1

  0
LINE
  5
10E5
330
10E3
100
AcDbEntity
  8
cotas
100
AcDbLine
 10
4269.744679676623
 20
1237.626160666777
 30
0.0
 11
4332.590286778206
 21
1237.626160666777
 31
0.0
  0
LINE
  5
10E6
330
10E3
100
AcDbEntity
  8
cotas
100
AcDbLine
 10
4052.502427148243
 20
1174.626160666777
 30
0.0
 11
4332.590286778206
 21
1174.626160666777
 31
0.0
  0
LINE
  5
10E7
330
10E3
100
AcDbEntity
  8
cotas
100
AcDbLine
 10
4327.590286778206
 20
1227.626160666777
 30
0.0
 11
4327.590286778206
 21
1184.626160666778
 31
0.0
  0
SOLID
  5
10E8
330
10E3
100
AcDbEntity
  8
cotas
100
AcDbTrace
 10
4325.923620111539
 20
1227.626160666777
 30
0.0
 11
4329.256953444873
 21
1227.626160666777
 31
0.0
 12
4327.590286778206
 22
1237.626160666777
 32
0.0
 13
4327.590286778206
 23
1237.626160666777
 33
0.0
  0
SOLID
  5
10E9
330
10E3
100
AcDbEntity
  8
cotas
100
AcDbTrace
 10
4325.923620111539
 20
1184.626160666778
 30
0.0
 11
4329.256953444873
 21
1184.626160666778
 31
0.0
 12
4327.590286778206
 22
1174.626160666777
 32
0.0
 13
4327.590286778206
 23
1174.626160666777
 33
0.0
  0
MTEXT
  5
10EA
330
10E3
100
AcDbEntity
  8
cotas
100
AcDbMText
 10
4317.382093359804
 20
1206.126160666778
 30
0.0
 40
10.0
 41
0.0
 71
     5
 72
     1
  1
63
  7
SANINDUSA
 11
0.0000000000000001
 21
1.0
 31
0.0
 73
     1
 44
1.0
1001
ACAD
1000
MTEXTBEGIN
1070
    73
1070
     1
1070
    44
1040
1.0
1070
    74
1070
     0
1000
MTEXTEND
  0
POINT
  5
10EB
330
10E3
100
AcDbEntity
  8
Defpoints
 62
     0
100
AcDbPoint
 10
4264.744679676623
 20
1237.626160666777
 30
0.0
  0
POINT
  5
10EC
330
10E3
100
AcDbEntity
  8
Defpoints
 62
     0
100
AcDbPoint
 10
4047.502427148243
 20
1174.626160666777
 30
0.0
  0
POINT
  5
10ED
330
10E3
100
AcDbEntity
  8
Defpoints
 62
     0
100
AcDbPoint
 10
4327.590286778206
 20
1174.626160666777
 30
0.0
  0
ENDBLK
  5
10EE
330
10E3
100
AcDbEntity
  8
0
100
AcDbBlockEnd
  0
BLOCK
  5
10F0
330
10EF
100
AcDbEntity
  8
0
100
AcDbBlockBegin
  2
*D12
 70
     1
 10
0.0
 20
0.0
 30
0.0
  3
*D12
  1

  0
LINE
  5
10F1
330
10EF
100
AcDbEntity
  8
cotas
100
AcDbLine
 10
4052.502427148243
 20
1174.626160666777
 30
0.0
 11
4332.590286778206
 21
1174.626160666777
 31
0.0
  0
LINE
  5
10F2
330
10EF
100
AcDbEntity
  8
cotas
100
AcDbLine
 10
4027.590288268322
 20
1112.581512615516
 30
0.0
 11
4332.590286778206
 21
1112.581512615516
 31
0.0
  0
LINE
  5
10F3
330
10EF
100
AcDbEntity
  8
cotas
100
AcDbLine
 10
4327.590286778206
 20
1164.626160666777
 30
0.0
 11
4327.590286778206
 21
1122.581512615516
 31
0.0
  0
SOLID
  5
10F4
330
10EF
100
AcDbEntity
  8
cotas
100
AcDbTrace
 10
4325.923620111539
 20
1164.626160666777
 30
0.0
 11
4329.256953444873
 21
1164.626160666777
 31
0.0
 12
4327.590286778206
 22
1174.626160666777
 32
0.0
 13
4327.590286778206
 23
1174.626160666777
 33
0.0
  0
SOLID
  5
10F5
330
10EF
100
AcDbEntity
  8
cotas
100
AcDbTrace
 10
4325.923620111539
 20
1122.581512615516
 30
0.0
 11
4329.256953444873
 21
1122.581512615516
 31
0.0
 12
4327.590286778206
 22
1112.581512615516
 32
0.0
 13
4327.590286778206
 23
1112.581512615516
 33
0.0
  0
MTEXT
  5
10F6
330
10EF
100
AcDbEntity
  8
cotas
100
AcDbMText
 10
4317.382093359804
 20
1143.603836641147
 30
0.0
 40
10.0
 41
0.0
 71
     5
 72
     1
  1
62
  7
SANINDUSA
 11
0.0000000000000001
 21
1.0
 31
0.0
 73
     1
 44
1.0
1001
ACAD
1000
MTEXTBEGIN
1070
    73
1070
     1
1070
    44
1040
1.0
1070
    74
1070
     0
1000
MTEXTEND
  0
POINT
  5
10F7
330
10EF
100
AcDbEntity
  8
Defpoints
 62
     0
100
AcDbPoint
 10
4047.502427148243
 20
1174.626160666777
 30
0.0
  0
POINT
  5
10F8
330
10EF
100
AcDbEntity
  8
Defpoints
 62
     0
100
AcDbPoint
 10
4022.590288268322
 20
1112.581512615516
 30
0.0
  0
POINT
  5
10F9
330
10EF
100
AcDbEntity
  8
Defpoints
 62
     0
100
AcDbPoint
 10
4327.590286778206
 20
1112.581512615516
 30
0.0
  0
ENDBLK
  5
10FA
330
10EF
100
AcDbEntity
  8
0
100
AcDbBlockEnd
  0
BLOCK
  5
10FC
330
10FB
100
AcDbEntity
  8
0
100
AcDbBlockBegin
  2
*D13
 70
     1
 10
0.0
 20
0.0
 30
0.0
  3
*D13
  1

  0
LINE
  5
10FD
330
10FB
100
AcDbEntity
  8
cotas
100
AcDbLine
 10
4052.502427148243
 20
1174.626160666777
 30
0.0
 11
4357.590286778206
 21
1174.626160666777
 31
0.0
  0
LINE
  5
10FE
330
10FB
100
AcDbEntity
  8
cotas
100
AcDbLine
 10
4065.090286778206
 20
1010.126160666777
 30
0.0
 11
4357.590286778206
 21
1010.126160666777
 31
0.0
  0
LINE
  5
10FF
330
10FB
100
AcDbEntity
  8
cotas
100
AcDbLine
 10
4352.590286778205
 20
1164.626160666777
 30
0.0
 11
4352.590286778205
 21
1020.126160666777
 31
0.0
  0
SOLID
  5
1100
330
10FB
100
AcDbEntity
  8
cotas
100
AcDbTrace
 10
4350.923620111539
 20
1164.626160666777
 30
0.0
 11
4354.256953444873
 21
1164.626160666777
 31
0.0
 12
4352.590286778205
 22
1174.626160666777
 32
0.0
 13
4352.590286778205
 23
1174.626160666777
 33
0.0
  0
SOLID
  5
1101
330
10FB
100
AcDbEntity
  8
cotas
100
AcDbTrace
 10
4350.923620111539
 20
1020.126160666777
 30
0.0
 11
4354.256953444873
 21
1020.126160666777
 31
0.0
 12
4352.590286778205
 22
1010.126160666777
 32
0.0
 13
4352.590286778205
 23
1010.126160666777
 33
0.0
  0
MTEXT
  5
1102
330
10FB
100
AcDbEntity
  8
cotas
100
AcDbMText
 10
4342.392167234889
 20
1092.376160666778
 30
0.0
 40
10.0
 41
0.0
 71
     5
 72
     1
  1
165
  7
SANINDUSA
 11
0.0000000000000001
 21
1.0
 31
0.0
 73
     1
 44
1.0
1001
ACAD
1000
MTEXTBEGIN
1070
    73
1070
     1
1070
    44
1040
1.0
1070
    74
1070
     0
1000
MTEXTEND
  0
POINT
  5
1103
330
10FB
100
AcDbEntity
  8
Defpoints
 62
     0
100
AcDbPoint
 10
4047.502427148243
 20
1174.626160666777
 30
0.0
  0
POINT
  5
1104
330
10FB
100
AcDbEntity
  8
Defpoints
 62
     0
100
AcDbPoint
 10
4060.090286778206
 20
1010.126160666777
 30
0.0
  0
POINT
  5
1105
330
10FB
100
AcDbEntity
  8
Defpoints
 62
     0
100
AcDbPoint
 10
4352.590286778205
 20
1010.126160666777
 30
0.0
  0
ENDBLK
  5
1106
330
10FB
100
AcDbEntity
  8
0
100
AcDbBlockEnd
  0
BLOCK
  5
1108
330
1107
100
AcDbEntity
  8
0
100
AcDbBlockBegin
  2
*D14
 70
     1
 10
0.0
 20
0.0
 30
0.0
  3
*D14
  1

  0
LINE
  5
1109
330
1107
100
AcDbEntity
  8
cotas
100
AcDbLine
 10
4017.590286778206
 20
1112.581512619907
 30
0.0
 11
3712.590286778207
 21
1112.581512619907
 31
0.0
  0
LINE
  5
110A
330
1107
100
AcDbEntity
  8
cotas
100
AcDbLine
 10
3775.435893879789
 20
1237.626160666776
 30
0.0
 11
3712.590286778207
 21
1237.626160666776
 31
0.0
  0
LINE
  5
110B
330
1107
100
AcDbEntity
  8
cotas
100
AcDbLine
 10
3717.590286778206
 20
1122.581512619906
 30
0.0
 11
3717.590286778206
 21
1227.626160666776
 31
0.0
  0
SOLID
  5
110C
330
1107
100
AcDbEntity
  8
cotas
100
AcDbTrace
 10
3715.92362011154
 20
1122.581512619906
 30
0.0
 11
3719.256953444873
 21
1122.581512619906
 31
0.0
 12
3717.590286778206
 22
1112.581512619907
 32
0.0
 13
3717.590286778206
 23
1112.581512619907
 33
0.0
  0
SOLID
  5
110D
330
1107
100
AcDbEntity
  8
cotas
100
AcDbTrace
 10
3715.92362011154
 20
1227.626160666776
 30
0.0
 11
3719.256953444873
 21
1227.626160666776
 31
0.0
 12
3717.590286778206
 22
1237.626160666776
 32
0.0
 13
3717.590286778206
 23
1237.626160666776
 33
0.0
  0
MTEXT
  5
110E
330
1107
100
AcDbEntity
  8
cotas
100
AcDbMText
 10
3707.382093359804
 20
1175.103836643342
 30
0.0
 40
10.0
 41
0.0
 71
     5
 72
     1
  1
125
  7
SANINDUSA
 11
0.0000000000000001
 21
1.0
 31
0.0
 73
     1
 44
1.0
1001
ACAD
1000
MTEXTBEGIN
1070
    73
1070
     1
1070
    44
1040
1.0
1070
    74
1070
     0
1000
MTEXTEND
  0
POINT
  5
110F
330
1107
100
AcDbEntity
  8
Defpoints
 62
     0
100
AcDbPoint
 10
4022.590286778206
 20
1112.581512619907
 30
0.0
  0
POINT
  5
1110
330
1107
100
AcDbEntity
  8
Defpoints
 62
     0
100
AcDbPoint
 10
3780.435893879789
 20
1237.626160666776
 30
0.0
  0
POINT
  5
1111
330
1107
100
AcDbEntity
  8
Defpoints
 62
     0
100
AcDbPoint
 10
3717.590286778206
 20
1237.626160666776
 30
0.0
  0
ENDBLK
  5
1112
330
1107
100
AcDbEntity
  8
0
100
AcDbBlockEnd
  0
BLOCK
  5
1114
330
1113
100
AcDbEntity
  8
0
100
AcDbBlockBegin
  2
*D15
 70
     1
 10
0.0
 20
0.0
 30
0.0
  3
*D15
  1

  0
LINE
  5
1115
330
1113
100
AcDbEntity
  8
cotas
100
AcDbLine
 10
4017.590288268322
 20
1112.581512615516
 30
0.0
 11
3712.590286778207
 21
1112.581512615516
 31
0.0
  0
LINE
  5
1116
330
1113
100
AcDbEntity
  8
cotas
100
AcDbLine
 10
4017.590286778206
 20
822.896975463427
 30
0.0
 11
3712.590286778206
 21
822.8969754634272
 31
0.0
  0
LINE
  5
1117
330
1113
100
AcDbEntity
  8
cotas
100
AcDbLine
 10
3717.590286778206
 20
1102.581512615516
 30
0.0
 11
3717.590286778206
 21
832.8969754634272
 31
0.0
  0
SOLID
  5
1118
330
1113
100
AcDbEntity
  8
cotas
100
AcDbTrace
 10
3715.92362011154
 20
1102.581512615516
 30
0.0
 11
3719.256953444873
 21
1102.581512615516
 31
0.0
 12
3717.590286778206
 22
1112.581512615516
 32
0.0
 13
3717.590286778206
 23
1112.581512615516
 33
0.0
  0
SOLID
  5
1119
330
1113
100
AcDbEntity
  8
cotas
100
AcDbTrace
 10
3715.92362011154
 20
832.8969754634272
 30
0.0
 11
3719.256953444873
 21
832.8969754634272
 31
0.0
 12
3717.590286778206
 22
822.8969754634272
 32
0.0
 13
3717.590286778206
 23
822.8969754634272
 33
0.0
  0
MTEXT
  5
111A
330
1113
100
AcDbEntity
  8
cotas
100
AcDbMText
 10
3707.382093359804
 20
967.7392440394722
 30
0.0
 40
10.0
 41
0.0
 71
     5
 72
     1
  1
290
  7
SANINDUSA
 11
0.0000000000000001
 21
1.0
 31
0.0
 73
     1
 44
1.0
1001
ACAD
1000
MTEXTBEGIN
1070
    73
1070
     1
1070
    44
1040
1.0
1070
    74
1070
     0
1000
MTEXTEND
  0
POINT
  5
111B
330
1113
100
AcDbEntity
  8
Defpoints
 62
     0
100
AcDbPoint
 10
4022.590288268322
 20
1112.581512615516
 30
0.0
  0
POINT
  5
111C
330
1113
100
AcDbEntity
  8
Defpoints
 62
     0
100
AcDbPoint
 10
4022.590286778206
 20
822.896975463427
 30
0.0
  0
POINT
  5
111D
330
1113
100
AcDbEntity
  8
Defpoints
 62
     0
100
AcDbPoint
 10
3717.590286778206
 20
822.8969754634272
 30
0.0
  0
ENDBLK
  5
111E
330
1113
100
AcDbEntity
  8
0
100
AcDbBlockEnd
  0
BLOCK
  5
1120
330
111F
100
AcDbEntity
  8
0
100
AcDbBlockBegin
  2
*D16
 70
     1
 10
0.0
 20
0.0
 30
0.0
  3
*D16
  1

  0
LINE
  5
1121
330
111F
100
AcDbEntity
  8
cotas
100
AcDbLine
 10
4269.744679676623
 20
1237.626160666777
 30
0.0
 11
4382.590286778206
 21
1237.626160666777
 31
0.0
  0
LINE
  5
1122
330
111F
100
AcDbEntity
  8
cotas
100
AcDbLine
 10
4065.090286778206
 20
1010.126160666777
 30
0.0
 11
4382.590286778206
 21
1010.126160666777
 31
0.0
  0
LINE
  5
1123
330
111F
100
AcDbEntity
  8
cotas
100
AcDbLine
 10
4377.590286778206
 20
1227.626160666777
 30
0.0
 11
4377.590286778206
 21
1020.126160666777
 31
0.0
  0
SOLID
  5
1124
330
111F
100
AcDbEntity
  8
cotas
100
AcDbTrace
 10
4375.923620111539
 20
1227.626160666777
 30
0.0
 11
4379.256953444873
 21
1227.626160666777
 31
0.0
 12
4377.590286778206
 22
1237.626160666777
 32
0.0
 13
4377.590286778206
 23
1237.626160666777
 33
0.0
  0
SOLID
  5
1125
330
111F
100
AcDbEntity
  8
cotas
100
AcDbTrace
 10
4375.923620111539
 20
1020.126160666777
 30
0.0
 11
4379.256953444873
 21
1020.126160666777
 31
0.0
 12
4377.590286778206
 22
1010.126160666777
 32
0.0
 13
4377.590286778206
 23
1010.126160666777
 33
0.0
  0
MTEXT
  5
1126
330
111F
100
AcDbEntity
  8
cotas
100
AcDbMText
 10
4367.361945609636
 20
1123.876160666778
 30
0.0
 40
10.0
 41
0.0
 71
     5
 72
     1
  1
228
  7
SANINDUSA
 11
0.0000000000000001
 21
1.0
 31
0.0
 73
     1
 44
1.0
1001
ACAD
1000
MTEXTBEGIN
1070
    73
1070
     1
1070
    44
1040
1.0
1070
    74
1070
     0
1000
MTEXTEND
  0
POINT
  5
1127
330
111F
100
AcDbEntity
  8
Defpoints
 62
     0
100
AcDbPoint
 10
4264.744679676623
 20
1237.626160666777
 30
0.0
  0
POINT
  5
1128
330
111F
100
AcDbEntity
  8
Defpoints
 62
     0
100
AcDbPoint
 10
4060.090286778206
 20
1010.126160666777
 30
0.0
  0
POINT
  5
1129
330
111F
100
AcDbEntity
  8
Defpoints
 62
     0
100
AcDbPoint
 10
4377.590286778206
 20
1010.126160666777
 30
0.0
  0
ENDBLK
  5
112A
330
111F
100
AcDbEntity
  8
0
100
AcDbBlockEnd
  0
BLOCK
  5
112C
330
112B
100
AcDbEntity
  8
0
100
AcDbBlockBegin
  2
*D17
 70
     1
 10
0.0
 20
0.0
 30
0.0
  3
*D17
  1

  0
LINE
  5
112D
330
112B
100
AcDbEntity
  8
cotas
100
AcDbLine
 10
4017.590286778206
 20
822.896975463427
 30
0.0
 11
3712.590286778206
 21
822.8969754634272
 31
0.0
  0
LINE
  5
112E
330
112B
100
AcDbEntity
  8
cotas
100
AcDbLine
 10
4017.590286778206
 20
788.6873092291807
 30
0.0
 11
3712.590286778206
 21
788.6873092291808
 31
0.0
  0
LINE
  5
112F
330
112B
100
AcDbEntity
  8
cotas
100
AcDbLine
 10
3717.590286778206
 20
812.8969754634272
 30
0.0
 11
3717.590286778206
 21
798.6873092291808
 31
0.0
  0
SOLID
  5
1130
330
112B
100
AcDbEntity
  8
cotas
100
AcDbTrace
 10
3715.92362011154
 20
812.8969754634272
 30
0.0
 11
3719.256953444873
 21
812.8969754634272
 31
0.0
 12
3717.590286778206
 22
822.8969754634272
 32
0.0
 13
3717.590286778206
 23
822.8969754634272
 33
0.0
  0
SOLID
  5
1131
330
112B
100
AcDbEntity
  8
cotas
100
AcDbTrace
 10
3715.92362011154
 20
798.6873092291808
 30
0.0
 11
3719.256953444873
 21
798.6873092291808
 31
0.0
 12
3717.590286778206
 22
788.6873092291808
 32
0.0
 13
3717.590286778206
 23
788.6873092291808
 33
0.0
  0
MTEXT
  5
1132
330
112B
100
AcDbEntity
  8
cotas
100
AcDbMText
 10
3707.382093359804
 20
805.7921423463046
 30
0.0
 40
10.0
 41
0.0
 71
     5
 72
     1
  1
34
  7
SANINDUSA
 11
0.0000000000000001
 21
1.0
 31
0.0
 73
     1
 44
1.0
1001
ACAD
1000
MTEXTBEGIN
1070
    73
1070
     1
1070
    44
1040
1.0
1070
    74
1070
     0
1000
MTEXTEND
  0
POINT
  5
1133
330
112B
100
AcDbEntity
  8
Defpoints
 62
     0
100
AcDbPoint
 10
4022.590286778206
 20
822.896975463427
 30
0.0
  0
POINT
  5
1134
330
112B
100
AcDbEntity
  8
Defpoints
 62
     0
100
AcDbPoint
 10
4022.590286778206
 20
788.6873092291807
 30
0.0
  0
POINT
  5
1135
330
112B
100
AcDbEntity
  8
Defpoints
 62
     0
100
AcDbPoint
 10
3717.590286778206
 20
788.6873092291808
 30
0.0
  0
ENDBLK
  5
1136
330
112B
100
AcDbEntity
  8
0
100
AcDbBlockEnd
  0
BLOCK
  5
1138
330
1137
100
AcDbEntity
  8
0
100
AcDbBlockBegin
  2
*D18
 70
     1
 10
0.0
 20
0.0
 30
0.0
  3
*D18
  1

  0
LINE
  5
1139
330
1137
100
AcDbEntity
  8
cotas
100
AcDbLine
 10
4269.744679676623
 20
1237.626160666777
 30
0.0
 11
4407.590286778206
 21
1237.626160666777
 31
0.0
  0
LINE
  5
113A
330
1137
100
AcDbEntity
  8
cotas
100
AcDbLine
 10
4127.590286778206
 20
787.6261606667776
 30
0.0
 11
4407.590286778206
 21
787.6261606667775
 31
0.0
  0
LINE
  5
113B
330
1137
100
AcDbEntity
  8
cotas
100
AcDbLine
 10
4402.590286778205
 20
1227.626160666777
 30
0.0
 11
4402.590286778205
 21
797.6261606667775
 31
0.0
  0
SOLID
  5
113C
330
1137
100
AcDbEntity
  8
cotas
100
AcDbTrace
 10
4400.923620111539
 20
1227.626160666777
 30
0.0
 11
4404.256953444873
 21
1227.626160666777
 31
0.0
 12
4402.590286778205
 22
1237.626160666777
 32
0.0
 13
4402.590286778205
 23
1237.626160666777
 33
0.0
  0
SOLID
  5
113D
330
1137
100
AcDbEntity
  8
cotas
100
AcDbTrace
 10
4400.923620111539
 20
797.6261606667775
 30
0.0
 11
4404.256953444873
 21
797.6261606667775
 31
0.0
 12
4402.590286778205
 22
787.6261606667775
 32
0.0
 13
4402.590286778205
 23
787.6261606667775
 33
0.0
  0
MTEXT
  5
113E
330
1137
100
AcDbEntity
  8
cotas
100
AcDbMText
 10
4392.385451318165
 20
1039.033212442664
 30
0.0
 40
10.0
 41
0.0
 71
     5
 72
     1
  1
450
  7
SANINDUSA
 11
0.0000000000000001
 21
1.0
 31
0.0
 73
     1
 44
1.0
1001
ACAD
1000
MTEXTBEGIN
1070
    73
1070
     1
1070
    44
1040
1.0
1070
    74
1070
     0
1000
MTEXTEND
  0
POINT
  5
113F
330
1137
100
AcDbEntity
  8
Defpoints
 62
     0
100
AcDbPoint
 10
4264.744679676623
 20
1237.626160666777
 30
0.0
  0
POINT
  5
1140
330
1137
100
AcDbEntity
  8
Defpoints
 62
     0
100
AcDbPoint
 10
4122.590286778206
 20
787.6261606667776
 30
0.0
  0
POINT
  5
1141
330
1137
100
AcDbEntity
  8
Defpoints
 62
     0
100
AcDbPoint
 10
4402.590286778205
 20
787.6261606667775
 30
0.0
  0
ENDBLK
  5
1142
330
1137
100
AcDbEntity
  8
0
100
AcDbBlockEnd
  0
BLOCK
  5
1144
330
1143
100
AcDbEntity
  8
0
100
AcDbBlockBegin
  2
*D19
 70
     1
 10
0.0
 20
0.0
 30
0.0
  3
*D19
  1

  0
LINE
  5
1145
330
1143
100
AcDbEntity
  8
cotas
100
AcDbLine
 10
3778.343997644136
 20
962.7113081668159
 30
0.0
 11
3778.343997644136
 21
757.626160666777
 31
0.0
  0
LINE
  5
1146
330
1143
100
AcDbEntity
  8
cotas
100
AcDbLine
 10
4266.836575912276
 20
962.7113081668156
 30
0.0
 11
4266.836575912276
 21
757.626160666777
 31
0.0
  0
LINE
  5
1147
330
1143
100
AcDbEntity
  8
cotas
100
AcDbLine
 10
3788.343997644136
 20
762.626160666777
 30
0.0
 11
4256.836575912276
 21
762.626160666777
 31
0.0
  0
SOLID
  5
1148
330
1143
100
AcDbEntity
  8
cotas
100
AcDbTrace
 10
3788.343997644136
 20
764.2928273334437
 30
0.0
 11
3788.343997644136
 21
760.9594940001104
 31
0.0
 12
3778.343997644136
 22
762.626160666777
 32
0.0
 13
3778.343997644136
 23
762.626160666777
 33
0.0
  0
SOLID
  5
1149
330
1143
100
AcDbEntity
  8
cotas
100
AcDbTrace
 10
4256.836575912276
 20
764.2928273334437
 30
0.0
 11
4256.836575912276
 21
760.9594940001104
 31
0.0
 12
4266.836575912276
 22
762.626160666777
 32
0.0
 13
4266.836575912276
 23
762.626160666777
 33
0.0
  0
MTEXT
  5
114A
330
1143
100
AcDbEntity
  8
cotas
100
AcDbMText
 10
4040.311351184973
 20
772.8545018353465
 30
0.0
 40
10.0
 41
0.0
 71
     5
 72
     1
  1
488
  7
SANINDUSA
 73
     1
 44
1.0
1001
ACAD
1000
MTEXTBEGIN
1070
    73
1070
     1
1070
    44
1040
1.0
1070
    74
1070
     0
1000
MTEXTEND
  0
POINT
  5
114B
330
1143
100
AcDbEntity
  8
Defpoints
 62
     0
100
AcDbPoint
 10
3778.343997644136
 20
967.7113081668158
 30
0.0
  0
POINT
  5
114C
330
1143
100
AcDbEntity
  8
Defpoints
 62
     0
100
AcDbPoint
 10
4266.836575912276
 20
967.7113081668155
 30
0.0
  0
POINT
  5
114D
330
1143
100
AcDbEntity
  8
Defpoints
 62
     0
100
AcDbPoint
 10
4266.836575912276
 20
762.626160666777
 30
0.0
  0
ENDBLK
  5
114E
330
1143
100
AcDbEntity
  8
0
100
AcDbBlockEnd
  0
BLOCK
  5
1150
330
114F
100
AcDbEntity
  8
0
100
AcDbBlockBegin
  2
*D20
 70
     1
 10
0.0
 20
0.0
 30
0.0
  3
*D20
  1

  0
LINE
  5
1151
330
114F
100
AcDbEntity
  8
cotas
100
AcDbLine
 10
4266.836575912276
 20
962.7113081668156
 30
0.0
 11
4266.836575912276
 21
757.6261606667782
 31
0.0
  0
LINE
  5
1152
330
114F
100
AcDbEntity
  8
cotas
100
AcDbLine
 10
4301.52913821581
 20
962.6261606667776
 30
0.0
 11
4301.52913821581
 21
757.6261606667782
 31
0.0
  0
LINE
  5
1153
330
114F
100
AcDbEntity
  8
cotas
100
AcDbLine
 10
4276.836575912276
 20
762.6261606667782
 30
0.0
 11
4291.52913821581
 21
762.6261606667782
 31
0.0
  0
SOLID
  5
1154
330
114F
100
AcDbEntity
  8
cotas
100
AcDbTrace
 10
4276.836575912276
 20
764.2928273334448
 30
0.0
 11
4276.836575912276
 21
760.9594940001116
 31
0.0
 12
4266.836575912276
 22
762.6261606667782
 32
0.0
 13
4266.836575912276
 23
762.6261606667782
 33
0.0
  0
SOLID
  5
1155
330
114F
100
AcDbEntity
  8
cotas
100
AcDbTrace
 10
4291.52913821581
 20
764.2928273334448
 30
0.0
 11
4291.52913821581
 21
760.9594940001116
 31
0.0
 12
4301.52913821581
 22
762.6261606667782
 32
0.0
 13
4301.52913821581
 23
762.6261606667782
 33
0.0
  0
MTEXT
  5
1156
330
114F
100
AcDbEntity
  8
cotas
100
AcDbMText
 10
4284.182857064043
 20
772.8343540851798
 30
0.0
 40
10.0
 41
0.0
 71
     5
 72
     1
  1
35
  7
SANINDUSA
 73
     1
 44
1.0
1001
ACAD
1000
MTEXTBEGIN
1070
    73
1070
     1
1070
    44
1040
1.0
1070
    74
1070
     0
1000
MTEXTEND
  0
POINT
  5
1157
330
114F
100
AcDbEntity
  8
Defpoints
 62
     0
100
AcDbPoint
 10
4266.836575912276
 20
967.7113081668155
 30
0.0
  0
POINT
  5
1158
330
114F
100
AcDbEntity
  8
Defpoints
 62
     0
100
AcDbPoint
 10
4301.52913821581
 20
967.6261606667777
 30
0.0
  0
POINT
  5
1159
330
114F
100
AcDbEntity
  8
Defpoints
 62
     0
100
AcDbPoint
 10
4301.52913821581
 20
762.6261606667782
 30
0.0
  0
ENDBLK
  5
115A
330
114F
100
AcDbEntity
  8
0
100
AcDbBlockEnd
  0
BLOCK
  5
115C
330
115B
100
AcDbEntity
  8
0
100
AcDbBlockBegin
  2
*D21
 70
     1
 10
0.0
 20
0.0
 30
0.0
  3
*D21
  1

  0
LINE
  5
115D
330
115B
100
AcDbEntity
  8
cotas
100
AcDbLine
 10
3778.34399764423
 20
962.711308166817
 30
0.0
 11
3778.34399764423
 21
757.6261606667778
 31
0.0
  0
LINE
  5
115E
330
115B
100
AcDbEntity
  8
cotas
100
AcDbLine
 10
3743.651435340609
 20
962.6261606667794
 30
0.0
 11
3743.651435340609
 21
757.6261606667778
 31
0.0
  0
LINE
  5
115F
330
115B
100
AcDbEntity
  8
cotas
100
AcDbLine
 10
3768.34399764423
 20
762.6261606667778
 30
0.0
 11
3753.651435340609
 21
762.6261606667778
 31
0.0
  0
SOLID
  5
1160
330
115B
100
AcDbEntity
  8
cotas
100
AcDbTrace
 10
3768.34399764423
 20
764.2928273334445
 30
0.0
 11
3768.34399764423
 21
760.9594940001112
 31
0.0
 12
3778.34399764423
 22
762.6261606667778
 32
0.0
 13
3778.34399764423
 23
762.6261606667778
 33
0.0
  0
SOLID
  5
1161
330
115B
100
AcDbEntity
  8
cotas
100
AcDbTrace
 10
3753.651435340609
 20
764.2928273334445
 30
0.0
 11
3753.651435340609
 21
760.9594940001112
 31
0.0
 12
3743.651435340609
 22
762.6261606667778
 32
0.0
 13
3743.651435340609
 23
762.6261606667778
 33
0.0
  0
MTEXT
  5
1162
330
115B
100
AcDbEntity
  8
cotas
100
AcDbMText
 10
3760.99771649242
 20
772.8343540851795
 30
0.0
 40
10.0
 41
0.0
 71
     5
 72
     1
  1
35
  7
SANINDUSA
 73
     1
 44
1.0
1001
ACAD
1000
MTEXTBEGIN
1070
    73
1070
     1
1070
    44
1040
1.0
1070
    74
1070
     0
1000
MTEXTEND
  0
POINT
  5
1163
330
115B
100
AcDbEntity
  8
Defpoints
 62
     0
100
AcDbPoint
 10
3778.34399764423
 20
967.7113081668171
 30
0.0
  0
POINT
  5
1164
330
115B
100
AcDbEntity
  8
Defpoints
 62
     0
100
AcDbPoint
 10
3743.651435340609
 20
967.6261606667795
 30
0.0
  0
POINT
  5
1165
330
115B
100
AcDbEntity
  8
Defpoints
 62
     0
100
AcDbPoint
 10
3743.651435340609
 20
762.6261606667778
 30
0.0
  0
ENDBLK
  5
1166
330
115B
100
AcDbEntity
  8
0
100
AcDbBlockEnd
  0
BLOCK
  5
1168
330
1167
100
AcDbEntity
  8
0
100
AcDbBlockBegin
  2
*D22
 70
     1
 10
0.0
 20
0.0
 30
0.0
  3
*D22
  1

  0
LINE
  5
1169
330
1167
100
AcDbEntity
  8
cotas
100
AcDbLine
 10
4797.544904443262
 20
1212.077328012604
 30
0.0
 11
4740.04490444326
 21
1212.077328012604
 31
0.0
  0
LINE
  5
116A
330
1167
100
AcDbEntity
  8
cotas
100
AcDbLine
 10
4986.544904443261
 20
1072.077328012604
 30
0.0
 11
4740.04490444326
 21
1072.077328012604
 31
0.0
  0
LINE
  5
116B
330
1167
100
AcDbEntity
  8
cotas
100
AcDbLine
 10
4745.04490444326
 20
1202.077328012604
 30
0.0
 11
4745.04490444326
 21
1082.077328012604
 31
0.0
  0
SOLID
  5
116C
330
1167
100
AcDbEntity
  8
cotas
100
AcDbTrace
 10
4743.378237776593
 20
1202.077328012604
 30
0.0
 11
4746.711571109927
 21
1202.077328012604
 31
0.0
 12
4745.04490444326
 22
1212.077328012604
 32
0.0
 13
4745.04490444326
 23
1212.077328012604
 33
0.0
  0
SOLID
  5
116D
330
1167
100
AcDbEntity
  8
cotas
100
AcDbTrace
 10
4743.378237776593
 20
1082.077328012604
 30
0.0
 11
4746.711571109927
 21
1082.077328012604
 31
0.0
 12
4745.04490444326
 22
1072.077328012604
 32
0.0
 13
4745.04490444326
 23
1072.077328012604
 33
0.0
  0
MTEXT
  5
116E
330
1167
100
AcDbEntity
  8
cotas
100
AcDbMText
 10
4734.84006898322
 20
1142.077328012605
 30
0.0
 40
10.0
 41
0.0
 71
     5
 72
     1
  1
140
  7
SANINDUSA
 11
0.0000000000000001
 21
1.0
 31
0.0
 73
     1
 44
1.0
1001
ACAD
1000
MTEXTBEGIN
1070
    73
1070
     1
1070
    44
1040
1.0
1070
    74
1070
     0
1000
MTEXTEND
  0
POINT
  5
116F
330
1167
100
AcDbEntity
  8
Defpoints
 62
     0
100
AcDbPoint
 10
4802.544904443262
 20
1212.077328012604
 30
0.0
  0
POINT
  5
1170
330
1167
100
AcDbEntity
  8
Defpoints
 62
     0
100
AcDbPoint
 10
4991.54490444326
 20
1072.077328012604
 30
0.0
  0
POINT
  5
1171
330
1167
100
AcDbEntity
  8
Defpoints
 62
     0
100
AcDbPoint
 10
4745.04490444326
 20
1072.077328012604
 30
0.0
  0
ENDBLK
  5
1172
330
1167
100
AcDbEntity
  8
0
100
AcDbBlockEnd
  0
BLOCK
  5
1174
330
1173
100
AcDbEntity
  8
0
100
AcDbBlockBegin
  2
*D23
 70
     1
 10
0.0
 20
0.0
 30
0.0
  3
*D23
  1

  0
LINE
  5
1175
330
1173
100
AcDbEntity
  8
cotas
100
AcDbLine
 10
4797.544904443262
 20
1212.077328012604
 30
0.0
 11
4765.04490444326
 21
1212.077328012604
 31
0.0
  0
LINE
  5
1176
330
1173
100
AcDbEntity
  8
cotas
100
AcDbLine
 10
4831.240037591912
 20
1200.077328012604
 30
0.0
 11
4765.04490444326
 21
1200.077328012604
 31
0.0
  0
LINE
  5
1177
330
1173
100
AcDbEntity
  8
cotas
100
AcDbLine
 10
4770.044904443261
 20
1222.077328012604
 30
0.0
 11
4770.044904443261
 21
1232.077328012604
 31
0.0
  0
LINE
  5
1178
330
1173
100
AcDbEntity
  8
cotas
100
AcDbLine
 10
4770.044904443261
 20
1190.077328012604
 30
0.0
 11
4770.044904443261
 21
1155.349322639871
 31
0.0
  0
LINE
  5
1179
330
1173
100
AcDbEntity
  8
cotas
100
AcDbLine
 10
4770.044904443261
 20
1212.077328012604
 30
0.0
 11
4770.044904443261
 21
1200.077328012604
 31
0.0
  0
SOLID
  5
117A
330
1173
100
AcDbEntity
  8
cotas
100
AcDbTrace
 10
4768.378237776594
 20
1222.077328012604
 30
0.0
 11
4771.711571109928
 21
1222.077328012604
 31
0.0
 12
4770.044904443261
 22
1212.077328012604
 32
0.0
 13
4770.044904443261
 23
1212.077328012604
 33
0.0
  0
SOLID
  5
117B
330
1173
100
AcDbEntity
  8
cotas
100
AcDbTrace
 10
4768.378237776594
 20
1190.077328012604
 30
0.0
 11
4771.711571109928
 21
1190.077328012604
 31
0.0
 12
4770.044904443261
 22
1200.077328012604
 32
0.0
 13
4770.044904443261
 23
1200.077328012604
 33
0.0
  0
MTEXT
  5
117C
330
1173
100
AcDbEntity
  8
cotas
100
AcDbMText
 10
4759.94080773406
 20
1167.713325326239
 30
0.0
 40
10.0
 41
0.0
 71
     5
 72
     1
  1
12
  7
SANINDUSA
 11
0.0000000000000001
 21
1.0
 31
0.0
 73
     1
 44
1.0
1001
ACAD
1000
MTEXTBEGIN
1070
    73
1070
     1
1070
    44
1040
1.0
1070
    74
1070
     0
1000
MTEXTEND
  0
POINT
  5
117D
330
1173
100
AcDbEntity
  8
Defpoints
 62
     0
100
AcDbPoint
 10
4802.544904443262
 20
1212.077328012604
 30
0.0
  0
POINT
  5
117E
330
1173
100
AcDbEntity
  8
Defpoints
 62
     0
100
AcDbPoint
 10
4836.240037591911
 20
1200.077328012604
 30
0.0
  0
POINT
  5
117F
330
1173
100
AcDbEntity
  8
Defpoints
 62
     0
100
AcDbPoint
 10
4770.044904443261
 20
1200.077328012604
 30
0.0
  0
ENDBLK
  5
1180
330
1173
100
AcDbEntity
  8
0
100
AcDbBlockEnd
  0
BLOCK
  5
1182
330
1181
100
AcDbEntity
  8
0
100
AcDbBlockBegin
  2
*D24
 70
     1
 10
0.0
 20
0.0
 30
0.0
  3
*D24
  1

  0
LINE
  5
1183
330
1181
100
AcDbEntity
  8
cotas
100
AcDbLine
 10
4992.54490444326
 20
1020.077328012604
 30
0.0
 11
4992.54490444326
 21
988.9684271268952
 31
0.0
  0
LINE
  5
1184
330
1181
100
AcDbEntity
  8
cotas
100
AcDbLine
 10
5062.54490444326
 20
1020.077328012604
 30
0.0
 11
5062.54490444326
 21
988.9684271268952
 31
0.0
  0
LINE
  5
1185
330
1181
100
AcDbEntity
  8
cotas
100
AcDbLine
 10
5002.54490444326
 20
993.9684271268951
 30
0.0
 11
5052.544904443259
 21
993.9684271268951
 31
0.0
  0
SOLID
  5
1186
330
1181
100
AcDbEntity
  8
cotas
100
AcDbTrace
 10
5002.54490444326
 20
995.6350937935619
 30
0.0
 11
5002.54490444326
 21
992.3017604602286
 31
0.0
 12
4992.54490444326
 22
993.9684271268951
 32
0.0
 13
4992.54490444326
 23
993.9684271268951
 33
0.0
  0
SOLID
  5
1187
330
1181
100
AcDbEntity
  8
cotas
100
AcDbTrace
 10
5052.544904443259
 20
995.6350937935619
 30
0.0
 11
5052.544904443259
 21
992.3017604602286
 31
0.0
 12
5062.54490444326
 22
993.9684271268951
 32
0.0
 13
5062.54490444326
 23
993.9684271268951
 33
0.0
  0
MTEXT
  5
1188
102
{ACAD_XDICTIONARY
360
1E32
102
}
330
1181
100
AcDbEntity
  8
cotas
100
AcDbMText
 10
5027.54490444326
 20
1004.566143715209
 30
0.0
 40
10.0
 41
0.0
 71
     5
 72
     1
  1
\U+00F870
  7
SANINDUSA
 73
     1
 44
1.0
1001
ACAD
1000
MTEXTBEGIN
1070
    73
1070
     1
1070
    44
1040
1.0
1070
    74
1070
     0
1000
MTEXTEND
  0
POINT
  5
1189
330
1181
100
AcDbEntity
  8
Defpoints
 62
     0
100
AcDbPoint
 10
4992.54490444326
 20
1025.077328012604
 30
0.0
  0
POINT
  5
118A
330
1181
100
AcDbEntity
  8
Defpoints
 62
     0
100
AcDbPoint
 10
5062.54490444326
 20
1025.077328012604
 30
0.0
  0
POINT
  5
118B
330
1181
100
AcDbEntity
  8
Defpoints
 62
     0
100
AcDbPoint
 10
5062.54490444326
 20
993.9684271268951
 30
0.0
  0
ENDBLK
  5
118C
330
1181
100
AcDbEntity
  8
0
100
AcDbBlockEnd
  0
BLOCK
  5
118E
330
118D
100
AcDbEntity
  8
0
100
AcDbBlockBegin
  2
*D25
 70
     1
 10
0.0
 20
0.0
 30
0.0
  3
*D25
  1

  0
LINE
  5
118F
330
118D
100
AcDbEntity
  8
cotas
100
AcDbLine
 10
4800.544904443262
 20
1215.077328012604
 30
0.0
 11
4800.544904443262
 21
1243.077328012604
 31
0.0
  0
LINE
  5
1190
330
118D
100
AcDbEntity
  8
cotas
100
AcDbLine
 10
4831.243083456816
 20
1200.251825496117
 30
0.0
 11
4831.243083456816
 21
1243.077328012604
 31
0.0
  0
LINE
  5
1191
330
118D
100
AcDbEntity
  8
cotas
100
AcDbLine
 10
4831.243083456816
 20
1238.077328012604
 30
0.0
 11
4810.544904443262
 21
1238.077328012604
 31
0.0
  0
LINE
  5
1192
330
118D
100
AcDbEntity
  8
cotas
100
AcDbLine
 10
4800.544904443262
 20
1238.077328012604
 30
0.0
 11
4759.863574691751
 21
1238.077328012604
 31
0.0
  0
INSERT
  5
1193
330
118D
100
AcDbEntity
  8
cotas
100
AcDbBlockReference
  2
_DotSmall
 10
4831.243083456816
 20
1238.077328012604
 30
0.0
 41
10.0
 42
10.0
 43
10.0
  0
SOLID
  5
1194
330
118D
100
AcDbEntity
  8
cotas
100
AcDbTrace
 10
4810.544904443262
 20
1239.743994679271
 30
0.0
 11
4810.544904443262
 21
1236.410661345938
 31
0.0
 12
4800.544904443262
 22
1238.077328012604
 32
0.0
 13
4800.544904443262
 23
1238.077328012604
 33
0.0
  0
MTEXT
  5
1195
330
118D
100
AcDbEntity
  8
cotas
100
AcDbMText
 10
4772.314884295512
 20
1248.285521431006
 30
0.0
 40
10.0
 41
0.0
 71
     5
 72
     1
  1
31
  7
SANINDUSA
 73
     1
 44
1.0
1001
ACAD
1000
MTEXTBEGIN
1070
    73
1070
     1
1070
    44
1040
1.0
1070
    74
1070
     0
1000
MTEXTEND
  0
POINT
  5
1196
330
118D
100
AcDbEntity
  8
Defpoints
 62
     0
100
AcDbPoint
 10
4800.544904443262
 20
1210.077328012604
 30
0.0
  0
POINT
  5
1197
330
118D
100
AcDbEntity
  8
Defpoints
 62
     0
100
AcDbPoint
 10
4831.243083456816
 20
1195.251825496117
 30
0.0
  0
POINT
  5
1198
330
118D
100
AcDbEntity
  8
Defpoints
 62
     0
100
AcDbPoint
 10
4831.243083456816
 20
1238.077328012604
 30
0.0
  0
ENDBLK
  5
1199
330
118D
100
AcDbEntity
  8
0
100
AcDbBlockEnd
  0
BLOCK
  5
119B
330
119A
100
AcDbEntity
  8
0
100
AcDbBlockBegin
  2
*D26
 70
     1
 10
0.0
 20
0.0
 30
0.0
  3
*D26
  1

  0
LINE
  5
119C
330
119A
100
AcDbEntity
  8
cotas
100
AcDbLine
 10
4846.044904443263
 20
1216.077328012597
 30
0.0
 11
4846.044904443263
 21
1243.077328012604
 31
0.0
  0
LINE
  5
119D
330
119A
100
AcDbEntity
  8
cotas
100
AcDbLine
 10
4881.044904443263
 20
1216.077328012597
 30
0.0
 11
4881.044904443263
 21
1243.077328012604
 31
0.0
  0
LINE
  5
119E
330
119A
100
AcDbEntity
  8
cotas
100
AcDbLine
 10
4856.044904443263
 20
1238.077328012604
 30
0.0
 11
4871.044904443262
 21
1238.077328012604
 31
0.0
  0
SOLID
  5
119F
330
119A
100
AcDbEntity
  8
cotas
100
AcDbTrace
 10
4856.044904443263
 20
1239.743994679271
 30
0.0
 11
4856.044904443263
 21
1236.410661345938
 31
0.0
 12
4846.044904443263
 22
1238.077328012604
 32
0.0
 13
4846.044904443263
 23
1238.077328012604
 33
0.0
  0
SOLID
  5
11A0
330
119A
100
AcDbEntity
  8
cotas
100
AcDbTrace
 10
4871.044904443262
 20
1239.743994679271
 30
0.0
 11
4871.044904443262
 21
1236.410661345938
 31
0.0
 12
4881.044904443263
 22
1238.077328012604
 32
0.0
 13
4881.044904443263
 23
1238.077328012604
 33
0.0
  0
MTEXT
  5
11A1
102
{ACAD_XDICTIONARY
360
1E34
102
}
330
119A
100
AcDbEntity
  8
cotas
100
AcDbMText
 10
4863.544904443262
 20
1248.67840255928
 30
0.0
 40
10.0
 41
0.0
 71
     5
 72
     1
  1
\U+00F835
  7
SANINDUSA
 73
     1
 44
1.0
1001
ACAD
1000
MTEXTBEGIN
1070
    73
1070
     1
1070
    44
1040
1.0
1070
    74
1070
     0
1000
MTEXTEND
  0
POINT
  5
11A2
330
119A
100
AcDbEntity
  8
Defpoints
 62
     0
100
AcDbPoint
 10
4846.044904443263
 20
1211.077328012597
 30
0.0
  0
POINT
  5
11A3
330
119A
100
AcDbEntity
  8
Defpoints
 62
     0
100
AcDbPoint
 10
4881.044904443263
 20
1211.077328012597
 30
0.0
  0
POINT
  5
11A4
330
119A
100
AcDbEntity
  8
Defpoints
 62
     0
100
AcDbPoint
 10
4881.044904443263
 20
1238.077328012604
 30
0.0
  0
ENDBLK
  5
11A5
330
119A
100
AcDbEntity
  8
0
100
AcDbBlockEnd
  0
BLOCK
  5
11A7
330
11A6
100
AcDbEntity
  8
0
100
AcDbBlockBegin
  2
*D27
 70
     1
 10
0.0
 20
0.0
 30
0.0
  3
*D27
  1

  0
ARC
  5
11A8
330
11A6
100
AcDbEntity
  8
cotas
100
AcDbCircle
 10
5197.063847877511
 20
1032.077328012605
 30
0.0
 40
48.34035494853076
100
AcDbArc
 50
105.8738137357954
 51
168.1261862642036
  0
SOLID
  5
11A9
330
11A6
100
AcDbEntity
  8
cotas
100
AcDbTrace
 10
5183.554205401988
 20
1080.215956051653
 30
0.0
 11
5184.129417465836
 21
1076.932628137369
 31
0.0
 12
5193.691795176762
 22
1080.299928286058
 32
0.0
 13
5193.691795176762
 23
1080.299928286058
 33
0.0
  0
SOLID
  5
11AA
330
11A6
100
AcDbEntity
  8
cotas
100
AcDbTrace
 10
5151.415552754023
 20
1041.851303236441
 30
0.0
 11
5148.100098096291
 21
1042.196080735167
 31
0.0
 12
5148.723492928979
 22
1032.077328012604
 32
0.0
 13
5148.723492928979
 23
1032.077328012604
 33
0.0
  0
MTEXT
  5
11AB
102
{ACAD_XDICTIONARY
360
1E36
102
}
330
11A6
100
AcDbEntity
  8
cotas
100
AcDbMText
 10
5153.404247800045
 20
1072.79056373958
 30
0.0
 40
10.0
 41
0.0
 71
     5
 72
     1
  1
86,0\U+00B0
  7
SANINDUSA
 11
0.6819983600625058
 21
0.7313537016191637
 31
0.0
 73
     1
 44
1.0
1001
ACAD
1000
MTEXTBEGIN
1070
    73
1070
     1
1070
    44
1040
1.0
1070
    74
1070
     0
1000
MTEXTEND
  0
POINT
  5
11AC
330
11A6
100
AcDbEntity
  8
Defpoints
 62
     0
100
AcDbPoint
 10
5170.972109488431
 20
1072.771444348825
 30
0.0
  0
POINT
  5
11AD
330
11A6
100
AcDbEntity
  8
Defpoints
 62
     0
100
AcDbPoint
 10
5197.063847877511
 20
1032.077328012605
 30
0.0
  0
POINT
  5
11AE
330
11A6
100
AcDbEntity
  8
Defpoints
 62
     0
100
AcDbPoint
 10
5192.717309610445
 20
1094.235721141943
 30
0.0
  0
POINT
  5
11AF
330
11A6
100
AcDbEntity
  8
Defpoints
 62
     0
100
AcDbPoint
 10
5197.063847877511
 20
1032.077328012605
 30
0.0
  0
POINT
  5
11B0
330
11A6
100
AcDbEntity
  8
Defpoints
 62
     0
100
AcDbPoint
 10
5070.544904443259
 20
1032.077328012604
 30
0.0
  0
ENDBLK
  5
11B1
330
11A6
100
AcDbEntity
  8
0
100
AcDbBlockEnd
  0
BLOCK
  5
11B3
330
11B2
100
AcDbEntity
  8
0
100
AcDbBlockBegin
  2
*D28
 70
     1
 10
0.0
 20
0.0
 30
0.0
  3
*D28
  1

  0
LINE
  5
11B4
330
11B2
100
AcDbEntity
  8
cotas
100
AcDbLine
 10
5067.318452344373
 20
1075.357623157558
 30
0.0
 11
5074.374711555394
 21
1081.491535708297
 31
0.0
  0
LINE
  5
11B5
330
11B2
100
AcDbEntity
  8
cotas
100
AcDbLine
 10
4987.771356542148
 20
1075.357623157558
 30
0.0
 11
4980.715097331128
 21
1081.491535708297
 31
0.0
  0
ARC
  5
11B6
330
11B2
100
AcDbEntity
  8
cotas
100
AcDbCircle
 10
5027.54490444326
 20
1040.783005451197
 30
0.0
 40
57.05010289961554
100
AcDbArc
 50
51.05596502529913
 51
128.9440349747008
  0
SOLID
  5
11B7
330
11B2
100
AcDbEntity
  8
cotas
100
AcDbTrace
 10
5064.561552173618
 20
1086.353775238763
 30
0.0
 11
5062.247195602166
 21
1083.954845316633
 31
0.0
 12
5070.601163654282
 22
1078.211240563343
 32
0.0
 13
5070.601163654282
 23
1078.211240563343
 33
0.0
  0
SOLID
  5
11B8
330
11B2
100
AcDbEntity
  8
cotas
100
AcDbTrace
 10
4992.842613284356
 20
1083.954845316633
 30
0.0
 11
4990.528256712903
 21
1086.353775238763
 31
0.0
 12
4984.488645232239
 22
1078.211240563343
 32
0.0
 13
4984.488645232239
 23
1078.211240563343
 33
0.0
  0
MTEXT
  5
11B9
102
{ACAD_XDICTIONARY
360
1E38
102
}
330
11B2
100
AcDbEntity
  8
cotas
100
AcDbMText
 10
5027.54490444326
 20
1109.189723528784
 30
0.0
 40
10.0
 41
0.0
 71
     5
 72
     1
  1
98,0\U+00B0
  7
SANINDUSA
 73
     1
 44
1.0
1001
ACAD
1000
MTEXTBEGIN
1070
    73
1070
     1
1070
    44
1040
1.0
1070
    74
1070
     0
1000
MTEXTEND
  0
POINT
  5
11BA
330
11B2
100
AcDbEntity
  8
Defpoints
 62
     0
100
AcDbPoint
 10
5043.588822681989
 20
1095.530671414284
 30
0.0
  0
POINT
  5
11BB
330
11B2
100
AcDbEntity
  8
Defpoints
 62
     0
100
AcDbPoint
 10
5004.044904443261
 20
1061.211243789893
 30
0.0
  0
POINT
  5
11BC
330
11B2
100
AcDbEntity
  8
Defpoints
 62
     0
100
AcDbPoint
 10
5063.544904443261
 20
1072.077328012604
 30
0.0
  0
POINT
  5
11BD
330
11B2
100
AcDbEntity
  8
Defpoints
 62
     0
100
AcDbPoint
 10
5051.044904443261
 20
1061.211243789893
 30
0.0
  0
POINT
  5
11BE
330
11B2
100
AcDbEntity
  8
Defpoints
 62
     0
100
AcDbPoint
 10
4991.54490444326
 20
1072.077328012604
 30
0.0
  0
ENDBLK
  5
11BF
330
11B2
100
AcDbEntity
  8
0
100
AcDbBlockEnd
  0
BLOCK
  5
11C1
330
11C0
100
AcDbEntity
  8
0
100
AcDbBlockBegin
  2
*D29
 70
     1
 10
0.0
 20
0.0
 30
0.0
  3
*D29
  1

  0
ARC
  5
11C2
330
11C0
100
AcDbEntity
  8
cotas
100
AcDbCircle
 10
4825.544904443261
 20
1032.077328012605
 30
0.0
 40
63.75563619673459
100
AcDbArc
 50
8.996016353438461
 51
79.00398364656076
  0
SOLID
  5
11C3
330
11C0
100
AcDbEntity
  8
cotas
100
AcDbTrace
 10
4890.177829684735
 20
1042.17723601762
 30
0.0
 11
4886.854762815826
 21
1041.915821221047
 31
0.0
 12
4889.300540639995
 22
1032.077328012604
 32
0.0
 13
4889.300540639995
 23
1032.077328012604
 33
0.0
  0
SOLID
  5
11C4
330
11C0
100
AcDbEntity
  8
cotas
100
AcDbTrace
 10
4837.517087507573
 20
1093.0064796147
 30
0.0
 11
4837.894316418548
 21
1096.318398916229
 31
0.0
 12
4827.769944058474
 22
1095.794125998388
 32
0.0
 13
4827.769944058474
 23
1095.794125998388
 33
0.0
  0
MTEXT
  5
11C5
102
{ACAD_XDICTIONARY
360
1E3A
102
}
330
11C0
100
AcDbEntity
  8
cotas
100
AcDbMText
 10
4879.576136350129
 20
1084.254682154064
 30
0.0
 40
10.0
 41
0.0
 71
     5
 72
     1
  1
88,0\U+00B0
  7
SANINDUSA
 11
0.6946583704589939
 21
-0.7193398003386545
 31
0.0
 73
     1
 44
1.0
1001
ACAD
1000
MTEXTBEGIN
1070
    73
1070
     1
1070
    44
1040
1.0
1070
    74
1070
     0
1000
MTEXTEND
  0
POINT
  5
11C6
330
11C0
100
AcDbEntity
  8
Defpoints
 62
     0
100
AcDbPoint
 10
4881.126074364896
 20
1063.310558665113
 30
0.0
  0
POINT
  5
11C7
330
11C0
100
AcDbEntity
  8
Defpoints
 62
     0
100
AcDbPoint
 10
4825.544904443261
 20
1032.077328012604
 30
0.0
  0
POINT
  5
11C8
330
11C0
100
AcDbEntity
  8
Defpoints
 62
     0
100
AcDbPoint
 10
4938.04490444326
 20
1032.077328012604
 30
0.0
  0
POINT
  5
11C9
330
11C0
100
AcDbEntity
  8
Defpoints
 62
     0
100
AcDbPoint
 10
4830.803865159545
 20
1032.077328012604
 30
0.0
  0
POINT
  5
11CA
330
11C0
100
AcDbEntity
  8
Defpoints
 62
     0
100
AcDbPoint
 10
4829.307185349059
 20
1139.814956952522
 30
0.0
  0
ENDBLK
  5
11CB
330
11C0
100
AcDbEntity
  8
0
100
AcDbBlockEnd
  0
BLOCK
  5
11CD
330
11CC
100
AcDbEntity
  8
0
100
AcDbBlockBegin
  2
*D30
 70
     1
 10
0.0
 20
0.0
 30
0.0
  3
*D30
  1

  0
LINE
  5
11CE
330
11CC
100
AcDbEntity
  8
cotas
100
AcDbLine
 10
5278.115607929869
 20
1009.54117256169
 30
0.0
 11
5244.443766523116
 21
1039.094777904072
 31
0.0
  0
MTEXT
  5
11CF
330
11CC
100
AcDbEntity
  8
cotas
100
AcDbMText
 10
5271.769177444612
 20
1028.689389389703
 30
0.0
 40
10.0
 41
0.0
 71
     5
 72
     1
  1
R40
  7
SANINDUSA
 11
0.7515720559834546
 21
-0.6596510021706957
 31
0.0
 73
     1
 44
1.0
1001
ACAD
1000
MTEXTBEGIN
1070
    73
1070
     1
1070
    44
1040
1.0
1070
    74
1070
     0
1000
MTEXTEND
  0
LINE
  5
11D0
330
11CC
100
AcDbEntity
  8
cotas
100
AcDbLine
 10
5206.865163723944
 20
1072.077328012606
 30
0.0
 11
5236.928045963281
 21
1045.691287925779
 31
0.0
  0
SOLID
  5
11D1
330
11CC
100
AcDbEntity
  8
cotas
100
AcDbTrace
 10
5245.543184860068
 20
1040.347397997378
 30
0.0
 11
5243.344348186165
 21
1037.842157810766
 31
0.0
 12
5236.928045963281
 22
1045.691287925779
 32
0.0
 13
5236.928045963281
 23
1045.691287925779
 33
0.0
  0
POINT
  5
11D2
330
11CC
100
AcDbEntity
  8
Defpoints
 62
     0
100
AcDbPoint
 10
5236.928045963281
 20
1045.691287925779
 30
0.0
  0
POINT
  5
11D3
330
11CC
100
AcDbEntity
  8
Defpoints
 62
     0
100
AcDbPoint
 10
5206.865163723944
 20
1072.077328012606
 30
0.0
  0
ENDBLK
  5
11D4
330
11CC
100
AcDbEntity
  8
0
100
AcDbBlockEnd
  0
BLOCK
  5
11D6
330
11D5
100
AcDbEntity
  8
0
100
AcDbBlockBegin
  2
*D31
 70
     1
 10
0.0
 20
0.0
 30
0.0
  3
*D31
  1

  0
LINE
  5
11D7
330
11D5
100
AcDbEntity
  8
cotas
100
AcDbLine
 10
5286.481991608074
 20
1227.382555912134
 30
0.0
 11
5250.093834160054
 21
1201.246173415835
 31
0.0
  0
MTEXT
  5
11D8
330
11D5
100
AcDbEntity
  8
cotas
100
AcDbMText
 10
5266.395655353997
 20
1225.519632541479
 30
0.0
 40
10.0
 41
0.0
 71
     5
 72
     1
  1
R40
  7
SANINDUSA
 11
0.8122015655839241
 21
0.5833769080646084
 31
0.0
 73
     1
 44
1.0
1001
ACAD
1000
MTEXTBEGIN
1070
    73
1070
     1
1070
    44
1040
1.0
1070
    74
1070
     0
1000
MTEXTEND
  0
LINE
  5
11D9
330
11D5
100
AcDbEntity
  8
cotas
100
AcDbLine
 10
5209.483755880857
 20
1172.077328012605
 30
0.0
 11
5241.971818504215
 21
1195.412404335189
 31
0.0
  0
SOLID
  5
11DA
330
11D5
100
AcDbEntity
  8
cotas
100
AcDbTrace
 10
5249.121539313279
 20
1202.599842691808
 30
0.0
 11
5251.066129006828
 21
1199.892504139862
 31
0.0
 12
5241.971818504215
 22
1195.412404335189
 32
0.0
 13
5241.971818504215
 23
1195.412404335189
 33
0.0
  0
POINT
  5
11DB
330
11D5
100
AcDbEntity
  8
Defpoints
 62
     0
100
AcDbPoint
 10
5241.971818504215
 20
1195.412404335189
 30
0.0
  0
POINT
  5
11DC
330
11D5
100
AcDbEntity
  8
Defpoints
 62
     0
100
AcDbPoint
 10
5209.483755880857
 20
1172.077328012605
 30
0.0
  0
ENDBLK
  5
11DD
330
11D5
100
AcDbEntity
  8
0
100
AcDbBlockEnd
  0
BLOCK
  5
11DF
330
11DE
100
AcDbEntity
  8
0
100
AcDbBlockBegin
  2
*D32
 70
     1
 10
0.0
 20
0.0
 30
0.0
  3
*D32
  1

  0
LINE
  5
11E0
330
11DE
100
AcDbEntity
  8
cotas
100
AcDbLine
 10
5191.513873604296
 20
1247.376095225743
 30
0.0
 11
5211.884968498173
 21
1217.705543885703
 31
0.0
  0
MTEXT
  5
11E1
330
11DE
100
AcDbEntity
  8
cotas
100
AcDbMText
 10
5207.199153154725
 20
1242.381841712935
 30
0.0
 40
10.0
 41
0.0
 71
     5
 72
     1
  1
R5
  7
SANINDUSA
 11
0.5660115748643949
 21
-0.8243972932509709
 31
0.0
 73
     1
 44
1.0
1001
ACAD
1000
MTEXTBEGIN
1070
    73
1070
     1
1070
    44
1040
1.0
1070
    74
1070
     0
1000
MTEXTEND
  0
LINE
  5
11E2
330
11DE
100
AcDbEntity
  8
cotas
100
AcDbLine
 10
5220.375142121138
 20
1205.33958448694
 30
0.0
 11
5217.545084246817
 21
1209.461570953193
 31
0.0
  0
SOLID
  5
11E3
330
11DE
100
AcDbEntity
  8
cotas
100
AcDbTrace
 10
5213.258963986925
 20
1218.648896510477
 30
0.0
 11
5210.510973009421
 21
1216.762191260929
 31
0.0
 12
5217.545084246817
 22
1209.461570953193
 32
0.0
 13
5217.545084246817
 23
1209.461570953193
 33
0.0
  0
POINT
  5
11E4
330
11DE
100
AcDbEntity
  8
Defpoints
 62
     0
100
AcDbPoint
 10
5217.545084246817
 20
1209.461570953193
 30
0.0
  0
POINT
  5
11E5
330
11DE
100
AcDbEntity
  8
Defpoints
 62
     0
100
AcDbPoint
 10
5220.375142121138
 20
1205.33958448694
 30
0.0
  0
ENDBLK
  5
11E6
330
11DE
100
AcDbEntity
  8
0
100
AcDbBlockEnd
  0
BLOCK
  5
11E8
330
11E7
100
AcDbEntity
  8
0
100
AcDbBlockBegin
  2
*D33
 70
     1
 10
0.0
 20
0.0
 30
0.0
  3
*D33
  1

  0
LINE
  5
11E9
330
11E7
100
AcDbEntity
  8
cotas
100
AcDbLine
 10
4923.144078685472
 20
1235.160961254281
 30
0.0
 11
4900.898246225353
 21
1206.868805766344
 31
0.0
  0
MTEXT
  5
11EA
330
11E7
100
AcDbEntity
  8
cotas
100
AcDbMText
 10
4907.168853131837
 20
1231.190730626756
 30
0.0
 40
10.0
 41
0.0
 71
     5
 72
     1
  1
R5
  7
SANINDUSA
 11
0.6181012228609358
 21
0.7860985169161788
 31
0.0
 73
     1
 44
1.0
1001
ACAD
1000
MTEXTBEGIN
1070
    73
1070
     1
1070
    44
1040
1.0
1070
    74
1070
     0
1000
MTEXTEND
  0
LINE
  5
11EB
330
11E7
100
AcDbEntity
  8
cotas
100
AcDbLine
 10
4891.62672788244
 20
1195.077328012602
 30
0.0
 11
4894.717233996743
 21
1199.007820597182
 31
0.0
  0
SOLID
  5
11EC
330
11E7
100
AcDbEntity
  8
cotas
100
AcDbTrace
 10
4899.588082030494
 20
1207.898974471112
 30
0.0
 11
4902.208410420213
 21
1205.838637061576
 31
0.0
 12
4894.717233996743
 22
1199.007820597182
 32
0.0
 13
4894.717233996743
 23
1199.007820597182
 33
0.0
  0
POINT
  5
11ED
330
11E7
100
AcDbEntity
  8
Defpoints
 62
     0
100
AcDbPoint
 10
4894.717233996743
 20
1199.007820597182
 30
0.0
  0
POINT
  5
11EE
330
11E7
100
AcDbEntity
  8
Defpoints
 62
     0
100
AcDbPoint
 10
4891.62672788244
 20
1195.077328012602
 30
0.0
  0
ENDBLK
  5
11EF
330
11E7
100
AcDbEntity
  8
0
100
AcDbBlockEnd
  0
BLOCK
  5
11F1
330
11F0
100
AcDbEntity
  8
0
100
AcDbBlockBegin
  2
*D34
 70
     1
 10
0.0
 20
0.0
 30
0.0
  3
*D34
  1

  0
LINE
  5
11F2
330
11F0
100
AcDbEntity
  8
cotas
100
AcDbLine
 10
4863.44843526273
 20
1164.419014338339
 30
0.0
 11
4839.558895962669
 21
1191.337651674357
 31
0.0
  0
MTEXT
  5
11F3
330
11F0
100
AcDbEntity
  8
cotas
100
AcDbMText
 10
4862.379734260011
 20
1180.845469856558
 30
0.0
 40
10.0
 41
0.0
 71
     5
 72
     1
  1
R5
  7
SANINDUSA
 11
0.6637716741517423
 21
-0.7479352676494092
 31
0.0
 73
     1
 44
1.0
1001
ACAD
1000
MTEXTBEGIN
1070
    73
1070
     1
1070
    44
1040
1.0
1070
    74
1070
     0
1000
MTEXTEND
  0
SOLID
  5
11F4
330
11F0
100
AcDbEntity
  8
cotas
100
AcDbTrace
 10
4840.805454742085
 20
1192.443937797944
 30
0.0
 11
4838.312337183253
 21
1190.231365550771
 31
0.0
 12
4832.921179221152
 22
1198.817004350851
 32
0.0
 13
4832.921179221152
 23
1198.817004350851
 33
0.0
  0
POINT
  5
11F5
330
11F0
100
AcDbEntity
  8
Defpoints
 62
     0
100
AcDbPoint
 10
4832.921179221152
 20
1198.817004350851
 30
0.0
  0
POINT
  5
11F6
330
11F0
100
AcDbEntity
  8
Defpoints
 62
     0
100
AcDbPoint
 10
4836.240037591912
 20
1195.077328012602
 30
0.0
  0
ENDBLK
  5
11F7
330
11F0
100
AcDbEntity
  8
0
100
AcDbBlockEnd
  0
BLOCK
  5
11F9
330
11F8
100
AcDbEntity
  8
0
100
AcDbBlockBegin
  2
*D35
 70
     1
 10
0.0
 20
0.0
 30
0.0
  3
*D35
  1

  0
LINE
  5
11FA
330
11F8
100
AcDbEntity
  8
cotas
100
AcDbLine
 10
4775.66905831535
 20
1109.220984984174
 30
0.0
 11
4795.835893034538
 21
1139.127998089551
 31
0.0
  0
MTEXT
  5
11FB
330
11F8
100
AcDbEntity
  8
cotas
100
AcDbMText
 10
4774.579638276793
 20
1125.677979076996
 30
0.0
 40
10.0
 41
0.0
 71
     5
 72
     1
  1
R2
  7
SANINDUSA
 11
0.5590842840601355
 21
0.8291108269206027
 31
0.0
 73
     1
 44
1.0
1001
ACAD
1000
MTEXTBEGIN
1070
    73
1070
     1
1070
    44
1040
1.0
1070
    74
1070
     0
1000
MTEXTEND
  0
LINE
  5
11FC
330
11F8
100
AcDbEntity
  8
cotas
100
AcDbLine
 10
4802.544904443262
 20
1149.077328012601
 30
0.0
 11
4801.426735875139
 21
1147.419106358757
 31
0.0
  0
SOLID
  5
11FD
330
11F8
100
AcDbEntity
  8
cotas
100
AcDbTrace
 10
4794.454041656337
 20
1140.059805229651
 30
0.0
 11
4797.21774441274
 21
1138.19619094945
 31
0.0
 12
4801.426735875139
 22
1147.419106358757
 32
0.0
 13
4801.426735875139
 23
1147.419106358757
 33
0.0
  0
POINT
  5
11FE
330
11F8
100
AcDbEntity
  8
Defpoints
 62
     0
100
AcDbPoint
 10
4801.426735875139
 20
1147.419106358757
 30
0.0
  0
POINT
  5
11FF
330
11F8
100
AcDbEntity
  8
Defpoints
 62
     0
100
AcDbPoint
 10
4802.544904443262
 20
1149.077328012601
 30
0.0
  0
ENDBLK
  5
1200
330
11F8
100
AcDbEntity
  8
0
100
AcDbBlockEnd
  0
BLOCK
  5
1202
330
1201
100
AcDbEntity
  8
0
100
AcDbBlockBegin
  2
*D36
 70
     1
 10
0.0
 20
0.0
 30
0.0
  3
*D36
  1

  0
LINE
  5
1203
330
1201
100
AcDbEntity
  8
cotas
100
AcDbLine
 10
3014.039894443162
 20
1540.984090372229
 30
0.0
 11
2977.157199755126
 21
1515.550346546277
 31
0.0
  0
MTEXT
  5
1204
330
1201
100
AcDbEntity
  8
cotas
100
AcDbMText
 10
2993.921526030595
 20
1539.50671431548
 30
0.0
 40
10.0
 41
0.0
 71
     5
 72
     1
  1
R40
  7
SANINDUSA
 11
0.823239879935285
 21
0.5676936674687657
 31
0.0
 73
     1
 44
1.0
1001
ACAD
1000
MTEXTBEGIN
1070
    73
1070
     1
1070
    44
1040
1.0
1070
    74
1070
     0
1000
MTEXTEND
  0
SOLID
  5
1205
330
1201
100
AcDbEntity
  8
cotas
100
AcDbTrace
 10
2976.211043642678
 20
1516.922413012836
 30
0.0
 11
2978.103355867574
 21
1514.178280079718
 31
0.0
 12
2968.924800955773
 22
1509.873409871589
 32
0.0
 13
2968.924800955773
 23
1509.873409871589
 33
0.0
  0
POINT
  5
1206
330
1201
100
AcDbEntity
  8
Defpoints
 62
     0
100
AcDbPoint
 10
2968.924800955773
 20
1509.873409871589
 30
0.0
  0
POINT
  5
1207
330
1201
100
AcDbEntity
  8
Defpoints
 62
     0
100
AcDbPoint
 10
3001.854396153185
 20
1532.581156570341
 30
0.0
  0
ENDBLK
  5
1208
330
1201
100
AcDbEntity
  8
0
100
AcDbBlockEnd
  0
BLOCK
  5
120A
330
1209
100
AcDbEntity
  8
0
100
AcDbBlockBegin
  2
*D37
 70
     1
 10
0.0
 20
0.0
 30
0.0
  3
*D37
  1

  0
LINE
  5
120B
330
1209
100
AcDbEntity
  8
cotas
100
AcDbLine
 10
3442.014901485257
 20
1702.617322815177
 30
0.0
 11
3415.121447974126
 21
1678.578337526257
 31
0.0
  0
MTEXT
  5
120C
330
1209
100
AcDbEntity
  8
cotas
100
AcDbMText
 10
3425.56231413983
 20
1701.463260324338
 30
0.0
 40
10.0
 41
0.0
 71
     5
 72
     1
  1
R2
  7
SANINDUSA
 11
0.7455660450208913
 21
0.6664317463265884
 31
0.0
 73
     1
 44
1.0
1001
ACAD
1000
MTEXTBEGIN
1070
    73
1070
     1
1070
    44
1040
1.0
1070
    74
1070
     0
1000
MTEXTEND
  0
LINE
  5
120D
330
1209
100
AcDbEntity
  8
cotas
100
AcDbLine
 10
3406.17465543388
 20
1670.581156570343
 30
0.0
 11
3407.665787523918
 21
1671.914020062992
 31
0.0
  0
SOLID
  5
120E
330
1209
100
AcDbEntity
  8
cotas
100
AcDbTrace
 10
3414.010728396916
 20
1679.820947601292
 30
0.0
 11
3416.232167551338
 21
1677.335727451223
 31
0.0
 12
3407.665787523918
 22
1671.914020062992
 32
0.0
 13
3407.665787523918
 23
1671.914020062992
 33
0.0
  0
POINT
  5
120F
330
1209
100
AcDbEntity
  8
Defpoints
 62
     0
100
AcDbPoint
 10
3407.665787523918
 20
1671.914020062992
 30
0.0
  0
POINT
  5
1210
330
1209
100
AcDbEntity
  8
Defpoints
 62
     0
100
AcDbPoint
 10
3406.17465543388
 20
1670.581156570343
 30
0.0
  0
ENDBLK
  5
1211
330
1209
100
AcDbEntity
  8
0
100
AcDbBlockEnd
  0
BLOCK
  5
1213
330
1212
100
AcDbEntity
  8
0
100
AcDbBlockBegin
  2
*D38
 70
     1
 10
0.0
 20
0.0
 30
0.0
  3
*D38
  1

  0
LINE
  5
1214
330
1212
100
AcDbEntity
  8
cotas
100
AcDbLine
 10
3011.302600499222
 20
1624.008637266754
 30
0.0
 11
2974.779188760937
 21
1649.955677318572
 31
0.0
  0
MTEXT
  5
1215
330
1212
100
AcDbEntity
  8
cotas
100
AcDbMText
 10
3003.027134683728
 20
1642.405594980827
 30
0.0
 40
10.0
 41
0.0
 71
     5
 72
     1
  1
R40
  7
SANINDUSA
 11
0.8152205078444875
 21
-0.5791506916077851
 31
0.0
 73
     1
 44
1.0
1001
ACAD
1000
MTEXTBEGIN
1070
    73
1070
     1
1070
    44
1040
1.0
1070
    74
1070
     0
1000
MTEXTEND
  0
SOLID
  5
1216
330
1212
100
AcDbEntity
  8
cotas
100
AcDbTrace
 10
2975.744439913616
 20
1651.314378164979
 30
0.0
 11
2973.813937608257
 21
1648.596976472164
 31
0.0
 12
2966.626983682492
 22
1655.74718423465
 32
0.0
 13
2966.626983682492
 23
1655.74718423465
 33
0.0
  0
POINT
  5
1217
330
1212
100
AcDbEntity
  8
Defpoints
 62
     0
100
AcDbPoint
 10
2966.626983682492
 20
1655.74718423465
 30
0.0
  0
POINT
  5
1218
330
1212
100
AcDbEntity
  8
Defpoints
 62
     0
100
AcDbPoint
 10
2999.235803996272
 20
1632.581156570337
 30
0.0
  0
ENDBLK
  5
1219
330
1212
100
AcDbEntity
  8
0
100
AcDbBlockEnd
  0
BLOCK
  5
121B
330
121A
100
AcDbEntity
  8
0
100
AcDbBlockBegin
  2
*D39
 70
     1
 10
0.0
 20
0.0
 30
0.0
  3
*D39
  1

  0
LINE
  5
121C
330
121A
100
AcDbEntity
  8
cotas
100
AcDbLine
 10
3766.07134334396
 20
1492.581156570341
 30
0.0
 11
3727.695027341997
 21
1492.581156570341
 31
0.0
  0
LINE
  5
121D
330
121A
100
AcDbEntity
  8
cotas
100
AcDbLine
 10
3766.07134334396
 20
1495.58115657034
 30
0.0
 11
3727.695027341997
 21
1495.58115657034
 31
0.0
  0
LINE
  5
121E
330
121A
100
AcDbEntity
  8
cotas
100
AcDbLine
 10
3732.695027341998
 20
1482.581156570341
 30
0.0
 11
3732.695027341998
 21
1472.581156570341
 31
0.0
  0
LINE
  5
121F
330
121A
100
AcDbEntity
  8
cotas
100
AcDbLine
 10
3732.695027341998
 20
1505.58115657034
 30
0.0
 11
3732.695027341998
 21
1532.169470875243
 31
0.0
  0
LINE
  5
1220
330
121A
100
AcDbEntity
  8
cotas
100
AcDbLine
 10
3732.695027341998
 20
1492.581156570341
 30
0.0
 11
3732.695027341998
 21
1495.58115657034
 31
0.0
  0
SOLID
  5
1221
330
121A
100
AcDbEntity
  8
cotas
100
AcDbTrace
 10
3731.028360675331
 20
1482.581156570341
 30
0.0
 11
3734.361694008664
 21
1482.581156570341
 31
0.0
 12
3732.695027341998
 22
1492.581156570341
 32
0.0
 13
3732.695027341998
 23
1492.581156570341
 33
0.0
  0
SOLID
  5
1222
330
121A
100
AcDbEntity
  8
cotas
100
AcDbTrace
 10
3731.028360675331
 20
1505.58115657034
 30
0.0
 11
3734.361694008664
 21
1505.58115657034
 31
0.0
 12
3732.695027341998
 22
1495.58115657034
 32
0.0
 13
3732.695027341998
 23
1495.58115657034
 33
0.0
  0
MTEXT
  5
1223
330
121A
100
AcDbEntity
  8
cotas
100
AcDbMText
 10
3722.486833923595
 20
1523.875313722792
 30
0.0
 40
10.0
 41
0.0
 71
     5
 72
     1
  1
3
  7
SANINDUSA
 11
0.0000000000000001
 21
1.0
 31
0.0
 73
     1
 44
1.0
1001
ACAD
1000
MTEXTBEGIN
1070
    73
1070
     1
1070
    44
1040
1.0
1070
    74
1070
     0
1000
MTEXTEND
  0
POINT
  5
1224
330
121A
100
AcDbEntity
  8
Defpoints
 62
     0
100
AcDbPoint
 10
3771.071343343959
 20
1492.581156570341
 30
0.0
  0
POINT
  5
1225
330
121A
100
AcDbEntity
  8
Defpoints
 62
     0
100
AcDbPoint
 10
3771.071343343959
 20
1495.58115657034
 30
0.0
  0
POINT
  5
1226
330
121A
100
AcDbEntity
  8
Defpoints
 62
     0
100
AcDbPoint
 10
3732.695027341998
 20
1495.58115657034
 30
0.0
  0
ENDBLK
  5
1227
330
121A
100
AcDbEntity
  8
0
100
AcDbBlockEnd
  0
BLOCK
  5
1229
330
1228
100
AcDbEntity
  8
0
100
AcDbBlockBegin
  2
*D40
 70
     1
 10
0.0
 20
0.0
 30
0.0
  3
*D40
  1

  0
LINE
  5
122A
330
1228
100
AcDbEntity
  8
cotas
100
AcDbLine
 10
2981.655711999624
 20
1492.581156570341
 30
0.0
 11
2944.156585439654
 21
1492.581156570341
 31
0.0
  0
LINE
  5
122B
330
1228
100
AcDbEntity
  8
cotas
100
AcDbLine
 10
2981.655711999624
 20
1495.581156570337
 30
0.0
 11
2944.156585439654
 21
1495.581156570337
 31
0.0
  0
LINE
  5
122C
330
1228
100
AcDbEntity
  8
cotas
100
AcDbLine
 10
2949.156585439654
 20
1482.581156570341
 30
0.0
 11
2949.156585439654
 21
1472.581156570341
 31
0.0
  0
LINE
  5
122D
330
1228
100
AcDbEntity
  8
cotas
100
AcDbLine
 10
2949.156585439654
 20
1505.581156570337
 30
0.0
 11
2949.156585439654
 21
1532.169470875239
 31
0.0
  0
LINE
  5
122E
330
1228
100
AcDbEntity
  8
cotas
100
AcDbLine
 10
2949.156585439654
 20
1492.581156570341
 30
0.0
 11
2949.156585439654
 21
1495.581156570337
 31
0.0
  0
SOLID
  5
122F
330
1228
100
AcDbEntity
  8
cotas
100
AcDbTrace
 10
2947.489918772987
 20
1482.581156570341
 30
0.0
 11
2950.823252106321
 21
1482.581156570341
 31
0.0
 12
2949.156585439654
 22
1492.581156570341
 32
0.0
 13
2949.156585439654
 23
1492.581156570341
 33
0.0
  0
SOLID
  5
1230
330
1228
100
AcDbEntity
  8
cotas
100
AcDbTrace
 10
2947.489918772987
 20
1505.581156570337
 30
0.0
 11
2950.823252106321
 21
1505.581156570337
 31
0.0
 12
2949.156585439654
 22
1495.581156570337
 32
0.0
 13
2949.156585439654
 23
1495.581156570337
 33
0.0
  0
MTEXT
  5
1231
330
1228
100
AcDbEntity
  8
cotas
100
AcDbMText
 10
2938.948392021252
 20
1523.875313722789
 30
0.0
 40
10.0
 41
0.0
 71
     5
 72
     1
  1
3
  7
SANINDUSA
 11
0.0000000000000001
 21
1.0
 31
0.0
 73
     1
 44
1.0
1001
ACAD
1000
MTEXTBEGIN
1070
    73
1070
     1
1070
    44
1040
1.0
1070
    74
1070
     0
1000
MTEXTEND
  0
POINT
  5
1232
330
1228
100
AcDbEntity
  8
Defpoints
 62
     0
100
AcDbPoint
 10
2986.655711999624
 20
1492.581156570341
 30
0.0
  0
POINT
  5
1233
330
1228
100
AcDbEntity
  8
Defpoints
 62
     0
100
AcDbPoint
 10
2986.655711999624
 20
1495.581156570337
 30
0.0
  0
POINT
  5
1234
330
1228
100
AcDbEntity
  8
Defpoints
 62
     0
100
AcDbPoint
 10
2949.156585439654
 20
1495.581156570337
 30
0.0
  0
ENDBLK
  5
1235
330
1228
100
AcDbEntity
  8
0
100
AcDbBlockEnd
  0
BLOCK
  5
1237
330
1236
100
AcDbEntity
  8
0
100
AcDbBlockBegin
  2
*D41
 70
     1
 10
0.0
 20
0.0
 30
0.0
  3
*D41
  1

  0
LINE
  5
1238
330
1236
100
AcDbEntity
  8
cotas
100
AcDbLine
 10
3957.816485100667
 20
1210.54896558258
 30
0.0
 11
3998.541094946031
 21
1187.963565669972
 31
0.0
  0
LINE
  5
1239
330
1236
100
AcDbEntity
  8
cotas
100
AcDbLine
 10
4046.639478610381
 20
1161.288755663584
 30
0.0
 11
4055.384639276627
 21
1156.438790207876
 31
0.0
  0
MTEXT
  5
123A
102
{ACAD_XDICTIONARY
360
1E3C
102
}
330
1236
100
AcDbEntity
  8
cotas
100
AcDbMText
 10
3979.092639464982
 20
1211.213414748566
 30
0.0
 40
10.0
 41
0.0
 71
     5
 72
     1
  1
\U+220535
  7
SANINDUSA
 11
0.8745160666245535
 21
-0.4849965455707076
 31
0.0
 73
     1
 44
1.0
1001
ACAD
1000
MTEXTBEGIN
1070
    73
1070
     1
1070
    44
1040
1.0
1070
    74
1070
     0
1000
MTEXTEND
  0
LINE
  5
123B
330
1236
100
AcDbEntity
  8
cotas
100
AcDbLine
 10
4037.894317944135
 20
1166.138721119291
 30
0.0
 11
4007.286255612276
 21
1183.113600214265
 31
0.0
  0
SOLID
  5
123C
330
1236
100
AcDbEntity
  8
cotas
100
AcDbTrace
 10
4047.447806186332
 20
1162.746282441291
 30
0.0
 11
4045.83115103443
 21
1159.831228885876
 31
0.0
 12
4037.894317944135
 22
1166.138721119291
 32
0.0
 13
4037.894317944135
 23
1166.138721119291
 33
0.0
  0
SOLID
  5
123D
330
1236
100
AcDbEntity
  8
cotas
100
AcDbTrace
 10
3999.349422521982
 20
1189.42109244768
 30
0.0
 11
3997.73276737008
 21
1186.506038892265
 31
0.0
 12
4007.286255612276
 22
1183.113600214265
 32
0.0
 13
4007.286255612276
 23
1183.113600214265
 33
0.0
  0
POINT
  5
123E
330
1236
100
AcDbEntity
  8
Defpoints
 62
     0
100
AcDbPoint
 10
4007.286255612276
 20
1183.113600214265
 30
0.0
  0
POINT
  5
123F
330
1236
100
AcDbEntity
  8
Defpoints
 62
     0
100
AcDbPoint
 10
4037.894317944135
 20
1166.138721119291
 30
0.0
  0
ENDBLK
  5
1240
330
1236
100
AcDbEntity
  8
0
100
AcDbBlockEnd
  0
BLOCK
  5
1242
330
1241
100
AcDbEntity
  8
0
100
AcDbBlockBegin
  2
*D42
 70
     1
 10
0.0
 20
0.0
 30
0.0
  3
*D42
  1

  0
LINE
  5
1243
330
1241
100
AcDbEntity
  8
cotas
100
AcDbLine
 10
3860.476808585697
 20
908.1626359962246
 30
0.0
 11
3800.557701486846
 21
850.7998637462588
 31
0.0
  0
MTEXT
  5
1244
330
1241
100
AcDbEntity
  8
cotas
100
AcDbMText
 10
3837.696824973477
 20
900.472538104635
 30
0.0
 40
10.0
 41
0.0
 71
     5
 72
     1
  1
R179
  7
SANINDUSA
 11
0.7223476675312702
 21
0.6915300768673288
 31
0.0
 73
     1
 44
1.0
1001
ACAD
1000
MTEXTBEGIN
1070
    73
1070
     1
1070
    44
1040
1.0
1070
    74
1070
     0
1000
MTEXTEND
  0
SOLID
  5
1245
330
1241
100
AcDbEntity
  8
cotas
100
AcDbTrace
 10
3799.405151358734
 20
852.0037765254777
 30
0.0
 11
3801.710251614958
 21
849.5959509670399
 31
0.0
 12
3793.334224811533
 22
843.8845629775855
 32
0.0
 13
3793.334224811533
 23
843.8845629775855
 33
0.0
  0
POINT
  5
1246
330
1241
100
AcDbEntity
  8
Defpoints
 62
     0
100
AcDbPoint
 10
3793.334224811533
 20
843.8845629775855
 30
0.0
  0
POINT
  5
1247
330
1241
100
AcDbEntity
  8
Defpoints
 62
     0
100
AcDbPoint
 10
3922.590286778206
 20
967.6261606667795
 30
0.0
  0
ENDBLK
  5
1248
330
1241
100
AcDbEntity
  8
0
100
AcDbBlockEnd
  0
BLOCK
  5
124A
330
1249
100
AcDbEntity
  8
0
100
AcDbBlockBegin
  2
*D43
 70
     1
 10
0.0
 20
0.0
 30
0.0
  3
*D43
  1

  0
LINE
  5
124B
330
1249
100
AcDbEntity
  8
cotas
100
AcDbLine
 10
3841.692975701664
 20
1158.475725868552
 30
0.0
 11
3766.637042771189
 21
1182.685489000154
 31
0.0
  0
MTEXT
  5
124C
330
1249
100
AcDbEntity
  8
cotas
100
AcDbMText
 10
3824.102942347916
 20
1174.868544008416
 30
0.0
 40
10.0
 41
0.0
 71
     5
 72
     1
  1
R279
  7
SANINDUSA
 11
0.9517153904645361
 21
-0.3069817837477258
 31
0.0
 73
     1
 44
1.0
1001
ACAD
1000
MTEXTBEGIN
1070
    73
1070
     1
1070
    44
1040
1.0
1070
    74
1070
     0
1000
MTEXTEND
  0
SOLID
  5
124D
330
1249
100
AcDbEntity
  8
cotas
100
AcDbTrace
 10
3767.148679077435
 20
1184.271681317595
 30
0.0
 11
3766.125406464942
 21
1181.099296682714
 31
0.0
 12
3757.119888866543
 22
1185.755306837632
 32
0.0
 13
3757.119888866543
 23
1185.755306837632
 33
0.0
  0
POINT
  5
124E
330
1249
100
AcDbEntity
  8
Defpoints
 62
     0
100
AcDbPoint
 10
3757.119888866543
 20
1185.755306837632
 30
0.0
  0
POINT
  5
124F
330
1249
100
AcDbEntity
  8
Defpoints
 62
     0
100
AcDbPoint
 10
4022.590286778204
 20
1100.126160666777
 30
0.0
  0
ENDBLK
  5
1250
330
1249
100
AcDbEntity
  8
0
100
AcDbBlockEnd
  0
BLOCK
  5
158F
330
158E
100
AcDbEntity
  8
0
100
AcDbBlockBegin
  2
*D45
 70
     1
 10
0.0
 20
0.0
 30
0.0
  3
*D45
  1

  0
LINE
  5
1673
330
158E
100
AcDbEntity
  8
cotas
100
AcDbLine
 10
4713.489796479528
 20
2603.951952187924
 30
0.0
 11
4713.489796479528
 21
2670.999093307558
 31
0.0
  0
LINE
  5
1674
330
158E
100
AcDbEntity
  8
cotas
100
AcDbLine
 10
5271.340085352771
 20
2603.951952187921
 30
0.0
 11
5271.340085352771
 21
2670.999093307558
 31
0.0
  0
LINE
  5
1675
330
158E
100
AcDbEntity
  8
cotas
100
AcDbLine
 10
4715.489796479528
 20
2669.999093307558
 30
0.0
 11
5269.340085352771
 21
2669.999093307558
 31
0.0
  0
SOLID
  5
1676
330
158E
100
AcDbEntity
  8
cotas
100
AcDbTrace
 10
4715.489796479528
 20
2670.332426640892
 30
0.0
 11
4715.489796479528
 21
2669.665759974225
 31
0.0
 12
4713.489796479528
 22
2669.999093307558
 32
0.0
 13
4713.489796479528
 23
2669.999093307558
 33
0.0
  0
SOLID
  5
1677
330
158E
100
AcDbEntity
  8
cotas
100
AcDbTrace
 10
5269.340085352771
 20
2670.332426640892
 30
0.0
 11
5269.340085352771
 21
2669.665759974225
 31
0.0
 12
5271.340085352771
 22
2669.999093307558
 32
0.0
 13
5271.340085352771
 23
2669.999093307558
 33
0.0
  0
MTEXT
  5
1678
330
158E
100
AcDbEntity
  8
cotas
100
AcDbMText
 10
4992.414940916149
 20
2672.267729976463
 30
0.0
 40
2.0
 41
0.0
 71
     5
 72
     1
  1
557,9
  7
SANINDUSA
 73
     1
 44
1.0
1001
ACAD
1000
MTEXTBEGIN
1070
    73
1070
     1
1070
    44
1040
1.0
1070
    74
1070
     0
1000
MTEXTEND
  0
POINT
  5
1679
330
158E
100
AcDbEntity
  8
Defpoints
 62
     0
100
AcDbPoint
 10
4713.489796479528
 20
2602.951952187924
 30
0.0
  0
POINT
  5
167A
330
158E
100
AcDbEntity
  8
Defpoints
 62
     0
100
AcDbPoint
 10
5271.340085352771
 20
2602.95195218792
 30
0.0
  0
POINT
  5
167B
330
158E
100
AcDbEntity
  8
Defpoints
 62
     0
100
AcDbPoint
 10
5271.340085352771
 20
2669.999093307558
 30
0.0
  0
ENDBLK
  5
1590
330
158E
100
AcDbEntity
  8
0
100
AcDbBlockEnd
  0
BLOCK
  5
159B
330
159A
100
AcDbEntity
  8
0
100
AcDbBlockBegin
  2
*D46
 70
     1
 10
0.0
 20
0.0
 30
0.0
  3
*D46
  1

  0
LINE
  5
167C
330
159A
100
AcDbEntity
  8
cotas
100
AcDbLine
 10
5232.352687141521
 20
2643.999030120239
 30
0.0
 11
5298.414940916147
 21
2643.999030120239
 31
0.0
  0
LINE
  5
167D
330
159A
100
AcDbEntity
  8
cotas
100
AcDbLine
 10
5244.933884350401
 20
2463.999030120239
 30
0.0
 11
5298.414940916147
 21
2463.999030120239
 31
0.0
  0
LINE
  5
167E
330
159A
100
AcDbEntity
  8
cotas
100
AcDbLine
 10
5297.414940916148
 20
2641.999030120239
 30
0.0
 11
5297.414940916148
 21
2465.999030120239
 31
0.0
  0
SOLID
  5
167F
330
159A
100
AcDbEntity
  8
cotas
100
AcDbTrace
 10
5297.081607582814
 20
2641.999030120239
 30
0.0
 11
5297.748274249481
 21
2641.999030120239
 31
0.0
 12
5297.414940916148
 22
2643.999030120239
 32
0.0
 13
5297.414940916148
 23
2643.999030120239
 33
0.0
  0
SOLID
  5
1680
330
159A
100
AcDbEntity
  8
cotas
100
AcDbTrace
 10
5297.081607582814
 20
2465.999030120239
 30
0.0
 11
5297.748274249481
 21
2465.999030120239
 31
0.0
 12
5297.414940916148
 22
2463.999030120239
 32
0.0
 13
5297.414940916148
 23
2463.999030120239
 33
0.0
  0
MTEXT
  5
1681
330
159A
100
AcDbEntity
  8
cotas
100
AcDbMText
 10
5295.369272682433
 20
2553.99903012024
 30
0.0
 40
2.0
 41
0.0
 71
     5
 72
     1
  1
180
  7
SANINDUSA
 11
0.0000000000000001
 21
1.0
 31
0.0
 73
     1
 44
1.0
1001
ACAD
1000
MTEXTBEGIN
1070
    73
1070
     1
1070
    44
1040
1.0
1070
    74
1070
     0
1000
MTEXTEND
  0
POINT
  5
1682
330
159A
100
AcDbEntity
  8
Defpoints
 62
     0
100
AcDbPoint
 10
5231.35268714152
 20
2643.999030120239
 30
0.0
  0
POINT
  5
1683
330
159A
100
AcDbEntity
  8
Defpoints
 62
     0
100
AcDbPoint
 10
5243.933884350401
 20
2463.999030120239
 30
0.0
  0
POINT
  5
1684
330
159A
100
AcDbEntity
  8
Defpoints
 62
     0
100
AcDbPoint
 10
5297.414940916148
 20
2463.999030120239
 30
0.0
  0
ENDBLK
  5
159C
330
159A
100
AcDbEntity
  8
0
100
AcDbBlockEnd
  0
BLOCK
  5
15A7
330
15A6
100
AcDbEntity
  8
0
100
AcDbBlockBegin
  2
*D47
 70
     1
 10
0.0
 20
0.0
 30
0.0
  3
*D47
  1

  0
LINE
  5
1685
330
15A6
100
AcDbEntity
  8
cotas
100
AcDbLine
 10
4377.999309571818
 20
2642.999030120241
 30
0.0
 11
4377.999309571818
 21
2670.999037272798
 31
0.0
  0
LINE
  5
1686
330
15A6
100
AcDbEntity
  8
cotas
100
AcDbLine
 10
3929.074165135194
 20
2603.951952187927
 30
0.0
 11
3929.074165135194
 21
2670.999037272798
 31
0.0
  0
LINE
  5
1687
330
15A6
100
AcDbEntity
  8
cotas
100
AcDbLine
 10
4375.999309571818
 20
2669.999037272798
 30
0.0
 11
3931.074165135195
 21
2669.999037272798
 31
0.0
  0
SOLID
  5
1688
330
15A6
100
AcDbEntity
  8
cotas
100
AcDbTrace
 10
4375.999309571818
 20
2670.332370606132
 30
0.0
 11
4375.999309571818
 21
2669.665703939465
 31
0.0
 12
4377.999309571818
 22
2669.999037272798
 32
0.0
 13
4377.999309571818
 23
2669.999037272798
 33
0.0
  0
SOLID
  5
1689
330
15A6
100
AcDbEntity
  8
cotas
100
AcDbTrace
 10
3931.074165135195
 20
2670.332370606132
 30
0.0
 11
3931.074165135195
 21
2669.665703939465
 31
0.0
 12
3929.074165135194
 22
2669.999037272798
 32
0.0
 13
3929.074165135194
 23
2669.999037272798
 33
0.0
  0
MTEXT
  5
168A
330
15A6
100
AcDbEntity
  8
cotas
100
AcDbMText
 10
4153.536737353507
 20
2672.270360308393
 30
0.0
 40
2.0
 41
0.0
 71
     5
 72
     1
  1
448,9
  7
SANINDUSA
 73
     1
 44
1.0
1001
ACAD
1000
MTEXTBEGIN
1070
    73
1070
     1
1070
    44
1040
1.0
1070
    74
1070
     0
1000
MTEXTEND
  0
POINT
  5
168B
330
15A6
100
AcDbEntity
  8
Defpoints
 62
     0
100
AcDbPoint
 10
4377.999309571818
 20
2641.999030120241
 30
0.0
  0
POINT
  5
168C
330
15A6
100
AcDbEntity
  8
Defpoints
 62
     0
100
AcDbPoint
 10
3929.074165135194
 20
2602.951952187927
 30
0.0
  0
POINT
  5
168D
330
15A6
100
AcDbEntity
  8
Defpoints
 62
     0
100
AcDbPoint
 10
3929.074165135194
 20
2669.999037272798
 30
0.0
  0
ENDBLK
  5
15A8
330
15A6
100
AcDbEntity
  8
0
100
AcDbBlockEnd
  0
BLOCK
  5
15B3
330
15B2
100
AcDbEntity
  8
0
100
AcDbBlockBegin
  2
*D48
 70
     1
 10
0.0
 20
0.0
 30
0.0
  3
*D48
  1

  0
LINE
  5
168E
330
15B2
100
AcDbEntity
  8
cotas
100
AcDbLine
 10
4376.999303611354
 20
2643.999037272796
 30
0.0
 11
4409.499309571818
 21
2643.999037272796
 31
0.0
  0
LINE
  5
168F
330
15B2
100
AcDbEntity
  8
cotas
100
AcDbLine
 10
4186.999309571818
 20
2456.999030120241
 30
0.0
 11
4409.499309571818
 21
2456.999030120241
 31
0.0
  0
LINE
  5
1690
330
15B2
100
AcDbEntity
  8
cotas
100
AcDbLine
 10
4408.499309571818
 20
2641.999037272797
 30
0.0
 11
4408.499309571818
 21
2458.999030120241
 31
0.0
  0
SOLID
  5
1691
330
15B2
100
AcDbEntity
  8
cotas
100
AcDbTrace
 10
4408.165976238485
 20
2641.999037272797
 30
0.0
 11
4408.832642905151
 21
2641.999037272797
 31
0.0
 12
4408.499309571818
 22
2643.999037272796
 32
0.0
 13
4408.499309571818
 23
2643.999037272796
 33
0.0
  0
SOLID
  5
1692
330
15B2
100
AcDbEntity
  8
cotas
100
AcDbTrace
 10
4408.165976238485
 20
2458.999030120241
 30
0.0
 11
4408.832642905151
 21
2458.999030120241
 31
0.0
 12
4408.499309571818
 22
2456.999030120241
 32
0.0
 13
4408.499309571818
 23
2456.999030120241
 33
0.0
  0
MTEXT
  5
1693
330
15B2
100
AcDbEntity
  8
cotas
100
AcDbMText
 10
4406.453641338104
 20
2550.499033696519
 30
0.0
 40
2.0
 41
0.0
 71
     5
 72
     1
  1
187
  7
SANINDUSA
 11
0.0000000000000001
 21
1.0
 31
0.0
 73
     1
 44
1.0
1001
ACAD
1000
MTEXTBEGIN
1070
    73
1070
     1
1070
    44
1040
1.0
1070
    74
1070
     0
1000
MTEXTEND
  0
POINT
  5
1694
330
15B2
100
AcDbEntity
  8
Defpoints
 62
     0
100
AcDbPoint
 10
4375.999303611354
 20
2643.999037272796
 30
0.0
  0
POINT
  5
1695
330
15B2
100
AcDbEntity
  8
Defpoints
 62
     0
100
AcDbPoint
 10
4185.999309571818
 20
2456.999030120241
 30
0.0
  0
POINT
  5
1696
330
15B2
100
AcDbEntity
  8
Defpoints
 62
     0
100
AcDbPoint
 10
4408.499309571818
 20
2456.999030120241
 30
0.0
  0
ENDBLK
  5
15B4
330
15B2
100
AcDbEntity
  8
0
100
AcDbBlockEnd
  0
BLOCK
  5
15BF
330
15BE
100
AcDbEntity
  8
0
100
AcDbBlockBegin
  2
*D49
 70
     1
 10
0.0
 20
0.0
 30
0.0
  3
*D49
  1

  0
LINE
  5
1A11
330
15BE
100
AcDbEntity
  8
cotas
100
AcDbLine
 10
4254.235368108463
 20
2696.690837794245
 30
0.0
 11
4534.323227738425
 21
2696.690837794245
 31
0.0
  0
LINE
  5
1A12
330
15BE
100
AcDbEntity
  8
cotas
100
AcDbLine
 10
4229.323229228542
 20
2634.646189742983
 30
0.0
 11
4534.323227738425
 21
2634.646189742983
 31
0.0
  0
LINE
  5
1A13
330
15BE
100
AcDbEntity
  8
cotas
100
AcDbLine
 10
4533.323227738426
 20
2694.690837794245
 30
0.0
 11
4533.323227738426
 21
2636.646189742983
 31
0.0
  0
SOLID
  5
1A14
330
15BE
100
AcDbEntity
  8
cotas
100
AcDbTrace
 10
4532.989894405093
 20
2694.690837794245
 30
0.0
 11
4533.656561071759
 21
2694.690837794245
 31
0.0
 12
4533.323227738426
 22
2696.690837794245
 32
0.0
 13
4533.323227738426
 23
2696.690837794245
 33
0.0
  0
SOLID
  5
1A15
330
15BE
100
AcDbEntity
  8
cotas
100
AcDbTrace
 10
4532.989894405093
 20
2636.646189742983
 30
0.0
 11
4533.656561071759
 21
2636.646189742983
 31
0.0
 12
4533.323227738426
 22
2634.646189742983
 32
0.0
 13
4533.323227738426
 23
2634.646189742983
 33
0.0
  0
MTEXT
  5
1A16
330
15BE
100
AcDbEntity
  8
cotas
100
AcDbMText
 10
4531.281589054745
 20
2665.668513768614
 30
0.0
 40
2.0
 41
0.0
 71
     5
 72
     1
  1
62
  7
SANINDUSA
 11
0.0000000000000001
 21
1.0
 31
0.0
 73
     1
 44
1.0
1001
ACAD
1000
MTEXTBEGIN
1070
    73
1070
     1
1070
    44
1040
1.0
1070
    74
1070
     0
1000
MTEXTEND
  0
POINT
  5
1A17
330
15BE
100
AcDbEntity
  8
Defpoints
 62
     0
100
AcDbPoint
 10
4253.235368108463
 20
2696.690837794245
 30
0.0
  0
POINT
  5
1A18
330
15BE
100
AcDbEntity
  8
Defpoints
 62
     0
100
AcDbPoint
 10
4228.323229228542
 20
2634.646189742983
 30
0.0
  0
POINT
  5
1A19
330
15BE
100
AcDbEntity
  8
Defpoints
 62
     0
100
AcDbPoint
 10
4533.323227738426
 20
2634.646189742983
 30
0.0
  0
ENDBLK
  5
15C0
330
15BE
100
AcDbEntity
  8
0
100
AcDbBlockEnd
  0
BLOCK
  5
15CB
330
15CA
100
AcDbEntity
  8
0
100
AcDbBlockBegin
  2
*D50
 70
     1
 10
0.0
 20
0.0
 30
0.0
  3
*D50
  1

  0
LINE
  5
1A1A
330
15CA
100
AcDbEntity
  8
cotas
100
AcDbLine
 10
4254.235368108463
 20
2696.690837794245
 30
0.0
 11
4559.323227738426
 21
2696.690837794245
 31
0.0
  0
LINE
  5
1A1B
330
15CA
100
AcDbEntity
  8
cotas
100
AcDbLine
 10
4266.823227738426
 20
2532.190837794245
 30
0.0
 11
4559.323227738426
 21
2532.190837794245
 31
0.0
  0
LINE
  5
1A1C
330
15CA
100
AcDbEntity
  8
cotas
100
AcDbLine
 10
4558.323227738426
 20
2694.690837794245
 30
0.0
 11
4558.323227738426
 21
2534.190837794245
 31
0.0
  0
SOLID
  5
1A1D
330
15CA
100
AcDbEntity
  8
cotas
100
AcDbTrace
 10
4557.989894405093
 20
2694.690837794245
 30
0.0
 11
4558.656561071759
 21
2694.690837794245
 31
0.0
 12
4558.323227738426
 22
2696.690837794245
 32
0.0
 13
4558.323227738426
 23
2696.690837794245
 33
0.0
  0
SOLID
  5
1A1E
330
15CA
100
AcDbEntity
  8
cotas
100
AcDbTrace
 10
4557.989894405093
 20
2534.190837794245
 30
0.0
 11
4558.656561071759
 21
2534.190837794245
 31
0.0
 12
4558.323227738426
 22
2532.190837794245
 32
0.0
 13
4558.323227738426
 23
2532.190837794245
 33
0.0
  0
MTEXT
  5
1A1F
330
15CA
100
AcDbEntity
  8
cotas
100
AcDbMText
 10
4556.055934252864
 20
2614.440837794245
 30
0.0
 40
2.0
 41
0.0
 71
     5
 72
     1
  1
164,5
  7
SANINDUSA
 11
0.0000000000000001
 21
1.0
 31
0.0
 73
     1
 44
1.0
1001
ACAD
1000
MTEXTBEGIN
1070
    73
1070
     1
1070
    44
1040
1.0
1070
    74
1070
     0
1000
MTEXTEND
  0
POINT
  5
1A20
330
15CA
100
AcDbEntity
  8
Defpoints
 62
     0
100
AcDbPoint
 10
4253.235368108463
 20
2696.690837794245
 30
0.0
  0
POINT
  5
1A21
330
15CA
100
AcDbEntity
  8
Defpoints
 62
     0
100
AcDbPoint
 10
4265.823227738425
 20
2532.190837794245
 30
0.0
  0
POINT
  5
1A22
330
15CA
100
AcDbEntity
  8
Defpoints
 62
     0
100
AcDbPoint
 10
4558.323227738426
 20
2532.190837794245
 30
0.0
  0
ENDBLK
  5
15CC
330
15CA
100
AcDbEntity
  8
0
100
AcDbBlockEnd
  0
BLOCK
  5
15D7
330
15D6
100
AcDbEntity
  8
0
100
AcDbBlockBegin
  2
*D51
 70
     1
 10
0.0
 20
0.0
 30
0.0
  3
*D51
  1

  0
LINE
  5
1A23
330
15D6
100
AcDbEntity
  8
cotas
100
AcDbLine
 10
4227.323227738426
 20
2634.646189747374
 30
0.0
 11
3922.323227738426
 21
2634.646189747374
 31
0.0
  0
LINE
  5
1A24
330
15D6
100
AcDbEntity
  8
cotas
100
AcDbLine
 10
3985.168834840009
 20
2759.690837794243
 30
0.0
 11
3922.323227738426
 21
2759.690837794243
 31
0.0
  0
LINE
  5
1A25
330
15D6
100
AcDbEntity
  8
cotas
100
AcDbLine
 10
3923.323227738426
 20
2636.646189747374
 30
0.0
 11
3923.323227738426
 21
2757.690837794243
 31
0.0
  0
SOLID
  5
1A26
330
15D6
100
AcDbEntity
  8
cotas
100
AcDbTrace
 10
3922.989894405093
 20
2636.646189747374
 30
0.0
 11
3923.65656107176
 21
2636.646189747374
 31
0.0
 12
3923.323227738426
 22
2634.646189747374
 32
0.0
 13
3923.323227738426
 23
2634.646189747374
 33
0.0
  0
SOLID
  5
1A27
330
15D6
100
AcDbEntity
  8
cotas
100
AcDbTrace
 10
3922.989894405093
 20
2757.690837794243
 30
0.0
 11
3923.65656107176
 21
2757.690837794243
 31
0.0
 12
3923.323227738426
 22
2759.690837794243
 32
0.0
 13
3923.323227738426
 23
2759.690837794243
 33
0.0
  0
MTEXT
  5
1A28
330
15D6
100
AcDbEntity
  8
cotas
100
AcDbMText
 10
3921.281589054745
 20
2697.168513770809
 30
0.0
 40
2.0
 41
0.0
 71
     5
 72
     1
  1
125
  7
SANINDUSA
 11
0.0000000000000001
 21
1.0
 31
0.0
 73
     1
 44
1.0
1001
ACAD
1000
MTEXTBEGIN
1070
    73
1070
     1
1070
    44
1040
1.0
1070
    74
1070
     0
1000
MTEXTEND
  0
POINT
  5
1A29
330
15D6
100
AcDbEntity
  8
Defpoints
 62
     0
100
AcDbPoint
 10
4228.323227738425
 20
2634.646189747374
 30
0.0
  0
POINT
  5
1A2A
330
15D6
100
AcDbEntity
  8
Defpoints
 62
     0
100
AcDbPoint
 10
3986.168834840009
 20
2759.690837794243
 30
0.0
  0
POINT
  5
1A2B
330
15D6
100
AcDbEntity
  8
Defpoints
 62
     0
100
AcDbPoint
 10
3923.323227738426
 20
2759.690837794243
 30
0.0
  0
ENDBLK
  5
15D8
330
15D6
100
AcDbEntity
  8
0
100
AcDbBlockEnd
  0
BLOCK
  5
15E3
330
15E2
100
AcDbEntity
  8
0
100
AcDbBlockBegin
  2
*D52
 70
     1
 10
0.0
 20
0.0
 30
0.0
  3
*D52
  1

  0
LINE
  5
1A2C
330
15E2
100
AcDbEntity
  8
cotas
100
AcDbLine
 10
4227.323229228542
 20
2634.646189742983
 30
0.0
 11
3922.323227738426
 21
2634.646189742983
 31
0.0
  0
LINE
  5
1A2D
330
15E2
100
AcDbEntity
  8
cotas
100
AcDbLine
 10
4227.323227738426
 20
2344.961652590894
 30
0.0
 11
3922.323227738426
 21
2344.961652590894
 31
0.0
  0
LINE
  5
1A2E
330
15E2
100
AcDbEntity
  8
cotas
100
AcDbLine
 10
3923.323227738426
 20
2632.646189742983
 30
0.0
 11
3923.323227738426
 21
2346.961652590894
 31
0.0
  0
SOLID
  5
1A2F
330
15E2
100
AcDbEntity
  8
cotas
100
AcDbTrace
 10
3922.989894405093
 20
2632.646189742983
 30
0.0
 11
3923.65656107176
 21
2632.646189742983
 31
0.0
 12
3923.323227738426
 22
2634.646189742983
 32
0.0
 13
3923.323227738426
 23
2634.646189742983
 33
0.0
  0
SOLID
  5
1A30
330
15E2
100
AcDbEntity
  8
cotas
100
AcDbTrace
 10
3922.989894405093
 20
2346.961652590894
 30
0.0
 11
3923.65656107176
 21
2346.961652590894
 31
0.0
 12
3923.323227738426
 22
2344.961652590894
 32
0.0
 13
3923.323227738426
 23
2344.961652590894
 33
0.0
  0
MTEXT
  5
1A31
330
15E2
100
AcDbEntity
  8
cotas
100
AcDbMText
 10
3921.051904702832
 20
2489.803921166939
 30
0.0
 40
2.0
 41
0.0
 71
     5
 72
     1
  1
289,7
  7
SANINDUSA
 11
0.0000000000000001
 21
1.0
 31
0.0
 73
     1
 44
1.0
1001
ACAD
1000
MTEXTBEGIN
1070
    73
1070
     1
1070
    44
1040
1.0
1070
    74
1070
     0
1000
MTEXTEND
  0
POINT
  5
1A32
330
15E2
100
AcDbEntity
  8
Defpoints
 62
     0
100
AcDbPoint
 10
4228.323229228542
 20
2634.646189742983
 30
0.0
  0
POINT
  5
1A33
330
15E2
100
AcDbEntity
  8
Defpoints
 62
     0
100
AcDbPoint
 10
4228.323227738425
 20
2344.961652590894
 30
0.0
  0
POINT
  5
1A34
330
15E2
100
AcDbEntity
  8
Defpoints
 62
     0
100
AcDbPoint
 10
3923.323227738426
 20
2344.961652590894
 30
0.0
  0
ENDBLK
  5
15E4
330
15E2
100
AcDbEntity
  8
0
100
AcDbBlockEnd
  0
BLOCK
  5
15EF
330
15EE
100
AcDbEntity
  8
0
100
AcDbBlockBegin
  2
*D53
 70
     1
 10
0.0
 20
0.0
 30
0.0
  3
*D53
  1

  0
LINE
  5
1A35
330
15EE
100
AcDbEntity
  8
cotas
100
AcDbLine
 10
4471.477620636843
 20
2759.690837794245
 30
0.0
 11
4584.323227738425
 21
2759.690837794245
 31
0.0
  0
LINE
  5
1A36
330
15EE
100
AcDbEntity
  8
cotas
100
AcDbLine
 10
4266.823227738426
 20
2532.190837794245
 30
0.0
 11
4584.323227738425
 21
2532.190837794245
 31
0.0
  0
LINE
  5
1A37
330
15EE
100
AcDbEntity
  8
cotas
100
AcDbLine
 10
4583.323227738426
 20
2757.690837794245
 30
0.0
 11
4583.323227738426
 21
2534.190837794245
 31
0.0
  0
SOLID
  5
1A38
330
15EE
100
AcDbEntity
  8
cotas
100
AcDbTrace
 10
4582.989894405093
 20
2757.690837794245
 30
0.0
 11
4583.656561071759
 21
2757.690837794245
 31
0.0
 12
4583.323227738426
 22
2759.690837794245
 32
0.0
 13
4583.323227738426
 23
2759.690837794245
 33
0.0
  0
SOLID
  5
1A39
330
15EE
100
AcDbEntity
  8
cotas
100
AcDbTrace
 10
4582.989894405093
 20
2534.190837794245
 30
0.0
 11
4583.656561071759
 21
2534.190837794245
 31
0.0
 12
4583.323227738426
 22
2532.190837794245
 32
0.0
 13
4583.323227738426
 23
2532.190837794245
 33
0.0
  0
MTEXT
  5
1A3A
330
15EE
100
AcDbEntity
  8
cotas
100
AcDbMText
 10
4581.053919477848
 20
2645.940837794245
 30
0.0
 40
2.0
 41
0.0
 71
     5
 72
     1
  1
227,5
  7
SANINDUSA
 11
0.0000000000000001
 21
1.0
 31
0.0
 73
     1
 44
1.0
1001
ACAD
1000
MTEXTBEGIN
1070
    73
1070
     1
1070
    44
1040
1.0
1070
    74
1070
     0
1000
MTEXTEND
  0
POINT
  5
1A3B
330
15EE
100
AcDbEntity
  8
Defpoints
 62
     0
100
AcDbPoint
 10
4470.477620636843
 20
2759.690837794245
 30
0.0
  0
POINT
  5
1A3C
330
15EE
100
AcDbEntity
  8
Defpoints
 62
     0
100
AcDbPoint
 10
4265.823227738425
 20
2532.190837794245
 30
0.0
  0
POINT
  5
1A3D
330
15EE
100
AcDbEntity
  8
Defpoints
 62
     0
100
AcDbPoint
 10
4583.323227738426
 20
2532.190837794245
 30
0.0
  0
ENDBLK
  5
15F0
330
15EE
100
AcDbEntity
  8
0
100
AcDbBlockEnd
  0
BLOCK
  5
15FB
330
15FA
100
AcDbEntity
  8
0
100
AcDbBlockBegin
  2
*D54
 70
     1
 10
0.0
 20
0.0
 30
0.0
  3
*D54
  1

  0
LINE
  5
1A3E
330
15FA
100
AcDbEntity
  8
cotas
100
AcDbLine
 10
4227.323227738426
 20
2344.961652590894
 30
0.0
 11
3922.323227738426
 21
2344.961652590894
 31
0.0
  0
LINE
  5
1A3F
330
15FA
100
AcDbEntity
  8
cotas
100
AcDbLine
 10
4227.323227738426
 20
2310.751986356648
 30
0.0
 11
3922.323227738426
 21
2310.751986356648
 31
0.0
  0
LINE
  5
1A40
330
15FA
100
AcDbEntity
  8
cotas
100
AcDbLine
 10
3923.323227738426
 20
2342.961652590894
 30
0.0
 11
3923.323227738426
 21
2312.751986356648
 31
0.0
  0
SOLID
  5
1A41
330
15FA
100
AcDbEntity
  8
cotas
100
AcDbTrace
 10
3922.989894405093
 20
2342.961652590894
 30
0.0
 11
3923.65656107176
 21
2342.961652590894
 31
0.0
 12
3923.323227738426
 22
2344.961652590894
 32
0.0
 13
3923.323227738426
 23
2344.961652590894
 33
0.0
  0
SOLID
  5
1A42
330
15FA
100
AcDbEntity
  8
cotas
100
AcDbTrace
 10
3922.989894405093
 20
2312.751986356648
 30
0.0
 11
3923.65656107176
 21
2312.751986356648
 31
0.0
 12
3923.323227738426
 22
2310.751986356648
 32
0.0
 13
3923.323227738426
 23
2310.751986356648
 33
0.0
  0
MTEXT
  5
1A43
330
15FA
100
AcDbEntity
  8
cotas
100
AcDbMText
 10
3921.053919477849
 20
2327.856819473771
 30
0.0
 40
2.0
 41
0.0
 71
     5
 72
     1
  1
34,2
  7
SANINDUSA
 11
0.0000000000000001
 21
1.0
 31
0.0
 73
     1
 44
1.0
1001
ACAD
1000
MTEXTBEGIN
1070
    73
1070
     1
1070
    44
1040
1.0
1070
    74
1070
     0
1000
MTEXTEND
  0
POINT
  5
1A44
330
15FA
100
AcDbEntity
  8
Defpoints
 62
     0
100
AcDbPoint
 10
4228.323227738425
 20
2344.961652590894
 30
0.0
  0
POINT
  5
1A45
330
15FA
100
AcDbEntity
  8
Defpoints
 62
     0
100
AcDbPoint
 10
4228.323227738425
 20
2310.751986356648
 30
0.0
  0
POINT
  5
1A46
330
15FA
100
AcDbEntity
  8
Defpoints
 62
     0
100
AcDbPoint
 10
3923.323227738426
 20
2310.751986356648
 30
0.0
  0
ENDBLK
  5
15FC
330
15FA
100
AcDbEntity
  8
0
100
AcDbBlockEnd
  0
BLOCK
  5
1607
330
1606
100
AcDbEntity
  8
0
100
AcDbBlockBegin
  2
*D55
 70
     1
 10
0.0
 20
0.0
 30
0.0
  3
*D55
  1

  0
LINE
  5
1A47
330
1606
100
AcDbEntity
  8
cotas
100
AcDbLine
 10
4471.477620636843
 20
2759.690837794245
 30
0.0
 11
4609.323227738427
 21
2759.690837794245
 31
0.0
  0
LINE
  5
1A48
330
1606
100
AcDbEntity
  8
cotas
100
AcDbLine
 10
4329.323227738426
 20
2309.690837794244
 30
0.0
 11
4609.323227738427
 21
2309.690837794244
 31
0.0
  0
LINE
  5
1A49
330
1606
100
AcDbEntity
  8
cotas
100
AcDbLine
 10
4608.323227738426
 20
2757.690837794245
 30
0.0
 11
4608.323227738426
 21
2311.690837794245
 31
0.0
  0
SOLID
  5
1A4A
330
1606
100
AcDbEntity
  8
cotas
100
AcDbTrace
 10
4607.989894405093
 20
2757.690837794245
 30
0.0
 11
4608.65656107176
 21
2757.690837794245
 31
0.0
 12
4608.323227738426
 22
2759.690837794245
 32
0.0
 13
4608.323227738426
 23
2759.690837794245
 33
0.0
  0
SOLID
  5
1A4B
330
1606
100
AcDbEntity
  8
cotas
100
AcDbTrace
 10
4607.989894405093
 20
2311.690837794245
 30
0.0
 11
4608.65656107176
 21
2311.690837794245
 31
0.0
 12
4608.323227738426
 22
2309.690837794244
 32
0.0
 13
4608.323227738426
 23
2309.690837794244
 33
0.0
  0
MTEXT
  5
1A4C
330
1606
100
AcDbEntity
  8
cotas
100
AcDbMText
 10
4606.282260646418
 20
2561.097889570131
 30
0.0
 40
2.0
 41
0.0
 71
     5
 72
     1
  1
450
  7
SANINDUSA
 11
0.0000000000000001
 21
1.0
 31
0.0
 73
     1
 44
1.0
1001
ACAD
1000
MTEXTBEGIN
1070
    73
1070
     1
1070
    44
1040
1.0
1070
    74
1070
     0
1000
MTEXTEND
  0
POINT
  5
1A4D
330
1606
100
AcDbEntity
  8
Defpoints
 62
     0
100
AcDbPoint
 10
4470.477620636843
 20
2759.690837794245
 30
0.0
  0
POINT
  5
1A4E
330
1606
100
AcDbEntity
  8
Defpoints
 62
     0
100
AcDbPoint
 10
4328.323227738425
 20
2309.690837794244
 30
0.0
  0
POINT
  5
1A4F
330
1606
100
AcDbEntity
  8
Defpoints
 62
     0
100
AcDbPoint
 10
4608.323227738426
 20
2309.690837794244
 30
0.0
  0
ENDBLK
  5
1608
330
1606
100
AcDbEntity
  8
0
100
AcDbBlockEnd
  0
BLOCK
  5
1613
330
1612
100
AcDbEntity
  8
0
100
AcDbBlockBegin
  2
*D56
 70
     1
 10
0.0
 20
0.0
 30
0.0
  3
*D56
  1

  0
LINE
  5
1A50
330
1612
100
AcDbEntity
  8
cotas
100
AcDbLine
 10
3984.076938604355
 20
2488.775985294283
 30
0.0
 11
3984.076938604355
 21
2283.690837794244
 31
0.0
  0
LINE
  5
1A51
330
1612
100
AcDbEntity
  8
cotas
100
AcDbLine
 10
4472.569516872495
 20
2488.775985294283
 30
0.0
 11
4472.569516872495
 21
2283.690837794244
 31
0.0
  0
LINE
  5
1A52
330
1612
100
AcDbEntity
  8
cotas
100
AcDbLine
 10
3986.076938604355
 20
2284.690837794244
 30
0.0
 11
4470.569516872496
 21
2284.690837794244
 31
0.0
  0
SOLID
  5
1A53
330
1612
100
AcDbEntity
  8
cotas
100
AcDbTrace
 10
3986.076938604355
 20
2285.024171127577
 30
0.0
 11
3986.076938604355
 21
2284.357504460911
 31
0.0
 12
3984.076938604355
 22
2284.690837794244
 32
0.0
 13
3984.076938604355
 23
2284.690837794244
 33
0.0
  0
SOLID
  5
1A54
330
1612
100
AcDbEntity
  8
cotas
100
AcDbTrace
 10
4470.569516872496
 20
2285.024171127577
 30
0.0
 11
4470.569516872496
 21
2284.357504460911
 31
0.0
 12
4472.569516872495
 22
2284.690837794244
 32
0.0
 13
4472.569516872495
 23
2284.690837794244
 33
0.0
  0
MTEXT
  5
1A55
330
1612
100
AcDbEntity
  8
cotas
100
AcDbMText
 10
4246.044292145193
 20
2286.736506027958
 30
0.0
 40
2.0
 41
0.0
 71
     5
 72
     1
  1
488
  7
SANINDUSA
 73
     1
 44
1.0
1001
ACAD
1000
MTEXTBEGIN
1070
    73
1070
     1
1070
    44
1040
1.0
1070
    74
1070
     0
1000
MTEXTEND
  0
POINT
  5
1A56
330
1612
100
AcDbEntity
  8
Defpoints
 62
     0
100
AcDbPoint
 10
3984.076938604355
 20
2489.775985294283
 30
0.0
  0
POINT
  5
1A57
330
1612
100
AcDbEntity
  8
Defpoints
 62
     0
100
AcDbPoint
 10
4472.569516872495
 20
2489.775985294283
 30
0.0
  0
POINT
  5
1A58
330
1612
100
AcDbEntity
  8
Defpoints
 62
     0
100
AcDbPoint
 10
4472.569516872495
 20
2284.690837794244
 30
0.0
  0
ENDBLK
  5
1614
330
1612
100
AcDbEntity
  8
0
100
AcDbBlockEnd
  0
BLOCK
  5
161F
330
161E
100
AcDbEntity
  8
0
100
AcDbBlockBegin
  2
*D57
 70
     1
 10
0.0
 20
0.0
 30
0.0
  3
*D57
  1

  0
LINE
  5
1A59
330
161E
100
AcDbEntity
  8
cotas
100
AcDbLine
 10
4472.569516872495
 20
2488.775985294283
 30
0.0
 11
4472.569516872495
 21
2283.690837794245
 31
0.0
  0
LINE
  5
1A5A
330
161E
100
AcDbEntity
  8
cotas
100
AcDbLine
 10
4507.26207917603
 20
2488.690837794245
 30
0.0
 11
4507.26207917603
 21
2283.690837794245
 31
0.0
  0
LINE
  5
1A5B
330
161E
100
AcDbEntity
  8
cotas
100
AcDbLine
 10
4474.569516872496
 20
2284.690837794245
 30
0.0
 11
4505.26207917603
 21
2284.690837794245
 31
0.0
  0
SOLID
  5
1A5C
330
161E
100
AcDbEntity
  8
cotas
100
AcDbTrace
 10
4474.569516872496
 20
2285.024171127579
 30
0.0
 11
4474.569516872496
 21
2284.357504460912
 31
0.0
 12
4472.569516872495
 22
2284.690837794245
 32
0.0
 13
4472.569516872495
 23
2284.690837794245
 33
0.0
  0
SOLID
  5
1A5D
330
161E
100
AcDbEntity
  8
cotas
100
AcDbTrace
 10
4505.26207917603
 20
2285.024171127579
 30
0.0
 11
4505.26207917603
 21
2284.357504460912
 31
0.0
 12
4507.26207917603
 22
2284.690837794245
 32
0.0
 13
4507.26207917603
 23
2284.690837794245
 33
0.0
  0
MTEXT
  5
1A5E
330
161E
100
AcDbEntity
  8
cotas
100
AcDbMText
 10
4489.915798024263
 20
2286.960146054823
 30
0.0
 40
2.0
 41
0.0
 71
     5
 72
     1
  1
34,7
  7
SANINDUSA
 73
     1
 44
1.0
1001
ACAD
1000
MTEXTBEGIN
1070
    73
1070
     1
1070
    44
1040
1.0
1070
    74
1070
     0
1000
MTEXTEND
  0
POINT
  5
1A5F
330
161E
100
AcDbEntity
  8
Defpoints
 62
     0
100
AcDbPoint
 10
4472.569516872495
 20
2489.775985294283
 30
0.0
  0
POINT
  5
1A60
330
161E
100
AcDbEntity
  8
Defpoints
 62
     0
100
AcDbPoint
 10
4507.26207917603
 20
2489.690837794245
 30
0.0
  0
POINT
  5
1A61
330
161E
100
AcDbEntity
  8
Defpoints
 62
     0
100
AcDbPoint
 10
4507.26207917603
 20
2284.690837794245
 30
0.0
  0
ENDBLK
  5
1620
330
161E
100
AcDbEntity
  8
0
100
AcDbBlockEnd
  0
BLOCK
  5
162B
330
162A
100
AcDbEntity
  8
0
100
AcDbBlockBegin
  2
*D58
 70
     1
 10
0.0
 20
0.0
 30
0.0
  3
*D58
  1

  0
LINE
  5
1A62
330
162A
100
AcDbEntity
  8
cotas
100
AcDbLine
 10
3984.076938604449
 20
2488.775985294284
 30
0.0
 11
3984.076938604449
 21
2283.690837794245
 31
0.0
  0
LINE
  5
1A63
330
162A
100
AcDbEntity
  8
cotas
100
AcDbLine
 10
3949.384376300829
 20
2488.690837794246
 30
0.0
 11
3949.384376300829
 21
2283.690837794245
 31
0.0
  0
LINE
  5
1A64
330
162A
100
AcDbEntity
  8
cotas
100
AcDbLine
 10
3982.07693860445
 20
2284.690837794244
 30
0.0
 11
3951.384376300829
 21
2284.690837794244
 31
0.0
  0
SOLID
  5
1A65
330
162A
100
AcDbEntity
  8
cotas
100
AcDbTrace
 10
3982.07693860445
 20
2285.024171127578
 30
0.0
 11
3982.07693860445
 21
2284.357504460911
 31
0.0
 12
3984.076938604449
 22
2284.690837794244
 32
0.0
 13
3984.076938604449
 23
2284.690837794244
 33
0.0
  0
SOLID
  5
1A66
330
162A
100
AcDbEntity
  8
cotas
100
AcDbTrace
 10
3951.384376300829
 20
2285.024171127578
 30
0.0
 11
3951.384376300829
 21
2284.357504460911
 31
0.0
 12
3949.384376300829
 22
2284.690837794244
 32
0.0
 13
3949.384376300829
 23
2284.690837794244
 33
0.0
  0
MTEXT
  5
1A67
330
162A
100
AcDbEntity
  8
cotas
100
AcDbMText
 10
3966.730657452639
 20
2286.960146054822
 30
0.0
 40
2.0
 41
0.0
 71
     5
 72
     1
  1
34,7
  7
SANINDUSA
 73
     1
 44
1.0
1001
ACAD
1000
MTEXTBEGIN
1070
    73
1070
     1
1070
    44
1040
1.0
1070
    74
1070
     0
1000
MTEXTEND
  0
POINT
  5
1A68
330
162A
100
AcDbEntity
  8
Defpoints
 62
     0
100
AcDbPoint
 10
3984.076938604449
 20
2489.775985294284
 30
0.0
  0
POINT
  5
1A69
330
162A
100
AcDbEntity
  8
Defpoints
 62
     0
100
AcDbPoint
 10
3949.384376300829
 20
2489.690837794246
 30
0.0
  0
POINT
  5
1A6A
330
162A
100
AcDbEntity
  8
Defpoints
 62
     0
100
AcDbPoint
 10
3949.384376300829
 20
2284.690837794244
 30
0.0
  0
ENDBLK
  5
162C
330
162A
100
AcDbEntity
  8
0
100
AcDbBlockEnd
  0
BLOCK
  5
1637
330
1636
100
AcDbEntity
  8
0
100
AcDbBlockBegin
  2
*D59
 70
     1
 10
0.0
 20
0.0
 30
0.0
  3
*D59
  1

  0
LINE
  5
1D15
330
1636
100
AcDbEntity
  8
cotas
100
AcDbLine
 10
6099.678045035702
 20
2643.999030120239
 30
0.0
 11
6042.178045035701
 21
2643.999030120239
 31
0.0
  0
LINE
  5
1D16
330
1636
100
AcDbEntity
  8
cotas
100
AcDbLine
 10
6288.6780450357
 20
2503.999030120239
 30
0.0
 11
6042.178045035701
 21
2503.999030120239
 31
0.0
  0
LINE
  5
1D17
330
1636
100
AcDbEntity
  8
cotas
100
AcDbLine
 10
6043.1780450357
 20
2641.999030120239
 30
0.0
 11
6043.1780450357
 21
2505.999030120239
 31
0.0
  0
SOLID
  5
1D18
330
1636
100
AcDbEntity
  8
cotas
100
AcDbTrace
 10
6042.844711702367
 20
2641.999030120239
 30
0.0
 11
6043.511378369033
 21
2641.999030120239
 31
0.0
 12
6043.1780450357
 22
2643.999030120239
 32
0.0
 13
6043.1780450357
 23
2643.999030120239
 33
0.0
  0
SOLID
  5
1D19
330
1636
100
AcDbEntity
  8
cotas
100
AcDbTrace
 10
6042.844711702367
 20
2505.999030120239
 30
0.0
 11
6043.511378369033
 21
2505.999030120239
 31
0.0
 12
6043.1780450357
 22
2503.999030120239
 32
0.0
 13
6043.1780450357
 23
2503.999030120239
 33
0.0
  0
MTEXT
  5
1D1A
330
1636
100
AcDbEntity
  8
cotas
100
AcDbMText
 10
6041.137077943691
 20
2573.99903012024
 30
0.0
 40
2.0
 41
0.0
 71
     5
 72
     1
  1
140
  7
SANINDUSA
 11
0.0000000000000001
 21
1.0
 31
0.0
 73
     1
 44
1.0
1001
ACAD
1000
MTEXTBEGIN
1070
    73
1070
     1
1070
    44
1040
1.0
1070
    74
1070
     0
1000
MTEXTEND
  0
POINT
  5
1D1B
330
1636
100
AcDbEntity
  8
Defpoints
 62
     0
100
AcDbPoint
 10
6100.678045035702
 20
2643.999030120239
 30
0.0
  0
POINT
  5
1D1C
330
1636
100
AcDbEntity
  8
Defpoints
 62
     0
100
AcDbPoint
 10
6289.678045035699
 20
2503.999030120239
 30
0.0
  0
POINT
  5
1D1D
330
1636
100
AcDbEntity
  8
Defpoints
 62
     0
100
AcDbPoint
 10
6043.1780450357
 20
2503.999030120239
 30
0.0
  0
ENDBLK
  5
1638
330
1636
100
AcDbEntity
  8
0
100
AcDbBlockEnd
  0
BLOCK
  5
1643
330
1642
100
AcDbEntity
  8
0
100
AcDbBlockBegin
  2
*D60
 70
     1
 10
0.0
 20
0.0
 30
0.0
  3
*D60
  1

  0
LINE
  5
1D0C
330
1642
100
AcDbEntity
  8
cotas
100
AcDbLine
 10
6099.678045035702
 20
2643.999030120239
 30
0.0
 11
6067.1780450357
 21
2643.999030120239
 31
0.0
  0
LINE
  5
1D0D
330
1642
100
AcDbEntity
  8
cotas
100
AcDbLine
 10
6133.373178184351
 20
2631.999030120239
 30
0.0
 11
6067.1780450357
 21
2631.999030120239
 31
0.0
  0
LINE
  5
1D0E
330
1642
100
AcDbEntity
  8
cotas
100
AcDbLine
 10
6068.178045035701
 20
2641.999030120239
 30
0.0
 11
6068.178045035701
 21
2633.999030120239
 31
0.0
  0
SOLID
  5
1D0F
330
1642
100
AcDbEntity
  8
cotas
100
AcDbTrace
 10
6067.844711702367
 20
2641.999030120239
 30
0.0
 11
6068.511378369033
 21
2641.999030120239
 31
0.0
 12
6068.178045035701
 22
2643.999030120239
 32
0.0
 13
6068.178045035701
 23
2643.999030120239
 33
0.0
  0
SOLID
  5
1D10
330
1642
100
AcDbEntity
  8
cotas
100
AcDbTrace
 10
6067.844711702367
 20
2633.999030120239
 30
0.0
 11
6068.511378369033
 21
2633.999030120239
 31
0.0
 12
6068.178045035701
 22
2631.999030120239
 32
0.0
 13
6068.178045035701
 23
2631.999030120239
 33
0.0
  0
MTEXT
  5
1D11
330
1642
100
AcDbEntity
  8
cotas
100
AcDbMText
 10
6066.157225693859
 20
2637.99903012024
 30
0.0
 40
2.0
 41
0.0
 71
     5
 72
     1
  1
12
  7
SANINDUSA
 11
0.0000000000000001
 21
1.0
 31
0.0
 73
     1
 44
1.0
1001
ACAD
1000
MTEXTBEGIN
1070
    73
1070
     1
1070
    44
1040
1.0
1070
    74
1070
     0
1000
MTEXTEND
  0
POINT
  5
1D12
330
1642
100
AcDbEntity
  8
Defpoints
 62
     0
100
AcDbPoint
 10
6100.678045035702
 20
2643.999030120239
 30
0.0
  0
POINT
  5
1D13
330
1642
100
AcDbEntity
  8
Defpoints
 62
     0
100
AcDbPoint
 10
6134.37317818435
 20
2631.999030120239
 30
0.0
  0
POINT
  5
1D14
330
1642
100
AcDbEntity
  8
Defpoints
 62
     0
100
AcDbPoint
 10
6068.178045035701
 20
2631.999030120239
 30
0.0
  0
ENDBLK
  5
1644
330
1642
100
AcDbEntity
  8
0
100
AcDbBlockEnd
  0
BLOCK
  5
164F
330
164E
100
AcDbEntity
  8
0
100
AcDbBlockBegin
  2
*D61
 70
     1
 10
0.0
 20
0.0
 30
0.0
  3
*D61
  1

  0
LINE
  5
1D03
330
164E
100
AcDbEntity
  8
cotas
100
AcDbLine
 10
6290.678045035699
 20
2455.999030120239
 30
0.0
 11
6290.678045035699
 21
2424.89012923453
 31
0.0
  0
LINE
  5
1D04
330
164E
100
AcDbEntity
  8
cotas
100
AcDbLine
 10
6360.678045035699
 20
2455.999030120239
 30
0.0
 11
6360.678045035699
 21
2424.89012923453
 31
0.0
  0
LINE
  5
1D05
330
164E
100
AcDbEntity
  8
cotas
100
AcDbLine
 10
6292.6780450357
 20
2425.89012923453
 30
0.0
 11
6358.678045035699
 21
2425.89012923453
 31
0.0
  0
SOLID
  5
1D06
330
164E
100
AcDbEntity
  8
cotas
100
AcDbTrace
 10
6292.6780450357
 20
2426.223462567863
 30
0.0
 11
6292.6780450357
 21
2425.556795901196
 31
0.0
 12
6290.678045035699
 22
2425.89012923453
 32
0.0
 13
6290.678045035699
 23
2425.89012923453
 33
0.0
  0
SOLID
  5
1D07
330
164E
100
AcDbEntity
  8
cotas
100
AcDbTrace
 10
6358.678045035699
 20
2426.223462567863
 30
0.0
 11
6358.678045035699
 21
2425.556795901196
 31
0.0
 12
6360.678045035699
 22
2425.89012923453
 32
0.0
 13
6360.678045035699
 23
2425.89012923453
 33
0.0
  0
MTEXT
  5
1D08
102
{ACAD_XDICTIONARY
360
1E42
102
}
330
164E
100
AcDbEntity
  8
cotas
100
AcDbMText
 10
6325.678045035699
 20
2428.009672552192
 30
0.0
 40
2.0
 41
0.0
 71
     5
 72
     1
  1
\U+00F870
  7
SANINDUSA
 73
     1
 44
1.0
1001
ACAD
1000
MTEXTBEGIN
1070
    73
1070
     1
1070
    44
1040
1.0
1070
    74
1070
     0
1000
MTEXTEND
  0
POINT
  5
1D09
330
164E
100
AcDbEntity
  8
Defpoints
 62
     0
100
AcDbPoint
 10
6290.678045035699
 20
2456.999030120239
 30
0.0
  0
POINT
  5
1D0A
330
164E
100
AcDbEntity
  8
Defpoints
 62
     0
100
AcDbPoint
 10
6360.678045035699
 20
2456.999030120239
 30
0.0
  0
POINT
  5
1D0B
330
164E
100
AcDbEntity
  8
Defpoints
 62
     0
100
AcDbPoint
 10
6360.678045035699
 20
2425.89012923453
 30
0.0
  0
ENDBLK
  5
1650
330
164E
100
AcDbEntity
  8
0
100
AcDbBlockEnd
  0
BLOCK
  5
165B
330
165A
100
AcDbEntity
  8
0
100
AcDbBlockBegin
  2
*D62
 70
     1
 10
0.0
 20
0.0
 30
0.0
  3
*D62
  1

  0
LINE
  5
1CF9
330
165A
100
AcDbEntity
  8
cotas
100
AcDbLine
 10
6098.678045035701
 20
2642.999030120239
 30
0.0
 11
6098.678045035701
 21
2670.999030120239
 31
0.0
  0
LINE
  5
1CFA
330
165A
100
AcDbEntity
  8
cotas
100
AcDbLine
 10
6129.376224049256
 20
2628.173527603752
 30
0.0
 11
6129.376224049256
 21
2670.999030120239
 31
0.0
  0
LINE
  5
1CFB
330
165A
100
AcDbEntity
  8
cotas
100
AcDbLine
 10
6129.376224049256
 20
2669.999030120239
 30
0.0
 11
6100.678045035702
 21
2669.999030120239
 31
0.0
  0
LINE
  5
1CFC
330
165A
100
AcDbEntity
  8
cotas
100
AcDbLine
 10
6098.678045035701
 20
2669.999030120239
 30
0.0
 11
6066.523243155245
 21
2669.999030120239
 31
0.0
  0
INSERT
  5
1CFD
330
165A
100
AcDbEntity
  8
cotas
100
AcDbBlockReference
  2
_DotSmall
 10
6129.376224049256
 20
2669.999030120239
 30
0.0
 41
2.0
 42
2.0
 43
2.0
  0
SOLID
  5
1CFE
330
165A
100
AcDbEntity
  8
cotas
100
AcDbTrace
 10
6100.678045035702
 20
2670.332363453573
 30
0.0
 11
6100.678045035702
 21
2669.665696786906
 31
0.0
 12
6098.678045035701
 22
2669.999030120239
 32
0.0
 13
6098.678045035701
 23
2669.999030120239
 33
0.0
  0
MTEXT
  5
1CFF
330
165A
100
AcDbEntity
  8
cotas
100
AcDbMText
 10
6070.448024887951
 20
2672.268338380817
 30
0.0
 40
2.0
 41
0.0
 71
     5
 72
     1
  1
30,7
  7
SANINDUSA
 73
     1
 44
1.0
1001
ACAD
1000
MTEXTBEGIN
1070
    73
1070
     1
1070
    44
1040
1.0
1070
    74
1070
     0
1000
MTEXTEND
  0
POINT
  5
1D00
330
165A
100
AcDbEntity
  8
Defpoints
 62
     0
100
AcDbPoint
 10
6098.678045035701
 20
2641.999030120239
 30
0.0
  0
POINT
  5
1D01
330
165A
100
AcDbEntity
  8
Defpoints
 62
     0
100
AcDbPoint
 10
6129.376224049256
 20
2627.173527603752
 30
0.0
  0
POINT
  5
1D02
330
165A
100
AcDbEntity
  8
Defpoints
 62
     0
100
AcDbPoint
 10
6129.376224049256
 20
2669.999030120239
 30
0.0
  0
ENDBLK
  5
165C
330
165A
100
AcDbEntity
  8
0
100
AcDbBlockEnd
  0
BLOCK
  5
1668
330
1667
100
AcDbEntity
  8
0
100
AcDbBlockBegin
  2
*D63
 70
     1
 10
0.0
 20
0.0
 30
0.0
  3
*D63
  1

  0
LINE
  5
1CF0
330
1667
100
AcDbEntity
  8
cotas
100
AcDbLine
 10
6144.178045035702
 20
2643.999030120232
 30
0.0
 11
6144.178045035702
 21
2670.999030120239
 31
0.0
  0
LINE
  5
1CF1
330
1667
100
AcDbEntity
  8
cotas
100
AcDbLine
 10
6179.178045035701
 20
2643.999030120232
 30
0.0
 11
6179.178045035701
 21
2670.999030120239
 31
0.0
  0
LINE
  5
1CF2
330
1667
100
AcDbEntity
  8
cotas
100
AcDbLine
 10
6146.178045035702
 20
2669.999030120239
 30
0.0
 11
6177.178045035702
 21
2669.999030120239
 31
0.0
  0
SOLID
  5
1CF3
330
1667
100
AcDbEntity
  8
cotas
100
AcDbTrace
 10
6146.178045035702
 20
2670.332363453573
 30
0.0
 11
6146.178045035702
 21
2669.665696786906
 31
0.0
 12
6144.178045035702
 22
2669.999030120239
 32
0.0
 13
6144.178045035702
 23
2669.999030120239
 33
0.0
  0
SOLID
  5
1CF4
330
1667
100
AcDbEntity
  8
cotas
100
AcDbTrace
 10
6177.178045035702
 20
2670.332363453573
 30
0.0
 11
6177.178045035702
 21
2669.665696786906
 31
0.0
 12
6179.178045035701
 22
2669.999030120239
 32
0.0
 13
6179.178045035701
 23
2669.999030120239
 33
0.0
  0
MTEXT
  5
1CF5
102
{ACAD_XDICTIONARY
360
1E40
102
}
330
1667
100
AcDbEntity
  8
cotas
100
AcDbMText
 10
6161.678045035702
 20
2672.119245029574
 30
0.0
 40
2.0
 41
0.0
 71
     5
 72
     1
  1
\U+00F835
  7
SANINDUSA
 73
     1
 44
1.0
1001
ACAD
1000
MTEXTBEGIN
1070
    73
1070
     1
1070
    44
1040
1.0
1070
    74
1070
     0
1000
MTEXTEND
  0
POINT
  5
1CF6
330
1667
100
AcDbEntity
  8
Defpoints
 62
     0
100
AcDbPoint
 10
6144.178045035702
 20
2642.999030120232
 30
0.0
  0
POINT
  5
1CF7
330
1667
100
AcDbEntity
  8
Defpoints
 62
     0
100
AcDbPoint
 10
6179.178045035701
 20
2642.999030120232
 30
0.0
  0
POINT
  5
1CF8
330
1667
100
AcDbEntity
  8
Defpoints
 62
     0
100
AcDbPoint
 10
6179.178045035701
 20
2669.999030120239
 30
0.0
  0
ENDBLK
  5
1669
330
1667
100
AcDbEntity
  8
0
100
AcDbBlockEnd
  0
BLOCK
  5
1698
330
1697
100
AcDbEntity
  8
0
100
AcDbBlockBegin
  2
*D64
 70
     1
 10
0.0
 20
0.0
 30
0.0
  3
*D64
  1

  0
LINE
  5
1A08
330
1697
100
AcDbEntity
  8
cotas
100
AcDbLine
 10
4471.477620636843
 20
2759.690837794245
 30
0.0
 11
4534.323227738425
 21
2759.690837794245
 31
0.0
  0
LINE
  5
1A09
330
1697
100
AcDbEntity
  8
cotas
100
AcDbLine
 10
4254.235368108463
 20
2696.690837794245
 30
0.0
 11
4534.323227738425
 21
2696.690837794245
 31
0.0
  0
LINE
  5
1A0A
330
1697
100
AcDbEntity
  8
cotas
100
AcDbLine
 10
4533.323227738426
 20
2757.690837794245
 30
0.0
 11
4533.323227738426
 21
2698.690837794245
 31
0.0
  0
SOLID
  5
1A0B
330
1697
100
AcDbEntity
  8
cotas
100
AcDbTrace
 10
4532.989894405093
 20
2757.690837794245
 30
0.0
 11
4533.656561071759
 21
2757.690837794245
 31
0.0
 12
4533.323227738426
 22
2759.690837794245
 32
0.0
 13
4533.323227738426
 23
2759.690837794245
 33
0.0
  0
SOLID
  5
1A0C
330
1697
100
AcDbEntity
  8
cotas
100
AcDbTrace
 10
4532.989894405093
 20
2698.690837794245
 30
0.0
 11
4533.656561071759
 21
2698.690837794245
 31
0.0
 12
4533.323227738426
 22
2696.690837794245
 32
0.0
 13
4533.323227738426
 23
2696.690837794245
 33
0.0
  0
MTEXT
  5
1A0D
330
1697
100
AcDbEntity
  8
cotas
100
AcDbMText
 10
4531.281589054745
 20
2728.190837794245
 30
0.0
 40
2.0
 41
0.0
 71
     5
 72
     1
  1
63
  7
SANINDUSA
 11
0.0000000000000001
 21
1.0
 31
0.0
 73
     1
 44
1.0
1001
ACAD
1000
MTEXTBEGIN
1070
    73
1070
     1
1070
    44
1040
1.0
1070
    74
1070
     0
1000
MTEXTEND
  0
POINT
  5
1A0E
330
1697
100
AcDbEntity
  8
Defpoints
 62
     0
100
AcDbPoint
 10
4470.477620636843
 20
2759.690837794245
 30
0.0
  0
POINT
  5
1A0F
330
1697
100
AcDbEntity
  8
Defpoints
 62
     0
100
AcDbPoint
 10
4253.235368108463
 20
2696.690837794245
 30
0.0
  0
POINT
  5
1A10
330
1697
100
AcDbEntity
  8
Defpoints
 62
     0
100
AcDbPoint
 10
4533.323227738426
 20
2696.690837794245
 30
0.0
  0
ENDBLK
  5
1699
330
1697
100
AcDbEntity
  8
0
100
AcDbBlockEnd
  0
BLOCK
  5
172C
330
172B
100
AcDbEntity
  8
0
100
AcDbBlockBegin
  2
*D65
 70
     1
 10
0.0
 20
0.0
 30
0.0
  3
*D65
  1

  0
ARC
  5
1CE7
330
172B
100
AcDbEntity
  8
cotas
100
AcDbCircle
 10
6495.196988469951
 20
2463.999030120239
 30
0.0
 40
48.34035494853076
100
AcDbArc
 50
96.3706845704041
 51
177.6293154295949
  0
SOLID
  5
1CE8
330
172B
100
AcDbEntity
  8
cotas
100
AcDbTrace
 10
6489.802994730009
 20
2512.372843968288
 30
0.0
 11
6489.863246599828
 21
2511.708905600193
 31
0.0
 12
6491.824935769201
 22
2512.221630393693
 32
0.0
 13
6491.824935769201
 23
2512.221630393693
 33
0.0
  0
SOLID
  5
1CE9
330
172B
100
AcDbEntity
  8
cotas
100
AcDbTrace
 10
6447.231268824052
 20
2465.991706586987
 30
0.0
 11
6446.56474481848
 21
2466.005497686936
 31
0.0
 12
6446.856633521417
 22
2463.999030120239
 32
0.0
 13
6446.856633521417
 23
2463.999030120239
 33
0.0
  0
MTEXT
  5
1CEA
330
172B
100
AcDbEntity
  8
cotas
100
AcDbMText
 10
6458.181950431103
 20
2498.516111505424
 30
0.0
 40
2.0
 41
0.0
 71
     5
 72
     1
  1
86,0\U+00B0
  7
SANINDUSA
 11
0.6819983600625058
 21
0.7313537016191637
 31
0.0
 73
     1
 44
1.0
1001
ACAD
1000
MTEXTBEGIN
1070
    73
1070
     1
1070
    44
1040
1.0
1070
    74
1070
     0
1000
MTEXTEND
  0
POINT
  5
1CEB
330
172B
100
AcDbEntity
  8
Defpoints
 62
     0
100
AcDbPoint
 10
6469.105250080871
 20
2504.693146456459
 30
0.0
  0
POINT
  5
1CEC
330
172B
100
AcDbEntity
  8
Defpoints
 62
     0
100
AcDbPoint
 10
6495.196988469951
 20
2463.999030120239
 30
0.0
  0
POINT
  5
1CED
330
172B
100
AcDbEntity
  8
Defpoints
 62
     0
100
AcDbPoint
 10
6490.850450202884
 20
2526.157423249578
 30
0.0
  0
POINT
  5
1CEE
330
172B
100
AcDbEntity
  8
Defpoints
 62
     0
100
AcDbPoint
 10
6495.196988469951
 20
2463.999030120239
 30
0.0
  0
POINT
  5
1CEF
330
172B
100
AcDbEntity
  8
Defpoints
 62
     0
100
AcDbPoint
 10
6368.678045035697
 20
2463.999030120239
 30
0.0
  0
ENDBLK
  5
172D
330
172B
100
AcDbEntity
  8
0
100
AcDbBlockEnd
  0
BLOCK
  5
1738
330
1737
100
AcDbEntity
  8
0
100
AcDbBlockBegin
  2
*D66
 70
     1
 10
0.0
 20
0.0
 30
0.0
  3
*D66
  1

  0
LINE
  5
1CDC
330
1737
100
AcDbEntity
  8
cotas
100
AcDbLine
 10
6362.432754615923
 20
2504.65508914923
 30
0.0
 11
6369.489013826944
 21
2510.789001699969
 31
0.0
  0
LINE
  5
1CDD
330
1737
100
AcDbEntity
  8
cotas
100
AcDbLine
 10
6288.923335455478
 20
2504.65508914923
 30
0.0
 11
6281.867076244456
 21
2510.789001699969
 31
0.0
  0
ARC
  5
1CDE
330
1737
100
AcDbEntity
  8
cotas
100
AcDbCircle
 10
6325.6780450357
 20
2472.704707558831
 30
0.0
 40
57.05010289961577
100
AcDbArc
 50
43.00871553236244
 51
136.9912844676375
  0
SOLID
  5
1CDF
330
1737
100
AcDbEntity
  8
cotas
100
AcDbTrace
 10
6367.6436279716
 20
2511.842192908363
 30
0.0
 11
6367.148232017591
 21
2511.396068157654
 31
0.0
 12
6368.734304246721
 22
2510.132942670978
 32
0.0
 13
6368.734304246721
 23
2510.132942670978
 33
0.0
  0
SOLID
  5
1CE0
330
1737
100
AcDbEntity
  8
cotas
100
AcDbTrace
 10
6284.20785805381
 20
2511.396068157654
 30
0.0
 11
6283.7124620998
 21
2511.842192908363
 31
0.0
 12
6282.621785824679
 22
2510.132942670978
 32
0.0
 13
6282.621785824679
 23
2510.132942670978
 33
0.0
  0
MTEXT
  5
1CE1
330
1737
100
AcDbEntity
  8
cotas
100
AcDbMText
 10
6325.6780450357
 20
2532.026133494042
 30
0.0
 40
2.0
 41
0.0
 71
     5
 72
     1
  1
98,0\U+00B0
  7
SANINDUSA
 73
     1
 44
1.0
1001
ACAD
1000
MTEXTBEGIN
1070
    73
1070
     1
1070
    44
1040
1.0
1070
    74
1070
     0
1000
MTEXTEND
  0
POINT
  5
1CE2
330
1737
100
AcDbEntity
  8
Defpoints
 62
     0
100
AcDbPoint
 10
6341.721963274428
 20
2527.452373521918
 30
0.0
  0
POINT
  5
1CE3
330
1737
100
AcDbEntity
  8
Defpoints
 62
     0
100
AcDbPoint
 10
6302.1780450357
 20
2493.132945897528
 30
0.0
  0
POINT
  5
1CE4
330
1737
100
AcDbEntity
  8
Defpoints
 62
     0
100
AcDbPoint
 10
6361.6780450357
 20
2503.999030120239
 30
0.0
  0
POINT
  5
1CE5
330
1737
100
AcDbEntity
  8
Defpoints
 62
     0
100
AcDbPoint
 10
6349.1780450357
 20
2493.132945897528
 30
0.0
  0
POINT
  5
1CE6
330
1737
100
AcDbEntity
  8
Defpoints
 62
     0
100
AcDbPoint
 10
6289.678045035699
 20
2503.999030120239
 30
0.0
  0
ENDBLK
  5
1739
330
1737
100
AcDbEntity
  8
0
100
AcDbBlockEnd
  0
BLOCK
  5
1746
330
1745
100
AcDbEntity
  8
0
100
AcDbBlockBegin
  2
*D67
 70
     1
 10
0.0
 20
0.0
 30
0.0
  3
*D67
  1

  0
ARC
  5
1CD3
330
1745
100
AcDbEntity
  8
cotas
100
AcDbCircle
 10
6123.6780450357
 20
2463.999030120239
 30
0.0
 40
63.7556361967326
100
AcDbArc
 50
1.79742944994965
 51
86.20257055004989
  0
SOLID
  5
1CD4
330
1745
100
AcDbEntity
  8
cotas
100
AcDbTrace
 10
6187.735603785037
 20
2466.004012385332
 30
0.0
 11
6187.069019128649
 21
2465.99355579347
 31
0.0
 12
6187.433681232433
 22
2463.999030120239
 32
0.0
 13
6187.433681232433
 23
2463.999030120239
 33
0.0
  0
SOLID
  5
1CD5
330
1745
100
AcDbEntity
  8
cotas
100
AcDbTrace
 10
6127.883668789106
 20
2527.281780202382
 30
0.0
 11
6127.917382480114
 21
2527.947593863614
 31
0.0
 12
6125.903084650914
 22
2527.71582810602
 32
0.0
 13
6125.903084650914
 23
2527.71582810602
 33
0.0
  0
MTEXT
  5
1CD6
330
1745
100
AcDbEntity
  8
cotas
100
AcDbMText
 10
6171.173864706851
 20
2509.865210026929
 30
0.0
 40
2.0
 41
0.0
 71
     5
 72
     1
  1
88,0\U+00B0
  7
SANINDUSA
 11
0.6946583704589939
 21
-0.7193398003386545
 31
0.0
 73
     1
 44
1.0
1001
ACAD
1000
MTEXTBEGIN
1070
    73
1070
     1
1070
    44
1040
1.0
1070
    74
1070
     0
1000
MTEXTEND
  0
POINT
  5
1CD7
330
1745
100
AcDbEntity
  8
Defpoints
 62
     0
100
AcDbPoint
 10
6179.259214957333
 20
2495.232260772746
 30
0.0
  0
POINT
  5
1CD8
330
1745
100
AcDbEntity
  8
Defpoints
 62
     0
100
AcDbPoint
 10
6123.6780450357
 20
2463.999030120239
 30
0.0
  0
POINT
  5
1CD9
330
1745
100
AcDbEntity
  8
Defpoints
 62
     0
100
AcDbPoint
 10
6236.1780450357
 20
2463.999030120239
 30
0.0
  0
POINT
  5
1CDA
330
1745
100
AcDbEntity
  8
Defpoints
 62
     0
100
AcDbPoint
 10
6128.937005751985
 20
2463.999030120238
 30
0.0
  0
POINT
  5
1CDB
330
1745
100
AcDbEntity
  8
Defpoints
 62
     0
100
AcDbPoint
 10
6127.440325941499
 20
2571.736659060157
 30
0.0
  0
ENDBLK
  5
1747
330
1745
100
AcDbEntity
  8
0
100
AcDbBlockEnd
  0
BLOCK
  5
1752
330
1751
100
AcDbEntity
  8
0
100
AcDbBlockBegin
  2
*D68
 70
     1
 10
0.0
 20
0.0
 30
0.0
  3
*D68
  1

  0
LINE
  5
1CCD
330
1751
100
AcDbEntity
  8
cotas
100
AcDbLine
 10
6543.298698949036
 20
2470.382966960594
 30
0.0
 11
6536.564330667684
 21
2476.293688029071
 31
0.0
  0
MTEXT
  5
1CCE
330
1751
100
AcDbEntity
  8
cotas
100
AcDbMText
 10
6542.029412851984
 20
2474.212610326196
 30
0.0
 40
2.0
 41
0.0
 71
     5
 72
     1
  1
R40
  7
SANINDUSA
 11
0.7515720559834552
 21
-0.659651002170695
 31
0.0
 73
     1
 44
1.0
1001
ACAD
1000
MTEXTBEGIN
1070
    73
1070
     1
1070
    44
1040
1.0
1070
    74
1070
     0
1000
MTEXTEND
  0
LINE
  5
1CCF
330
1751
100
AcDbEntity
  8
cotas
100
AcDbLine
 10
6504.99830431638
 20
2503.999030120239
 30
0.0
 11
6535.061186555719
 21
2477.612990033412
 31
0.0
  0
SOLID
  5
1CD0
330
1751
100
AcDbEntity
  8
cotas
100
AcDbTrace
 10
6536.784214335075
 20
2476.544212047731
 30
0.0
 11
6536.344447000295
 21
2476.043164010409
 31
0.0
 12
6535.061186555719
 22
2477.612990033412
 32
0.0
 13
6535.061186555719
 23
2477.612990033412
 33
0.0
  0
POINT
  5
1CD1
330
1751
100
AcDbEntity
  8
Defpoints
 62
     0
100
AcDbPoint
 10
6535.061186555719
 20
2477.612990033412
 30
0.0
  0
POINT
  5
1CD2
330
1751
100
AcDbEntity
  8
Defpoints
 62
     0
100
AcDbPoint
 10
6504.99830431638
 20
2503.999030120239
 30
0.0
  0
ENDBLK
  5
1753
330
1751
100
AcDbEntity
  8
0
100
AcDbBlockEnd
  0
BLOCK
  5
175B
330
175A
100
AcDbEntity
  8
0
100
AcDbBlockBegin
  2
*D69
 70
     1
 10
0.0
 20
0.0
 30
0.0
  3
*D69
  1

  0
LINE
  5
1CC7
330
175A
100
AcDbEntity
  8
cotas
100
AcDbLine
 10
6549.006993717428
 20
2633.728136758215
 30
0.0
 11
6541.729362227825
 21
2628.500860258955
 31
0.0
  0
MTEXT
  5
1CC8
330
175A
100
AcDbEntity
  8
cotas
100
AcDbMText
 10
6544.989726466614
 20
2633.355552084084
 30
0.0
 40
2.0
 41
0.0
 71
     5
 72
     1
  1
R40
  7
SANINDUSA
 11
0.8122015655839206
 21
0.5833769080646134
 31
0.0
 73
     1
 44
1.0
1001
ACAD
1000
MTEXTBEGIN
1070
    73
1070
     1
1070
    44
1040
1.0
1070
    74
1070
     0
1000
MTEXTEND
  0
LINE
  5
1CC9
330
175A
100
AcDbEntity
  8
cotas
100
AcDbLine
 10
6507.616896473297
 20
2603.999030120239
 30
0.0
 11
6540.104959096656
 21
2627.334106442825
 31
0.0
  0
SOLID
  5
1CCA
330
175A
100
AcDbEntity
  8
cotas
100
AcDbTrace
 10
6541.53490325847
 20
2628.77159411415
 30
0.0
 11
6541.92382119718
 21
2628.230126403761
 31
0.0
 12
6540.104959096656
 22
2627.334106442825
 32
0.0
 13
6540.104959096656
 23
2627.334106442825
 33
0.0
  0
POINT
  5
1CCB
330
175A
100
AcDbEntity
  8
Defpoints
 62
     0
100
AcDbPoint
 10
6540.104959096656
 20
2627.334106442825
 30
0.0
  0
POINT
  5
1CCC
330
175A
100
AcDbEntity
  8
Defpoints
 62
     0
100
AcDbPoint
 10
6507.616896473297
 20
2603.999030120239
 30
0.0
  0
ENDBLK
  5
175C
330
175A
100
AcDbEntity
  8
0
100
AcDbBlockEnd
  0
BLOCK
  5
1764
330
1763
100
AcDbEntity
  8
0
100
AcDbBlockBegin
  2
*D70
 70
     1
 10
0.0
 20
0.0
 30
0.0
  3
*D70
  1

  0
LINE
  5
1CC1
330
1763
100
AcDbEntity
  8
cotas
100
AcDbLine
 10
6510.471982710757
 20
2648.966177915339
 30
0.0
 11
6514.546201689532
 21
2643.032067647331
 31
0.0
  0
MTEXT
  5
1CC2
330
1763
100
AcDbEntity
  8
cotas
100
AcDbMText
 10
6513.609038620842
 20
2647.967327212778
 30
0.0
 40
2.0
 41
0.0
 71
     5
 72
     1
  1
R5
  7
SANINDUSA
 11
0.5660115748644337
 21
-0.8243972932509443
 31
0.0
 73
     1
 44
1.0
1001
ACAD
1000
MTEXTBEGIN
1070
    73
1070
     1
1070
    44
1040
1.0
1070
    74
1070
     0
1000
MTEXTEND
  0
LINE
  5
1CC3
330
1763
100
AcDbEntity
  8
cotas
100
AcDbLine
 10
6518.508282713582
 20
2637.261286594575
 30
0.0
 11
6515.678224839262
 21
2641.383273060829
 31
0.0
  0
SOLID
  5
1CC4
330
1763
100
AcDbEntity
  8
cotas
100
AcDbTrace
 10
6514.821000787282
 20
2643.220738172286
 30
0.0
 11
6514.271402591782
 21
2642.843397122377
 31
0.0
 12
6515.678224839262
 22
2641.383273060829
 32
0.0
 13
6515.678224839262
 23
2641.383273060829
 33
0.0
  0
POINT
  5
1CC5
330
1763
100
AcDbEntity
  8
Defpoints
 62
     0
100
AcDbPoint
 10
6515.678224839262
 20
2641.383273060829
 30
0.0
  0
POINT
  5
1CC6
330
1763
100
AcDbEntity
  8
Defpoints
 62
     0
100
AcDbPoint
 10
6518.508282713582
 20
2637.261286594575
 30
0.0
  0
ENDBLK
  5
1765
330
1763
100
AcDbEntity
  8
0
100
AcDbBlockEnd
  0
BLOCK
  5
176D
330
176C
100
AcDbEntity
  8
0
100
AcDbBlockBegin
  2
*D71
 70
     1
 10
0.0
 20
0.0
 30
0.0
  3
*D71
  1

  0
LINE
  5
1CBB
330
176C
100
AcDbEntity
  8
cotas
100
AcDbLine
 10
6198.535743526931
 20
2638.160150836234
 30
0.0
 11
6194.086577034904
 21
2632.501719738649
 31
0.0
  0
MTEXT
  5
1CBC
330
176C
100
AcDbEntity
  8
cotas
100
AcDbMText
 10
6195.340698416202
 20
2637.366104710731
 30
0.0
 40
2.0
 41
0.0
 71
     5
 72
     1
  1
R5
  7
SANINDUSA
 11
0.6181012228613816
 21
0.7860985169158283
 31
0.0
 73
     1
 44
1.0
1001
ACAD
1000
MTEXTBEGIN
1070
    73
1070
     1
1070
    44
1040
1.0
1070
    74
1070
     0
1000
MTEXTEND
  0
LINE
  5
1CBD
330
176C
100
AcDbEntity
  8
cotas
100
AcDbLine
 10
6189.759868474876
 20
2626.99903012024
 30
0.0
 11
6192.850374589181
 21
2630.929522704816
 31
0.0
  0
SOLID
  5
1CBE
330
176C
100
AcDbEntity
  8
cotas
100
AcDbTrace
 10
6193.824544195932
 20
2632.707753479602
 30
0.0
 11
6194.348609873876
 21
2632.295685997695
 31
0.0
 12
6192.850374589181
 22
2630.929522704816
 32
0.0
 13
6192.850374589181
 23
2630.929522704816
 33
0.0
  0
POINT
  5
1CBF
330
176C
100
AcDbEntity
  8
Defpoints
 62
     0
100
AcDbPoint
 10
6192.850374589181
 20
2630.929522704816
 30
0.0
  0
POINT
  5
1CC0
330
176C
100
AcDbEntity
  8
Defpoints
 62
     0
100
AcDbPoint
 10
6189.759868474876
 20
2626.99903012024
 30
0.0
  0
ENDBLK
  5
176E
330
176C
100
AcDbEntity
  8
0
100
AcDbBlockEnd
  0
BLOCK
  5
1776
330
1775
100
AcDbEntity
  8
0
100
AcDbBlockBegin
  2
*D72
 70
     1
 10
0.0
 20
0.0
 30
0.0
  3
*D72
  1

  0
LINE
  5
1CB6
330
1775
100
AcDbEntity
  8
cotas
100
AcDbLine
 10
6154.680846831743
 20
2604.116430309774
 30
0.0
 11
6132.381863161896
 21
2629.242835923188
 31
0.0
  0
MTEXT
  5
1CB7
330
1775
100
AcDbEntity
  8
cotas
100
AcDbMText
 10
6154.467106631201
 20
2607.401721413419
 30
0.0
 40
2.0
 41
0.0
 71
     5
 72
     1
  1
R5
  7
SANINDUSA
 11
0.6637716741514149
 21
-0.7479352676496998
 31
0.0
 73
     1
 44
1.0
1001
ACAD
1000
MTEXTBEGIN
1070
    73
1070
     1
1070
    44
1040
1.0
1070
    74
1070
     0
1000
MTEXTEND
  0
SOLID
  5
1CB8
330
1775
100
AcDbEntity
  8
cotas
100
AcDbTrace
 10
6132.63117491778
 20
2629.464093147905
 30
0.0
 11
6132.132551406013
 21
2629.021578698472
 31
0.0
 12
6131.054319813594
 22
2630.738706458487
 32
0.0
 13
6131.054319813594
 23
2630.738706458487
 33
0.0
  0
POINT
  5
1CB9
330
1775
100
AcDbEntity
  8
Defpoints
 62
     0
100
AcDbPoint
 10
6131.054319813594
 20
2630.738706458487
 30
0.0
  0
POINT
  5
1CBA
330
1775
100
AcDbEntity
  8
Defpoints
 62
     0
100
AcDbPoint
 10
6134.373178184351
 20
2626.999030120238
 30
0.0
  0
ENDBLK
  5
1777
330
1775
100
AcDbEntity
  8
0
100
AcDbBlockEnd
  0
BLOCK
  5
177E
330
177D
100
AcDbEntity
  8
0
100
AcDbBlockBegin
  2
*D73
 70
     1
 10
0.0
 20
0.0
 30
0.0
  3
*D73
  1

  0
LINE
  5
1CB0
330
177D
100
AcDbEntity
  8
cotas
100
AcDbLine
 10
6094.408340955631
 20
2571.701184191466
 30
0.0
 11
6098.441707899463
 21
2577.682586812545
 31
0.0
  0
MTEXT
  5
1CB1
330
177D
100
AcDbEntity
  8
cotas
100
AcDbMText
 10
6094.190456947916
 20
2574.992583010031
 30
0.0
 40
2.0
 41
0.0
 71
     5
 72
     1
  1
R2
  7
SANINDUSA
 11
0.5590842840594056
 21
0.8291108269210949
 31
0.0
 73
     1
 44
1.0
1001
ACAD
1000
MTEXTBEGIN
1070
    73
1070
     1
1070
    44
1040
1.0
1070
    74
1070
     0
1000
MTEXTEND
  0
LINE
  5
1CB2
330
177D
100
AcDbEntity
  8
cotas
100
AcDbLine
 10
6100.678045035702
 20
2580.999030120232
 30
0.0
 11
6099.559876467582
 21
2579.340808466387
 31
0.0
  0
SOLID
  5
1CB3
330
177D
100
AcDbEntity
  8
cotas
100
AcDbTrace
 10
6098.165337623822
 20
2577.868948240566
 30
0.0
 11
6098.718078175103
 21
2577.496225384526
 31
0.0
 12
6099.559876467582
 22
2579.340808466387
 32
0.0
 13
6099.559876467582
 23
2579.340808466387
 33
0.0
  0
POINT
  5
1CB4
330
177D
100
AcDbEntity
  8
Defpoints
 62
     0
100
AcDbPoint
 10
6099.559876467582
 20
2579.340808466387
 30
0.0
  0
POINT
  5
1CB5
330
177D
100
AcDbEntity
  8
Defpoints
 62
     0
100
AcDbPoint
 10
6100.678045035702
 20
2580.999030120232
 30
0.0
  0
ENDBLK
  5
177F
330
177D
100
AcDbEntity
  8
0
100
AcDbBlockEnd
  0
BLOCK
  5
1787
330
1786
100
AcDbEntity
  8
0
100
AcDbBlockBegin
  2
*D74
 70
     1
 10
0.0
 20
0.0
 30
0.0
  3
*D74
  1

  0
LINE
  5
17ED
330
1786
100
AcDbEntity
  8
cotas
100
AcDbLine
 10
3972.404430225628
 20
2504.499241061621
 30
0.0
 11
3940.395934853583
 21
2482.426670756425
 31
0.0
  0
MTEXT
  5
17EE
330
1786
100
AcDbEntity
  8
cotas
100
AcDbMText
 10
3968.380756543116
 20
2504.203765850272
 30
0.0
 40
2.0
 41
0.0
 71
     5
 72
     1
  1
R40
  7
SANINDUSA
 11
0.8232398799352948
 21
0.5676936674687518
 31
0.0
 73
     1
 44
1.0
1001
ACAD
1000
MTEXTBEGIN
1070
    73
1070
     1
1070
    44
1040
1.0
1070
    74
1070
     0
1000
MTEXTEND
  0
SOLID
  5
17EF
330
1786
100
AcDbEntity
  8
cotas
100
AcDbTrace
 10
3940.206703631094
 20
2482.701084049736
 30
0.0
 11
3940.585166076073
 21
2482.152257463113
 31
0.0
 12
3938.749455093713
 22
2481.291283421487
 32
0.0
 13
3938.749455093713
 23
2481.291283421487
 33
0.0
  0
POINT
  5
17F0
330
1786
100
AcDbEntity
  8
Defpoints
 62
     0
100
AcDbPoint
 10
3938.749455093713
 20
2481.291283421487
 30
0.0
  0
POINT
  5
17F1
330
1786
100
AcDbEntity
  8
Defpoints
 62
     0
100
AcDbPoint
 10
3971.679050291126
 20
2503.999030120239
 30
0.0
  0
ENDBLK
  5
1788
330
1786
100
AcDbEntity
  8
0
100
AcDbBlockEnd
  0
BLOCK
  5
178F
330
178E
100
AcDbEntity
  8
0
100
AcDbBlockBegin
  2
*D75
 70
     1
 10
0.0
 20
0.0
 30
0.0
  3
*D75
  1

  0
LINE
  5
17F2
330
178E
100
AcDbEntity
  8
cotas
100
AcDbLine
 10
4384.360264454122
 20
2649.472554163327
 30
0.0
 11
4378.981573751896
 21
2644.664757105542
 31
0.0
  0
MTEXT
  5
17F3
330
178E
100
AcDbEntity
  8
cotas
100
AcDbMText
 10
4381.069746985038
 20
2649.241741665159
 30
0.0
 40
2.0
 41
0.0
 71
     5
 72
     1
  1
R2
  7
SANINDUSA
 11
0.7455660450208796
 21
0.6664317463266017
 31
0.0
 73
     1
 44
1.0
1001
ACAD
1000
MTEXTBEGIN
1070
    73
1070
     1
1070
    44
1040
1.0
1070
    74
1070
     0
1000
MTEXTEND
  0
LINE
  5
17F4
330
178E
100
AcDbEntity
  8
cotas
100
AcDbLine
 10
4375.999309571817
 20
2641.99903012024
 30
0.0
 11
4377.490441661854
 21
2643.33189361289
 31
0.0
  0
SOLID
  5
17F5
330
178E
100
AcDbEntity
  8
cotas
100
AcDbTrace
 10
4378.759429836454
 20
2644.91327912055
 30
0.0
 11
4379.20371766734
 21
2644.416235090536
 31
0.0
 12
4377.490441661854
 22
2643.33189361289
 32
0.0
 13
4377.490441661854
 23
2643.33189361289
 33
0.0
  0
POINT
  5
17F6
330
178E
100
AcDbEntity
  8
Defpoints
 62
     0
100
AcDbPoint
 10
4377.490441661854
 20
2643.33189361289
 30
0.0
  0
POINT
  5
17F7
330
178E
100
AcDbEntity
  8
Defpoints
 62
     0
100
AcDbPoint
 10
4375.999309571817
 20
2641.99903012024
 30
0.0
  0
ENDBLK
  5
1790
330
178E
100
AcDbEntity
  8
0
100
AcDbBlockEnd
  0
BLOCK
  5
1798
330
1797
100
AcDbEntity
  8
0
100
AcDbBlockBegin
  2
*D76
 70
     1
 10
0.0
 20
0.0
 30
0.0
  3
*D76
  1

  0
LINE
  5
17E8
330
1797
100
AcDbEntity
  8
cotas
100
AcDbLine
 10
3969.778771973227
 20
2603.488724070951
 30
0.0
 11
3938.082078836122
 21
2626.006756401334
 31
0.0
  0
MTEXT
  5
17E9
330
1797
100
AcDbEntity
  8
cotas
100
AcDbMText
 10
3968.123678810129
 20
2607.168115613765
 30
0.0
 40
2.0
 41
0.0
 71
     5
 72
     1
  1
R40
  7
SANINDUSA
 11
0.8152205078444952
 21
-0.5791506916077742
 31
0.0
 73
     1
 44
1.0
1001
ACAD
1000
MTEXTBEGIN
1070
    73
1070
     1
1070
    44
1040
1.0
1070
    74
1070
     0
1000
MTEXTEND
  0
SOLID
  5
17EA
330
1797
100
AcDbEntity
  8
cotas
100
AcDbTrace
 10
3938.275129066658
 20
2626.278496570615
 30
0.0
 11
3937.889028605587
 21
2625.735016232053
 31
0.0
 12
3936.451637820433
 22
2627.16505778455
 32
0.0
 13
3936.451637820433
 23
2627.16505778455
 33
0.0
  0
POINT
  5
17EB
330
1797
100
AcDbEntity
  8
Defpoints
 62
     0
100
AcDbPoint
 10
3936.451637820433
 20
2627.16505778455
 30
0.0
  0
POINT
  5
17EC
330
1797
100
AcDbEntity
  8
Defpoints
 62
     0
100
AcDbPoint
 10
3969.060458134214
 20
2603.999030120239
 30
0.0
  0
ENDBLK
  5
1799
330
1797
100
AcDbEntity
  8
0
100
AcDbBlockEnd
  0
BLOCK
  5
17A0
330
179F
100
AcDbEntity
  8
0
100
AcDbBlockBegin
  2
*D77
 70
     1
 10
0.0
 20
0.0
 30
0.0
  3
*D77
  1

  0
LINE
  5
17A2
330
179F
100
AcDbEntity
  8
cotas
100
AcDbLine
 10
4739.895997481901
 20
2463.999030120239
 30
0.0
 11
4701.519681479938
 21
2463.999030120239
 31
0.0
  0
LINE
  5
17A3
330
179F
100
AcDbEntity
  8
cotas
100
AcDbLine
 10
4739.895997481901
 20
2466.999030120238
 30
0.0
 11
4701.519681479938
 21
2466.999030120238
 31
0.0
  0
LINE
  5
17A4
330
179F
100
AcDbEntity
  8
cotas
100
AcDbLine
 10
4702.519681479938
 20
2461.999030120239
 30
0.0
 11
4702.519681479938
 21
2459.999030120239
 31
0.0
  0
LINE
  5
17A5
330
179F
100
AcDbEntity
  8
cotas
100
AcDbLine
 10
4702.519681479938
 20
2468.999030120238
 30
0.0
 11
4702.519681479938
 21
2474.316692981219
 31
0.0
  0
LINE
  5
17A6
330
179F
100
AcDbEntity
  8
cotas
100
AcDbLine
 10
4702.519681479938
 20
2463.999030120239
 30
0.0
 11
4702.519681479938
 21
2466.999030120238
 31
0.0
  0
SOLID
  5
17A7
330
179F
100
AcDbEntity
  8
cotas
100
AcDbTrace
 10
4702.186348146605
 20
2461.999030120239
 30
0.0
 11
4702.853014813271
 21
2461.999030120239
 31
0.0
 12
4702.519681479938
 22
2463.999030120239
 32
0.0
 13
4702.519681479938
 23
2463.999030120239
 33
0.0
  0
SOLID
  5
17A8
330
179F
100
AcDbEntity
  8
cotas
100
AcDbTrace
 10
4702.186348146605
 20
2468.999030120238
 30
0.0
 11
4702.853014813271
 21
2468.999030120238
 31
0.0
 12
4702.519681479938
 22
2466.999030120238
 32
0.0
 13
4702.519681479938
 23
2466.999030120238
 33
0.0
  0
MTEXT
  5
17A9
330
179F
100
AcDbEntity
  8
cotas
100
AcDbMText
 10
4700.478042796257
 20
2472.657861550729
 30
0.0
 40
2.0
 41
0.0
 71
     5
 72
     1
  1
3
  7
SANINDUSA
 11
0.0000000000000001
 21
1.0
 31
0.0
 73
     1
 44
1.0
1001
ACAD
1000
MTEXTBEGIN
1070
    73
1070
     1
1070
    44
1040
1.0
1070
    74
1070
     0
1000
MTEXTEND
  0
POINT
  5
17AA
330
179F
100
AcDbEntity
  8
Defpoints
 62
     0
100
AcDbPoint
 10
4740.895997481901
 20
2463.999030120239
 30
0.0
  0
POINT
  5
17AB
330
179F
100
AcDbEntity
  8
Defpoints
 62
     0
100
AcDbPoint
 10
4740.895997481901
 20
2466.999030120238
 30
0.0
  0
POINT
  5
17AC
330
179F
100
AcDbEntity
  8
Defpoints
 62
     0
100
AcDbPoint
 10
4702.519681479938
 20
2466.999030120238
 30
0.0
  0
ENDBLK
  5
17A1
330
179F
100
AcDbEntity
  8
0
100
AcDbBlockEnd
  0
BLOCK
  5
17AE
330
17AD
100
AcDbEntity
  8
0
100
AcDbBlockBegin
  2
*D78
 70
     1
 10
0.0
 20
0.0
 30
0.0
  3
*D78
  1

  0
LINE
  5
17B0
330
17AD
100
AcDbEntity
  8
cotas
100
AcDbLine
 10
3955.480366137564
 20
2463.999030120239
 30
0.0
 11
3917.981239577596
 21
2463.999030120239
 31
0.0
  0
LINE
  5
17B1
330
17AD
100
AcDbEntity
  8
cotas
100
AcDbLine
 10
3955.480366137564
 20
2466.999030120235
 30
0.0
 11
3917.981239577596
 21
2466.999030120235
 31
0.0
  0
LINE
  5
17B2
330
17AD
100
AcDbEntity
  8
cotas
100
AcDbLine
 10
3918.981239577595
 20
2461.999030120239
 30
0.0
 11
3918.981239577595
 21
2459.999030120239
 31
0.0
  0
LINE
  5
17B3
330
17AD
100
AcDbEntity
  8
cotas
100
AcDbLine
 10
3918.981239577595
 20
2468.999030120235
 30
0.0
 11
3918.981239577595
 21
2474.316692981215
 31
0.0
  0
LINE
  5
17B4
330
17AD
100
AcDbEntity
  8
cotas
100
AcDbLine
 10
3918.981239577595
 20
2463.999030120239
 30
0.0
 11
3918.981239577595
 21
2466.999030120235
 31
0.0
  0
SOLID
  5
17B5
330
17AD
100
AcDbEntity
  8
cotas
100
AcDbTrace
 10
3918.647906244262
 20
2461.999030120239
 30
0.0
 11
3919.314572910929
 21
2461.999030120239
 31
0.0
 12
3918.981239577595
 22
2463.999030120239
 32
0.0
 13
3918.981239577595
 23
2463.999030120239
 33
0.0
  0
SOLID
  5
17B6
330
17AD
100
AcDbEntity
  8
cotas
100
AcDbTrace
 10
3918.647906244262
 20
2468.999030120235
 30
0.0
 11
3919.314572910929
 21
2468.999030120235
 31
0.0
 12
3918.981239577595
 22
2466.999030120235
 32
0.0
 13
3918.981239577595
 23
2466.999030120235
 33
0.0
  0
MTEXT
  5
17B7
330
17AD
100
AcDbEntity
  8
cotas
100
AcDbMText
 10
3916.939600893915
 20
2472.657861550726
 30
0.0
 40
2.0
 41
0.0
 71
     5
 72
     1
  1
3
  7
SANINDUSA
 11
0.0000000000000001
 21
1.0
 31
0.0
 73
     1
 44
1.0
1001
ACAD
1000
MTEXTBEGIN
1070
    73
1070
     1
1070
    44
1040
1.0
1070
    74
1070
     0
1000
MTEXTEND
  0
POINT
  5
17B8
330
17AD
100
AcDbEntity
  8
Defpoints
 62
     0
100
AcDbPoint
 10
3956.480366137565
 20
2463.999030120239
 30
0.0
  0
POINT
  5
17B9
330
17AD
100
AcDbEntity
  8
Defpoints
 62
     0
100
AcDbPoint
 10
3956.480366137565
 20
2466.999030120235
 30
0.0
  0
POINT
  5
17BA
330
17AD
100
AcDbEntity
  8
Defpoints
 62
     0
100
AcDbPoint
 10
3918.981239577595
 20
2466.999030120235
 30
0.0
  0
ENDBLK
  5
17AF
330
17AD
100
AcDbEntity
  8
0
100
AcDbBlockEnd
  0
BLOCK
  5
17BC
330
17BB
100
AcDbEntity
  8
0
100
AcDbBlockBegin
  2
*D79
 70
     1
 10
0.0
 20
0.0
 30
0.0
  3
*D79
  1

  0
LINE
  5
1A82
330
17BB
100
AcDbEntity
  8
cotas
100
AcDbLine
 10
4203.125242470175
 20
2710.665350415396
 30
0.0
 11
4211.270164439247
 21
2706.148270432874
 31
0.0
  0
LINE
  5
1A83
330
17BB
100
AcDbEntity
  8
cotas
100
AcDbLine
 10
4245.376291037605
 20
2687.233405155615
 30
0.0
 11
4247.125323170855
 21
2686.263412064473
 31
0.0
  0
MTEXT
  5
1A84
102
{ACAD_XDICTIONARY
360
1E3E
102
}
330
17BB
100
AcDbEntity
  8
cotas
100
AcDbMText
 10
4207.380473343039
 20
2710.798240248593
 30
0.0
 40
2.0
 41
0.0
 71
     5
 72
     1
  1
\U+220535
  7
SANINDUSA
 11
0.8745160666245489
 21
-0.4849965455707161
 31
0.0
 73
     1
 44
1.0
1001
ACAD
1000
MTEXTBEGIN
1070
    73
1070
     1
1070
    44
1040
1.0
1070
    74
1070
     0
1000
MTEXTEND
  0
LINE
  5
1A85
330
17BB
100
AcDbEntity
  8
cotas
100
AcDbLine
 10
4243.627258904356
 20
2688.203398246756
 30
0.0
 11
4213.019196572497
 21
2705.178277341733
 31
0.0
  0
SOLID
  5
1A86
330
17BB
100
AcDbEntity
  8
cotas
100
AcDbTrace
 10
4245.537956552795
 20
2687.524910511156
 30
0.0
 11
4245.214625522416
 21
2686.941899800074
 31
0.0
 12
4243.627258904356
 22
2688.203398246756
 32
0.0
 13
4243.627258904356
 23
2688.203398246756
 33
0.0
  0
SOLID
  5
1A87
330
17BB
100
AcDbEntity
  8
cotas
100
AcDbTrace
 10
4211.431829954437
 20
2706.439775788415
 30
0.0
 11
4211.108498924057
 21
2705.856765077333
 31
0.0
 12
4213.019196572497
 22
2705.178277341733
 32
0.0
 13
4213.019196572497
 23
2705.178277341733
 33
0.0
  0
POINT
  5
1A88
330
17BB
100
AcDbEntity
  8
Defpoints
 62
     0
100
AcDbPoint
 10
4213.019196572497
 20
2705.178277341733
 30
0.0
  0
POINT
  5
1A89
330
17BB
100
AcDbEntity
  8
Defpoints
 62
     0
100
AcDbPoint
 10
4243.627258904356
 20
2688.203398246756
 30
0.0
  0
ENDBLK
  5
17BD
330
17BB
100
AcDbEntity
  8
0
100
AcDbBlockEnd
  0
BLOCK
  5
17C7
330
17C6
100
AcDbEntity
  8
0
100
AcDbBlockBegin
  2
*D80
 70
     1
 10
0.0
 20
0.0
 30
0.0
  3
*D80
  1

  0
LINE
  5
1A7D
330
17C6
100
AcDbEntity
  8
cotas
100
AcDbLine
 10
4054.620653891344
 20
2419.132644214163
 30
0.0
 11
4000.511861106814
 21
2367.332300258785
 31
0.0
  0
MTEXT
  5
1A7E
330
17C6
100
AcDbEntity
  8
cotas
100
AcDbMText
 10
4048.911384131993
 20
2416.81131226375
 30
0.0
 40
2.0
 41
0.0
 71
     5
 72
     1
  1
R178,9
  7
SANINDUSA
 11
0.7223476675312693
 21
0.6915300768673297
 31
0.0
 73
     1
 44
1.0
1001
ACAD
1000
MTEXTBEGIN
1070
    73
1070
     1
1070
    44
1040
1.0
1070
    74
1070
     0
1000
MTEXTEND
  0
SOLID
  5
1A7F
330
17C6
100
AcDbEntity
  8
cotas
100
AcDbTrace
 10
4000.281351081192
 20
2367.573082814629
 30
0.0
 11
4000.742371132437
 21
2367.091517702942
 31
0.0
 12
3999.067165771753
 22
2365.949240105051
 32
0.0
 13
3999.067165771753
 23
2365.949240105051
 33
0.0
  0
POINT
  5
1A80
330
17C6
100
AcDbEntity
  8
Defpoints
 62
     0
100
AcDbPoint
 10
3999.067165771753
 20
2365.949240105051
 30
0.0
  0
POINT
  5
1A81
330
17C6
100
AcDbEntity
  8
Defpoints
 62
     0
100
AcDbPoint
 10
4128.323227738427
 20
2489.690837794245
 30
0.0
  0
ENDBLK
  5
17C8
330
17C6
100
AcDbEntity
  8
0
100
AcDbBlockEnd
  0
BLOCK
  5
17CF
330
17CE
100
AcDbEntity
  8
0
100
AcDbBlockBegin
  2
*D81
 70
     1
 10
0.0
 20
0.0
 30
0.0
  3
*D81
  1

  0
LINE
  5
1A78
330
17CE
100
AcDbEntity
  8
cotas
100
AcDbLine
 10
4032.156924745965
 20
2685.465512352601
 30
0.0
 11
3964.756260607694
 21
2707.206020397605
 31
0.0
  0
MTEXT
  5
1A79
330
17CE
100
AcDbEntity
  8
cotas
100
AcDbMText
 10
4027.401470344744
 20
2689.38597108175
 30
0.0
 40
2.0
 41
0.0
 71
     5
 72
     1
  1
R278,9
  7
SANINDUSA
 11
0.9517153904645361
 21
-0.3069817837477258
 31
0.0
 73
     1
 44
1.0
1001
ACAD
1000
MTEXTBEGIN
1070
    73
1070
     1
1070
    44
1040
1.0
1070
    74
1070
     0
1000
MTEXTEND
  0
SOLID
  5
1A7A
330
17CE
100
AcDbEntity
  8
cotas
100
AcDbTrace
 10
3964.858587868943
 20
2707.523258861093
 30
0.0
 11
3964.653933346445
 21
2706.888781934116
 31
0.0
 12
3962.852829826765
 22
2707.8199839651
 32
0.0
 13
3962.852829826765
 23
2707.8199839651
 33
0.0
  0
POINT
  5
1A7B
330
17CE
100
AcDbEntity
  8
Defpoints
 62
     0
100
AcDbPoint
 10
3962.852829826765
 20
2707.8199839651
 30
0.0
  0
POINT
  5
1A7C
330
17CE
100
AcDbEntity
  8
Defpoints
 62
     0
100
AcDbPoint
 10
4228.323227738425
 20
2622.190837794244
 30
0.0
  0
ENDBLK
  5
17D0
330
17CE
100
AcDbEntity
  8
0
100
AcDbBlockEnd
  0
BLOCK
  5
185F
330
185E
100
AcDbEntity
  8
0
100
AcDbBlockBegin
  2
*D82
 70
     1
 10
0.0
 20
0.0
 30
0.0
  3
*D82
  1

  0
LINE
  5
18BA
330
185E
100
AcDbEntity
  8
cotas
100
AcDbLine
 10
5447.073320126225
 20
2642.999030120241
 30
0.0
 11
5447.073320126225
 21
2670.999037272798
 31
0.0
  0
LINE
  5
18BB
330
185E
100
AcDbEntity
  8
cotas
100
AcDbLine
 10
5895.998464562848
 20
2603.951952187927
 30
0.0
 11
5895.998464562848
 21
2670.999037272798
 31
0.0
  0
LINE
  5
18BC
330
185E
100
AcDbEntity
  8
cotas
100
AcDbLine
 10
5449.073320126224
 20
2669.999037272798
 30
0.0
 11
5893.998464562848
 21
2669.999037272798
 31
0.0
  0
SOLID
  5
18BD
330
185E
100
AcDbEntity
  8
cotas
100
AcDbTrace
 10
5449.073320126224
 20
2670.332370606132
 30
0.0
 11
5449.073320126224
 21
2669.665703939465
 31
0.0
 12
5447.073320126225
 22
2669.999037272798
 32
0.0
 13
5447.073320126225
 23
2669.999037272798
 33
0.0
  0
SOLID
  5
18BE
330
185E
100
AcDbEntity
  8
cotas
100
AcDbTrace
 10
5893.998464562848
 20
2670.332370606132
 30
0.0
 11
5893.998464562848
 21
2669.665703939465
 31
0.0
 12
5895.998464562848
 22
2669.999037272798
 32
0.0
 13
5895.998464562848
 23
2669.999037272798
 33
0.0
  0
MTEXT
  5
18BF
330
185E
100
AcDbEntity
  8
cotas
100
AcDbMText
 10
5671.535892344536
 20
2672.270360308393
 30
0.0
 40
2.0
 41
0.0
 71
     5
 72
     1
  1
448,9
  7
SANINDUSA
 73
     1
 44
1.0
1001
ACAD
1000
MTEXTBEGIN
1070
    73
1070
     1
1070
    44
1040
1.0
1070
    74
1070
     0
1000
MTEXTEND
  0
POINT
  5
18C0
330
185E
100
AcDbEntity
  8
Defpoints
 62
     0
100
AcDbPoint
 10
5447.073320126225
 20
2641.999030120241
 30
0.0
  0
POINT
  5
18C1
330
185E
100
AcDbEntity
  8
Defpoints
 62
     0
100
AcDbPoint
 10
5895.998464562848
 20
2602.951952187927
 30
0.0
  0
POINT
  5
18C2
330
185E
100
AcDbEntity
  8
Defpoints
 62
     0
100
AcDbPoint
 10
5895.998464562848
 20
2669.999037272798
 30
0.0
  0
ENDBLK
  5
1860
330
185E
100
AcDbEntity
  8
0
100
AcDbBlockEnd
  0
BLOCK
  5
186B
330
186A
100
AcDbEntity
  8
0
100
AcDbBlockBegin
  2
*D83
 70
     1
 10
0.0
 20
0.0
 30
0.0
  3
*D83
  1

  0
LINE
  5
18C3
330
186A
100
AcDbEntity
  8
cotas
100
AcDbLine
 10
5448.073326086689
 20
2643.999037272796
 30
0.0
 11
5415.573320126225
 21
2643.999037272796
 31
0.0
  0
LINE
  5
18C4
330
186A
100
AcDbEntity
  8
cotas
100
AcDbLine
 10
5638.073320126224
 20
2456.999030120241
 30
0.0
 11
5415.573320126225
 21
2456.999030120241
 31
0.0
  0
LINE
  5
18C5
330
186A
100
AcDbEntity
  8
cotas
100
AcDbLine
 10
5416.573320126225
 20
2641.999037272797
 30
0.0
 11
5416.573320126225
 21
2458.999030120241
 31
0.0
  0
SOLID
  5
18C6
330
186A
100
AcDbEntity
  8
cotas
100
AcDbTrace
 10
5416.239986792891
 20
2641.999037272797
 30
0.0
 11
5416.906653459558
 21
2641.999037272797
 31
0.0
 12
5416.573320126225
 22
2643.999037272796
 32
0.0
 13
5416.573320126225
 23
2643.999037272796
 33
0.0
  0
SOLID
  5
18C7
330
186A
100
AcDbEntity
  8
cotas
100
AcDbTrace
 10
5416.239986792891
 20
2458.999030120241
 30
0.0
 11
5416.906653459558
 21
2458.999030120241
 31
0.0
 12
5416.573320126225
 22
2456.999030120241
 32
0.0
 13
5416.573320126225
 23
2456.999030120241
 33
0.0
  0
MTEXT
  5
18C8
330
186A
100
AcDbEntity
  8
cotas
100
AcDbMText
 10
5414.52765189251
 20
2550.49903369652
 30
0.0
 40
2.0
 41
0.0
 71
     5
 72
     1
  1
187
  7
SANINDUSA
 11
0.0000000000000001
 21
1.0
 31
0.0
 73
     1
 44
1.0
1001
ACAD
1000
MTEXTBEGIN
1070
    73
1070
     1
1070
    44
1040
1.0
1070
    74
1070
     0
1000
MTEXTEND
  0
POINT
  5
18C9
330
186A
100
AcDbEntity
  8
Defpoints
 62
     0
100
AcDbPoint
 10
5449.073326086689
 20
2643.999037272796
 30
0.0
  0
POINT
  5
18CA
330
186A
100
AcDbEntity
  8
Defpoints
 62
     0
100
AcDbPoint
 10
5639.073320126225
 20
2456.999030120241
 30
0.0
  0
POINT
  5
18CB
330
186A
100
AcDbEntity
  8
Defpoints
 62
     0
100
AcDbPoint
 10
5416.573320126225
 20
2456.999030120241
 30
0.0
  0
ENDBLK
  5
186C
330
186A
100
AcDbEntity
  8
0
100
AcDbBlockEnd
  0
BLOCK
  5
1889
330
1888
100
AcDbEntity
  8
0
100
AcDbBlockBegin
  2
*D84
 70
     1
 10
0.0
 20
0.0
 30
0.0
  3
*D84
  1

  0
LINE
  5
18CC
330
1888
100
AcDbEntity
  8
cotas
100
AcDbLine
 10
5852.668199472413
 20
2504.499241061623
 30
0.0
 11
5884.67669484446
 21
2482.426670756425
 31
0.0
  0
MTEXT
  5
18CD
330
1888
100
AcDbEntity
  8
cotas
100
AcDbMText
 10
5856.691873154926
 20
2504.203765850272
 30
0.0
 40
2.0
 41
0.0
 71
     5
 72
     1
  1
R40
  7
SANINDUSA
 11
0.8232398799353038
 21
-0.5676936674687389
 31
0.0
 73
     1
 44
1.0
1001
ACAD
1000
MTEXTBEGIN
1070
    73
1070
     1
1070
    44
1040
1.0
1070
    74
1070
     0
1000
MTEXTEND
  0
SOLID
  5
18CE
330
1888
100
AcDbEntity
  8
cotas
100
AcDbTrace
 10
5884.86592606695
 20
2482.701084049737
 30
0.0
 11
5884.487463621971
 21
2482.152257463114
 31
0.0
 12
5886.323174604331
 22
2481.291283421488
 32
0.0
 13
5886.323174604331
 23
2481.291283421488
 33
0.0
  0
POINT
  5
18CF
330
1888
100
AcDbEntity
  8
Defpoints
 62
     0
100
AcDbPoint
 10
5886.323174604331
 20
2481.291283421488
 30
0.0
  0
POINT
  5
18D0
330
1888
100
AcDbEntity
  8
Defpoints
 62
     0
100
AcDbPoint
 10
5853.393579406916
 20
2503.999030120239
 30
0.0
  0
ENDBLK
  5
188A
330
1888
100
AcDbEntity
  8
0
100
AcDbBlockEnd
  0
BLOCK
  5
1891
330
1890
100
AcDbEntity
  8
0
100
AcDbBlockBegin
  2
*D85
 70
     1
 10
0.0
 20
0.0
 30
0.0
  3
*D85
  1

  0
LINE
  5
18EC
330
1890
100
AcDbEntity
  8
cotas
100
AcDbLine
 10
5440.712365243919
 20
2649.472554163327
 30
0.0
 11
5446.091055946145
 21
2644.664757105543
 31
0.0
  0
MTEXT
  5
18ED
330
1890
100
AcDbEntity
  8
cotas
100
AcDbMText
 10
5444.002882713005
 20
2649.24174166516
 30
0.0
 40
2.0
 41
0.0
 71
     5
 72
     1
  1
R2
  7
SANINDUSA
 11
0.7455660450208792
 21
-0.666431746326602
 31
0.0
 73
     1
 44
1.0
1001
ACAD
1000
MTEXTBEGIN
1070
    73
1070
     1
1070
    44
1040
1.0
1070
    74
1070
     0
1000
MTEXTEND
  0
LINE
  5
18EE
330
1890
100
AcDbEntity
  8
cotas
100
AcDbLine
 10
5449.073320126224
 20
2641.999030120241
 30
0.0
 11
5447.582188036188
 21
2643.33189361289
 31
0.0
  0
SOLID
  5
18EF
330
1890
100
AcDbEntity
  8
cotas
100
AcDbTrace
 10
5446.313199861587
 20
2644.91327912055
 30
0.0
 11
5445.868912030703
 21
2644.416235090537
 31
0.0
 12
5447.582188036188
 22
2643.33189361289
 32
0.0
 13
5447.582188036188
 23
2643.33189361289
 33
0.0
  0
POINT
  5
18F0
330
1890
100
AcDbEntity
  8
Defpoints
 62
     0
100
AcDbPoint
 10
5447.582188036188
 20
2643.33189361289
 30
0.0
  0
POINT
  5
18F1
330
1890
100
AcDbEntity
  8
Defpoints
 62
     0
100
AcDbPoint
 10
5449.073320126224
 20
2641.999030120241
 30
0.0
  0
ENDBLK
  5
1892
330
1890
100
AcDbEntity
  8
0
100
AcDbBlockEnd
  0
BLOCK
  5
189A
330
1899
100
AcDbEntity
  8
0
100
AcDbBlockBegin
  2
*D86
 70
     1
 10
0.0
 20
0.0
 30
0.0
  3
*D86
  1

  0
LINE
  5
18E7
330
1899
100
AcDbEntity
  8
cotas
100
AcDbLine
 10
5855.293857724813
 20
2603.488724070951
 30
0.0
 11
5886.990550861921
 21
2626.006756401336
 31
0.0
  0
MTEXT
  5
18E8
330
1899
100
AcDbEntity
  8
cotas
100
AcDbMText
 10
5856.948950887912
 20
2607.168115613764
 30
0.0
 40
2.0
 41
0.0
 71
     5
 72
     1
  1
R40
  7
SANINDUSA
 11
0.8152205078444957
 21
0.5791506916077735
 31
0.0
 73
     1
 44
1.0
1001
ACAD
1000
MTEXTBEGIN
1070
    73
1070
     1
1070
    44
1040
1.0
1070
    74
1070
     0
1000
MTEXTEND
  0
SOLID
  5
18E9
330
1899
100
AcDbEntity
  8
cotas
100
AcDbTrace
 10
5886.797500631385
 20
2626.278496570617
 30
0.0
 11
5887.183601092457
 21
2625.735016232054
 31
0.0
 12
5888.62099187761
 22
2627.165057784551
 32
0.0
 13
5888.62099187761
 23
2627.165057784551
 33
0.0
  0
POINT
  5
18EA
330
1899
100
AcDbEntity
  8
Defpoints
 62
     0
100
AcDbPoint
 10
5888.62099187761
 20
2627.165057784551
 30
0.0
  0
POINT
  5
18EB
330
1899
100
AcDbEntity
  8
Defpoints
 62
     0
100
AcDbPoint
 10
5856.012171563829
 20
2603.99903012024
 30
0.0
  0
ENDBLK
  5
189B
330
1899
100
AcDbEntity
  8
0
100
AcDbBlockEnd
  0
BLOCK
  5
18A2
330
18A1
100
AcDbEntity
  8
0
100
AcDbBlockBegin
  2
*D87
 70
     1
 10
0.0
 20
0.0
 30
0.0
  3
*D87
  1

  0
LINE
  5
18DC
330
18A1
100
AcDbEntity
  8
cotas
100
AcDbLine
 10
5869.592263560479
 20
2463.999030120239
 30
0.0
 11
5907.091390120448
 21
2463.999030120239
 31
0.0
  0
LINE
  5
18DD
330
18A1
100
AcDbEntity
  8
cotas
100
AcDbLine
 10
5869.592263560479
 20
2466.999030120235
 30
0.0
 11
5907.091390120448
 21
2466.999030120235
 31
0.0
  0
LINE
  5
18DE
330
18A1
100
AcDbEntity
  8
cotas
100
AcDbLine
 10
5906.091390120447
 20
2461.999030120239
 30
0.0
 11
5906.091390120447
 21
2459.999030120239
 31
0.0
  0
LINE
  5
18DF
330
18A1
100
AcDbEntity
  8
cotas
100
AcDbLine
 10
5906.091390120447
 20
2468.999030120235
 30
0.0
 11
5906.091390120447
 21
2474.316692981215
 31
0.0
  0
LINE
  5
18E0
330
18A1
100
AcDbEntity
  8
cotas
100
AcDbLine
 10
5906.091390120447
 20
2463.999030120239
 30
0.0
 11
5906.091390120447
 21
2466.999030120235
 31
0.0
  0
SOLID
  5
18E1
330
18A1
100
AcDbEntity
  8
cotas
100
AcDbTrace
 10
5905.758056787115
 20
2461.999030120239
 30
0.0
 11
5906.424723453781
 21
2461.999030120239
 31
0.0
 12
5906.091390120447
 22
2463.999030120239
 32
0.0
 13
5906.091390120447
 23
2463.999030120239
 33
0.0
  0
SOLID
  5
18E2
330
18A1
100
AcDbEntity
  8
cotas
100
AcDbTrace
 10
5905.758056787115
 20
2468.999030120235
 30
0.0
 11
5906.424723453781
 21
2468.999030120235
 31
0.0
 12
5906.091390120447
 22
2466.999030120235
 32
0.0
 13
5906.091390120447
 23
2466.999030120235
 33
0.0
  0
MTEXT
  5
18E3
330
18A1
100
AcDbEntity
  8
cotas
100
AcDbMText
 10
5904.049751436766
 20
2472.657861550727
 30
0.0
 40
2.0
 41
0.0
 71
     5
 72
     1
  1
3
  7
SANINDUSA
 11
0.0000000000000001
 21
1.0
 31
0.0
 73
     1
 44
1.0
1001
ACAD
1000
MTEXTBEGIN
1070
    73
1070
     1
1070
    44
1040
1.0
1070
    74
1070
     0
1000
MTEXTEND
  0
POINT
  5
18E4
330
18A1
100
AcDbEntity
  8
Defpoints
 62
     0
100
AcDbPoint
 10
5868.592263560478
 20
2463.999030120239
 30
0.0
  0
POINT
  5
18E5
330
18A1
100
AcDbEntity
  8
Defpoints
 62
     0
100
AcDbPoint
 10
5868.592263560478
 20
2466.999030120235
 30
0.0
  0
POINT
  5
18E6
330
18A1
100
AcDbEntity
  8
Defpoints
 62
     0
100
AcDbPoint
 10
5906.091390120447
 20
2466.999030120235
 30
0.0
  0
ENDBLK
  5
18A3
330
18A1
100
AcDbEntity
  8
0
100
AcDbBlockEnd
  0
BLOCK
  5
1D20
330
1D1F
100
AcDbEntity
  8
0
100
AcDbBlockBegin
  2
*D88
 70
     1
 10
0.0
 20
0.0
 30
0.0
  3
*D88
  1

  0
LINE
  5
1D2C
330
1D1F
100
AcDbEntity
  8
0
100
AcDbLine
 10
4713.47608947855
 20
2604.999030120239
 30
0.0
 11
4713.47608947855
 21
2759.910706585332
 31
0.0
  0
LINE
  5
1D2D
330
1D1F
100
AcDbEntity
  8
0
100
AcDbLine
 10
5271.340085352771
 20
2603.951952187921
 30
0.0
 11
5271.340085352771
 21
2759.910706585332
 31
0.0
  0
LINE
  5
1D2E
330
1D1F
100
AcDbEntity
  8
0
100
AcDbLine
 10
4715.47608947855
 20
2758.910706585333
 30
0.0
 11
5269.340085352771
 21
2758.910706585333
 31
0.0
  0
SOLID
  5
1D2F
330
1D1F
100
AcDbEntity
  8
0
100
AcDbTrace
 10
4715.47608947855
 20
2759.244039918666
 30
0.0
 11
4715.47608947855
 21
2758.577373251999
 31
0.0
 12
4713.47608947855
 22
2758.910706585333
 32
0.0
 13
4713.47608947855
 23
2758.910706585333
 33
0.0
  0
SOLID
  5
1D30
330
1D1F
100
AcDbEntity
  8
0
100
AcDbTrace
 10
5269.340085352771
 20
2759.244039918666
 30
0.0
 11
5269.340085352771
 21
2758.577373251999
 31
0.0
 12
5271.340085352771
 22
2758.910706585333
 32
0.0
 13
5271.340085352771
 23
2758.910706585333
 33
0.0
  0
MTEXT
  5
1D31
330
1D1F
100
AcDbEntity
  8
0
100
AcDbMText
 10
4992.408087415661
 20
2761.179343254238
 30
0.0
 40
2.0
 41
0.0
 71
     5
 72
     1
  1
557,9
  7
SANINDUSA
 73
     1
 44
1.0
1001
ACAD
1000
MTEXTBEGIN
1070
    73
1070
     1
1070
    44
1040
1.0
1070
    74
1070
     0
1000
MTEXTEND
  0
POINT
  5
1D32
330
1D1F
100
AcDbEntity
  8
Defpoints
 62
     0
100
AcDbPoint
 10
4713.47608947855
 20
2603.999030120239
 30
0.0
  0
POINT
  5
1D33
330
1D1F
100
AcDbEntity
  8
Defpoints
 62
     0
100
AcDbPoint
 10
5271.340085352771
 20
2602.95195218792
 30
0.0
  0
POINT
  5
1D34
330
1D1F
100
AcDbEntity
  8
Defpoints
 62
     0
100
AcDbPoint
 10
5271.340085352771
 20
2758.910706585333
 30
0.0
  0
ENDBLK
  5
1D21
330
1D1F
100
AcDbEntity
  8
0
100
AcDbBlockEnd
  0
ENDSEC
  0
SECTION
  2
ENTITIES
  0
LWPOLYLINE
  5
1422
330
1F
100
AcDbEntity
  8
SANINDUSA
100
AcDbPolyline
 90
       38
 70
   128
 43
0.0
 10
5270.961190523257
 20
2602.991515743199
 10
5270.958036573281
 20
2602.99154372758
 10
5270.951453404178
 20
2602.991580965582
 10
5270.944559225489
 20
2602.991617249909
 10
5270.937725672176
 20
2602.991650479499
 10
5270.930945248951
 20
2602.99168077356
 10
5270.924216093173
 20
2602.991708206597
 10
5270.917534814825
 20
2602.991732838217
 10
5270.910992251386
 20
2602.991754504505
 10
5270.904607640257
 20
2602.991773279968
 10
5270.898307354798
 20
2602.991789477531
 10
5270.8921130762
 20
2602.991803097192
 10
5270.886046485653
 20
2602.991814153853
 10
5270.880129368652
 20
2602.991822632614
 10
5270.874383689513
 20
2602.991828593079
 10
5270.868832559933
 20
2602.991832050148
 10
5270.863495470633
 20
2602.991833078328
 10
5270.858390571227
 20
2602.991831737224
 10
5270.853534387102
 20
2602.991828116242
 10
5270.84893797492
 20
2602.991822230283
 10
5270.844562740673
 20
2602.991814004842
 10
5270.840406687607
 20
2602.991803395215
 10
5270.836493195643
 20
2602.991790416304
 10
5270.832834230413
 20
2602.991775127712
 10
5270.829440937986
 20
2602.99175751454
 10
5270.82632355546
 20
2602.99173763639
 10
5270.82349126195
 20
2602.991715523068
 10
5270.820951999773
 20
2602.991691219274
 10
5270.818711580385
 20
2602.99166473991
 10
5270.816773818483
 20
2602.991636084977
 10
5270.815140621414
 20
2602.991605165068
 10
5270.813812868347
 20
2602.991572114292
 10
5270.812769503941
 20
2602.991536187593
 10
5270.811944158425
 20
2602.991491588417
 10
5270.811451928367
 20
2602.991444336835
 10
5270.811120422234
 20
2602.991393643085
 10
5270.810774864306
 20
2602.991319181982
 10
5270.810531885971
 20
2602.991247894827
  0
LWPOLYLINE
  5
1423
330
1F
100
AcDbEntity
  8
SANINDUSA
100
AcDbPolyline
 90
       39
 70
   128
 43
0.0
 10
5271.311801882138
 20
2602.991242604915
 10
5271.311458738198
 20
2602.991334783498
 10
5271.311164708485
 20
2602.991394581858
 10
5271.310892926206
 20
2602.991435917679
 10
5271.3106002674
 20
2602.991468253199
 10
5271.310167746296
 20
2602.991501020852
 10
5271.30929698204
 20
2602.991543176237
 10
5271.308209539999
 20
2602.991578700605
 10
5271.306749345412
 20
2602.991613569323
 10
5271.305008681168
 20
2602.99164484686
 10
5271.302975104799
 20
2602.991673039857
 10
5271.300668613662
 20
2602.991698595348
 10
5271.298063801278
 20
2602.991722005072
 10
5271.295158924212
 20
2602.991743313733
 10
5271.291959704509
 20
2602.991762461725
 10
5271.288474114289
 20
2602.991779419247
 10
5271.28471212243
 20
2602.991794126693
 10
5271.280685724367
 20
2602.991806509558
 10
5271.276410506715
 20
2602.99181655294
 10
5271.271901758065
 20
2602.991824227038
 10
5271.267175765385
 20
2602.991829502049
 10
5271.262249590506
 20
2602.991832377974
 10
5271.257140518774
 20
2602.991832869712
 10
5271.25184880351
 20
2602.991831066671
 10
5271.246336610665
 20
2602.99182693905
 10
5271.240610332837
 20
2602.991820367638
 10
5271.234685646047
 20
2602.99181127793
 10
5271.228579627027
 20
2602.991799580518
 10
5271.222310634007
 20
2602.991785215798
 10
5271.215898098102
 20
2602.991768094364
 10
5271.209362702121
 20
2602.991748201314
 10
5271.202727483263
 20
2602.991725477043
 10
5271.19601342236
 20
2602.991699921552
 10
5271.18924138104
 20
2602.991671505038
 10
5271.182431714287
 20
2602.991640257303
 10
5271.175612451186
 20
2602.991608964864
 10
5271.168946699848
 20
2602.991586493913
 10
5271.161953257074
 20
2602.991546633307
 10
5271.161129833807
 20
2602.991535859767
  0
LWPOLYLINE
  5
1424
330
1F
100
AcDbEntity
  8
SANINDUSA
100
AcDbPolyline
 90
       11
 70
   128
 43
0.0
 10
5271.161130169083
 20
2602.991535864154
 10
5271.153203719904
 20
2602.991480144325
 10
5271.14292140459
 20
2602.991450952951
 10
5271.124304631403
 20
2602.991386803452
 10
5271.098249343832
 20
2602.991309749547
 10
5271.063397646791
 20
2602.991261723105
 10
5271.025777948697
 20
2602.991305696431
 10
5270.988808722844
 20
2602.991419287983
 10
5270.971014694919
 20
2602.991473051373
 10
5270.962177971055
 20
2602.991522597733
 10
5270.961190791478
 20
2602.991534667674
  0
LINE
  5
1425
330
1F
100
AcDbEntity
  8
SANINDUSA
100
AcDbLine
 10
5271.025547789086
 20
2602.812999265853
 30
0.0
 11
5271.026160208335
 21
2602.805999265853
 31
0.0
  0
LINE
  5
1426
330
1F
100
AcDbEntity
  8
SANINDUSA
100
AcDbLine
 10
5271.096160208334
 20
2602.805999265853
 30
0.0
 11
5271.096772627583
 21
2602.812999265853
 31
0.0
  0
ARC
  5
142C
330
1F
100
AcDbEntity
  8
SANINDUSA
100
AcDbCircle
 10
5270.822221356898
 20
2602.952999265853
 30
0.0
 40
0.0400000000000001
100
AcDbArc
 50
107.0171792033369
 51
181.4999999971548
  0
ARC
  5
1430
330
1F
100
AcDbEntity
  8
SANINDUSA
100
AcDbCircle
 10
5271.300099059772
 20
2602.952999265853
 30
0.0
 40
0.0400000000000001
100
AcDbArc
 50
358.5000000028452
 51
72.98282079666304
  0
LINE
  5
1435
330
1F
100
AcDbEntity
  8
SANINDUSA
100
AcDbLine
 10
5270.782235063898
 20
2602.95195218792
 30
0.0
 11
5270.784853656055
 21
2602.851952187921
 31
0.0
  0
LINE
  5
1436
330
1F
100
AcDbEntity
  8
SANINDUSA
100
AcDbLine
 10
5271.340085352771
 20
2602.95195218792
 30
0.0
 11
5271.337466760614
 21
2602.851952187921
 31
0.0
  0
LINE
  5
1439
330
1F
100
AcDbEntity
  8
SANINDUSA
100
AcDbLine
 10
5270.8096412649
 20
2602.815999265853
 30
0.0
 11
5270.961160208334
 21
2602.815999265853
 31
0.0
  0
ARC
  5
143A
330
1F
100
AcDbEntity
  8
SANINDUSA
100
AcDbCircle
 10
5270.824839949054
 20
2602.852999265853
 30
0.0
 40
0.0400000000000001
100
AcDbArc
 50
181.4999999971548
 51
247.6683549794243
  0
LINE
  5
143C
330
1F
100
AcDbEntity
  8
SANINDUSA
100
AcDbLine
 10
5270.961160208334
 20
2602.815999265853
 30
0.0
 11
5271.161160208335
 21
2602.815999265853
 31
0.0
  0
ARC
  5
143D
330
1F
100
AcDbEntity
  8
SANINDUSA
100
AcDbCircle
 10
5271.297480467615
 20
2602.852999265853
 30
0.0
 40
0.04
100
AcDbArc
 50
292.3316450205756
 51
358.5000000028452
  0
LINE
  5
143E
330
1F
100
AcDbEntity
  8
SANINDUSA
100
AcDbLine
 10
5271.161160208335
 20
2602.815999265853
 30
0.0
 11
5271.312679151769
 21
2602.815999265853
 31
0.0
  0
LINE
  5
143F
330
1F
100
AcDbEntity
  8
SANINDUSA
100
AcDbLine
 10
5271.312679151769
 20
2602.815999265853
 30
0.0
 11
5271.312679151769
 21
2602.812999265853
 31
0.0
  0
LINE
  5
1440
330
1F
100
AcDbEntity
  8
SANINDUSA
100
AcDbLine
 10
5271.161160208335
 20
2602.812999265853
 30
0.0
 11
5271.312679151769
 21
2602.812999265853
 31
0.0
  0
LINE
  5
1443
330
1F
100
AcDbEntity
  8
SANINDUSA
100
AcDbLine
 10
5270.961160208334
 20
2602.812999265853
 30
0.0
 11
5271.161160208335
 21
2602.812999265853
 31
0.0
  0
LINE
  5
1444
330
1F
100
AcDbEntity
  8
SANINDUSA
100
AcDbLine
 10
5270.8096412649
 20
2602.815999265853
 30
0.0
 11
5270.8096412649
 21
2602.812999265853
 31
0.0
  0
LINE
  5
1445
330
1F
100
AcDbEntity
  8
SANINDUSA
100
AcDbLine
 10
5270.8096412649
 20
2602.812999265853
 30
0.0
 11
5270.961160208334
 21
2602.812999265853
 31
0.0
  0
ARC
  5
1446
330
1F
100
AcDbEntity
  8
SANINDUSA
100
AcDbCircle
 10
5271.300159217323
 20
2602.953408830617
 30
0.0
 40
0.0395904880911888
100
AcDbArc
 50
73.02255778595796
 51
90.08705821288286
  0
ARC
  5
1447
330
1F
100
AcDbEntity
  8
SANINDUSA
100
AcDbCircle
 10
5270.822038757735
 20
2602.954208110961
 30
0.0
 40
0.0387915918030402
100
AcDbArc
 50
89.73029975693105
 51
107.124128927279
  0
LINE
  5
1448
330
1F
100
AcDbEntity
  8
SANINDUSA
100
AcDbLine
 10
5271.026160208335
 20
2602.805999265853
 30
0.0
 11
5271.096160208334
 21
2602.805999265853
 31
0.0
  0
LINE
  5
1449
330
1F
100
AcDbEntity
  8
SANINDUSA
100
AcDbLine
 10
5270.822221356898
 20
2602.992999265853
 30
0.0
 11
5270.961110398681
 21
2602.992999265853
 31
0.0
  0
LINE
  5
144A
330
1F
100
AcDbEntity
  8
SANINDUSA
100
AcDbLine
 10
5271.161210019833
 20
2602.992999265853
 30
0.0
 11
5271.300099059772
 21
2602.992999265853
 31
0.0
  0
LINE
  5
144B
330
1F
100
AcDbEntity
  8
SANINDUSA
100
AcDbLine
 10
5271.061160208335
 20
2602.992999265853
 30
0.0
 11
5271.161210019833
 21
2602.992999265853
 31
0.0
  0
LINE
  5
144C
330
1F
100
AcDbEntity
  8
SANINDUSA
100
AcDbLine
 10
5270.961110398681
 20
2602.992999265853
 30
0.0
 11
5271.061160208335
 21
2602.992999265853
 31
0.0
  0
ARC
  5
1453
330
1F
100
AcDbEntity
  8
SANINDUSA
100
AcDbCircle
 10
5270.197068495157
 20
2602.838691073527
 30
0.0
 40
0.1789388514375978
100
AcDbArc
 50
180.0
 51
270.0
  0
ARC
  5
1454
330
1F
100
AcDbEntity
  8
SANINDUSA
100
AcDbCircle
 10
5270.397068495157
 20
2602.838691073527
 30
0.0
 40
0.1789388514375978
100
AcDbArc
 50
270.0
 51
0.0
  0
ARC
  5
1455
330
1F
100
AcDbEntity
  8
SANINDUSA
100
AcDbCircle
 10
5270.05554235227
 20
2603.106691079407
 30
0.0
 40
0.0019999922126284
100
AcDbArc
 50
89.99996784800172
 51
150.5982970154914
  0
ARC
  5
1456
330
1F
100
AcDbEntity
  8
SANINDUSA
100
AcDbCircle
 10
5270.297068495157
 20
2602.971191073527
 30
0.0
 40
0.2789388514375978
100
AcDbArc
 50
150.7059267282698
 51
180.0
  0
ARC
  5
1457
330
1F
100
AcDbEntity
  8
SANINDUSA
100
AcDbCircle
 10
5270.538594661047
 20
2603.106691116386
 30
0.0
 40
0.0019999552340291
100
AcDbArc
 50
30.43343522380183
 51
90.00069124190794
  0
ARC
  5
1458
330
1F
100
AcDbEntity
  8
SANINDUSA
100
AcDbCircle
 10
5270.297068495157
 20
2602.971191073527
 30
0.0
 40
0.2789388514375981
100
AcDbArc
 50
0.0
 51
29.30047662888986
  0
LINE
  5
1459
330
1F
100
AcDbEntity
  8
SANINDUSA
100
AcDbLine
 10
5270.01812964372
 20
2602.971191073527
 30
0.0
 11
5270.01812964372
 21
2602.838691073527
 31
0.0
  0
LINE
  5
145A
330
1F
100
AcDbEntity
  8
SANINDUSA
100
AcDbLine
 10
5270.576007346594
 20
2602.838691073527
 30
0.0
 11
5270.576007346594
 21
2602.971191073527
 31
0.0
  0
LINE
  5
145B
330
1F
100
AcDbEntity
  8
SANINDUSA
100
AcDbLine
 10
5270.197068495157
 20
2602.65975222209
 30
0.0
 11
5270.397068495157
 21
2602.65975222209
 31
0.0
  0
ARC
  5
1461
330
1F
100
AcDbEntity
  8
SANINDUSA
100
AcDbCircle
 10
5270.199215532814
 20
2602.841010147805
 30
0.0
 40
0.1464103703907887
100
AcDbArc
 50
180.8742518899341
 51
269.2005838803373
  0
ARC
  5
1465
330
1F
100
AcDbEntity
  8
SANINDUSA
100
AcDbCircle
 10
5270.394926703602
 20
2602.841004894846
 30
0.0
 40
0.1464050448410171
100
AcDbArc
 50
270.7973919103892
 51
359.1277723056293
  0
LINE
  5
1467
330
1F
100
AcDbEntity
  8
SANINDUSA
100
AcDbLine
 10
5270.055542259939
 20
2603.108691071617
 30
0.0
 11
5270.100265231143
 21
2603.108691073527
 31
0.0
  0
LINE
  5
146A
330
1F
100
AcDbEntity
  8
SANINDUSA
100
AcDbLine
 10
5270.49387175917
 20
2603.108691073527
 30
0.0
 11
5270.538594775409
 21
2603.108691071617
 31
0.0
  0
LWPOLYLINE
  5
146F
330
1F
100
AcDbEntity
  8
SANINDUSA
100
AcDbPolyline
 90
       15
 70
   128
 43
0.0
 10
5270.197068493667
 20
2602.983195466449
 10
5270.184548381569
 20
2602.982549188187
 10
5270.172082301083
 20
2602.980843564024
 10
5270.159802693727
 20
2602.978100863745
 10
5270.147841993573
 20
2602.974343379488
 10
5270.136249247792
 20
2602.969571535935
 10
5270.125062245729
 20
2602.963813064148
 10
5270.114400718215
 20
2602.957132769276
 10
5270.104384425881
 20
2602.949595426669
 10
5270.095137271884
 20
2602.941288856318
 10
5270.086603570582
 20
2602.932186634739
 10
5270.078882995846
 20
2602.922387426247
 10
5270.072075281145
 20
2602.911989880254
 10
5270.067476738098
 20
2602.903584418347
 10
5270.062763053777
 20
2602.893170854536
  0
LWPOLYLINE
  5
1471
330
1F
100
AcDbEntity
  8
SANINDUSA
100
AcDbPolyline
 90
       15
 70
   128
 43
0.0
 10
5270.531373936536
 20
2602.893170854536
 10
5270.525656718614
 20
2602.905525763978
 10
5270.518748912814
 20
2602.917295129498
 10
5270.51076157749
 20
2602.928321243723
 10
5270.503019723895
 20
2602.937204500188
 10
5270.494551095965
 20
2602.945454058697
 10
5270.485446531179
 20
2602.952997562935
 10
5270.475796822312
 20
2602.959762675216
 10
5270.46524259806
 20
2602.965927978506
 10
5270.454175937775
 20
2602.971216624131
 10
5270.442712817195
 20
2602.975580704858
 10
5270.430969212058
 20
2602.978972313454
 10
5270.419060353043
 20
2602.981365313282
 10
5270.40809829146
 20
2602.982688610901
 10
5270.397068496647
 20
2602.983195466449
  0
ARC
  5
1475
330
1F
100
AcDbEntity
  8
SANINDUSA
100
AcDbCircle
 10
5270.402093597278
 20
2602.841438646908
 30
0.0
 40
0.1392466424191426
100
AcDbArc
 50
358.9044255493553
 51
21.80907775988188
  0
ARC
  5
1478
330
1F
100
AcDbEntity
  8
SANINDUSA
100
AcDbCircle
 10
5270.192215824581
 20
2602.841407134319
 30
0.0
 40
0.1394184442583144
100
AcDbArc
 50
158.2052252803263
 51
181.081271395646
  0
LINE
  5
147A
330
1F
100
AcDbEntity
  8
SANINDUSA
100
AcDbLine
 10
5270.100265231143
 20
2603.108691073527
 30
0.0
 11
5270.49387175917
 21
2603.108691073527
 31
0.0
  0
CIRCLE
  5
1480
330
1F
100
AcDbEntity
  8
SANINDUSA
100
AcDbCircle
 10
5270.297068495157
 20
2603.045691073527
 30
0.0
 40
0.0175
  0
LWPOLYLINE
  5
1481
330
1F
100
AcDbEntity
  8
SANINDUSA
100
AcDbPolyline
 90
        3
 70
   128
 43
0.0
 10
5270.297068495157
 20
2602.983650302042
 10
5270.243467286082
 20
2602.983491127839
 10
5270.197068493667
 20
2602.983195466449
  0
LWPOLYLINE
  5
1483
330
1F
100
AcDbEntity
  8
SANINDUSA
100
AcDbPolyline
 90
        3
 70
   128
 43
0.0
 10
5270.397068496647
 20
2602.983195466449
 10
5270.343464422825
 20
2602.983528023114
 10
5270.297068495157
 20
2602.983650302042
  0
LWPOLYLINE
  5
1485
330
1F
100
AcDbEntity
  8
SANINDUSA
100
AcDbPolyline
 90
        7
 70
   128
 43
0.0
 10
5270.197172816697
 20
2602.694614028087
 10
5270.229628909233
 20
2602.694215645542
 10
5270.262091066541
 20
2602.693979030003
 10
5270.32703758389
 20
2602.693947201123
 10
5270.362001631262
 20
2602.694238176098
 10
5270.379484210018
 20
2602.694397141685
 10
5270.396964173618
 20
2602.694614028087
  0
SPLINE
  5
1486
330
1F
100
AcDbEntity
  8
SANINDUSA
100
AcDbSpline
210
0.0
220
0.0
230
1.0
 70
    11
 71
     3
 72
    70
 73
    66
 74
     0
 42
0.0000000001
 43
0.0000000001
 40
0.0
 40
0.0
 40
0.0
 40
0.0
 40
0.03125
 40
0.03125
 40
0.0625
 40
0.0625
 40
0.0937500000000001
 40
0.0937500000000001
 40
0.125
 40
0.125
 40
0.15625
 40
0.15625
 40
0.1875
 40
0.1875
 40
0.21875
 40
0.21875
 40
0.25
 40
0.25
 40
0.28125
 40
0.28125
 40
0.3124999999999999
 40
0.3124999999999999
 40
0.3437499999999999
 40
0.3437499999999999
 40
0.3749999999999998
 40
0.3749999999999998
 40
0.4062499999999999
 40
0.4062499999999999
 40
0.4374999999999999
 40
0.4374999999999999
 40
0.4687499999999999
 40
0.4687499999999999
 40
0.4999999999999999
 40
0.4999999999999999
 40
0.5312499999999999
 40
0.5312499999999999
 40
0.5624999999999999
 40
0.5624999999999999
 40
0.5937499999999999
 40
0.5937499999999999
 40
0.6249999999999999
 40
0.6249999999999999
 40
0.65625
 40
0.65625
 40
0.6875
 40
0.6875
 40
0.71875
 40
0.71875
 40
0.75
 40
0.75
 40
0.78125
 40
0.78125
 40
0.8124999999999998
 40
0.8124999999999998
 40
0.8437499999999998
 40
0.8437499999999998
 40
0.8749999999999998
 40
0.8749999999999998
 40
0.90625
 40
0.90625
 40
0.9375
 40
0.9375
 40
0.96875
 40
0.96875
 40
1.0
 40
1.0
 40
1.0
 40
1.0
 10
5270.297068495157
 20
2602.917691073527
 30
0.0
 10
5270.294712300666
 20
2602.917691073527
 30
0.0
 10
5270.292356164437
 20
2602.917459014363
 30
0.0
 10
5270.28773432269
 20
2602.91653967288
 30
0.0
 10
5270.285468731455
 20
2602.915852413293
 30
0.0
 10
5270.281115051727
 20
2602.914049060103
 30
0.0
 10
5270.279027070888
 20
2602.912933011092
 30
0.0
 10
5270.275108862649
 20
2602.910314948048
 30
0.0
 10
5270.273278732136
 20
2602.908812998752
 30
0.0
 10
5270.269946569932
 20
2602.905480836548
 30
0.0
 10
5270.268444620636
 20
2602.903650706035
 30
0.0
 10
5270.265826557592
 20
2602.899732497796
 30
0.0
 10
5270.26471050858
 20
2602.897644516956
 30
0.0
 10
5270.262907155391
 20
2602.893290837228
 30
0.0
 10
5270.262219895805
 20
2602.891025245993
 30
0.0
 10
5270.26130055432
 20
2602.886403404246
 30
0.0
 10
5270.261068495157
 20
2602.884047268017
 30
0.0
 10
5270.261068495157
 20
2602.879334879037
 30
0.0
 10
5270.26130055432
 20
2602.876978742808
 30
0.0
 10
5270.262219895805
 20
2602.872356901061
 30
0.0
 10
5270.262907155391
 20
2602.870091309826
 30
0.0
 10
5270.26471050858
 20
2602.865737630098
 30
0.0
 10
5270.265826557592
 20
2602.863649649258
 30
0.0
 10
5270.268444620636
 20
2602.859731441019
 30
0.0
 10
5270.269946569932
 20
2602.857901310506
 30
0.0
 10
5270.273278732136
 20
2602.854569148302
 30
0.0
 10
5270.275108862649
 20
2602.853067199006
 30
0.0
 10
5270.279027070888
 20
2602.850449135962
 30
0.0
 10
5270.281115051727
 20
2602.849333086951
 30
0.0
 10
5270.285468731455
 20
2602.847529733761
 30
0.0
 10
5270.28773432269
 20
2602.846842474174
 30
0.0
 10
5270.292356164437
 20
2602.845923132691
 30
0.0
 10
5270.294712300666
 20
2602.845691073527
 30
0.0
 10
5270.299424689647
 20
2602.845691073527
 30
0.0
 10
5270.301780825875
 20
2602.845923132691
 30
0.0
 10
5270.306402667623
 20
2602.846842474174
 30
0.0
 10
5270.308668258858
 20
2602.847529733761
 30
0.0
 10
5270.313021938585
 20
2602.849333086951
 30
0.0
 10
5270.315109919426
 20
2602.850449135962
 30
0.0
 10
5270.319028127665
 20
2602.853067199006
 30
0.0
 10
5270.320858258177
 20
2602.854569148302
 30
0.0
 10
5270.324190420382
 20
2602.857901310506
 30
0.0
 10
5270.325692369678
 20
2602.859731441019
 30
0.0
 10
5270.328310432722
 20
2602.863649649258
 30
0.0
 10
5270.329426481732
 20
2602.865737630098
 30
0.0
 10
5270.331229834922
 20
2602.870091309826
 30
0.0
 10
5270.33191709451
 20
2602.872356901061
 30
0.0
 10
5270.332836435994
 20
2602.876978742808
 30
0.0
 10
5270.333068495157
 20
2602.879334879037
 30
0.0
 10
5270.333068495157
 20
2602.884047268017
 30
0.0
 10
5270.332836435994
 20
2602.886403404246
 30
0.0
 10
5270.33191709451
 20
2602.891025245993
 30
0.0
 10
5270.331229834922
 20
2602.893290837228
 30
0.0
 10
5270.329426481732
 20
2602.897644516956
 30
0.0
 10
5270.328310432722
 20
2602.899732497796
 30
0.0
 10
5270.325692369678
 20
2602.903650706035
 30
0.0
 10
5270.324190420382
 20
2602.905480836548
 30
0.0
 10
5270.320858258177
 20
2602.908812998752
 30
0.0
 10
5270.319028127665
 20
2602.910314948048
 30
0.0
 10
5270.315109919426
 20
2602.912933011092
 30
0.0
 10
5270.313021938585
 20
2602.914049060103
 30
0.0
 10
5270.308668258858
 20
2602.915852413293
 30
0.0
 10
5270.306402667623
 20
2602.91653967288
 30
0.0
 10
5270.301780825875
 20
2602.917459014363
 30
0.0
 10
5270.299424689647
 20
2602.917691073527
 30
0.0
 10
5270.297068495157
 20
2602.917691073527
 30
0.0
  0
CIRCLE
  5
148A
330
1F
100
AcDbEntity
  8
SANINDUSA
100
AcDbCircle
 10
5270.297068495157
 20
2602.881691073527
 30
0.0
 40
0.0235
  0
LWPOLYLINE
  5
14CD
330
1F
100
AcDbEntity
  8
SANINDUSA
100
AcDbPolyline
 90
       38
 70
   128
 43
0.0
 10
5272.587848788203
 20
2602.991314503839
 10
5272.587346895242
 20
2602.991459480917
 10
5272.586858653446
 20
2602.991534445742
 10
5272.586424692441
 20
2602.991572498345
 10
5272.585961124764
 20
2602.991594227446
 10
5272.585381519547
 20
2602.991613208517
 10
5272.584573975616
 20
2602.991639854081
 10
5272.583602769719
 20
2602.991664431906
 10
5272.582007486741
 20
2602.991694666878
 10
5272.580122232894
 20
2602.991721238965
 10
5272.577941333597
 20
2602.991744650334
 10
5272.575464571268
 20
2602.991765113934
 10
5272.572695833654
 20
2602.991782736812
 10
5272.569641587619
 20
2602.991797592579
 10
5272.566310250379
 20
2602.991809746621
 10
5272.562711827919
 20
2602.991819266187
 10
5272.558857636915
 20
2602.991826224551
 10
5272.55476004805
 20
2602.99183070249
 10
5272.550432230474
 20
2602.991832788327
 10
5272.54588486569
 20
2602.991832543799
 10
5272.541121966791
 20
2602.991829954062
 10
5272.53611672045
 20
2602.991825020762
 10
5272.530868806436
 20
2602.991817725694
 10
5272.5253939747
 20
2602.991808065795
 10
5272.51970967481
 20
2602.991796049625
 10
5272.513834934437
 20
2602.991781698027
 10
5272.507790114599
 20
2602.991765044323
 10
5272.50159987838
 20
2602.991746144507
 10
5272.495286461191
 20
2602.991725058928
 10
5272.488872226381
 20
2602.991701857605
 10
5272.482379342422
 20
2602.991676618731
 10
5272.475829435993
 20
2602.99164942685
 10
5272.469245344116
 20
2602.991620053729
 10
5272.4625060153
 20
2602.991587940057
 10
5272.455701211051
 20
2602.991554049558
 10
5272.448857815292
 20
2602.991519096151
 10
5272.441994055043
 20
2602.991483755424
 10
5272.437397612186
 20
2602.991460287197
  0
LWPOLYLINE
  5
14CE
330
1F
100
AcDbEntity
  8
SANINDUSA
100
AcDbPolyline
 90
       10
 70
   128
 43
0.0
 10
5272.437398137299
 20
2602.991487652405
 10
5272.431729152951
 20
2602.991481143659
 10
5272.424946984155
 20
2602.991560882621
 10
5272.418316956531
 20
2602.991729225112
 10
5272.411774717462
 20
2602.991969572631
 10
5272.405183154672
 20
2602.992251968803
 10
5272.39860990198
 20
2602.992537014885
 10
5272.392094961059
 20
2602.992784867505
 10
5272.385682012723
 20
2602.992957220962
 10
5272.381073328969
 20
2602.992999265853
  0
ARC
  5
14CF
330
1F
100
AcDbEntity
  8
SANINDUSA
  6
Continuous
370
    15
100
AcDbCircle
 10
5272.441854666503
 20
2602.833353160372
 30
0.0
 40
0.0100000000000001
100
AcDbArc
 50
93.54644857100762
 51
175.0000000037089
  0
ARC
  5
14D0
330
1F
100
AcDbEntity
  8
SANINDUSA
  6
Continuous
370
    15
100
AcDbCircle
 10
5272.431456475373
 20
2603.012331435846
 30
0.0
 40
0.1692801545979098
100
AcDbArc
 50
273.3119226479291
 51
306.3001946247701
  0
ARC
  5
14D1
330
1F
100
AcDbEntity
  8
SANINDUSA
  6
Continuous
370
    15
100
AcDbCircle
 10
5272.532265037106
 20
2602.875098185753
 30
0.0
 40
0.001
100
AcDbArc
 50
89.97762564790688
 51
126.30019462477
  0
LINE
  5
14D2
330
1F
100
AcDbEntity
  8
SANINDUSA
  6
Continuous
370
    15
100
AcDbLine
 10
5272.431892719523
 20
2602.8342247178
 30
0.0
 11
5272.429423312454
 21
2602.805999265853
 31
0.0
  0
LINE
  5
14D3
330
1F
100
AcDbEntity
  8
SANINDUSA
  6
Continuous
370
    15
100
AcDbLine
 10
5272.359423312455
 20
2602.805999265853
 30
0.0
 11
5272.359116241672
 21
2602.809509100943
 31
0.0
  0
ARC
  5
14D4
330
1F
100
AcDbEntity
  8
SANINDUSA
100
AcDbCircle
 10
5272.674991777098
 20
2603.004467341911
 30
0.0
 40
0.383193018685067
100
AcDbArc
 50
184.7928673847955
 51
189.1142917347086
  0
ARC
  5
14D5
330
1F
100
AcDbEntity
  8
SANINDUSA
  6
Continuous
370
    15
100
AcDbCircle
 10
5272.295652130826
 20
2602.94359362695
 30
0.0
 40
0.001
100
AcDbArc
 50
10.03616898299238
 51
96.9213453144467
  0
ARC
  5
14D7
330
1F
100
AcDbEntity
  8
SANINDUSA
  6
Continuous
370
    15
100
AcDbCircle
 10
5272.292141120761
 20
2602.972380309261
 30
0.0
 40
0.0010000000000002
100
AcDbArc
 50
276.9213453144467
 51
4.002668344608101
  0
LINE
  5
14D8
330
1F
100
AcDbEntity
  8
SANINDUSA
  6
Continuous
370
    15
100
AcDbLine
 10
5272.286534138042
 20
2602.943494122792
 30
0.0
 11
5272.295531624148
 21
2602.944586339467
 31
0.0
  0
ARC
  5
14D9
330
1F
100
AcDbEntity
  8
SANINDUSA
100
AcDbCircle
 10
5272.679469472905
 20
2603.004970297509
 30
0.0
 40
0.3977153472553667
100
AcDbArc
 50
185.0016207994692
 51
188.8920500499384
  0
LINE
  5
14DA
330
1F
100
AcDbEntity
  8
SANINDUSA
  6
Continuous
370
    15
100
AcDbLine
 10
5272.29226162744
 20
2602.971387596745
 30
0.0
 11
5272.283268533335
 21
2602.970295913222
 31
0.0
  0
ARC
  5
14DD
330
1F
100
AcDbEntity
  8
SANINDUSA
  6
Continuous
370
    15
100
AcDbCircle
 10
5272.449914003817
 20
2602.993643210451
 30
0.0
 40
0.1425563157038485
100
AcDbArc
 50
312.0790906976923
 51
353.377012610187
  0
ARC
  5
14DE
330
1F
100
AcDbEntity
  8
SANINDUSA
  6
Continuous
370
    15
100
AcDbCircle
 10
5272.592512306819
 20
2602.97708604404
 30
0.0
 40
0.001
100
AcDbArc
 50
56.1582158622635
 51
173.377012610187
  0
ARC
  5
14DF
330
1F
100
AcDbEntity
  8
SANINDUSA
  6
Continuous
370
    15
100
AcDbCircle
 10
5272.546119101491
 20
2602.88709277657
 30
0.0
 40
0.001
100
AcDbArc
 50
132.0790906976922
 51
269.9776256479069
  0
LINE
  5
14E0
330
1F
100
AcDbEntity
  8
SANINDUSA
  6
Continuous
370
    15
100
AcDbLine
 10
5272.569506334619
 20
2602.87678510316
 30
0.0
 11
5272.573202357786
 21
2602.823929509379
 31
0.0
  0
ARC
  5
14E1
330
1F
100
AcDbEntity
  8
SANINDUSA
  6
Continuous
370
    15
100
AcDbCircle
 10
5272.559530694117
 20
2602.876087538422
 30
0.0
 40
0.01
100
AcDbArc
 50
3.999999999248528
 51
89.97762564790688
  0
LINE
  5
14E2
330
1F
100
AcDbEntity
  8
SANINDUSA
  6
Continuous
370
    15
100
AcDbLine
 10
5272.574199921836
 20
2602.822999265853
 30
0.0
 11
5272.578406602136
 21
2602.822999265853
 31
0.0
  0
ARC
  5
14E3
330
1F
100
AcDbEntity
  8
SANINDUSA
  6
Continuous
370
    15
100
AcDbCircle
 10
5272.574199921836
 20
2602.823999265853
 30
0.0
 40
0.001
100
AcDbArc
 50
183.9999999992485
 51
270.0
  0
ARC
  5
14E4
330
1F
100
AcDbEntity
  8
SANINDUSA
  6
Continuous
370
    15
100
AcDbCircle
 10
5272.573743571735
 20
2602.852999265853
 30
0.0
 40
0.03
100
AcDbArc
 50
292.3316450205756
 51
358.5000000028452
  0
ARC
  5
14E5
330
1F
100
AcDbEntity
  8
SANINDUSA
  6
Continuous
370
    15
100
AcDbCircle
 10
5272.588942255889
 20
2602.815999265853
 30
0.0
 40
0.01
100
AcDbArc
 50
112.3316450205756
 51
121.7883306034867
  0
ARC
  5
14E6
330
1F
100
AcDbEntity
  8
SANINDUSA
  6
Continuous
370
    15
100
AcDbCircle
 10
5272.578406602136
 20
2602.832999265853
 30
0.0
 40
0.01
100
AcDbArc
 50
270.0
 51
301.7883306034868
  0
LINE
  5
14E7
330
1F
100
AcDbEntity
  8
SANINDUSA
  6
Continuous
370
    15
100
AcDbLine
 10
5272.606351883641
 20
2602.952213957404
 30
0.0
 11
5272.603733291484
 21
2602.852213957403
 31
0.0
  0
ARC
  5
14E8
330
1F
100
AcDbEntity
  8
SANINDUSA
  6
Continuous
370
    15
100
AcDbCircle
 10
5272.576362163892
 20
2602.952999265853
 30
0.0
 40
0.03
100
AcDbArc
 50
358.5000000028452
 51
56.1582158622635
  0
LINE
  5
14E9
330
1F
100
AcDbEntity
  8
SANINDUSA
  6
Continuous
370
    15
100
AcDbLine
 10
5272.429423312454
 20
2602.805999265853
 30
0.0
 11
5272.417923312454
 21
2602.805999265853
 31
0.0
  0
LINE
  5
14EA
330
1F
100
AcDbEntity
  8
SANINDUSA
  6
Continuous
370
    15
100
AcDbLine
 10
5272.417923312454
 20
2602.805999265853
 30
0.0
 11
5272.417923312454
 21
2602.84213318163
 31
0.0
  0
LINE
  5
14EB
330
1F
100
AcDbEntity
  8
SANINDUSA
  6
Continuous
370
    15
100
AcDbLine
 10
5272.430423312454
 20
2602.852999265853
 30
0.0
 11
5272.417923312454
 21
2602.84213318163
 31
0.0
  0
LWPOLYLINE
  5
14EC
330
1F
100
AcDbEntity
  8
SANINDUSA
  6
Continuous
370
    15
100
AcDbPolyline
 90
       18
 70
   128
 43
0.0
 10
5272.430423312454
 20
2602.852999265853
 10
5272.444261090027
 20
2602.853588356304
 10
5272.458049937143
 20
2602.855344496292
 10
5272.47164154495
 20
2602.858250988772
 10
5272.484887604599
 20
2602.862291136697
 10
5272.497754271096
 20
2602.867491342051
 10
5272.51016201775
 20
2602.873831216876
 10
5272.521955268524
 20
2602.88124552113
 10
5272.532978447387
 20
2602.889669014775
 10
5272.54257929915
 20
2602.898521491012
 10
5272.551379762356
 20
2602.908244672545
 10
5272.559256421384
 20
2602.918725283467
 10
5272.566085860613
 20
2602.929850047873
 10
5272.571365752952
 20
2602.940594471265
 10
5272.575679318155
 20
2602.95181482916
 10
5272.57896972228
 20
2602.963374805335
 10
5272.581180131387
 20
2602.975138083566
 10
5272.582259891984
 20
2602.986513272806
  0
ARC
  5
14ED
330
1F
100
AcDbEntity
  8
SANINDUSA
  6
Continuous
370
    15
100
AcDbCircle
 10
5272.587253550132
 20
2602.986261522327
 30
0.0
 40
0.005
100
AcDbArc
 50
71.86949426827365
 51
177.1139316980371
  0
ARC
  5
14EE
330
1F
100
AcDbEntity
  8
SANINDUSA
  6
Continuous
370
    15
100
AcDbCircle
 10
5272.576362163892
 20
2602.952999265853
 30
0.0
 40
0.04
100
AcDbArc
 50
358.5000000028452
 51
71.86949426827365
  0
LINE
  5
14EF
330
1F
100
AcDbEntity
  8
SANINDUSA
  6
Continuous
370
    15
100
AcDbLine
 10
5272.616348456891
 20
2602.95195218792
 30
0.0
 11
5272.613729864733
 21
2602.851952187921
 31
0.0
  0
ARC
  5
14F0
330
1F
100
AcDbEntity
  8
SANINDUSA
  6
Continuous
370
    15
100
AcDbCircle
 10
5272.573743571735
 20
2602.852999265853
 30
0.0
 40
0.04
100
AcDbArc
 50
292.3316450205756
 51
358.5000000028452
  0
LINE
  5
14F1
330
1F
100
AcDbEntity
  8
SANINDUSA
  6
Continuous
370
    15
100
AcDbLine
 10
5272.588942255889
 20
2602.815999265853
 30
0.0
 11
5272.588942255889
 21
2602.812999265853
 31
0.0
  0
LINE
  5
14F2
330
1F
100
AcDbEntity
  8
SANINDUSA
  6
Continuous
370
    15
100
AcDbLine
 10
5272.563942255888
 20
2602.812999265853
 30
0.0
 11
5272.588942255889
 21
2602.812999265853
 31
0.0
  0
LINE
  5
14F3
330
1F
100
AcDbEntity
  8
SANINDUSA
  6
Continuous
370
    15
100
AcDbLine
 10
5272.559595717621
 20
2602.875157658982
 30
0.0
 11
5272.563942255888
 21
2602.812999265853
 31
0.0
  0
ARC
  5
14F4
330
1F
100
AcDbEntity
  8
SANINDUSA
  6
Continuous
370
    15
100
AcDbCircle
 10
5272.558598153571
 20
2602.875087902508
 30
0.0
 40
0.001
100
AcDbArc
 50
3.999999999248528
 51
89.97762564790688
  0
LINE
  5
14F5
330
1F
100
AcDbEntity
  8
SANINDUSA
  6
Continuous
370
    15
100
AcDbLine
 10
5272.558598544076
 20
2602.876087902432
 30
0.0
 11
5272.532265427613
 21
2602.876098185677
 31
0.0
  0
LINE
  5
14F6
330
1F
100
AcDbEntity
  8
SANINDUSA
  6
Continuous
370
    15
100
AcDbLine
 10
5272.559534599178
 20
2602.88608753766
 30
0.0
 11
5272.546118710985
 21
2602.886092776647
 31
0.0
  0
LINE
  5
14F7
330
1F
100
AcDbEntity
  8
SANINDUSA
  6
Continuous
370
    15
100
AcDbLine
 10
5272.357018084965
 20
2602.833491141853
 30
0.0
 11
5272.356870563446
 21
2602.835177320532
 31
0.0
  0
ARC
  5
14F8
330
1F
100
AcDbEntity
  8
SANINDUSA
  6
Continuous
370
    15
100
AcDbCircle
 10
5272.346908616465
 20
2602.834305763105
 30
0.0
 40
0.01
100
AcDbArc
 50
4.999999996291116
 51
77.1337577152437
  0
SPLINE
  5
14F9
330
1F
100
AcDbEntity
  8
SANINDUSA
  6
Continuous
370
    15
100
AcDbSpline
210
0.0
220
0.0
230
1.0
 70
    12
 71
     3
 72
    12
 73
     8
 74
     0
 42
0.0000000001
 43
0.0000000001
 40
0.228662238716464
 40
0.228662238716464
 40
0.228662238716464
 40
0.228662238716464
 40
0.3333333333333333
 40
0.5
 40
0.6666666666666666
 40
0.8333333333333333
 40
1.0
 40
1.0
 40
1.0
 40
1.0
 10
5272.296636828764
 20
2602.94376789677
 30
0.0
 41
1.0
 10
5272.297899615935
 20
2602.936632617002
 30
0.0
 41
1.0
 10
5272.301886573433
 20
2602.918709302973
 30
0.0
 41
1.0
 10
5272.311207914775
 20
2602.892845391989
 30
0.0
 41
1.0
 10
5272.325126708546
 20
2602.870274224919
 30
0.0
 41
1.0
 10
5272.341074214523
 20
2602.85628637309
 30
0.0
 41
1.0
 10
5272.352588714806
 20
2602.852999265853
 30
0.0
 41
1.0
 10
5272.358423312454
 20
2602.852999265853
 30
0.0
 41
1.0
  0
LINE
  5
14FA
330
1F
100
AcDbEntity
  8
SANINDUSA
  6
Continuous
370
    15
100
AcDbLine
 10
5272.370923312454
 20
2602.84213318163
 30
0.0
 11
5272.358423312454
 21
2602.852999265853
 31
0.0
  0
LINE
  5
14FB
330
1F
100
AcDbEntity
  8
SANINDUSA
  6
Continuous
370
    15
100
AcDbLine
 10
5272.370923312454
 20
2602.84213318163
 30
0.0
 11
5272.370923312454
 21
2602.830621881926
 31
0.0
  0
ARC
  5
14FC
330
1F
100
AcDbEntity
  8
SANINDUSA
  6
Continuous
370
    15
100
AcDbCircle
 10
5272.369923312454
 20
2602.830621881926
 30
0.0
 40
0.001
100
AcDbArc
 50
257.0444421428638
 51
0.0
  0
ARC
  5
14FD
330
1F
100
AcDbEntity
  8
SANINDUSA
  6
Continuous
370
    15
100
AcDbCircle
 10
5272.391497556895
 20
2602.924402014201
 30
0.0
 40
0.0972297315418924
100
AcDbArc
 50
249.2299284943511
 51
257.0444421428638
  0
LWPOLYLINE
  5
14FE
330
1F
100
AcDbEntity
  8
SANINDUSA
  6
Continuous
370
    15
100
AcDbPolyline
 90
       15
 70
   128
 43
0.0
 10
5272.286534138042
 20
2602.943494122792
 10
5272.287008140976
 20
2602.940808384036
 10
5272.289385707894
 20
2602.929195628526
 10
5272.292333352068
 20
2602.9176779938
 10
5272.295917513328
 20
2602.906345074413
 10
5272.300204631502
 20
2602.895286464921
 10
5272.30526114642
 20
2602.884591759876
 10
5272.309222820972
 20
2602.877520541357
 10
5272.313656445483
 20
2602.87072660953
 10
5272.318602666489
 20
2602.864315365458
 10
5272.324208767657
 20
2602.858314753876
 10
5272.330471996075
 20
2602.852972234196
 10
5272.337357760992
 20
2602.848544838644
 10
5272.343096587788
 20
2602.84590138121
 10
5272.34913537411
 20
2602.844054688707
  0
SPLINE
  5
14FF
330
1F
100
AcDbEntity
  8
SANINDUSA
100
AcDbSpline
210
0.0
220
0.0
230
1.0
 70
    28
 71
     3
 72
    38
 73
    34
 74
     0
 42
0.0000000001
 43
0.0000000001
 40
0.0
 40
0.0
 40
0.0
 40
0.0
 40
0.0625
 40
0.0625
 40
0.125
 40
0.125
 40
0.1875
 40
0.1875
 40
0.25
 40
0.25
 40
0.3125
 40
0.3125
 40
0.375
 40
0.375
 40
0.4375
 40
0.4375
 40
0.5
 40
0.5
 40
0.5625
 40
0.5625
 40
0.625
 40
0.625
 40
0.6875
 40
0.6875
 40
0.75
 40
0.75
 40
0.8125
 40
0.8125
 40
0.875
 40
0.875
 40
0.9375
 40
0.9375
 40
1.0
 40
1.0
 40
1.0
 40
1.0
 10
5272.430423312454
 20
2602.852999265853
 30
0.0
 41
1.0
 10
5272.430423312454
 20
2602.852999265853
 30
0.0
 41
1.0
 10
5272.43019125329
 20
2602.852999265853
 30
0.0
 41
1.0
 10
5272.429271911807
 20
2602.852999265853
 30
0.0
 41
1.0
 10
5272.428584652219
 20
2602.852999265853
 30
0.0
 41
1.0
 10
5272.426781299029
 20
2602.852999265853
 30
0.0
 41
1.0
 10
5272.425665250018
 20
2602.852999265853
 30
0.0
 41
1.0
 10
5272.423047186975
 20
2602.852999265853
 30
0.0
 41
1.0
 10
5272.421545237678
 20
2602.852999265853
 30
0.0
 41
1.0
 10
5272.418213075475
 20
2602.852999265853
 30
0.0
 41
1.0
 10
5272.416382944961
 20
2602.852999265853
 30
0.0
 41
1.0
 10
5272.412464736723
 20
2602.852999265853
 30
0.0
 41
1.0
 10
5272.410376755884
 20
2602.852999265853
 30
0.0
 41
1.0
 10
5272.406023076155
 20
2602.852999265853
 30
0.0
 41
1.0
 10
5272.40375748492
 20
2602.852999265853
 30
0.0
 41
1.0
 10
5272.399135643173
 20
2602.852999265853
 30
0.0
 41
1.0
 10
5272.396779506944
 20
2602.852999265853
 30
0.0
 41
1.0
 10
5272.392067117964
 20
2602.852999265853
 30
0.0
 41
1.0
 10
5272.389710981736
 20
2602.852999265853
 30
0.0
 41
1.0
 10
5272.385089139987
 20
2602.852999265853
 30
0.0
 41
1.0
 10
5272.382823548753
 20
2602.852999265853
 30
0.0
 41
1.0
 10
5272.378469869025
 20
2602.852999265853
 30
0.0
 41
1.0
 10
5272.376381888184
 20
2602.852999265853
 30
0.0
 41
1.0
 10
5272.372463679946
 20
2602.852999265853
 30
0.0
 41
1.0
 10
5272.370633549433
 20
2602.852999265853
 30
0.0
 41
1.0
 10
5272.367301387229
 20
2602.852999265853
 30
0.0
 41
1.0
 10
5272.365799437933
 20
2602.852999265853
 30
0.0
 41
1.0
 10
5272.363181374888
 20
2602.852999265853
 30
0.0
 41
1.0
 10
5272.362065325879
 20
2602.852999265853
 30
0.0
 41
1.0
 10
5272.360261972689
 20
2602.852999265853
 30
0.0
 41
1.0
 10
5272.359574713101
 20
2602.852999265853
 30
0.0
 41
1.0
 10
5272.358655371618
 20
2602.852999265853
 30
0.0
 41
1.0
 10
5272.358423312454
 20
2602.852999265853
 30
0.0
 41
1.0
 10
5272.358423312454
 20
2602.852999265853
 30
0.0
 41
1.0
  0
LINE
  5
1500
330
1F
100
AcDbEntity
  8
SANINDUSA
100
AcDbLine
 10
5272.370923312454
 20
2602.84213318163
 30
0.0
 11
5272.417923312454
 21
2602.84213318163
 31
0.0
  0
SPLINE
  5
1505
330
1F
100
AcDbEntity
  8
SANINDUSA
  6
Continuous
370
    15
100
AcDbSpline
210
0.0
220
0.0
230
1.0
 70
    12
 71
     3
 72
     8
 73
     4
 74
     0
 42
0.0000000001
 43
0.0000000001
 40
0.0221139309306552
 40
0.0221139309306552
 40
0.0221139309306552
 40
0.0221139309306552
 40
0.0931704503992377
 40
0.0931704503992377
 40
0.0931704503992377
 40
0.0931704503992377
 10
5272.292464086735
 20
2602.988082198488
 30
0.0
 41
1.0
 10
5272.292551272652
 20
2602.982826491628
 30
0.0
 41
1.0
 10
5272.292777769653
 20
2602.977607941018
 30
0.0
 41
1.0
 10
5272.293138681562
 20
2602.972450112193
 30
0.0
 41
1.0
  0
ARC
  5
1509
330
1F
100
AcDbEntity
  8
SANINDUSA
  6
Continuous
370
    15
100
AcDbCircle
 10
5272.369923312454
 20
2602.818344356455
 30
0.0
 40
0.001
100
AcDbArc
 50
0.0
 51
78.50177932694261
  0
ARC
  5
150D
330
1F
100
AcDbEntity
  8
SANINDUSA
  6
Continuous
370
    15
100
AcDbCircle
 10
5272.287464774565
 20
2602.987999265853
 30
0.0
 40
0.005
100
AcDbArc
 50
0.950381585089279
 51
90.0
  0
LINE
  5
150E
330
1F
100
AcDbEntity
  8
SANINDUSA
  6
Continuous
370
    15
100
AcDbLine
 10
5272.272423312454
 20
2602.982999265853
 30
0.0
 11
5272.282586573292
 21
2602.982999265853
 31
0.0
  0
LWPOLYLINE
  5
150F
330
1F
100
AcDbEntity
  8
SANINDUSA
  6
Continuous
370
    15
100
AcDbPolyline
 90
       13
 70
   128
 43
0.0
 10
5272.272423312454
 20
2602.982999265853
 10
5272.272705486695
 20
2602.970310548934
 10
5272.273556553628
 20
2602.957647389775
 10
5272.27498707643
 20
2602.945034465558
 10
5272.27701747879
 20
2602.932504567689
 10
5272.279676601182
 20
2602.920087245528
 10
5272.283005476229
 20
2602.907833548607
 10
5272.287060572891
 20
2602.895787144706
 10
5272.291913947193
 20
2602.88404229567
 10
5272.29601989035
 20
2602.875693410377
 10
5272.300664531378
 20
2602.867602928919
 10
5272.305896251151
 20
2602.859897418875
 10
5272.311763430538
 20
2602.852703447824
  0
LINE
  5
1510
330
1F
100
AcDbEntity
  8
SANINDUSA
  6
Continuous
370
    15
100
AcDbLine
 10
5272.370923312454
 20
2602.818344356455
 30
0.0
 11
5272.370923312454
 21
2602.805999265853
 31
0.0
  0
LINE
  5
1511
330
1F
100
AcDbEntity
  8
SANINDUSA
  6
Continuous
370
    15
100
AcDbLine
 10
5272.370923312454
 20
2602.805999265853
 30
0.0
 11
5272.359423312455
 21
2602.805999265853
 31
0.0
  0
ARC
  5
1512
330
1F
100
AcDbEntity
  8
SANINDUSA
  6
Continuous
370
    15
100
AcDbCircle
 10
5272.354135268182
 20
2602.809073322229
 30
0.0
 40
0.005
100
AcDbArc
 50
4.999999996291116
 51
72.04956742030393
  0
ELLIPSE
  5
1513
330
1F
100
AcDbEntity
  8
SANINDUSA
  6
Continuous
370
    15
100
AcDbEllipse
 10
5272.349229400855
 20
2602.982999265853
 30
0.0
 11
0.0000000000000005
 21
0.1589823373583184
 31
-0.0000000000000057
210
0.0
220
0.0000000000000358
230
1.0
 40
0.5397208886656627
 41
1.614104529339883
 42
2.601018991583337
  0
ARC
  5
1514
330
1F
100
AcDbEntity
  8
SANINDUSA
  6
Continuous
370
    15
100
AcDbCircle
 10
5272.258505135893
 20
2602.975999265853
 30
0.0
 40
0.005
100
AcDbArc
 50
1.339844758636198
 51
90.0
  0
LINE
  5
1515
330
1F
100
AcDbEntity
  8
SANINDUSA
  6
Continuous
370
    15
100
AcDbLine
 10
5272.247923312455
 20
2602.980999265853
 30
0.0
 11
5272.258505135893
 21
2602.980999265853
 31
0.0
  0
LINE
  5
1516
330
1F
100
AcDbEntity
  8
SANINDUSA
  6
Continuous
370
    15
100
AcDbLine
 10
5272.247923312455
 20
2602.980999265853
 30
0.0
 11
5272.247923312455
 21
2602.991999265853
 31
0.0
  0
ARC
  5
1517
330
1F
100
AcDbEntity
  8
SANINDUSA
  6
Continuous
370
    15
100
AcDbCircle
 10
5272.248923312454
 20
2602.991999265853
 30
0.0
 40
0.001
100
AcDbArc
 50
90.0
 51
180.0
  0
LINE
  5
1518
330
1F
100
AcDbEntity
  8
SANINDUSA
  6
Continuous
370
    15
100
AcDbLine
 10
5272.248923312454
 20
2602.992999265853
 30
0.0
 11
5272.287464774565
 21
2602.992999265853
 31
0.0
  0
ARC
  5
1519
330
1F
100
AcDbEntity
  8
SANINDUSA
  6
Continuous
370
    15
100
AcDbCircle
 10
5272.391497556895
 20
2602.924402014201
 30
0.0
 40
0.1162297315418925
100
AcDbArc
 50
221.9625298870921
 51
252.0495674203039
  0
ARC
  5
151A
330
1F
100
AcDbEntity
  8
SANINDUSA
  6
Continuous
370
    15
100
AcDbCircle
 10
5272.391497556895
 20
2602.924402014201
 30
0.0
 40
0.1072297315418924
100
AcDbArc
 50
221.9625298870921
 51
258.5017793269426
  0
LINE
  5
151B
330
1F
100
AcDbEntity
  8
SANINDUSA
  6
Continuous
370
    15
100
AcDbLine
 10
5272.282586573292
 20
2602.982999265853
 30
0.0
 11
5272.283268533335
 21
2602.970295913222
 31
0.0
  0
LINE
  5
151F
330
1F
100
AcDbEntity
  8
SANINDUSA
100
AcDbLine
 10
5272.370923312454
 20
2602.805999265853
 30
0.0
 11
5272.417923312454
 21
2602.805999265853
 31
0.0
  0
ARC
  5
1520
330
1F
100
AcDbEntity
  8
SANINDUSA
  6
Continuous
370
    15
100
AcDbCircle
 10
5272.169423312455
 20
2602.929999265853
 30
0.0
 40
0.0020000000000002
100
AcDbArc
 50
180.0
 51
270.0
  0
ARC
  5
1521
330
1F
100
AcDbEntity
  8
SANINDUSA
  6
Continuous
370
    15
100
AcDbCircle
 10
5272.169423312455
 20
2602.990999265853
 30
0.0
 40
0.0020000000000002
100
AcDbArc
 50
90.0
 51
180.0
  0
LINE
  5
1522
330
1F
100
AcDbEntity
  8
SANINDUSA
  6
Continuous
370
    15
100
AcDbLine
 10
5272.169423312455
 20
2602.992999265853
 30
0.0
 11
5272.211923312454
 21
2602.992999265853
 31
0.0
  0
ARC
  5
1523
330
1F
100
AcDbEntity
  8
SANINDUSA
  6
Continuous
370
    15
100
AcDbCircle
 10
5272.211923312454
 20
2602.991999265853
 30
0.0
 40
0.0010000000000002
100
AcDbArc
 50
0.0
 51
90.0
  0
LINE
  5
1524
330
1F
100
AcDbEntity
  8
SANINDUSA
  6
Continuous
370
    15
100
AcDbLine
 10
5272.212923312454
 20
2602.991999265853
 30
0.0
 11
5272.212923312454
 21
2602.980999265853
 31
0.0
  0
LINE
  5
1525
330
1F
100
AcDbEntity
  8
SANINDUSA
  6
Continuous
370
    15
100
AcDbLine
 10
5272.203118445602
 20
2602.980999265853
 30
0.0
 11
5272.212923312454
 21
2602.980999265853
 31
0.0
  0
ARC
  5
1526
330
1F
100
AcDbEntity
  8
SANINDUSA
  6
Continuous
370
    15
100
AcDbCircle
 10
5272.203118445602
 20
2602.975999265853
 30
0.0
 40
0.005
100
AcDbArc
 50
90.0
 51
177.9999999962464
  0
ARC
  5
1527
330
1F
100
AcDbEntity
  8
SANINDUSA
  6
Continuous
370
    15
100
AcDbCircle
 10
5272.203118445602
 20
2602.975999265853
 30
0.0
 40
0.015
100
AcDbArc
 50
157.9756871626703
 51
177.9999999962464
  0
ARC
  5
1528
330
1F
100
AcDbEntity
  8
SANINDUSA
  6
Continuous
370
    15
100
AcDbCircle
 10
5272.188286048629
 20
2602.981999265853
 30
0.0
 40
0.001
100
AcDbArc
 50
337.9756871626704
 51
90.0
  0
LINE
  5
1529
330
1F
100
AcDbEntity
  8
SANINDUSA
  6
Continuous
370
    15
100
AcDbLine
 10
5272.178423312453
 20
2602.982999265853
 30
0.0
 11
5272.188286048629
 21
2602.982999265853
 31
0.0
  0
ARC
  5
152A
330
1F
100
AcDbEntity
  8
SANINDUSA
  6
Continuous
370
    15
100
AcDbCircle
 10
5272.178423312453
 20
2602.981999265853
 30
0.0
 40
0.001
100
AcDbArc
 50
90.0
 51
180.0
  0
LINE
  5
152B
330
1F
100
AcDbEntity
  8
SANINDUSA
  6
Continuous
370
    15
100
AcDbLine
 10
5272.178423312453
 20
2602.937999265853
 30
0.0
 11
5272.185816624423
 21
2602.937999265853
 31
0.0
  0
ARC
  5
152C
330
1F
100
AcDbEntity
  8
SANINDUSA
  6
Continuous
370
    15
100
AcDbCircle
 10
5272.178423312453
 20
2602.938999265853
 30
0.0
 40
0.001
100
AcDbArc
 50
180.0
 51
270.0
  0
LINE
  5
152D
330
1F
100
AcDbEntity
  8
SANINDUSA
  6
Continuous
370
    15
100
AcDbLine
 10
5272.196439200946
 20
2602.927999265853
 30
0.0
 11
5272.169423312455
 21
2602.927999265853
 31
0.0
  0
LINE
  5
152F
330
1F
100
AcDbEntity
  8
SANINDUSA
  6
Continuous
370
    15
100
AcDbLine
 10
5272.188127583198
 20
2602.976522758304
 30
0.0
 11
5272.186816015249
 21
2602.938964366356
 31
0.0
  0
ARC
  5
1530
330
1F
100
AcDbEntity
  8
SANINDUSA
  6
Continuous
370
    15
100
AcDbCircle
 10
5272.185816624423
 20
2602.938999265853
 30
0.0
 40
0.001
100
AcDbArc
 50
270.0
 51
357.9999999962464
  0
LINE
  5
1531
330
1F
100
AcDbEntity
  8
SANINDUSA
  6
Continuous
370
    15
100
AcDbLine
 10
5272.177423312454
 20
2602.938999265853
 30
0.0
 11
5272.177423312454
 21
2602.981999265853
 31
0.0
  0
LINE
  5
1532
330
1F
100
AcDbEntity
  8
SANINDUSA
  6
Continuous
370
    15
100
AcDbLine
 10
5272.167423312454
 20
2602.929999265853
 30
0.0
 11
5272.167423312454
 21
2602.990999265853
 31
0.0
  0
LINE
  5
1533
330
1F
100
AcDbEntity
  8
SANINDUSA
  6
Continuous
370
    15
100
AcDbLine
 10
5272.198121491467
 20
2602.976173763336
 30
0.0
 11
5272.196439200946
 21
2602.927999265853
 31
0.0
  0
LINE
  5
1535
330
1F
100
AcDbEntity
  8
SANINDUSA
100
AcDbLine
 10
5272.212923312454
 20
2602.980999265853
 30
0.0
 11
5272.247923312455
 21
2602.980999265853
 31
0.0
  0
ARC
  5
1536
330
1F
100
AcDbEntity
  8
SANINDUSA
100
AcDbCircle
 10
5272.576362163892
 20
2602.952999265854
 30
0.0
 40
0.0399999999993102
100
AcDbArc
 50
71.86949426827365
 51
73.311659037775
  0
LINE
  5
1537
330
1F
100
AcDbEntity
  8
SANINDUSA
100
AcDbLine
 10
5272.211923312454
 20
2602.992999265853
 30
0.0
 11
5272.248923312454
 21
2602.992999265853
 31
0.0
  0
LINE
  5
153F
330
1F
100
AcDbEntity
  8
SANINDUSA
100
AcDbLine
 10
5272.196439200946
 20
2602.927999265853
 30
0.0
 11
5272.19618559336
 21
2602.920736894793
 31
0.0
  0
LINE
  5
1541
330
1F
100
AcDbEntity
  8
SANINDUSA
100
AcDbLine
 10
5272.167423312454
 20
2602.922010657687
 30
0.0
 11
5272.167423312454
 21
2602.929999265853
 31
0.0
  0
LINE
  5
1543
330
1F
100
AcDbEntity
  8
SANINDUSA
100
AcDbLine
 10
5272.192423312453
 20
2602.812999265853
 30
0.0
 11
5272.19618559336
 21
2602.920736894793
 31
0.0
  0
LINE
  5
1544
330
1F
100
AcDbEntity
  8
SANINDUSA
100
AcDbLine
 10
5272.192423312453
 20
2602.812999265853
 30
0.0
 11
5272.169423312455
 21
2602.812999265853
 31
0.0
  0
LINE
  5
1545
330
1F
100
AcDbEntity
  8
SANINDUSA
100
AcDbLine
 10
5272.167423312454
 20
2602.812999265853
 30
0.0
 11
5272.167423312454
 21
2602.922010657687
 31
0.0
  0
LINE
  5
1546
330
1F
100
AcDbEntity
  8
SANINDUSA
100
AcDbLine
 10
5272.169423312455
 20
2602.812999265853
 30
0.0
 11
5272.167423312454
 21
2602.812999265853
 31
0.0
  0
LINE
  5
1547
330
1F
100
AcDbEntity
  8
SANINDUSA
100
AcDbLine
 10
5272.563942255888
 20
2602.812999265853
 30
0.0
 11
5272.437423312453
 21
2602.812999265853
 31
0.0
  0
LINE
  5
1548
330
1F
100
AcDbEntity
  8
SANINDUSA
100
AcDbLine
 10
5272.287954056943
 20
2602.992999265853
 30
0.0
 11
5272.381073328969
 21
2602.992999265853
 31
0.0
  0
LINE
  5
154C
330
1F
100
AcDbEntity
  8
SANINDUSA
100
AcDbLine
 10
5272.19768227317
 20
2602.812999265853
 30
0.0
 11
5272.192423312453
 21
2602.812999265853
 31
0.0
  0
LINE
  5
154E
330
1F
100
AcDbEntity
  8
SANINDUSA
100
AcDbLine
 10
5272.304923312454
 20
2602.812999265853
 30
0.0
 11
5272.19768227317
 21
2602.812999265853
 31
0.0
  0
LINE
  5
154F
330
1F
100
AcDbEntity
  8
SANINDUSA
100
AcDbLine
 10
5272.437423312453
 20
2602.812999265853
 30
0.0
 11
5272.430035733099
 21
2602.812999265853
 31
0.0
  0
LINE
  5
1550
330
1F
100
AcDbEntity
  8
SANINDUSA
100
AcDbLine
 10
5272.357188814141
 20
2602.812999265853
 30
0.0
 11
5272.304923312454
 21
2602.812999265853
 31
0.0
  0
LWPOLYLINE
  5
181D
330
1F
100
AcDbEntity
  8
SANINDUSA
100
AcDbPolyline
 90
       11
 70
   128
 43
0.0
 10
5271.729468600604
 20
2602.992999273006
 10
5271.732848739336
 20
2602.992979037229
 10
5271.738968369636
 20
2602.992833572093
 10
5271.7453298374
 20
2602.992605599228
 10
5271.751791299405
 20
2602.992330717507
 10
5271.758361877027
 20
2602.992044540707
 10
5271.765005697581
 20
2602.99178612477
 10
5271.771679897877
 20
2602.991594525639
 10
5271.778312579813
 20
2602.991493659678
 10
5271.784967632118
 20
2602.991477745238
 10
5271.78579248962
 20
2602.991485672656
  0
LWPOLYLINE
  5
181E
330
1F
100
AcDbEntity
  8
SANINDUSA
100
AcDbPolyline
 90
       39
 70
   128
 43
0.0
 10
5271.78579248962
 20
2602.991485672656
 10
5271.786143240603
 20
2602.991487387496
 10
5271.792973098429
 20
2602.991497057143
 10
5271.799804282459
 20
2602.991532194081
 10
5271.806619175794
 20
2602.991566749874
 10
5271.813399792733
 20
2602.991600053969
 10
5271.820127972486
 20
2602.991631420914
 10
5271.826784798029
 20
2602.991660254661
 10
5271.833281637253
 20
2602.991686570111
 10
5271.83966889334
 20
2602.991710754696
 10
5271.845984839919
 20
2602.991732957426
 10
5271.852208064022
 20
2602.991753103796
 10
5271.858316817406
 20
2602.9917711193
 10
5271.864289001646
 20
2602.991786944333
 10
5271.870102592828
 20
2602.991800489489
 10
5271.875734844329
 20
2602.991811724964
 10
5271.881163188341
 20
2602.991820606056
 10
5271.886368268254
 20
2602.991827088061
 10
5271.891332217577
 20
2602.991831200782
 10
5271.896038928154
 20
2602.991832914415
 10
5271.900477343323
 20
2602.991832273665
 10
5271.904671990397
 20
2602.991829353038
 10
5271.908649304035
 20
2602.991824048225
 10
5271.91238968921
 20
2602.991816240016
 10
5271.915880122307
 20
2602.991805868808
 10
5271.919108250263
 20
2602.991792845193
 10
5271.922062688592
 20
2602.991777064863
 10
5271.924733304503
 20
2602.991758498016
 10
5271.927111544731
 20
2602.991737025443
 10
5271.929190778259
 20
2602.991712587539
 10
5271.930967086079
 20
2602.99168502039
 10
5271.932440825822
 20
2602.991654011074
 10
5271.933284231546
 20
2602.991630243722
 10
5271.933999233964
 20
2602.991605925027
 10
5271.934584179046
 20
2602.991585152808
 10
5271.935051658275
 20
2602.99155502266
 10
5271.93551356447
 20
2602.991499381725
 10
5271.93608846617
 20
2602.991381290022
 10
5271.936244064096
 20
2602.991314503018
  0
LINE
  5
1820
330
1F
100
AcDbEntity
  8
SANINDUSA
100
AcDbLine
 10
5271.778431006792
 20
2602.812999265853
 30
0.0
 11
5271.777818587545
 21
2602.805999265853
 31
0.0
  0
LINE
  5
1821
330
1F
100
AcDbEntity
  8
SANINDUSA
100
AcDbLine
 10
5271.707818587544
 20
2602.805999265853
 30
0.0
 11
5271.707513258878
 21
2602.809489205831
 31
0.0
  0
ARC
  5
1822
330
1F
100
AcDbEntity
  8
SANINDUSA
100
AcDbCircle
 10
5271.702955302131
 20
2602.809312751219
 30
0.0
 40
0.0045437461483288
100
AcDbArc
 50
2.265531549517413
 51
54.22687992110033
  0
LINE
  5
1824
330
1F
100
AcDbEntity
  8
SANINDUSA
100
AcDbLine
 10
5271.653318587544
 20
2602.992999265853
 30
0.0
 11
5271.517818587545
 21
2602.992999265853
 31
0.0
  0
LINE
  5
182A
330
1F
100
AcDbEntity
  8
SANINDUSA
100
AcDbLine
 10
5271.729468603703
 20
2602.992999273006
 30
0.0
 11
5271.653318587544
 21
2602.992999265853
 31
0.0
  0
ARC
  5
182C
330
1F
100
AcDbEntity
  8
SANINDUSA
100
AcDbCircle
 10
5271.924757438982
 20
2602.952999265853
 30
0.0
 40
0.04
100
AcDbArc
 50
358.5000000028452
 51
73.311659037775
  0
LINE
  5
1834
330
1F
100
AcDbEntity
  8
SANINDUSA
100
AcDbLine
 10
5271.964743731981
 20
2602.95195218792
 30
0.0
 11
5271.962125139824
 21
2602.851952187921
 31
0.0
  0
LINE
  5
1837
330
1F
100
AcDbEntity
  8
SANINDUSA
100
AcDbLine
 10
5271.653318587544
 20
2602.815999265853
 30
0.0
 11
5271.517407949914
 21
2602.815999265853
 31
0.0
  0
LINE
  5
1838
330
1F
100
AcDbEntity
  8
SANINDUSA
100
AcDbLine
 10
5271.785818587545
 20
2602.815999265853
 30
0.0
 11
5271.653318587544
 21
2602.815999265853
 31
0.0
  0
LINE
  5
183A
330
1F
100
AcDbEntity
  8
SANINDUSA
100
AcDbLine
 10
5271.937337530978
 20
2602.815999265853
 30
0.0
 11
5271.785818587545
 21
2602.815999265853
 31
0.0
  0
ARC
  5
183B
330
1F
100
AcDbEntity
  8
SANINDUSA
100
AcDbCircle
 10
5271.922138846825
 20
2602.852999265853
 30
0.0
 40
0.04
100
AcDbArc
 50
292.3316450205756
 51
358.5000000028452
  0
ARC
  5
183C
330
1F
100
AcDbEntity
  8
SANINDUSA
100
AcDbCircle
 10
5271.517424179275
 20
2602.817608400908
 30
0.0
 40
0.001609216896177
100
AcDbArc
 50
176.1523983170304
 51
269.4220547994249
  0
LINE
  5
183D
330
1F
100
AcDbEntity
  8
SANINDUSA
100
AcDbLine
 10
5271.515818589452
 20
2602.81771638396
 30
0.0
 11
5271.515818587545
 21
2602.812999265853
 31
0.0
  0
LINE
  5
183E
330
1F
100
AcDbEntity
  8
SANINDUSA
100
AcDbLine
 10
5271.653318587544
 20
2602.812999265853
 30
0.0
 11
5271.515818587545
 21
2602.812999265853
 31
0.0
  0
LINE
  5
1841
330
1F
100
AcDbEntity
  8
SANINDUSA
100
AcDbLine
 10
5271.785818587545
 20
2602.812999265853
 30
0.0
 11
5271.653318587544
 21
2602.812999265853
 31
0.0
  0
LINE
  5
1842
330
1F
100
AcDbEntity
  8
SANINDUSA
100
AcDbLine
 10
5271.937337530978
 20
2602.815999265853
 30
0.0
 11
5271.937337530978
 21
2602.812999265853
 31
0.0
  0
LINE
  5
1843
330
1F
100
AcDbEntity
  8
SANINDUSA
100
AcDbLine
 10
5271.937337530978
 20
2602.812999265853
 30
0.0
 11
5271.785818587545
 21
2602.812999265853
 31
0.0
  0
LINE
  5
1844
330
1F
100
AcDbEntity
  8
SANINDUSA
100
AcDbLine
 10
5271.515818587545
 20
2602.990999265853
 30
0.0
 11
5271.515818587545
 21
2602.952004541817
 31
0.0
  0
ARC
  5
1846
330
1F
100
AcDbEntity
  8
SANINDUSA
100
AcDbCircle
 10
5271.517818587545
 20
2602.990999265853
 30
0.0
 40
0.002
100
AcDbArc
 50
90.0
 51
180.0
  0
LINE
  5
1848
330
1F
100
AcDbEntity
  8
SANINDUSA
100
AcDbLine
 10
5271.515818587545
 20
2602.952004541817
 30
0.0
 11
5271.515818587545
 21
2602.852004541817
 31
0.0
  0
LINE
  5
1849
330
1F
100
AcDbEntity
  8
SANINDUSA
100
AcDbLine
 10
5271.515818587545
 20
2602.852004541817
 30
0.0
 11
5271.515818589452
 21
2602.81771638396
 31
0.0
  0
LINE
  5
184A
330
1F
100
AcDbEntity
  8
SANINDUSA
100
AcDbLine
 10
5271.777818587545
 20
2602.805999265853
 30
0.0
 11
5271.707818587544
 21
2602.805999265853
 31
0.0
  0
ENDSEC
  0
SECTION
  2
OBJECTS
  0
DICTIONARY
  5
C
330
0
100
AcDbDictionary
281
     1
  3
ACAD_2007HEADERVARS_RT
350
1DFF
  3
ACAD_COLOR
350
EE6
  3
ACAD_GROUP
350
D
  3
ACAD_LAYOUT
350
1A
  3
ACAD_MATERIAL
350
EE5
  3
ACAD_MLEADERSTYLE
350
10A8
  3
ACAD_MLINESTYLE
350
17
  3
ACAD_PLOTSETTINGS
350
19
  3
ACAD_PLOTSTYLENAME
350
E
  3
ACAD_SCALELIST
350
1096
  3
ACAD_TABLESTYLE
350
EE7
  3
ACAD_VISUALSTYLE
350
1082
  3
ACDB_RECOMPOSE_DATA
350
1DFD
  3
AcDbVariableDictionary
350
3D
  3
AEC_PROPERTY_SET_DEFS
350
13F0
  3
ASE_INDEX_DICTIONARY
350
1066
  3
Autodesk_PNP
350
10B2
  3
DWGPROPS
350
1DFE
  0
DICTIONARY
  5
1051
330
2
100
AcDbDictionary
280
     1
281
     1
  3
ACAD_LAYERFILTERS
360
1065
  3
ACLYDICTIONARY
360
1064
  0
DICTIONARY
  5
1D36
330
10
100
AcDbDictionary
280
     1
281
     1
  3
ADSK_XREC_LAYER_RECONCILED
360
1D37
  0
DICTIONARY
  5
1D38
330
2F
100
AcDbDictionary
280
     1
281
     1
  3
ADSK_XREC_LAYER_RECONCILED
360
1D39
  0
DICTIONARY
  5
1D3A
330
30
100
AcDbDictionary
280
     1
281
     1
  3
ADSK_XREC_LAYER_RECONCILED
360
1D3B
  0
DICTIONARY
  5
1D3C
330
31
100
AcDbDictionary
280
     1
281
     1
  3
ADSK_XREC_LAYER_RECONCILED
360
1D3D
  0
DICTIONARY
  5
1D3E
330
32
100
AcDbDictionary
280
     1
281
     1
  3
ADSK_XREC_LAYER_RECONCILED
360
1D3F
  0
DICTIONARY
  5
1D40
330
33
100
AcDbDictionary
280
     1
281
     1
  3
ADSK_XREC_LAYER_RECONCILED
360
1D41
  0
DICTIONARY
  5
1D42
330
34
100
AcDbDictionary
280
     1
281
     1
  3
ADSK_XREC_LAYER_RECONCILED
360
1D43
  0
DICTIONARY
  5
1D44
330
35
100
AcDbDictionary
280
     1
281
     1
  3
ADSK_XREC_LAYER_RECONCILED
360
1D45
  0
DICTIONARY
  5
1D46
330
36
100
AcDbDictionary
280
     1
281
     1
  3
ADSK_XREC_LAYER_RECONCILED
360
1D47
  0
DICTIONARY
  5
1D48
330
37
100
AcDbDictionary
280
     1
281
     1
  3
ADSK_XREC_LAYER_RECONCILED
360
1D49
  0
DICTIONARY
  5
1D4A
330
5D6
100
AcDbDictionary
280
     1
281
     1
  3
ADSK_XREC_LAYER_RECONCILED
360
1D4B
  0
DICTIONARY
  5
1D4C
330
8AF
100
AcDbDictionary
280
     1
281
     1
  3
ADSK_XREC_LAYER_RECONCILED
360
1D4D
  0
DICTIONARY
  5
1D4E
330
8F8
100
AcDbDictionary
280
     1
281
     1
  3
ADSK_XREC_LAYER_RECONCILED
360
1D4F
  0
DICTIONARY
  5
1D50
330
91D
100
AcDbDictionary
280
     1
281
     1
  3
ADSK_XREC_LAYER_RECONCILED
360
1D51
  0
DICTIONARY
  5
1D52
330
C7B
100
AcDbDictionary
280
     1
281
     1
  3
ADSK_XREC_LAYER_RECONCILED
360
1D53
  0
DICTIONARY
  5
1D54
330
1060
100
AcDbDictionary
280
     1
281
     1
  3
ADSK_XREC_LAYER_RECONCILED
360
1D55
  0
DICTIONARY
  5
1E32
330
1188
100
AcDbDictionary
280
     1
281
     1
  3
ACAD_MTEXT_RT
360
1E33
  0
DICTIONARY
  5
1E34
330
11A1
100
AcDbDictionary
280
     1
281
     1
  3
ACAD_MTEXT_RT
360
1E35
  0
DICTIONARY
  5
1E36
330
11AB
100
AcDbDictionary
280
     1
281
     1
  3
ACAD_MTEXT_RT
360
1E37
  0
DICTIONARY
  5
1E38
330
11B9
100
AcDbDictionary
280
     1
281
     1
  3
ACAD_MTEXT_RT
360
1E39
  0
DICTIONARY
  5
1E3A
330
11C5
100
AcDbDictionary
280
     1
281
     1
  3
ACAD_MTEXT_RT
360
1E3B
  0
DICTIONARY
  5
1E3C
330
123A
100
AcDbDictionary
280
     1
281
     1
  3
ACAD_MTEXT_RT
360
1E3D
  0
DICTIONARY
  5
1E42
330
1D08
100
AcDbDictionary
280
     1
281
     1
  3
ACAD_MTEXT_RT
360
1E43
  0
DICTIONARY
  5
1E40
330
1CF5
100
AcDbDictionary
280
     1
281
     1
  3
ACAD_MTEXT_RT
360
1E41
  0
DICTIONARY
  5
1E3E
330
1A84
100
AcDbDictionary
280
     1
281
     1
  3
ACAD_MTEXT_RT
360
1E3F
  0
DICTIONARY
  5
1DFF
102
{ACAD_REACTORS
330
C
102
}
330
C
100
AcDbDictionary
281
     1
  3
DIMJOGANG
350
1E00
  0
DICTIONARY
  5
EE6
102
{ACAD_REACTORS
330
C
102
}
330
C
100
AcDbDictionary
281
     1
  0
DICTIONARY
  5
D
102
{ACAD_REACTORS
330
C
102
}
330
C
100
AcDbDictionary
281
     1
  0
DICTIONARY
  5
1A
102
{ACAD_REACTORS
330
C
102
}
330
C
100
AcDbDictionary
281
     1
  3
Layout1
350
1E
  3
Layout2
350
26
  3
Model
350
22
  0
DICTIONARY
  5
EE5
102
{ACAD_REACTORS
330
C
102
}
330
C
100
AcDbDictionary
281
     1
  3
ByBlock
350
1072
  3
ByLayer
350
106A
  3
Global
350
107A
  0
DICTIONARY
  5
10A8
102
{ACAD_REACTORS
330
C
102
}
330
C
100
AcDbDictionary
281
     1
  3
Standard
350
10A9
  0
DICTIONARY
  5
17
102
{ACAD_REACTORS
330
C
102
}
330
C
100
AcDbDictionary
281
     1
  3
Standard
350
18
  0
DICTIONARY
  5
19
102
{ACAD_REACTORS
330
C
102
}
330
C
100
AcDbDictionary
281
     1
  0
ACDBDICTIONARYWDFLT
  5
E
102
{ACAD_REACTORS
330
C
102
}
330
C
100
AcDbDictionary
281
     1
  3
Normal
350
F
100
AcDbDictionaryWithDefault
340
F
  0
DICTIONARY
  5
1096
102
{ACAD_REACTORS
330
C
102
}
330
C
100
AcDbDictionary
281
     1
  3
A0
350
1097
  3
A1
350
1098
  3
A2
350
1099
  3
A3
350
109A
  3
A4
350
109B
  3
A5
350
109C
  3
A6
350
109D
  3
A7
350
109E
  3
A8
350
109F
  3
A9
350
10A0
  3
B0
350
10A1
  3
B1
350
10A2
  3
B2
350
10A3
  3
B3
350
10A4
  3
B4
350
10A5
  3
B5
350
10A6
  3
B6
350
10A7
  0
DICTIONARY
  5
EE7
102
{ACAD_REACTORS
330
C
102
}
330
C
100
AcDbDictionary
281
     1
  3
Standard
350
EE8
  0
DICTIONARY
  5
1082
102
{ACAD_REACTORS
330
C
102
}
330
C
100
AcDbDictionary
281
     1
  3
2dWireframe
350
1088
  3
3D Hidden
350
108A
  3
3dWireframe
350
1089
  3
Basic
350
1087
  3
Brighten
350
108E
  3
ColorChange
350
1092
  3
Conceptual
350
108B
  3
Dim
350
108D
  3
EdgeColorOff
350
1095
  3
Facepattern
350
1091
  3
Flat
350
1083
  3
FlatWithEdges
350
1084
  3
Gouraud
350
1085
  3
GouraudWithEdges
350
1086
  3
JitterOff
350
1093
  3
Linepattern
350
1090
  3
OverhangOff
350
1094
  3
Realistic
350
108C
  3
Thicken
350
108F
  0
XRECORD
  5
1DFD
102
{ACAD_REACTORS
330
C
102
}
330
C
100
AcDbXrecord
280
     1
 90
        1
330
EE8
  0
DICTIONARY
  5
3D
102
{ACAD_REACTORS
330
C
102
}
330
C
100
AcDbDictionary
281
     1
  3
CANNOSCALE
350
1DF7
  3
CMLEADERSTYLE
350
1DF6
  3
CTABLESTYLE
350
1049
  3
DIMASSOC
350
3F
  3
HIDETEXT
350
3E
  3
INDEXCTL
350
1DF9
  3
SORTENTS
350
1DF8
  3
XCLIPFRAME
350
1DFA
  0
DICTIONARY
  5
13F0
102
{ACAD_REACTORS
330
C
102
}
330
C
100
AcDbDictionary
281
     1
  0
DICTIONARY
  5
1066
102
{ACAD_REACTORS
330
C
102
}
330
C
100
AcDbDictionary
281
     1
  3
ASEBlockHierarchyIndexRecord
350
1067
1001
DCO15
1040
1602247867.484
  0
DICTIONARY
  5
10B2
102
{ACAD_REACTORS
330
C
102
}
330
C
100
AcDbDictionary
281
     1
  0
XRECORD
  5
1DFE
102
{ACAD_REACTORS
330
C
102
}
330
C
100
AcDbXrecord
280
     1
  1
DWGPROPS COOKIE
  2

  3

  4

  6

  7

  8
Julio
  9

300
=
301
=
302
=
303
=
304
=
305
=
306
=
307
=
308
=
309
=
 40
0.0024958449074074
 41
2455296.511020683
 42
2455296.513516343
  1

 90
        0
  0
DICTIONARY
  5
1065
102
{ACAD_REACTORS
330
1051
102
}
330
1051
100
AcDbDictionary
281
     1
  0
DICTIONARY
  5
1064
102
{ACAD_REACTORS
330
1051
102
}
330
1051
100
AcDbDictionary
281
     1
1001
ACAD
1000
<All
  0
XRECORD
  5
1D37
102
{ACAD_REACTORS
330
1D36
102
}
330
1D36
100
AcDbXrecord
280
     1
290
     1
  0
XRECORD
  5
1D39
102
{ACAD_REACTORS
330
1D38
102
}
330
1D38
100
AcDbXrecord
280
     1
290
     1
  0
XRECORD
  5
1D3B
102
{ACAD_REACTORS
330
1D3A
102
}
330
1D3A
100
AcDbXrecord
280
     1
290
     1
  0
XRECORD
  5
1D3D
102
{ACAD_REACTORS
330
1D3C
102
}
330
1D3C
100
AcDbXrecord
280
     1
290
     1
  0
XRECORD
  5
1D3F
102
{ACAD_REACTORS
330
1D3E
102
}
330
1D3E
100
AcDbXrecord
280
     1
290
     1
  0
XRECORD
  5
1D41
102
{ACAD_REACTORS
330
1D40
102
}
330
1D40
100
AcDbXrecord
280
     1
290
     1
  0
XRECORD
  5
1D43
102
{ACAD_REACTORS
330
1D42
102
}
330
1D42
100
AcDbXrecord
280
     1
290
     1
  0
XRECORD
  5
1D45
102
{ACAD_REACTORS
330
1D44
102
}
330
1D44
100
AcDbXrecord
280
     1
290
     1
  0
XRECORD
  5
1D47
102
{ACAD_REACTORS
330
1D46
102
}
330
1D46
100
AcDbXrecord
280
     1
290
     1
  0
XRECORD
  5
1D49
102
{ACAD_REACTORS
330
1D48
102
}
330
1D48
100
AcDbXrecord
280
     1
290
     1
  0
XRECORD
  5
1D4B
102
{ACAD_REACTORS
330
1D4A
102
}
330
1D4A
100
AcDbXrecord
280
     1
290
     1
  0
XRECORD
  5
1D4D
102
{ACAD_REACTORS
330
1D4C
102
}
330
1D4C
100
AcDbXrecord
280
     1
290
     1
  0
XRECORD
  5
1D4F
102
{ACAD_REACTORS
330
1D4E
102
}
330
1D4E
100
AcDbXrecord
280
     1
290
     1
  0
XRECORD
  5
1D51
102
{ACAD_REACTORS
330
1D50
102
}
330
1D50
100
AcDbXrecord
280
     1
290
     1
  0
XRECORD
  5
1D53
102
{ACAD_REACTORS
330
1D52
102
}
330
1D52
100
AcDbXrecord
280
     1
290
     1
  0
XRECORD
  5
1D55
102
{ACAD_REACTORS
330
1D54
102
}
330
1D54
100
AcDbXrecord
280
     1
290
     1
  0
XRECORD
  5
1E33
102
{ACAD_REACTORS
330
1E32
102
}
330
1E32
100
AcDbXrecord
280
     1
 40
2507.0
  1
ø70
  0
XRECORD
  5
1E35
102
{ACAD_REACTORS
330
1E34
102
}
330
1E34
100
AcDbXrecord
280
     1
 40
2520.0
  1
ø35
  0
XRECORD
  5
1E37
102
{ACAD_REACTORS
330
1E36
102
}
330
1E36
100
AcDbXrecord
280
     1
 40
3763.0
  1
86,0°
  0
XRECORD
  5
1E39
102
{ACAD_REACTORS
330
1E38
102
}
330
1E38
100
AcDbXrecord
280
     1
 40
3768.0
  1
98,0°
  0
XRECORD
  5
1E3B
102
{ACAD_REACTORS
330
1E3A
102
}
330
1E3A
100
AcDbXrecord
280
     1
 40
3767.0
  1
88,0°
  0
XRECORD
  5
1E3D
102
{ACAD_REACTORS
330
1E3C
102
}
330
1E3C
100
AcDbXrecord
280
     1
 40
2385.0
  1
\U+220535
  0
XRECORD
  5
1E43
102
{ACAD_REACTORS
330
1E42
102
}
330
1E42
100
AcDbXrecord
280
     1
 40
2507.0
  1
ø70
  0
XRECORD
  5
1E41
102
{ACAD_REACTORS
330
1E40
102
}
330
1E40
100
AcDbXrecord
280
     1
 40
2520.0
  1
ø35
  0
XRECORD
  5
1E3F
102
{ACAD_REACTORS
330
1E3E
102
}
330
1E3E
100
AcDbXrecord
280
     1
 40
2385.0
  1
\U+220535
  0
XRECORD
  5
1E00
102
{ACAD_REACTORS
330
1DFF
102
}
330
1DFF
100
AcDbXrecord
280
     1
 40
1.570796326794896
  0
LAYOUT
  5
1E
102
{ACAD_XDICTIONARY
360
1E01
102
}
102
{ACAD_REACTORS
330
1A
102
}
330
1A
100
AcDbPlotSettings
  1

  2
Ploter HP500
  4

  6

 40
0.0
 41
0.0
 42
0.0
 43
0.0
 44
0.0
 45
0.0
 46
0.0
 47
0.0
 48
0.0
 49
0.0
140
0.0
141
0.0
142
1.0
143
1.0
 70
   688
 72
     0
 73
     0
 74
     5
  7
sanindusa.ctb
 75
    16
147
1.0
148
0.0
149
0.0
100
AcDbLayout
  1
Layout1
 70
     1
 71
     1
 10
0.0
 20
0.0
 11
420.0
 21
297.0
 12
0.0
 22
0.0
 32
0.0
 14
1.000000000000000E+20
 24
1.000000000000000E+20
 34
1.000000000000000E+20
 15
-1.000000000000000E+20
 25
-1.000000000000000E+20
 35
-1.000000000000000E+20
146
0.0
 13
0.0
 23
0.0
 33
0.0
 16
1.0
 26
0.0
 36
0.0
 17
0.0
 27
1.0
 37
0.0
 76
     0
330
1B
  0
LAYOUT
  5
26
102
{ACAD_XDICTIONARY
360
1E05
102
}
102
{ACAD_REACTORS
330
1A
102
}
330
1A
100
AcDbPlotSettings
  1

  2
Ploter HP500
  4

  6

 40
0.0
 41
0.0
 42
0.0
 43
0.0
 44
0.0
 45
0.0
 46
0.0
 47
0.0
 48
0.0
 49
0.0
140
0.0
141
0.0
142
1.0
143
1.0
 70
   688
 72
     0
 73
     0
 74
     5
  7
sanindusa.ctb
 75
    16
147
1.0
148
0.0
149
0.0
100
AcDbLayout
  1
Layout2
 70
     1
 71
     2
 10
0.0
 20
0.0
 11
12.0
 21
9.0
 12
0.0
 22
0.0
 32
0.0
 14
0.0
 24
0.0
 34
0.0
 15
0.0
 25
0.0
 35
0.0
146
0.0
 13
0.0
 23
0.0
 33
0.0
 16
1.0
 26
0.0
 36
0.0
 17
0.0
 27
1.0
 37
0.0
 76
     0
330
23
  0
LAYOUT
  5
22
102
{ACAD_XDICTIONARY
360
1E03
102
}
102
{ACAD_REACTORS
330
1A
102
}
330
1A
100
AcDbPlotSettings
  1

  2
Ploter HP500
  4
User268
  6

 40
4.995333194732666
 41
16.97565841674804
 42
4.995330810546875
 43
16.97567749023437
 44
209.9733276367187
 45
296.9259948730469
 46
0.0
 47
0.0
 48
0.0
 49
0.0
140
0.0
141
0.0
142
1.0
143
1.0
 70
 11952
 72
     1
 73
     1
 74
     0
  7
sanindusa.ctb
 75
     0
147
1.0
148
-427.5957866592534
149
7.362384574453926
100
AcDbLayout
  1
Model
 70
     1
 71
     0
 10
0.0
 20
0.0
 11
12.0
 21
9.0
 12
0.0
 22
0.0
 32
0.0
 14
0.0
 24
0.0
 34
0.0
 15
0.0
 25
0.0
 35
0.0
146
0.0
 13
0.0
 23
0.0
 33
0.0
 16
1.0
 26
0.0
 36
0.0
 17
0.0
 27
1.0
 37
0.0
 76
     0
330
1F
331
1068
  0
MATERIAL
  5
1072
102
{ACAD_XDICTIONARY
360
1073
102
}
102
{ACAD_REACTORS
330
EE5
102
}
330
EE5
100
AcDbMaterial
  1
ByBlock
 72
     0
 43
0.0008202099737533
 43
0.0
 43
0.0
 43
0.0
 43
0.0
 43
0.0008202099737533
 43
0.0
 43
0.0
 43
0.0
 43
0.0
 43
1.0
 43
0.0
 43
0.0
 43
0.0
 43
0.0
 43
1.0
 77
     0
 47
0.0008202099737533
 47
0.0
 47
0.0
 47
0.0
 47
0.0
 47
0.0008202099737533
 47
0.0
 47
0.0
 47
0.0
 47
0.0
 47
1.0
 47
0.0
 47
0.0
 47
0.0
 47
0.0
 47
1.0
171
     0
 49
0.0008202099737533
 49
0.0
 49
0.0
 49
0.0
 49
0.0
 49
0.0008202099737533
 49
0.0
 49
0.0
 49
0.0
 49
0.0
 49
1.0
 49
0.0
 49
0.0
 49
0.0
 49
0.0
 49
1.0
175
     0
142
0.0008202099737533
142
0.0
142
0.0
142
0.0
142
0.0
142
0.0008202099737533
142
0.0
142
0.0
142
0.0
142
0.0
142
1.0
142
0.0
142
0.0
142
0.0
142
0.0
142
1.0
179
     0
144
0.0008202099737533
144
0.0
144
0.0
144
0.0
144
0.0
144
0.0008202099737533
144
0.0
144
0.0
144
0.0
144
0.0
144
1.0
144
0.0
144
0.0
144
0.0
144
0.0
144
1.0
147
0.0008202099737533
147
0.0
147
0.0
147
0.0
147
0.0
147
0.0008202099737533
147
0.0
147
0.0
147
0.0
147
0.0
147
1.0
147
0.0
147
0.0
147
0.0
147
0.0
147
1.0
  0
MATERIAL
  5
106A
102
{ACAD_XDICTIONARY
360
106B
102
}
102
{ACAD_REACTORS
330
EE5
102
}
330
EE5
100
AcDbMaterial
  1
ByLayer
 72
     0
 43
0.0008202099737533
 43
0.0
 43
0.0
 43
0.0
 43
0.0
 43
0.0008202099737533
 43
0.0
 43
0.0
 43
0.0
 43
0.0
 43
1.0
 43
0.0
 43
0.0
 43
0.0
 43
0.0
 43
1.0
 77
     0
 47
0.0008202099737533
 47
0.0
 47
0.0
 47
0.0
 47
0.0
 47
0.0008202099737533
 47
0.0
 47
0.0
 47
0.0
 47
0.0
 47
1.0
 47
0.0
 47
0.0
 47
0.0
 47
0.0
 47
1.0
171
     0
 49
0.0008202099737533
 49
0.0
 49
0.0
 49
0.0
 49
0.0
 49
0.0008202099737533
 49
0.0
 49
0.0
 49
0.0
 49
0.0
 49
1.0
 49
0.0
 49
0.0
 49
0.0
 49
0.0
 49
1.0
175
     0
142
0.0008202099737533
142
0.0
142
0.0
142
0.0
142
0.0
142
0.0008202099737533
142
0.0
142
0.0
142
0.0
142
0.0
142
1.0
142
0.0
142
0.0
142
0.0
142
0.0
142
1.0
179
     0
144
0.0008202099737533
144
0.0
144
0.0
144
0.0
144
0.0
144
0.0008202099737533
144
0.0
144
0.0
144
0.0
144
0.0
144
1.0
144
0.0
144
0.0
144
0.0
144
0.0
144
1.0
147
0.0008202099737533
147
0.0
147
0.0
147
0.0
147
0.0
147
0.0008202099737533
147
0.0
147
0.0
147
0.0
147
0.0
147
1.0
147
0.0
147
0.0
147
0.0
147
0.0
147
1.0
  0
MATERIAL
  5
107A
102
{ACAD_XDICTIONARY
360
107B
102
}
102
{ACAD_REACTORS
330
EE5
102
}
330
EE5
100
AcDbMaterial
  1
Global
 72
     0
 43
0.0008202099737533
 43
0.0
 43
0.0
 43
0.0
 43
0.0
 43
0.0008202099737533
 43
0.0
 43
0.0
 43
0.0
 43
0.0
 43
1.0
 43
0.0
 43
0.0
 43
0.0
 43
0.0
 43
1.0
 77
     0
 47
0.0008202099737533
 47
0.0
 47
0.0
 47
0.0
 47
0.0
 47
0.0008202099737533
 47
0.0
 47
0.0
 47
0.0
 47
0.0
 47
1.0
 47
0.0
 47
0.0
 47
0.0
 47
0.0
 47
1.0
171
     0
 49
0.0008202099737533
 49
0.0
 49
0.0
 49
0.0
 49
0.0
 49
0.0008202099737533
 49
0.0
 49
0.0
 49
0.0
 49
0.0
 49
1.0
 49
0.0
 49
0.0
 49
0.0
 49
0.0
 49
1.0
175
     0
142
0.0008202099737533
142
0.0
142
0.0
142
0.0
142
0.0
142
0.0008202099737533
142
0.0
142
0.0
142
0.0
142
0.0
142
1.0
142
0.0
142
0.0
142
0.0
142
0.0
142
1.0
179
     0
144
0.0008202099737533
144
0.0
144
0.0
144
0.0
144
0.0
144
0.0008202099737533
144
0.0
144
0.0
144
0.0
144
0.0
144
1.0
144
0.0
144
0.0
144
0.0
144
0.0
144
1.0
147
0.0008202099737533
147
0.0
147
0.0
147
0.0
147
0.0
147
0.0008202099737533
147
0.0
147
0.0
147
0.0
147
0.0
147
1.0
147
0.0
147
0.0
147
0.0
147
0.0
147
1.0
  0
MLEADERSTYLE
  5
10A9
102
{ACAD_REACTORS
330
10A8
102
}
330
10A8
100
AcDbMLeaderStyle
170
     2
171
     1
172
     0
 90
        2
 40
0.0
 41
0.0
173
     1
 91
-1056964608
340
14
 92
       -2
290
     1
 42
2.0
291
     1
 43
0.36
  3
Standard
 44
4.0
300

342
11
174
     1
178
     6
175
     1
176
     0
 93
-1056964608
 45
4.0
292
     0
297
     0
 46
4.0
 94
-1056964608
 47
1.0
 49
1.0
140
1.0
293
     1
141
0.0
294
     1
177
     0
142
1.0
295
     0
296
     0
143
0.125
1001
ACAD_MLEADERVER
1070
     2
  0
MLINESTYLE
  5
18
102
{ACAD_REACTORS
330
17
102
}
330
17
100
AcDbMlineStyle
  2
STANDARD
 70
     0
  3

 62
   256
 51
90.0
 52
90.0
 71
     2
 49
0.5
 62
   256
  6
BYLAYER
 49
-0.5
 62
   256
  6
BYLAYER
  0
ACDBPLACEHOLDER
  5
F
102
{ACAD_REACTORS
330
E
102
}
330
E
  0
SCALE
  5
1097
102
{ACAD_REACTORS
330
1096
102
}
330
1096
100
AcDbScale
 70
     0
300
1:1
140
1.0
141
1.0
290
     1
  0
SCALE
  5
1098
102
{ACAD_REACTORS
330
1096
102
}
330
1096
100
AcDbScale
 70
     0
300
1:2
140
1.0
141
2.0
290
     0
  0
SCALE
  5
1099
102
{ACAD_REACTORS
330
1096
102
}
330
1096
100
AcDbScale
 70
     0
300
1:4
140
1.0
141
4.0
290
     0
  0
SCALE
  5
109A
102
{ACAD_REACTORS
330
1096
102
}
330
1096
100
AcDbScale
 70
     0
300
1:5
140
1.0
141
5.0
290
     0
  0
SCALE
  5
109B
102
{ACAD_REACTORS
330
1096
102
}
330
1096
100
AcDbScale
 70
     0
300
1:8
140
1.0
141
8.0
290
     0
  0
SCALE
  5
109C
102
{ACAD_REACTORS
330
1096
102
}
330
1096
100
AcDbScale
 70
     0
300
1:10
140
1.0
141
10.0
290
     0
  0
SCALE
  5
109D
102
{ACAD_REACTORS
330
1096
102
}
330
1096
100
AcDbScale
 70
     0
300
1:16
140
1.0
141
16.0
290
     0
  0
SCALE
  5
109E
102
{ACAD_REACTORS
330
1096
102
}
330
1096
100
AcDbScale
 70
     0
300
1:20
140
1.0
141
20.0
290
     0
  0
SCALE
  5
109F
102
{ACAD_REACTORS
330
1096
102
}
330
1096
100
AcDbScale
 70
     0
300
1:30
140
1.0
141
30.0
290
     0
  0
SCALE
  5
10A0
102
{ACAD_REACTORS
330
1096
102
}
330
1096
100
AcDbScale
 70
     0
300
1:40
140
1.0
141
40.0
290
     0
  0
SCALE
  5
10A1
102
{ACAD_REACTORS
330
1096
102
}
330
1096
100
AcDbScale
 70
     0
300
1:50
140
1.0
141
50.0
290
     0
  0
SCALE
  5
10A2
102
{ACAD_REACTORS
330
1096
102
}
330
1096
100
AcDbScale
 70
     0
300
1:100
140
1.0
141
100.0
290
     0
  0
SCALE
  5
10A3
102
{ACAD_REACTORS
330
1096
102
}
330
1096
100
AcDbScale
 70
     0
300
2:1
140
2.0
141
1.0
290
     0
  0
SCALE
  5
10A4
102
{ACAD_REACTORS
330
1096
102
}
330
1096
100
AcDbScale
 70
     0
300
4:1
140
4.0
141
1.0
290
     0
  0
SCALE
  5
10A5
102
{ACAD_REACTORS
330
1096
102
}
330
1096
100
AcDbScale
 70
     0
300
8:1
140
8.0
141
1.0
290
     0
  0
SCALE
  5
10A6
102
{ACAD_REACTORS
330
1096
102
}
330
1096
100
AcDbScale
 70
     0
300
10:1
140
10.0
141
1.0
290
     0
  0
SCALE
  5
10A7
102
{ACAD_REACTORS
330
1096
102
}
330
1096
100
AcDbScale
 70
     0
300
100:1
140
100.0
141
1.0
290
     0
  0
TABLESTYLE
  5
EE8
102
{ACAD_XDICTIONARY
360
1DFB
102
}
102
{ACAD_REACTORS
330
EE7
102
}
330
EE7
100
AcDbTableStyle
  3
Standard
 70
     0
 71
     0
 40
1.5
 41
1.5
280
     0
281
     0
  7
Standard
140
4.5
170
     2
 62
     0
 63
     7
283
     0
274
    -2
284
     1
 64
     0
275
    -2
285
     1
 65
     0
276
    -2
286
     1
 66
     0
277
    -2
287
     1
 67
     0
278
    -2
288
     1
 68
     0
279
    -2
289
     1
 69
     0
  7
Standard
140
6.0
170
     5
 62
     0
 63
     7
283
     0
274
    -2
284
     1
 64
     0
275
    -2
285
     1
 65
     0
276
    -2
286
     1
 66
     0
277
    -2
287
     1
 67
     0
278
    -2
288
     1
 68
     0
279
    -2
289
     1
 69
     0
  7
Standard
140
4.5
170
     5
 62
     0
 63
     7
283
     0
274
    -2
284
     1
 64
     0
275
    -2
285
     1
 65
     0
276
    -2
286
     1
 66
     0
277
    -2
287
     1
 67
     0
278
    -2
288
     1
 68
     0
279
    -2
289
     1
 69
     0
  0
VISUALSTYLE
  5
1088
102
{ACAD_XDICTIONARY
360
1E15
102
}
102
{ACAD_REACTORS
330
1082
102
}
330
1082
100
AcDbVisualStyle
  2
2dWireframe
 70
     4
 71
     0
 72
     2
 73
     0
 90
        0
 40
-0.6
 41
-30.0
 62
     5
 63
     7
 74
     1
 91
        4
 64
     7
 65
   257
 75
     1
175
     1
 42
1.0
 92
        0
 66
   257
 43
1.0
 76
     1
 77
     6
 78
     2
 67
     7
 79
     5
170
     0
171
     0
290
     0
174
     0
 93
        1
 44
0.0
173
     0
291
     0
 45
0.0
1001
ACAD
1000
AcDbSavedByObjectVersion
1070
     0
  0
VISUALSTYLE
  5
108A
102
{ACAD_XDICTIONARY
360
1E19
102
}
102
{ACAD_REACTORS
330
1082
102
}
330
1082
100
AcDbVisualStyle
  2
3D Hidden
 70
     6
 71
     1
 72
     2
 73
     2
 90
        0
 40
-0.6
 41
-30.0
 62
     5
 63
     7
 74
     2
 91
        2
 64
     7
 65
   257
 75
     2
175
     1
 42
179.0
 92
        0
 66
   257
 43
1.0
 76
     1
 77
     6
 78
     2
 67
     7
 79
     3
170
     0
171
     0
290
     0
174
     0
 93
        1
 44
0.0
173
     0
291
     0
 45
0.0
1001
ACAD
1000
AcDbSavedByObjectVersion
1070
     0
  0
VISUALSTYLE
  5
1089
102
{ACAD_XDICTIONARY
360
1E17
102
}
102
{ACAD_REACTORS
330
1082
102
}
330
1082
100
AcDbVisualStyle
  2
3dWireframe
 70
     5
 71
     0
 72
     2
 73
     0
 90
        0
 40
-0.6
 41
-30.0
 62
     5
 63
     7
 74
     1
 91
        4
 64
     7
 65
   257
 75
     1
175
     1
 42
1.0
 92
        0
 66
   257
 43
1.0
 76
     1
 77
     6
 78
     2
 67
     7
 79
     5
170
     0
171
     0
290
     0
174
     0
 93
        1
 44
0.0
173
     0
291
     0
 45
0.0
1001
ACAD
1000
AcDbSavedByObjectVersion
1070
     0
  0
VISUALSTYLE
  5
1087
102
{ACAD_XDICTIONARY
360
1E13
102
}
102
{ACAD_REACTORS
330
1082
102
}
330
1082
100
AcDbVisualStyle
  2
Basic
 70
     7
 71
     1
 72
     0
 73
     1
 90
        0
 40
-0.6
 41
-30.0
 62
     5
 63
     7
 74
     0
 91
        4
 64
     7
 65
   257
 75
     1
175
     1
 42
1.0
 92
        8
 66
     7
 43
1.0
 76
     1
 77
     6
 78
     2
 67
     7
 79
     5
170
     0
171
     0
290
     0
174
     0
 93
        1
 44
0.0
173
     0
291
     1
 45
0.0
1001
ACAD
1000
AcDbSavedByObjectVersion
1070
     0
  0
VISUALSTYLE
  5
108E
102
{ACAD_XDICTIONARY
360
1E21
102
}
102
{ACAD_REACTORS
330
1082
102
}
330
1082
100
AcDbVisualStyle
  2
Brighten
 70
    12
 71
     2
 72
     2
 73
     0
 90
        0
 40
-0.6
 41
-30.0
 62
     5
 63
     7
 74
     1
 91
        4
 64
     7
 65
   257
 75
     1
175
     1
 42
1.0
 92
        8
 66
     7
 43
1.0
 76
     1
 77
     6
 78
     2
 67
     7
 79
     5
170
     0
171
     0
290
     0
174
     0
 93
        1
 44
50.0
173
     0
291
     1
 45
0.0
1001
ACAD
1000
AcDbSavedByObjectVersion
1070
     0
  0
VISUALSTYLE
  5
1092
102
{ACAD_XDICTIONARY
360
1E29
102
}
102
{ACAD_REACTORS
330
1082
102
}
330
1082
100
AcDbVisualStyle
  2
ColorChange
 70
    16
 71
     2
 72
     2
 73
     3
 90
        0
 40
-0.6
 41
-30.0
 62
     5
 63
     8
 74
     1
 91
        4
 64
     7
 65
   257
 75
     1
175
     1
 42
1.0
 92
        8
 66
     8
 43
1.0
 76
     1
 77
     6
 78
     2
 67
     7
 79
     5
170
     0
171
     0
290
     0
174
     0
 93
        1
 44
0.0
173
     0
291
     1
 45
0.0
1001
ACAD
1000
AcDbSavedByObjectVersion
1070
     0
  0
VISUALSTYLE
  5
108B
102
{ACAD_XDICTIONARY
360
1E1B
102
}
102
{ACAD_REACTORS
330
1082
102
}
330
1082
100
AcDbVisualStyle
  2
Conceptual
 70
     9
 71
     3
 72
     2
 73
     0
 90
        0
 40
-0.6
 41
-30.0
 62
     5
 63
     7
 74
     2
 91
        2
 64
     7
 65
   257
 75
     1
175
     1
 42
179.0
 92
        8
 66
     7
 43
1.0
 76
     1
 77
     6
 78
     2
 67
     7
 79
     3
170
     0
171
     0
290
     0
174
     0
 93
        1
 44
0.0
173
     0
291
     0
 45
0.0
1001
ACAD
1000
AcDbSavedByObjectVersion
1070
     0
  0
VISUALSTYLE
  5
108D
102
{ACAD_XDICTIONARY
360
1E1F
102
}
102
{ACAD_REACTORS
330
1082
102
}
330
1082
100
AcDbVisualStyle
  2
Dim
 70
    11
 71
     2
 72
     2
 73
     0
 90
        0
 40
-0.6
 41
-30.0
 62
     5
 63
     7
 74
     1
 91
        4
 64
     7
 65
   257
 75
     1
175
     1
 42
1.0
 92
        8
 66
     7
 43
1.0
 76
     1
 77
     6
 78
     2
 67
     7
 79
     5
170
     0
171
     0
290
     0
174
     0
 93
        1
 44
-50.0
173
     0
291
     1
 45
0.0
1001
ACAD
1000
AcDbSavedByObjectVersion
1070
     0
  0
VISUALSTYLE
  5
1095
102
{ACAD_XDICTIONARY
360
1E2F
102
}
102
{ACAD_REACTORS
330
1082
102
}
330
1082
100
AcDbVisualStyle
  2
EdgeColorOff
 70
    22
 71
     2
 72
     2
 73
     0
 90
        0
 40
-0.6
 41
-30.0
 62
     5
 63
     7
 74
     1
 91
        4
 64
     7
 65
   257
 75
     1
175
     1
 42
1.0
 92
        8
 66
     7
 43
1.0
 76
     1
 77
     6
 78
     2
 67
     7
 79
     5
170
     0
171
     0
290
     0
174
     0
 93
        1
 44
0.0
173
     0
291
     1
 45
0.0
1001
ACAD
1000
AcDbSavedByObjectVersion
1070
     0
  0
VISUALSTYLE
  5
1091
102
{ACAD_XDICTIONARY
360
1E27
102
}
102
{ACAD_REACTORS
330
1082
102
}
330
1082
100
AcDbVisualStyle
  2
Facepattern
 70
    15
 71
     2
 72
     2
 73
     0
 90
        0
 40
-0.6
 41
-30.0
 62
     5
 63
     7
 74
     1
 91
        4
 64
     7
 65
   257
 75
     1
175
     1
 42
1.0
 92
        8
 66
     7
 43
1.0
 76
     1
 77
     6
 78
     2
 67
     7
 79
     5
170
     0
171
     0
290
     0
174
     0
 93
        1
 44
0.0
173
     0
291
     1
 45
0.0
1001
ACAD
1000
AcDbSavedByObjectVersion
1070
     0
  0
VISUALSTYLE
  5
1083
102
{ACAD_XDICTIONARY
360
1E0B
102
}
102
{ACAD_REACTORS
330
1082
102
}
330
1082
100
AcDbVisualStyle
  2
Flat
 70
     0
 71
     2
 72
     1
 73
     1
 90
        2
 40
-0.6
 41
30.0
 62
     5
 63
     7
 74
     0
 91
        4
 64
     7
 65
   257
 75
     1
175
     1
 42
1.0
 92
        8
 66
     7
 43
1.0
 76
     1
 77
     6
 78
     2
 67
     7
 79
     5
170
     0
171
     0
290
     0
174
     0
 93
       13
 44
0.0
173
     0
291
     1
 45
0.0
1001
ACAD
1000
AcDbSavedByObjectVersion
1070
     0
  0
VISUALSTYLE
  5
1084
102
{ACAD_XDICTIONARY
360
1E0D
102
}
102
{ACAD_REACTORS
330
1082
102
}
330
1082
100
AcDbVisualStyle
  2
FlatWithEdges
 70
     1
 71
     2
 72
     1
 73
     1
 90
        2
 40
-0.6
 41
30.0
 62
     5
 63
     7
 74
     1
 91
        4
 64
     7
 65
   257
 75
     1
175
     1
 42
1.0
 92
        0
 66
   257
 43
1.0
 76
     1
 77
     6
 78
     2
 67
     7
 79
     5
170
     0
171
     0
290
     0
174
     0
 93
       13
 44
0.0
173
     0
291
     1
 45
0.0
1001
ACAD
1000
AcDbSavedByObjectVersion
1070
     0
  0
VISUALSTYLE
  5
1085
102
{ACAD_XDICTIONARY
360
1E0F
102
}
102
{ACAD_REACTORS
330
1082
102
}
330
1082
100
AcDbVisualStyle
  2
Gouraud
 70
     2
 71
     2
 72
     2
 73
     1
 90
        2
 40
-0.6
 41
30.0
 62
     5
 63
     7
 74
     0
 91
        4
 64
     7
 65
   257
 75
     1
175
     1
 42
1.0
 92
        0
 66
     7
 43
1.0
 76
     1
 77
     6
 78
     2
 67
     7
 79
     5
170
     0
171
     0
290
     0
174
     0
 93
       13
 44
0.0
173
     0
291
     1
 45
0.0
1001
ACAD
1000
AcDbSavedByObjectVersion
1070
     0
  0
VISUALSTYLE
  5
1086
102
{ACAD_XDICTIONARY
360
1E11
102
}
102
{ACAD_REACTORS
330
1082
102
}
330
1082
100
AcDbVisualStyle
  2
GouraudWithEdges
 70
     3
 71
     2
 72
     2
 73
     1
 90
        2
 40
-0.6
 41
30.0
 62
     5
 63
     7
 74
     1
 91
        4
 64
     7
 65
   257
 75
     1
175
     1
 42
1.0
 92
        0
 66
   257
 43
1.0
 76
     1
 77
     6
 78
     2
 67
     7
 79
     5
170
     0
171
     0
290
     0
174
     0
 93
       13
 44
0.0
173
     0
291
     1
 45
0.0
1001
ACAD
1000
AcDbSavedByObjectVersion
1070
     0
  0
VISUALSTYLE
  5
1093
102
{ACAD_XDICTIONARY
360
1E2B
102
}
102
{ACAD_REACTORS
330
1082
102
}
330
1082
100
AcDbVisualStyle
  2
JitterOff
 70
    20
 71
     2
 72
     2
 73
     0
 90
        0
 40
-0.6
 41
-30.0
 62
     5
 63
     7
 74
     1
 91
        4
 64
     7
 65
   257
 75
     1
175
     1
 42
1.0
 92
       10
 66
     7
 43
1.0
 76
     1
 77
     6
 78
     2
 67
     7
 79
     5
170
     0
171
     0
290
     0
174
     0
 93
        1
 44
0.0
173
     0
291
     1
 45
0.0
1001
ACAD
1000
AcDbSavedByObjectVersion
1070
     0
  0
VISUALSTYLE
  5
1090
102
{ACAD_XDICTIONARY
360
1E25
102
}
102
{ACAD_REACTORS
330
1082
102
}
330
1082
100
AcDbVisualStyle
  2
Linepattern
 70
    14
 71
     2
 72
     2
 73
     0
 90
        0
 40
-0.6
 41
-30.0
 62
     5
 63
     7
 74
     1
 91
        4
 64
     7
 65
   257
 75
     7
175
     7
 42
1.0
 92
        8
 66
     7
 43
1.0
 76
     1
 77
     6
 78
     2
 67
     7
 79
     5
170
     0
171
     0
290
     0
174
     0
 93
        1
 44
0.0
173
     0
291
     1
 45
0.0
1001
ACAD
1000
AcDbSavedByObjectVersion
1070
     0
  0
VISUALSTYLE
  5
1094
102
{ACAD_XDICTIONARY
360
1E2D
102
}
102
{ACAD_REACTORS
330
1082
102
}
330
1082
100
AcDbVisualStyle
  2
OverhangOff
 70
    21
 71
     2
 72
     2
 73
     0
 90
        0
 40
-0.6
 41
-30.0
 62
     5
 63
     7
 74
     1
 91
        4
 64
     7
 65
   257
 75
     1
175
     1
 42
1.0
 92
        9
 66
     7
 43
1.0
 76
     1
 77
     6
 78
     2
 67
     7
 79
     5
170
     0
171
     0
290
     0
174
     0
 93
        1
 44
0.0
173
     0
291
     1
 45
0.0
1001
ACAD
1000
AcDbSavedByObjectVersion
1070
     0
  0
VISUALSTYLE
  5
108C
102
{ACAD_XDICTIONARY
360
1E1D
102
}
102
{ACAD_REACTORS
330
1082
102
}
330
1082
100
AcDbVisualStyle
  2
Realistic
 70
     8
 71
     2
 72
     2
 73
     0
 90
        0
 40
-0.6
 41
-30.0
 62
     5
 63
     7
 74
     1
 91
        0
 64
     7
 65
   257
 75
     1
175
     1
 42
1.0
 92
        8
 66
     8
 43
1.0
 76
     1
 77
     6
 78
     2
 67
     7
 79
     5
170
     0
171
     0
290
     0
174
     0
 93
       13
 44
0.0
173
     0
291
     0
 45
0.0
1001
ACAD
1000
AcDbSavedByObjectVersion
1070
     0
  0
VISUALSTYLE
  5
108F
102
{ACAD_XDICTIONARY
360
1E23
102
}
102
{ACAD_REACTORS
330
1082
102
}
330
1082
100
AcDbVisualStyle
  2
Thicken
 70
    13
 71
     2
 72
     2
 73
     0
 90
        0
 40
-0.6
 41
-30.0
 62
     5
 63
     7
 74
     1
 91
        4
 64
     7
 65
   257
 75
     1
175
     1
 42
1.0
 92
       12
 66
     7
 43
1.0
 76
     1
 77
     6
 78
     2
 67
     7
 79
     5
170
     0
171
     0
290
     0
174
     0
 93
        1
 44
0.0
173
     0
291
     1
 45
0.0
1001
ACAD
1000
AcDbSavedByObjectVersion
1070
     0
  0
DICTIONARYVAR
  5
1DF7
102
{ACAD_REACTORS
330
3D
102
}
330
3D
100
DictionaryVariables
280
     0
  1
1:1
  0
DICTIONARYVAR
  5
1DF6
102
{ACAD_REACTORS
330
3D
102
}
330
3D
100
DictionaryVariables
280
     0
  1
STANDARD
  0
DICTIONARYVAR
  5
1049
102
{ACAD_REACTORS
330
3D
102
}
330
3D
100
DictionaryVariables
280
     0
  1
STANDARD
  0
DICTIONARYVAR
  5
3F
102
{ACAD_REACTORS
330
3D
102
}
330
3D
100
DictionaryVariables
280
     0
  1
2
  0
DICTIONARYVAR
  5
3E
102
{ACAD_REACTORS
330
3D
102
}
330
3D
100
DictionaryVariables
280
     0
  1
1
  0
DICTIONARYVAR
  5
1DF9
102
{ACAD_REACTORS
330
3D
102
}
330
3D
100
DictionaryVariables
280
     0
  1
0
  0
DICTIONARYVAR
  5
1DF8
102
{ACAD_REACTORS
330
3D
102
}
330
3D
100
DictionaryVariables
280
     0
  1
127
  0
DICTIONARYVAR
  5
1DFA
102
{ACAD_REACTORS
330
3D
102
}
330
3D
100
DictionaryVariables
280
     0
  1
0
  0
XRECORD
  5
1067
102
{ACAD_REACTORS
330
1066
102
}
330
1066
100
AcDbXrecord
280
     1
  0
DICTIONARY
  5
1E01
330
1E
100
AcDbDictionary
280
     1
281
     1
  3
ACAD_XREC_ROUNDTRIP
360
1E02
  0
DICTIONARY
  5
1E05
330
26
100
AcDbDictionary
280
     1
281
     1
  3
ACAD_XREC_ROUNDTRIP
360
1E06
  0
DICTIONARY
  5
1E03
330
22
100
AcDbDictionary
280
     1
281
     1
  3
ACAD_XREC_ROUNDTRIP
360
1E04
  0
DICTIONARY
  5
1073
330
1072
100
AcDbDictionary
280
     1
281
     1
  3
ACAD_XREC_ROUNDTRIP
360
1E09
  3
BUMPTILE
360
1075
  3
DIFFUSETILE
360
1074
  3
OPACITYTILE
360
1078
  3
REFLECTIONTILE
360
1077
  3
REFRACTIONTILE
360
1079
  3
SPECULARTILE
360
1076
  0
DICTIONARY
  5
106B
330
106A
100
AcDbDictionary
280
     1
281
     1
  3
ACAD_XREC_ROUNDTRIP
360
1E08
  3
BUMPTILE
360
106D
  3
DIFFUSETILE
360
106C
  3
OPACITYTILE
360
1070
  3
REFLECTIONTILE
360
106F
  3
REFRACTIONTILE
360
1071
  3
SPECULARTILE
360
106E
  0
DICTIONARY
  5
107B
330
107A
100
AcDbDictionary
280
     1
281
     1
  3
ACAD_XREC_ROUNDTRIP
360
1E0A
  3
BUMPTILE
360
107D
  3
DIFFUSETILE
360
107C
  3
OPACITYTILE
360
1080
  3
REFLECTIONTILE
360
107F
  3
REFRACTIONTILE
360
1081
  3
SPECULARTILE
360
107E
  0
DICTIONARY
  5
1DFB
330
EE8
100
AcDbDictionary
280
     1
281
     1
  3
ACAD_ROUNDTRIP_2008_TABLESTYLE_CELLSTYLEMAP
360
1DFC
  3
ACAD_XREC_ROUNDTRIP
360
1E07
  0
DICTIONARY
  5
1E15
330
1088
100
AcDbDictionary
280
     1
281
     1
  3
ACAD_XREC_ROUNDTRIP
360
1E16
  0
DICTIONARY
  5
1E19
330
108A
100
AcDbDictionary
280
     1
281
     1
  3
ACAD_XREC_ROUNDTRIP
360
1E1A
  0
DICTIONARY
  5
1E17
330
1089
100
AcDbDictionary
280
     1
281
     1
  3
ACAD_XREC_ROUNDTRIP
360
1E18
  0
DICTIONARY
  5
1E13
330
1087
100
AcDbDictionary
280
     1
281
     1
  3
ACAD_XREC_ROUNDTRIP
360
1E14
  0
DICTIONARY
  5
1E21
330
108E
100
AcDbDictionary
280
     1
281
     1
  3
ACAD_XREC_ROUNDTRIP
360
1E22
  0
DICTIONARY
  5
1E29
330
1092
100
AcDbDictionary
280
     1
281
     1
  3
ACAD_XREC_ROUNDTRIP
360
1E2A
  0
DICTIONARY
  5
1E1B
330
108B
100
AcDbDictionary
280
     1
281
     1
  3
ACAD_XREC_ROUNDTRIP
360
1E1C
  0
DICTIONARY
  5
1E1F
330
108D
100
AcDbDictionary
280
     1
281
     1
  3
ACAD_XREC_ROUNDTRIP
360
1E20
  0
DICTIONARY
  5
1E2F
330
1095
100
AcDbDictionary
280
     1
281
     1
  3
ACAD_XREC_ROUNDTRIP
360
1E30
  0
DICTIONARY
  5
1E27
330
1091
100
AcDbDictionary
280
     1
281
     1
  3
ACAD_XREC_ROUNDTRIP
360
1E28
  0
DICTIONARY
  5
1E0B
330
1083
100
AcDbDictionary
280
     1
281
     1
  3
ACAD_XREC_ROUNDTRIP
360
1E0C
  0
DICTIONARY
  5
1E0D
330
1084
100
AcDbDictionary
280
     1
281
     1
  3
ACAD_XREC_ROUNDTRIP
360
1E0E
  0
DICTIONARY
  5
1E0F
330
1085
100
AcDbDictionary
280
     1
281
     1
  3
ACAD_XREC_ROUNDTRIP
360
1E10
  0
DICTIONARY
  5
1E11
330
1086
100
AcDbDictionary
280
     1
281
     1
  3
ACAD_XREC_ROUNDTRIP
360
1E12
  0
DICTIONARY
  5
1E2B
330
1093
100
AcDbDictionary
280
     1
281
     1
  3
ACAD_XREC_ROUNDTRIP
360
1E2C
  0
DICTIONARY
  5
1E25
330
1090
100
AcDbDictionary
280
     1
281
     1
  3
ACAD_XREC_ROUNDTRIP
360
1E26
  0
DICTIONARY
  5
1E2D
330
1094
100
AcDbDictionary
280
     1
281
     1
  3
ACAD_XREC_ROUNDTRIP
360
1E2E
  0
DICTIONARY
  5
1E1D
330
108C
100
AcDbDictionary
280
     1
281
     1
  3
ACAD_XREC_ROUNDTRIP
360
1E1E
  0
DICTIONARY
  5
1E23
330
108F
100
AcDbDictionary
280
     1
281
     1
  3
ACAD_XREC_ROUNDTRIP
360
1E24
  0
XRECORD
  5
1E02
102
{ACAD_REACTORS
330
1E01
102
}
330
1E01
100
AcDbXrecord
280
     1
102
SHADEPLOT
 70
     0
102
SHADEPLOTRESLEVEL
 70
     2
102
SHADEPLOTCUSTOMDPI
 70
   300
  0
XRECORD
  5
1E06
102
{ACAD_REACTORS
330
1E05
102
}
330
1E05
100
AcDbXrecord
280
     1
102
SHADEPLOT
 70
     0
102
SHADEPLOTRESLEVEL
 70
     2
102
SHADEPLOTCUSTOMDPI
 70
   300
  0
XRECORD
  5
1E04
102
{ACAD_REACTORS
330
1E03
102
}
330
1E03
100
AcDbXrecord
280
     1
102
SHADEPLOT
 70
     0
102
SHADEPLOTRESLEVEL
 70
     2
102
SHADEPLOTCUSTOMDPI
 70
   300
  0
XRECORD
  5
1E09
102
{ACAD_REACTORS
330
1073
102
}
330
1073
100
AcDbXrecord
280
     1
102
MATERIAL
148
0.0
149
0.0
149
0.0
 93
        0
 94
      127
282
     0
 72
     0
 77
     0
171
     0
175
     0
179
     0
273
     0
  0
XRECORD
  5
1075
102
{ACAD_REACTORS
330
1073
102
}
330
1073
100
AcDbXrecord
280
     1
270
     1
271
     1
  0
XRECORD
  5
1074
102
{ACAD_REACTORS
330
1073
102
}
330
1073
100
AcDbXrecord
280
     1
270
     1
271
     1
  0
XRECORD
  5
1078
102
{ACAD_REACTORS
330
1073
102
}
330
1073
100
AcDbXrecord
280
     1
270
     1
271
     1
  0
XRECORD
  5
1077
102
{ACAD_REACTORS
330
1073
102
}
330
1073
100
AcDbXrecord
280
     1
270
     1
271
     1
  0
XRECORD
  5
1079
102
{ACAD_REACTORS
330
1073
102
}
330
1073
100
AcDbXrecord
280
     1
270
     1
271
     1
  0
XRECORD
  5
1076
102
{ACAD_REACTORS
330
1073
102
}
330
1073
100
AcDbXrecord
280
     1
270
     1
271
     1
  0
XRECORD
  5
1E08
102
{ACAD_REACTORS
330
106B
102
}
330
106B
100
AcDbXrecord
280
     1
102
MATERIAL
148
0.0
149
0.0
149
0.0
 93
        0
 94
      127
282
     0
 72
     0
 77
     0
171
     0
175
     0
179
     0
273
     0
  0
XRECORD
  5
106D
102
{ACAD_REACTORS
330
106B
102
}
330
106B
100
AcDbXrecord
280
     1
270
     1
271
     1
  0
XRECORD
  5
106C
102
{ACAD_REACTORS
330
106B
102
}
330
106B
100
AcDbXrecord
280
     1
270
     1
271
     1
  0
XRECORD
  5
1070
102
{ACAD_REACTORS
330
106B
102
}
330
106B
100
AcDbXrecord
280
     1
270
     1
271
     1
  0
XRECORD
  5
106F
102
{ACAD_REACTORS
330
106B
102
}
330
106B
100
AcDbXrecord
280
     1
270
     1
271
     1
  0
XRECORD
  5
1071
102
{ACAD_REACTORS
330
106B
102
}
330
106B
100
AcDbXrecord
280
     1
270
     1
271
     1
  0
XRECORD
  5
106E
102
{ACAD_REACTORS
330
106B
102
}
330
106B
100
AcDbXrecord
280
     1
270
     1
271
     1
  0
XRECORD
  5
1E0A
102
{ACAD_REACTORS
330
107B
102
}
330
107B
100
AcDbXrecord
280
     1
102
MATERIAL
148
0.0
149
0.0
149
0.0
 93
        0
 94
      127
282
     0
 72
     0
 77
     0
171
     0
175
     0
179
     0
273
     0
  0
XRECORD
  5
107D
102
{ACAD_REACTORS
330
107B
102
}
330
107B
100
AcDbXrecord
280
     1
270
     1
271
     1
  0
XRECORD
  5
107C
102
{ACAD_REACTORS
330
107B
102
}
330
107B
100
AcDbXrecord
280
     1
270
     1
271
     1
  0
XRECORD
  5
1080
102
{ACAD_REACTORS
330
107B
102
}
330
107B
100
AcDbXrecord
280
     1
270
     1
271
     1
  0
XRECORD
  5
107F
102
{ACAD_REACTORS
330
107B
102
}
330
107B
100
AcDbXrecord
280
     1
270
     1
271
     1
  0
XRECORD
  5
1081
102
{ACAD_REACTORS
330
107B
102
}
330
107B
100
AcDbXrecord
280
     1
270
     1
271
     1
  0
XRECORD
  5
107E
102
{ACAD_REACTORS
330
107B
102
}
330
107B
100
AcDbXrecord
280
     1
270
     1
271
     1
  0
CELLSTYLEMAP
  5
1DFC
102
{ACAD_REACTORS
330
1DFB
102
}
330
1DFB
100
AcDbCellStyleMap
 90
        3
300
CELLSTYLE
  1
TABLEFORMAT_BEGIN
 90
        5
170
     1
 91
        0
 92
    32768
 62
   257
 93
        1
300
CONTENTFORMAT
  1
CONTENTFORMAT_BEGIN
 90
        0
 91
        0
 92
        4
 93
        0
300

 40
0.0
140
1.0
 94
        5
 62
     0
340
11
144
6.0
309
CONTENTFORMAT_END
171
     1
301
MARGIN
  1
CELLMARGIN_BEGIN
 40
1.5
 40
1.5
 40
1.5
 40
1.5
 40
0.18
 40
0.18
309
CELLMARGIN_END
 94
        6
 95
        1
302
GRIDFORMAT
  1
GRIDFORMAT_BEGIN
 90
        0
 91
        1
 62
     0
 92
       -2
340
0
 93
        0
 40
0.045
309
GRIDFORMAT_END
 95
        2
302
GRIDFORMAT
  1
GRIDFORMAT_BEGIN
 90
        0
 91
        1
 62
     0
 92
       -2
340
0
 93
        0
 40
0.045
309
GRIDFORMAT_END
 95
        4
302
GRIDFORMAT
  1
GRIDFORMAT_BEGIN
 90
        0
 91
        1
 62
     0
 92
       -2
340
0
 93
        0
 40
0.045
309
GRIDFORMAT_END
 95
        8
302
GRIDFORMAT
  1
GRIDFORMAT_BEGIN
 90
        0
 91
        1
 62
     0
 92
       -2
340
0
 93
        0
 40
0.045
309
GRIDFORMAT_END
 95
       16
302
GRIDFORMAT
  1
GRIDFORMAT_BEGIN
 90
        0
 91
        1
 62
     0
 92
       -2
340
0
 93
        0
 40
0.045
309
GRIDFORMAT_END
 95
       32
302
GRIDFORMAT
  1
GRIDFORMAT_BEGIN
 90
        0
 91
        1
 62
     0
 92
       -2
340
0
 93
        0
 40
0.045
309
GRIDFORMAT_END
309
TABLEFORMAT_END
  1
CELLSTYLE_BEGIN
 90
        1
 91
        1
300
_TITLE
309
CELLSTYLE_END
300
CELLSTYLE
  1
TABLEFORMAT_BEGIN
 90
        5
170
     1
 91
        0
 92
        0
 62
   257
 93
        1
300
CONTENTFORMAT
  1
CONTENTFORMAT_BEGIN
 90
        0
 91
        0
 92
        4
 93
        0
300

 40
0.0
140
1.0
 94
        5
 62
     0
340
11
144
4.5
309
CONTENTFORMAT_END
171
     1
301
MARGIN
  1
CELLMARGIN_BEGIN
 40
1.5
 40
1.5
 40
1.5
 40
1.5
 40
0.18
 40
0.18
309
CELLMARGIN_END
 94
        6
 95
        1
302
GRIDFORMAT
  1
GRIDFORMAT_BEGIN
 90
        0
 91
        1
 62
     0
 92
       -2
340
0
 93
        0
 40
0.045
309
GRIDFORMAT_END
 95
        2
302
GRIDFORMAT
  1
GRIDFORMAT_BEGIN
 90
        0
 91
        1
 62
     0
 92
       -2
340
0
 93
        0
 40
0.045
309
GRIDFORMAT_END
 95
        4
302
GRIDFORMAT
  1
GRIDFORMAT_BEGIN
 90
        0
 91
        1
 62
     0
 92
       -2
340
0
 93
        0
 40
0.045
309
GRIDFORMAT_END
 95
        8
302
GRIDFORMAT
  1
GRIDFORMAT_BEGIN
 90
        0
 91
        1
 62
     0
 92
       -2
340
0
 93
        0
 40
0.045
309
GRIDFORMAT_END
 95
       16
302
GRIDFORMAT
  1
GRIDFORMAT_BEGIN
 90
        0
 91
        1
 62
     0
 92
       -2
340
0
 93
        0
 40
0.045
309
GRIDFORMAT_END
 95
       32
302
GRIDFORMAT
  1
GRIDFORMAT_BEGIN
 90
        0
 91
        1
 62
     0
 92
       -2
340
0
 93
        0
 40
0.045
309
GRIDFORMAT_END
309
TABLEFORMAT_END
  1
CELLSTYLE_BEGIN
 90
        2
 91
        1
300
_HEADER
309
CELLSTYLE_END
300
CELLSTYLE
  1
TABLEFORMAT_BEGIN
 90
        5
170
     1
 91
        0
 92
        0
 62
   257
 93
        1
300
CONTENTFORMAT
  1
CONTENTFORMAT_BEGIN
 90
        0
 91
        0
 92
        4
 93
        0
300

 40
0.0
140
1.0
 94
        2
 62
     0
340
11
144
4.5
309
CONTENTFORMAT_END
171
     1
301
MARGIN
  1
CELLMARGIN_BEGIN
 40
1.5
 40
1.5
 40
1.5
 40
1.5
 40
0.18
 40
0.18
309
CELLMARGIN_END
 94
        6
 95
        1
302
GRIDFORMAT
  1
GRIDFORMAT_BEGIN
 90
        0
 91
        1
 62
     0
 92
       -2
340
0
 93
        0
 40
0.045
309
GRIDFORMAT_END
 95
        2
302
GRIDFORMAT
  1
GRIDFORMAT_BEGIN
 90
        0
 91
        1
 62
     0
 92
       -2
340
0
 93
        0
 40
0.045
309
GRIDFORMAT_END
 95
        4
302
GRIDFORMAT
  1
GRIDFORMAT_BEGIN
 90
        0
 91
        1
 62
     0
 92
       -2
340
0
 93
        0
 40
0.045
309
GRIDFORMAT_END
 95
        8
302
GRIDFORMAT
  1
GRIDFORMAT_BEGIN
 90
        0
 91
        1
 62
     0
 92
       -2
340
0
 93
        0
 40
0.045
309
GRIDFORMAT_END
 95
       16
302
GRIDFORMAT
  1
GRIDFORMAT_BEGIN
 90
        0
 91
        1
 62
     0
 92
       -2
340
0
 93
        0
 40
0.045
309
GRIDFORMAT_END
 95
       32
302
GRIDFORMAT
  1
GRIDFORMAT_BEGIN
 90
        0
 91
        1
 62
     0
 92
       -2
340
0
 93
        0
 40
0.045
309
GRIDFORMAT_END
309
TABLEFORMAT_END
  1
CELLSTYLE_BEGIN
 90
        3
 91
        2
300
_DATA
309
CELLSTYLE_END
  0
XRECORD
  5
1E07
102
{ACAD_REACTORS
330
1DFB
102
}
330
1DFB
100
AcDbXrecord
280
     1
102
ACAD_ROUNDTRIP_PRE2007_TABLESTYLE
 90
        4
 91
        0
  1

 92
        4
 93
        0
  2

 94
        4
 95
        0
  3

  0
XRECORD
  5
1E16
102
{ACAD_REACTORS
330
1E15
102
}
330
1E15
100
AcDbXrecord
280
     1
102
RTVSPropertyOp0
 70
     1
102
RTVSPropertyOp1
 70
     1
102
RTVSPropertyOp2
 70
     1
102
RTVSPropertyOp3
 70
     1
102
RTVSPropertyOp4
 70
     1
102
RTVSPropertyOp5
 70
     1
102
RTVSPropertyOp6
 70
     1
102
RTVSPropertyOp7
 70
     1
102
RTVSPropertyOp8
 70
     1
102
RTVSPropertyOp9
 70
     1
102
RTVSPropertyOp10
 70
     1
102
RTVSPropertyOp11
 70
     1
102
RTVSPropertyOp12
 70
     1
102
RTVSPropertyOp13
 70
     1
102
RTVSPropertyOp14
 70
     1
102
RTVSPropertyOp15
 70
     1
102
RTVSPropertyOp16
 70
     1
102
RTVSPropertyOp17
 70
     1
102
RTVSPropertyOp18
 70
     1
102
RTVSPropertyOp19
 70
     1
102
RTVSPropertyOp20
 70
     1
102
RTVSPropertyOp21
 70
     1
102
RTVSPropertyOp22
 70
     1
102
RTVSPropertyOp23
 70
     1
102
RTVSPropertyOp24
 70
     1
102
RTVSPropertyOp25
 70
     1
102
RTVSPropertyOp26
 70
     1
102
RTVSPropertyOp27
 70
     1
  0
XRECORD
  5
1E1A
102
{ACAD_REACTORS
330
1E19
102
}
330
1E19
100
AcDbXrecord
280
     1
102
RTVSPropertyOp0
 70
     1
102
RTVSPropertyOp1
 70
     1
102
RTVSPropertyOp2
 70
     1
102
RTVSPropertyOp3
 70
     1
102
RTVSPropertyOp4
 70
     1
102
RTVSPropertyOp5
 70
     1
102
RTVSPropertyOp6
 70
     1
102
RTVSPropertyOp7
 70
     1
102
RTVSPropertyOp8
 70
     1
102
RTVSPropertyOp9
 70
     1
102
RTVSPropertyOp10
 70
     1
102
RTVSPropertyOp11
 70
     1
102
RTVSPropertyOp12
 70
     1
102
RTVSPropertyOp13
 70
     1
102
RTVSPropertyOp14
 70
     1
102
RTVSPropertyOp15
 70
     1
102
RTVSPropertyOp16
 70
     1
102
RTVSPropertyOp17
 70
     1
102
RTVSPropertyOp18
 70
     1
102
RTVSPropertyOp19
 70
     1
102
RTVSPropertyOp20
 70
     1
102
RTVSPropertyOp21
 70
     1
102
RTVSPropertyOp22
 70
     1
102
RTVSPropertyOp23
 70
     1
102
RTVSPropertyOp24
 70
     1
102
RTVSPropertyOp25
 70
     1
102
RTVSPropertyOp26
 70
     1
102
RTVSPropertyOp27
 70
     1
  0
XRECORD
  5
1E18
102
{ACAD_REACTORS
330
1E17
102
}
330
1E17
100
AcDbXrecord
280
     1
102
RTVSPropertyOp0
 70
     1
102
RTVSPropertyOp1
 70
     1
102
RTVSPropertyOp2
 70
     1
102
RTVSPropertyOp3
 70
     1
102
RTVSPropertyOp4
 70
     1
102
RTVSPropertyOp5
 70
     1
102
RTVSPropertyOp6
 70
     1
102
RTVSPropertyOp7
 70
     1
102
RTVSPropertyOp8
 70
     1
102
RTVSPropertyOp9
 70
     1
102
RTVSPropertyOp10
 70
     1
102
RTVSPropertyOp11
 70
     1
102
RTVSPropertyOp12
 70
     1
102
RTVSPropertyOp13
 70
     1
102
RTVSPropertyOp14
 70
     1
102
RTVSPropertyOp15
 70
     1
102
RTVSPropertyOp16
 70
     1
102
RTVSPropertyOp17
 70
     1
102
RTVSPropertyOp18
 70
     1
102
RTVSPropertyOp19
 70
     1
102
RTVSPropertyOp20
 70
     1
102
RTVSPropertyOp21
 70
     1
102
RTVSPropertyOp22
 70
     1
102
RTVSPropertyOp23
 70
     1
102
RTVSPropertyOp24
 70
     1
102
RTVSPropertyOp25
 70
     1
102
RTVSPropertyOp26
 70
     1
102
RTVSPropertyOp27
 70
     1
  0
XRECORD
  5
1E14
102
{ACAD_REACTORS
330
1E13
102
}
330
1E13
100
AcDbXrecord
280
     1
102
RTVSPropertyOp0
 70
     1
102
RTVSPropertyOp1
 70
     1
102
RTVSPropertyOp2
 70
     1
102
RTVSPropertyOp3
 70
     1
102
RTVSPropertyOp4
 70
     1
102
RTVSPropertyOp5
 70
     1
102
RTVSPropertyOp6
 70
     1
102
RTVSPropertyOp7
 70
     1
102
RTVSPropertyOp8
 70
     1
102
RTVSPropertyOp9
 70
     1
102
RTVSPropertyOp10
 70
     1
102
RTVSPropertyOp11
 70
     1
102
RTVSPropertyOp12
 70
     1
102
RTVSPropertyOp13
 70
     1
102
RTVSPropertyOp14
 70
     1
102
RTVSPropertyOp15
 70
     1
102
RTVSPropertyOp16
 70
     1
102
RTVSPropertyOp17
 70
     1
102
RTVSPropertyOp18
 70
     1
102
RTVSPropertyOp19
 70
     1
102
RTVSPropertyOp20
 70
     1
102
RTVSPropertyOp21
 70
     1
102
RTVSPropertyOp22
 70
     1
102
RTVSPropertyOp23
 70
     1
102
RTVSPropertyOp24
 70
     1
102
RTVSPropertyOp25
 70
     1
102
RTVSPropertyOp26
 70
     1
102
RTVSPropertyOp27
 70
     1
  0
XRECORD
  5
1E22
102
{ACAD_REACTORS
330
1E21
102
}
330
1E21
100
AcDbXrecord
280
     1
102
RTVSPropertyOp0
 70
     1
102
RTVSPropertyOp1
 70
     1
102
RTVSPropertyOp2
 70
     1
102
RTVSPropertyOp3
 70
     1
102
RTVSPropertyOp4
 70
     1
102
RTVSPropertyOp5
 70
     1
102
RTVSPropertyOp6
 70
     1
102
RTVSPropertyOp7
 70
     1
102
RTVSPropertyOp8
 70
     1
102
RTVSPropertyOp9
 70
     1
102
RTVSPropertyOp10
 70
     1
102
RTVSPropertyOp11
 70
     1
102
RTVSPropertyOp12
 70
     1
102
RTVSPropertyOp13
 70
     1
102
RTVSPropertyOp14
 70
     1
102
RTVSPropertyOp15
 70
     1
102
RTVSPropertyOp16
 70
     1
102
RTVSPropertyOp17
 70
     1
102
RTVSPropertyOp18
 70
     1
102
RTVSPropertyOp19
 70
     1
102
RTVSPropertyOp20
 70
     1
102
RTVSPropertyOp21
 70
     1
102
RTVSPropertyOp22
 70
     1
102
RTVSPropertyOp23
 70
     1
102
RTVSPropertyOp24
 70
     1
102
RTVSPropertyOp25
 70
     1
102
RTVSPropertyOp26
 70
     1
102
RTVSPropertyOp27
 70
     1
  0
XRECORD
  5
1E2A
102
{ACAD_REACTORS
330
1E29
102
}
330
1E29
100
AcDbXrecord
280
     1
102
RTVSPropertyOp0
 70
     1
102
RTVSPropertyOp1
 70
     1
102
RTVSPropertyOp2
 70
     1
102
RTVSPropertyOp3
 70
     1
102
RTVSPropertyOp4
 70
     1
102
RTVSPropertyOp5
 70
     1
102
RTVSPropertyOp6
 70
     1
102
RTVSPropertyOp7
 70
     1
102
RTVSPropertyOp8
 70
     1
102
RTVSPropertyOp9
 70
     1
102
RTVSPropertyOp10
 70
     1
102
RTVSPropertyOp11
 70
     1
102
RTVSPropertyOp12
 70
     1
102
RTVSPropertyOp13
 70
     1
102
RTVSPropertyOp14
 70
     1
102
RTVSPropertyOp15
 70
     1
102
RTVSPropertyOp16
 70
     1
102
RTVSPropertyOp17
 70
     1
102
RTVSPropertyOp18
 70
     1
102
RTVSPropertyOp19
 70
     1
102
RTVSPropertyOp20
 70
     1
102
RTVSPropertyOp21
 70
     1
102
RTVSPropertyOp22
 70
     1
102
RTVSPropertyOp23
 70
     1
102
RTVSPropertyOp24
 70
     1
102
RTVSPropertyOp25
 70
     1
102
RTVSPropertyOp26
 70
     1
102
RTVSPropertyOp27
 70
     1
  0
XRECORD
  5
1E1C
102
{ACAD_REACTORS
330
1E1B
102
}
330
1E1B
100
AcDbXrecord
280
     1
102
RTVSPropertyOp0
 70
     1
102
RTVSPropertyOp1
 70
     1
102
RTVSPropertyOp2
 70
     1
102
RTVSPropertyOp3
 70
     1
102
RTVSPropertyOp4
 70
     1
102
RTVSPropertyOp5
 70
     1
102
RTVSPropertyOp6
 70
     1
102
RTVSPropertyOp7
 70
     1
102
RTVSPropertyOp8
 70
     1
102
RTVSPropertyOp9
 70
     1
102
RTVSPropertyOp10
 70
     1
102
RTVSPropertyOp11
 70
     1
102
RTVSPropertyOp12
 70
     1
102
RTVSPropertyOp13
 70
     1
102
RTVSPropertyOp14
 70
     1
102
RTVSPropertyOp15
 70
     1
102
RTVSPropertyOp16
 70
     1
102
RTVSPropertyOp17
 70
     1
102
RTVSPropertyOp18
 70
     1
102
RTVSPropertyOp19
 70
     1
102
RTVSPropertyOp20
 70
     1
102
RTVSPropertyOp21
 70
     1
102
RTVSPropertyOp22
 70
     1
102
RTVSPropertyOp23
 70
     1
102
RTVSPropertyOp24
 70
     1
102
RTVSPropertyOp25
 70
     1
102
RTVSPropertyOp26
 70
     1
102
RTVSPropertyOp27
 70
     1
  0
XRECORD
  5
1E20
102
{ACAD_REACTORS
330
1E1F
102
}
330
1E1F
100
AcDbXrecord
280
     1
102
RTVSPropertyOp0
 70
     1
102
RTVSPropertyOp1
 70
     1
102
RTVSPropertyOp2
 70
     1
102
RTVSPropertyOp3
 70
     1
102
RTVSPropertyOp4
 70
     1
102
RTVSPropertyOp5
 70
     1
102
RTVSPropertyOp6
 70
     1
102
RTVSPropertyOp7
 70
     1
102
RTVSPropertyOp8
 70
     1
102
RTVSPropertyOp9
 70
     1
102
RTVSPropertyOp10
 70
     1
102
RTVSPropertyOp11
 70
     1
102
RTVSPropertyOp12
 70
     1
102
RTVSPropertyOp13
 70
     1
102
RTVSPropertyOp14
 70
     1
102
RTVSPropertyOp15
 70
     1
102
RTVSPropertyOp16
 70
     1
102
RTVSPropertyOp17
 70
     1
102
RTVSPropertyOp18
 70
     1
102
RTVSPropertyOp19
 70
     1
102
RTVSPropertyOp20
 70
     1
102
RTVSPropertyOp21
 70
     1
102
RTVSPropertyOp22
 70
     1
102
RTVSPropertyOp23
 70
     1
102
RTVSPropertyOp24
 70
     1
102
RTVSPropertyOp25
 70
     1
102
RTVSPropertyOp26
 70
     1
102
RTVSPropertyOp27
 70
     1
  0
XRECORD
  5
1E30
102
{ACAD_REACTORS
330
1E2F
102
}
330
1E2F
100
AcDbXrecord
280
     1
102
RTVSPropertyOp0
 70
     0
102
RTVSPropertyOp1
 70
     0
102
RTVSPropertyOp2
 70
     0
102
RTVSPropertyOp3
 70
     0
102
RTVSPropertyOp4
 70
     0
102
RTVSPropertyOp5
 70
     0
102
RTVSPropertyOp6
 70
     0
102
RTVSPropertyOp7
 70
     0
102
RTVSPropertyOp8
 70
     0
102
RTVSPropertyOp9
 70
     0
102
RTVSPropertyOp10
 70
     0
102
RTVSPropertyOp11
 70
     0
102
RTVSPropertyOp12
 70
     0
102
RTVSPropertyOp13
 70
     0
102
RTVSPropertyOp14
 70
     2
102
RTVSPropertyOp15
 70
     0
102
RTVSPropertyOp16
 70
     0
102
RTVSPropertyOp17
 70
     0
102
RTVSPropertyOp18
 70
     0
102
RTVSPropertyOp19
 70
     0
102
RTVSPropertyOp20
 70
     0
102
RTVSPropertyOp21
 70
     0
102
RTVSPropertyOp22
 70
     0
102
RTVSPropertyOp23
 70
     0
102
RTVSPropertyOp24
 70
     0
102
RTVSPropertyOp25
 70
     0
102
RTVSPropertyOp26
 70
     0
102
RTVSPropertyOp27
 70
     0
  0
XRECORD
  5
1E28
102
{ACAD_REACTORS
330
1E27
102
}
330
1E27
100
AcDbXrecord
280
     1
102
RTVSPropertyOp0
 70
     1
102
RTVSPropertyOp1
 70
     1
102
RTVSPropertyOp2
 70
     1
102
RTVSPropertyOp3
 70
     1
102
RTVSPropertyOp4
 70
     1
102
RTVSPropertyOp5
 70
     1
102
RTVSPropertyOp6
 70
     1
102
RTVSPropertyOp7
 70
     1
102
RTVSPropertyOp8
 70
     1
102
RTVSPropertyOp9
 70
     1
102
RTVSPropertyOp10
 70
     1
102
RTVSPropertyOp11
 70
     1
102
RTVSPropertyOp12
 70
     1
102
RTVSPropertyOp13
 70
     1
102
RTVSPropertyOp14
 70
     1
102
RTVSPropertyOp15
 70
     1
102
RTVSPropertyOp16
 70
     1
102
RTVSPropertyOp17
 70
     1
102
RTVSPropertyOp18
 70
     1
102
RTVSPropertyOp19
 70
     1
102
RTVSPropertyOp20
 70
     1
102
RTVSPropertyOp21
 70
     1
102
RTVSPropertyOp22
 70
     1
102
RTVSPropertyOp23
 70
     1
102
RTVSPropertyOp24
 70
     1
102
RTVSPropertyOp25
 70
     1
102
RTVSPropertyOp26
 70
     1
102
RTVSPropertyOp27
 70
     1
  0
XRECORD
  5
1E0C
102
{ACAD_REACTORS
330
1E0B
102
}
330
1E0B
100
AcDbXrecord
280
     1
102
RTVSPropertyOp0
 70
     1
102
RTVSPropertyOp1
 70
     1
102
RTVSPropertyOp2
 70
     1
102
RTVSPropertyOp3
 70
     1
102
RTVSPropertyOp4
 70
     1
102
RTVSPropertyOp5
 70
     1
102
RTVSPropertyOp6
 70
     1
102
RTVSPropertyOp7
 70
     1
102
RTVSPropertyOp8
 70
     1
102
RTVSPropertyOp9
 70
     1
102
RTVSPropertyOp10
 70
     1
102
RTVSPropertyOp11
 70
     1
102
RTVSPropertyOp12
 70
     1
102
RTVSPropertyOp13
 70
     1
102
RTVSPropertyOp14
 70
     1
102
RTVSPropertyOp15
 70
     1
102
RTVSPropertyOp16
 70
     1
102
RTVSPropertyOp17
 70
     1
102
RTVSPropertyOp18
 70
     1
102
RTVSPropertyOp19
 70
     1
102
RTVSPropertyOp20
 70
     1
102
RTVSPropertyOp21
 70
     1
102
RTVSPropertyOp22
 70
     1
102
RTVSPropertyOp23
 70
     1
102
RTVSPropertyOp24
 70
     1
102
RTVSPropertyOp25
 70
     1
102
RTVSPropertyOp26
 70
     1
102
RTVSPropertyOp27
 70
     1
  0
XRECORD
  5
1E0E
102
{ACAD_REACTORS
330
1E0D
102
}
330
1E0D
100
AcDbXrecord
280
     1
102
RTVSPropertyOp0
 70
     1
102
RTVSPropertyOp1
 70
     1
102
RTVSPropertyOp2
 70
     1
102
RTVSPropertyOp3
 70
     1
102
RTVSPropertyOp4
 70
     1
102
RTVSPropertyOp5
 70
     1
102
RTVSPropertyOp6
 70
     1
102
RTVSPropertyOp7
 70
     1
102
RTVSPropertyOp8
 70
     1
102
RTVSPropertyOp9
 70
     1
102
RTVSPropertyOp10
 70
     1
102
RTVSPropertyOp11
 70
     1
102
RTVSPropertyOp12
 70
     1
102
RTVSPropertyOp13
 70
     1
102
RTVSPropertyOp14
 70
     1
102
RTVSPropertyOp15
 70
     1
102
RTVSPropertyOp16
 70
     1
102
RTVSPropertyOp17
 70
     1
102
RTVSPropertyOp18
 70
     1
102
RTVSPropertyOp19
 70
     1
102
RTVSPropertyOp20
 70
     1
102
RTVSPropertyOp21
 70
     1
102
RTVSPropertyOp22
 70
     1
102
RTVSPropertyOp23
 70
     1
102
RTVSPropertyOp24
 70
     1
102
RTVSPropertyOp25
 70
     1
102
RTVSPropertyOp26
 70
     1
102
RTVSPropertyOp27
 70
     1
  0
XRECORD
  5
1E10
102
{ACAD_REACTORS
330
1E0F
102
}
330
1E0F
100
AcDbXrecord
280
     1
102
RTVSPropertyOp0
 70
     1
102
RTVSPropertyOp1
 70
     1
102
RTVSPropertyOp2
 70
     1
102
RTVSPropertyOp3
 70
     1
102
RTVSPropertyOp4
 70
     1
102
RTVSPropertyOp5
 70
     1
102
RTVSPropertyOp6
 70
     1
102
RTVSPropertyOp7
 70
     1
102
RTVSPropertyOp8
 70
     1
102
RTVSPropertyOp9
 70
     1
102
RTVSPropertyOp10
 70
     1
102
RTVSPropertyOp11
 70
     1
102
RTVSPropertyOp12
 70
     1
102
RTVSPropertyOp13
 70
     1
102
RTVSPropertyOp14
 70
     1
102
RTVSPropertyOp15
 70
     1
102
RTVSPropertyOp16
 70
     1
102
RTVSPropertyOp17
 70
     1
102
RTVSPropertyOp18
 70
     1
102
RTVSPropertyOp19
 70
     1
102
RTVSPropertyOp20
 70
     1
102
RTVSPropertyOp21
 70
     1
102
RTVSPropertyOp22
 70
     1
102
RTVSPropertyOp23
 70
     1
102
RTVSPropertyOp24
 70
     1
102
RTVSPropertyOp25
 70
     1
102
RTVSPropertyOp26
 70
     1
102
RTVSPropertyOp27
 70
     1
  0
XRECORD
  5
1E12
102
{ACAD_REACTORS
330
1E11
102
}
330
1E11
100
AcDbXrecord
280
     1
102
RTVSPropertyOp0
 70
     1
102
RTVSPropertyOp1
 70
     1
102
RTVSPropertyOp2
 70
     1
102
RTVSPropertyOp3
 70
     1
102
RTVSPropertyOp4
 70
     1
102
RTVSPropertyOp5
 70
     1
102
RTVSPropertyOp6
 70
     1
102
RTVSPropertyOp7
 70
     1
102
RTVSPropertyOp8
 70
     1
102
RTVSPropertyOp9
 70
     1
102
RTVSPropertyOp10
 70
     1
102
RTVSPropertyOp11
 70
     1
102
RTVSPropertyOp12
 70
     1
102
RTVSPropertyOp13
 70
     1
102
RTVSPropertyOp14
 70
     1
102
RTVSPropertyOp15
 70
     1
102
RTVSPropertyOp16
 70
     1
102
RTVSPropertyOp17
 70
     1
102
RTVSPropertyOp18
 70
     1
102
RTVSPropertyOp19
 70
     1
102
RTVSPropertyOp20
 70
     1
102
RTVSPropertyOp21
 70
     1
102
RTVSPropertyOp22
 70
     1
102
RTVSPropertyOp23
 70
     1
102
RTVSPropertyOp24
 70
     1
102
RTVSPropertyOp25
 70
     1
102
RTVSPropertyOp26
 70
     1
102
RTVSPropertyOp27
 70
     1
  0
XRECORD
  5
1E2C
102
{ACAD_REACTORS
330
1E2B
102
}
330
1E2B
100
AcDbXrecord
280
     1
102
RTVSPropertyOp0
 70
     0
102
RTVSPropertyOp1
 70
     0
102
RTVSPropertyOp2
 70
     0
102
RTVSPropertyOp3
 70
     0
102
RTVSPropertyOp4
 70
     0
102
RTVSPropertyOp5
 70
     0
102
RTVSPropertyOp6
 70
     0
102
RTVSPropertyOp7
 70
     0
102
RTVSPropertyOp8
 70
     0
102
RTVSPropertyOp9
 70
     0
102
RTVSPropertyOp10
 70
     0
102
RTVSPropertyOp11
 70
     0
102
RTVSPropertyOp12
 70
     0
102
RTVSPropertyOp13
 70
     0
102
RTVSPropertyOp14
 70
     2
102
RTVSPropertyOp15
 70
     0
102
RTVSPropertyOp16
 70
     0
102
RTVSPropertyOp17
 70
     0
102
RTVSPropertyOp18
 70
     0
102
RTVSPropertyOp19
 70
     0
102
RTVSPropertyOp20
 70
     0
102
RTVSPropertyOp21
 70
     0
102
RTVSPropertyOp22
 70
     0
102
RTVSPropertyOp23
 70
     0
102
RTVSPropertyOp24
 70
     0
102
RTVSPropertyOp25
 70
     0
102
RTVSPropertyOp26
 70
     0
102
RTVSPropertyOp27
 70
     0
  0
XRECORD
  5
1E26
102
{ACAD_REACTORS
330
1E25
102
}
330
1E25
100
AcDbXrecord
280
     1
102
RTVSPropertyOp0
 70
     1
102
RTVSPropertyOp1
 70
     1
102
RTVSPropertyOp2
 70
     1
102
RTVSPropertyOp3
 70
     1
102
RTVSPropertyOp4
 70
     1
102
RTVSPropertyOp5
 70
     1
102
RTVSPropertyOp6
 70
     1
102
RTVSPropertyOp7
 70
     1
102
RTVSPropertyOp8
 70
     1
102
RTVSPropertyOp9
 70
     1
102
RTVSPropertyOp10
 70
     1
102
RTVSPropertyOp11
 70
     1
102
RTVSPropertyOp12
 70
     1
102
RTVSPropertyOp13
 70
     1
102
RTVSPropertyOp14
 70
     1
102
RTVSPropertyOp15
 70
     1
102
RTVSPropertyOp16
 70
     1
102
RTVSPropertyOp17
 70
     1
102
RTVSPropertyOp18
 70
     1
102
RTVSPropertyOp19
 70
     1
102
RTVSPropertyOp20
 70
     1
102
RTVSPropertyOp21
 70
     1
102
RTVSPropertyOp22
 70
     1
102
RTVSPropertyOp23
 70
     1
102
RTVSPropertyOp24
 70
     1
102
RTVSPropertyOp25
 70
     1
102
RTVSPropertyOp26
 70
     1
102
RTVSPropertyOp27
 70
     1
  0
XRECORD
  5
1E2E
102
{ACAD_REACTORS
330
1E2D
102
}
330
1E2D
100
AcDbXrecord
280
     1
102
RTVSPropertyOp0
 70
     0
102
RTVSPropertyOp1
 70
     0
102
RTVSPropertyOp2
 70
     0
102
RTVSPropertyOp3
 70
     0
102
RTVSPropertyOp4
 70
     0
102
RTVSPropertyOp5
 70
     0
102
RTVSPropertyOp6
 70
     0
102
RTVSPropertyOp7
 70
     0
102
RTVSPropertyOp8
 70
     0
102
RTVSPropertyOp9
 70
     0
102
RTVSPropertyOp10
 70
     0
102
RTVSPropertyOp11
 70
     0
102
RTVSPropertyOp12
 70
     0
102
RTVSPropertyOp13
 70
     0
102
RTVSPropertyOp14
 70
     2
102
RTVSPropertyOp15
 70
     0
102
RTVSPropertyOp16
 70
     0
102
RTVSPropertyOp17
 70
     0
102
RTVSPropertyOp18
 70
     0
102
RTVSPropertyOp19
 70
     0
102
RTVSPropertyOp20
 70
     0
102
RTVSPropertyOp21
 70
     0
102
RTVSPropertyOp22
 70
     0
102
RTVSPropertyOp23
 70
     0
102
RTVSPropertyOp24
 70
     0
102
RTVSPropertyOp25
 70
     0
102
RTVSPropertyOp26
 70
     0
102
RTVSPropertyOp27
 70
     0
  0
XRECORD
  5
1E1E
102
{ACAD_REACTORS
330
1E1D
102
}
330
1E1D
100
AcDbXrecord
280
     1
102
RTVSPropertyOp0
 70
     1
102
RTVSPropertyOp1
 70
     1
102
RTVSPropertyOp2
 70
     1
102
RTVSPropertyOp3
 70
     1
102
RTVSPropertyOp4
 70
     1
102
RTVSPropertyOp5
 70
     1
102
RTVSPropertyOp6
 70
     1
102
RTVSPropertyOp7
 70
     1
102
RTVSPropertyOp8
 70
     1
102
RTVSPropertyOp9
 70
     1
102
RTVSPropertyOp10
 70
     1
102
RTVSPropertyOp11
 70
     1
102
RTVSPropertyOp12
 70
     1
102
RTVSPropertyOp13
 70
     1
102
RTVSPropertyOp14
 70
     1
102
RTVSPropertyOp15
 70
     1
102
RTVSPropertyOp16
 70
     1
102
RTVSPropertyOp17
 70
     1
102
RTVSPropertyOp18
 70
     1
102
RTVSPropertyOp19
 70
     1
102
RTVSPropertyOp20
 70
     1
102
RTVSPropertyOp21
 70
     1
102
RTVSPropertyOp22
 70
     1
102
RTVSPropertyOp23
 70
     1
102
RTVSPropertyOp24
 70
     1
102
RTVSPropertyOp25
 70
     1
102
RTVSPropertyOp26
 70
     1
102
RTVSPropertyOp27
 70
     1
  0
XRECORD
  5
1E24
102
{ACAD_REACTORS
330
1E23
102
}
330
1E23
100
AcDbXrecord
280
     1
102
RTVSPropertyOp0
 70
     1
102
RTVSPropertyOp1
 70
     1
102
RTVSPropertyOp2
 70
     1
102
RTVSPropertyOp3
 70
     1
102
RTVSPropertyOp4
 70
     1
102
RTVSPropertyOp5
 70
     1
102
RTVSPropertyOp6
 70
     1
102
RTVSPropertyOp7
 70
     1
102
RTVSPropertyOp8
 70
     1
102
RTVSPropertyOp9
 70
     1
102
RTVSPropertyOp10
 70
     1
102
RTVSPropertyOp11
 70
     1
102
RTVSPropertyOp12
 70
     1
102
RTVSPropertyOp13
 70
     1
102
RTVSPropertyOp14
 70
     1
102
RTVSPropertyOp15
 70
     1
102
RTVSPropertyOp16
 70
     1
102
RTVSPropertyOp17
 70
     1
102
RTVSPropertyOp18
 70
     1
102
RTVSPropertyOp19
 70
     1
102
RTVSPropertyOp20
 70
     1
102
RTVSPropertyOp21
 70
     1
102
RTVSPropertyOp22
 70
     1
102
RTVSPropertyOp23
 70
     1
102
RTVSPropertyOp24
 70
     1
102
RTVSPropertyOp25
 70
     1
102
RTVSPropertyOp26
 70
     1
102
RTVSPropertyOp27
 70
     1
  0
ENDSEC
  0
EOF
