  0
SECTION
  2
HEADER
  9
$ACADVER
  1
AC1015
  9
$ACADMAINTVER
 70
    20
  9
$DWGCODEPAGE
  3
ANSI_1252
  9
$INSBASE
 10
0.0
 20
0.0
 30
0.0
  9
$EXTMIN
 10
272.5116805568908
 20
349.458230953119
 30
-0.0000000000000001
  9
$EXTMAX
 10
275.1524887298655
 20
349.7092785762031
 30
0.0000000000000001
  9
$LIMMIN
 10
0.0
 20
0.0
  9
$LIMMAX
 10
420.0
 20
297.0
  9
$ORTHOMODE
 70
     1
  9
$REGENMODE
 70
     1
  9
$FILLMODE
 70
     1
  9
$QTEXTMODE
 70
     0
  9
$MIRRTEXT
 70
     0
  9
$LTSCALE
 40
1.0
  9
$ATTMODE
 70
     1
  9
$TEXTSIZE
 40
2.5
  9
$TRACEWID
 40
1.0
  9
$TEXTSTYLE
  7
Standard
  9
$CLAYER
  8
0
  9
$CELTYPE
  6
ByLayer
  9
$CECOLOR
 62
   256
  9
$CELTSCALE
 40
1.0
  9
$DISPSILH
 70
     0
  9
$DIMSCALE
 40
1.0
  9
$DIMASZ
 40
2.5
  9
$DIMEXO
 40
0.625
  9
$DIMDLI
 40
3.75
  9
$DIMRND
 40
0.0
  9
$DIMDLE
 40
0.0
  9
$DIMEXE
 40
1.25
  9
$DIMTP
 40
0.0
  9
$DIMTM
 40
0.0
  9
$DIMTXT
 40
2.5
  9
$DIMCEN
 40
2.5
  9
$DIMTSZ
 40
0.0
  9
$DIMTOL
 70
     0
  9
$DIMLIM
 70
     0
  9
$DIMTIH
 70
     0
  9
$DIMTOH
 70
     0
  9
$DIMSE1
 70
     0
  9
$DIMSE2
 70
     0
  9
$DIMTAD
 70
     1
  9
$DIMZIN
 70
     8
  9
$DIMBLK
  1

  9
$DIMASO
 70
     1
  9
$DIMSHO
 70
     1
  9
$DIMPOST
  1

  9
$DIMAPOST
  1

  9
$DIMALT
 70
     0
  9
$DIMALTD
 70
     3
  9
$DIMALTF
 40
0.03937007874016
  9
$DIMLFAC
 40
1.0
  9
$DIMTOFL
 70
     1
  9
$DIMTVP
 40
0.0
  9
$DIMTIX
 70
     0
  9
$DIMSOXD
 70
     0
  9
$DIMSAH
 70
     0
  9
$DIMBLK1
  1

  9
$DIMBLK2
  1

  9
$DIMSTYLE
  2
ISO-25
  9
$DIMCLRD
 70
     0
  9
$DIMCLRE
 70
     0
  9
$DIMCLRT
 70
     0
  9
$DIMTFAC
 40
1.0
  9
$DIMGAP
 40
0.625
  9
$DIMJUST
 70
     0
  9
$DIMSD1
 70
     0
  9
$DIMSD2
 70
     0
  9
$DIMTOLJ
 70
     0
  9
$DIMTZIN
 70
     8
  9
$DIMALTZ
 70
     0
  9
$DIMALTTZ
 70
     0
  9
$DIMUPT
 70
     0
  9
$DIMDEC
 70
     2
  9
$DIMTDEC
 70
     2
  9
$DIMALTU
 70
     2
  9
$DIMALTTD
 70
     3
  9
$DIMTXSTY
  7
Standard
  9
$DIMAUNIT
 70
     0
  9
$DIMADEC
 70
     0
  9
$DIMALTRND
 40
0.0
  9
$DIMAZIN
 70
     0
  9
$DIMDSEP
 70
    44
  9
$DIMATFIT
 70
     3
  9
$DIMFRAC
 70
     0
  9
$DIMLDRBLK
  1

  9
$DIMLUNIT
 70
     2
  9
$DIMLWD
 70
    -2
  9
$DIMLWE
 70
    -2
  9
$DIMTMOVE
 70
     0
  9
$LUNITS
 70
     2
  9
$LUPREC
 70
     4
  9
$SKETCHINC
 40
1.0
  9
$FILLETRAD
 40
0.0
  9
$AUNITS
 70
     0
  9
$AUPREC
 70
     0
  9
$MENU
  1
.
  9
$ELEVATION
 40
0.0
  9
$PELEVATION
 40
0.0
  9
$THICKNESS
 40
0.0
  9
$LIMCHECK
 70
     0
  9
$CHAMFERA
 40
0.0
  9
$CHAMFERB
 40
0.0
  9
$CHAMFERC
 40
0.0
  9
$CHAMFERD
 40
0.0
  9
$SKPOLY
 70
     0
  9
$TDCREATE
 40
2454862.735159317
  9
$TDUCREATE
 40
2454862.693492651
  9
$TDUPDATE
 40
2454925.706976088
  9
$TDUUPDATE
 40
2454925.665309421
  9
$TDINDWG
 40
0.0027519213
  9
$TDUSRTIMER
 40
0.0027519213
  9
$USRTIMER
 70
     1
  9
$ANGBASE
 50
0.0
  9
$ANGDIR
 70
     0
  9
$PDMODE
 70
     0
  9
$PDSIZE
 40
0.0
  9
$PLINEWID
 40
0.0
  9
$SPLFRAME
 70
     0
  9
$SPLINETYPE
 70
     6
  9
$SPLINESEGS
 70
     8
  9
$HANDSEED
  5
27B
  9
$SURFTAB1
 70
     6
  9
$SURFTAB2
 70
     6
  9
$SURFTYPE
 70
     6
  9
$SURFU
 70
     6
  9
$SURFV
 70
     6
  9
$UCSBASE
  2

  9
$UCSNAME
  2

  9
$UCSORG
 10
0.0
 20
0.0
 30
0.0
  9
$UCSXDIR
 10
1.0
 20
0.0
 30
0.0
  9
$UCSYDIR
 10
0.0
 20
1.0
 30
0.0
  9
$UCSORTHOREF
  2

  9
$UCSORTHOVIEW
 70
     0
  9
$UCSORGTOP
 10
0.0
 20
0.0
 30
0.0
  9
$UCSORGBOTTOM
 10
0.0
 20
0.0
 30
0.0
  9
$UCSORGLEFT
 10
0.0
 20
0.0
 30
0.0
  9
$UCSORGRIGHT
 10
0.0
 20
0.0
 30
0.0
  9
$UCSORGFRONT
 10
0.0
 20
0.0
 30
0.0
  9
$UCSORGBACK
 10
0.0
 20
0.0
 30
0.0
  9
$PUCSBASE
  2

  9
$PUCSNAME
  2

  9
$PUCSORG
 10
0.0
 20
0.0
 30
0.0
  9
$PUCSXDIR
 10
1.0
 20
0.0
 30
0.0
  9
$PUCSYDIR
 10
0.0
 20
1.0
 30
0.0
  9
$PUCSORTHOREF
  2

  9
$PUCSORTHOVIEW
 70
     0
  9
$PUCSORGTOP
 10
0.0
 20
0.0
 30
0.0
  9
$PUCSORGBOTTOM
 10
0.0
 20
0.0
 30
0.0
  9
$PUCSORGLEFT
 10
0.0
 20
0.0
 30
0.0
  9
$PUCSORGRIGHT
 10
0.0
 20
0.0
 30
0.0
  9
$PUCSORGFRONT
 10
0.0
 20
0.0
 30
0.0
  9
$PUCSORGBACK
 10
0.0
 20
0.0
 30
0.0
  9
$USERI1
 70
     0
  9
$USERI2
 70
     0
  9
$USERI3
 70
     0
  9
$USERI4
 70
     0
  9
$USERI5
 70
     0
  9
$USERR1
 40
0.0
  9
$USERR2
 40
0.0
  9
$USERR3
 40
0.0
  9
$USERR4
 40
0.0
  9
$USERR5
 40
0.0
  9
$WORLDVIEW
 70
     1
  9
$SHADEDGE
 70
     3
  9
$SHADEDIF
 70
    70
  9
$TILEMODE
 70
     1
  9
$MAXACTVP
 70
    64
  9
$PINSBASE
 10
0.0
 20
0.0
 30
0.0
  9
$PLIMCHECK
 70
     0
  9
$PEXTMIN
 10
1.000000000000000E+20
 20
1.000000000000000E+20
 30
1.000000000000000E+20
  9
$PEXTMAX
 10
-1.000000000000000E+20
 20
-1.000000000000000E+20
 30
-1.000000000000000E+20
  9
$PLIMMIN
 10
0.0
 20
0.0
  9
$PLIMMAX
 10
420.0
 20
297.0
  9
$UNITMODE
 70
     0
  9
$VISRETAIN
 70
     1
  9
$PLINEGEN
 70
     0
  9
$PSLTSCALE
 70
     1
  9
$TREEDEPTH
 70
  3020
  9
$CMLSTYLE
  2
Standard
  9
$CMLJUST
 70
     0
  9
$CMLSCALE
 40
20.0
  9
$PROXYGRAPHICS
 70
     1
  9
$MEASUREMENT
 70
     1
  9
$CELWEIGHT
370
    -1
  9
$ENDCAPS
280
     0
  9
$JOINSTYLE
280
     0
  9
$LWDISPLAY
290
     0
  9
$INSUNITS
 70
     4
  9
$HYPERLINKBASE
  1

  9
$STYLESHEET
  1

  9
$XEDIT
290
     1
  9
$CEPSNTYPE
380
     0
  9
$PSTYLEMODE
290
     1
  9
$FINGERPRINTGUID
  2
{9966EBB4-F220-45F5-9278-54E7311D1D88}
  9
$VERSIONGUID
  2
{EBEB774D-249E-4491-84AB-83BE65F9FB5D}
  9
$EXTNAMES
290
     1
  9
$PSVPSCALE
 40
0.0
  9
$OLESTARTUP
290
     0
  0
ENDSEC
  0
SECTION
  2
CLASSES
  0
CLASS
  1
ACDBDICTIONARYWDFLT
  2
AcDbDictionaryWithDefault
  3
ObjectDBX Classes
 90
        0
280
     0
281
     0
  0
CLASS
  1
TABLESTYLE
  2
AcDbTableStyle
  3
ObjectDBX Classes
 90
     2047
280
     0
281
     0
  0
CLASS
  1
DICTIONARYVAR
  2
AcDbDictionaryVar
  3
ObjectDBX Classes
 90
        0
280
     0
281
     0
  0
CLASS
  1
ACDBPLACEHOLDER
  2
AcDbPlaceHolder
  3
ObjectDBX Classes
 90
        0
280
     0
281
     0
  0
CLASS
  1
LAYOUT
  2
AcDbLayout
  3
ObjectDBX Classes
 90
        0
280
     0
281
     0
  0
ENDSEC
  0
SECTION
  2
TABLES
  0
TABLE
  2
VPORT
  5
8
330
0
100
AcDbSymbolTable
 70
     2
  0
VPORT
  5
273
330
8
100
AcDbSymbolTableRecord
100
AcDbViewportTableRecord
  2
*Active
 70
     0
 10
0.0
 20
0.0
 11
1.0
 21
1.0
 12
273.8320846433782
 22
349.583754764661
 13
0.0
 23
0.0
 14
10.0
 24
10.0
 15
10.0
 25
10.0
 16
0.0
 26
0.0
 36
1.0
 17
0.0
 27
0.0
 37
0.0
 40
1.654674587292163
 41
1.602030456852791
 42
50.0
 43
0.0
 44
0.0
 50
0.0
 51
0.0
 71
     0
 72
  1000
 73
     1
 74
     3
 75
     0
 76
     0
 77
     0
 78
     0
281
     0
 65
     1
110
0.0
120
0.0
130
0.0
111
1.0
121
0.0
131
0.0
112
0.0
122
1.0
132
0.0
 79
     0
146
0.0
  0
ENDTAB
  0
TABLE
  2
LTYPE
  5
5
330
0
100
AcDbSymbolTable
 70
     1
  0
LTYPE
  5
14
330
5
100
AcDbSymbolTableRecord
100
AcDbLinetypeTableRecord
  2
ByBlock
 70
     0
  3

 72
    65
 73
     0
 40
0.0
  0
LTYPE
  5
15
330
5
100
AcDbSymbolTableRecord
100
AcDbLinetypeTableRecord
  2
ByLayer
 70
     0
  3

 72
    65
 73
     0
 40
0.0
  0
LTYPE
  5
16
330
5
100
AcDbSymbolTableRecord
100
AcDbLinetypeTableRecord
  2
Continuous
 70
     0
  3
Solid line
 72
    65
 73
     0
 40
0.0
  0
ENDTAB
  0
TABLE
  2
LAYER
  5
2
330
0
100
AcDbSymbolTable
 70
     2
  0
LAYER
  5
10
330
2
100
AcDbSymbolTableRecord
100
AcDbLayerTableRecord
  2
0
 70
     0
 62
     7
  6
Continuous
370
    -3
390
F
  0
LAYER
  5
261
330
2
100
AcDbSymbolTableRecord
100
AcDbLayerTableRecord
  2
SANINDUSA
 70
     0
 62
     3
  6
Continuous
370
    -3
390
F
  0
ENDTAB
  0
TABLE
  2
STYLE
  5
3
330
0
100
AcDbSymbolTable
 70
     1
  0
STYLE
  5
11
330
3
100
AcDbSymbolTableRecord
100
AcDbTextStyleTableRecord
  2
Standard
 70
     0
 40
0.0
 41
1.0
 50
0.0
 71
     0
 42
2.5
  3
txt
  4

  0
ENDTAB
  0
TABLE
  2
VIEW
  5
6
330
0
100
AcDbSymbolTable
 70
     0
  0
ENDTAB
  0
TABLE
  2
UCS
  5
7
330
0
100
AcDbSymbolTable
 70
     0
  0
ENDTAB
  0
TABLE
  2
APPID
  5
9
330
0
100
AcDbSymbolTable
 70
     1
  0
APPID
  5
12
330
9
100
AcDbSymbolTableRecord
100
AcDbRegAppTableRecord
  2
ACAD
 70
     0
  0
ENDTAB
  0
TABLE
  2
DIMSTYLE
  5
A
330
0
100
AcDbSymbolTable
 70
     1
100
AcDbDimStyleTable
 71
     0
  0
DIMSTYLE
105
2B
330
A
100
AcDbSymbolTableRecord
100
AcDbDimStyleTableRecord
  2
ISO-25
 70
     0
 41
2.5
 42
0.625
 43
3.75
 44
1.25
 73
     0
 74
     0
 77
     1
 78
     8
140
2.5
141
2.5
143
0.03937007874016
147
0.625
171
     3
172
     1
271
     2
272
     2
274
     3
278
    44
283
     0
284
     8
340
11
  0
ENDTAB
  0
TABLE
  2
BLOCK_RECORD
  5
1
330
0
100
AcDbSymbolTable
 70
     1
  0
BLOCK_RECORD
  5
23
330
1
100
AcDbSymbolTableRecord
100
AcDbBlockTableRecord
  2
*Model_Space
340
26
  0
BLOCK_RECORD
  5
1F
330
1
100
AcDbSymbolTableRecord
100
AcDbBlockTableRecord
  2
*Paper_Space
340
22
  0
BLOCK_RECORD
  5
27
330
1
100
AcDbSymbolTableRecord
100
AcDbBlockTableRecord
  2
*Paper_Space0
340
2A
  0
ENDTAB
  0
ENDSEC
  0
SECTION
  2
BLOCKS
  0
BLOCK
  5
24
330
23
100
AcDbEntity
  8
0
100
AcDbBlockBegin
  2
*Model_Space
 70
     0
 10
0.0
 20
0.0
 30
0.0
  3
*Model_Space
  1

  0
ENDBLK
  5
25
330
23
100
AcDbEntity
  8
0
100
AcDbBlockEnd
  0
BLOCK
  5
20
330
1F
100
AcDbEntity
 67
     1
  8
0
100
AcDbBlockBegin
  2
*Paper_Space
 70
     0
 10
0.0
 20
0.0
 30
0.0
  3
*Paper_Space
  1

  0
ENDBLK
  5
21
330
1F
100
AcDbEntity
 67
     1
  8
0
100
AcDbBlockEnd
  0
BLOCK
  5
28
330
27
100
AcDbEntity
 67
     1
  8
0
100
AcDbBlockBegin
  2
*Paper_Space0
 70
     0
 10
0.0
 20
0.0
 30
0.0
  3
*Paper_Space0
  1

  0
ENDBLK
  5
29
330
27
100
AcDbEntity
 67
     1
  8
0
100
AcDbBlockEnd
  0
ENDSEC
  0
SECTION
  2
ENTITIES
  0
ARC
  5
14A
330
23
100
AcDbEntity
  8
SANINDUSA
  6
Continuous
370
    15
100
AcDbCircle
 10
273.6924221167546
 20
349.5210698072704
 30
0.0
 40
0.005
100
AcDbArc
 50
90.00000031917503
 51
180.0
  0
ARC
  5
14B
330
23
100
AcDbEntity
  8
SANINDUSA
  6
Continuous
370
    15
100
AcDbCircle
 10
273.6154221167546
 20
349.5210698072704
 30
0.0
 40
0.005
100
AcDbArc
 50
0.0
 51
89.99999968082496
  0
LINE
  5
14C
330
23
100
AcDbEntity
  8
SANINDUSA
  6
Continuous
370
    15
100
AcDbLine
 10
273.6204221167546
 20
349.5210698072704
 30
0.0
 11
273.6204221167546
 21
349.5160698072704
 31
0.0
  0
LINE
  5
14D
330
23
100
AcDbEntity
  8
SANINDUSA
  6
Continuous
370
    15
100
AcDbLine
 10
273.6874221167545
 20
349.5160698072704
 30
0.0
 11
273.6874221167545
 21
349.5210698072704
 31
0.0
  0
LINE
  5
153
330
23
100
AcDbEntity
  8
SANINDUSA
  6
Continuous
370
    15
100
AcDbLine
 10
273.9114895208586
 20
349.6241396062631
 30
0.0
 11
273.9119459282966
 21
349.6110698072704
 31
0.0
  0
LINE
  5
154
330
23
100
AcDbEntity
  8
SANINDUSA
  6
Continuous
370
    15
100
AcDbLine
 10
273.9099471466427
 20
349.6110698072704
 30
0.0
 11
273.9119459282966
 21
349.6110698072704
 31
0.0
  0
LINE
  5
156
330
23
100
AcDbEntity
  8
SANINDUSA
  6
Continuous
370
    15
100
AcDbLine
 10
273.3128970869404
 20
349.6110698072704
 30
0.0
 11
273.9099471466427
 21
349.6110698072704
 31
0.0
  0
LINE
  5
159
330
23
100
AcDbEntity
  8
SANINDUSA
  6
Continuous
370
    15
100
AcDbLine
 10
273.3108983052126
 20
349.6110698072704
 30
0.0
 11
273.3113547126505
 21
349.6241396062631
 31
0.0
  0
LINE
  5
15B
330
23
100
AcDbEntity
  8
SANINDUSA
  6
Continuous
370
    15
100
AcDbLine
 10
273.3108983052126
 20
349.6110698072704
 30
0.0
 11
273.3128970869404
 21
349.6110698072704
 31
0.0
  0
ARC
  5
15D
330
23
100
AcDbEntity
  8
SANINDUSA
  6
Continuous
370
    15
100
AcDbCircle
 10
273.9094907392046
 20
349.6240698072704
 30
0.0
 40
0.0019999999999996
100
AcDbArc
 50
1.999999980969274
 51
89.99999998697246
  0
ARC
  5
15E
330
23
100
AcDbEntity
  8
SANINDUSA
  6
Continuous
370
    15
100
AcDbCircle
 10
273.3133534943046
 20
349.6240698072704
 30
0.0
 40
0.0019999999999996
100
AcDbArc
 50
90.00000001302757
 51
178.0000000190307
  0
LINE
  5
160
330
23
100
AcDbEntity
  8
SANINDUSA
  6
Continuous
370
    15
100
AcDbLine
 10
273.3133534943046
 20
349.6260698072704
 30
0.0
 11
273.909490739205
 21
349.6260698072704
 31
0.0
  0
ARC
  5
169
330
23
100
AcDbEntity
  8
SANINDUSA
  6
Continuous
370
    15
100
AcDbCircle
 10
273.4126631995576
 20
349.6060698072704
 30
0.0
 40
0.005
100
AcDbArc
 50
18.00000001403337
 51
89.99999998697246
  0
ARC
  5
16A
330
23
100
AcDbEntity
  8
SANINDUSA
  6
Continuous
370
    15
100
AcDbCircle
 10
273.8951810339516
 20
349.6060698072696
 30
0.0
 40
0.0050000000008214
100
AcDbArc
 50
90.0
 51
161.9999997089031
  0
LINE
  5
16C
330
23
100
AcDbEntity
  8
SANINDUSA
  6
Continuous
370
    15
100
AcDbLine
 10
273.8904257513771
 20
349.6076148922658
 30
0.0
 11
273.8650527170749
 21
349.5295247223057
 31
0.0
  0
LINE
  5
171
330
23
100
AcDbEntity
  8
SANINDUSA
  6
Continuous
370
    15
100
AcDbLine
 10
273.4427915164364
 20
349.5295247222983
 30
0.0
 11
273.4174184821386
 21
349.6076148922434
 31
0.0
  0
ARC
  5
174
330
23
100
AcDbEntity
  8
SANINDUSA
  6
Continuous
370
    15
100
AcDbCircle
 10
273.4475467990176
 20
349.5310698072704
 30
0.0
 40
0.005
100
AcDbArc
 50
198.0000000037344
 51
270.0000000227982
  0
ARC
  5
175
330
23
100
AcDbEntity
  8
SANINDUSA
  6
Continuous
370
    15
100
AcDbCircle
 10
273.8602974344916
 20
349.5310698072704
 30
0.0
 40
0.0049999999996825
100
AcDbArc
 50
269.9999999739449
 51
342.0000000848516
  0
LINE
  5
177
330
23
100
AcDbEntity
  8
SANINDUSA
  6
Continuous
370
    15
100
AcDbLine
 10
273.8602974344893
 20
349.5260698072708
 30
0.0
 11
273.4475467990176
 21
349.5260698072704
 31
0.0
  0
LINE
  5
178
330
23
100
AcDbEntity
  8
SANINDUSA
  6
Continuous
370
    15
100
AcDbLine
 10
273.6539221167546
 20
349.5160698072704
 30
0.0
 11
273.6204221167546
 21
349.5160698072704
 31
0.0
  0
LINE
  5
179
330
23
100
AcDbEntity
  8
SANINDUSA
  6
Continuous
370
    15
100
AcDbLine
 10
273.6874221167545
 20
349.5160698072704
 30
0.0
 11
273.6539221167546
 21
349.5160698072704
 31
0.0
  0
SPLINE
  5
17B
330
23
100
AcDbEntity
  8
SANINDUSA
  6
Continuous
370
    15
100
AcDbSpline
210
0.0
220
0.0
230
1.0
 70
    12
 71
     3
 72
    14
 73
    10
 74
     0
 42
0.0000000001
 43
0.0000000001
 40
0.0
 40
0.0
 40
0.0
 40
0.0
 40
0.25
 40
0.25
 40
0.5
 40
0.5
 40
0.75
 40
0.75
 40
1.0
 40
1.0
 40
1.0
 40
1.0
 10
272.6324086789909
 20
349.678305736684
 30
0.0
 41
1.0
 10
272.6317429033629
 20
349.678328168222
 30
0.0
 41
1.0
 10
272.631093475814
 20
349.678225485662
 30
0.0
 41
1.0
 10
272.6299137765139
 20
349.677783582002
 30
0.0
 41
1.0
 10
272.6293838832534
 20
349.6774444956745
 30
0.0
 41
1.0
 10
272.6285146374194
 20
349.6765752498405
 30
0.0
 41
1.0
 10
272.6281755510919
 20
349.67604535658
 30
0.0
 41
1.0
 10
272.6277336474319
 20
349.67486565728
 30
0.0
 41
1.0
 10
272.6276309648719
 20
349.674216229731
 30
0.0
 41
1.0
 10
272.6276533964099
 20
349.673550454103
 30
0.0
 41
1.0
  0
LINE
  5
17C
330
23
100
AcDbEntity
  8
SANINDUSA
  6
Continuous
370
    15
100
AcDbLine
 10
272.6324086789909
 20
349.6783057366842
 30
0.0
 11
272.6584552552564
 21
349.6522591604265
 31
0.0
  0
ARC
  5
17D
330
23
100
AcDbEntity
  8
SANINDUSA
  6
Continuous
370
    15
100
AcDbCircle
 10
272.65903023023
 20
349.6469289028386
 30
0.0
 40
0.0053611791774688
100
AcDbArc
 50
96.15669069881997
 51
173.8433084624453
  0
LINE
  5
17E
330
23
100
AcDbEntity
  8
SANINDUSA
  6
Continuous
370
    15
100
AcDbLine
 10
272.6276533964084
 20
349.6735504541066
 30
0.0
 11
272.6536999726506
 21
349.6475038778904
 31
0.0
  0
SPLINE
  5
17F
330
23
100
AcDbEntity
  8
SANINDUSA
  6
Continuous
370
    15
100
AcDbSpline
210
0.0
220
0.0
230
1.0
 70
    12
 71
     3
 72
    14
 73
    10
 74
     0
 42
0.0000000001
 43
0.0000000001
 40
0.0
 40
0.0
 40
0.0
 40
0.0
 40
0.25
 40
0.25
 40
0.5
 40
0.5
 40
0.75
 40
0.75
 40
1.0
 40
1.0
 40
1.0
 40
1.0
 10
273.0770000578749
 20
349.489203792638
 30
0.0
 41
1.0
 10
273.0776658335029
 20
349.4891813611
 30
0.0
 41
1.0
 10
273.0783152610519
 20
349.48928404366
 30
0.0
 41
1.0
 10
273.0794949603519
 20
349.4897259473201
 30
0.0
 41
1.0
 10
273.0800248536124
 20
349.4900650336475
 30
0.0
 41
1.0
 10
273.0808940994464
 20
349.4909342794815
 30
0.0
 41
1.0
 10
273.0812331857739
 20
349.4914641727421
 30
0.0
 41
1.0
 10
273.0816750894339
 20
349.492643872042
 30
0.0
 41
1.0
 10
273.0817777719939
 20
349.493293299591
 30
0.0
 41
1.0
 10
273.0817553404559
 20
349.493959075219
 30
0.0
 41
1.0
  0
LINE
  5
180
330
23
100
AcDbEntity
  8
SANINDUSA
  6
Continuous
370
    15
100
AcDbLine
 10
273.0770000578749
 20
349.4892037926379
 30
0.0
 11
273.0509534816095
 21
349.5152503688956
 31
0.0
  0
ARC
  5
181
330
23
100
AcDbEntity
  8
SANINDUSA
  6
Continuous
370
    15
100
AcDbCircle
 10
273.0503785065326
 20
349.5205806265273
 30
0.0
 40
0.0053611792321359
100
AcDbArc
 50
276.1566917436509
 51
353.8433091080362
  0
LINE
  5
182
330
23
100
AcDbEntity
  8
SANINDUSA
  6
Continuous
370
    15
100
AcDbLine
 10
273.0817553404588
 20
349.4939590752172
 30
0.0
 11
273.0557087641728
 21
349.5200056515296
 31
0.0
  0
SPLINE
  5
183
330
23
100
AcDbEntity
  8
SANINDUSA
  6
Continuous
370
    15
100
AcDbSpline
210
0.0
220
0.0
230
1.0
 70
    12
 71
     3
 72
    14
 73
    10
 74
     0
 42
0.0000000001
 43
0.0000000001
 40
0.0
 40
0.0
 40
0.0
 40
0.0
 40
0.25
 40
0.25
 40
0.5
 40
0.5
 40
0.75
 40
0.75
 40
1.0
 40
1.0
 40
1.0
 40
1.0
 10
273.0817553404559
 20
349.673550454103
 30
0.0
 41
1.0
 10
273.0817777719939
 20
349.674216229731
 30
0.0
 41
1.0
 10
273.0816750894339
 20
349.67486565728
 30
0.0
 41
1.0
 10
273.0812331857739
 20
349.67604535658
 30
0.0
 41
1.0
 10
273.0808940994464
 20
349.6765752498405
 30
0.0
 41
1.0
 10
273.0800248536124
 20
349.6774444956745
 30
0.0
 41
1.0
 10
273.0794949603519
 20
349.677783582002
 30
0.0
 41
1.0
 10
273.0783152610519
 20
349.678225485662
 30
0.0
 41
1.0
 10
273.0776658335029
 20
349.678328168222
 30
0.0
 41
1.0
 10
273.0770000578749
 20
349.678305736684
 30
0.0
 41
1.0
  0
LINE
  5
184
330
23
100
AcDbEntity
  8
SANINDUSA
  6
Continuous
370
    15
100
AcDbLine
 10
273.0817553404561
 20
349.673550454103
 30
0.0
 11
273.0557087642323
 21
349.6475038778037
 31
0.0
  0
ARC
  5
185
330
23
100
AcDbEntity
  8
SANINDUSA
  6
Continuous
370
    15
100
AcDbCircle
 10
273.0503785065472
 20
349.646928902738
 30
0.0
 40
0.0053611792840474
100
AcDbArc
 50
6.15669156380878
 51
83.84330843977862
  0
LINE
  5
186
330
23
100
AcDbEntity
  8
SANINDUSA
  6
Continuous
370
    15
100
AcDbLine
 10
273.077000057876
 20
349.678305736687
 30
0.0
 11
273.0509534816125
 21
349.6522591604232
 31
0.0
  0
SPLINE
  5
187
330
23
100
AcDbEntity
  8
SANINDUSA
  6
Continuous
370
    15
100
AcDbSpline
210
0.0
220
0.0
230
1.0
 70
    12
 71
     3
 72
    14
 73
    10
 74
     0
 42
0.0000000001
 43
0.0000000001
 40
0.0
 40
0.0
 40
0.0
 40
0.0
 40
0.25
 40
0.25
 40
0.5
 40
0.5
 40
0.75
 40
0.75
 40
1.0
 40
1.0
 40
1.0
 40
1.0
 10
272.6276533964099
 20
349.493959075219
 30
0.0
 41
1.0
 10
272.6276309648719
 20
349.493293299591
 30
0.0
 41
1.0
 10
272.6277336474319
 20
349.492643872042
 30
0.0
 41
1.0
 10
272.6281755510919
 20
349.4914641727421
 30
0.0
 41
1.0
 10
272.6285146374194
 20
349.4909342794815
 30
0.0
 41
1.0
 10
272.6293838832534
 20
349.4900650336475
 30
0.0
 41
1.0
 10
272.6299137765139
 20
349.4897259473201
 30
0.0
 41
1.0
 10
272.631093475814
 20
349.48928404366
 30
0.0
 41
1.0
 10
272.6317429033629
 20
349.4891813611
 30
0.0
 41
1.0
 10
272.6324086789909
 20
349.489203792638
 30
0.0
 41
1.0
  0
LINE
  5
188
330
23
100
AcDbEntity
  8
SANINDUSA
  6
Continuous
370
    15
100
AcDbLine
 10
272.653699972669
 20
349.5200056515051
 30
0.0
 11
272.6276533964098
 21
349.4939590752168
 31
0.0
  0
ARC
  5
189
330
23
100
AcDbEntity
  8
SANINDUSA
  6
Continuous
370
    15
100
AcDbCircle
 10
272.6590302302727
 20
349.5205806265017
 30
0.0
 40
0.0053611791957251
100
AcDbArc
 50
186.156690921456
 51
263.8433088131139
  0
LINE
  5
18A
330
23
100
AcDbEntity
  8
SANINDUSA
  6
Continuous
370
    15
100
AcDbLine
 10
272.6324086789873
 20
349.4892037926366
 30
0.0
 11
272.6584552552516
 21
349.5152503689006
 31
0.0
  0
LINE
  5
18C
330
23
100
AcDbEntity
  8
SANINDUSA
  6
Continuous
370
    15
100
AcDbLine
 10
273.0817553404561
 20
349.493959075219
 30
0.0
 11
273.0817553404561
 21
349.673550454103
 31
0.0
  0
LINE
  5
190
330
23
100
AcDbEntity
  8
SANINDUSA
  6
Continuous
370
    15
100
AcDbLine
 10
273.0770000578749
 20
349.6783057366842
 30
0.0
 11
272.6324086789909
 21
349.6783057366842
 31
0.0
  0
LINE
  5
196
330
23
100
AcDbEntity
  8
SANINDUSA
  6
Continuous
370
    15
100
AcDbLine
 10
272.6276533964098
 20
349.673550454103
 30
0.0
 11
272.6276533964098
 21
349.4939590752168
 31
0.0
  0
LINE
  5
19A
330
23
100
AcDbEntity
  8
SANINDUSA
  6
Continuous
370
    15
100
AcDbLine
 10
272.6324086789909
 20
349.4892037926379
 30
0.0
 11
273.0770000578749
 21
349.4892037926379
 31
0.0
  0
LINE
  5
1A6
330
23
100
AcDbEntity
  8
SANINDUSA
  6
Continuous
370
    15
100
AcDbLine
 10
272.5141357459946
 20
349.7088221687658
 30
0.0
 11
273.1102729908077
 21
349.7088221687651
 31
0.0
  0
LINE
  5
1A8
330
23
100
AcDbEntity
  8
SANINDUSA
  6
Continuous
370
    15
100
AcDbLine
 10
272.5121369643289
 20
349.460686142154
 30
0.0
 11
272.5121369643289
 21
349.7068233871565
 31
0.0
  0
LINE
  5
1AC
330
23
100
AcDbEntity
  8
SANINDUSA
  6
Continuous
370
    15
100
AcDbLine
 10
273.112271772537
 20
349.7068233871093
 30
0.0
 11
273.1122717725369
 21
349.460686142154
 31
0.0
  0
LINE
  5
1AE
330
23
100
AcDbEntity
  8
SANINDUSA
  6
Continuous
370
    15
100
AcDbLine
 10
273.1102729908827
 20
349.458687360557
 30
0.0
 11
272.514135746058
 21
349.458687360557
 31
0.0
  0
ARC
  5
1B0
330
23
100
AcDbEntity
  8
SANINDUSA
  6
Continuous
370
    15
100
AcDbCircle
 10
273.110270136965
 20
349.706820533193
 30
0.0
 40
0.002001637606543
100
AcDbArc
 50
0.0816918196843815
 51
89.91831029078154
  0
ARC
  5
1B1
330
23
100
AcDbEntity
  8
SANINDUSA
  6
Continuous
370
    15
100
AcDbCircle
 10
272.5141385999006
 20
349.706820533194
 30
0.0
 40
0.0020016376063132
100
AcDbArc
 50
90.08169152330786
 51
179.9183068612727
  0
ARC
  5
1B2
330
23
100
AcDbEntity
  8
SANINDUSA
  6
Continuous
370
    15
100
AcDbCircle
 10
273.1102701369649
 20
349.4606889961291
 30
0.0
 40
0.0020016376066918
100
AcDbArc
 50
270.0816918620239
 51
359.9183064997585
  0
ARC
  5
1B3
330
23
100
AcDbEntity
  8
SANINDUSA
  6
Continuous
370
    15
100
AcDbCircle
 10
272.5141385999009
 20
349.4606889961291
 30
0.0
 40
0.0020016376065845
100
AcDbArc
 50
180.0816935002415
 51
269.9183102842678
  0
CIRCLE
  5
1B4
330
23
100
AcDbEntity
  8
SANINDUSA
  6
Continuous
370
    15
100
AcDbCircle
 10
272.5822043684329
 20
349.583754764661
 30
0.0
 40
0.0174999999999999
  0
LINE
  5
1B5
330
23
100
AcDbEntity
  8
SANINDUSA
  6
Continuous
370
    15
100
AcDbLine
 10
272.6584552552564
 20
349.6522591604265
 30
0.0
 11
273.0509534816125
 21
349.6522591604232
 31
0.0
  0
LINE
  5
1B6
330
23
100
AcDbEntity
  8
SANINDUSA
  6
Continuous
370
    15
100
AcDbLine
 10
273.0509534816095
 20
349.5152503688956
 30
0.0
 11
272.6584552552516
 21
349.5152503689006
 31
0.0
  0
LINE
  5
1B7
330
23
100
AcDbEntity
  8
SANINDUSA
  6
Continuous
370
    15
100
AcDbLine
 10
273.0557087642323
 20
349.6475038778037
 30
0.0
 11
273.0557087641728
 21
349.5200056515296
 31
0.0
  0
LINE
  5
1B8
330
23
100
AcDbEntity
  8
SANINDUSA
  6
Continuous
370
    15
100
AcDbLine
 10
272.653699972669
 20
349.5200056515051
 30
0.0
 11
272.6536999726506
 21
349.6475038778904
 31
0.0
  0
ELLIPSE
  5
1B9
330
23
100
AcDbEntity
  8
SANINDUSA
  6
Continuous
370
    15
100
AcDbEllipse
 10
272.5136817759794
 20
349.7072773571145
 30
0.0
 11
0.0014159370891938
 21
-0.0014159370891937
 31
-0.0000000000000001
210
0.0
220
-0.0000000000000502
230
0.9999999999999998
 40
0.9987827659587081
 41
2.356803477977039
 42
3.926381844636827
  0
ELLIPSE
  5
1BC
330
23
100
AcDbEntity
  8
SANINDUSA
  6
Continuous
370
    15
100
AcDbEllipse
 10
273.1107269608864
 20
349.7072773571145
 30
0.0
 11
-0.0014159370891937
 21
-0.0014159370891937
 31
-0.0000000000000001
210
0.0
220
-0.0000000000000502
230
1.0
 40
0.9987827659587329
 41
2.356803477800827
 42
3.926381866323683
  0
ELLIPSE
  5
1C0
330
23
100
AcDbEntity
  8
SANINDUSA
  6
Continuous
370
    15
100
AcDbEllipse
 10
273.1107269608866
 20
349.4602321722074
 30
0.0
 11
-0.0014159370890417
 21
0.0014159370890417
 31
0.0000000000000001
210
0.0
220
-0.0000000000000502
230
1.0
 40
0.9987827659586521
 41
2.35680347775041
 42
3.926381844672019
  0
ELLIPSE
  5
1C2
330
23
100
AcDbEntity
  8
SANINDUSA
  6
Continuous
370
    15
100
AcDbEllipse
 10
272.5136817759794
 20
349.4602321722075
 30
0.0
 11
0.0014159370891418
 21
0.0014159370891419
 31
0.0000000000000001
210
0.0
220
-0.0000000000000502
230
1.0
 40
0.9987827659587381
 41
2.356803462542901
 42
3.926381866323455
  0
LINE
  5
1C5
330
23
100
AcDbEntity
  8
SANINDUSA
  6
Continuous
370
    15
100
AcDbLine
 10
272.5136793386188
 20
349.458230953119
 30
0.0
 11
273.110729398321
 21
349.458230953119
 31
0.0
  0
LINE
  5
1C6
330
23
100
AcDbEntity
  8
SANINDUSA
  6
Continuous
370
    15
100
AcDbLine
 10
273.1127281799749
 20
349.4602297348034
 30
0.0
 11
273.112728179975
 21
349.7072797945491
 31
0.0
  0
LINE
  5
1C7
330
23
100
AcDbEntity
  8
SANINDUSA
  6
Continuous
370
    15
100
AcDbLine
 10
273.1107293982471
 20
349.7092785762031
 30
0.0
 11
272.5136793385445
 21
349.7092785762031
 31
0.0
  0
LINE
  5
1C8
330
23
100
AcDbEntity
  8
SANINDUSA
  6
Continuous
370
    15
100
AcDbLine
 10
272.5116805568909
 20
349.7072797945186
 30
0.0
 11
272.5116805568909
 21
349.4602297348035
 31
0.0
  0
ARC
  5
1D9
330
23
100
AcDbEntity
  8
SANINDUSA
  6
Continuous
370
    15
100
AcDbCircle
 10
272.8547043684329
 20
349.583754764661
 30
0.0
 40
0.0372729508480001
100
AcDbArc
 50
270.0
 51
90.0
  0
ARC
  5
1DA
330
23
100
AcDbEntity
  8
SANINDUSA
  6
Continuous
370
    15
100
AcDbCircle
 10
272.8547043684329
 20
349.583754764661
 30
0.0
 40
0.0372729508480001
100
AcDbArc
 50
90.0
 51
270.0
  0
ARC
  5
1DE
330
23
100
AcDbEntity
  8
SANINDUSA
  6
Continuous
370
    15
100
AcDbCircle
 10
272.8547043684329
 20
349.583754764661
 30
0.0
 40
0.0235000000000001
100
AcDbArc
 50
90.00000002279824
 51
270.0
  0
ARC
  5
1E0
330
23
100
AcDbEntity
  8
SANINDUSA
  6
Continuous
370
    15
100
AcDbCircle
 10
272.8547043684329
 20
349.583754764661
 30
0.0
 40
0.0235000000000001
100
AcDbArc
 50
270.0
 51
90.00000001302757
  0
ARC
  5
1E1
330
23
100
AcDbEntity
  8
SANINDUSA
  6
Continuous
370
    15
100
AcDbCircle
 10
274.316159953404
 20
349.5210698072704
 30
0.0
 40
0.005
100
AcDbArc
 50
90.00000031917503
 51
180.0
  0
ARC
  5
1E2
330
23
100
AcDbEntity
  8
SANINDUSA
  6
Continuous
370
    15
100
AcDbCircle
 10
274.239159953404
 20
349.5210698072704
 30
0.0
 40
0.005
100
AcDbArc
 50
0.0
 51
89.99999968082496
  0
LINE
  5
1E3
330
23
100
AcDbEntity
  8
SANINDUSA
  6
Continuous
370
    15
100
AcDbLine
 10
274.244159953404
 20
349.5210698072704
 30
0.0
 11
274.244159953404
 21
349.5160698072704
 31
0.0
  0
LINE
  5
1E4
330
23
100
AcDbEntity
  8
SANINDUSA
  6
Continuous
370
    15
100
AcDbLine
 10
274.311159953404
 20
349.5160698072704
 30
0.0
 11
274.311159953404
 21
349.5210698072704
 31
0.0
  0
LINE
  5
1E9
330
23
100
AcDbEntity
  8
SANINDUSA
  6
Continuous
370
    15
100
AcDbLine
 10
274.152136141862
 20
349.6110698072704
 30
0.0
 11
274.1541349235465
 21
349.6110698072704
 31
0.0
  0
LINE
  5
1EA
330
23
100
AcDbEntity
  8
SANINDUSA
  6
Continuous
370
    15
100
AcDbLine
 10
274.152136141862
 20
349.6110698072704
 30
0.0
 11
274.1525925492993
 21
349.6241396062534
 31
0.0
  0
LINE
  5
1EF
330
23
100
AcDbEntity
  8
SANINDUSA
  6
Continuous
370
    15
100
AcDbLine
 10
274.1541349235465
 20
349.6110698072704
 30
0.0
 11
274.4011849832616
 21
349.6110698072704
 31
0.0
  0
LINE
  5
1F1
330
23
100
AcDbEntity
  8
SANINDUSA
  6
Continuous
370
    15
100
AcDbLine
 10
274.4027273575081
 20
349.6241396062635
 30
0.0
 11
274.403183764946
 21
349.6110698072704
 31
0.0
  0
LINE
  5
1F2
330
23
100
AcDbEntity
  8
SANINDUSA
  6
Continuous
370
    15
100
AcDbLine
 10
274.4011849832616
 20
349.6110698072704
 30
0.0
 11
274.4031837649461
 21
349.6110698072704
 31
0.0
  0
ARC
  5
1F4
330
23
100
AcDbEntity
  8
SANINDUSA
  6
Continuous
370
    15
100
AcDbCircle
 10
274.400728575854
 20
349.6240698072704
 30
0.0
 40
0.0019999999999996
100
AcDbArc
 50
1.999999987479082
 51
89.99999998697246
  0
ARC
  5
1F6
330
23
100
AcDbEntity
  8
SANINDUSA
  6
Continuous
370
    15
100
AcDbCircle
 10
274.1545913309532
 20
349.62406980727
 30
0.0
 40
0.0020000000000002
100
AcDbArc
 50
90.00000056018473
 51
178.0000002862738
  0
LINE
  5
1F7
330
23
100
AcDbEntity
  8
SANINDUSA
  6
Continuous
370
    15
100
AcDbLine
 10
274.154591330954
 20
349.6260698072704
 30
0.0
 11
274.400728575854
 21
349.6260698072704
 31
0.0
  0
ARC
  5
200
330
23
100
AcDbEntity
  8
SANINDUSA
  6
Continuous
370
    15
100
AcDbCircle
 10
274.168901036207
 20
349.6060698072704
 30
0.0
 40
0.0050000000000002
100
AcDbArc
 50
18.00000001403337
 51
89.99999998697246
  0
ARC
  5
201
330
23
100
AcDbEntity
  8
SANINDUSA
  6
Continuous
370
    15
100
AcDbCircle
 10
274.386418870601
 20
349.6060698072704
 30
0.0
 40
0.0050000000000002
100
AcDbArc
 50
90.00000001302757
 51
161.9999999859666
  0
LINE
  5
205
330
23
100
AcDbEntity
  8
SANINDUSA
  6
Continuous
370
    15
100
AcDbLine
 10
274.1990293530858
 20
349.5295247222983
 30
0.0
 11
274.1736563187881
 21
349.6076148922434
 31
0.0
  0
LINE
  5
206
330
23
100
AcDbEntity
  8
SANINDUSA
  6
Continuous
370
    15
100
AcDbLine
 10
274.3816635880199
 20
349.6076148922434
 30
0.0
 11
274.3562905537562
 21
349.5295247224039
 31
0.0
  0
ARC
  5
20B
330
23
100
AcDbEntity
  8
SANINDUSA
  6
Continuous
370
    15
100
AcDbCircle
 10
274.203784635667
 20
349.5310698072704
 30
0.0
 40
0.005
100
AcDbArc
 50
198.0000000037344
 51
270.0000000227982
  0
ARC
  5
20C
330
23
100
AcDbEntity
  8
SANINDUSA
  6
Continuous
370
    15
100
AcDbCircle
 10
274.351535271141
 20
349.5310698072704
 30
0.0
 40
0.005
100
AcDbArc
 50
269.9999999772018
 51
342.0000012672107
  0
LINE
  5
20E
330
23
100
AcDbEntity
  8
SANINDUSA
  6
Continuous
370
    15
100
AcDbLine
 10
274.351535271141
 20
349.5260698072704
 30
0.0
 11
274.203784635669
 21
349.5260698072704
 31
0.0
  0
LINE
  5
20F
330
23
100
AcDbEntity
  8
SANINDUSA
  6
Continuous
370
    15
100
AcDbLine
 10
274.311159953404
 20
349.5160698072704
 30
0.0
 11
274.244159953404
 21
349.5160698072704
 31
0.0
  0
LINE
  5
212
330
23
100
AcDbEntity
  8
SANINDUSA
  6
Continuous
370
    15
100
AcDbLine
 10
275.0907140315015
 20
349.5410698072704
 30
0.0
 11
274.9323939282005
 21
349.5410698072704
 31
0.0
  0
ARC
  5
213
330
23
100
AcDbEntity
  8
SANINDUSA
  6
Continuous
370
    15
100
AcDbCircle
 10
275.0907140315034
 20
349.5460698072704
 30
0.0
 40
0.0050000000005371
100
AcDbArc
 50
269.9999999772018
 51
342.0000002846343
  0
LINE
  5
214
330
23
100
AcDbEntity
  8
SANINDUSA
  6
Continuous
370
    15
100
AcDbLine
 10
275.1215158903467
 20
349.6246878412585
 30
0.0
 11
275.0954693140931
 21
349.5445247223221
 31
0.0
  0
ARC
  5
215
330
23
100
AcDbEntity
  8
SANINDUSA
  6
Continuous
370
    15
100
AcDbCircle
 10
275.1234180033794
 20
349.6240698072704
 30
0.0
 40
0.0020000000000003
100
AcDbArc
 50
90.00000253711574
 51
162.0000000199607
  0
LINE
  5
216
330
23
100
AcDbEntity
  8
SANINDUSA
  6
Continuous
370
    15
100
AcDbLine
 10
275.1500335407738
 20
349.6260698072704
 30
0.0
 11
275.1234180032909
 21
349.6260698072704
 31
0.0
  0
ARC
  5
217
330
23
100
AcDbEntity
  8
SANINDUSA
  6
Continuous
370
    15
100
AcDbCircle
 10
275.1500335407734
 20
349.6240698072704
 30
0.0
 40
0.0020000000000006
100
AcDbArc
 50
2.00000001026341
 51
89.99999998697246
  0
LINE
  5
218
330
23
100
AcDbEntity
  8
SANINDUSA
  6
Continuous
370
    15
100
AcDbLine
 10
275.1524887298655
 20
349.6110698072704
 30
0.0
 11
275.1520323224274
 21
349.6241396062642
 31
0.0
  0
LINE
  5
219
330
23
100
AcDbEntity
  8
SANINDUSA
  6
Continuous
370
    15
100
AcDbLine
 10
275.1524887298655
 20
349.6110698072704
 30
0.0
 11
275.1357238353358
 21
349.6110698072704
 31
0.0
  0
ARC
  5
21A
330
23
100
AcDbEntity
  8
SANINDUSA
  6
Continuous
370
    15
100
AcDbCircle
 10
275.1357238355204
 20
349.6060698072704
 30
0.0
 40
0.0050000000000001
100
AcDbArc
 50
90.0000021169772
 51
161.9999999859666
  0
LINE
  5
21B
330
23
100
AcDbEntity
  8
SANINDUSA
  6
Continuous
370
    15
100
AcDbLine
 10
275.1055955186426
 20
349.529524722302
 30
0.0
 11
275.1309685529393
 21
349.6076148922434
 31
0.0
  0
ARC
  5
21C
330
23
100
AcDbEntity
  8
SANINDUSA
  6
Continuous
370
    15
100
AcDbCircle
 10
275.1008402360604
 20
349.5310698072704
 30
0.0
 40
0.0049999999999999
100
AcDbArc
 50
269.9999999772018
 51
342.0000000405585
  0
LINE
  5
21D
330
23
100
AcDbEntity
  8
SANINDUSA
  6
Continuous
370
    15
100
AcDbLine
 10
274.9329649182678
 20
349.5260698072704
 30
0.0
 11
275.1008402360585
 21
349.5260698072704
 31
0.0
  0
ARC
  5
21E
330
23
100
AcDbEntity
  8
SANINDUSA
  6
Continuous
370
    15
100
AcDbCircle
 10
274.9329649183234
 20
349.5210698072704
 30
0.0
 40
0.005
100
AcDbArc
 50
90.00000063835004
 51
180.0
  0
LINE
  5
21F
330
23
100
AcDbEntity
  8
SANINDUSA
  6
Continuous
370
    15
100
AcDbLine
 10
274.9279649183234
 20
349.5210698072704
 30
0.0
 11
274.9279649183234
 21
349.5160698072704
 31
0.0
  0
LINE
  5
220
330
23
100
AcDbEntity
  8
SANINDUSA
  6
Continuous
370
    15
100
AcDbLine
 10
274.9179649183234
 20
349.5160698072704
 30
0.0
 11
274.9279649183234
 21
349.5160698072704
 31
0.0
  0
LINE
  5
221
330
23
100
AcDbEntity
  8
SANINDUSA
  6
Continuous
370
    15
100
AcDbLine
 10
274.9179649183234
 20
349.5265732420604
 30
0.0
 11
274.9179649183234
 21
349.5160698072704
 31
0.0
  0
ARC
  5
222
330
23
100
AcDbEntity
  8
SANINDUSA
  6
Continuous
370
    15
100
AcDbCircle
 10
274.9229649183226
 20
349.5265732420608
 30
0.0
 40
0.0049999999991222
100
AcDbArc
 50
130.9999999946449
 51
180.0000000032569
  0
LINE
  5
223
330
23
100
AcDbEntity
  8
SANINDUSA
  6
Continuous
370
    15
100
AcDbLine
 10
274.9317378691714
 20
349.5408245168504
 30
0.0
 11
274.9196846231785
 21
349.5303467899614
 31
0.0
  0
ARC
  5
224
330
23
100
AcDbEntity
  8
SANINDUSA
  6
Continuous
370
    15
100
AcDbCircle
 10
274.9323939281996
 20
349.5400698072733
 30
0.0
 40
0.0009999999971161
100
AcDbArc
 50
89.99999995114668
 51
131.0000000822658
  0
LINE
  5
225
330
23
100
AcDbEntity
  8
SANINDUSA
  6
Continuous
370
    15
100
AcDbLine
 10
274.8709649183235
 20
349.5160698072704
 30
0.0
 11
274.8709649183235
 21
349.5265732420604
 31
0.0
  0
LINE
  5
226
330
23
100
AcDbEntity
  8
SANINDUSA
  6
Continuous
370
    15
100
AcDbLine
 10
274.8609649183234
 20
349.5160698072704
 30
0.0
 11
274.8709649183235
 21
349.5160698072704
 31
0.0
  0
LINE
  5
227
330
23
100
AcDbEntity
  8
SANINDUSA
  6
Continuous
370
    15
100
AcDbLine
 10
274.8609649183234
 20
349.5160698072704
 30
0.0
 11
274.8609649183234
 21
349.5210698072704
 31
0.0
  0
ARC
  5
228
330
23
100
AcDbEntity
  8
SANINDUSA
  6
Continuous
370
    15
100
AcDbCircle
 10
274.8559649183234
 20
349.5210698072704
 30
0.0
 40
0.005
100
AcDbArc
 50
0.0
 51
89.99999936164995
  0
LINE
  5
229
330
23
100
AcDbEntity
  8
SANINDUSA
  6
Continuous
370
    15
100
AcDbLine
 10
274.6880896005883
 20
349.5260698072704
 30
0.0
 11
274.8559649183791
 21
349.5260698072704
 31
0.0
  0
ARC
  5
22A
330
23
100
AcDbEntity
  8
SANINDUSA
  6
Continuous
370
    15
100
AcDbCircle
 10
274.6880896005865
 20
349.5310698072704
 30
0.0
 40
0.005
100
AcDbArc
 50
198.00000004493
 51
270.0000000227982
  0
LINE
  5
22B
330
23
100
AcDbEntity
  8
SANINDUSA
  6
Continuous
370
    15
100
AcDbLine
 10
274.6579612837075
 20
349.6076148922434
 30
0.0
 11
274.6833343180066
 21
349.5295247222949
 31
0.0
  0
ARC
  5
22C
330
23
100
AcDbEntity
  8
SANINDUSA
  6
Continuous
370
    15
100
AcDbCircle
 10
274.6532060011264
 20
349.6060698072704
 30
0.0
 40
0.0050000000000001
100
AcDbArc
 50
18.00000001403337
 51
90.00000033220256
  0
LINE
  5
22D
330
23
100
AcDbEntity
  8
SANINDUSA
  6
Continuous
370
    15
100
AcDbLine
 10
274.6532060010973
 20
349.6110698072704
 30
0.0
 11
274.6404649184236
 21
349.6110698072704
 31
0.0
  0
ARC
  5
22E
330
23
100
AcDbEntity
  8
SANINDUSA
  6
Continuous
370
    15
100
AcDbCircle
 10
274.6404649183235
 20
349.6120698072704
 30
0.0
 40
0.0010000000000002
100
AcDbArc
 50
180.0
 51
270.0000057353798
  0
LINE
  5
22F
330
23
100
AcDbEntity
  8
SANINDUSA
  6
Continuous
370
    15
100
AcDbLine
 10
274.6394649183234
 20
349.6250698072704
 30
0.0
 11
274.6394649183234
 21
349.6120698072704
 31
0.0
  0
ARC
  5
230
330
23
100
AcDbEntity
  8
SANINDUSA
  6
Continuous
370
    15
100
AcDbCircle
 10
274.6404649183235
 20
349.6250698072704
 30
0.0
 40
0.0010000000000002
100
AcDbArc
 50
90.0
 51
179.9999999902293
  0
LINE
  5
231
330
23
100
AcDbEntity
  8
SANINDUSA
  6
Continuous
370
    15
100
AcDbLine
 10
274.6655118335033
 20
349.6260698072704
 30
0.0
 11
274.6404649183235
 21
349.6260698072704
 31
0.0
  0
ARC
  5
232
330
23
100
AcDbEntity
  8
SANINDUSA
  6
Continuous
370
    15
100
AcDbCircle
 10
274.6655118332674
 20
349.6240698072704
 30
0.0
 40
0.0020000000000002
100
AcDbArc
 50
17.99999998003922
 51
89.99999324195741
  0
LINE
  5
233
330
23
100
AcDbEntity
  8
SANINDUSA
  6
Continuous
370
    15
100
AcDbLine
 10
274.6934605225496
 20
349.5445247223348
 30
0.0
 11
274.6674139463002
 21
349.6246878412585
 31
0.0
  0
ARC
  5
234
330
23
100
AcDbEntity
  8
SANINDUSA
  6
Continuous
370
    15
100
AcDbCircle
 10
274.6982158051434
 20
349.5460698072704
 30
0.0
 40
0.0050000000005371
100
AcDbArc
 50
197.9999995618887
 51
270.0000000227982
  0
ARC
  5
235
330
23
100
AcDbEntity
  8
SANINDUSA
  6
Continuous
370
    15
100
AcDbCircle
 10
274.8565359084472
 20
349.5400698072729
 30
0.0
 40
0.0009999999975031
100
AcDbArc
 50
48.99999992692357
 51
90.00000003908265
  0
LINE
  5
236
330
23
100
AcDbEntity
  8
SANINDUSA
  6
Continuous
370
    15
100
AcDbLine
 10
274.8692452134684
 20
349.5303467899614
 30
0.0
 11
274.8571919674755
 21
349.5408245168504
 31
0.0
  0
ARC
  5
237
330
23
100
AcDbEntity
  8
SANINDUSA
  6
Continuous
370
    15
100
AcDbCircle
 10
274.8659649183243
 20
349.5265732420608
 30
0.0
 40
0.0049999999991516
100
AcDbArc
 50
359.9999999967431
 51
49.00000000535504
  0
LINE
  5
238
330
23
100
AcDbEntity
  8
SANINDUSA
  6
Continuous
370
    15
100
AcDbLine
 10
274.8565359084464
 20
349.5410698072704
 30
0.0
 11
274.6982158051454
 21
349.5410698072704
 31
0.0
  0
SPLINE
  5
23B
330
23
100
AcDbEntity
  8
SANINDUSA
  6
Continuous
370
    15
100
AcDbSpline
210
0.0
220
0.0
230
1.0
 70
    28
 71
     3
 72
    35
 73
    31
 74
     0
 42
0.0000000001
 43
0.0000000001
 40
0.0
 40
0.0
 40
0.0
 40
0.0
 40
0.0106089249483192
 40
0.0212087845477425
 40
0.0318025103393028
 40
0.0423930389576925
 40
0.0529833096972893
 40
0.0635762620671387
 40
0.0741748333450366
 40
0.0847819561408924
 40
0.1327367836383929
 40
0.1807002065652714
 40
0.20693949834111
 40
0.2331873689532129
 40
0.2888118273793784
 40
0.3476448986180188
 40
0.4096991484877913
 40
0.4749275237214583
 40
0.5432117077794434
 40
0.6143522029944531
 40
0.6880617696114535
 40
0.7639639201080807
 40
0.8027944924157381
 40
0.8416340837208217
 40
0.8810649653520671
 40
0.9205050054089774
 40
0.9403849871395703
 40
0.9602478895025587
 40
0.9801131001542676
 40
1.0
 40
1.0
 40
1.0
 40
1.0
 10
274.8944649183234
 20
349.5410698072704
 30
0.0
 41
1.0
 10
274.8946755458334
 20
349.5410698072704
 30
0.0
 41
1.0
 10
274.8950966208715
 20
349.5410698072704
 30
0.0
 41
1.0
 10
274.8957278472737
 20
349.5410698072704
 30
0.0
 41
1.0
 10
274.8963583594216
 20
349.5410698072704
 30
0.0
 41
1.0
 10
274.8969881570158
 20
349.5410698072704
 30
0.0
 41
1.0
 10
274.8976172404548
 20
349.5410698072704
 30
0.0
 41
1.0
 10
274.8982456075705
 20
349.5410698072704
 30
0.0
 41
1.0
 10
274.8988732657714
 20
349.5410698072704
 30
0.0
 41
1.0
 10
274.9002356896671
 20
349.5410698072704
 30
0.0
 41
1.0
 10
274.9023220949486
 20
349.5410698072704
 30
0.0
 41
1.0
 10
274.9046764948727
 20
349.5410698072704
 30
0.0
 41
1.0
 10
274.9065796294575
 20
349.5410698072704
 30
0.0
 41
1.0
 10
274.9085995799998
 20
349.5410698072704
 30
0.0
 41
1.0
 10
274.9111652183602
 20
349.5410698072704
 30
0.0
 41
1.0
 10
274.9142452193591
 20
349.5410698072704
 30
0.0
 41
1.0
 10
274.917310665617
 20
349.5410698072704
 30
0.0
 41
1.0
 10
274.9202986658716
 20
349.5410698072704
 30
0.0
 41
1.0
 10
274.9231360215474
 20
349.5410698072704
 30
0.0
 41
1.0
 10
274.9257413872933
 20
349.5410698072704
 30
0.0
 41
1.0
 10
274.9280292667825
 20
349.5410698072704
 30
0.0
 41
1.0
 10
274.9295938722783
 20
349.5410698072704
 30
0.0
 41
1.0
 10
274.9306118903747
 20
349.5410698072704
 30
0.0
 41
1.0
 10
274.9312528627608
 20
349.5410698072704
 30
0.0
 41
1.0
 10
274.931758259058
 20
349.5410698072704
 30
0.0
 41
1.0
 10
274.9320624311224
 20
349.5410698072704
 30
0.0
 41
1.0
 10
274.9322341023855
 20
349.5410698072704
 30
0.0
 41
1.0
 10
274.9323258363233
 20
349.5410698072704
 30
0.0
 41
1.0
 10
274.9323832821211
 20
349.5410698072704
 30
0.0
 41
1.0
 10
274.9323903782168
 20
349.5410698072704
 30
0.0
 41
1.0
 10
274.9323939282005
 20
349.5410698072704
 30
0.0
 41
1.0
  0
SPLINE
  5
23D
330
23
100
AcDbEntity
  8
SANINDUSA
  6
Continuous
370
    15
100
AcDbSpline
210
0.0
220
0.0
230
1.0
 70
    28
 71
     3
 72
    36
 73
    32
 74
     0
 42
0.0000000001
 43
0.0000000001
 40
0.0
 40
0.0
 40
0.0
 40
0.0
 40
0.0099436290250195
 40
0.0198805679301168
 40
0.0298132365984022
 40
0.0397440580346249
 40
0.0496754565955641
 40
0.0596098562154813
 40
0.0695496786331143
 40
0.0794973416266943
 40
0.1189281870943681
 40
0.1583681909903604
 40
0.1971987277459102
 40
0.2360382834987619
 40
0.3119403641965718
 40
0.3856498630310316
 40
0.4567902928259921
 40
0.525074414090561
 40
0.590302729340902
 40
0.6523569221462403
 40
0.7111899392826086
 40
0.7668143465571085
 40
0.7930536140944634
 40
0.8193014606396094
 40
0.8672562439979508
 40
0.9152196229671229
 40
0.9321836759560691
 40
0.9491317023651415
 40
0.9660757382978333
 40
0.9830278283574394
 40
1.0
 40
1.0
 40
1.0
 40
1.0
 10
274.8565359084464
 20
349.5410698072704
 30
0.0
 41
1.0
 10
274.8565367926532
 20
349.5410698072704
 30
0.0
 41
1.0
 10
274.856538560472
 20
349.5410698072704
 30
0.0
 41
1.0
 10
274.85655291177
 20
349.5410698072704
 30
0.0
 41
1.0
 10
274.8565758302426
 20
349.5410698072704
 30
0.0
 41
1.0
 10
274.8566081541237
 20
349.5410698072704
 30
0.0
 41
1.0
 10
274.8566496591097
 20
349.5410698072704
 30
0.0
 41
1.0
 10
274.8567004045844
 20
349.5410698072704
 30
0.0
 41
1.0
 10
274.8567603772127
 20
349.5410698072704
 30
0.0
 41
1.0
 10
274.856897900901
 20
349.5410698072704
 30
0.0
 41
1.0
 10
274.8571715734201
 20
349.5410698072704
 30
0.0
 41
1.0
 10
274.8576768773822
 20
349.5410698072704
 30
0.0
 41
1.0
 10
274.858317893032
 20
349.5410698072704
 30
0.0
 41
1.0
 10
274.8593358886737
 20
349.5410698072704
 30
0.0
 41
1.0
 10
274.8609005701297
 20
349.5410698072704
 30
0.0
 41
1.0
 10
274.8631884492859
 20
349.5410698072704
 30
0.0
 41
1.0
 10
274.8657938151168
 20
349.5410698072704
 30
0.0
 41
1.0
 10
274.8686311707698
 20
349.5410698072704
 30
0.0
 41
1.0
 10
274.8716191710349
 20
349.5410698072704
 30
0.0
 41
1.0
 10
274.8746846172738
 20
349.5410698072704
 30
0.0
 41
1.0
 10
274.877764618334
 20
349.5410698072704
 30
0.0
 41
1.0
 10
274.8803301000886
 20
349.5410698072704
 30
0.0
 41
1.0
 10
274.8823500458736
 20
349.5410698072704
 30
0.0
 41
1.0
 10
274.8842530119457
 20
349.5410698072704
 30
0.0
 41
1.0
 10
274.8866075865326
 20
349.5410698072704
 30
0.0
 41
1.0
 10
274.8888184507318
 20
349.5410698072704
 30
0.0
 41
1.0
 10
274.8904324357935
 20
349.5410698072704
 30
0.0
 41
1.0
 10
274.8914378564555
 20
349.5410698072704
 30
0.0
 41
1.0
 10
274.8924451766798
 20
349.5410698072704
 30
0.0
 41
1.0
 10
274.8934544115396
 20
349.5410698072704
 30
0.0
 41
1.0
 10
274.8941279498278
 20
349.5410698072704
 30
0.0
 41
1.0
 10
274.8944649183234
 20
349.5410698072704
 30
0.0
 41
1.0
  0
LINE
  5
240
330
23
100
AcDbEntity
  8
SANINDUSA
  6
Continuous
370
    15
100
AcDbLine
 10
274.9179649183234
 20
349.5160698072704
 30
0.0
 11
274.8709649183235
 21
349.5160698072704
 31
0.0
  0
ARC
  5
245
330
23
100
AcDbEntity
  8
SANINDUSA
  6
Continuous
370
    15
100
AcDbCircle
 10
274.6034649183234
 20
349.6120698072704
 30
0.0
 40
0.0010000000000002
100
AcDbArc
 50
269.9999942646202
 51
0.0
  0
LINE
  5
246
330
23
100
AcDbEntity
  8
SANINDUSA
  6
Continuous
370
    15
100
AcDbLine
 10
274.6034649182233
 20
349.6110698072704
 30
0.0
 11
274.6404649184236
 21
349.6110698072704
 31
0.0
  0
LINE
  5
248
330
23
100
AcDbEntity
  8
SANINDUSA
  6
Continuous
370
    15
100
AcDbLine
 10
274.6044649183235
 20
349.6120698072704
 30
0.0
 11
274.6044649183235
 21
349.6250698072704
 31
0.0
  0
ARC
  5
249
330
23
100
AcDbEntity
  8
SANINDUSA
  6
Continuous
370
    15
100
AcDbCircle
 10
274.6034649183234
 20
349.6250698072704
 30
0.0
 40
0.0010000000000002
100
AcDbArc
 50
0.000000009770664
 51
90.0
  0
LINE
  5
24A
330
23
100
AcDbEntity
  8
SANINDUSA
  6
Continuous
370
    15
100
AcDbLine
 10
274.6404649183235
 20
349.6260698072704
 30
0.0
 11
274.6034649183234
 21
349.6260698072704
 31
0.0
  0
LINE
  5
24B
330
23
100
AcDbEntity
  8
SANINDUSA
  6
Continuous
370
    15
100
AcDbLine
 10
274.5518975142194
 20
349.6241396062634
 30
0.0
 11
274.5514411067814
 21
349.6110698072704
 31
0.0
  0
ARC
  5
24C
330
23
100
AcDbEntity
  8
SANINDUSA
  6
Continuous
370
    15
100
AcDbCircle
 10
274.5538962958734
 20
349.6240698072704
 30
0.0
 40
0.0020000000000006
100
AcDbArc
 50
90.00000001302757
 51
178.0000000125209
  0
LINE
  5
24D
330
23
100
AcDbEntity
  8
SANINDUSA
  6
Continuous
370
    15
100
AcDbLine
 10
274.6034649183234
 20
349.6260698072704
 30
0.0
 11
274.553896295873
 21
349.6260698072704
 31
0.0
  0
LINE
  5
24E
330
23
100
AcDbEntity
  8
SANINDUSA
  6
Continuous
370
    15
100
AcDbLine
 10
274.6034649182233
 20
349.6110698072704
 30
0.0
 11
274.5514411067814
 21
349.6110698072704
 31
0.0
  0
SPLINE
  5
258
330
23
100
AcDbEntity
  8
SANINDUSA
  6
Continuous
370
    15
100
AcDbSpline
210
0.0
220
0.0
230
1.0
 70
    28
 71
     3
 72
    25
 73
    21
 74
     0
 42
0.0000000001
 43
0.0000000001
 40
0.0
 40
0.0
 40
0.0
 40
0.0
 40
0.0257441017763536
 40
0.0513413047299632
 40
0.0768274768347447
 40
0.1022389562247799
 40
0.1276124019457534
 40
0.1905777314791255
 40
0.2531270534345615
 40
0.3152297408386337
 40
0.3770710730811689
 40
0.5000065665964942
 40
0.6229420601118197
 40
0.6847326320163499
 40
0.7468860803998635
 40
0.8093839930179814
 40
0.8724007328062473
 40
0.9146808584058138
 40
0.9571578119137825
 40
1.0
 40
1.0
 40
1.0
 40
1.0
 10
274.6655118332674
 20
349.6260698072704
 30
0.0
 41
1.0
 10
274.665512799491
 20
349.6260698072704
 30
0.0
 41
1.0
 10
274.6655147264248
 20
349.6260698072704
 30
0.0
 41
1.0
 10
274.6655302577157
 20
349.6260698072704
 30
0.0
 41
1.0
 10
274.6655550632429
 20
349.6260698072704
 30
0.0
 41
1.0
 10
274.6655900405927
 20
349.6260698072704
 30
0.0
 41
1.0
 10
274.6656570936021
 20
349.6260698072704
 30
0.0
 41
1.0
 10
274.6657807057546
 20
349.6260698072704
 30
0.0
 41
1.0
 10
274.6659961656955
 20
349.6260698072704
 30
0.0
 41
1.0
 10
274.6662699028189
 20
349.6260698072704
 30
0.0
 41
1.0
 10
274.6667090007797
 20
349.6260698072704
 30
0.0
 41
1.0
 10
274.6673935491261
 20
349.6260698072704
 30
0.0
 41
1.0
 10
274.6682342515023
 20
349.6260698072704
 30
0.0
 41
1.0
 10
274.6689792545689
 20
349.6260698072704
 30
0.0
 41
1.0
 10
274.6695724681905
 20
349.6260698072704
 30
0.0
 41
1.0
 10
274.6701936199254
 20
349.6260698072704
 30
0.0
 41
1.0
 10
274.6707652509416
 20
349.6260698072704
 30
0.0
 41
1.0
 10
274.6712761368012
 20
349.6260698072704
 30
0.0
 41
1.0
 10
274.6717208470374
 20
349.6260698072704
 30
0.0
 41
1.0
 10
274.6720193423334
 20
349.6260698072704
 30
0.0
 41
1.0
 10
274.6721692288815
 20
349.6260698072704
 30
0.0
 41
1.0
  0
SPLINE
  5
25A
330
23
100
AcDbEntity
  8
SANINDUSA
  6
Continuous
370
    15
100
AcDbSpline
210
0.0
220
0.0
230
1.0
 70
    28
 71
     3
 72
    25
 73
    21
 74
     0
 42
0.0000000001
 43
0.0000000001
 40
0.0
 40
0.0
 40
0.0
 40
0.0
 40
0.0257441017818388
 40
0.0513413047381835
 40
0.0768274768429603
 40
0.1022389562302805
 40
0.1276124019458498
 40
0.1905777314877963
 40
0.2531270534345777
 40
0.3152297408452926
 40
0.3770710730812458
 40
0.5000065665965498
 40
0.6229420601118773
 40
0.6847326320129139
 40
0.7468860803997659
 40
0.8093839929999649
 40
0.8724007328061485
 40
0.9146808583978652
 40
0.9571578119058328
 40
1.0
 40
1.0
 40
1.0
 40
1.0
 10
275.1167606077654
 20
349.6260698072704
 30
0.0
 41
1.0
 10
275.1168506660461
 20
349.6260698072704
 30
0.0
 41
1.0
 10
275.1170302687245
 20
349.6260698072704
 30
0.0
 41
1.0
 10
275.1172986579256
 20
349.6260698072704
 30
0.0
 41
1.0
 10
275.1175651342761
 20
349.6260698072704
 30
0.0
 41
1.0
 10
275.1178297039745
 20
349.6260698072704
 30
0.0
 41
1.0
 10
275.1182219784993
 20
349.6260698072704
 30
0.0
 41
1.0
 10
275.1187360518068
 20
349.6260698072704
 30
0.0
 41
1.0
 10
275.1193570347586
 20
349.6260698072704
 30
0.0
 41
1.0
 10
275.1199504237626
 20
349.6260698072704
 30
0.0
 41
1.0
 10
275.1206954466484
 20
349.6260698072704
 30
0.0
 41
1.0
 10
275.1215362869759
 20
349.6260698072704
 30
0.0
 41
1.0
 10
275.1222207243724
 20
349.6260698072704
 30
0.0
 41
1.0
 10
275.1226598486748
 20
349.6260698072704
 30
0.0
 41
1.0
 10
275.1229335453663
 20
349.6260698072704
 30
0.0
 41
1.0
 10
275.1231490497878
 20
349.6260698072704
 30
0.0
 41
1.0
 10
275.123286663627
 20
349.6260698072704
 30
0.0
 41
1.0
 10
275.1233669412994
 20
349.6260698072704
 30
0.0
 41
1.0
 10
275.1234100492177
 20
349.6260698072704
 30
0.0
 41
1.0
 10
275.1234153444362
 20
349.6260698072704
 30
0.0
 41
1.0
 10
275.1234180033794
 20
349.6260698072704
 30
0.0
 41
1.0
  0
LINE
  5
25B
330
23
100
AcDbEntity
  8
SANINDUSA
  6
Continuous
370
    15
100
AcDbLine
 10
274.6721692288815
 20
349.6260698072704
 30
0.0
 11
275.1167606078209
 21
349.6260698072704
 31
0.0
  0
ENDSEC
  0
SECTION
  2
OBJECTS
  0
DICTIONARY
  5
C
330
0
100
AcDbDictionary
281
     1
  3
ACAD_COLOR
350
1C
  3
ACAD_GROUP
350
D
  3
ACAD_LAYOUT
350
1A
  3
ACAD_MATERIAL
350
1B
  3
ACAD_MLINESTYLE
350
17
  3
ACAD_PLOTSETTINGS
350
19
  3
ACAD_PLOTSTYLENAME
350
E
  3
ACAD_TABLESTYLE
350
1D
  3
ACDBHEADERROUNDTRIPXREC
350
274
  3
AcDbVariableDictionary
350
263
  0
DICTIONARY
  5
1C
102
{ACAD_REACTORS
330
C
102
}
330
C
100
AcDbDictionary
281
     1
  0
DICTIONARY
  5
D
102
{ACAD_REACTORS
330
C
102
}
330
C
100
AcDbDictionary
281
     1
  0
DICTIONARY
  5
1A
102
{ACAD_REACTORS
330
C
102
}
330
C
100
AcDbDictionary
281
     1
  3
Layout1
350
22
  3
Layout2
350
2A
  3
Model
350
26
  0
DICTIONARY
  5
1B
102
{ACAD_REACTORS
330
C
102
}
330
C
100
AcDbDictionary
281
     1
  0
DICTIONARY
  5
17
102
{ACAD_REACTORS
330
C
102
}
330
C
100
AcDbDictionary
281
     1
  3
Standard
350
18
  0
DICTIONARY
  5
19
102
{ACAD_REACTORS
330
C
102
}
330
C
100
AcDbDictionary
281
     1
  0
ACDBDICTIONARYWDFLT
  5
E
102
{ACAD_REACTORS
330
C
102
}
330
C
100
AcDbDictionary
281
     1
  3
Normal
350
F
100
AcDbDictionaryWithDefault
340
F
  0
DICTIONARY
  5
1D
102
{ACAD_REACTORS
330
C
102
}
330
C
100
AcDbDictionary
281
     1
  3
Standard
350
1E
  0
DICTIONARY
  5
274
102
{ACAD_REACTORS
330
C
102
}
330
C
100
AcDbDictionary
281
     1
  0
DICTIONARY
  5
263
102
{ACAD_REACTORS
330
C
102
}
330
C
100
AcDbDictionary
281
     1
  3
CTABLESTYLE
350
264
  3
DIMASSOC
350
26E
  3
HIDETEXT
350
26D
  3
PROJECTNAME
350
26F
  0
LAYOUT
  5
22
102
{ACAD_XDICTIONARY
360
275
102
}
102
{ACAD_REACTORS
330
1A
102
}
330
1A
100
AcDbPlotSettings
  1

  2
C:\Documents and Settings\Julio\Application Data\Autodesk\AutoCAD 2006\R16.2\enu\plotters\Default Windows System Printer.pc3
  4

  6

 40
0.0
 41
0.0
 42
0.0
 43
0.0
 44
0.0
 45
0.0
 46
0.0
 47
0.0
 48
0.0
 49
0.0
140
0.0
141
0.0
142
1.0
143
1.0
 70
   688
 72
     0
 73
     0
 74
     5
  7

 75
    16
147
1.0
148
0.0
149
0.0
100
AcDbLayout
  1
Layout1
 70
     1
 71
     1
 10
0.0
 20
0.0
 11
420.0
 21
297.0
 12
0.0
 22
0.0
 32
0.0
 14
1.000000000000000E+20
 24
1.000000000000000E+20
 34
1.000000000000000E+20
 15
-1.000000000000000E+20
 25
-1.000000000000000E+20
 35
-1.000000000000000E+20
146
0.0
 13
0.0
 23
0.0
 33
0.0
 16
1.0
 26
0.0
 36
0.0
 17
0.0
 27
1.0
 37
0.0
 76
     0
330
1F
  0
LAYOUT
  5
2A
102
{ACAD_XDICTIONARY
360
279
102
}
102
{ACAD_REACTORS
330
1A
102
}
330
1A
100
AcDbPlotSettings
  1

  2
C:\Documents and Settings\Julio\Application Data\Autodesk\AutoCAD 2006\R16.2\enu\plotters\Default Windows System Printer.pc3
  4

  6

 40
0.0
 41
0.0
 42
0.0
 43
0.0
 44
0.0
 45
0.0
 46
0.0
 47
0.0
 48
0.0
 49
0.0
140
0.0
141
0.0
142
1.0
143
1.0
 70
   688
 72
     0
 73
     0
 74
     5
  7

 75
    16
147
1.0
148
0.0
149
0.0
100
AcDbLayout
  1
Layout2
 70
     1
 71
     2
 10
0.0
 20
0.0
 11
12.0
 21
9.0
 12
0.0
 22
0.0
 32
0.0
 14
0.0
 24
0.0
 34
0.0
 15
0.0
 25
0.0
 35
0.0
146
0.0
 13
0.0
 23
0.0
 33
0.0
 16
1.0
 26
0.0
 36
0.0
 17
0.0
 27
1.0
 37
0.0
 76
     0
330
27
  0
LAYOUT
  5
26
102
{ACAD_XDICTIONARY
360
277
102
}
102
{ACAD_REACTORS
330
1A
102
}
330
1A
100
AcDbPlotSettings
  1

  2
C:\Documents and Settings\Julio\Application Data\Autodesk\AutoCAD 2006\R16.2\enu\plotters\Default Windows System Printer.pc3
  4

  6

 40
0.0
 41
0.0
 42
0.0
 43
0.0
 44
0.0
 45
0.0
 46
0.0
 47
0.0
 48
0.0
 49
0.0
140
0.0
141
0.0
142
1.0
143
1.0
 70
  1712
 72
     0
 73
     0
 74
     0
  7

 75
     0
147
1.0
148
0.0
149
0.0
100
AcDbLayout
  1
Model
 70
     1
 71
     0
 10
0.0
 20
0.0
 11
12.0
 21
9.0
 12
0.0
 22
0.0
 32
0.0
 14
0.0
 24
0.0
 34
0.0
 15
0.0
 25
0.0
 35
0.0
146
0.0
 13
0.0
 23
0.0
 33
0.0
 16
1.0
 26
0.0
 36
0.0
 17
0.0
 27
1.0
 37
0.0
 76
     0
330
23
  0
MLINESTYLE
  5
18
102
{ACAD_REACTORS
330
17
102
}
330
17
100
AcDbMlineStyle
  2
STANDARD
 70
     0
  3

 62
   256
 51
90.0
 52
90.0
 71
     2
 49
0.5
 62
   256
  6
BYLAYER
 49
-0.5
 62
   256
  6
BYLAYER
  0
ACDBPLACEHOLDER
  5
F
102
{ACAD_REACTORS
330
E
102
}
330
E
  0
TABLESTYLE
  5
1E
102
{ACAD_REACTORS
330
1D
102
}
330
1D
100
AcDbTableStyle
  3
Standard
 70
     0
 71
     0
 40
1.5
 41
1.5
280
     0
281
     0
  7
Standard
140
4.5
170
     2
 62
     0
 63
     7
283
     0
274
    -2
284
     1
 64
     0
275
    -2
285
     1
 65
     0
276
    -2
286
     1
 66
     0
277
    -2
287
     1
 67
     0
278
    -2
288
     1
 68
     0
279
    -2
289
     1
 69
     0
  7
Standard
140
6.0
170
     5
 62
     0
 63
     7
283
     0
274
    -2
284
     1
 64
     0
275
    -2
285
     1
 65
     0
276
    -2
286
     1
 66
     0
277
    -2
287
     1
 67
     0
278
    -2
288
     1
 68
     0
279
    -2
289
     1
 69
     0
  7
Standard
140
4.5
170
     5
 62
     0
 63
     7
283
     0
274
    -2
284
     1
 64
     0
275
    -2
285
     1
 65
     0
276
    -2
286
     1
 66
     0
277
    -2
287
     1
 67
     0
278
    -2
288
     1
 68
     0
279
    -2
289
     1
 69
     0
  0
DICTIONARYVAR
  5
264
102
{ACAD_REACTORS
330
263
102
}
330
263
100
DictionaryVariables
280
     0
  1
STANDARD
  0
DICTIONARYVAR
  5
26E
102
{ACAD_REACTORS
330
263
102
}
330
263
100
DictionaryVariables
280
     0
  1
2
  0
DICTIONARYVAR
  5
26D
102
{ACAD_REACTORS
330
263
102
}
330
263
100
DictionaryVariables
280
     0
  1
1
  0
DICTIONARYVAR
  5
26F
102
{ACAD_REACTORS
330
263
102
}
330
263
100
DictionaryVariables
280
     0
  1

  0
DICTIONARY
  5
275
330
22
100
AcDbDictionary
280
     1
281
     1
  3
ACAD_XREC_ROUNDTRIP
360
276
  0
DICTIONARY
  5
279
330
2A
100
AcDbDictionary
280
     1
281
     1
  3
ACAD_XREC_ROUNDTRIP
360
27A
  0
DICTIONARY
  5
277
330
26
100
AcDbDictionary
280
     1
281
     1
  3
ACAD_XREC_ROUNDTRIP
360
278
  0
XRECORD
  5
276
102
{ACAD_REACTORS
330
275
102
}
330
275
100
AcDbXrecord
280
     1
102
SHADEPLOT
 70
     0
102
SHADEPLOTRESLEVEL
 70
     2
102
SHADEPLOTCUSTOMDPI
 70
   300
  0
XRECORD
  5
27A
102
{ACAD_REACTORS
330
279
102
}
330
279
100
AcDbXrecord
280
     1
102
SHADEPLOT
 70
     0
102
SHADEPLOTRESLEVEL
 70
     2
102
SHADEPLOTCUSTOMDPI
 70
   300
  0
XRECORD
  5
278
102
{ACAD_REACTORS
330
277
102
}
330
277
100
AcDbXrecord
280
     1
102
SHADEPLOT
 70
     0
102
SHADEPLOTRESLEVEL
 70
     2
102
SHADEPLOTCUSTOMDPI
 70
   300
  0
ENDSEC
  0
EOF
