  0
SECTION
  2
HEADER
  9
$ACADVER
  1
AC1015
  9
$ACADMAINTVER
 70
    20
  9
$DWGCODEPAGE
  3
ANSI_1252
  9
$INSBASE
 10
0.0
 20
0.0
 30
0.0
  9
$EXTMIN
 10
446.5129381144715
 20
419.2390381135803
 30
0.0
  9
$EXTMAX
 10
448.5729116579443
 20
419.4891729217891
 30
0.0
  9
$LIMMIN
 10
0.0
 20
0.0
  9
$LIMMAX
 10
420.0
 20
297.0
  9
$ORTHOMODE
 70
     1
  9
$REGENMODE
 70
     1
  9
$FILLMODE
 70
     1
  9
$QTEXTMODE
 70
     0
  9
$MIRRTEXT
 70
     0
  9
$LTSCALE
 40
1.0
  9
$ATTMODE
 70
     1
  9
$TEXTSIZE
 40
2.5
  9
$TRACEWID
 40
1.0
  9
$TEXTSTYLE
  7
Standard
  9
$CLAYER
  8
0
  9
$CELTYPE
  6
ByLayer
  9
$CECOLOR
 62
   256
  9
$CELTSCALE
 40
1.0
  9
$DISPSILH
 70
     0
  9
$DIMSCALE
 40
1.0
  9
$DIMASZ
 40
2.5
  9
$DIMEXO
 40
0.625
  9
$DIMDLI
 40
3.75
  9
$DIMRND
 40
0.0
  9
$DIMDLE
 40
0.0
  9
$DIMEXE
 40
1.25
  9
$DIMTP
 40
0.0
  9
$DIMTM
 40
0.0
  9
$DIMTXT
 40
2.5
  9
$DIMCEN
 40
2.5
  9
$DIMTSZ
 40
0.0
  9
$DIMTOL
 70
     0
  9
$DIMLIM
 70
     0
  9
$DIMTIH
 70
     0
  9
$DIMTOH
 70
     0
  9
$DIMSE1
 70
     0
  9
$DIMSE2
 70
     0
  9
$DIMTAD
 70
     1
  9
$DIMZIN
 70
     8
  9
$DIMBLK
  1

  9
$DIMASO
 70
     1
  9
$DIMSHO
 70
     1
  9
$DIMPOST
  1

  9
$DIMAPOST
  1

  9
$DIMALT
 70
     0
  9
$DIMALTD
 70
     3
  9
$DIMALTF
 40
0.03937007874016
  9
$DIMLFAC
 40
1.0
  9
$DIMTOFL
 70
     1
  9
$DIMTVP
 40
0.0
  9
$DIMTIX
 70
     0
  9
$DIMSOXD
 70
     0
  9
$DIMSAH
 70
     0
  9
$DIMBLK1
  1

  9
$DIMBLK2
  1

  9
$DIMSTYLE
  2
ISO-25
  9
$DIMCLRD
 70
     0
  9
$DIMCLRE
 70
     0
  9
$DIMCLRT
 70
     0
  9
$DIMTFAC
 40
1.0
  9
$DIMGAP
 40
0.625
  9
$DIMJUST
 70
     0
  9
$DIMSD1
 70
     0
  9
$DIMSD2
 70
     0
  9
$DIMTOLJ
 70
     0
  9
$DIMTZIN
 70
     8
  9
$DIMALTZ
 70
     0
  9
$DIMALTTZ
 70
     0
  9
$DIMUPT
 70
     0
  9
$DIMDEC
 70
     2
  9
$DIMTDEC
 70
     2
  9
$DIMALTU
 70
     2
  9
$DIMALTTD
 70
     3
  9
$DIMTXSTY
  7
Standard
  9
$DIMAUNIT
 70
     0
  9
$DIMADEC
 70
     0
  9
$DIMALTRND
 40
0.0
  9
$DIMAZIN
 70
     0
  9
$DIMDSEP
 70
    44
  9
$DIMATFIT
 70
     3
  9
$DIMFRAC
 70
     0
  9
$DIMLDRBLK
  1

  9
$DIMLUNIT
 70
     2
  9
$DIMLWD
 70
    -2
  9
$DIMLWE
 70
    -2
  9
$DIMTMOVE
 70
     0
  9
$LUNITS
 70
     2
  9
$LUPREC
 70
     4
  9
$SKETCHINC
 40
1.0
  9
$FILLETRAD
 40
0.0
  9
$AUNITS
 70
     0
  9
$AUPREC
 70
     0
  9
$MENU
  1
.
  9
$ELEVATION
 40
0.0
  9
$PELEVATION
 40
0.0
  9
$THICKNESS
 40
0.0
  9
$LIMCHECK
 70
     0
  9
$CHAMFERA
 40
0.0
  9
$CHAMFERB
 40
0.0
  9
$CHAMFERC
 40
0.0
  9
$CHAMFERD
 40
0.0
  9
$SKPOLY
 70
     0
  9
$TDCREATE
 40
2454862.731812419
  9
$TDUCREATE
 40
2454862.690145752
  9
$TDUPDATE
 40
2454925.673224282
  9
$TDUUPDATE
 40
2454925.631557616
  9
$TDINDWG
 40
0.0038223380
  9
$TDUSRTIMER
 40
0.0038223380
  9
$USRTIMER
 70
     1
  9
$ANGBASE
 50
0.0
  9
$ANGDIR
 70
     0
  9
$PDMODE
 70
     0
  9
$PDSIZE
 40
0.0
  9
$PLINEWID
 40
0.0
  9
$SPLFRAME
 70
     0
  9
$SPLINETYPE
 70
     6
  9
$SPLINESEGS
 70
     8
  9
$HANDSEED
  5
2A0
  9
$SURFTAB1
 70
     6
  9
$SURFTAB2
 70
     6
  9
$SURFTYPE
 70
     6
  9
$SURFU
 70
     6
  9
$SURFV
 70
     6
  9
$UCSBASE
  2

  9
$UCSNAME
  2

  9
$UCSORG
 10
0.0
 20
0.0
 30
0.0
  9
$UCSXDIR
 10
1.0
 20
0.0
 30
0.0
  9
$UCSYDIR
 10
0.0
 20
1.0
 30
0.0
  9
$UCSORTHOREF
  2

  9
$UCSORTHOVIEW
 70
     0
  9
$UCSORGTOP
 10
0.0
 20
0.0
 30
0.0
  9
$UCSORGBOTTOM
 10
0.0
 20
0.0
 30
0.0
  9
$UCSORGLEFT
 10
0.0
 20
0.0
 30
0.0
  9
$UCSORGRIGHT
 10
0.0
 20
0.0
 30
0.0
  9
$UCSORGFRONT
 10
0.0
 20
0.0
 30
0.0
  9
$UCSORGBACK
 10
0.0
 20
0.0
 30
0.0
  9
$PUCSBASE
  2

  9
$PUCSNAME
  2

  9
$PUCSORG
 10
0.0
 20
0.0
 30
0.0
  9
$PUCSXDIR
 10
1.0
 20
0.0
 30
0.0
  9
$PUCSYDIR
 10
0.0
 20
1.0
 30
0.0
  9
$PUCSORTHOREF
  2

  9
$PUCSORTHOVIEW
 70
     0
  9
$PUCSORGTOP
 10
0.0
 20
0.0
 30
0.0
  9
$PUCSORGBOTTOM
 10
0.0
 20
0.0
 30
0.0
  9
$PUCSORGLEFT
 10
0.0
 20
0.0
 30
0.0
  9
$PUCSORGRIGHT
 10
0.0
 20
0.0
 30
0.0
  9
$PUCSORGFRONT
 10
0.0
 20
0.0
 30
0.0
  9
$PUCSORGBACK
 10
0.0
 20
0.0
 30
0.0
  9
$USERI1
 70
     0
  9
$USERI2
 70
     0
  9
$USERI3
 70
     0
  9
$USERI4
 70
     0
  9
$USERI5
 70
     0
  9
$USERR1
 40
0.0
  9
$USERR2
 40
0.0
  9
$USERR3
 40
0.0
  9
$USERR4
 40
0.0
  9
$USERR5
 40
0.0
  9
$WORLDVIEW
 70
     1
  9
$SHADEDGE
 70
     3
  9
$SHADEDIF
 70
    70
  9
$TILEMODE
 70
     1
  9
$MAXACTVP
 70
    64
  9
$PINSBASE
 10
0.0
 20
0.0
 30
0.0
  9
$PLIMCHECK
 70
     0
  9
$PEXTMIN
 10
1.000000000000000E+20
 20
1.000000000000000E+20
 30
1.000000000000000E+20
  9
$PEXTMAX
 10
-1.000000000000000E+20
 20
-1.000000000000000E+20
 30
-1.000000000000000E+20
  9
$PLIMMIN
 10
0.0
 20
0.0
  9
$PLIMMAX
 10
420.0
 20
297.0
  9
$UNITMODE
 70
     0
  9
$VISRETAIN
 70
     1
  9
$PLINEGEN
 70
     0
  9
$PSLTSCALE
 70
     1
  9
$TREEDEPTH
 70
  3020
  9
$CMLSTYLE
  2
Standard
  9
$CMLJUST
 70
     0
  9
$CMLSCALE
 40
20.0
  9
$PROXYGRAPHICS
 70
     1
  9
$MEASUREMENT
 70
     1
  9
$CELWEIGHT
370
    -1
  9
$ENDCAPS
280
     0
  9
$JOINSTYLE
280
     0
  9
$LWDISPLAY
290
     0
  9
$INSUNITS
 70
     4
  9
$HYPERLINKBASE
  1

  9
$STYLESHEET
  1

  9
$XEDIT
290
     1
  9
$CEPSNTYPE
380
     0
  9
$PSTYLEMODE
290
     1
  9
$FINGERPRINTGUID
  2
{E0006029-14C9-4767-B6DA-EB3A0E9F1862}
  9
$VERSIONGUID
  2
{3C49C4AE-C439-4F7F-9B91-D444FF897C65}
  9
$EXTNAMES
290
     1
  9
$PSVPSCALE
 40
0.0
  9
$OLESTARTUP
290
     0
  0
ENDSEC
  0
SECTION
  2
CLASSES
  0
CLASS
  1
ACDBDICTIONARYWDFLT
  2
AcDbDictionaryWithDefault
  3
ObjectDBX Classes
 90
        0
280
     0
281
     0
  0
CLASS
  1
TABLESTYLE
  2
AcDbTableStyle
  3
ObjectDBX Classes
 90
     2047
280
     0
281
     0
  0
CLASS
  1
DICTIONARYVAR
  2
AcDbDictionaryVar
  3
ObjectDBX Classes
 90
        0
280
     0
281
     0
  0
CLASS
  1
ACDBPLACEHOLDER
  2
AcDbPlaceHolder
  3
ObjectDBX Classes
 90
        0
280
     0
281
     0
  0
CLASS
  1
LAYOUT
  2
AcDbLayout
  3
ObjectDBX Classes
 90
        0
280
     0
281
     0
  0
ENDSEC
  0
SECTION
  2
TABLES
  0
TABLE
  2
VPORT
  5
8
330
0
100
AcDbSymbolTable
 70
     8
  0
VPORT
  5
298
330
8
100
AcDbSymbolTableRecord
100
AcDbViewportTableRecord
  2
*Active
 70
     0
 10
0.0
 20
0.0
 11
1.0
 21
1.0
 12
447.5429248862079
 22
419.3641055176847
 13
0.0
 23
0.0
 14
10.0
 24
10.0
 15
10.0
 25
10.0
 16
0.0
 26
0.0
 36
1.0
 17
0.0
 27
0.0
 37
0.0
 40
1.290735884476948
 41
1.602030456852791
 42
50.0
 43
0.0
 44
0.0
 50
0.0
 51
0.0
 71
     0
 72
  1000
 73
     1
 74
     3
 75
     0
 76
     0
 77
     0
 78
     0
281
     0
 65
     1
110
0.0
120
0.0
130
0.0
111
1.0
121
0.0
131
0.0
112
0.0
122
1.0
132
0.0
 79
     0
146
0.0
  0
ENDTAB
  0
TABLE
  2
LTYPE
  5
5
330
0
100
AcDbSymbolTable
 70
     2
  0
LTYPE
  5
14
330
5
100
AcDbSymbolTableRecord
100
AcDbLinetypeTableRecord
  2
ByBlock
 70
     0
  3

 72
    65
 73
     0
 40
0.0
  0
LTYPE
  5
15
330
5
100
AcDbSymbolTableRecord
100
AcDbLinetypeTableRecord
  2
ByLayer
 70
     0
  3

 72
    65
 73
     0
 40
0.0
  0
LTYPE
  5
16
330
5
100
AcDbSymbolTableRecord
100
AcDbLinetypeTableRecord
  2
Continuous
 70
     0
  3
Solid line
 72
    65
 73
     0
 40
0.0
  0
ENDTAB
  0
TABLE
  2
LAYER
  5
2
330
0
100
AcDbSymbolTable
 70
     2
  0
LAYER
  5
10
330
2
100
AcDbSymbolTableRecord
100
AcDbLayerTableRecord
  2
0
 70
     0
 62
     7
  6
Continuous
370
    -3
390
F
  0
LAYER
  5
261
330
2
100
AcDbSymbolTableRecord
100
AcDbLayerTableRecord
  2
SANINDUSA
 70
     0
 62
     3
  6
Continuous
370
    -3
390
F
  0
ENDTAB
  0
TABLE
  2
STYLE
  5
3
330
0
100
AcDbSymbolTable
 70
     2
  0
STYLE
  5
11
330
3
100
AcDbSymbolTableRecord
100
AcDbTextStyleTableRecord
  2
Standard
 70
     0
 40
0.0
 41
1.0
 50
0.0
 71
     0
 42
2.5
  3
txt
  4

  0
ENDTAB
  0
TABLE
  2
VIEW
  5
6
330
0
100
AcDbSymbolTable
 70
     0
  0
ENDTAB
  0
TABLE
  2
UCS
  5
7
330
0
100
AcDbSymbolTable
 70
     0
  0
ENDTAB
  0
TABLE
  2
APPID
  5
9
330
0
100
AcDbSymbolTable
 70
     3
  0
APPID
  5
12
330
9
100
AcDbSymbolTableRecord
100
AcDbRegAppTableRecord
  2
ACAD
 70
     0
  0
APPID
  5
27B
330
9
100
AcDbSymbolTableRecord
100
AcDbRegAppTableRecord
  2
ACAD_PSEXT
 70
     0
  0
APPID
  5
288
330
9
100
AcDbSymbolTableRecord
100
AcDbRegAppTableRecord
  2
ACAD_EXEMPT_FROM_CAD_STANDARDS
 70
     0
  0
ENDTAB
  0
TABLE
  2
DIMSTYLE
  5
A
330
0
100
AcDbSymbolTable
 70
     3
100
AcDbDimStyleTable
 71
     1
340
2B
  0
DIMSTYLE
105
2B
330
A
100
AcDbSymbolTableRecord
100
AcDbDimStyleTableRecord
  2
ISO-25
 70
     0
 41
2.5
 42
0.625
 43
3.75
 44
1.25
 73
     0
 74
     0
 77
     1
 78
     8
140
2.5
141
2.5
143
0.03937007874016
147
0.625
171
     3
172
     1
271
     2
272
     2
274
     3
278
    44
283
     0
284
     8
340
11
  0
ENDTAB
  0
TABLE
  2
BLOCK_RECORD
  5
1
330
0
100
AcDbSymbolTable
 70
     3
  0
BLOCK_RECORD
  5
23
330
1
100
AcDbSymbolTableRecord
100
AcDbBlockTableRecord
  2
*Model_Space
340
26
  0
BLOCK_RECORD
  5
1F
330
1
100
AcDbSymbolTableRecord
100
AcDbBlockTableRecord
  2
*Paper_Space
340
22
  0
BLOCK_RECORD
  5
27
330
1
100
AcDbSymbolTableRecord
100
AcDbBlockTableRecord
  2
*Paper_Space0
340
2A
  0
ENDTAB
  0
ENDSEC
  0
SECTION
  2
BLOCKS
  0
BLOCK
  5
24
330
23
100
AcDbEntity
  8
0
100
AcDbBlockBegin
  2
*Model_Space
 70
     0
 10
0.0
 20
0.0
 30
0.0
  3
*Model_Space
  1

  0
ENDBLK
  5
25
330
23
100
AcDbEntity
  8
0
100
AcDbBlockEnd
  0
BLOCK
  5
20
330
1F
100
AcDbEntity
 67
     1
  8
0
100
AcDbBlockBegin
  2
*Paper_Space
 70
     0
 10
0.0
 20
0.0
 30
0.0
  3
*Paper_Space
  1

  0
ENDBLK
  5
21
330
1F
100
AcDbEntity
 67
     1
  8
0
100
AcDbBlockEnd
  0
BLOCK
  5
28
330
27
100
AcDbEntity
 67
     1
  8
0
100
AcDbBlockBegin
  2
*Paper_Space0
 70
     0
 10
0.0
 20
0.0
 30
0.0
  3
*Paper_Space0
  1

  0
ENDBLK
  5
29
330
27
100
AcDbEntity
 67
     1
  8
0
100
AcDbBlockEnd
  0
ENDSEC
  0
SECTION
  2
ENTITIES
  0
ARC
  5
14A
330
23
100
AcDbEntity
  8
SANINDUSA
  6
Continuous
370
    15
100
AcDbCircle
 10
447.3730313718352
 20
419.2746694359674
 30
0.0
 40
0.0099999999997061
100
AcDbArc
 50
90.0
 51
175.0000000007482
  0
ARC
  5
14B
330
23
100
AcDbEntity
  8
SANINDUSA
  6
Continuous
370
    15
100
AcDbCircle
 10
447.2859549750851
 20
419.2746694359674
 30
0.0
 40
0.0099999999997061
100
AcDbArc
 50
4.999999999251754
 51
90.0
  0
LINE
  5
14C
330
23
100
AcDbEntity
  8
SANINDUSA
  6
Continuous
370
    15
100
AcDbLine
 10
447.2959169220655
 20
419.2755409933948
 30
0.0
 11
447.2959931734601
 21
419.2746694359677
 31
0.0
  0
LINE
  5
14D
330
23
100
AcDbEntity
  8
SANINDUSA
  6
Continuous
370
    15
100
AcDbLine
 10
447.3629931734602
 20
419.2746694359677
 30
0.0
 11
447.3630694248551
 21
419.2755409933948
 31
0.0
  0
LINE
  5
153
330
23
100
AcDbEntity
  8
SANINDUSA
  6
Continuous
370
    15
100
AcDbLine
 10
447.0814693619182
 20
419.3696694359677
 30
0.0
 11
447.0834681436224
 21
419.3696694359677
 31
0.0
  0
LINE
  5
154
330
23
100
AcDbEntity
  8
SANINDUSA
  6
Continuous
370
    15
100
AcDbLine
 10
447.0814693619182
 20
419.3696694359677
 30
0.0
 11
447.0819257693562
 21
419.3827392349604
 31
0.0
  0
LINE
  5
159
330
23
100
AcDbEntity
  8
SANINDUSA
  6
Continuous
370
    15
100
AcDbLine
 10
447.0834681436224
 20
419.3696694359677
 30
0.0
 11
447.4905182033482
 21
419.3696694359677
 31
0.0
  0
LINE
  5
15B
330
23
100
AcDbEntity
  8
SANINDUSA
  6
Continuous
370
    15
100
AcDbLine
 10
447.4920605775642
 20
419.3827392349607
 30
0.0
 11
447.4925169850021
 21
419.3696694359677
 31
0.0
  0
LINE
  5
15C
330
23
100
AcDbEntity
  8
SANINDUSA
  6
Continuous
370
    15
100
AcDbLine
 10
447.4905182033482
 20
419.3696694359677
 30
0.0
 11
447.492516985002
 21
419.3696694359677
 31
0.0
  0
ARC
  5
15E
330
23
100
AcDbEntity
  8
SANINDUSA
  6
Continuous
370
    15
100
AcDbCircle
 10
447.4900617959102
 20
419.3826694359677
 30
0.0
 40
0.0020000000000002
100
AcDbArc
 50
1.999999987479082
 51
89.99999998697246
  0
ARC
  5
15F
330
23
100
AcDbEntity
  8
SANINDUSA
  6
Continuous
370
    15
100
AcDbCircle
 10
447.0839245510102
 20
419.3826694359677
 30
0.0
 40
0.0020000000000002
100
AcDbArc
 50
90.00000001302757
 51
178.0000000190307
  0
LINE
  5
161
330
23
100
AcDbEntity
  8
SANINDUSA
  6
Continuous
370
    15
100
AcDbLine
 10
447.0839245510102
 20
419.3846694359677
 30
0.0
 11
447.4900617959105
 21
419.3846694359677
 31
0.0
  0
ARC
  5
169
330
23
100
AcDbEntity
  8
SANINDUSA
  6
Continuous
370
    15
100
AcDbCircle
 10
447.4757520906572
 20
419.3646694359677
 30
0.0
 40
0.005
100
AcDbArc
 50
90.00000001302757
 51
161.9999999859666
  0
ARC
  5
16C
330
23
100
AcDbEntity
  8
SANINDUSA
  6
Continuous
370
    15
100
AcDbCircle
 10
447.1832342562632
 20
419.3646694359677
 30
0.0
 40
0.005
100
AcDbArc
 50
18.000000000637
 51
89.99999998697246
  0
LINE
  5
16F
330
23
100
AcDbEntity
  8
SANINDUSA
  6
Continuous
370
    15
100
AcDbLine
 10
447.2133625730982
 20
419.2881243511306
 30
0.0
 11
447.1879895388447
 21
419.3662145209396
 31
0.0
  0
LINE
  5
170
330
23
100
AcDbEntity
  8
SANINDUSA
  6
Continuous
370
    15
100
AcDbLine
 10
447.4709968080761
 20
419.3662145209406
 30
0.0
 11
447.4456237738221
 21
419.2881243511306
 31
0.0
  0
ARC
  5
175
330
23
100
AcDbEntity
  8
SANINDUSA
  6
Continuous
370
    15
100
AcDbCircle
 10
447.2181178557232
 20
419.2896694359677
 30
0.0
 40
0.005
100
AcDbArc
 50
197.9999983774385
 51
270.0000000065138
  0
ARC
  5
176
330
23
100
AcDbEntity
  8
SANINDUSA
  6
Continuous
370
    15
100
AcDbCircle
 10
447.4408684911971
 20
419.2896694359677
 30
0.0
 40
0.005
100
AcDbArc
 50
269.9999999869724
 51
342.0000016225615
  0
LINE
  5
178
330
23
100
AcDbEntity
  8
SANINDUSA
  6
Continuous
370
    15
100
AcDbLine
 10
447.4408684911962
 20
419.2846694359677
 30
0.0
 11
447.2181178557232
 21
419.2846694359677
 31
0.0
  0
LINE
  5
179
330
23
100
AcDbEntity
  8
SANINDUSA
  6
Continuous
370
    15
100
AcDbLine
 10
447.3294931734602
 20
419.2746694359677
 30
0.0
 11
447.2959931734601
 21
419.2746694359677
 31
0.0
  0
LINE
  5
17A
330
23
100
AcDbEntity
  8
SANINDUSA
  6
Continuous
370
    15
100
AcDbLine
 10
447.3629931734602
 20
419.2746694359677
 30
0.0
 11
447.3294931734602
 21
419.2746694359677
 31
0.0
  0
SPLINE
  5
17C
330
23
100
AcDbEntity
  8
SANINDUSA
  6
Continuous
370
    15
100
AcDbSpline
210
0.0
220
0.0
230
1.0
 70
    12
 71
     3
 72
    14
 73
    10
 74
     0
 42
0.0000000001
 43
0.0000000001
 40
0.0
 40
0.0
 40
0.0
 40
0.0
 40
0.25
 40
0.25
 40
0.5
 40
0.5
 40
0.75
 40
0.75
 40
1.0
 40
1.0
 40
1.0
 40
1.0
 10
446.8925564905986
 20
419.4539012071263
 30
0.0
 41
1.0
 10
446.8925789221366
 20
419.4545669827544
 30
0.0
 41
1.0
 10
446.8924762395766
 20
419.4552164103034
 30
0.0
 41
1.0
 10
446.8920343359166
 20
419.4563961096033
 30
0.0
 41
1.0
 10
446.8916952495891
 20
419.4569260028639
 30
0.0
 41
1.0
 10
446.8908260037551
 20
419.4577952486978
 30
0.0
 41
1.0
 10
446.8902961104946
 20
419.4581343350253
 30
0.0
 41
1.0
 10
446.8891164111946
 20
419.4585762386854
 30
0.0
 41
1.0
 10
446.8884669836456
 20
419.4586789212453
 30
0.0
 41
1.0
 10
446.8878012080176
 20
419.4586564897074
 30
0.0
 41
1.0
  0
LINE
  5
17D
330
23
100
AcDbEntity
  8
SANINDUSA
  6
Continuous
370
    15
100
AcDbLine
 10
446.8925564905988
 20
419.4539012071263
 30
0.0
 11
446.8665099143749
 21
419.4278546308271
 31
0.0
  0
ARC
  5
17E
330
23
100
AcDbEntity
  8
SANINDUSA
  6
Continuous
370
    15
100
AcDbCircle
 10
446.8611796568018
 20
419.427279655875
 30
0.0
 40
0.0053611791606214
100
AcDbArc
 50
6.156690485898204
 51
83.84330933067225
  0
LINE
  5
17F
330
23
100
AcDbEntity
  8
SANINDUSA
  6
Continuous
370
    15
100
AcDbLine
 10
446.861754631771
 20
419.4326099134463
 30
0.0
 11
446.8878012079541
 21
419.4586564897074
 31
0.0
  0
SPLINE
  5
180
330
23
100
AcDbEntity
  8
SANINDUSA
  6
Continuous
370
    15
100
AcDbSpline
210
0.0
220
0.0
230
1.0
 70
    12
 71
     3
 72
    14
 73
    10
 74
     0
 42
0.0000000001
 43
0.0000000001
 40
0.0
 40
0.0
 40
0.0
 40
0.0
 40
0.25
 40
0.25
 40
0.5
 40
0.5
 40
0.75
 40
0.75
 40
1.0
 40
1.0
 40
1.0
 40
1.0
 10
446.8878012080176
 20
419.2695545456613
 30
0.0
 41
1.0
 10
446.8884669836456
 20
419.2695321141234
 30
0.0
 41
1.0
 10
446.8891164111946
 20
419.2696347966833
 30
0.0
 41
1.0
 10
446.8902961104946
 20
419.2700767003434
 30
0.0
 41
1.0
 10
446.8908260037551
 20
419.2704157866709
 30
0.0
 41
1.0
 10
446.8916952495891
 20
419.2712850325048
 30
0.0
 41
1.0
 10
446.8920343359166
 20
419.2718149257654
 30
0.0
 41
1.0
 10
446.8924762395766
 20
419.2729946250653
 30
0.0
 41
1.0
 10
446.8925789221366
 20
419.2736440526143
 30
0.0
 41
1.0
 10
446.8925564905986
 20
419.2743098282424
 30
0.0
 41
1.0
  0
LINE
  5
181
330
23
100
AcDbEntity
  8
SANINDUSA
  6
Continuous
370
    15
100
AcDbLine
 10
446.8878012080176
 20
419.2695545456611
 30
0.0
 11
446.861754631771
 21
419.2956011219376
 31
0.0
  0
ARC
  5
182
330
23
100
AcDbEntity
  8
SANINDUSA
  6
Continuous
370
    15
100
AcDbCircle
 10
446.8611796567296
 20
419.3009313795407
 30
0.0
 40
0.0053611791999849
100
AcDbArc
 50
276.1566913998078
 51
353.8433090422262
  0
LINE
  5
183
330
23
100
AcDbEntity
  8
SANINDUSA
  6
Continuous
370
    15
100
AcDbLine
 10
446.8665099143373
 20
419.3003564045406
 30
0.0
 11
446.8925564905986
 21
419.2743098282872
 31
0.0
  0
SPLINE
  5
184
330
23
100
AcDbEntity
  8
SANINDUSA
  6
Continuous
370
    15
100
AcDbSpline
210
0.0
220
0.0
230
1.0
 70
    12
 71
     3
 72
    14
 73
    10
 74
     0
 42
0.0000000001
 43
0.0000000001
 40
0.0
 40
0.0
 40
0.0
 40
0.0
 40
0.25
 40
0.25
 40
0.5
 40
0.5
 40
0.75
 40
0.75
 40
1.0
 40
1.0
 40
1.0
 40
1.0
 10
446.6284545465526
 20
419.2743098282424
 30
0.0
 41
1.0
 10
446.6284321150147
 20
419.2736440526143
 30
0.0
 41
1.0
 10
446.6285347975746
 20
419.2729946250653
 30
0.0
 41
1.0
 10
446.6289767012346
 20
419.2718149257654
 30
0.0
 41
1.0
 10
446.6293157875622
 20
419.2712850325048
 30
0.0
 41
1.0
 10
446.6301850333961
 20
419.2704157866709
 30
0.0
 41
1.0
 10
446.6307149266566
 20
419.2700767003434
 30
0.0
 41
1.0
 10
446.6318946259566
 20
419.2696347966833
 30
0.0
 41
1.0
 10
446.6325440535056
 20
419.2695321141234
 30
0.0
 41
1.0
 10
446.6332098291336
 20
419.2695545456613
 30
0.0
 41
1.0
  0
LINE
  5
185
330
23
100
AcDbEntity
  8
SANINDUSA
  6
Continuous
370
    15
100
AcDbLine
 10
446.6284545465525
 20
419.2743098282401
 30
0.0
 11
446.6545011227763
 21
419.3003564045416
 31
0.0
  0
ARC
  5
186
330
23
100
AcDbEntity
  8
SANINDUSA
  6
Continuous
370
    15
100
AcDbCircle
 10
446.6598313803483
 20
419.3009313794929
 30
0.0
 40
0.0053611791593791
100
AcDbArc
 50
186.156690479422
 51
263.8433093403866
  0
LINE
  5
187
330
23
100
AcDbEntity
  8
SANINDUSA
  6
Continuous
370
    15
100
AcDbLine
 10
446.6592564053804
 20
419.2956011219227
 30
0.0
 11
446.633209829197
 21
419.2695545456613
 31
0.0
  0
SPLINE
  5
188
330
23
100
AcDbEntity
  8
SANINDUSA
  6
Continuous
370
    15
100
AcDbSpline
210
0.0
220
0.0
230
1.0
 70
    12
 71
     3
 72
    14
 73
    10
 74
     0
 42
0.0000000001
 43
0.0000000001
 40
0.0
 40
0.0
 40
0.0
 40
0.0
 40
0.25
 40
0.25
 40
0.5
 40
0.5
 40
0.75
 40
0.75
 40
1.0
 40
1.0
 40
1.0
 40
1.0
 10
446.6332098291336
 20
419.4586564897074
 30
0.0
 41
1.0
 10
446.6325440535056
 20
419.4586789212453
 30
0.0
 41
1.0
 10
446.6318946259566
 20
419.4585762386854
 30
0.0
 41
1.0
 10
446.6307149266566
 20
419.4581343350253
 30
0.0
 41
1.0
 10
446.6301850333961
 20
419.4577952486978
 30
0.0
 41
1.0
 10
446.6293157875622
 20
419.4569260028639
 30
0.0
 41
1.0
 10
446.6289767012346
 20
419.4563961096033
 30
0.0
 41
1.0
 10
446.6285347975746
 20
419.4552164103034
 30
0.0
 41
1.0
 10
446.6284321150147
 20
419.4545669827544
 30
0.0
 41
1.0
 10
446.6284545465526
 20
419.4539012071263
 30
0.0
 41
1.0
  0
LINE
  5
189
330
23
100
AcDbEntity
  8
SANINDUSA
  6
Continuous
370
    15
100
AcDbLine
 10
446.6332098291336
 20
419.4586564897075
 30
0.0
 11
446.6592564053804
 21
419.4326099134311
 31
0.0
  0
ARC
  5
18A
330
23
100
AcDbEntity
  8
SANINDUSA
  6
Continuous
370
    15
100
AcDbCircle
 10
446.6598313804215
 20
419.4272796558283
 30
0.0
 40
0.0053611791996767
100
AcDbArc
 50
96.15669139980786
 51
173.8433090458136
  0
LINE
  5
18B
330
23
100
AcDbEntity
  8
SANINDUSA
  6
Continuous
370
    15
100
AcDbLine
 10
446.6545011228141
 20
419.4278546308281
 30
0.0
 11
446.6284545465526
 21
419.4539012070815
 31
0.0
  0
LINE
  5
18D
330
23
100
AcDbEntity
  8
SANINDUSA
  6
Continuous
370
    15
100
AcDbLine
 10
446.8878012079541
 20
419.4586564897074
 30
0.0
 11
446.6332098291336
 21
419.4586564897075
 31
0.0
  0
LINE
  5
191
330
23
100
AcDbEntity
  8
SANINDUSA
  6
Continuous
370
    15
100
AcDbLine
 10
446.8925564905986
 20
419.2743098282872
 30
0.0
 11
446.8925564905988
 21
419.4539012071263
 31
0.0
  0
LINE
  5
197
330
23
100
AcDbEntity
  8
SANINDUSA
  6
Continuous
370
    15
100
AcDbLine
 10
446.6284545465526
 20
419.4539012070815
 30
0.0
 11
446.6284545465525
 21
419.2743098282401
 31
0.0
  0
LINE
  5
19B
330
23
100
AcDbEntity
  8
SANINDUSA
  6
Continuous
370
    15
100
AcDbLine
 10
446.633209829197
 20
419.2695545456613
 30
0.0
 11
446.8878012080176
 21
419.2695545456611
 31
0.0
  0
LINE
  5
1A7
330
23
100
AcDbEntity
  8
SANINDUSA
  6
Continuous
370
    15
100
AcDbLine
 10
446.5149368961373
 20
419.4891729217891
 30
0.0
 11
446.9210741409251
 21
419.4891729217884
 31
0.0
  0
LINE
  5
1A9
330
23
100
AcDbEntity
  8
SANINDUSA
  6
Continuous
370
    15
100
AcDbLine
 10
446.5129381144716
 20
419.2410368951773
 30
0.0
 11
446.5129381144716
 21
419.4871741401798
 31
0.0
  0
LINE
  5
1AD
330
23
100
AcDbEntity
  8
SANINDUSA
  6
Continuous
370
    15
100
AcDbLine
 10
446.9230729226797
 20
419.4871741401327
 30
0.0
 11
446.9230729226796
 21
419.2410368951889
 31
0.0
  0
LINE
  5
1AF
330
23
100
AcDbEntity
  8
SANINDUSA
  6
Continuous
370
    15
100
AcDbLine
 10
446.9210741410139
 20
419.2390381135803
 30
0.0
 11
446.5149368962259
 21
419.2390381135803
 31
0.0
  0
ARC
  5
1B1
330
23
100
AcDbEntity
  8
SANINDUSA
  6
Continuous
370
    15
100
AcDbCircle
 10
446.9210712871078
 20
419.4871712862163
 30
0.0
 40
0.0020016376064702
100
AcDbArc
 50
0.0816918164274968
 51
89.91831101706683
  0
ARC
  5
1B2
330
23
100
AcDbEntity
  8
SANINDUSA
  6
Continuous
370
    15
100
AcDbCircle
 10
446.5149397500433
 20
419.4871712862173
 30
0.0
 40
0.0020016376063131
100
AcDbArc
 50
90.08169152330786
 51
179.9183068612727
  0
ARC
  5
1B3
330
23
100
AcDbEntity
  8
SANINDUSA
  6
Continuous
370
    15
100
AcDbCircle
 10
446.9210712871073
 20
419.2410397491526
 30
0.0
 40
0.0020016376068802
100
AcDbArc
 50
270.0816915395923
 51
359.918306825447
  0
ARC
  5
1B4
330
23
100
AcDbEntity
  8
SANINDUSA
  6
Continuous
370
    15
100
AcDbCircle
 10
446.5149397500434
 20
419.2410397491524
 30
0.0
 40
0.0020016376065115
100
AcDbArc
 50
180.0816935002415
 51
269.9183110105531
  0
CIRCLE
  5
1B5
330
23
100
AcDbEntity
  8
SANINDUSA
  6
Continuous
370
    15
100
AcDbCircle
 10
446.5830055185756
 20
419.3641055176843
 30
0.0
 40
0.0175
  0
LINE
  5
1B6
330
23
100
AcDbEntity
  8
SANINDUSA
  6
Continuous
370
    15
100
AcDbLine
 10
446.6592564053804
 20
419.2956011219227
 30
0.0
 11
446.861754631771
 21
419.2956011219376
 31
0.0
  0
LINE
  5
1B7
330
23
100
AcDbEntity
  8
SANINDUSA
  6
Continuous
370
    15
100
AcDbLine
 10
446.861754631771
 20
419.4326099134463
 30
0.0
 11
446.6592564053804
 21
419.4326099134311
 31
0.0
  0
LINE
  5
1B8
330
23
100
AcDbEntity
  8
SANINDUSA
  6
Continuous
370
    15
100
AcDbLine
 10
446.6545011228141
 20
419.4278546308281
 30
0.0
 11
446.6545011227763
 21
419.3003564045416
 31
0.0
  0
LINE
  5
1B9
330
23
100
AcDbEntity
  8
SANINDUSA
  6
Continuous
370
    15
100
AcDbLine
 10
446.8665099143373
 20
419.3003564045406
 30
0.0
 11
446.8665099143749
 21
419.4278546308271
 31
0.0
  0
SPLINE
  5
1D6
330
23
100
AcDbEntity
  8
SANINDUSA
  6
Continuous
370
    15
100
AcDbSpline
210
0.0
220
0.0
230
1.0
 70
    12
 71
     3
 72
    46
 73
    42
 74
     0
 42
0.0000000001
 43
0.0000000001
 40
0.0
 40
0.0
 40
0.0
 40
0.0
 40
0.0625
 40
0.0625
 40
0.125
 40
0.125
 40
0.1875
 40
0.1875
 40
0.25
 40
0.25
 40
0.3125
 40
0.3125
 40
0.375
 40
0.375
 40
0.40625
 40
0.40625
 40
0.4375
 40
0.4375
 40
0.46875
 40
0.46875
 40
0.5
 40
0.5
 40
0.53125
 40
0.53125
 40
0.5625
 40
0.5625
 40
0.59375
 40
0.59375
 40
0.625
 40
0.625
 40
0.6875
 40
0.6875
 40
0.75
 40
0.75
 40
0.8125
 40
0.8125
 40
0.875
 40
0.875
 40
0.9375
 40
0.9375
 40
1.0
 40
1.0
 40
1.0
 40
1.0
 10
446.7605055185756
 20
419.4008228335404
 30
0.0
 41
1.0
 10
446.7620354067363
 20
419.4008228335404
 30
0.0
 41
1.0
 10
446.7636618639202
 20
419.4007279418947
 30
0.0
 41
1.0
 10
446.7670971331928
 20
419.4002678611886
 30
0.0
 41
1.0
 10
446.7689064404435
 20
419.3999024528229
 30
0.0
 41
1.0
 10
446.7726662935872
 20
419.3988058289893
 30
0.0
 41
1.0
 10
446.7746173413973
 20
419.3980740179486
 30
0.0
 41
1.0
 10
446.7785729163917
 20
419.3961456751388
 30
0.0
 41
1.0
 10
446.7805776512435
 20
419.3949480630034
 30
0.0
 41
1.0
 10
446.7844941649349
 20
419.3920106777349
 30
0.0
 41
1.0
 10
446.7864053853992
 20
419.3902695048134
 30
0.0
 41
1.0
 10
446.7899331140008
 20
419.3862273157907
 30
0.0
 41
1.0
 10
446.7915479551644
 20
419.3839252452745
 30
0.0
 41
1.0
 10
446.7935807477377
 20
419.3801137591994
 30
0.0
 41
1.0
 10
446.7941934271256
 20
419.3787844269553
 30
0.0
 41
1.0
 10
446.7952642290176
 20
419.3760293429204
 30
0.0
 41
1.0
 10
446.7957222766712
 20
419.374603628348
 30
0.0
 41
1.0
 10
446.7964638650625
 20
419.3716836240574
 30
0.0
 41
1.0
 10
446.7967473458677
 20
419.3701893994195
 30
0.0
 41
1.0
 10
446.7971268472624
 20
419.3671652476798
 30
0.0
 41
1.0
 10
446.7972228344316
 20
419.365635405845
 30
0.0
 41
1.0
 10
446.7972228344316
 20
419.3625756295237
 30
0.0
 41
1.0
 10
446.7971268472624
 20
419.3610457876888
 30
0.0
 41
1.0
 10
446.7967473458677
 20
419.3580216359491
 30
0.0
 41
1.0
 10
446.7964638650625
 20
419.3565274113113
 30
0.0
 41
1.0
 10
446.7957222766712
 20
419.3536074070207
 30
0.0
 41
1.0
 10
446.7952642290176
 20
419.3521816924483
 30
0.0
 41
1.0
 10
446.7941934271256
 20
419.3494266084134
 30
0.0
 41
1.0
 10
446.7935807477377
 20
419.3480972761693
 30
0.0
 41
1.0
 10
446.7915479551644
 20
419.3442857900942
 30
0.0
 41
1.0
 10
446.7899331140008
 20
419.341983719578
 30
0.0
 41
1.0
 10
446.7864053853992
 20
419.3379415305553
 30
0.0
 41
1.0
 10
446.7844941649349
 20
419.3362003576337
 30
0.0
 41
1.0
 10
446.7805776512435
 20
419.3332629723653
 30
0.0
 41
1.0
 10
446.7785729163917
 20
419.3320653602299
 30
0.0
 41
1.0
 10
446.7746173413973
 20
419.3301370174201
 30
0.0
 41
1.0
 10
446.7726662935872
 20
419.3294052063794
 30
0.0
 41
1.0
 10
446.7689064404435
 20
419.3283085825458
 30
0.0
 41
1.0
 10
446.7670971331928
 20
419.3279431741801
 30
0.0
 41
1.0
 10
446.7636618639202
 20
419.327483093474
 30
0.0
 41
1.0
 10
446.7620354067363
 20
419.3273882018283
 30
0.0
 41
1.0
 10
446.7605055185756
 20
419.3273882018283
 30
0.0
 41
1.0
  0
SPLINE
  5
1D7
330
23
100
AcDbEntity
  8
SANINDUSA
  6
Continuous
370
    15
100
AcDbSpline
210
0.0
220
0.0
230
1.0
 70
    12
 71
     3
 72
    46
 73
    42
 74
     0
 42
0.0000000001
 43
0.0000000001
 40
0.0
 40
0.0
 40
0.0
 40
0.0
 40
0.0625
 40
0.0625
 40
0.125
 40
0.125
 40
0.1874999999999999
 40
0.1874999999999999
 40
0.2499999999999998
 40
0.2499999999999998
 40
0.3124999999999996
 40
0.3124999999999996
 40
0.3749999999999996
 40
0.3749999999999996
 40
0.4062499999999997
 40
0.4062499999999997
 40
0.4374999999999999
 40
0.4374999999999999
 40
0.46875
 40
0.46875
 40
0.5000000000000001
 40
0.5000000000000001
 40
0.5312500000000002
 40
0.5312500000000002
 40
0.5625000000000005
 40
0.5625000000000005
 40
0.5937500000000005
 40
0.5937500000000005
 40
0.6250000000000005
 40
0.6250000000000005
 40
0.6875000000000005
 40
0.6875000000000005
 40
0.7500000000000004
 40
0.7500000000000004
 40
0.8125000000000001
 40
0.8125000000000001
 40
0.8750000000000001
 40
0.8750000000000001
 40
0.9375000000000001
 40
0.9375000000000001
 40
1.0
 40
1.0
 40
1.0
 40
1.0
 10
446.7605055185756
 20
419.3273882018283
 30
0.0
 41
1.0
 10
446.7589756304149
 20
419.3273882018283
 30
0.0
 41
1.0
 10
446.757349173231
 20
419.327483093474
 30
0.0
 41
1.0
 10
446.7539139039584
 20
419.3279431741801
 30
0.0
 41
1.0
 10
446.7521045967077
 20
419.3283085825458
 30
0.0
 41
1.0
 10
446.7483447435641
 20
419.3294052063794
 30
0.0
 41
1.0
 10
446.7463936957539
 20
419.3301370174201
 30
0.0
 41
1.0
 10
446.7424381207595
 20
419.3320653602299
 30
0.0
 41
1.0
 10
446.7404333859077
 20
419.3332629723653
 30
0.0
 41
1.0
 10
446.7365168722164
 20
419.3362003576337
 30
0.0
 41
1.0
 10
446.734605651752
 20
419.3379415305553
 30
0.0
 41
1.0
 10
446.7310779231504
 20
419.341983719578
 30
0.0
 41
1.0
 10
446.7294630819869
 20
419.3442857900942
 30
0.0
 41
1.0
 10
446.7274302894136
 20
419.3480972761693
 30
0.0
 41
1.0
 10
446.7268176100257
 20
419.3494266084134
 30
0.0
 41
1.0
 10
446.7257468081336
 20
419.3521816924483
 30
0.0
 41
1.0
 10
446.72528876048
 20
419.3536074070207
 30
0.0
 41
1.0
 10
446.7245471720888
 20
419.3565274113113
 30
0.0
 41
1.0
 10
446.7242636912835
 20
419.3580216359491
 30
0.0
 41
1.0
 10
446.7238841898888
 20
419.3610457876888
 30
0.0
 41
1.0
 10
446.7237882027196
 20
419.3625756295237
 30
0.0
 41
1.0
 10
446.7237882027196
 20
419.365635405845
 30
0.0
 41
1.0
 10
446.7238841898888
 20
419.3671652476798
 30
0.0
 41
1.0
 10
446.7242636912835
 20
419.3701893994195
 30
0.0
 41
1.0
 10
446.7245471720888
 20
419.3716836240574
 30
0.0
 41
1.0
 10
446.72528876048
 20
419.374603628348
 30
0.0
 41
1.0
 10
446.7257468081336
 20
419.3760293429204
 30
0.0
 41
1.0
 10
446.7268176100257
 20
419.3787844269553
 30
0.0
 41
1.0
 10
446.7274302894136
 20
419.3801137591994
 30
0.0
 41
1.0
 10
446.7294630819869
 20
419.3839252452745
 30
0.0
 41
1.0
 10
446.7310779231504
 20
419.3862273157907
 30
0.0
 41
1.0
 10
446.734605651752
 20
419.3902695048134
 30
0.0
 41
1.0
 10
446.7365168722164
 20
419.3920106777349
 30
0.0
 41
1.0
 10
446.7404333859077
 20
419.3949480630034
 30
0.0
 41
1.0
 10
446.7424381207595
 20
419.3961456751388
 30
0.0
 41
1.0
 10
446.7463936957539
 20
419.3980740179486
 30
0.0
 41
1.0
 10
446.7483447435641
 20
419.3988058289893
 30
0.0
 41
1.0
 10
446.7521045967077
 20
419.3999024528229
 30
0.0
 41
1.0
 10
446.7539139039584
 20
419.4002678611886
 30
0.0
 41
1.0
 10
446.757349173231
 20
419.4007279418947
 30
0.0
 41
1.0
 10
446.7589756304149
 20
419.4008228335404
 30
0.0
 41
1.0
 10
446.7605055185756
 20
419.4008228335404
 30
0.0
 41
1.0
  0
ARC
  5
1E0
330
23
100
AcDbEntity
  8
SANINDUSA
  6
Continuous
370
    15
100
AcDbCircle
 10
446.7605055185756
 20
419.3641055176843
 30
0.0
 40
0.0235000000000001
100
AcDbArc
 50
270.0
 51
90.00000001302757
  0
ARC
  5
1E1
330
23
100
AcDbEntity
  8
SANINDUSA
  6
Continuous
370
    15
100
AcDbCircle
 10
446.7605055185756
 20
419.3641055176843
 30
0.0
 40
0.0235000000000001
100
AcDbArc
 50
90.00000002279824
 51
270.0
  0
ARC
  5
1E2
330
23
100
AcDbEntity
  8
SANINDUSA
  6
Continuous
370
    15
100
AcDbCircle
 10
447.8969605708788
 20
419.2746694359674
 30
0.0
 40
0.0099999999997061
100
AcDbArc
 50
90.0
 51
175.0000000007482
  0
ARC
  5
1E3
330
23
100
AcDbEntity
  8
SANINDUSA
  6
Continuous
370
    15
100
AcDbCircle
 10
447.8098841741288
 20
419.2746694359674
 30
0.0
 40
0.0099999999997061
100
AcDbArc
 50
4.999999999251754
 51
90.0
  0
LINE
  5
1E4
330
23
100
AcDbEntity
  8
SANINDUSA
  6
Continuous
370
    15
100
AcDbLine
 10
447.8198461211091
 20
419.2755409933948
 30
0.0
 11
447.8199223725038
 21
419.2746694359677
 31
0.0
  0
LINE
  5
1E5
330
23
100
AcDbEntity
  8
SANINDUSA
  6
Continuous
370
    15
100
AcDbLine
 10
447.8869223725038
 20
419.2746694359677
 30
0.0
 11
447.8869986238985
 21
419.2755409933948
 31
0.0
  0
LINE
  5
1EB
330
23
100
AcDbEntity
  8
SANINDUSA
  6
Continuous
370
    15
100
AcDbLine
 10
447.7278985609618
 20
419.3696694359677
 30
0.0
 11
447.7298973426463
 21
419.3696694359677
 31
0.0
  0
LINE
  5
1EC
330
23
100
AcDbEntity
  8
SANINDUSA
  6
Continuous
370
    15
100
AcDbLine
 10
447.7278985609618
 20
419.3696694359677
 30
0.0
 11
447.728354968399
 21
419.3827392349507
 31
0.0
  0
LINE
  5
1F1
330
23
100
AcDbEntity
  8
SANINDUSA
  6
Continuous
370
    15
100
AcDbLine
 10
447.7298973426463
 20
419.3696694359677
 30
0.0
 11
447.9769474023613
 21
419.3696694359677
 31
0.0
  0
LINE
  5
1F3
330
23
100
AcDbEntity
  8
SANINDUSA
  6
Continuous
370
    15
100
AcDbLine
 10
447.9784897766078
 20
419.3827392349607
 30
0.0
 11
447.9789461840458
 21
419.3696694359677
 31
0.0
  0
LINE
  5
1F4
330
23
100
AcDbEntity
  8
SANINDUSA
  6
Continuous
370
    15
100
AcDbLine
 10
447.9769474023613
 20
419.3696694359677
 30
0.0
 11
447.9789461840458
 21
419.3696694359677
 31
0.0
  0
ARC
  5
1F6
330
23
100
AcDbEntity
  8
SANINDUSA
  6
Continuous
370
    15
100
AcDbCircle
 10
447.9764909949538
 20
419.3826694359677
 30
0.0
 40
0.0020000000000002
100
AcDbArc
 50
1.999999987479082
 51
89.99999998697246
  0
ARC
  5
1F8
330
23
100
AcDbEntity
  8
SANINDUSA
  6
Continuous
370
    15
100
AcDbCircle
 10
447.730353750053
 20
419.3826694359674
 30
0.0
 40
0.0019999999999996
100
AcDbArc
 50
90.00000056018471
 51
178.0000002862738
  0
LINE
  5
1F9
330
23
100
AcDbEntity
  8
SANINDUSA
  6
Continuous
370
    15
100
AcDbLine
 10
447.7303537500538
 20
419.3846694359677
 30
0.0
 11
447.9764909949538
 21
419.3846694359677
 31
0.0
  0
ARC
  5
202
330
23
100
AcDbEntity
  8
SANINDUSA
  6
Continuous
370
    15
100
AcDbCircle
 10
447.7446634553068
 20
419.3646694359677
 30
0.0
 40
0.005
100
AcDbArc
 50
18.000000000637
 51
89.99999998697246
  0
ARC
  5
203
330
23
100
AcDbEntity
  8
SANINDUSA
  6
Continuous
370
    15
100
AcDbCircle
 10
447.9621812897008
 20
419.3646694359677
 30
0.0
 40
0.0050000000000001
100
AcDbArc
 50
90.00000001302757
 51
161.9999999859666
  0
LINE
  5
205
330
23
100
AcDbEntity
  8
SANINDUSA
  6
Continuous
370
    15
100
AcDbLine
 10
447.9574260071196
 20
419.3662145209406
 30
0.0
 11
447.9320529728043
 21
419.2881243509415
 31
0.0
  0
LINE
  5
20A
330
23
100
AcDbEntity
  8
SANINDUSA
  6
Continuous
370
    15
100
AcDbLine
 10
447.7747917722033
 20
419.2881243509415
 30
0.0
 11
447.7494187378883
 21
419.3662145209396
 31
0.0
  0
ARC
  5
20C
330
23
100
AcDbEntity
  8
SANINDUSA
  6
Continuous
370
    15
100
AcDbCircle
 10
447.9272976902408
 20
419.2896694359677
 30
0.0
 40
0.005
100
AcDbArc
 50
269.9999998078436
 51
341.9999993453445
  0
ARC
  5
20F
330
23
100
AcDbEntity
  8
SANINDUSA
  6
Continuous
370
    15
100
AcDbCircle
 10
447.7795470547667
 20
419.2896694359677
 30
0.0
 40
0.005
100
AcDbArc
 50
198.0000006546554
 51
269.9999997231645
  0
LINE
  5
210
330
23
100
AcDbEntity
  8
SANINDUSA
  6
Continuous
370
    15
100
AcDbLine
 10
447.9272976902408
 20
419.2846694359677
 30
0.0
 11
447.7795470547667
 21
419.2846694359677
 31
0.0
  0
LINE
  5
211
330
23
100
AcDbEntity
  8
SANINDUSA
  6
Continuous
370
    15
100
AcDbLine
 10
447.8869223725038
 20
419.2746694359677
 30
0.0
 11
447.8199223725038
 21
419.2746694359677
 31
0.0
  0
LINE
  5
213
330
23
100
AcDbEntity
  8
SANINDUSA
  6
Continuous
370
    15
100
AcDbLine
 10
448.5543683481289
 20
419.3693136265099
 30
0.0
 11
448.5546482662568
 21
419.3694396042787
 31
0.0
  0
LINE
  5
214
330
23
100
AcDbEntity
  8
SANINDUSA
  6
Continuous
370
    15
100
AcDbLine
 10
448.2651274265476
 20
419.3694396042787
 30
0.0
 11
448.2653316489397
 21
419.3693476935422
 31
0.0
  0
LINE
  5
215
330
23
100
AcDbEntity
  8
SANINDUSA
  6
Continuous
370
    15
100
AcDbLine
 10
448.303883450622
 20
419.3031243510537
 30
0.0
 11
448.2778368743792
 21
419.3832874699567
 31
0.0
  0
ARC
  5
216
330
23
100
AcDbEntity
  8
SANINDUSA
  6
Continuous
370
    15
100
AcDbCircle
 10
448.3086387332222
 20
419.3046694359678
 30
0.0
 40
0.005
100
AcDbArc
 50
197.9999993013191
 51
270.0
  0
LINE
  5
217
330
23
100
AcDbEntity
  8
SANINDUSA
  6
Continuous
370
    15
100
AcDbLine
 10
448.3731705305462
 20
419.2996694359677
 30
0.0
 11
448.3086387332222
 21
419.2996694359677
 31
0.0
  0
ARC
  5
218
330
23
100
AcDbEntity
  8
SANINDUSA
  6
Continuous
370
    15
100
AcDbCircle
 10
448.3731705305464
 20
419.2986694359675
 30
0.0
 40
0.0010000000001738
100
AcDbArc
 50
47.92229654279433
 51
90.00000000977065
  0
LINE
  5
219
330
23
100
AcDbEntity
  8
SANINDUSA
  6
Continuous
370
    15
100
AcDbLine
 10
448.3847385355511
 20
419.2895723946177
 30
0.0
 11
448.3738406683762
 21
419.2994116726477
 31
0.0
  0
ARC
  5
21A
330
23
100
AcDbEntity
  8
SANINDUSA
  6
Continuous
370
    15
100
AcDbCircle
 10
448.3813878464034
 20
419.2858612112185
 30
0.0
 40
0.0049999999988348
100
AcDbArc
 50
359.9999999902294
 51
47.92229654279433
  0
LINE
  5
21B
330
23
100
AcDbEntity
  8
SANINDUSA
  6
Continuous
370
    15
100
AcDbLine
 10
448.3863878464021
 20
419.2746694359677
 30
0.0
 11
448.3863878464021
 21
419.2858612112178
 31
0.0
  0
LINE
  5
21C
330
23
100
AcDbEntity
  8
SANINDUSA
  6
Continuous
370
    15
100
AcDbLine
 10
448.3763878464022
 20
419.2746694359677
 30
0.0
 11
448.3863878464021
 21
419.2746694359677
 31
0.0
  0
LINE
  5
21D
330
23
100
AcDbEntity
  8
SANINDUSA
  6
Continuous
370
    15
100
AcDbLine
 10
448.3763878464022
 20
419.2746694359677
 30
0.0
 11
448.3763115950075
 21
419.2755409933948
 31
0.0
  0
ARC
  5
21E
330
23
100
AcDbEntity
  8
SANINDUSA
  6
Continuous
370
    15
100
AcDbCircle
 10
448.3663496480271
 20
419.2746694359674
 30
0.0
 40
0.0099999999997061
100
AcDbArc
 50
4.999999999251754
 51
90.0
  0
LINE
  5
21F
330
23
100
AcDbEntity
  8
SANINDUSA
  6
Continuous
370
    15
100
AcDbLine
 10
448.2985125286652
 20
419.2846694359677
 30
0.0
 11
448.3663496480273
 21
419.2846694359671
 31
0.0
  0
ARC
  5
220
330
23
100
AcDbEntity
  8
SANINDUSA
  6
Continuous
370
    15
100
AcDbCircle
 10
448.2985125286652
 20
419.2896694359677
 30
0.0
 40
0.0049999999999999
100
AcDbArc
 50
197.9999983774385
 51
270.0
  0
LINE
  5
221
330
23
100
AcDbEntity
  8
SANINDUSA
  6
Continuous
370
    15
100
AcDbLine
 10
448.2683842117872
 20
419.3662145209398
 30
0.0
 11
448.2937572460399
 21
419.2881243511305
 31
0.0
  0
ARC
  5
222
330
23
100
AcDbEntity
  8
SANINDUSA
  6
Continuous
370
    15
100
AcDbCircle
 10
448.2636289292052
 20
419.3646694359677
 30
0.0
 40
0.0050000000005374
100
AcDbArc
 50
18.000000000637
 51
89.99999998697246
  0
LINE
  5
223
330
23
100
AcDbEntity
  8
SANINDUSA
  6
Continuous
370
    15
100
AcDbLine
 10
448.2636289292062
 20
419.3696694359677
 30
0.0
 11
448.2508878465023
 21
419.3696694359677
 31
0.0
  0
ARC
  5
224
330
23
100
AcDbEntity
  8
SANINDUSA
  6
Continuous
370
    15
100
AcDbCircle
 10
448.2508878464022
 20
419.3706694359677
 30
0.0
 40
0.0010000000000002
100
AcDbArc
 50
180.0
 51
270.0000057353798
  0
LINE
  5
225
330
23
100
AcDbEntity
  8
SANINDUSA
  6
Continuous
370
    15
100
AcDbLine
 10
448.2498878464022
 20
419.3836694359677
 30
0.0
 11
448.2498878464022
 21
419.3706694359677
 31
0.0
  0
ARC
  5
226
330
23
100
AcDbEntity
  8
SANINDUSA
  6
Continuous
370
    15
100
AcDbCircle
 10
448.2508878464022
 20
419.3836694359677
 30
0.0
 40
0.0010000000000002
100
AcDbArc
 50
90.0
 51
179.9999999772017
  0
LINE
  5
227
330
23
100
AcDbEntity
  8
SANINDUSA
  6
Continuous
370
    15
100
AcDbLine
 10
448.2759347611896
 20
419.3846694359677
 30
0.0
 11
448.2508878464022
 21
419.3846694359677
 31
0.0
  0
ARC
  5
228
330
23
100
AcDbEntity
  8
SANINDUSA
  6
Continuous
370
    15
100
AcDbCircle
 10
448.2759347613462
 20
419.3826694359677
 30
0.0
 40
0.002000000000467
100
AcDbArc
 50
18.00000000373449
 51
90.00000448473477
  0
LINE
  5
229
330
23
100
AcDbEntity
  8
SANINDUSA
  6
Continuous
370
    15
100
AcDbLine
 10
448.5704564688526
 20
419.3846694359677
 30
0.0
 11
448.543840931385
 21
419.3846694359677
 31
0.0
  0
ARC
  5
22A
330
23
100
AcDbEntity
  8
SANINDUSA
  6
Continuous
370
    15
100
AcDbCircle
 10
448.5704564688522
 20
419.3826694359677
 30
0.0
 40
0.0020000000000005
100
AcDbArc
 50
2.000000010263409
 51
89.99999998697246
  0
LINE
  5
22B
330
23
100
AcDbEntity
  8
SANINDUSA
  6
Continuous
370
    15
100
AcDbLine
 10
448.5729116579443
 20
419.3696694359677
 30
0.0
 11
448.5724552505062
 21
419.3827392349614
 31
0.0
  0
LINE
  5
22C
330
23
100
AcDbEntity
  8
SANINDUSA
  6
Continuous
370
    15
100
AcDbLine
 10
448.5729116579443
 20
419.3696694359677
 30
0.0
 11
448.5561467635982
 21
419.3696694359677
 31
0.0
  0
ARC
  5
22D
330
23
100
AcDbEntity
  8
SANINDUSA
  6
Continuous
370
    15
100
AcDbCircle
 10
448.5561467635992
 20
419.3646694359677
 30
0.0
 40
0.0050000000005371
100
AcDbArc
 50
90.00000001302757
 51
161.999999999363
  0
LINE
  5
22E
330
23
100
AcDbEntity
  8
SANINDUSA
  6
Continuous
370
    15
100
AcDbLine
 10
448.5260184467644
 20
419.2881243511305
 30
0.0
 11
448.5513914810172
 21
419.3662145209398
 31
0.0
  0
ARC
  5
22F
330
23
100
AcDbEntity
  8
SANINDUSA
  6
Continuous
370
    15
100
AcDbCircle
 10
448.5212631641392
 20
419.2896694359677
 30
0.0
 40
0.0049999999999999
100
AcDbArc
 50
270.0
 51
342.0000016225615
  0
LINE
  5
230
330
23
100
AcDbEntity
  8
SANINDUSA
  6
Continuous
370
    15
100
AcDbLine
 10
448.4534260447771
 20
419.2846694359671
 30
0.0
 11
448.5212631641392
 21
419.2846694359677
 31
0.0
  0
ARC
  5
231
330
23
100
AcDbEntity
  8
SANINDUSA
  6
Continuous
370
    15
100
AcDbCircle
 10
448.4534260447772
 20
419.2746694359674
 30
0.0
 40
0.0099999999997061
100
AcDbArc
 50
90.0
 51
175.0000000007482
  0
LINE
  5
232
330
23
100
AcDbEntity
  8
SANINDUSA
  6
Continuous
370
    15
100
AcDbLine
 10
448.4434640977968
 20
419.2755409933948
 30
0.0
 11
448.4433878464022
 21
419.2746694359677
 31
0.0
  0
LINE
  5
233
330
23
100
AcDbEntity
  8
SANINDUSA
  6
Continuous
370
    15
100
AcDbLine
 10
448.4333878464022
 20
419.2746694359677
 30
0.0
 11
448.4433878464022
 21
419.2746694359677
 31
0.0
  0
LINE
  5
234
330
23
100
AcDbEntity
  8
SANINDUSA
  6
Continuous
370
    15
100
AcDbLine
 10
448.4333878464022
 20
419.2858612112178
 30
0.0
 11
448.4333878464022
 21
419.2746694359677
 31
0.0
  0
ARC
  5
235
330
23
100
AcDbEntity
  8
SANINDUSA
  6
Continuous
370
    15
100
AcDbCircle
 10
448.4383878464011
 20
419.2858612112185
 30
0.0
 40
0.0049999999988618
100
AcDbArc
 50
132.0777034572056
 51
180.0000000097707
  0
LINE
  5
236
330
23
100
AcDbEntity
  8
SANINDUSA
  6
Continuous
370
    15
100
AcDbLine
 10
448.4459350244282
 20
419.2994116726477
 30
0.0
 11
448.4350371572532
 21
419.2895723946177
 31
0.0
  0
ARC
  5
237
330
23
100
AcDbEntity
  8
SANINDUSA
  6
Continuous
370
    15
100
AcDbCircle
 10
448.446605162258
 20
419.2986694359675
 30
0.0
 40
0.0010000000001799
100
AcDbArc
 50
89.99999999022934
 51
132.0777034547883
  0
ARC
  5
238
330
23
100
AcDbEntity
  8
SANINDUSA
  6
Continuous
370
    15
100
AcDbCircle
 10
448.5111369595822
 20
419.3046694359678
 30
0.0
 40
0.005
100
AcDbArc
 50
270.0
 51
342.0000006986809
  0
LINE
  5
239
330
23
100
AcDbEntity
  8
SANINDUSA
  6
Continuous
370
    15
100
AcDbLine
 10
448.5419388184253
 20
419.3832874699567
 30
0.0
 11
448.5158922421825
 21
419.3031243510537
 31
0.0
  0
ARC
  5
23A
330
23
100
AcDbEntity
  8
SANINDUSA
  6
Continuous
370
    15
100
AcDbCircle
 10
448.5438409314582
 20
419.3826694359677
 30
0.0
 40
0.002000000000467
100
AcDbArc
 50
90.00000209743587
 51
161.9999999962655
  0
LINE
  5
23B
330
23
100
AcDbEntity
  8
SANINDUSA
  6
Continuous
370
    15
100
AcDbLine
 10
448.5111369595822
 20
419.2996694359677
 30
0.0
 11
448.4466051622582
 21
419.2996694359677
 31
0.0
  0
SPLINE
  5
23C
330
23
100
AcDbEntity
  8
SANINDUSA
  6
Continuous
370
    15
100
AcDbSpline
210
0.0
220
0.0
230
1.0
 70
    28
 71
     3
 72
    10
 73
     6
 74
     0
 42
0.0000000001
 43
0.0000000001
 40
0.0
 40
0.0
 40
0.0
 40
0.0
 40
0.5
 40
0.5
 40
1.0
 40
1.0
 40
1.0
 40
1.0
 10
448.4098878464022
 20
419.2994116726477
 30
0.0
 41
1.0
 10
448.4098878464022
 20
419.2994918660135
 30
0.0
 41
1.0
 10
448.4098878464022
 20
419.2995583313111
 30
0.0
 41
1.0
 10
448.4098878464022
 20
419.2996472150364
 30
0.0
 41
1.0
 10
448.4098878464022
 20
419.2996694359677
 30
0.0
 41
1.0
 10
448.4098878464022
 20
419.2996694359677
 30
0.0
 41
1.0
  0
LINE
  5
23D
330
23
100
AcDbEntity
  8
SANINDUSA
  6
Continuous
370
    15
100
AcDbLine
 10
448.4098878463874
 20
419.2994116726477
 30
0.0
 11
448.3738406683762
 21
419.2994116726477
 31
0.0
  0
SPLINE
  5
23E
330
23
100
AcDbEntity
  8
SANINDUSA
  6
Continuous
370
    15
100
AcDbSpline
210
0.0
220
0.0
230
1.0
 70
    28
 71
     3
 72
    26
 73
    22
 74
     0
 42
0.0000000001
 43
0.0000000001
 40
0.0
 40
0.0
 40
0.0
 40
0.0
 40
0.0625000000000002
 40
0.0625000000000002
 40
0.1250000000000005
 40
0.1250000000000005
 40
0.1875000000000007
 40
0.1875000000000007
 40
0.2500000000000009
 40
0.2500000000000009
 40
0.3750000000000007
 40
0.3750000000000007
 40
0.5000000000000006
 40
0.5000000000000006
 40
0.6250000000000005
 40
0.6250000000000005
 40
0.7500000000000002
 40
0.7500000000000002
 40
0.8750000000000001
 40
0.8750000000000001
 40
1.0
 40
1.0
 40
1.0
 40
1.0
 10
448.3731705305462
 20
419.2996694359677
 30
0.0
 41
1.0
 10
448.3731705305462
 20
419.2996694359677
 30
0.0
 41
1.0
 10
448.3732665177154
 20
419.2996694359677
 30
0.0
 41
1.0
 10
448.3736460191102
 20
419.2996694359677
 30
0.0
 41
1.0
 10
448.3739294999153
 20
419.2996694359677
 30
0.0
 41
1.0
 10
448.3746710883066
 20
419.2996694359677
 30
0.0
 41
1.0
 10
448.3751291359602
 20
419.2996694359677
 30
0.0
 41
1.0
 10
448.3761999378523
 20
419.2996694359677
 30
0.0
 41
1.0
 10
448.3768126172401
 20
419.2996694359677
 30
0.0
 41
1.0
 10
448.3788454098134
 20
419.2996694359677
 30
0.0
 41
1.0
 10
448.380460250977
 20
419.2996694359677
 30
0.0
 41
1.0
 10
448.3839879795787
 20
419.2996694359677
 30
0.0
 41
1.0
 10
448.3858992000429
 20
419.2996694359677
 30
0.0
 41
1.0
 10
448.3898157137343
 20
419.2996694359677
 30
0.0
 41
1.0
 10
448.3918204485861
 20
419.2996694359677
 30
0.0
 41
1.0
 10
448.3957760235805
 20
419.2996694359677
 30
0.0
 41
1.0
 10
448.3977270713906
 20
419.2996694359677
 30
0.0
 41
1.0
 10
448.4014869245343
 20
419.2996694359677
 30
0.0
 41
1.0
 10
448.403296231785
 20
419.2996694359677
 30
0.0
 41
1.0
 10
448.4067315010576
 20
419.2996694359677
 30
0.0
 41
1.0
 10
448.4083579582415
 20
419.2996694359677
 30
0.0
 41
1.0
 10
448.4098878464022
 20
419.2996694359677
 30
0.0
 41
1.0
  0
LINE
  5
23F
330
23
100
AcDbEntity
  8
SANINDUSA
  6
Continuous
370
    15
100
AcDbLine
 10
448.4459350244282
 20
419.2994116726477
 30
0.0
 11
448.4098878463948
 21
419.2994116726477
 31
0.0
  0
SPLINE
  5
240
330
23
100
AcDbEntity
  8
SANINDUSA
  6
Continuous
370
    15
100
AcDbSpline
210
0.0
220
0.0
230
1.0
 70
    28
 71
     3
 72
    26
 73
    22
 74
     0
 42
0.0000000001
 43
0.0000000001
 40
0.0
 40
0.0
 40
0.0
 40
0.0
 40
0.125
 40
0.125
 40
0.25
 40
0.25
 40
0.375
 40
0.375
 40
0.5
 40
0.5
 40
0.625
 40
0.625
 40
0.75
 40
0.75
 40
0.8125
 40
0.8125
 40
0.875
 40
0.875
 40
0.9375
 40
0.9375
 40
1.0
 40
1.0
 40
1.0
 40
1.0
 10
448.4098878464022
 20
419.2996694359677
 30
0.0
 41
1.0
 10
448.4114177345629
 20
419.2996694359677
 30
0.0
 41
1.0
 10
448.4130441917468
 20
419.2996694359677
 30
0.0
 41
1.0
 10
448.4164794610194
 20
419.2996694359677
 30
0.0
 41
1.0
 10
448.4182887682701
 20
419.2996694359677
 30
0.0
 41
1.0
 10
448.4220486214137
 20
419.2996694359677
 30
0.0
 41
1.0
 10
448.4239996692239
 20
419.2996694359677
 30
0.0
 41
1.0
 10
448.4279552442183
 20
419.2996694359677
 30
0.0
 41
1.0
 10
448.4299599790701
 20
419.2996694359677
 30
0.0
 41
1.0
 10
448.4338764927614
 20
419.2996694359677
 30
0.0
 41
1.0
 10
448.4357877132258
 20
419.2996694359677
 30
0.0
 41
1.0
 10
448.4393154418274
 20
419.2996694359677
 30
0.0
 41
1.0
 10
448.4409302829909
 20
419.2996694359677
 30
0.0
 41
1.0
 10
448.4429630755642
 20
419.2996694359677
 30
0.0
 41
1.0
 10
448.4435757549522
 20
419.2996694359677
 30
0.0
 41
1.0
 10
448.4446465568442
 20
419.2996694359677
 30
0.0
 41
1.0
 10
448.4451046044978
 20
419.2996694359677
 30
0.0
 41
1.0
 10
448.445846192889
 20
419.2996694359677
 30
0.0
 41
1.0
 10
448.4461296736943
 20
419.2996694359677
 30
0.0
 41
1.0
 10
448.446509175089
 20
419.2996694359677
 30
0.0
 41
1.0
 10
448.4466051622582
 20
419.2996694359677
 30
0.0
 41
1.0
 10
448.4466051622582
 20
419.2996694359677
 30
0.0
 41
1.0
  0
LINE
  5
243
330
23
100
AcDbEntity
  8
SANINDUSA
  6
Continuous
370
    15
100
AcDbLine
 10
448.4333878464022
 20
419.2746694359677
 30
0.0
 11
448.3863878464021
 21
419.2746694359677
 31
0.0
  0
ARC
  5
248
330
23
100
AcDbEntity
  8
SANINDUSA
  6
Continuous
370
    15
100
AcDbCircle
 10
448.2138878464022
 20
419.3706694359677
 30
0.0
 40
0.0009999999999999
100
AcDbArc
 50
269.9999942646202
 51
0.0
  0
LINE
  5
249
330
23
100
AcDbEntity
  8
SANINDUSA
  6
Continuous
370
    15
100
AcDbLine
 10
448.2138878463021
 20
419.3696694359677
 30
0.0
 11
448.2508878465023
 21
419.3696694359677
 31
0.0
  0
LINE
  5
24B
330
23
100
AcDbEntity
  8
SANINDUSA
  6
Continuous
370
    15
100
AcDbLine
 10
448.2148878464022
 20
419.3706694359677
 30
0.0
 11
448.2148878464022
 21
419.3836694359677
 31
0.0
  0
LINE
  5
24C
330
23
100
AcDbEntity
  8
SANINDUSA
  6
Continuous
370
    15
100
AcDbLine
 10
448.1623204422982
 20
419.3827392349607
 30
0.0
 11
448.1618640348602
 21
419.3696694359677
 31
0.0
  0
ARC
  5
24D
330
23
100
AcDbEntity
  8
SANINDUSA
  6
Continuous
370
    15
100
AcDbCircle
 10
448.2138878464022
 20
419.3836694359677
 30
0.0
 40
0.0009999999999999
100
AcDbArc
 50
0.000000022798216
 51
90.0
  0
ARC
  5
24E
330
23
100
AcDbEntity
  8
SANINDUSA
  6
Continuous
370
    15
100
AcDbCircle
 10
448.1643192239523
 20
419.3826694359677
 30
0.0
 40
0.0020000000000005
100
AcDbArc
 50
90.00000001302757
 51
178.0000000125209
  0
LINE
  5
24F
330
23
100
AcDbEntity
  8
SANINDUSA
  6
Continuous
370
    15
100
AcDbLine
 10
448.2138878464022
 20
419.3846694359677
 30
0.0
 11
448.1643192239517
 21
419.3846694359677
 31
0.0
  0
LINE
  5
250
330
23
100
AcDbEntity
  8
SANINDUSA
  6
Continuous
370
    15
100
AcDbLine
 10
448.2138878463021
 20
419.3696694359677
 30
0.0
 11
448.1618640348602
 21
419.3696694359677
 31
0.0
  0
LINE
  5
251
330
23
100
AcDbEntity
  8
SANINDUSA
  6
Continuous
370
    15
100
AcDbLine
 10
448.2508878464022
 20
419.3846694359677
 30
0.0
 11
448.2138878464022
 21
419.3846694359677
 31
0.0
  0
SPLINE
  5
25B
330
23
100
AcDbEntity
  8
SANINDUSA
  6
Continuous
370
    15
100
AcDbSpline
210
0.0
220
0.0
230
1.0
 70
    28
 71
     3
 72
    25
 73
    21
 74
     0
 42
0.0000000001
 43
0.0000000001
 40
0.0
 40
0.0
 40
0.0
 40
0.0
 40
0.0257441017766315
 40
0.0513413047303798
 40
0.0768274768351627
 40
0.1022389562250647
 40
0.1276124019457725
 40
0.1905777314756465
 40
0.2531270534345589
 40
0.3152297408268904
 40
0.3770710730811458
 40
0.5000065665964895
 40
0.622942060111836
 40
0.6847326320236605
 40
0.7468860803997825
 40
0.8093839930070467
 40
0.8724007328061082
 40
0.9146808583979222
 40
0.9571578119059054
 40
0.9999999999999998
 40
0.9999999999999998
 40
0.9999999999999998
 40
0.9999999999999998
 10
448.2759347613462
 20
419.3846694359677
 30
0.0
 41
1.0
 10
448.2759357275698
 20
419.3846694359677
 30
0.0
 41
1.0
 10
448.2759376545035
 20
419.3846694359677
 30
0.0
 41
1.0
 10
448.2759531857944
 20
419.3846694359677
 30
0.0
 41
1.0
 10
448.2759779913217
 20
419.3846694359677
 30
0.0
 41
1.0
 10
448.2760129686714
 20
419.3846694359677
 30
0.0
 41
1.0
 10
448.2760800216808
 20
419.3846694359677
 30
0.0
 41
1.0
 10
448.2762036338334
 20
419.3846694359677
 30
0.0
 41
1.0
 10
448.2764190937742
 20
419.3846694359677
 30
0.0
 41
1.0
 10
448.2766928308977
 20
419.3846694359677
 30
0.0
 41
1.0
 10
448.2771319288584
 20
419.3846694359677
 30
0.0
 41
1.0
 10
448.2778164772049
 20
419.3846694359677
 30
0.0
 41
1.0
 10
448.2786571795811
 20
419.3846694359677
 30
0.0
 41
1.0
 10
448.2794021826477
 20
419.3846694359677
 30
0.0
 41
1.0
 10
448.2799953962691
 20
419.3846694359677
 30
0.0
 41
1.0
 10
448.2806165480041
 20
419.3846694359677
 30
0.0
 41
1.0
 10
448.2811881790204
 20
419.3846694359677
 30
0.0
 41
1.0
 10
448.2816990648799
 20
419.3846694359677
 30
0.0
 41
1.0
 10
448.2821437751161
 20
419.3846694359677
 30
0.0
 41
1.0
 10
448.2824422704121
 20
419.3846694359677
 30
0.0
 41
1.0
 10
448.2825921569602
 20
419.3846694359677
 30
0.0
 41
1.0
  0
SPLINE
  5
25D
330
23
100
AcDbEntity
  8
SANINDUSA
  6
Continuous
370
    15
100
AcDbSpline
210
0.0
220
0.0
230
1.0
 70
    28
 71
     3
 72
    25
 73
    21
 74
     0
 42
0.0000000001
 43
0.0000000001
 40
0.0
 40
0.0
 40
0.0
 40
0.0
 40
0.0257441017821554
 40
0.0513413047386578
 40
0.0768274768434392
 40
0.1022389562305961
 40
0.1276124019458466
 40
0.1905777314831775
 40
0.2531270534345172
 40
0.3152297408357802
 40
0.3770710730811827
 40
0.5000065665964997
 40
0.6229420601118204
 40
0.6847326320076199
 40
0.7468860803997919
 40
0.8093839930011361
 40
0.8724007328061505
 40
0.9146808583975083
 40
0.9571578119054747
 40
1.0
 40
1.0
 40
1.0
 40
1.0
 10
448.5371835358442
 20
419.3846694359677
 30
0.0
 41
1.0
 10
448.5372735941249
 20
419.3846694359677
 30
0.0
 41
1.0
 10
448.5374531968033
 20
419.3846694359677
 30
0.0
 41
1.0
 10
448.5377215860043
 20
419.3846694359677
 30
0.0
 41
1.0
 10
448.5379880623549
 20
419.3846694359677
 30
0.0
 41
1.0
 10
448.5382526320533
 20
419.3846694359677
 30
0.0
 41
1.0
 10
448.538644906578
 20
419.3846694359677
 30
0.0
 41
1.0
 10
448.5391589798855
 20
419.3846694359677
 30
0.0
 41
1.0
 10
448.5397799628373
 20
419.3846694359677
 30
0.0
 41
1.0
 10
448.5403733518414
 20
419.3846694359677
 30
0.0
 41
1.0
 10
448.5411183747271
 20
419.3846694359677
 30
0.0
 41
1.0
 10
448.5419592150547
 20
419.3846694359677
 30
0.0
 41
1.0
 10
448.5426436524511
 20
419.3846694359677
 30
0.0
 41
1.0
 10
448.5430827767536
 20
419.3846694359677
 30
0.0
 41
1.0
 10
448.543356473445
 20
419.3846694359677
 30
0.0
 41
1.0
 10
448.5435719778665
 20
419.3846694359677
 30
0.0
 41
1.0
 10
448.5437095917058
 20
419.3846694359677
 30
0.0
 41
1.0
 10
448.5437898693782
 20
419.3846694359677
 30
0.0
 41
1.0
 10
448.5438329772964
 20
419.3846694359677
 30
0.0
 41
1.0
 10
448.543838272515
 20
419.3846694359677
 30
0.0
 41
1.0
 10
448.5438409314582
 20
419.3846694359677
 30
0.0
 41
1.0
  0
LINE
  5
25E
330
23
100
AcDbEntity
  8
SANINDUSA
  6
Continuous
370
    15
100
AcDbLine
 10
448.2825921569602
 20
419.3846694359677
 30
0.0
 11
448.5371835357587
 21
419.3846694359677
 31
0.0
  0
LINE
  5
28E
330
23
100
AcDbEntity
  8
SANINDUSA
100
AcDbLine
 10
448.3847385355516
 20
419.2895723946174
 30
0.0
 11
448.4350371572532
 21
419.2895723946174
 31
0.0
  0
ENDSEC
  0
SECTION
  2
OBJECTS
  0
DICTIONARY
  5
C
330
0
100
AcDbDictionary
281
     1
  3
ACAD_COLOR
350
1C
  3
ACAD_GROUP
350
D
  3
ACAD_LAYOUT
350
1A
  3
ACAD_MATERIAL
350
1B
  3
ACAD_MLINESTYLE
350
17
  3
ACAD_PLOTSETTINGS
350
19
  3
ACAD_PLOTSTYLENAME
350
E
  3
ACAD_TABLESTYLE
350
1D
  3
ACDBHEADERROUNDTRIPXREC
350
299
  3
AcDbVariableDictionary
350
263
  0
DICTIONARY
  5
1C
102
{ACAD_REACTORS
330
C
102
}
330
C
100
AcDbDictionary
281
     1
  0
DICTIONARY
  5
D
102
{ACAD_REACTORS
330
C
102
}
330
C
100
AcDbDictionary
281
     1
  0
DICTIONARY
  5
1A
102
{ACAD_REACTORS
330
C
102
}
330
C
100
AcDbDictionary
281
     1
  3
Layout1
350
22
  3
Layout2
350
2A
  3
Model
350
26
  0
DICTIONARY
  5
1B
102
{ACAD_REACTORS
330
C
102
}
330
C
100
AcDbDictionary
281
     1
  0
DICTIONARY
  5
17
102
{ACAD_REACTORS
330
C
102
}
330
C
100
AcDbDictionary
281
     1
  3
Standard
350
18
  0
DICTIONARY
  5
19
102
{ACAD_REACTORS
330
C
102
}
330
C
100
AcDbDictionary
281
     1
  0
ACDBDICTIONARYWDFLT
  5
E
102
{ACAD_REACTORS
330
C
102
}
330
C
100
AcDbDictionary
281
     1
  3
Normal
350
F
100
AcDbDictionaryWithDefault
340
F
  0
DICTIONARY
  5
1D
102
{ACAD_REACTORS
330
C
102
}
330
C
100
AcDbDictionary
281
     1
  3
Standard
350
1E
  0
DICTIONARY
  5
299
102
{ACAD_REACTORS
330
C
102
}
330
C
100
AcDbDictionary
281
     1
  0
DICTIONARY
  5
263
102
{ACAD_REACTORS
330
C
102
}
330
C
100
AcDbDictionary
281
     1
  3
CTABLESTYLE
350
264
  3
DIMASSOC
350
26E
  3
HIDETEXT
350
26D
  3
PROJECTNAME
350
26F
  0
LAYOUT
  5
22
102
{ACAD_XDICTIONARY
360
29A
102
}
102
{ACAD_REACTORS
330
1A
102
}
330
1A
100
AcDbPlotSettings
  1

  2
C:\Documents and Settings\Julio\Application Data\Autodesk\AutoCAD 2006\R16.2\enu\plotters\Default Windows System Printer.pc3
  4

  6

 40
0.0
 41
0.0
 42
0.0
 43
0.0
 44
0.0
 45
0.0
 46
0.0
 47
0.0
 48
0.0
 49
0.0
140
0.0
141
0.0
142
1.0
143
1.0
 70
   688
 72
     0
 73
     0
 74
     5
  7

 75
    16
147
1.0
148
0.0
149
0.0
100
AcDbLayout
  1
Layout1
 70
     1
 71
     1
 10
0.0
 20
0.0
 11
420.0
 21
297.0
 12
0.0
 22
0.0
 32
0.0
 14
1.000000000000000E+20
 24
1.000000000000000E+20
 34
1.000000000000000E+20
 15
-1.000000000000000E+20
 25
-1.000000000000000E+20
 35
-1.000000000000000E+20
146
0.0
 13
0.0
 23
0.0
 33
0.0
 16
1.0
 26
0.0
 36
0.0
 17
0.0
 27
1.0
 37
0.0
 76
     0
330
1F
  0
LAYOUT
  5
2A
102
{ACAD_XDICTIONARY
360
29E
102
}
102
{ACAD_REACTORS
330
1A
102
}
330
1A
100
AcDbPlotSettings
  1

  2
C:\Documents and Settings\Julio\Application Data\Autodesk\AutoCAD 2006\R16.2\enu\plotters\Default Windows System Printer.pc3
  4

  6

 40
0.0
 41
0.0
 42
0.0
 43
0.0
 44
0.0
 45
0.0
 46
0.0
 47
0.0
 48
0.0
 49
0.0
140
0.0
141
0.0
142
1.0
143
1.0
 70
   688
 72
     0
 73
     0
 74
     5
  7

 75
    16
147
1.0
148
0.0
149
0.0
100
AcDbLayout
  1
Layout2
 70
     1
 71
     2
 10
0.0
 20
0.0
 11
12.0
 21
9.0
 12
0.0
 22
0.0
 32
0.0
 14
0.0
 24
0.0
 34
0.0
 15
0.0
 25
0.0
 35
0.0
146
0.0
 13
0.0
 23
0.0
 33
0.0
 16
1.0
 26
0.0
 36
0.0
 17
0.0
 27
1.0
 37
0.0
 76
     0
330
27
  0
LAYOUT
  5
26
102
{ACAD_XDICTIONARY
360
29C
102
}
102
{ACAD_REACTORS
330
1A
102
}
330
1A
100
AcDbPlotSettings
  1

  2
C:\Documents and Settings\Julio\Application Data\Autodesk\AutoCAD 2006\R16.2\enu\plotters\Default Windows System Printer.pc3
  4
A3
  6

 40
5.027083396911621
 41
5.365738868713378
 42
5.027099609375
 43
5.027069091796875
 44
297.0530090332031
 45
420.1583251953125
 46
0.0
 47
0.0
 48
0.0
 49
0.0
140
0.0
141
0.0
142
1.0
143
0.0017422007410224
 70
 11952
 72
     1
 73
     1
 74
     0
  7

 75
     0
147
573.9866689605257
148
-446.3989793702242
149
-419.1279803264081
100
AcDbLayout
  1
Model
 70
     1
 71
     0
 10
0.0
 20
0.0
 11
12.0
 21
9.0
 12
0.0
 22
0.0
 32
0.0
 14
0.0
 24
0.0
 34
0.0
 15
0.0
 25
0.0
 35
0.0
146
0.0
 13
0.0
 23
0.0
 33
0.0
 16
1.0
 26
0.0
 36
0.0
 17
0.0
 27
1.0
 37
0.0
 76
     0
330
23
1001
ACAD_PSEXT
1000
C:\Documents and Settings\Julio\Application Data\Autodesk\AutoCAD 2006\R16.2\enu\plotters\Default Windows System Printer.pc3
1000
HP Universal Printing PS
1000
IP_192.168.0.15
1000

1070
     0
  0
MLINESTYLE
  5
18
102
{ACAD_REACTORS
330
17
102
}
330
17
100
AcDbMlineStyle
  2
STANDARD
 70
     0
  3

 62
   256
 51
90.0
 52
90.0
 71
     2
 49
0.5
 62
   256
  6
BYLAYER
 49
-0.5
 62
   256
  6
BYLAYER
  0
ACDBPLACEHOLDER
  5
F
102
{ACAD_REACTORS
330
E
102
}
330
E
  0
TABLESTYLE
  5
1E
102
{ACAD_REACTORS
330
1D
102
}
330
1D
100
AcDbTableStyle
  3
Standard
 70
     0
 71
     0
 40
1.5
 41
1.5
280
     0
281
     0
  7
Standard
140
4.5
170
     2
 62
     0
 63
     7
283
     0
274
    -2
284
     1
 64
     0
275
    -2
285
     1
 65
     0
276
    -2
286
     1
 66
     0
277
    -2
287
     1
 67
     0
278
    -2
288
     1
 68
     0
279
    -2
289
     1
 69
     0
  7
Standard
140
6.0
170
     5
 62
     0
 63
     7
283
     0
274
    -2
284
     1
 64
     0
275
    -2
285
     1
 65
     0
276
    -2
286
     1
 66
     0
277
    -2
287
     1
 67
     0
278
    -2
288
     1
 68
     0
279
    -2
289
     1
 69
     0
  7
Standard
140
4.5
170
     5
 62
     0
 63
     7
283
     0
274
    -2
284
     1
 64
     0
275
    -2
285
     1
 65
     0
276
    -2
286
     1
 66
     0
277
    -2
287
     1
 67
     0
278
    -2
288
     1
 68
     0
279
    -2
289
     1
 69
     0
  0
DICTIONARYVAR
  5
264
102
{ACAD_REACTORS
330
263
102
}
330
263
100
DictionaryVariables
280
     0
  1
STANDARD
  0
DICTIONARYVAR
  5
26E
102
{ACAD_REACTORS
330
263
102
}
330
263
100
DictionaryVariables
280
     0
  1
2
  0
DICTIONARYVAR
  5
26D
102
{ACAD_REACTORS
330
263
102
}
330
263
100
DictionaryVariables
280
     0
  1
1
  0
DICTIONARYVAR
  5
26F
102
{ACAD_REACTORS
330
263
102
}
330
263
100
DictionaryVariables
280
     0
  1

  0
DICTIONARY
  5
29A
330
22
100
AcDbDictionary
280
     1
281
     1
  3
ACAD_XREC_ROUNDTRIP
360
29B
  0
DICTIONARY
  5
29E
330
2A
100
AcDbDictionary
280
     1
281
     1
  3
ACAD_XREC_ROUNDTRIP
360
29F
  0
DICTIONARY
  5
29C
330
26
100
AcDbDictionary
280
     1
281
     1
  3
ACAD_XREC_ROUNDTRIP
360
29D
  0
XRECORD
  5
29B
102
{ACAD_REACTORS
330
29A
102
}
330
29A
100
AcDbXrecord
280
     1
102
SHADEPLOT
 70
     0
102
SHADEPLOTRESLEVEL
 70
     2
102
SHADEPLOTCUSTOMDPI
 70
   300
  0
XRECORD
  5
29F
102
{ACAD_REACTORS
330
29E
102
}
330
29E
100
AcDbXrecord
280
     1
102
SHADEPLOT
 70
     0
102
SHADEPLOTRESLEVEL
 70
     2
102
SHADEPLOTCUSTOMDPI
 70
   300
  0
XRECORD
  5
29D
102
{ACAD_REACTORS
330
29C
102
}
330
29C
100
AcDbXrecord
280
     1
102
SHADEPLOT
 70
     0
102
SHADEPLOTRESLEVEL
 70
     2
102
SHADEPLOTCUSTOMDPI
 70
   300
  0
ENDSEC
  0
EOF
