  0
SECTION
  2
HEADER
  9
$ACADVER
  1
AC1015
  9
$ACADMAINTVER
 70
    20
  9
$DWGCODEPAGE
  3
ANSI_1252
  9
$INSBASE
 10
0.0
 20
0.0
 30
0.0
  9
$EXTMIN
 10
5233.78312747713
 20
1854.176162307499
 30
0.0
  9
$EXTMAX
 10
5237.411022932254
 20
1854.697844519727
 30
0.0
  9
$LIMMIN
 10
0.0
 20
0.0
  9
$LIMMAX
 10
420.0
 20
297.0
  9
$ORTHOMODE
 70
     1
  9
$REGENMODE
 70
     1
  9
$FILLMODE
 70
     1
  9
$QTEXTMODE
 70
     0
  9
$MIRRTEXT
 70
     1
  9
$LTSCALE
 40
1.0
  9
$ATTMODE
 70
     1
  9
$TEXTSIZE
 40
2.5
  9
$TRACEWID
 40
1.0
  9
$TEXTSTYLE
  7
SANINDUSA
  9
$CLAYER
  8
cotas
  9
$CELTYPE
  6
ByLayer
  9
$CECOLOR
 62
   256
  9
$CELTSCALE
 40
1.0
  9
$DISPSILH
 70
     0
  9
$DIMSCALE
 40
1.0
  9
$DIMASZ
 40
2.0
  9
$DIMEXO
 40
1.0
  9
$DIMDLI
 40
1.0
  9
$DIMRND
 40
0.0
  9
$DIMDLE
 40
0.0
  9
$DIMEXE
 40
1.0
  9
$DIMTP
 40
0.0
  9
$DIMTM
 40
0.0
  9
$DIMTXT
 40
2.0
  9
$DIMCEN
 40
0.0
  9
$DIMTSZ
 40
0.0
  9
$DIMTOL
 70
     0
  9
$DIMLIM
 70
     0
  9
$DIMTIH
 70
     0
  9
$DIMTOH
 70
     0
  9
$DIMSE1
 70
     0
  9
$DIMSE2
 70
     0
  9
$DIMTAD
 70
     1
  9
$DIMZIN
 70
     8
  9
$DIMBLK
  1

  9
$DIMASO
 70
     1
  9
$DIMSHO
 70
     1
  9
$DIMPOST
  1

  9
$DIMAPOST
  1

  9
$DIMALT
 70
     0
  9
$DIMALTD
 70
     3
  9
$DIMALTF
 40
0.03937007874016
  9
$DIMLFAC
 40
1.0
  9
$DIMTOFL
 70
     1
  9
$DIMTVP
 40
0.0
  9
$DIMTIX
 70
     0
  9
$DIMSOXD
 70
     0
  9
$DIMSAH
 70
     0
  9
$DIMBLK1
  1

  9
$DIMBLK2
  1

  9
$DIMSTYLE
  2
SANINDUSA
  9
$DIMCLRD
 70
   256
  9
$DIMCLRE
 70
   256
  9
$DIMCLRT
 70
   256
  9
$DIMTFAC
 40
1.0
  9
$DIMGAP
 40
1.0
  9
$DIMJUST
 70
     0
  9
$DIMSD1
 70
     0
  9
$DIMSD2
 70
     0
  9
$DIMTOLJ
 70
     0
  9
$DIMTZIN
 70
     8
  9
$DIMALTZ
 70
     0
  9
$DIMALTTZ
 70
     0
  9
$DIMUPT
 70
     0
  9
$DIMDEC
 70
     1
  9
$DIMTDEC
 70
     1
  9
$DIMALTU
 70
     2
  9
$DIMALTTD
 70
     3
  9
$DIMTXSTY
  7
SANINDUSA
  9
$DIMAUNIT
 70
     0
  9
$DIMADEC
 70
     1
  9
$DIMALTRND
 40
0.0
  9
$DIMAZIN
 70
     0
  9
$DIMDSEP
 70
    44
  9
$DIMATFIT
 70
     3
  9
$DIMFRAC
 70
     0
  9
$DIMLDRBLK
  1

  9
$DIMLUNIT
 70
     2
  9
$DIMLWD
 70
    -1
  9
$DIMLWE
 70
    -1
  9
$DIMTMOVE
 70
     0
  9
$LUNITS
 70
     2
  9
$LUPREC
 70
     4
  9
$SKETCHINC
 40
1.0
  9
$FILLETRAD
 40
3.0
  9
$AUNITS
 70
     0
  9
$AUPREC
 70
     0
  9
$MENU
  1
.
  9
$ELEVATION
 40
0.0
  9
$PELEVATION
 40
0.0
  9
$THICKNESS
 40
0.0
  9
$LIMCHECK
 70
     0
  9
$CHAMFERA
 40
10.0
  9
$CHAMFERB
 40
10.0
  9
$CHAMFERC
 40
20.0
  9
$CHAMFERD
 40
0.0
  9
$SKPOLY
 70
     0
  9
$TDCREATE
 40
2454922.535571644
  9
$TDUCREATE
 40
2454922.493904977
  9
$TDUPDATE
 40
2454922.598926505
  9
$TDUUPDATE
 40
2454922.557259838
  9
$TDINDWG
 40
0.0633550347
  9
$TDUSRTIMER
 40
0.0633550347
  9
$USRTIMER
 70
     1
  9
$ANGBASE
 50
0.0
  9
$ANGDIR
 70
     0
  9
$PDMODE
 70
     0
  9
$PDSIZE
 40
0.0
  9
$PLINEWID
 40
0.0
  9
$SPLFRAME
 70
     0
  9
$SPLINETYPE
 70
     6
  9
$SPLINESEGS
 70
     8
  9
$HANDSEED
  5
1360
  9
$SURFTAB1
 70
     6
  9
$SURFTAB2
 70
     6
  9
$SURFTYPE
 70
     6
  9
$SURFU
 70
     6
  9
$SURFV
 70
     6
  9
$UCSBASE
  2

  9
$UCSNAME
  2

  9
$UCSORG
 10
0.0
 20
0.0
 30
0.0
  9
$UCSXDIR
 10
1.0
 20
0.0
 30
0.0
  9
$UCSYDIR
 10
0.0
 20
1.0
 30
0.0
  9
$UCSORTHOREF
  2

  9
$UCSORTHOVIEW
 70
     0
  9
$UCSORGTOP
 10
0.0
 20
0.0
 30
0.0
  9
$UCSORGBOTTOM
 10
0.0
 20
0.0
 30
0.0
  9
$UCSORGLEFT
 10
0.0
 20
0.0
 30
0.0
  9
$UCSORGRIGHT
 10
0.0
 20
0.0
 30
0.0
  9
$UCSORGFRONT
 10
0.0
 20
0.0
 30
0.0
  9
$UCSORGBACK
 10
0.0
 20
0.0
 30
0.0
  9
$PUCSBASE
  2

  9
$PUCSNAME
  2

  9
$PUCSORG
 10
0.0
 20
0.0
 30
0.0
  9
$PUCSXDIR
 10
1.0
 20
0.0
 30
0.0
  9
$PUCSYDIR
 10
0.0
 20
1.0
 30
0.0
  9
$PUCSORTHOREF
  2

  9
$PUCSORTHOVIEW
 70
     0
  9
$PUCSORGTOP
 10
0.0
 20
0.0
 30
0.0
  9
$PUCSORGBOTTOM
 10
0.0
 20
0.0
 30
0.0
  9
$PUCSORGLEFT
 10
0.0
 20
0.0
 30
0.0
  9
$PUCSORGRIGHT
 10
0.0
 20
0.0
 30
0.0
  9
$PUCSORGFRONT
 10
0.0
 20
0.0
 30
0.0
  9
$PUCSORGBACK
 10
0.0
 20
0.0
 30
0.0
  9
$USERI1
 70
     0
  9
$USERI2
 70
     0
  9
$USERI3
 70
     0
  9
$USERI4
 70
     0
  9
$USERI5
 70
     0
  9
$USERR1
 40
0.0
  9
$USERR2
 40
0.0
  9
$USERR3
 40
0.0
  9
$USERR4
 40
0.0
  9
$USERR5
 40
0.0
  9
$WORLDVIEW
 70
     1
  9
$SHADEDGE
 70
     3
  9
$SHADEDIF
 70
    70
  9
$TILEMODE
 70
     1
  9
$MAXACTVP
 70
    64
  9
$PINSBASE
 10
0.0
 20
0.0
 30
0.0
  9
$PLIMCHECK
 70
     0
  9
$PEXTMIN
 10
1.000000000000000E+20
 20
1.000000000000000E+20
 30
1.000000000000000E+20
  9
$PEXTMAX
 10
-1.000000000000000E+20
 20
-1.000000000000000E+20
 30
-1.000000000000000E+20
  9
$PLIMMIN
 10
0.0
 20
0.0
  9
$PLIMMAX
 10
420.0
 20
297.0
  9
$UNITMODE
 70
     0
  9
$VISRETAIN
 70
     1
  9
$PLINEGEN
 70
     0
  9
$PSLTSCALE
 70
     1
  9
$TREEDEPTH
 70
  3020
  9
$CMLSTYLE
  2
Standard
  9
$CMLJUST
 70
     0
  9
$CMLSCALE
 40
20.0
  9
$PROXYGRAPHICS
 70
     1
  9
$MEASUREMENT
 70
     1
  9
$CELWEIGHT
370
    -1
  9
$ENDCAPS
280
     0
  9
$JOINSTYLE
280
     0
  9
$LWDISPLAY
290
     0
  9
$INSUNITS
 70
     4
  9
$HYPERLINKBASE
  1

  9
$STYLESHEET
  1
sanindusa.ctb
  9
$XEDIT
290
     1
  9
$CEPSNTYPE
380
     0
  9
$PSTYLEMODE
290
     1
  9
$FINGERPRINTGUID
  2
{5AD8AE19-C08F-42AC-8E86-8E08C4F77F3A}
  9
$VERSIONGUID
  2
{ABEC0D25-536B-4E5A-B7FC-D072662CB127}
  9
$EXTNAMES
290
     1
  9
$PSVPSCALE
 40
0.0
  9
$OLESTARTUP
290
     0
  0
ENDSEC
  0
SECTION
  2
CLASSES
  0
CLASS
  1
ACDBDICTIONARYWDFLT
  2
AcDbDictionaryWithDefault
  3
ObjectDBX Classes
 90
        0
280
     0
281
     0
  0
CLASS
  1
ACDBPLACEHOLDER
  2
AcDbPlaceHolder
  3
ObjectDBX Classes
 90
        0
280
     0
281
     0
  0
CLASS
  1
LAYOUT
  2
AcDbLayout
  3
ObjectDBX Classes
 90
        0
280
     0
281
     0
  0
CLASS
  1
DICTIONARYVAR
  2
AcDbDictionaryVar
  3
ObjectDBX Classes
 90
        0
280
     0
281
     0
  0
CLASS
  1
DIMASSOC
  2
AcDbDimAssoc
  3
"AcDbDimAssoc|Product Desc:     AcDim ARX App For Dimension|Company:          Autodesk, Inc.|WEB Address:      www.autodesk.com"
 90
    32768
280
     0
281
     0
  0
CLASS
  1
TABLESTYLE
  2
AcDbTableStyle
  3
ObjectDBX Classes
 90
     2047
280
     0
281
     0
  0
CLASS
  1
SORTENTSTABLE
  2
AcDbSortentsTable
  3
ObjectDBX Classes
 90
        0
280
     0
281
     0
  0
ENDSEC
  0
SECTION
  2
TABLES
  0
TABLE
  2
VPORT
  5
8
330
0
100
AcDbSymbolTable
 70
     9
  0
VPORT
  5
1358
330
8
100
AcDbSymbolTableRecord
100
AcDbViewportTableRecord
  2
*Active
 70
     0
 10
0.0
 20
0.0
 11
1.0
 21
1.0
 12
5235.597075204692
 22
1854.437003413613
 13
0.0
 23
0.0
 14
10.0
 24
10.0
 15
10.0
 25
10.0
 16
0.0
 26
0.0
 36
1.0
 17
0.0
 27
0.0
 37
0.0
 40
2.273162616042012
 41
1.602030456852791
 42
50.0
 43
0.0
 44
0.0
 50
0.0
 51
0.0
 71
     0
 72
   100
 73
     1
 74
     2
 75
     0
 76
     0
 77
     0
 78
     0
281
     0
 65
     1
110
0.0
120
0.0
130
0.0
111
1.0
121
0.0
131
0.0
112
0.0
122
1.0
132
0.0
 79
     0
146
0.0
  0
ENDTAB
  0
TABLE
  2
LTYPE
  5
5
330
0
100
AcDbSymbolTable
 70
     5
  0
LTYPE
  5
14
330
5
100
AcDbSymbolTableRecord
100
AcDbLinetypeTableRecord
  2
ByBlock
 70
     0
  3

 72
    65
 73
     0
 40
0.0
  0
LTYPE
  5
15
330
5
100
AcDbSymbolTableRecord
100
AcDbLinetypeTableRecord
  2
ByLayer
 70
     0
  3

 72
    65
 73
     0
 40
0.0
  0
LTYPE
  5
16
330
5
100
AcDbSymbolTableRecord
100
AcDbLinetypeTableRecord
  2
Continuous
 70
     0
  3
Solid line
 72
    65
 73
     0
 40
0.0
  0
LTYPE
  5
2D
330
5
100
AcDbSymbolTableRecord
100
AcDbLinetypeTableRecord
  2
DASHDOT
 70
     0
  3
Dash dot __ . __ . __ . __ . __ . __ . __ . __
 72
    65
 73
     4
 40
25.4
 49
12.7
 74
     0
 49
-6.349999999999999
 74
     0
 49
0.0
 74
     0
 49
-6.349999999999999
 74
     0
  0
LTYPE
  5
2E
330
5
100
AcDbSymbolTableRecord
100
AcDbLinetypeTableRecord
  2
HIDDEN
 70
     0
  3
Hidden __ __ __ __ __ __ __ __ __ __ __ __ __ _
 72
    65
 73
     2
 40
9.524999999999998
 49
6.349999999999999
 74
     0
 49
-3.174999999999999
 74
     0
  0
LTYPE
  5
C75
330
5
100
AcDbSymbolTableRecord
100
AcDbLinetypeTableRecord
  2
AM_ISO02W050
 70
     0
  3
__ __ __ __ __ __ __ __ __ __ __ __ __ __ __
 72
    65
 73
     2
 40
7.5
 49
6.0
 74
     0
 49
-1.5
 74
     0
  0
LTYPE
  5
C76
330
5
100
AcDbSymbolTableRecord
100
AcDbLinetypeTableRecord
  2
AM_ISO08W050
 70
     0
  3
____ . ____ . ____ . ____ . ____ . ____ . ____
 72
    65
 73
     4
 40
18.0
 49
12.0
 74
     0
 49
-1.5
 74
     0
 49
3.0
 74
     0
 49
-1.5
 74
     0
  0
ENDTAB
  0
TABLE
  2
LAYER
  5
2
102
{ACAD_XDICTIONARY
360
1051
102
}
330
0
100
AcDbSymbolTable
 70
    18
  0
LAYER
  5
10
330
2
100
AcDbSymbolTableRecord
100
AcDbLayerTableRecord
  2
0
 70
     0
 62
     7
  6
Continuous
370
    -3
390
F
  0
LAYER
  5
2F
330
2
100
AcDbSymbolTableRecord
100
AcDbLayerTableRecord
  2
1
 70
     0
 62
     1
  6
Continuous
370
    -3
390
F
  0
LAYER
  5
30
330
2
100
AcDbSymbolTableRecord
100
AcDbLayerTableRecord
  2
2
 70
     0
 62
     2
  6
Continuous
370
    -3
390
F
  0
LAYER
  5
31
330
2
100
AcDbSymbolTableRecord
100
AcDbLayerTableRecord
  2
3
 70
     0
 62
     3
  6
Continuous
370
    -3
390
F
  0
LAYER
  5
32
330
2
100
AcDbSymbolTableRecord
100
AcDbLayerTableRecord
  2
4
 70
     0
 62
     4
  6
Continuous
370
    -3
390
F
  0
LAYER
  5
33
330
2
100
AcDbSymbolTableRecord
100
AcDbLayerTableRecord
  2
5
 70
     0
 62
     5
  6
Continuous
370
    -3
390
F
  0
LAYER
  5
34
330
2
100
AcDbSymbolTableRecord
100
AcDbLayerTableRecord
  2
6
 70
     0
 62
     6
  6
Continuous
370
    -3
390
F
  0
LAYER
  5
35
330
2
100
AcDbSymbolTableRecord
100
AcDbLayerTableRecord
  2
7
 70
     0
 62
     7
  6
Continuous
370
    -3
390
F
  0
LAYER
  5
36
330
2
100
AcDbSymbolTableRecord
100
AcDbLayerTableRecord
  2
cen
 70
     0
 62
     7
  6
DASHDOT
370
    -3
390
F
  0
LAYER
  5
37
330
2
100
AcDbSymbolTableRecord
100
AcDbLayerTableRecord
  2
hid
 70
     0
 62
     7
  6
HIDDEN
370
    -3
390
F
  0
LAYER
  5
5D6
330
2
100
AcDbSymbolTableRecord
100
AcDbLayerTableRecord
  2
hatch
 70
     0
 62
     9
  6
Continuous
370
    -3
390
F
  0
LAYER
  5
8AF
330
2
100
AcDbSymbolTableRecord
100
AcDbLayerTableRecord
  2
9
 70
     0
 62
     9
  6
Continuous
370
    -3
390
F
  0
LAYER
  5
8F8
330
2
100
AcDbSymbolTableRecord
100
AcDbLayerTableRecord
  2
leg fin
 70
     0
 62
     9
  6
Continuous
370
    -3
390
F
  0
LAYER
  5
91D
330
2
100
AcDbSymbolTableRecord
100
AcDbLayerTableRecord
  2
cotas
 70
     0
 62
     1
  6
Continuous
370
    -3
390
F
  0
LAYER
  5
92F
330
2
100
AcDbSymbolTableRecord
100
AcDbLayerTableRecord
  2
Defpoints
 70
     0
 62
     7
  6
Continuous
290
     0
370
    -3
390
F
  0
LAYER
  5
C7B
330
2
100
AcDbSymbolTableRecord
100
AcDbLayerTableRecord
  2
SANINDUSA
 70
     0
 62
     3
  6
Continuous
370
    -3
390
F
  0
LAYER
  5
1060
330
2
100
AcDbSymbolTableRecord
100
AcDbLayerTableRecord
  2
hid1
 70
     0
 62
     9
  6
HIDDEN
370
    -3
390
F
1001
AcAecLayerStandard
1000

1000

  0
LAYER
  5
1319
330
2
100
AcDbSymbolTableRecord
100
AcDbLayerTableRecord
  2
BLOCKS
 70
     0
 62
     3
  6
Continuous
370
    -3
390
F
  0
ENDTAB
  0
TABLE
  2
STYLE
  5
3
330
0
100
AcDbSymbolTable
 70
     6
  0
STYLE
  5
11
330
3
100
AcDbSymbolTableRecord
100
AcDbTextStyleTableRecord
  2
Standard
 70
     0
 40
0.0
 41
1.0
 50
0.0
 71
     0
 42
2.5
  3
Avgardn.ttf
  4

1001
ACAD
1000
AvantGarde Bk BT
1071
       34
  0
STYLE
  5
2C
330
3
100
AcDbSymbolTableRecord
100
AcDbTextStyleTableRecord
  2

 70
     1
 40
0.0
 41
1.0
 50
0.0
 71
     0
 42
2.5
  3
ltypeshp.shx
  4

  0
STYLE
  5
91F
330
3
100
AcDbSymbolTableRecord
100
AcDbTextStyleTableRecord
  2
SANINDUSA
 70
     0
 40
0.0
 41
1.0
 50
0.0
 71
     0
 42
2.5
  3
verdana.TTF
  4

1001
ACAD
1000
Verdana
1071
       34
  0
STYLE
  5
C7C
330
3
100
AcDbSymbolTableRecord
100
AcDbTextStyleTableRecord
  2
futura
 70
     0
 40
0.0
 41
1.0
 50
0.0
 71
     0
 42
2.5
  3
ZURCHN.TTF
  4

1001
ACAD
1000
Zurich BT
1071
       34
  0
STYLE
  5
131A
330
3
100
AcDbSymbolTableRecord
100
AcDbTextStyleTableRecord
  2
LEG-ATT
 70
     0
 40
2.0
 41
0.8
 50
0.0
 71
     0
 42
2.0
  3
ARIAL.TTF
  4

1001
ACAD
1000
Arial
1071
       34
  0
ENDTAB
  0
TABLE
  2
VIEW
  5
6
330
0
100
AcDbSymbolTable
 70
     0
  0
ENDTAB
  0
TABLE
  2
UCS
  5
7
330
0
100
AcDbSymbolTable
 70
     0
  0
ENDTAB
  0
TABLE
  2
APPID
  5
9
330
0
100
AcDbSymbolTable
 70
    11
  0
APPID
  5
12
330
9
100
AcDbSymbolTableRecord
100
AcDbRegAppTableRecord
  2
ACAD
 70
     0
  0
APPID
  5
3A
330
9
100
AcDbSymbolTableRecord
100
AcDbRegAppTableRecord
  2
DCO15
 70
     0
  0
APPID
  5
EEE
330
9
100
AcDbSymbolTableRecord
100
AcDbRegAppTableRecord
  2
ACAD_DSTYLE_DIMTEXT_FILL
 70
     0
  0
APPID
  5
EEF
330
9
100
AcDbSymbolTableRecord
100
AcDbRegAppTableRecord
  2
ACAD_DSTYLE_DIMEXT_LENGTH
 70
     0
  0
APPID
  5
EF0
330
9
100
AcDbSymbolTableRecord
100
AcDbRegAppTableRecord
  2
ACAD_DSTYLE_DIMEXT_ENABLED
 70
     0
  0
APPID
  5
EF1
330
9
100
AcDbSymbolTableRecord
100
AcDbRegAppTableRecord
  2
ACAD_DSTYLE_DIM_LINETYPE
 70
     0
  0
APPID
  5
EF2
330
9
100
AcDbSymbolTableRecord
100
AcDbRegAppTableRecord
  2
ACAD_DSTYLE_DIM_EXT1_LINETYPE
 70
     0
  0
APPID
  5
EF3
330
9
100
AcDbSymbolTableRecord
100
AcDbRegAppTableRecord
  2
ACAD_DSTYLE_DIM_EXT2_LINETYPE
 70
     0
  0
APPID
  5
FAF
330
9
100
AcDbSymbolTableRecord
100
AcDbRegAppTableRecord
  2
ACAD_DSTYLE_DIMJOGGED_JOGANGLE_SYMBOL
 70
     0
  0
APPID
  5
1013
330
9
100
AcDbSymbolTableRecord
100
AcDbRegAppTableRecord
  2
ACAD_DSTYLE_DIMARC_LENGTH_SYMBOL
 70
     0
  0
APPID
  5
1061
330
9
100
AcDbSymbolTableRecord
100
AcDbRegAppTableRecord
  2
AcAecLayerStandard
 70
     0
  0
ENDTAB
  0
TABLE
  2
DIMSTYLE
  5
A
330
0
100
AcDbSymbolTable
 70
     5
100
AcDbDimStyleTable
 71
     1
340
921
  0
DIMSTYLE
105
45
330
A
100
AcDbSymbolTableRecord
100
AcDbDimStyleTableRecord
  2
STANDARD
 70
     0
289
     0
340
11
  0
DIMSTYLE
105
921
330
A
100
AcDbSymbolTableRecord
100
AcDbDimStyleTableRecord
  2
SANINDUSA
 70
     0
 41
2.0
 42
1.0
 43
1.0
 44
1.0
 73
     0
 74
     0
 77
     1
 78
     8
140
2.0
141
0.0
143
0.03937007874016
147
1.0
171
     3
172
     1
176
   256
177
   256
178
   256
179
     1
271
     1
272
     1
274
     3
278
    44
283
     0
284
     8
340
91F
371
    -1
372
    -1
1001
ACAD_DSTYLE_DIMEXT_LENGTH
1070
   378
1040
1.0
1001
ACAD_DSTYLE_DIMEXT_ENABLED
1070
   383
1070
     0
1001
ACAD_DSTYLE_DIMARC_LENGTH_SYMBOL
1070
   379
1070
     0
1001
ACAD_DSTYLE_DIMJOGGED_JOGANGLE_SYMBOL
1070
   384
1040
1.570796326794896
  0
DIMSTYLE
105
C7D
330
A
100
AcDbSymbolTableRecord
100
AcDbDimStyleTableRecord
  2
AM_ISO
 70
     0
  4
"
 41
2.5
 42
1.0
 43
10.0
 44
1.0
 47
0.1
 48
0.1
 73
     0
 74
     0
 77
     1
 78
     8
 79
     2
140
3.5
141
0.0
143
0.0393701
146
0.71
147
1.5
172
     1
176
   256
177
   256
178
     2
271
     2
272
     3
274
     4
283
     0
284
     8
340
11
371
    -1
372
    -1
  0
DIMSTYLE
105
1070
330
A
100
AcDbSymbolTableRecord
100
AcDbDimStyleTableRecord
  2
ISO-25
 70
     0
 41
2.5
 42
0.625
 43
3.75
 44
1.25
 73
     0
 74
     0
 77
     1
 78
     8
140
2.5
141
2.5
143
0.03937007874016
147
0.625
171
     3
172
     1
271
     2
272
     2
274
     3
278
    44
283
     0
284
     8
340
11
  0
ENDTAB
  0
TABLE
  2
BLOCK_RECORD
  5
1
330
0
100
AcDbSymbolTable
 70
    10
  0
BLOCK_RECORD
  5
1F
330
1
100
AcDbSymbolTableRecord
100
AcDbBlockTableRecord
  2
*Model_Space
340
22
  0
BLOCK_RECORD
  5
1B
330
1
100
AcDbSymbolTableRecord
100
AcDbBlockTableRecord
  2
*Paper_Space
340
1E
  0
BLOCK_RECORD
  5
23
330
1
100
AcDbSymbolTableRecord
100
AcDbBlockTableRecord
  2
*Paper_Space0
340
26
  0
BLOCK_RECORD
  5
919
330
1
100
AcDbSymbolTableRecord
100
AcDbBlockTableRecord
  2
_DotSmall
340
0
  0
BLOCK_RECORD
  5
922
330
1
100
AcDbSymbolTableRecord
100
AcDbBlockTableRecord
  2
base para cotas
340
0
310
2800000020000000200000000100080000000000000400000000000000000000000000000000000000000000000080000080000000808000800000008000800080800000C0C0C000C0DCC000F0CAA6000020400000206000002080000020A0000020C0000020E00000400000004020000040400000406000004080000040A0
310
000040C0000040E00000600000006020000060400000606000006080000060A0000060C0000060E00000800000008020000080400000806000008080000080A0000080C0000080E00000A0000000A0200000A0400000A0600000A0800000A0A00000A0C00000A0E00000C0000000C0200000C0400000C0600000C0800000C0
310
A00000C0C00000C0E00000E0000000E0200000E0400000E0600000E0800000E0A00000E0C00000E0E00040000000400020004000400040006000400080004000A0004000C0004000E00040200000402020004020400040206000402080004020A0004020C0004020E000404000004040200040404000404060004040800040
310
40A0004040C0004040E00040600000406020004060400040606000406080004060A0004060C0004060E00040800000408020004080400040806000408080004080A0004080C0004080E00040A0000040A0200040A0400040A0600040A0800040A0A00040A0C00040A0E00040C0000040C0200040C0400040C0600040C08000
310
40C0A00040C0C00040C0E00040E0000040E0200040E0400040E0600040E0800040E0A00040E0C00040E0E00080000000800020008000400080006000800080008000A0008000C0008000E00080200000802020008020400080206000802080008020A0008020C0008020E00080400000804020008040400080406000804080
310
008040A0008040C0008040E00080600000806020008060400080606000806080008060A0008060C0008060E00080800000808020008080400080806000808080008080A0008080C0008080E00080A0000080A0200080A0400080A0600080A0800080A0A00080A0C00080A0E00080C0000080C0200080C0400080C0600080C0
310
800080C0A00080C0C00080C0E00080E0000080E0200080E0400080E0600080E0800080E0A00080E0C00080E0E000C0000000C0002000C0004000C0006000C0008000C000A000C000C000C000E000C0200000C0202000C0204000C0206000C0208000C020A000C020C000C020E000C0400000C0402000C0404000C0406000C0
310
408000C040A000C040C000C040E000C0600000C0602000C0604000C0606000C0608000C060A000C060C000C060E000C0800000C0802000C0804000C0806000C0808000C080A000C080C000C080E000C0A00000C0A02000C0A04000C0A06000C0A08000C0A0A000C0A0C000C0A0E000C0C00000C0C02000C0C04000C0C06000
310
C0C08000C0C0A000F0FBFF00A4A0A000808080000000FF0000FF000000FFFF00FF000000FF00FF00FFFF0000FFFFFF00A4A4A4A4A4A4A4A4A4A4A4A4A4A4A4A4A4A4A4A4A4A4A4A4A4A4A4A4A4A4A4A4A4A4A4A4A4A4A4A4A4A4A4A4A4A4A4A4A4A4A4A4A4A4A4A4A4A4A4A4A4A4A4A4A4A4A4A4A4A4A4A4A4A4A4A4A4A4A4
310
A4A4A4A4A4A4A4A4A4A4A4A4A4A4A4A4A4A4A4A4A4A4A4A4A4A4A4A4A4A4A4A4A4A4A4A4A4A4A4A4A4A4A4A4A4A4A4A4A4A4A4A4A4A4A4A4A4A4A4A4A4A4A4A4A4A4A4A4A4A4A4A4A4A4A4A4A4A4A4A4A4A4A4A4A4A4A4A4A4A4A4A4A4A4A4A4A4A4A4A4A4A4A4A4A4A4A4A4A4A4A4A4A4A4A4A4A4A4A4A4A4A4A4A4A4A4A4
310
A4A4A4A4A4A4A4A4A4A4A4A4A4A4A4A4A4A4A4A4A4A4A4A4A4A4A4A4A4A4A4A4A4A4A4A4A4A4A4A4A4A4A4A4A4A4A4A4A4A4A4A4A4A4A4A4A4A4A4A4A4A4A4A4A4A4A4A4A4A4A4A4A4A4A4A4A4A4A4A4A4A4A4A4A4A4A4A4A4A4A4A4A4A4A4A4A4A4A4A4A4A4A4A4A4A4A4A4A4A4A4A4A4A4A4A4A4A4A4A4A4A4A4A4A4A4A4
310
A4A4A4A4A4A4A4A4A4A4A4A4A4A4A4A4A4A4A4A4A4A4A4A4A4A4A4A4A4A4A4A4A4A4A4A4A4A4A4A4A4A4A4A4A4A4A4A4A4A4A4A4A4A4A4A4A4A4A4A4A4A4A4A4A4A4A4A4A4A4A4A4A4A4A4A4A4A4A4A4A4A4A4A4A4A4A4A4A4A4A4A4A4A4A4A4A4A4A4A4A4A4A4A4A4A4A4A4A4A4A4A4A4A4A4A4F9F9F9F9F9F9F9F9F9F9F9
310
F9F9F9F9F9F9F9F9F9F9F9F9F9F9F9F9F9F9F9A4A4F9F9F9F9F9F9F9F9F9F9F9F9F9F9F9F9F9F9F9F9F9F9F9F9F9F9F9F9F9F9A4A4F9F9F9F9F9F9F9F9F9F9F9F9F9F9F9F9F9F9F9F9F9F9F9F9F9F9F9F9F9F9A4A4F9A4A4A4A4A4A4A4A4A4A4A4A4A4A4A4A4A4A4A4A4A4A4A4A4A4A4A4A4F9A4A4A4A4A4A4A4A4A4A4A4A4
310
A4A4A4A4A4A4A4A4A4A4A4A4A4A4A4A4A4A4A4A4A4A4A4A4A4A4A4A4A4A4A4A4A4A4A4A4A4A4A4A4A4A4A4A4A4A4A4A4A4A4A4A4A4A4A4A4A4A4A4A4A4A4A4A4A4A4A4A4A4A4A4A4A4A4A4A4A4A4A4A4A4A4A4A4A4A4A4A4A4A4A4A4A4A4A4A4A4A4A4A4A4A4A4A4A4A4A4A4A4A4A4A4A4A4A4A4A4A4A4A4A4A4A4A4A4A4A4
310
A4A4A4A4A4A4A4A4A4A4A4A4A4A4A4A4A4A4A4A4A4A4A4A4A4A4A4A4A4A4A4A4A4A4A4A4A4A4A4A4A4A4A4A4A4A4A4A4A4A4A4A4A4A4A4A4A4A4A4A4A4A4A4A4A4A4A4A4A4A4A4A4A4A4A4A4A4A4A4A4A4A4A4A4A4A4A4A4A4A4A4A4A4A4A4A4A4A4A4A4A4A4A4A4A4A4A4A4A4A4A4A4A4A4A4A4A4A4A4A4A4A4A4A4A4A4A4
310
A4A4A4A4A4A4A4A4A4A4A4A4A4A4A4A4A4A4A4A4A4A4A4A4A4A4A4A4A4A4A4A4A4A4A4A4A4A4A4A4A4A4A4A4A4A4A4A4A4A4A4A4A4A4A4A4A4A4A4A4A4A4A4A4A4A4A4A4A4A4A4A4A4A4A4A4A4A4A4A4A4A4A4A4A4A4A4A4A4A4A4A4A4A4A4A4A4A4A4A4A4A4A4A4A4A4A4A4A4A4A4A4A4A4A4A4A4A4A4A4A4A4A4A4A4A4A4
310
A4A4A4A4A4A4A4A4A4A4A4A4A4A4A4A4A4A4A4A4A4A4A4A4A4A4A4A4A4A4A4A4A4A4A4A4A4A4A4A4A4A4A4A4A4A4A4A4A4A4A4A4A4A4A4A4
1001
ACAD
1000
DesignCenter Data
1002
{
1070
     1
1070
     4
1002
}
  0
BLOCK_RECORD
  5
AA8
330
1
100
AcDbSymbolTableRecord
100
AcDbBlockTableRecord
  2
_CLOSED
340
0
  0
BLOCK_RECORD
  5
B79
330
1
100
AcDbSymbolTableRecord
100
AcDbBlockTableRecord
  2
nota revisoes
340
0
1001
ACAD
1000
DesignCenter Data
1002
{
1070
     1
1070
     4
1002
}
  0
BLOCK_RECORD
  5
B8E
330
1
100
AcDbSymbolTableRecord
100
AcDbBlockTableRecord
  2
a3l
340
0
1001
ACAD
1000
DesignCenter Data
1002
{
1070
     1
1070
     4
1002
}
  0
BLOCK_RECORD
  5
B9E
330
1
100
AcDbSymbolTableRecord
100
AcDbBlockTableRecord
  2
legenda desenvolvimento
340
0
1001
ACAD
1000
DesignCenter Data
1002
{
1070
     1
1070
     4
1002
}
  0
BLOCK_RECORD
  5
131B
330
1
100
AcDbSymbolTableRecord
100
AcDbBlockTableRecord
  2
118780AL
340
0
102
{BLKREFS
331
133E
102
}
1001
ACAD
1000
DesignCenter Data
1002
{
1070
     1
1070
     4
1002
}
  0
ENDTAB
  0
ENDSEC
  0
SECTION
  2
BLOCKS
  0
BLOCK
  5
20
330
1F
100
AcDbEntity
  8
0
100
AcDbBlockBegin
  2
*Model_Space
 70
     0
 10
0.0
 20
0.0
 30
0.0
  3
*Model_Space
  1

  0
ENDBLK
  5
21
330
1F
100
AcDbEntity
  8
0
100
AcDbBlockEnd
  0
BLOCK
  5
1C
330
1B
100
AcDbEntity
 67
     1
  8
0
100
AcDbBlockBegin
  2
*Paper_Space
 70
     0
 10
0.0
 20
0.0
 30
0.0
  3
*Paper_Space
  1

  0
ENDBLK
  5
1D
330
1B
100
AcDbEntity
 67
     1
  8
0
100
AcDbBlockEnd
  0
BLOCK
  5
24
330
23
100
AcDbEntity
 67
     1
  8
0
100
AcDbBlockBegin
  2
*Paper_Space0
 70
     0
 10
0.0
 20
0.0
 30
0.0
  3
*Paper_Space0
  1

  0
ENDBLK
  5
25
330
23
100
AcDbEntity
 67
     1
  8
0
100
AcDbBlockEnd
  0
BLOCK
  5
91B
330
919
100
AcDbEntity
  8
0
100
AcDbBlockBegin
  2
_DotSmall
 70
     0
 10
0.0
 20
0.0
 30
0.0
  3
_DotSmall
  1

  0
LWPOLYLINE
  5
91A
330
919
100
AcDbEntity
  8
0
  6
ByBlock
 62
     0
100
AcDbPolyline
 90
        2
 70
     1
 43
0.5
 10
-0.0625
 20
0.0
 42
1.0
 10
0.0625
 20
0.0
 42
1.0
  0
ENDBLK
  5
91C
330
919
100
AcDbEntity
  8
0
100
AcDbBlockEnd
  0
BLOCK
  5
92A
330
922
100
AcDbEntity
  8
0
100
AcDbBlockBegin
  2
base para cotas
 70
     0
 10
0.0
 20
0.0
 30
0.0
  3
base para cotas
  1

  0
LINE
  5
B36
330
922
100
AcDbEntity
  8
cotas
100
AcDbLine
 10
0.0
 20
-30.0
 30
0.0
 11
327.1260136525398
 21
-30.0
 31
0.0
  0
LINE
  5
B37
330
922
100
AcDbEntity
  8
cotas
100
AcDbLine
 10
0.0
 20
-25.0
 30
0.0
 11
327.1260136525398
 21
-25.0
 31
0.0
  0
LINE
  5
B38
330
922
100
AcDbEntity
  8
cotas
100
AcDbLine
 10
0.0
 20
-20.0
 30
0.0
 11
327.1260136525398
 21
-20.0
 31
0.0
  0
LINE
  5
B39
330
922
100
AcDbEntity
  8
cotas
100
AcDbLine
 10
0.0
 20
-15.0
 30
0.0
 11
327.1260136525398
 21
-15.0
 31
0.0
  0
LINE
  5
B3A
330
922
100
AcDbEntity
  8
cotas
100
AcDbLine
 10
0.0
 20
-10.0
 30
0.0
 11
327.1260136525398
 21
-10.0
 31
0.0
  0
LINE
  5
B3B
330
922
100
AcDbEntity
  8
cotas
100
AcDbLine
 10
0.0
 20
0.0
 30
0.0
 11
0.0
 21
-30.0
 31
0.0
  0
LINE
  5
B3C
330
922
100
AcDbEntity
  8
cotas
100
AcDbLine
 10
327.1260136525398
 20
-30.0
 30
0.0
 11
327.1260136525398
 21
0.0
 31
0.0
  0
ENDBLK
  5
92B
330
922
100
AcDbEntity
  8
0
100
AcDbBlockEnd
  0
BLOCK
  5
AAD
330
AA8
100
AcDbEntity
  8
0
100
AcDbBlockBegin
  2
_CLOSED
 70
     0
 10
0.0
 20
0.0
 30
0.0
  3
_CLOSED
  1

  0
LINE
  5
AA9
330
AA8
100
AcDbEntity
  8
0
100
AcDbLine
 10
-1.0
 20
0.166667
 30
0.0
 11
0.0
 21
0.0
 31
0.0
  0
LINE
  5
AAA
330
AA8
100
AcDbEntity
  8
0
100
AcDbLine
 10
0.0
 20
0.0
 30
0.0
 11
-1.0
 21
-0.166667
 31
0.0
  0
LINE
  5
AAB
330
AA8
100
AcDbEntity
  8
0
100
AcDbLine
 10
-1.0
 20
0.166667
 30
0.0
 11
-1.0
 21
-0.166667
 31
0.0
  0
LINE
  5
AAC
330
AA8
100
AcDbEntity
  8
0
100
AcDbLine
 10
0.0
 20
0.0
 30
0.0
 11
-1.0
 21
0.0
 31
0.0
  0
ENDBLK
  5
AAE
330
AA8
100
AcDbEntity
  8
0
100
AcDbBlockEnd
  0
BLOCK
  5
B7C
330
B79
100
AcDbEntity
  8
0
100
AcDbBlockBegin
  2
nota revisoes
 70
     0
 10
0.0
 20
0.0
 30
0.0
  3
nota revisoes
  1

  0
CIRCLE
  5
B7A
330
B79
100
AcDbEntity
  8
4
100
AcDbCircle
 10
0.0
 20
0.0
 30
0.0
 40
13.69426055101189
  0
TEXT
  5
B7B
330
B79
100
AcDbEntity
  8
4
100
AcDbText
 10
-5.496248358154345
 20
-5.354545554066362
 30
0.0
 40
12.0
  1
1
  7
SANINDUSA
 72
     1
 11
-0.249774214433728
 21
-5.354545554066362
 31
0.0
100
AcDbText
  0
ENDBLK
  5
B7D
330
B79
100
AcDbEntity
  8
0
100
AcDbBlockEnd
  0
BLOCK
  5
B9C
330
B8E
100
AcDbEntity
  8
0
100
AcDbBlockBegin
  2
a3l
 70
     0
 10
0.0
 20
0.0
 30
0.0
  3
a3l
  1

  0
LINE
  5
B8F
330
B8E
100
AcDbEntity
  8
1
100
AcDbLine
 10
-364.2925296599447
 20
-362.1188951399395
 30
0.0
 11
-364.2925296599447
 21
-65.11889513993946
 31
0.0
  0
LINE
  5
B90
330
B8E
100
AcDbEntity
  8
4
100
AcDbLine
 10
-369.2925296599447
 20
-357.1188951399395
 30
0.0
 11
-369.2925296599447
 21
-70.11889513993946
 31
0.0
  0
LINE
  5
B91
330
B8E
100
AcDbEntity
  8
1
100
AcDbLine
 10
-784.2925296599446
 20
-65.11889513993946
 30
0.0
 11
-784.2925296599446
 21
-362.1188951399395
 31
0.0
  0
LINE
  5
B92
330
B8E
100
AcDbEntity
  8
4
100
AcDbLine
 10
-759.2925296599446
 20
-357.1188951399395
 30
0.0
 11
-759.2925296599446
 21
-70.11889513993946
 31
0.0
  0
LINE
  5
B93
330
B8E
100
AcDbEntity
  8
1
100
AcDbLine
 10
-784.2925296599446
 20
-362.1188951399395
 30
0.0
 11
-364.2925296599447
 21
-362.1188951399395
 31
0.0
  0
LINE
  5
B94
330
B8E
100
AcDbEntity
  8
4
100
AcDbLine
 10
-759.2925296599446
 20
-357.1188951399395
 30
0.0
 11
-369.2925296599447
 21
-357.1188951399395
 31
0.0
  0
LINE
  5
B95
330
B8E
100
AcDbEntity
  8
1
100
AcDbLine
 10
-654.2925296599446
 20
-357.1188951399395
 30
0.0
 11
-654.2925296599446
 21
-362.1188951399395
 31
0.0
  0
LINE
  5
B96
330
B8E
100
AcDbEntity
  8
1
100
AcDbLine
 10
-364.2925296599447
 20
-65.11889513993946
 30
0.0
 11
-784.2925296599446
 21
-65.11889513993946
 31
0.0
  0
LINE
  5
B97
330
B8E
100
AcDbEntity
  8
4
100
AcDbLine
 10
-369.2925296599447
 20
-70.11889513993946
 30
0.0
 11
-759.2925296599446
 21
-70.11889513993946
 31
0.0
  0
LINE
  5
B98
330
B8E
100
AcDbEntity
  8
1
100
AcDbLine
 10
-654.2925296599446
 20
-65.11889513993946
 30
0.0
 11
-654.2925296599446
 21
-70.11889513993946
 31
0.0
  0
LINE
  5
B99
330
B8E
100
AcDbEntity
  8
1
100
AcDbLine
 10
-549.2925296599446
 20
-70.11889513993946
 30
0.0
 11
-549.2925296599446
 21
-65.11889513993946
 31
0.0
  0
LINE
  5
B9A
330
B8E
100
AcDbEntity
  8
1
100
AcDbLine
 10
-369.2925296599447
 20
-65.11889513993946
 30
0.0
 11
-364.2925296599447
 21
-65.11889513993946
 31
0.0
  0
LINE
  5
B9B
330
B8E
100
AcDbEntity
  8
1
100
AcDbLine
 10
-549.2925296599446
 20
-357.1188951399395
 30
0.0
 11
-549.2925296599446
 21
-362.1188951399395
 31
0.0
  0
ENDBLK
  5
B9D
330
B8E
100
AcDbEntity
  8
0
100
AcDbBlockEnd
  0
BLOCK
  5
C13
330
B9E
100
AcDbEntity
  8
0
100
AcDbBlockBegin
  2
legenda desenvolvimento
 70
     2
 10
0.0
 20
0.0
 30
0.0
  3
legenda desenvolvimento
  1

  0
ATTDEF
  5
B9F
330
B9E
100
AcDbEntity
  8
1
100
AcDbText
 10
-108.606245802552
 20
55.5
 30
0.0
 40
4.0
  1
XXXXXXXXXXXXXX
 41
0.8
  7
SANINDUSA
 72
     4
 11
-87.5
 21
57.5
 31
0.0
100
AcDbAttributeDefinition
  3
Nome do Produto:
  2
PRODUTO
 70
     0
  0
ATTDEF
  5
BA0
330
B9E
100
AcDbEntity
  8
1
100
AcDbText
 10
-97.9997966101695
 20
41.25
 30
0.0
 40
3.0
  1
XXXXXXXXX
 41
0.8
  7
futura
 72
     4
 11
-87.5
 21
42.75
 31
0.0
100
AcDbAttributeDefinition
  3
Nome da Peça:
  2
PECA
 70
     0
  0
ATTDEF
  5
BA1
330
B9E
100
AcDbEntity
  8
1
100
AcDbText
 10
-133.4422431161853
 20
21.11745296763252
 30
0.0
 40
2.5
  1
X
 41
0.8
  7
SANINDUSA
 72
     4
 11
-132.5
 21
22.36745296763252
 31
0.0
100
AcDbAttributeDefinition
  3
Cod. TESTE:
  2
TESTE
 70
     0
  0
ATTDEF
  5
BA2
330
B9E
100
AcDbEntity
  8
1
100
AcDbText
 10
-124.3844862323707
 20
21.11745296763252
 30
0.0
 40
2.5
  1
XX
 41
0.8
  7
SANINDUSA
 72
     4
 11
-122.5
 21
22.36745296763252
 31
0.0
100
AcDbAttributeDefinition
  3
Cod. Ano:
  2
ANO
 70
     0
  0
ATTDEF
  5
BA3
330
B9E
100
AcDbEntity
  8
1
100
AcDbText
 10
-112.526889953052
 20
21.11745296763252
 30
0.0
 40
2.5
  1
XXX
 41
0.8
  7
SANINDUSA
 72
     4
 11
-109.700160604496
 21
22.36745296763252
 31
0.0
100
AcDbAttributeDefinition
  3
Cod. Sequência:
  2
SEQUENCIA
 70
     0
  0
ATTDEF
  5
BA4
330
B9E
100
AcDbEntity
  8
1
100
AcDbText
 10
-99.35382430979316
 20
21.11745296763252
 30
0.0
 40
2.5
  1
XX
 41
0.8
  7
SANINDUSA
 72
     4
 11
-97.46933807742244
 21
22.36745296763252
 31
0.0
100
AcDbAttributeDefinition
  3
Cod. Tipo:
  2
TIPO
 70
     0
  0
ATTDEF
  5
BA5
330
B9E
100
AcDbEntity
  8
1
100
AcDbText
 10
-87.42035911468438
 20
21.11745296763252
 30
0.0
 40
2.5
  1
XXX
 41
0.8
  7
SANINDUSA
 72
     4
 11
-84.59362976612828
 21
22.36745296763252
 31
0.0
100
AcDbAttributeDefinition
  3
Cod. Produto:
  2
PRODUTO
 70
     0
  0
ATTDEF
  5
BA6
330
B9E
100
AcDbEntity
  8
1
100
AcDbText
 10
-74.62051971917853
 20
21.11745296763252
 30
0.0
 40
2.5
  1
XXX
 41
0.8
  7
SANINDUSA
 72
     4
 11
-71.79379037062244
 21
22.36745296763252
 31
0.0
100
AcDbAttributeDefinition
  3
Cod. Peça:
  2
PECA
 70
     0
  0
ATTDEF
  5
BA7
330
B9E
100
AcDbEntity
  8
1
100
AcDbText
 10
-61.10603446650329
 20
21.11745296763252
 30
0.0
 40
2.5
  1
XX
 41
0.8
  7
SANINDUSA
 72
     4
 11
-59.22154823413257
 21
22.36745296763252
 31
0.0
100
AcDbAttributeDefinition
  3
Cod. Revisão:
  2
REV
 70
     0
  0
ATTDEF
  5
BA8
330
B9E
100
AcDbEntity
  8
1
100
AcDbText
 10
-48.43615325006194
 20
21.11745296763252
 30
0.0
 40
2.5
  1
XX
 41
0.8
  7
SANINDUSA
 72
     4
 11
-46.55166701769121
 21
22.36745296763252
 31
0.0
100
AcDbAttributeDefinition
  3
Cod. Alteração:
  2
ALT
 70
     0
  0
ATTDEF
  5
BA9
330
B9E
100
AcDbEntity
  8
1
100
AcDbText
 10
-35.19086635325722
 20
23.98875083948959
 30
0.0
 40
3.0
  1
1/XXX
 41
0.8
  7
SANINDUSA
 72
     4
 11
-30.0
 21
25.25
 31
0.0
100
AcDbAttributeDefinition
  3
Escala geral:
  2
ESCALA
 70
     0
  0
ATTDEF
  5
BAA
330
B9E
100
AcDbEntity
  8
1
100
AcDbText
 10
-15.65345869711215
 20
23.75
 30
0.0
 40
3.0
  1
XXXXX
 41
0.8
  7
SANINDUSA
 72
     4
 11
-10.0
 21
25.25
 31
0.0
100
AcDbAttributeDefinition
  3
Folha:
  2
FOLHA
 70
     0
  0
ATTDEF
  5
BAB
330
B9E
100
AcDbEntity
  8
1
100
AcDbText
 10
-178.5146998822042
 20
56.9531347542807
 30
0.0
 40
2.0
  1
xx
 41
0.8
  7
SANINDUSA
 72
     4
 11
-177.2123493113513
 21
57.70330265219877
 31
0.0
100
AcDbAttributeDefinition
  3
revisão
  2
REV.
 70
     0
  0
ATTDEF
  5
BAC
330
B9E
100
AcDbEntity
  8
1
100
AcDbText
 10
-172.7849640077129
 20
56.9531347542807
 30
0.0
 40
2.0
  1
xx
 41
0.8
  7
SANINDUSA
 72
     4
 11
-171.48261343686
 21
57.70330265219877
 31
0.0
100
AcDbAttributeDefinition
  3
alteração
  2
ALT.
 70
     0
  0
ATTDEF
  5
BAD
330
B9E
100
AcDbEntity
  8
1
100
AcDbText
 10
-168.007199951307
 20
56.70330265219877
 30
0.0
 40
2.0
  1
xx/xx/xxxx
 41
0.8
  7
SANINDUSA
 11
-168.007199951307
 21
57.70330265219877
 31
0.0
100
AcDbAttributeDefinition
  3
data
  2
DATA
 70
     0
 74
     2
  0
ATTDEF
  5
BAE
330
B9E
100
AcDbEntity
  8
1
100
AcDbText
 10
-168.5396372253371
 20
13.15916722632639
 30
0.0
 40
2.0
  1
XX/XX/XXXX
 41
0.8
  7
SANINDUSA
 72
     4
 11
-161.5099528734231
 21
14.0
 31
0.0
100
AcDbAttributeDefinition
  3
Data projecto
  2
DATA_PROJ
 70
     0
  0
ATTDEF
  5
BAF
330
B9E
100
AcDbEntity
  8
1
100
AcDbText
 10
-150.8658110728766
 20
13.24983210208193
 30
0.0
 40
2.0
  1
xxxxxxxx
 41
0.8
  7
SANINDUSA
 72
     4
 11
-145.6564087894649
 21
14.0
 31
0.0
100
AcDbAttributeDefinition
  3
nome de quem projectou
  2
NOME
 70
     0
  0
ATTDEF
  5
BB0
330
B9E
100
AcDbEntity
  8
1
100
AcDbText
 10
-168.5396372253371
 20
9.159167226326394
 30
0.0
 40
2.0
  1
XX/XX/XXXX
 41
0.8
  7
SANINDUSA
 72
     4
 11
-161.5099528734231
 21
10.0
 31
0.0
100
AcDbAttributeDefinition
  3
Data desenhou
  2
DATA_DES
 70
     0
  0
ATTDEF
  5
BB1
330
B9E
100
AcDbEntity
  8
1
100
AcDbText
 10
-151.516986358303
 20
9.249832102081933
 30
0.0
 40
2.0
  1
xxxxxxxxx
 41
0.8
  7
SANINDUSA
 72
     4
 11
-145.6564087894649
 21
10.0
 31
0.0
100
AcDbAttributeDefinition
  3
nome
  2
NOME
 70
     0
  0
ATTDEF
  5
BB2
330
B9E
100
AcDbEntity
  8
1
100
AcDbText
 10
-127.2924214135946
 20
14.1979876583216
 30
0.0
 40
2.0
  1
Vitreous China
 41
0.8
  7
SANINDUSA
 72
     4
 11
-119.231709526422
 21
15.22216495852308
 31
0.0
100
AcDbAttributeDefinition
  3
Nome do Material:
  2
MATERIAL
 70
     0
  0
ATTDEF
  5
BB3
330
B9E
100
AcDbEntity
  8
1
100
AcDbText
 10
-103.1563452122093
 20
14.38019043949261
 30
0.0
 40
2.0
  1
Branco
 41
0.8
  7
SANINDUSA
 72
     4
 11
-99.33418268702462
 21
15.35937109765245
 31
0.0
100
AcDbAttributeDefinition
  3
cor da peça
  2
COR
 70
     0
  0
ATTDEF
  5
BB4
330
B9E
100
AcDbEntity
  8
1
100
AcDbText
 10
-116.7235057085292
 20
5.975822699798522
 30
0.0
 40
2.0
  1
Vidrado
 41
0.8
  7
SANINDUSA
 72
     4
 11
-112.5
 21
7.0
 31
0.0
100
AcDbAttributeDefinition
  3
Tipo de acabamento:
  2
ACABAMENTO
 70
     0
  0
ATTDEF
  5
BB5
330
B9E
100
AcDbEntity
  8
1
100
AcDbText
 10
-79.18527869967246
 20
16.65066409850533
 30
0.0
 40
2.0
  1
XXXXXXX
 41
0.8
  7
SANINDUSA
 72
     4
 11
-73.90871724903445
 21
17.65066409850533
 31
0.0
100
AcDbAttributeDefinition
  3
Normas
  2
NORMAS
 70
     0
  0
ATTDEF
  5
BB6
330
B9E
100
AcDbEntity
  8
1
100
AcDbText
 10
-30.55312290127603
 20
14.0
 30
0.0
 40
2.0
  1
XXXXXXXXXXXXXX
 41
0.8
  7
SANINDUSA
 72
     4
 11
-20.0
 21
15.0
 31
0.0
100
AcDbAttributeDefinition
  3
Substitui o desenho:
  2
SUBSTITUI
 70
     0
  0
ATTDEF
  5
BB7
330
B9E
100
AcDbEntity
  8
1
100
AcDbText
 10
-31.30691739422431
 20
6.0
 30
0.0
 40
2.0
  1
XXXXXXXXXXXXXXX
 41
0.8
  7
SANINDUSA
 72
     4
 11
-20.0
 21
7.0
 31
0.0
100
AcDbAttributeDefinition
  3
Substituido por:
  2
SUBSTITUIDO
 70
     0
  0
ATTDEF
  5
BB8
330
B9E
100
AcDbEntity
  8
1
100
AcDbText
 10
-110.0220608548302
 20
1.478208457928303
 30
0.0
 40
2.0
  1
XXXXXXXXXXXXXXXXXXXXXXXXXXXXXXXXXX
 41
0.8
  7
SANINDUSA
 11
-110.0220608548302
 21
2.478208457928303
 31
0.0
100
AcDbAttributeDefinition
  3
Localização do desenho:
  2
LOC-DWG
 70
     0
 74
     2
  0
LINE
  5
BB9
330
B9E
100
AcDbEntity
  8
3
100
AcDbLine
 10
-135.0
 20
4.0
 30
0.0
 11
0.0000000000004547
 21
4.0
 31
0.0
  0
LINE
  5
BBA
330
B9E
100
AcDbEntity
  8
3
100
AcDbLine
 10
-90.00000000000046
 20
12.0
 30
0.0
 11
-135.0
 21
12.0
 31
0.0
  0
LINE
  5
BBB
330
B9E
100
AcDbEntity
  8
3
100
AcDbLine
 10
-135.0
 20
32.5
 30
0.0
 11
-40.0
 21
32.5
 31
0.0
  0
TEXT
  5
BBC
330
B9E
100
AcDbEntity
  8
1
100
AcDbText
 10
-134.0
 20
1.25
 30
0.0
 40
2.0
  1
Localização do des.:
 41
0.8
  7
SANINDUSA
 11
-134.0
 21
2.25
 31
0.0
100
AcDbText
 73
     2
  0
LINE
  5
BBD
330
B9E
100
AcDbEntity
  8
3
100
AcDbLine
 10
-180.0
 20
65.0
 30
0.0
 11
0.0
 21
65.0
 31
0.0
  0
LINE
  5
BBE
330
B9E
100
AcDbEntity
  8
leg fin
100
AcDbLine
 10
-40.0
 20
25.05956924886846
 30
0.0
 11
-135.0
 21
25.05956924886846
 31
0.0
  0
LINE
  5
BBF
330
B9E
100
AcDbEntity
  8
leg fin
100
AcDbLine
 10
-40.0
 20
28.5
 30
0.0
 11
-135.0
 21
28.5
 31
0.0
  0
LINE
  5
BC0
330
B9E
100
AcDbEntity
  8
3
100
AcDbLine
 10
-135.0
 20
50.0
 30
0.0
 11
-40.0
 21
50.0
 31
0.0
  0
TEXT
  5
BC1
330
B9E
100
AcDbEntity
  8
1
100
AcDbText
 10
-134.0
 20
29.75
 30
0.0
 40
2.0
  1
Desenho nº:
 41
0.8
  7
SANINDUSA
 11
-134.0
 21
30.75
 31
0.0
100
AcDbText
 73
     2
  0
TEXT
  5
BC2
330
B9E
100
AcDbEntity
  8
1
100
AcDbText
 10
-134.0
 20
9.25
 30
0.0
 40
2.0
  1
Acabamento:
 41
0.8
  7
SANINDUSA
 11
-134.0
 21
10.25
 31
0.0
100
AcDbText
 73
     2
  0
LINE
  5
BC3
330
B9E
100
AcDbEntity
  8
3
100
AcDbLine
 10
-180.0
 20
20.0
 30
0.0
 11
0.0
 21
20.0
 31
0.0
  0
LINE
  5
BC4
330
B9E
100
AcDbEntity
  8
1
100
AcDbLine
 10
-174.5810776056337
 20
55.5
 30
0.0
 11
-174.5810776056337
 21
65.0
 31
0.0
  0
LINE
  5
BC5
330
B9E
100
AcDbEntity
  8
1
100
AcDbLine
 10
-168.9210461879161
 20
55.5
 30
0.0
 11
-168.9210461879161
 21
65.0
 31
0.0
  0
LINE
  5
BC6
330
B9E
100
AcDbEntity
  8
1
100
AcDbLine
 10
-154.0988595589306
 20
55.5
 30
0.0
 11
-154.0988595589306
 21
65.0
 31
0.0
  0
LINE
  5
BC7
330
B9E
100
AcDbEntity
  8
3
100
AcDbLine
 10
-180.0
 20
65.0
 30
0.0
 11
-180.0
 21
0.0
 31
0.0
  0
LINE
  5
BC8
330
B9E
100
AcDbEntity
  8
3
100
AcDbLine
 10
-135.0
 20
0.0
 30
0.0
 11
-135.0
 21
65.0
 31
0.0
  0
TEXT
  5
BC9
330
B9E
100
AcDbEntity
  8
1
100
AcDbText
 10
-179.0
 20
9.75
 30
0.0
 40
1.5
  1
Des.
 41
0.8
  7
SANINDUSA
 11
-179.0
 21
10.5
 31
0.0
100
AcDbText
 73
     2
  0
LINE
  5
BCA
330
B9E
100
AcDbEntity
  8
1
100
AcDbLine
 10
-168.9210461879161
 20
20.0
 30
0.0
 11
-168.9210461879161
 21
0.0
 31
0.0
  0
LINE
  5
BCB
330
B9E
100
AcDbEntity
  8
1
100
AcDbLine
 10
-154.0988595589306
 20
20.0
 30
0.0
 11
-154.0988595589306
 21
0.0
 31
0.0
  0
LINE
  5
BCC
330
B9E
100
AcDbEntity
  8
1
100
AcDbLine
 10
-180.0
 20
4.0
 30
0.0
 11
-135.0
 21
4.0
 31
0.0
  0
LINE
  5
BCD
330
B9E
100
AcDbEntity
  8
1
100
AcDbLine
 10
-180.0
 20
8.0
 30
0.0
 11
-135.0
 21
8.0
 31
0.0
  0
TEXT
  5
BCE
330
B9E
100
AcDbEntity
  8
1
100
AcDbText
 10
-179.0
 20
1.73257823687436
 30
0.0
 40
1.5
  1
Aprov.
 41
0.8
  7
SANINDUSA
 11
-179.0
 21
2.48257823687436
 31
0.0
100
AcDbText
 73
     2
  0
TEXT
  5
BCF
330
B9E
100
AcDbEntity
  8
1
100
AcDbText
 10
-179.0
 20
5.75
 30
0.0
 40
1.5
  1
Ver.
 41
0.8
  7
SANINDUSA
 11
-179.0
 21
6.5
 31
0.0
100
AcDbText
 73
     2
  0
LINE
  5
BD0
330
B9E
100
AcDbEntity
  8
1
100
AcDbLine
 10
-180.0
 20
16.0
 30
0.0
 11
-135.0
 21
16.0
 31
0.0
  0
LINE
  5
BD1
330
B9E
100
AcDbEntity
  8
1
100
AcDbLine
 10
-180.0
 20
12.0
 30
0.0
 11
-135.0
 21
12.0
 31
0.0
  0
TEXT
  5
BD2
330
B9E
100
AcDbEntity
  8
1
100
AcDbText
 10
-179.0
 20
13.75
 30
0.0
 40
1.5
  1
Proj.
 41
0.8
  7
SANINDUSA
 11
-179.0
 21
14.5
 31
0.0
100
AcDbText
 73
     2
  0
TEXT
  5
BD3
330
B9E
100
AcDbEntity
  8
1
100
AcDbText
 10
-167.9210461879161
 20
17.75
 30
0.0
 40
1.5
  1
Data
 41
0.8
  7
SANINDUSA
 11
-167.9210461879161
 21
18.5
 31
0.0
100
AcDbText
 73
     2
  0
TEXT
  5
BD4
330
B9E
100
AcDbEntity
  8
1
100
AcDbText
 10
-153.0988595589306
 20
17.75
 30
0.0
 40
1.5
  1
Nome
 41
0.8
  7
SANINDUSA
 11
-153.0988595589306
 21
18.5
 31
0.0
100
AcDbText
 73
     2
  0
LINE
  5
BD5
330
B9E
100
AcDbEntity
  8
leg fin
100
AcDbLine
 10
-130.0
 20
20.0
 30
0.0
 11
-130.0
 21
28.5
 31
0.0
  0
TEXT
  5
BD6
330
B9E
100
AcDbEntity
  8
1
100
AcDbText
 10
-134.0
 20
17.25
 30
0.0
 40
2.0
  1
Material:
 41
0.8
  7
SANINDUSA
 11
-134.0
 21
18.25
 31
0.0
100
AcDbText
 73
     2
  0
TEXT
  5
BD7
330
B9E
100
AcDbEntity
  8
1
100
AcDbText
 10
-129.0
 20
26.43288406845113
 30
0.0
 40
1.5
  1
Ano:
 41
0.8
  7
SANINDUSA
 11
-129.0
 21
27.18288406845113
 31
0.0
100
AcDbText
 73
     2
  0
LINE
  5
BD8
330
B9E
100
AcDbEntity
  8
1
100
AcDbLine
 10
-180.0
 20
55.5
 30
0.0
 11
-135.0
 21
55.5
 31
0.0
  0
TEXT
  5
BD9
330
B9E
100
AcDbEntity
  8
1
100
AcDbText
 10
-179.0
 20
52.67772246885193
 30
0.0
 40
1.5
  1
descrição
 41
0.8
  7
SANINDUSA
 11
-179.0
 21
53.42772246885193
 31
0.0
100
AcDbText
 73
     2
  0
TEXT
  5
BDA
330
B9E
100
AcDbEntity
  8
1
100
AcDbText
 10
-134.0
 20
47.25
 30
0.0
 40
2.0
  1
Peça:
 41
0.8
  7
SANINDUSA
 11
-134.0
 21
48.25
 31
0.0
100
AcDbText
 73
     2
  0
LINE
  5
BDB
330
B9E
100
AcDbEntity
  8
1
100
AcDbLine
 10
-180.0
 20
59.5
 30
0.0
 11
-135.0
 21
59.5
 31
0.0
  0
TEXT
  5
BDC
330
B9E
100
AcDbEntity
  8
1
100
AcDbText
 10
-173.5810776056337
 20
62.75
 30
0.0
 40
1.5
  1
Alt.
 41
0.8
  7
SANINDUSA
 11
-173.5810776056337
 21
63.5
 31
0.0
100
AcDbText
 73
     2
  0
TEXT
  5
BDD
330
B9E
100
AcDbEntity
  8
1
100
AcDbText
 10
-179.0
 20
62.75
 30
0.0
 40
1.5
  1
Rev.
 41
0.8
  7
SANINDUSA
 11
-179.0
 21
63.5
 31
0.0
100
AcDbText
 73
     2
  0
TEXT
  5
BDE
330
B9E
100
AcDbEntity
  8
1
100
AcDbText
 10
-167.9210461879161
 20
62.75
 30
0.0
 40
1.5
  1
Data
 41
0.8
  7
SANINDUSA
 11
-167.9210461879161
 21
63.5
 31
0.0
100
AcDbText
 73
     2
  0
TEXT
  5
BDF
330
B9E
100
AcDbEntity
  8
1
100
AcDbText
 10
-153.0988595589306
 20
62.75
 30
0.0
 40
1.5
  1
Nome
 41
0.8
  7
SANINDUSA
 11
-153.0988595589306
 21
63.5
 31
0.0
100
AcDbText
 73
     2
  0
TEXT
  5
BE0
330
B9E
100
AcDbEntity
  8
1
100
AcDbText
 10
-134.0
 20
62.25
 30
0.0
 40
2.0
  1
Produto:
 41
0.8
  7
SANINDUSA
 11
-134.0
 21
63.25
 31
0.0
100
AcDbText
 73
     2
  0
LINE
  5
BE1
330
B9E
100
AcDbEntity
  8
3
100
AcDbLine
 10
-40.0
 20
4.0
 30
0.0
 11
-40.0
 21
65.0
 31
0.0
  0
LWPOLYLINE
  5
BE2
102
{ACAD_REACTORS
330
BEC
102
}
330
B9E
100
AcDbEntity
  8
9
100
AcDbPolyline
 90
       12
 70
     1
 43
0.0
 10
-3.038714600644652
 20
58.90010174665076
 10
-5.726962862472191
 20
58.90010174665076
 10
-5.726962862472191
 20
58.5001017466509
 10
-3.038748516195028
 20
58.5001017466509
 42
-0.4142135623731731
 10
-2.638748516194482
 20
58.1001017466508
 10
-2.638748516194482
 20
57.42799728675596
 10
-5.21497371544865
 20
57.42799728675596
 42
0.4142135623731289
 10
-6.014973715448377
 20
56.627997286756
 10
-6.014973715448377
 20
55.92380871629643
 42
0.4142135623731132
 10
-5.21497371544865
 20
55.12380871629648
 10
-2.23871460064447
 20
55.12380871629648
 10
-2.23871460064447
 20
58.10010174665103
 42
0.4142135623730717
  0
LWPOLYLINE
  5
BE3
102
{ACAD_REACTORS
330
BEC
102
}
330
B9E
100
AcDbEntity
  8
9
100
AcDbPolyline
 90
       20
 70
     1
 43
0.0
 10
-10.01531287095122
 20
57.82799728675581
 10
-10.01531287095122
 20
58.10010174665103
 42
-0.4142135623730744
 10
-9.615312870951584
 20
58.5001017466509
 10
-6.92703069357276
 20
58.5001017466509
 10
-6.92703069357276
 20
58.90010174665076
 10
-9.615346786501959
 20
58.90010174665076
 42
0.4142135623730883
 10
-10.41534678650168
 20
58.1001017466508
 10
-10.41534678650168
 20
57.82796337120567
 42
0.4142135623730717
 10
-9.615346786501959
 20
57.02796337120571
 10
-7.423079531965413
 20
57.02796337120571
 42
-0.4142135623730847
 10
-7.023079531965322
 20
56.62796337120562
 10
-7.023079531965322
 20
55.90786840766487
 42
-0.4142135623730744
 10
-7.423079531965413
 20
55.507868407665
 10
-10.41534678650168
 20
55.507868407665
 10
-10.41534678650168
 20
55.12380871629648
 10
-7.445787917283723
 20
55.12380871629648
 42
0.4114777732064574
 10
-6.645822882998345
 20
55.9163291493976
 10
-6.639238813324936
 20
56.62051771985716
 42
0.4169546541682913
 10
-7.439203847610315
 20
57.42799728675596
 10
-9.615312870951584
 20
57.42799728675596
 42
-0.4142135623731576
  0
LWPOLYLINE
  5
BE4
102
{ACAD_REACTORS
330
BEC
102
}
330
B9E
100
AcDbEntity
  8
9
100
AcDbPolyline
 90
       12
 70
     1
 43
0.0
 10
-14.41561811090378
 20
58.90010174665076
 10
-14.79964388672215
 20
58.90010174665076
 10
-14.79964388672215
 20
55.92380871629643
 42
0.4142135623731133
 10
-13.99964388672242
 20
55.12380871629648
 10
-11.8233508563676
 20
55.12380871629648
 42
0.4142135623730872
 10
-11.02335085636741
 20
55.92380871629643
 10
-11.02335085636741
 20
58.90010174665076
 10
-11.42338477191788
 20
58.90010174665076
 10
-11.42338477191788
 20
55.91567577726095
 42
-0.4131711701795318
 10
-11.82196067063523
 20
55.51567831234956
 10
-14.0141940096214
 20
55.50787335710947
 42
-0.4152567234624407
 10
-14.41561811090378
 20
55.90787082202087
  0
LWPOLYLINE
  5
BE5
102
{ACAD_REACTORS
330
BEC
102
}
330
B9E
100
AcDbEntity
  8
9
100
AcDbPolyline
 90
        6
 70
     1
 43
0.0
 10
-15.80771578768872
 20
55.507868407665
 10
-18.39994912667453
 20
55.507868407665
 42
-0.4142135623731731
 10
-18.79994912667462
 20
55.90786840766487
 10
-18.79994912667462
 20
58.10010174665103
 42
-0.4142135623730744
 10
-18.39994912667453
 20
58.5001017466509
 10
-15.80771578768872
 20
58.5001017466509
  0
LWPOLYLINE
  5
BE6
102
{ACAD_REACTORS
330
BEC
102
}
330
B9E
100
AcDbEntity
  8
9
100
AcDbPolyline
 90
        8
 70
     1
 43
0.0
 10
-15.4236900118708
 20
59.87619128370352
 10
-15.80771578768872
 20
59.87619128370352
 10
-15.80771578768872
 20
58.90010174665076
 10
-18.39176256411201
 20
58.90010174665076
 42
0.4131164467977967
 10
-19.19175694739761
 20
58.1030995310698
 10
-19.1999120763262
 20
55.92680650071542
 42
0.4153115297271718
 10
-18.39991769304061
 20
55.12380871629648
 10
-15.4236900118708
 20
55.12380871629648
  0
LWPOLYLINE
  5
BE7
102
{ACAD_REACTORS
330
BEC
102
}
330
B9E
100
AcDbEntity
  8
9
100
AcDbPolyline
 90
       10
 70
     1
 43
0.0
 10
-20.59201288790928
 20
58.90010174665076
 10
-23.56830591826338
 20
58.90010174665076
 10
-23.56830591826338
 20
55.12380871629648
 10
-23.18424622689509
 20
55.12380871629648
 10
-23.18424622689509
 20
58.5001017466509
 10
-20.59204680345965
 20
58.5001017466509
 42
-0.4142135623730898
 10
-20.19204680345956
 20
58.1001017466508
 10
-20.19204680345956
 20
55.12380871629648
 10
-19.79201288790909
 20
55.12380871629648
 10
-19.79201288790909
 20
58.10010174665103
 42
0.4142135623731132
  0
LWPOLYLINE
  5
BE8
102
{ACAD_REACTORS
330
BEC
102
}
330
B9E
100
AcDbEntity
  8
9
100
AcDbPolyline
 90
        4
 70
     1
 43
0.0
 10
-24.19231812786165
 20
58.90010174665076
 10
-24.57637781922995
 20
58.90010174665076
 10
-24.57637781922995
 20
55.12380871629648
 10
-24.19231812786165
 20
55.12380871629648
  0
LWPOLYLINE
  5
BE9
102
{ACAD_REACTORS
330
BEC
102
}
330
B9E
100
AcDbEntity
  8
9
100
AcDbPolyline
 90
       10
 70
     1
 43
0.0
 10
-28.57661522808212
 20
58.5001017466509
 10
-25.98444972019706
 20
58.5001017466509
 42
-0.4142135623731731
 10
-25.58444972019652
 20
58.1001017466508
 10
-25.58444972019652
 20
55.12380871629648
 10
-25.2004239443786
 20
55.12380871629648
 10
-25.2004239443786
 20
58.10010174665103
 42
0.4142135623730717
 10
-26.00042394437833
 20
58.90010174665076
 10
-28.97664914363259
 20
58.90010174665076
 10
-28.97664914363259
 20
55.12380871629648
 10
-28.57661522808212
 20
55.12380871629648
  0
LWPOLYLINE
  5
BEA
102
{ACAD_REACTORS
330
BEC
102
}
330
B9E
100
AcDbEntity
  8
9
100
AcDbPolyline
 90
       12
 70
     1
 43
0.0
 10
-29.58465321349832
 20
58.10010174665103
 42
0.4142135623730716
 10
-30.3846532134985
 20
58.90010174665076
 10
-33.07296930642724
 20
58.90010174665076
 10
-33.07296930642724
 20
58.5001017466509
 10
-30.38468712904842
 20
58.5001017466509
 42
-0.4142135623730067
 10
-29.98468712904878
 20
58.1001017466508
 10
-29.98468712904878
 20
57.42799728675618
 10
-32.56098015940324
 20
57.42799728675596
 42
0.4142135623731289
 10
-33.36098015940343
 20
56.627997286756
 10
-33.36098015940343
 20
55.92380871629643
 42
0.4142135623731132
 10
-32.56098015940324
 20
55.12380871629648
 10
-29.58465321349832
 20
55.12380871629648
  0
LWPOLYLINE
  5
BEB
102
{ACAD_REACTORS
330
BEC
102
}
330
B9E
100
AcDbEntity
  8
9
100
AcDbPolyline
 90
       20
 70
     1
 43
0.0
 10
-34.7850262845518
 20
57.42799728675596
 10
-36.96125148380543
 20
57.42799728675596
 42
-0.4142135623730898
 10
-37.36125148380552
 20
57.82799728675604
 10
-37.36125148380552
 20
58.10010174665103
 42
-0.4142135623730744
 10
-36.96125148380543
 20
58.5001017466509
 10
-34.27303713752781
 20
58.50010174665067
 10
-34.27303713752781
 20
58.90010174665076
 10
-36.96128539935535
 20
58.90010174665076
 42
0.4142135623731289
 10
-37.76128539935553
 20
58.1001017466508
 10
-37.76128539935553
 20
57.82796337120567
 42
0.4142135623730716
 10
-36.9612853993558
 20
57.02796337120571
 10
-34.76901814481926
 20
57.02796337120571
 42
-0.414213562373168
 10
-34.36901814481962
 20
56.62796337120562
 10
-34.36901814481962
 20
55.90786840766487
 42
-0.4142135623730744
 10
-34.76901814481926
 20
55.507868407665
 10
-37.76128539935553
 20
55.507868407665
 10
-37.76128539935553
 20
55.12380871629648
 10
-34.7850262845518
 20
55.12380871629648
 42
0.4142135623731289
 10
-33.98502628455162
 20
55.92380871629643
 10
-33.98502628455162
 20
56.627997286756
 42
0.4142135623731132
  0
HATCH
  5
BEC
330
B9E
100
AcDbEntity
  8
9
100
AcDbHatch
 10
0.0
 20
0.0
 30
0.0
210
0.0
220
0.0
230
1.0
  2
SOLID
 70
     1
 71
     1
 91
       13
 92
        7
 72
     1
 73
     1
 93
       20
 10
-34.36901814481962
 20
55.90786840766487
 42
-0.414213562372991
 10
-34.76901814481926
 20
55.507868407665
 42
0.0
 10
-37.76128539935553
 20
55.507868407665
 42
0.0
 10
-37.76128539935553
 20
55.12380871629648
 42
0.0
 10
-34.7850262845518
 20
55.12380871629648
 42
0.4142135623731705
 10
-33.98502628455162
 20
55.92380871629666
 42
0.0
 10
-33.98502628455162
 20
56.627997286756
 42
0.4142135623731547
 10
-34.7850262845518
 20
57.42799728675596
 42
0.0
 10
-36.96125148380543
 20
57.42799728675596
 42
-0.4142135623730898
 10
-37.36125148380552
 20
57.82799728675604
 42
0.0
 10
-37.36125148380552
 20
58.1001017466508
 42
-0.4142135623731575
 10
-36.96125148380543
 20
58.5001017466509
 42
0.0
 10
-34.27303713752781
 20
58.50010174665067
 42
0.0
 10
-34.27303713752781
 20
58.90010174665076
 42
0.0
 10
-36.96128539935535
 20
58.90010174665076
 42
0.4142135623731705
 10
-37.76128539935553
 20
58.10010174665058
 42
0.0
 10
-37.76128539935553
 20
57.82796337120544
 42
0.4142135623730299
 10
-36.9612853993558
 20
57.02796337120571
 42
0.0
 10
-34.76901814481926
 20
57.02796337120571
 42
-0.4142135623730015
 10
-34.36901814481962
 20
56.62796337120608
 42
0.0
 97
        1
330
BEB
 92
        7
 72
     1
 73
     1
 93
       12
 10
-33.36098015940343
 20
55.92380871629666
 42
0.4142135623731547
 10
-32.56098015940324
 20
55.12380871629648
 42
0.0
 10
-29.58465321349877
 20
55.12380871629648
 42
0.0
 10
-29.58465321349832
 20
58.10010174665058
 42
0.4142135623731964
 10
-30.3846532134985
 20
58.90010174665076
 42
0.0
 10
-33.07296930642724
 20
58.90010174665076
 42
0.0
 10
-33.07296930642724
 20
58.50010174665067
 42
0.0
 10
-30.38468712904887
 20
58.5001017466509
 42
-0.4142135623732564
 10
-29.98468712904878
 20
58.10010174665103
 42
0.0
 10
-29.98468712904923
 20
57.42799728675596
 42
0.0
 10
-32.56098015940324
 20
57.42799728675596
 42
0.4142135623731705
 10
-33.36098015940343
 20
56.627997286756
 42
0.0
 97
        1
330
BEA
 92
       22
 72
     1
 73
     1
 93
        6
 10
-32.97692046803468
 20
56.62796337120562
 42
-0.4142135623731576
 10
-32.57692046803459
 20
57.02796337120571
 42
0.0
 10
-29.98468712904878
 20
57.02796337120571
 42
0.0
 10
-29.98468712904878
 20
55.507868407665
 42
0.0
 10
-32.57692046803459
 20
55.507868407665
 42
-0.4142135623731731
 10
-32.97692046803468
 20
55.90786840766487
 42
0.0
 97
        1
330
C11
 92
        7
 72
     1
 73
     1
 93
       10
 10
-28.57661522808212
 20
58.5001017466509
 42
0.0
 10
-25.98444972019661
 20
58.5001017466509
 42
-0.4142135623730067
 10
-25.58444972019652
 20
58.10010174665058
 42
0.0
 10
-25.58444972019606
 20
55.12380871629648
 42
0.0
 10
-25.20042394437906
 20
55.12380871629648
 42
0.0
 10
-25.2004239443786
 20
58.1001017466508
 42
0.4142135623731134
 10
-26.00042394437833
 20
58.90010174665076
 42
0.0
 10
-28.97664914363259
 20
58.90010174665076
 42
0.0
 10
-28.97664914363259
 20
55.12380871629648
 42
0.0
 10
-28.57661522808212
 20
55.12380871629648
 42
0.0
 97
        1
330
BE9
 92
        7
 72
     0
 73
     1
 93
        4
 10
-24.57637781922995
 20
55.12380871629648
 10
-24.19231812786165
 20
55.12380871629648
 10
-24.19231812786165
 20
58.90010174665076
 10
-24.57637781922995
 20
58.90010174665076
 97
        1
330
BE8
 92
        7
 72
     0
 73
     1
 93
        4
 10
-24.19231812786165
 20
59.87619128370352
 10
-24.5763778192304
 20
59.87619128370352
 10
-24.5763778192304
 20
59.28412752246913
 10
-24.1923181278612
 20
59.28412752246913
 97
        1
330
C12
 92
        7
 72
     1
 73
     1
 93
       10
 10
-23.18424622689509
 20
58.5001017466509
 42
0.0
 10
-20.59204680345965
 20
58.5001017466509
 42
-0.4142135623730898
 10
-20.19204680345956
 20
58.1001017466508
 42
0.0
 10
-20.19204680345956
 20
55.12380871629648
 42
0.0
 10
-19.79201288790909
 20
55.12380871629648
 42
0.0
 10
-19.79201288790909
 20
58.1001017466508
 42
0.4142135623731547
 10
-20.59201288790928
 20
58.90010174665076
 42
0.0
 10
-23.56830591826338
 20
58.90010174665076
 42
0.0
 10
-23.56830591826338
 20
55.12380871629648
 42
0.0
 10
-23.18424622689463
 20
55.12380871629648
 42
0.0
 97
        1
330
BE7
 92
        7
 72
     1
 73
     1
 93
        8
 10
-19.1999120763262
 20
55.92680650071542
 42
0.4153115297271299
 10
-18.39991769304061
 20
55.12380871629648
 42
0.0
 10
-15.4236900118708
 20
55.12380871629648
 42
0.0
 10
-15.4236900118708
 20
59.87619128370352
 42
0.0
 10
-15.80771578768872
 20
59.87619128370352
 42
0.0
 10
-15.80771578768872
 20
58.90010174665076
 42
0.0
 10
-18.39176256411201
 20
58.90010174665076
 42
0.4131164467977965
 10
-19.19175694739761
 20
58.1030995310698
 42
0.0
 97
        1
330
BE6
 92
       22
 72
     1
 73
     1
 93
        6
 10
-18.79994912667462
 20
58.1001017466508
 42
-0.4142135623731575
 10
-18.39994912667453
 20
58.5001017466509
 42
0.0
 10
-15.80771578768872
 20
58.50010174665067
 42
0.0
 10
-15.80771578768827
 20
55.507868407665
 42
0.0
 10
-18.39994912667453
 20
55.507868407665
 42
-0.4142135623731731
 10
-18.79994912667462
 20
55.90786840766487
 42
0.0
 97
        1
330
BE5
 92
        7
 72
     1
 73
     1
 93
       12
 10
-14.79964388672215
 20
55.92380871629621
 42
0.4142135623729885
 10
-13.99964388672242
 20
55.12380871629648
 42
0.0
 10
-11.8233508563676
 20
55.12380871629648
 42
0.4142135623731289
 10
-11.02335085636741
 20
55.92380871629666
 42
0.0
 10
-11.02335085636741
 20
58.90010174665076
 42
0.0
 10
-11.42338477191788
 20
58.90010174665076
 42
0.0
 10
-11.42338477191788
 20
55.91567577726095
 42
-0.4131711701795319
 10
-11.82196067063523
 20
55.51567831234956
 42
0.0
 10
-14.01419400962095
 20
55.50787335710947
 42
-0.4152567234626918
 10
-14.41561811090378
 20
55.90787082202087
 42
0.0
 10
-14.41561811090378
 20
58.90010174665076
 42
0.0
 10
-14.7996438867226
 20
58.90010174665076
 42
0.0
 97
        1
330
BE4
 92
        7
 72
     1
 73
     1
 93
       20
 10
-7.423079531965413
 20
57.02796337120571
 42
-0.414213562373168
 10
-7.023079531965322
 20
56.62796337120562
 42
0.0
 10
-7.023079531965322
 20
55.90786840766487
 42
-0.4142135623731575
 10
-7.423079531965413
 20
55.507868407665
 42
0.0
 10
-10.41534678650168
 20
55.507868407665
 42
0.0
 10
-10.41534678650168
 20
55.12380871629648
 42
0.0
 10
-7.445787917283723
 20
55.12380871629648
 42
0.4114777732065809
 10
-6.645822882998345
 20
55.91632914939783
 42
0.0
 10
-6.639238813324936
 20
56.62051771985716
 42
0.4169546541682913
 10
-7.439203847610315
 20
57.42799728675596
 42
0.0
 10
-9.615312870951584
 20
57.42799728675596
 42
-0.4142135623729911
 10
-10.01531287095122
 20
57.82799728675581
 42
0.0
 10
-10.01531287095122
 20
58.10010174665103
 42
-0.414213562372991
 10
-9.615312870951584
 20
58.5001017466509
 42
0.0
 10
-6.92703069357276
 20
58.50010174665067
 42
0.0
 10
-6.927030693572305
 20
58.90010174665076
 42
0.0
 10
-9.615346786501959
 20
58.90010174665076
 42
0.4142135623730467
 10
-10.41534678650168
 20
58.10010174665103
 42
0.0
 10
-10.41534678650168
 20
57.82796337120544
 42
0.4142135623730301
 10
-9.615346786501959
 20
57.02796337120571
 42
0.0
 97
        1
330
BE3
 92
        7
 72
     1
 73
     1
 93
       12
 10
-5.21497371544865
 20
57.42799728675596
 42
0.4142135623730871
 10
-6.014973715448377
 20
56.627997286756
 42
0.0
 10
-6.014973715448377
 20
55.92380871629621
 42
0.4142135623730715
 10
-5.21497371544865
 20
55.12380871629648
 42
0.0
 10
-2.23871460064447
 20
55.12380871629648
 42
0.0
 10
-2.23871460064447
 20
58.10010174665058
 42
0.414213562373155
 10
-3.038714600644652
 20
58.90010174665076
 42
0.0
 10
-5.726962862471737
 20
58.90010174665076
 42
0.0
 10
-5.726962862472191
 20
58.5001017466509
 42
0.0
 10
-3.038748516194573
 20
58.5001017466509
 42
-0.4142135623730067
 10
-2.638748516194482
 20
58.10010174665058
 42
0.0
 10
-2.638748516194482
 20
57.42799728675596
 42
0.0
 97
        1
330
BE2
 92
       22
 72
     1
 73
     1
 93
        6
 10
-2.638748516194937
 20
57.02796337120571
 42
0.0
 10
-2.638748516194482
 20
55.50786840766477
 42
0.0
 10
-5.21497371544865
 20
55.507868407665
 42
-0.4142135623731731
 10
-5.614973715448741
 20
55.90786840766509
 42
0.0
 10
-5.614973715448741
 20
56.62796337120562
 42
-0.4142135623731576
 10
-5.21497371544865
 20
57.02796337120571
 42
0.0
 97
        1
330
C0D
 75
     0
 76
     1
 47
0.0407044778999864
 98
       13
 10
-34.18710075113677
 20
56.16907953933765
 10
-33.12851374392494
 20
56.49471602641233
 10
-33.12851374392494
 20
56.49471602641233
 10
-28.77202873835904
 20
57.51232930166111
 10
-24.41554807250941
 20
57.91937341678636
 10
-24.41554807250941
 20
59.384734621186
 10
-23.31624584658039
 20
58.3264175319116
 10
-19.04119127844888
 20
57.75655517324913
 10
-19.04119127844888
 20
57.75655517324913
 10
-14.64399105416578
 20
57.43091868617466
 10
-8.048195057457178
 20
57.22739662861204
 10
-4.017427461911665
 20
57.18669281458665
 10
-4.017427461911665
 20
57.18669281458665
  0
TEXT
  5
BED
330
B9E
100
AcDbEntity
  8
leg fin
100
AcDbText
 10
3.391127401597259
 20
2.107634911895729
 30
0.0
 40
1.5
  1
Este desenho é propriedade da Sanindusa, S.A., e não pode ser copiado nem divulgado sem nossa autorização.
 50
90.0
 41
0.8
  7
SANINDUSA
100
AcDbText
  0
LINE
  5
BEE
330
B9E
100
AcDbEntity
  8
3
100
AcDbLine
 10
-90.0
 20
4.0
 30
0.0
 11
-90.0
 21
12.0
 31
0.0
  0
TEXT
  5
BEF
330
B9E
100
AcDbEntity
  8
1
100
AcDbText
 10
-39.0
 20
9.25
 30
0.0
 40
2.0
  1
Substituido por:
 41
0.8
  7
SANINDUSA
 11
-39.0
 21
10.25
 31
0.0
100
AcDbText
 73
     2
  0
POINT
  5
BF0
330
B9E
100
AcDbEntity
  8
SANINDUSA
100
AcDbPoint
 10
0.0
 20
0.0
 30
0.0
  0
TEXT
  5
BF1
330
B9E
100
AcDbEntity
  8
1
100
AcDbText
 10
-89.0
 20
16.74927010445663
 30
0.0
 40
2.0
  1
Normas:
 41
0.8
  7
SANINDUSA
 11
-89.0
 21
17.74927010445663
 31
0.0
100
AcDbText
 73
     2
  0
LINE
  5
BF2
330
B9E
100
AcDbEntity
  8
3
100
AcDbLine
 10
-90.0
 20
12.0
 30
0.0
 11
-90.0
 21
20.0
 31
0.0
  0
LINE
  5
BF3
330
B9E
100
AcDbEntity
  8
3
100
AcDbLine
 10
-110.546019464768
 20
12.0
 30
0.0
 11
-110.546019464768
 21
20.0
 31
0.0
  0
TEXT
  5
BF4
330
B9E
100
AcDbEntity
  8
1
100
AcDbText
 10
-109.6177520618648
 20
17.25
 30
0.0
 40
2.0
  1
Cor:
 41
0.8
  7
SANINDUSA
 11
-109.6177520618648
 21
18.25
 31
0.0
100
AcDbText
 73
     2
  0
LINE
  5
BF5
330
B9E
100
AcDbEntity
  8
leg fin
100
AcDbLine
 10
-91.42857142857156
 20
20.0
 30
0.0
 11
-91.42857142857156
 21
28.5
 31
0.0
  0
LINE
  5
BF6
330
B9E
100
AcDbEntity
  8
leg fin
100
AcDbLine
 10
-104.2857142857142
 20
20.0
 30
0.0
 11
-104.2857142857142
 21
28.5
 31
0.0
  0
LINE
  5
BF7
330
B9E
100
AcDbEntity
  8
leg fin
100
AcDbLine
 10
-117.1428571428573
 20
20.0
 30
0.0
 11
-117.1428571428573
 21
28.5
 31
0.0
  0
POINT
  5
BF8
330
B9E
100
AcDbEntity
  8
SANINDUSA
100
AcDbPoint
 10
-117.1428571428573
 20
28.5
 30
0.0
  0
POINT
  5
BF9
330
B9E
100
AcDbEntity
  8
SANINDUSA
100
AcDbPoint
 10
-104.2857142857142
 20
28.5
 30
0.0
  0
POINT
  5
BFA
330
B9E
100
AcDbEntity
  8
SANINDUSA
100
AcDbPoint
 10
-91.42857142857156
 20
28.5
 30
0.0
  0
TEXT
  5
BFB
330
B9E
100
AcDbEntity
  8
1
100
AcDbText
 10
-116.200160604496
 20
26.43288406845113
 30
0.0
 40
1.5
  1
Nº Seq.:
 41
0.8
  7
SANINDUSA
 11
-116.200160604496
 21
27.18288406845113
 31
0.0
100
AcDbText
 73
     2
  0
TEXT
  5
BFC
330
B9E
100
AcDbEntity
  8
1
100
AcDbText
 10
-103.2106584078738
 20
26.43288406845113
 30
0.0
 40
1.5
  1
Tipo:
 41
0.8
  7
SANINDUSA
 11
-103.2106584078738
 21
27.18288406845113
 31
0.0
100
AcDbText
 73
     2
  0
TEXT
  5
BFD
330
B9E
100
AcDbEntity
  8
1
100
AcDbText
 10
-90.22114672289353
 20
26.43288406845113
 30
0.0
 40
1.5
  1
Prod.:
 41
0.8
  7
SANINDUSA
 11
-90.22114672289353
 21
27.18288406845113
 31
0.0
100
AcDbText
 73
     2
  0
TEXT
  5
BFE
330
B9E
100
AcDbEntity
  8
1
100
AcDbText
 10
-64.77320576346574
 20
26.43288406845113
 30
0.0
 40
1.5
  1
Rev.:
 41
0.8
  7
SANINDUSA
 11
-64.77320576346574
 21
27.18288406845113
 31
0.0
100
AcDbText
 73
     2
  0
LINE
  5
BFF
330
B9E
100
AcDbEntity
  8
leg fin
100
AcDbLine
 10
-52.85714285714266
 20
20.0
 30
0.0
 11
-52.85714285714266
 21
28.5
 31
0.0
  0
LINE
  5
C00
330
B9E
100
AcDbEntity
  8
leg fin
100
AcDbLine
 10
-65.71428571428578
 20
20.0
 30
0.0
 11
-65.71428571428578
 21
28.5
 31
0.0
  0
LINE
  5
C01
330
B9E
100
AcDbEntity
  8
leg fin
100
AcDbLine
 10
-78.57142857142844
 20
20.0
 30
0.0
 11
-78.57142857142844
 21
28.5
 31
0.0
  0
POINT
  5
C02
330
B9E
100
AcDbEntity
  8
SANINDUSA
100
AcDbPoint
 10
-78.57142857142844
 20
28.5
 30
0.0
  0
POINT
  5
C03
330
B9E
100
AcDbEntity
  8
SANINDUSA
100
AcDbPoint
 10
-65.71428571428578
 20
28.5
 30
0.0
  0
POINT
  5
C04
330
B9E
100
AcDbEntity
  8
SANINDUSA
100
AcDbPoint
 10
-52.85714285714266
 20
28.5
 30
0.0
  0
TEXT
  5
C05
330
B9E
100
AcDbEntity
  8
1
100
AcDbText
 10
-77.61097961686573
 20
26.43288406845113
 30
0.0
 40
1.5
  1
Peça:
 41
0.8
  7
SANINDUSA
 11
-77.61097961686573
 21
27.18288406845113
 31
0.0
100
AcDbText
 73
     2
  0
TEXT
  5
C06
330
B9E
100
AcDbEntity
  8
1
100
AcDbText
 10
-52.06538060077036
 20
26.43288406845113
 30
0.0
 40
1.5
  1
Alt.:
 41
0.8
  7
SANINDUSA
 11
-52.06538060077036
 21
27.18288406845113
 31
0.0
100
AcDbText
 73
     2
  0
LINE
  5
C07
330
B9E
100
AcDbEntity
  8
3
100
AcDbLine
 10
0.0
 20
12.0
 30
0.0
 11
-40.0
 21
12.0
 31
0.0
  0
LINE
  5
C08
330
B9E
100
AcDbEntity
  8
3
100
AcDbLine
 10
-40.0
 20
32.5
 30
0.0
 11
0.0
 21
32.5
 31
0.0
  0
TEXT
  5
C09
330
B9E
100
AcDbEntity
  8
1
100
AcDbText
 10
-19.0
 20
29.75
 30
0.0
 40
2.0
  1
Folha:
 41
0.8
  7
SANINDUSA
 11
-19.0
 21
30.75
 31
0.0
100
AcDbText
 73
     2
  0
LINE
  5
C0A
330
B9E
100
AcDbEntity
  8
3
100
AcDbLine
 10
-20.0
 20
32.5
 30
0.0
 11
-20.0
 21
20.0
 31
0.0
  0
TEXT
  5
C0B
330
B9E
100
AcDbEntity
  8
1
100
AcDbText
 10
-39.0
 20
29.75
 30
0.0
 40
2.0
  1
Escala:
 41
0.8
  7
SANINDUSA
 11
-39.0
 21
30.75
 31
0.0
100
AcDbText
 73
     2
  0
TEXT
  5
C0C
330
B9E
100
AcDbEntity
  8
1
100
AcDbText
 10
-39.0
 20
17.25
 30
0.0
 40
2.0
  1
Substitui:
 41
0.8
  7
SANINDUSA
 11
-39.0
 21
18.25
 31
0.0
100
AcDbText
 73
     2
  0
LWPOLYLINE
  5
C0D
102
{ACAD_REACTORS
330
BEC
102
}
330
B9E
100
AcDbEntity
  8
9
100
AcDbPolyline
 90
        6
 70
     1
 43
0.0
 10
-2.638748516194482
 20
57.02796337120571
 10
-2.638748516194482
 20
55.50786840766477
 10
-5.21497371544865
 20
55.507868407665
 42
-0.4142135623730898
 10
-5.614973715448741
 20
55.90786840766487
 10
-5.614973715448741
 20
56.62796337120562
 42
-0.4142135623731576
 10
-5.21497371544865
 20
57.02796337120571
  0
LINE
  5
C0E
330
B9E
100
AcDbEntity
  8
3
100
AcDbLine
 10
-40.0
 20
50.0
 30
0.0
 11
0.0
 21
50.0
 31
0.0
  0
ATTDEF
  5
C0F
330
B9E
100
AcDbEntity
  8
1
100
AcDbText
 10
-31.30691739422431
 20
40.25
 30
0.0
 40
2.0
  1
XXXXXXXXXXXXXXX
 41
0.8
  7
SANINDUSA
 72
     4
 11
-20.0
 21
41.25
 31
0.0
100
AcDbAttributeDefinition
  3
Observações:
  2
OBS
 70
     0
  0
TEXT
  5
C10
330
B9E
100
AcDbEntity
  8
1
100
AcDbText
 10
-39.0
 20
47.25
 30
0.0
 40
2.0
  1
Observações:
 41
0.8
  7
SANINDUSA
 11
-39.0
 21
48.25
 31
0.0
100
AcDbText
 73
     2
  0
LWPOLYLINE
  5
C11
102
{ACAD_REACTORS
330
BEC
102
}
330
B9E
100
AcDbEntity
  8
9
100
AcDbPolyline
 90
        6
 70
     1
 43
0.0
 10
-29.98468712904878
 20
57.02796337120571
 10
-29.98468712904878
 20
55.507868407665
 10
-32.57692046803459
 20
55.507868407665
 42
-0.4142135623731731
 10
-32.97692046803468
 20
55.90786840766487
 10
-32.97692046803468
 20
56.62796337120562
 42
-0.4142135623731576
 10
-32.57692046803459
 20
57.02796337120571
  0
LWPOLYLINE
  5
C12
102
{ACAD_REACTORS
330
BEC
102
}
330
B9E
100
AcDbEntity
  8
9
100
AcDbPolyline
 90
        4
 70
     1
 43
0.0
 10
-24.19231812786165
 20
59.87619128370352
 10
-24.57637781922995
 20
59.87619128370352
 10
-24.57637781922995
 20
59.28412752246913
 10
-24.19231812786165
 20
59.28412752246913
  0
ENDBLK
  5
C14
330
B9E
100
AcDbEntity
  8
0
100
AcDbBlockEnd
  0
BLOCK
  5
133B
330
131B
100
AcDbEntity
  8
0
100
AcDbBlockBegin
  2
118780AL
 70
     0
 10
0.0
 20
0.0
 30
0.0
  3
118780AL
  1

  0
ARC
  5
131C
330
131B
100
AcDbEntity
  8
BLOCKS
100
AcDbCircle
 10
0.4827495041956434
 20
0.2045360934953311
 30
0.0
 40
0.0336722246589192
100
AcDbArc
 50
322.3898469206094
 51
356.9745005338223
  0
ARC
  5
131D
330
131B
100
AcDbEntity
  8
BLOCKS
100
AcDbCircle
 10
0.5133789761827638
 20
0.2029172014922886
 30
0.0
 40
0.003
100
AcDbArc
 50
356.9745005338223
 51
92.50166043411455
  0
ARC
  5
131E
330
131B
100
AcDbEntity
  8
BLOCKS
100
AcDbCircle
 10
0.1168394276334828
 20
0.229591660637139
 30
0.0
 40
0.2241306085774127
100
AcDbArc
 50
339.1388405966182
 51
352.1804872606947
  0
ARC
  5
131F
330
131B
100
AcDbEntity
  8
BLOCKS
100
AcDbCircle
 10
0.3206707221497282
 20
0.1519143423635001
 30
0.0
 40
0.006
100
AcDbArc
 50
270.0
 51
339.1388405966182
  0
ARC
  5
1320
330
131B
100
AcDbEntity
  8
BLOCKS
100
AcDbCircle
 10
0.332941762601057
 20
0.1999143423635002
 30
0.0
 40
0.006
100
AcDbArc
 50
352.1804872606947
 51
90.0
  0
ARC
  5
1321
330
131B
100
AcDbEntity
  8
BLOCKS
100
AcDbCircle
 10
0.3550075974457314
 20
0.0311889946912038
 30
0.0
 40
0.002
100
AcDbArc
 50
201.5934141797223
 51
308.0530340761084
  0
ARC
  5
1322
330
131B
100
AcDbEntity
  8
BLOCKS
100
AcDbCircle
 10
-0.1808804636538338
 20
0.7157873355290901
 30
0.0
 40
0.8713968612245141
100
AcDbArc
 50
308.0530340761084
 51
322.3898469206094
  0
ARC
  5
1323
330
131B
100
AcDbEntity
  8
BLOCKS
100
AcDbCircle
 10
0.730993396610934
 20
0.180092742910461
 30
0.0
 40
0.4063978825029214
100
AcDbArc
 50
185.9405063193826
 51
201.6052685509331
  0
ARC
  5
1324
330
131B
100
AcDbEntity
  8
BLOCKS
100
AcDbCircle
 10
0.0327007491444698
 20
0.2079143423634997
 30
0.0
 40
0.002
100
AcDbArc
 50
234.148038181684
 51
270.0
  0
ARC
  5
1325
330
131B
100
AcDbEntity
  8
BLOCKS
100
AcDbCircle
 10
-0.0004810714164665
 20
0.1998427022180425
 30
0.0
 40
0.0292727700776985
100
AcDbArc
 50
27.27444575424644
 51
82.38607363619903
  0
ARC
  5
1326
330
131B
100
AcDbEntity
  8
BLOCKS
100
AcDbCircle
 10
0.0059999999999997
 20
0.1519143423635001
 30
0.0
 40
0.006
100
AcDbArc
 50
180.0
 51
270.0
  0
ARC
  5
1327
330
131B
100
AcDbEntity
  8
BLOCKS
100
AcDbCircle
 10
0.0030000000000001
 20
0.2258838348614012
 30
0.0
 40
0.003
100
AcDbArc
 50
82.38607363619903
 51
180.0
  0
ARC
  5
1328
330
131B
100
AcDbEntity
  8
BLOCKS
100
AcDbCircle
 10
0.0431071737190217
 20
0.2223156592382969
 30
0.0
 40
0.0197677122937634
100
AcDbArc
 50
207.2744457542464
 51
234.148038181684
  0
ARC
  5
1329
330
131B
100
AcDbEntity
  8
BLOCKS
100
AcDbCircle
 10
0.2493641349616888
 20
0.0291651034453054
 30
0.0
 40
0.008
100
AcDbArc
 50
95.55968557261065
 51
167.3874246901282
  0
ARC
  5
132A
330
131B
100
AcDbEntity
  8
BLOCKS
100
AcDbCircle
 10
0.1449835326005837
 20
0.0590564940961542
 30
0.0
 40
0.02
100
AcDbArc
 50
201.6040578731309
 51
262.160337041001
  0
ARC
  5
132B
330
131B
100
AcDbEntity
  8
BLOCKS
100
AcDbCircle
 10
1.796935832585788
 20
0.1439698192994217
 30
0.0
 40
1.68377585884673
100
AcDbArc
 50
183.1152797410272
 51
183.5064582457898
  0
ARC
  5
132C
330
131B
100
AcDbEntity
  8
BLOCKS
100
AcDbCircle
 10
0.2322375050950871
 20
0.0029999999999995
 30
0.0
 40
0.003
100
AcDbArc
 50
270.0
 51
347.3874246901282
  0
LINE
  5
132D
330
131B
100
AcDbEntity
  8
BLOCKS
100
AcDbLine
 10
0.165869842933476
 20
0.0020008467034779
 30
0.0
 11
0.1651555704321805
 21
0.0040230403381213
 31
0.0
  0
ARC
  5
132E
330
131B
100
AcDbEntity
  8
BLOCKS
100
AcDbCircle
 10
0.1686985692705485
 20
0.0029999999999995
 30
0.0
 40
0.003
100
AcDbArc
 50
199.4540697702693
 51
270.0
  0
ARC
  5
132F
330
131B
100
AcDbEntity
  8
BLOCKS
100
AcDbCircle
 10
0.162326844095108
 20
0.0030238870415991
 30
0.0
 40
0.003
100
AcDbArc
 50
19.45406977026935
 51
78.99734590245791
  0
LINE
  5
1330
330
131B
100
AcDbEntity
  8
BLOCKS
100
AcDbLine
 10
0.2322375050950871
 20
0.0
 30
0.0
 11
0.1686985692705485
 21
0.0
 31
0.0
  0
LINE
  5
1331
330
131B
100
AcDbEntity
  8
BLOCKS
100
AcDbLine
 10
0.2415571840798305
 20
0.0309119628925026
 30
0.0
 11
0.2351651116757836
 21
0.0023449277073007
 31
0.0
  0
LINE
  5
1332
330
131B
100
AcDbEntity
  8
BLOCKS
100
AcDbLine
 10
0.1628994074956068
 20
0.0059687420723958
 30
0.0
 11
0.143762287609996
 21
0.0096895413385295
 31
0.0
  0
ARC
  5
1333
330
131B
100
AcDbEntity
  8
BLOCKS
100
AcDbCircle
 10
0.1502520104926964
 20
0.0430680162165032
 30
0.0
 40
0.0340035158222465
100
AcDbArc
 50
183.5064582457898
 51
258.9973459024579
  0
LINE
  5
1334
330
131B
100
AcDbEntity
  8
BLOCKS
100
AcDbLine
 10
0.1641958279921243
 20
0.0309119628925026
 30
0.0
 11
0.1705879003961712
 21
0.0023449277073007
 31
0.0
  0
ARC
  5
1335
330
131B
100
AcDbEntity
  8
BLOCKS
100
AcDbCircle
 10
0.0059999999999997
 20
0.0719447463799929
 30
0.0
 40
0.006
100
AcDbArc
 50
180.0
 51
260.3878853251035
  0
LINE
  5
1336
330
131B
100
AcDbEntity
  8
BLOCKS
100
AcDbLine
 10
0.0
 20
0.0719447463799929
 30
0.0
 11
0.0
 21
0.2258838348614012
 31
0.0
  0
LINE
  5
1337
330
131B
100
AcDbEntity
  8
BLOCKS
100
AcDbLine
 10
0.513248031163343
 20
0.2059143423635004
 30
0.0
 11
0.0327007491444698
 21
0.2059143423635004
 31
0.0
  0
ARC
  5
1338
330
131B
100
AcDbEntity
  8
BLOCKS
100
AcDbCircle
 10
0.204428847776407
 20
0.4907949181997669
 30
0.0
 40
0.4558116707292535
100
AcDbArc
 50
262.160337041001
 51
287.5978471795248
  0
ARC
  5
1339
330
131B
100
AcDbEntity
  8
BLOCKS
100
AcDbCircle
 10
0.2083457098903352
 20
1.266747995798985
 30
0.0
 40
1.217816236536384
100
AcDbArc
 50
260.3878853251035
 51
276.3882793203419
  0
LINE
  5
133A
330
131B
100
AcDbEntity
  8
BLOCKS
100
AcDbLine
 10
0.3206707221497282
 20
0.1459143423635004
 30
0.0
 11
0.0059999999999997
 21
0.1459143423635004
 31
0.0
  0
ENDBLK
  5
133C
330
131B
100
AcDbEntity
  8
0
100
AcDbBlockEnd
  0
ENDSEC
  0
SECTION
  2
ENTITIES
  0
CIRCLE
  5
11C8
330
1F
100
AcDbEntity
  8
SANINDUSA
  6
Continuous
100
AcDbCircle
 10
5234.218126738913
 20
1854.612844519727
 30
0.0
 40
0.0175
  0
LINE
  5
11C9
330
1F
100
AcDbEntity
  8
SANINDUSA
  6
Continuous
100
AcDbLine
 10
5233.783127477131
 20
1854.668599426508
 30
0.0
 11
5233.783127477131
 21
1854.337844519727
 31
0.0
  0
LINE
  5
11CA
330
1F
100
AcDbEntity
  8
SANINDUSA
  6
Continuous
100
AcDbLine
 10
5234.653126738914
 20
1854.668599426508
 30
0.0
 11
5234.653126738914
 21
1854.337844519727
 31
0.0
  0
LWPOLYLINE
  5
11CB
330
1F
100
AcDbEntity
  8
SANINDUSA
  6
Continuous
100
AcDbPolyline
 90
       15
 70
   128
 43
0.0
 10
5234.218126738913
 20
1854.658952945499
 10
5234.218578885955
 20
1854.658952579393
 10
5234.238793197735
 20
1854.65846651687
 10
5234.258975106198
 20
1854.657064114459
 10
5234.279062292355
 20
1854.654749222627
 10
5234.299402656501
 20
1854.651452453446
 10
5234.319579600092
 20
1854.64721619599
 10
5234.339528192361
 20
1854.642053662539
 10
5234.354152036455
 20
1854.637631675877
 10
5234.368615340875
 20
1854.632709933887
 10
5234.387661619376
 20
1854.625361660703
 10
5234.406360359421
 20
1854.617142425904
 10
5234.424652200647
 20
1854.608077901144
 10
5234.438316001145
 20
1854.600601268984
 10
5234.451709053441
 20
1854.592649817767
  0
LWPOLYLINE
  5
11CC
330
1F
100
AcDbEntity
  8
SANINDUSA
  6
Continuous
100
AcDbPolyline
 90
       15
 70
   128
 43
0.0
 10
5234.218126738913
 20
1854.658952945499
 10
5234.217674591871
 20
1854.658952579393
 10
5234.197460280092
 20
1854.65846651687
 10
5234.177278371629
 20
1854.657064114459
 10
5234.157191185473
 20
1854.654749222627
 10
5234.136850821326
 20
1854.651452453446
 10
5234.116673877735
 20
1854.64721619599
 10
5234.096725285466
 20
1854.642053662539
 10
5234.082101441373
 20
1854.637631675877
 10
5234.067638136951
 20
1854.632709933887
 10
5234.048591858451
 20
1854.625361660703
 10
5234.029893118407
 20
1854.617142425904
 10
5234.011601277179
 20
1854.608077901144
 10
5233.997937476682
 20
1854.600601268984
 10
5233.984544424386
 20
1854.592649817767
  0
LINE
  5
11CD
330
1F
100
AcDbEntity
  8
SANINDUSA
  6
Continuous
100
AcDbLine
 10
5233.798127477131
 20
1854.322844519727
 30
0.0
 11
5233.9315262846
 21
1854.322844519727
 31
0.0
  0
LWPOLYLINE
  5
11CE
330
1F
100
AcDbEntity
  8
SANINDUSA
  6
Continuous
100
AcDbPolyline
 90
       10
 70
   128
 43
0.0
 10
5233.783127477131
 20
1854.337844519727
 10
5233.78348887459
 20
1854.33457170509
 10
5233.78424794542
 20
1854.332160052836
 10
5233.78539856365
 20
1854.329908855823
 10
5233.786914782103
 20
1854.327883098205
 10
5233.788747773227
 20
1854.326138916169
 10
5233.790849705549
 20
1854.324730080328
 10
5233.793157233467
 20
1854.323691898842
 10
5233.795606753834
 20
1854.323059375536
 10
5233.798127477131
 20
1854.322844519727
  0
LWPOLYLINE
  5
11CF
330
1F
100
AcDbEntity
  8
SANINDUSA
  6
Continuous
100
AcDbPolyline
 90
       19
 70
   128
 43
0.0
 10
5234.473870499671
 20
1854.479036539776
 10
5234.470822270932
 20
1854.478475164223
 10
5234.466764648508
 20
1854.478289645182
 10
5234.461763526597
 20
1854.478483422072
 10
5234.455884799395
 20
1854.479059934311
 10
5234.449041154651
 20
1854.480064930985
 10
5234.441359674768
 20
1854.481483755102
 10
5234.432925727007
 20
1854.483266141901
 10
5234.420067467236
 20
1854.486226994039
 42
-0.0588320303734319
 10
5234.415651696314
 20
1854.487808179058
 10
5234.400545261797
 20
1854.495318635866
 10
5234.395169483748
 20
1854.497595519004
 10
5234.389707868954
 20
1854.499592034143
 10
5234.379764740537
 20
1854.502560191462
 10
5234.369624782186
 20
1854.504908312152
 10
5234.357976430097
 20
1854.506905656301
 10
5234.34626223457
 20
1854.508196258573
 10
5234.334797627107
 20
1854.508926126862
 10
5234.323153339173
 20
1854.508878047153
  0
LINE
  5
11D0
330
1F
100
AcDbEntity
  8
SANINDUSA
  6
Continuous
100
AcDbLine
 10
5234.398344839458
 20
1854.536245245265
 30
0.0
 11
5234.330261146441
 21
1854.536245245265
 31
0.0
  0
LWPOLYLINE
  5
11D1
330
1F
100
AcDbEntity
  8
SANINDUSA
  6
Continuous
100
AcDbPolyline
 90
       27
 70
   128
 43
0.0
 10
5234.218126738913
 20
1854.22345800327
 10
5234.235240264279
 20
1854.224055336792
 10
5234.252330755716
 20
1854.225827838889
 10
5234.269285079129
 20
1854.228746261856
 10
5234.285990100417
 20
1854.232781357987
 10
5234.302332685483
 20
1854.237903879577
 10
5234.318702566977
 20
1854.244284063345
 10
5234.334659104592
 20
1854.251775956856
 10
5234.350103041813
 20
1854.260317863133
 10
5234.364935122119
 20
1854.269848085202
 10
5234.379056088995
 20
1854.280304926087
 10
5234.391333543437
 20
1854.29066941558
 10
5234.402967778634
 20
1854.301751336894
 10
5234.415431520353
 20
1854.315261817343
 10
5234.426983136323
 20
1854.329642008609
 10
5234.437551459258
 20
1854.344786334022
 10
5234.447065321878
 20
1854.360589216912
 10
5234.455453556903
 20
1854.376945080607
 10
5234.460492578104
 20
1854.388241806872
 10
5234.465025342802
 20
1854.3997922482
 10
5234.468913677648
 20
1854.411568057385
 10
5234.472019409297
 20
1854.423540887218
 10
5234.474204364402
 20
1854.435682390494
 10
5234.475293413732
 20
1854.44648844835
 10
5234.475605829427
 20
1854.45737331223
 10
5234.475135764816
 20
1854.468251810782
 10
5234.473877373226
 20
1854.479038772653
  0
LWPOLYLINE
  5
11D2
330
1F
100
AcDbEntity
  8
SANINDUSA
  6
Continuous
100
AcDbPolyline
 90
       32
 70
   128
 43
0.0
 10
5234.218127489589
 20
1854.176170689607
 10
5234.224816656197
 20
1854.176309173038
 10
5234.235553926877
 20
1854.176770727655
 10
5234.245292960541
 20
1854.17744342577
 10
5234.254289492657
 20
1854.178326701614
 10
5234.262707852331
 20
1854.179420351904
 10
5234.271583145621
 20
1854.180872802365
 10
5234.280699771356
 20
1854.182653354535
 10
5234.290227769328
 20
1854.184826705827
 10
5234.299732655012
 20
1854.18731673385
 10
5234.309191500558
 20
1854.190119748636
 10
5234.318579578088
 20
1854.193230361461
 10
5234.327872045849
 20
1854.196641800436
 10
5234.33704038987
 20
1854.200344334321
 10
5234.34605961899
 20
1854.204327796727
 10
5234.354907359936
 20
1854.208581616436
 10
5234.363589122931
 20
1854.213105581762
 10
5234.372153028889
 20
1854.217921440913
 10
5234.380607123486
 20
1854.223034914277
 10
5234.388935723844
 20
1854.228438969121
 10
5234.397122987825
 20
1854.234125572645
 10
5234.405152962022
 20
1854.240085655881
 10
5234.413009720658
 20
1854.246309141829
 10
5234.420677509351
 20
1854.252784993129
 10
5234.428140801227
 20
1854.259501196143
 10
5234.435379451773
 20
1854.266439134354
 10
5234.4423962858
 20
1854.273601389057
 10
5234.449174327679
 20
1854.280971280592
 10
5234.455712441785
 20
1854.288547085941
 10
5234.462009479944
 20
1854.296327348032
 10
5234.468062819429
 20
1854.304308932937
 10
5234.46855324365
 20
1854.304999736776
  0
LWPOLYLINE
  5
11D3
330
1F
100
AcDbEntity
  8
SANINDUSA
  6
Continuous
100
AcDbPolyline
 90
       27
 70
   128
 43
0.0
 10
5234.218126738913
 20
1854.22345800327
 10
5234.201013213548
 20
1854.224055336792
 10
5234.18392272211
 20
1854.225827838889
 10
5234.166968398698
 20
1854.228746261856
 10
5234.15026337741
 20
1854.232781357987
 10
5234.133920792344
 20
1854.237903879577
 10
5234.117550910851
 20
1854.244284063345
 10
5234.101594373234
 20
1854.251775956856
 10
5234.086150436015
 20
1854.260317863133
 10
5234.071318355707
 20
1854.269848085202
 10
5234.057197388833
 20
1854.280304926087
 10
5234.044919934389
 20
1854.29066941558
 10
5234.033285699193
 20
1854.301751336894
 10
5234.020821957472
 20
1854.315261817343
 10
5234.009270341504
 20
1854.329642008609
 10
5233.998702018568
 20
1854.344786334022
 10
5233.989188155948
 20
1854.360589216912
 10
5233.980799920924
 20
1854.376945080607
 10
5233.975760899721
 20
1854.388241806872
 10
5233.971228135025
 20
1854.3997922482
 10
5233.967339800178
 20
1854.411568057385
 10
5233.964234068531
 20
1854.423540887218
 10
5233.962049113425
 20
1854.435682390494
 10
5233.960960064095
 20
1854.44648844835
 10
5233.960647648399
 20
1854.45737331223
 10
5233.961117713011
 20
1854.468251810782
 10
5233.962376104601
 20
1854.479038772653
  0
LWPOLYLINE
  5
11D4
330
1F
100
AcDbEntity
  8
SANINDUSA
  6
Continuous
100
AcDbPolyline
 90
       32
 70
   128
 43
0.0
 10
5233.967717854515
 20
1854.30501227685
 10
5233.969541439175
 20
1854.302482047767
 10
5233.97564783622
 20
1854.294548861375
 10
5233.981995485681
 20
1854.286819524663
 10
5233.988583079245
 20
1854.279295323547
 10
5233.995408709507
 20
1854.271978453712
 10
5234.002470105853
 20
1854.264871554335
 10
5234.00976596718
 20
1854.257976461577
 10
5234.01728511385
 20
1854.251305518774
 10
5234.025005377025
 20
1854.24487857147
 10
5234.032925521566
 20
1854.238696514712
 10
5234.041028181482
 20
1854.232773313437
 10
5234.049297594858
 20
1854.227120355285
 10
5234.057717742955
 20
1854.22174809248
 10
5234.06627249723
 20
1854.21666597826
 10
5234.074945765269
 20
1854.211882422678
 10
5234.083721653094
 20
1854.207404758411
 10
5234.092596798767
 20
1854.203232488237
 10
5234.101603610296
 20
1854.199345919499
 10
5234.110771320064
 20
1854.195732169948
 10
5234.120077227778
 20
1854.192402350375
 10
5234.129497768123
 20
1854.189366526098
 10
5234.139006210096
 20
1854.186634289709
 10
5234.14857498375
 20
1854.184213744724
 10
5234.158179132318
 20
1854.182110719953
 10
5234.167793949534
 20
1854.180329627909
 10
5234.176236324661
 20
1854.179040399598
 10
5234.18518831091
 20
1854.177978409294
 10
5234.194347063397
 20
1854.177178657747
 10
5234.204208997877
 20
1854.176590675114
 10
5234.214980660836
 20
1854.176210122966
 10
5234.218126060463
 20
1854.176162307499
  0
LWPOLYLINE
  5
11D5
330
1F
100
AcDbEntity
  8
SANINDUSA
  6
Continuous
100
AcDbPolyline
 90
       11
 70
   128
 43
0.0
 10
5234.113100138654
 20
1854.508878047153
 10
5234.118202492316
 20
1854.508853164167
 10
5234.123316659008
 20
1854.509254256575
 10
5234.128566609698
 20
1854.510126177183
 10
5234.133740286058
 20
1854.511465714296
 10
5234.138642380436
 20
1854.513214909869
 10
5234.143381982667
 20
1854.515397835519
 10
5234.148083352607
 20
1854.518118226854
 10
5234.15251464206
 20
1854.521264507107
 10
5234.15631081836
 20
1854.5244674386
 10
5234.159841994593
 20
1854.528002274006
  0
LWPOLYLINE
  5
11D6
330
1F
100
AcDbEntity
  8
SANINDUSA
  6
Continuous
100
AcDbPolyline
 90
        8
 70
   128
 43
0.0
 10
5234.105992331386
 20
1854.536245245265
 10
5234.114042394374
 20
1854.536911537294
 10
5234.122011925702
 20
1854.53891508268
 10
5234.125953728526
 20
1854.540451482386
 10
5234.129750794965
 20
1854.542317184647
 10
5234.136615431305
 20
1854.546837215339
 10
5234.139830496054
 20
1854.549588922699
 10
5234.142800074135
 20
1854.552603874565
  0
LWPOLYLINE
  5
11D7
330
1F
100
AcDbEntity
  8
SANINDUSA
  6
Continuous
100
AcDbPolyline
 90
       13
 70
   128
 43
0.0
 10
5233.916943354402
 20
1854.498031429812
 10
5233.914068771242
 20
1854.48267002022
 10
5233.912375533982
 20
1854.467133583551
 10
5233.911878567804
 20
1854.451399499144
 10
5233.912591644373
 20
1854.435627428802
 10
5233.914497157867
 20
1854.419954103789
 10
5233.917577502455
 20
1854.404516255369
 10
5233.922203194795
 20
1854.387819406459
 10
5233.927866950395
 20
1854.371417773982
 10
5233.934363348242
 20
1854.355312302907
 10
5233.941486967325
 20
1854.339503938205
 10
5233.947503216369
 20
1854.326789309913
 10
5233.948393483491
 20
1854.324829340424
  0
LWPOLYLINE
  5
11D8
330
1F
100
AcDbEntity
  8
SANINDUSA
  6
Continuous
100
AcDbPolyline
 90
        8
 70
   128
 43
0.0
 10
5233.949119159825
 20
1854.319418651511
 10
5233.951762346256
 20
1854.318246328414
 10
5233.955038855928
 20
1854.316451672811
 10
5233.958162764134
 20
1854.314383011333
 10
5233.96109845385
 20
1854.312061268486
 10
5233.96381345988
 20
1854.309511214253
 10
5233.966280417173
 20
1854.306759281959
 10
5233.967637015813
 20
1854.304951711788
  0
LWPOLYLINE
  5
11D9
330
1F
100
AcDbEntity
  8
SANINDUSA
  6
Continuous
100
AcDbPolyline
 90
        4
 70
   128
 43
0.0
 10
5233.943920813576
 20
1854.321179961322
 10
5233.945933557411
 20
1854.320609155899
 10
5233.947993802471
 20
1854.319900580955
 10
5233.949131796297
 20
1854.31944259009
  0
LINE
  5
11DA
330
1F
100
AcDbEntity
  8
SANINDUSA
  6
Continuous
100
AcDbLine
 10
5233.9315262846
 20
1854.322844519727
 30
0.0
 11
5233.932501802103
 21
1854.322844519727
 31
0.0
  0
LWPOLYLINE
  5
11DB
330
1F
100
AcDbEntity
  8
SANINDUSA
  6
Continuous
100
AcDbPolyline
 90
       10
 70
   128
 43
0.0
 10
5233.932501802103
 20
1854.322844519727
 10
5233.934168812139
 20
1854.322809241766
 10
5233.935861831628
 20
1854.32270314742
 10
5233.938853286463
 20
1854.322336376898
 10
5233.941785134828
 20
1854.321752356129
 10
5233.943197559687
 20
1854.321388011651
 10
5233.943758801331
 20
1854.32122784903
 10
5233.943879833508
 20
1854.321192145486
 10
5233.943916213122
 20
1854.321181332598
 10
5233.943920813576
 20
1854.321179961322
  0
LWPOLYLINE
  5
11DC
330
1F
100
AcDbEntity
  8
SANINDUSA
  6
Continuous
100
AcDbPolyline
 90
       20
 70
   128
 43
0.0
 10
5233.962382978155
 20
1854.479036539776
 10
5233.965431206895
 20
1854.478475164223
 10
5233.969488829319
 20
1854.478289645182
 10
5233.974489951231
 20
1854.478483422072
 10
5233.980368678431
 20
1854.479059934311
 10
5233.987212323175
 20
1854.480064930985
 10
5233.994893803059
 20
1854.481483755102
 10
5234.00332775082
 20
1854.483266141901
 10
5234.012428799198
 20
1854.485361826623
 10
5234.016577072646
 20
1854.486365356214
 42
0.0560650464319029
 10
5234.020778117097
 20
1854.487895847713
 10
5234.035708216031
 20
1854.495318635866
 10
5234.041083994078
 20
1854.497595519004
 10
5234.046545608873
 20
1854.499592034143
 10
5234.056488737291
 20
1854.502560191462
 10
5234.066628695642
 20
1854.504908312152
 10
5234.078277047729
 20
1854.506905656301
 10
5234.089991243258
 20
1854.508196258573
 10
5234.101455850719
 20
1854.508926126862
 10
5234.113100138654
 20
1854.508878047153
  0
LWPOLYLINE
  5
11DD
330
1F
100
AcDbEntity
  8
SANINDUSA
  6
Continuous
100
AcDbPolyline
 90
       14
 70
   128
 43
0.0
 10
5233.96291738765
 20
1854.481366296647
 10
5233.965596885958
 20
1854.488613277861
 10
5233.968987240928
 20
1854.4955775593
 10
5233.973037963751
 20
1854.502157169729
 10
5233.978483081052
 20
1854.509179395059
 10
5233.984706815551
 20
1854.515562512082
 10
5233.991587778672
 20
1854.521185414103
 10
5233.998990147565
 20
1854.52594197769
 10
5234.00689894638
 20
1854.5298610335
 10
5234.015166390344
 20
1854.532873208061
 10
5234.023540335003
 20
1854.534911763232
 10
5234.032085952493
 20
1854.536028356146
 10
5234.037928821471
 20
1854.536245245321
 10
5234.037928881469
 20
1854.536245245265
  0
LWPOLYLINE
  5
11DE
330
1F
100
AcDbEntity
  8
SANINDUSA
  6
Continuous
100
AcDbPolyline
 90
       11
 70
   128
 43
0.0
 10
5233.984544424386
 20
1854.592649817767
 10
5233.973061300429
 20
1854.584798367442
 10
5233.962351502942
 20
1854.575921005538
 10
5233.954762713284
 20
1854.568503291368
 10
5233.947706359598
 20
1854.560559597033
 10
5233.941235021042
 20
1854.552149240076
 10
5233.933803798294
 20
1854.540676848672
 10
5233.927442544102
 20
1854.528578351748
 10
5233.92321934593
 20
1854.518659314393
 10
5233.919710818728
 20
1854.508450855877
 10
5233.916943354402
 20
1854.498031429812
  0
LWPOLYLINE
  5
11DF
330
1F
100
AcDbEntity
  8
SANINDUSA
  6
Continuous
100
AcDbPolyline
 90
        9
 70
   128
 43
0.0
 10
5233.96291738765
 20
1854.481366296647
 10
5233.962832008949
 20
1854.481079754364
 10
5233.962751886757
 20
1854.480791673211
 10
5233.962677049063
 20
1854.48050215384
 10
5233.962607522017
 20
1854.480211297406
 10
5233.962543329913
 20
1854.479919205535
 10
5233.962484495177
 20
1854.479625980278
 10
5233.962431038364
 20
1854.479331724089
 10
5233.962382978155
 20
1854.479036539776
  0
LWPOLYLINE
  5
11E0
330
1F
100
AcDbEntity
  8
SANINDUSA
  6
Continuous
100
AcDbPolyline
 90
        3
 70
   128
 43
0.0
 10
5233.962376104601
 20
1854.479038772653
 10
5233.962379533107
 20
1854.4790376103
 10
5233.962382978155
 20
1854.479036539776
  0
LWPOLYLINE
  5
11E1
330
1F
100
AcDbEntity
  8
SANINDUSA
  6
Continuous
100
AcDbPolyline
 90
        9
 70
   128
 43
0.0
 10
5233.962915090709
 20
1854.481366151296
 10
5233.962829164822
 20
1854.48107990007
 10
5233.962748487996
 20
1854.480792112196
 10
5233.962673088388
 20
1854.480502888107
 10
5233.96260299231
 20
1854.480212328736
 10
5233.962538224224
 20
1854.479920535481
 10
5233.962478806733
 20
1854.479627610173
 10
5233.962424760572
 20
1854.479333655036
 10
5233.962376104601
 20
1854.479038772653
  0
LINE
  5
11E2
330
1F
100
AcDbEntity
  8
SANINDUSA
  6
Continuous
100
AcDbLine
 10
5233.96291738765
 20
1854.481366296647
 30
0.0
 11
5233.962915090709
 21
1854.481366151296
 31
0.0
  0
LINE
  5
11E3
330
1F
100
AcDbEntity
  8
SANINDUSA
  6
Continuous
100
AcDbLine
 10
5234.037908638368
 20
1854.536245245265
 30
0.0
 11
5234.105992331386
 21
1854.536245245265
 31
0.0
  0
CIRCLE
  5
11E4
330
1F
100
AcDbEntity
  8
SANINDUSA
  6
Continuous
100
AcDbCircle
 10
5234.218126738913
 20
1854.487844519727
 30
0.0
 40
0.0239999999999998
  0
LWPOLYLINE
  5
11E5
330
1F
100
AcDbEntity
  8
SANINDUSA
  6
Continuous
100
AcDbPolyline
 90
       12
 70
   128
 43
0.0
 10
5234.218126738913
 20
1854.528299245157
 10
5234.218126798913
 20
1854.528299245157
 10
5234.224681113953
 20
1854.527755933266
 10
5234.23088484467
 20
1854.526180705831
 10
5234.23674719568
 20
1854.52361521746
 10
5234.24261925968
 20
1854.51970354011
 10
5234.247704082573
 20
1854.514813414914
 10
5234.251998271302
 20
1854.50884905677
 10
5234.25516945215
 20
1854.502215654585
 10
5234.257103300691
 20
1854.495145952301
 10
5234.257763087915
 20
1854.487844579727
 10
5234.257763087911
 20
1854.487844519727
  0
LWPOLYLINE
  5
11E6
330
1F
100
AcDbEntity
  8
SANINDUSA
  6
Continuous
100
AcDbPolyline
 90
        6
 70
   128
 43
0.0
 10
5234.272522418944
 20
1854.529421836619
 10
5234.261718552803
 20
1854.528549663766
 10
5234.250858262315
 20
1854.528457447191
 10
5234.23996476026
 20
1854.528819686827
 10
5234.229048151384
 20
1854.529288183394
 10
5234.218126738913
 20
1854.52951245644
  0
LWPOLYLINE
  5
11E7
330
1F
100
AcDbEntity
  8
SANINDUSA
  6
Continuous
100
AcDbPolyline
 90
       33
 70
   128
 43
0.0
 10
5234.218126738913
 20
1854.555313389501
 10
5234.219839614739
 20
1854.555298140305
 10
5234.221811840581
 20
1854.555241107039
 10
5234.223679054892
 20
1854.555143281061
 10
5234.225399029076
 20
1854.555004807978
 10
5234.226909776731
 20
1854.554829682997
 10
5234.228173189081
 20
1854.5546196072
 10
5234.229146029134
 20
1854.554380998104
 10
5234.22979809619
 20
1854.55411865628
 10
5234.230113871273
 20
1854.553840156129
 10
5234.230080356172
 20
1854.553552868791
 10
5234.229703698204
 20
1854.553265112154
 10
5234.22895608726
 20
1854.552975229206
 10
5234.227872311324
 20
1854.55270401789
 10
5234.225031574091
 20
1854.552278608366
 10
5234.221440573083
 20
1854.552013168548
 10
5234.218126738913
 20
1854.551940409468
 10
5234.217474070614
 20
1854.551943184435
 10
5234.21358152522
 20
1854.552079558444
 10
5234.211773149396
 20
1854.552222730947
 10
5234.210147348052
 20
1854.55240862271
 10
5234.208548564819
 20
1854.552670063123
 10
5234.207456577919
 20
1854.552928089274
 10
5234.206673070048
 20
1854.5532050302
 10
5234.206225001925
 20
1854.553491171585
 10
5234.206117137768
 20
1854.55377864992
 10
5234.206354457887
 20
1854.554057060732
 10
5234.206924307178
 20
1854.554321215295
 10
5234.208986200695
 20
1854.554777777063
 10
5234.210425563013
 20
1854.554961147049
 10
5234.212083898267
 20
1854.555109167823
 10
5234.215828328004
 20
1854.555285803455
 10
5234.218126738913
 20
1854.555313389501
  0
LWPOLYLINE
  5
11E8
330
1F
100
AcDbEntity
  8
SANINDUSA
  6
Continuous
100
AcDbPolyline
 90
       13
 70
   128
 43
0.0
 10
5234.257763087911
 20
1854.487844519727
 10
5234.25776308797
 20
1854.487844459727
 10
5234.25735518586
 20
1854.482184383353
 10
5234.256148259617
 20
1854.476639483432
 10
5234.253693221782
 20
1854.47035161372
 10
5234.25021127801
 20
1854.464569054726
 10
5234.245901301916
 20
1854.459579162309
 10
5234.240826812703
 20
1854.455369012404
 10
5234.235094611374
 20
1854.452053456238
 10
5234.228893341499
 20
1854.44973035998
 10
5234.223560898385
 20
1854.448619163987
 10
5234.218126798913
 20
1854.448244155534
 10
5234.218126738913
 20
1854.448244155534
  0
ARC
  5
11E9
330
1F
100
AcDbEntity
  8
SANINDUSA
  6
Continuous
100
AcDbCircle
 10
5234.218126738913
 20
1855.298526269195
 30
0.0
 40
0.7418110956556168
100
AcDbArc
 50
265.4342830582928
 51
274.5657169417072
  0
LWPOLYLINE
  5
11EA
330
1F
100
AcDbEntity
  8
SANINDUSA
  6
Continuous
100
AcDbPolyline
 90
       12
 70
   128
 43
0.0
 10
5234.218126738913
 20
1854.528299245157
 10
5234.218126678913
 20
1854.528299245157
 10
5234.211572363875
 20
1854.527755933266
 10
5234.205368633157
 20
1854.526180705831
 10
5234.199506282146
 20
1854.52361521746
 10
5234.193634218146
 20
1854.51970354011
 10
5234.188549395254
 20
1854.514813414914
 10
5234.184255206526
 20
1854.50884905677
 10
5234.181084025678
 20
1854.502215654585
 10
5234.179150177135
 20
1854.495145952301
 10
5234.178490389911
 20
1854.487844579727
 10
5234.178490389915
 20
1854.487844519727
  0
LWPOLYLINE
  5
11EB
330
1F
100
AcDbEntity
  8
SANINDUSA
  6
Continuous
100
AcDbPolyline
 90
       13
 70
   128
 43
0.0
 10
5234.178490389915
 20
1854.487844519727
 10
5234.178490389858
 20
1854.487844459727
 10
5234.178898291967
 20
1854.482184383353
 10
5234.18010521821
 20
1854.476639483432
 10
5234.182560256044
 20
1854.47035161372
 10
5234.186042199816
 20
1854.464569054726
 10
5234.190352175911
 20
1854.459579162309
 10
5234.195426665124
 20
1854.455369012404
 10
5234.201158866452
 20
1854.452053456238
 10
5234.207360136327
 20
1854.44973035998
 10
5234.212692579442
 20
1854.448619163987
 10
5234.218126678913
 20
1854.448244155534
 10
5234.218126738913
 20
1854.448244155534
  0
LWPOLYLINE
  5
11EC
330
1F
100
AcDbEntity
  8
SANINDUSA
  6
Continuous
100
AcDbPolyline
 90
        6
 70
   128
 43
0.0
 10
5234.163731058882
 20
1854.529421836619
 10
5234.174534925024
 20
1854.528549663766
 10
5234.185395215511
 20
1854.528457447191
 10
5234.196288717567
 20
1854.528819686827
 10
5234.207205326443
 20
1854.529288183394
 10
5234.218126738913
 20
1854.52951245644
  0
LWPOLYLINE
  5
11ED
330
1F
100
AcDbEntity
  8
SANINDUSA
  6
Continuous
100
AcDbPolyline
 90
        6
 70
   128
 43
0.0
 10
5234.159841994593
 20
1854.528002274006
 10
5234.160668392641
 20
1854.528713497802
 10
5234.161360643212
 20
1854.529092522227
 10
5234.16213725717
 20
1854.529347818617
 10
5234.162919897114
 20
1854.529454515525
 10
5234.163731058882
 20
1854.529421836619
  0
LWPOLYLINE
  5
11EE
330
1F
100
AcDbEntity
  8
SANINDUSA
  6
Continuous
100
AcDbPolyline
 90
        6
 70
   128
 43
0.0
 10
5234.142800074135
 20
1854.552603874565
 10
5234.145191179669
 20
1854.554862163848
 10
5234.148011011325
 20
1854.556737447565
 10
5234.151017392385
 20
1854.558066583176
 10
5234.154300694299
 20
1854.558889710187
 10
5234.159076732361
 20
1854.559069172155
  0
LWPOLYLINE
  5
11EF
330
1F
100
AcDbEntity
  8
SANINDUSA
  6
Continuous
100
AcDbPolyline
 90
       11
 70
   128
 43
0.0
 10
5234.323153339173
 20
1854.508878047153
 10
5234.31805098551
 20
1854.508853164167
 10
5234.312936818819
 20
1854.509254256575
 10
5234.307686868128
 20
1854.510126177183
 10
5234.302513191769
 20
1854.511465714296
 10
5234.297611097391
 20
1854.513214909869
 10
5234.29287149516
 20
1854.515397835519
 10
5234.288170125219
 20
1854.518118226854
 10
5234.283738835768
 20
1854.521264507107
 10
5234.279942659466
 20
1854.5244674386
 10
5234.276411483233
 20
1854.528002274006
  0
LWPOLYLINE
  5
11F0
330
1F
100
AcDbEntity
  8
SANINDUSA
  6
Continuous
100
AcDbPolyline
 90
        6
 70
   128
 43
0.0
 10
5234.231287356121
 20
1854.507914351682
 10
5234.232070792661
 20
1854.507378166726
 10
5234.232744238777
 20
1854.506879453342
 10
5234.233090747353
 20
1854.506608273387
 10
5234.233240955202
 20
1854.506487493363
 10
5234.233258871678
 20
1854.506472953852
  0
LWPOLYLINE
  5
11F1
330
1F
100
AcDbEntity
  8
SANINDUSA
  6
Continuous
100
AcDbPolyline
 90
        6
 70
   128
 43
0.0
 10
5234.276411483233
 20
1854.528002274006
 10
5234.275585085185
 20
1854.528713497802
 10
5234.274892834616
 20
1854.529092522227
 10
5234.274116220658
 20
1854.529347818617
 10
5234.273333580713
 20
1854.529454515525
 10
5234.272522418944
 20
1854.529421836619
  0
LWPOLYLINE
  5
11F2
330
1F
100
AcDbEntity
  8
SANINDUSA
  6
Continuous
100
AcDbPolyline
 90
        8
 70
   128
 43
0.0
 10
5234.330261146441
 20
1854.536245245265
 10
5234.322211083452
 20
1854.536911537294
 10
5234.314241552125
 20
1854.53891508268
 10
5234.310299749303
 20
1854.540451482386
 10
5234.306502682862
 20
1854.542317184647
 10
5234.299638046522
 20
1854.546837215339
 10
5234.296422981771
 20
1854.549588922699
 10
5234.293453403692
 20
1854.552603874565
  0
LWPOLYLINE
  5
11F3
330
1F
100
AcDbEntity
  8
SANINDUSA
  6
Continuous
100
AcDbPolyline
 90
        6
 70
   128
 43
0.0
 10
5234.293453403692
 20
1854.552603874565
 10
5234.291062298158
 20
1854.554862163848
 10
5234.288242466501
 20
1854.556737447565
 10
5234.285236085442
 20
1854.558066583176
 10
5234.281952783527
 20
1854.558889710187
 10
5234.277176745464
 20
1854.559069172155
  0
LINE
  5
11F4
330
1F
100
AcDbEntity
  8
SANINDUSA
  6
Continuous
100
AcDbLine
 10
5234.638126738913
 20
1854.322844519727
 30
0.0
 11
5234.504727193227
 21
1854.322844519727
 31
0.0
  0
LWPOLYLINE
  5
11F5
330
1F
100
AcDbEntity
  8
SANINDUSA
  6
Continuous
100
AcDbPolyline
 90
       13
 70
   128
 43
0.0
 10
5234.519310123424
 20
1854.498031429812
 10
5234.522184706584
 20
1854.48267002022
 10
5234.523877943844
 20
1854.467133583551
 10
5234.524374910023
 20
1854.451399499144
 10
5234.523661833453
 20
1854.435627428802
 10
5234.52175631996
 20
1854.419954103789
 10
5234.518675975373
 20
1854.404516255369
 10
5234.514050283031
 20
1854.387819406459
 10
5234.508386527431
 20
1854.371417773982
 10
5234.501890129585
 20
1854.355312302907
 10
5234.494766510501
 20
1854.339503938205
 10
5234.488750261458
 20
1854.326789309913
 10
5234.487859994334
 20
1854.324829340424
  0
LWPOLYLINE
  5
11F6
330
1F
100
AcDbEntity
  8
SANINDUSA
  6
Continuous
100
AcDbPolyline
 90
        9
 70
   128
 43
0.0
 10
5234.503751675724
 20
1854.322844519727
 10
5234.502084665689
 20
1854.322809241766
 10
5234.500391646197
 20
1854.32270314742
 10
5234.497400191363
 20
1854.322336376898
 10
5234.494468342998
 20
1854.321752356129
 10
5234.493055918139
 20
1854.321388011651
 10
5234.492494676496
 20
1854.32122784903
 10
5234.492373644319
 20
1854.321192145486
 10
5234.491156270244
 20
1854.320857214653
  0
LWPOLYLINE
  5
11F7
330
1F
100
AcDbEntity
  8
SANINDUSA
  6
Continuous
100
AcDbPolyline
 90
        8
 70
   128
 43
0.0
 10
5234.468612979889
 20
1854.304953793009
 10
5234.470072708894
 20
1854.306880185429
 10
5234.472508050442
 20
1854.30958067278
 10
5234.475196037454
 20
1854.312096584777
 10
5234.478115348383
 20
1854.31440084483
 10
5234.481239994676
 20
1854.316466971805
 10
5234.48453996016
 20
1854.31827043698
 10
5234.487135316665
 20
1854.319416094371
  0
LWPOLYLINE
  5
11F8
330
1F
100
AcDbEntity
  8
SANINDUSA
  6
Continuous
100
AcDbPolyline
 90
        4
 70
   128
 43
0.0
 10
5234.487120923432
 20
1854.319444083937
 10
5234.48832113312
 20
1854.319923451927
 10
5234.490458457111
 20
1854.320652928659
 10
5234.491156270244
 20
1854.320857214653
  0
LINE
  5
11F9
330
1F
100
AcDbEntity
  8
SANINDUSA
  6
Continuous
100
AcDbLine
 10
5234.504727193227
 20
1854.322844519727
 30
0.0
 11
5234.503751675724
 21
1854.322844519727
 31
0.0
  0
LWPOLYLINE
  5
11FA
330
1F
100
AcDbEntity
  8
SANINDUSA
  6
Continuous
100
AcDbPolyline
 90
       14
 70
   128
 43
0.0
 10
5234.473336090179
 20
1854.481366296647
 10
5234.470656591868
 20
1854.488613277861
 10
5234.467266236899
 20
1854.4955775593
 10
5234.463215514076
 20
1854.502157169729
 10
5234.457770396773
 20
1854.509179395059
 10
5234.451546662276
 20
1854.515562512082
 10
5234.444665699154
 20
1854.521185414103
 10
5234.437263330261
 20
1854.52594197769
 10
5234.429354531447
 20
1854.5298610335
 10
5234.421087087483
 20
1854.532873208061
 10
5234.412713142824
 20
1854.534911763232
 10
5234.404167525333
 20
1854.536028356146
 10
5234.398324656357
 20
1854.536245245321
 10
5234.398324596359
 20
1854.536245245265
  0
LWPOLYLINE
  5
11FB
330
1F
100
AcDbEntity
  8
SANINDUSA
  6
Continuous
100
AcDbPolyline
 90
       11
 70
   128
 43
0.0
 10
5234.451709053441
 20
1854.592649817767
 10
5234.463192177398
 20
1854.584798367442
 10
5234.473901974884
 20
1854.575921005538
 10
5234.481490764544
 20
1854.568503291368
 10
5234.488547118228
 20
1854.560559597033
 10
5234.495018456784
 20
1854.552149240076
 10
5234.502449679532
 20
1854.540676848672
 10
5234.508810933725
 20
1854.528578351748
 10
5234.513034131897
 20
1854.518659314393
 10
5234.5165426591
 20
1854.508450855877
 10
5234.519310123424
 20
1854.498031429812
  0
LWPOLYLINE
  5
11FC
330
1F
100
AcDbEntity
  8
SANINDUSA
  6
Continuous
100
AcDbPolyline
 90
        9
 70
   128
 43
0.0
 10
5234.473336090179
 20
1854.481366296647
 10
5234.473421468877
 20
1854.481079754364
 10
5234.473501591072
 20
1854.480791673211
 10
5234.473576428763
 20
1854.48050215384
 10
5234.473645955809
 20
1854.480211297406
 10
5234.473710147914
 20
1854.479919205535
 10
5234.473768982651
 20
1854.479625980278
 10
5234.473822439462
 20
1854.479331724089
 10
5234.473870499671
 20
1854.479036539776
  0
LWPOLYLINE
  5
11FD
330
1F
100
AcDbEntity
  8
SANINDUSA
  6
Continuous
100
AcDbPolyline
 90
        3
 70
   128
 43
0.0
 10
5234.473877373226
 20
1854.479038772653
 10
5234.473873944722
 20
1854.4790376103
 10
5234.473870499671
 20
1854.479036539776
  0
LWPOLYLINE
  5
11FE
330
1F
100
AcDbEntity
  8
SANINDUSA
  6
Continuous
100
AcDbPolyline
 90
        9
 70
   128
 43
0.0
 10
5234.473338387117
 20
1854.481366151296
 10
5234.473424313005
 20
1854.48107990007
 10
5234.47350498983
 20
1854.480792112196
 10
5234.473580389438
 20
1854.480502888107
 10
5234.473650485516
 20
1854.480212328736
 10
5234.473715253603
 20
1854.479920535481
 10
5234.473774671094
 20
1854.479627610173
 10
5234.473828717256
 20
1854.479333655036
 10
5234.473877373226
 20
1854.479038772653
  0
LINE
  5
11FF
330
1F
100
AcDbEntity
  8
SANINDUSA
  6
Continuous
100
AcDbLine
 10
5234.473336090179
 20
1854.481366296647
 30
0.0
 11
5234.473338387117
 21
1854.481366151296
 31
0.0
  0
LWPOLYLINE
  5
1200
330
1F
100
AcDbEntity
  8
SANINDUSA
  6
Continuous
100
AcDbPolyline
 90
       10
 70
   128
 43
0.0
 10
5234.653126738914
 20
1854.337844519727
 10
5234.652765341454
 20
1854.33457170509
 10
5234.652006270624
 20
1854.332160052836
 10
5234.650855652394
 20
1854.329908855823
 10
5234.649339433943
 20
1854.327883098205
 10
5234.647506442819
 20
1854.326138916169
 10
5234.645404510496
 20
1854.324730080328
 10
5234.643096982579
 20
1854.323691898842
 10
5234.64064746221
 20
1854.323059375536
 10
5234.638126738913
 20
1854.322844519727
  0
LINE
  5
1201
330
1F
100
AcDbEntity
  8
SANINDUSA
  6
Continuous
100
AcDbLine
 10
5234.645126738914
 20
1854.680373808601
 30
0.0
 11
5233.791127477132
 21
1854.680373808601
 31
0.0
  0
LINE
  5
1202
330
1F
100
AcDbEntity
  8
SANINDUSA
  6
Continuous
100
AcDbLine
 10
5233.791127477132
 20
1854.697844519727
 30
0.0
 11
5234.645126738914
 21
1854.697844519727
 31
0.0
  0
LINE
  5
1203
330
1F
100
AcDbEntity
  8
SANINDUSA
  6
Continuous
100
AcDbLine
 10
5235.787004156233
 20
1854.618795368162
 30
0.0
 11
5234.933004894451
 21
1854.618751133443
 31
0.0
  0
LWPOLYLINE
  5
1204
330
1F
100
AcDbEntity
  8
SANINDUSA
  6
Continuous
100
AcDbPolyline
 90
        6
 70
   128
 43
0.0
 10
5234.933011791381
 20
1854.606145060756
 10
5235.005004145497
 20
1854.606078901561
 10
5235.08500410236
 20
1854.606005265031
 10
5235.222504129757
 20
1854.605878215997
 10
5235.256963459051
 20
1854.605846278525
 10
5235.360004156233
 20
1854.605750543501
  0
LINE
  5
1205
330
1F
100
AcDbEntity
  8
SANINDUSA
  6
Continuous
100
AcDbLine
 10
5234.94000489445
 20
1854.546097278488
 30
0.0
 11
5235.065576501548
 21
1854.546097278488
 31
0.0
  0
LWPOLYLINE
  5
1206
330
1F
100
AcDbEntity
  8
SANINDUSA
  6
Continuous
100
AcDbPolyline
 90
        5
 70
   128
 43
0.0
 10
5235.073657574853
 20
1854.601582830807
 10
5235.055345801966
 20
1854.602537127203
 10
5235.03702980537
 20
1854.603499756021
 10
5235.018710983466
 20
1854.604435918767
 10
5234.940395814009
 20
1854.605300035401
  0
LINE
  5
1207
330
1F
100
AcDbEntity
  8
SANINDUSA
  6
Continuous
100
AcDbLine
 10
5233.783127477131
 20
1854.687595748925
 30
0.0
 11
5233.783127477131
 21
1854.686362822812
 31
0.0
  0
LINE
  5
1208
330
1F
100
AcDbEntity
  8
SANINDUSA
  6
Continuous
100
AcDbLine
 10
5233.783127477131
 20
1854.68206989518
 30
0.0
 11
5233.783127477131
 21
1854.668599426508
 31
0.0
  0
LINE
  5
1209
330
1F
100
AcDbEntity
  8
SANINDUSA
  6
Continuous
100
AcDbLine
 10
5233.783127477131
 20
1854.686362822812
 30
0.0
 11
5233.783127477131
 21
1854.68206989518
 31
0.0
  0
LWPOLYLINE
  5
120A
330
1F
100
AcDbEntity
  8
SANINDUSA
  6
Continuous
100
AcDbPolyline
 90
        9
 70
   128
 43
0.0
 10
5233.791127477132
 20
1854.680373808601
 10
5233.789566754555
 20
1854.680488885829
 10
5233.788066009672
 20
1854.680829695162
 10
5233.786682915267
 20
1854.681383139488
 10
5233.785470622882
 20
1854.682127950251
 10
5233.784475720233
 20
1854.683035504791
 10
5233.783736440871
 20
1854.684070926298
 10
5233.783281194888
 20
1854.685194424101
 10
5233.783127477131
 20
1854.686362822812
  0
LINE
  5
120B
330
1F
100
AcDbEntity
  8
SANINDUSA
  6
Continuous
100
AcDbLine
 10
5233.783127477131
 20
1854.695844519727
 30
0.0
 11
5233.783127477131
 21
1854.687595748925
 31
0.0
  0
LINE
  5
120C
330
1F
100
AcDbEntity
  8
SANINDUSA
  6
Continuous
100
AcDbLine
 10
5233.791127477132
 20
1854.697844519727
 30
0.0
 11
5233.785127477131
 21
1854.697844519727
 31
0.0
  0
ARC
  5
120D
330
1F
100
AcDbEntity
  8
SANINDUSA
  6
Continuous
100
AcDbCircle
 10
5233.785127477131
 20
1854.695844519727
 30
0.0
 40
0.0020000000000001
100
AcDbArc
 50
90.0
 51
180.0
  0
LINE
  5
120E
330
1F
100
AcDbEntity
  8
SANINDUSA
  6
Continuous
100
AcDbLine
 10
5234.925004894451
 20
1854.597685446393
 30
0.0
 11
5234.925004894451
 21
1854.550053043769
 31
0.0
  0
ARC
  5
120F
330
1F
100
AcDbEntity
  8
SANINDUSA
  6
Continuous
100
AcDbCircle
 10
5234.929004894451
 20
1854.550053043769
 30
0.0
 40
0.0040000000000001
100
AcDbArc
 50
180.0
 51
270.0
  0
LINE
  5
1210
330
1F
100
AcDbEntity
  8
SANINDUSA
  6
Continuous
100
AcDbLine
 10
5234.929004894451
 20
1854.546053043769
 30
0.0
 11
5234.94000489445
 21
1854.546053043769
 31
0.0
  0
LINE
  5
1211
330
1F
100
AcDbEntity
  8
SANINDUSA
  6
Continuous
100
AcDbLine
 10
5234.925004894451
 20
1854.604111848405
 30
0.0
 11
5234.925004894451
 21
1854.598045691445
 31
0.0
  0
LWPOLYLINE
  5
1212
330
1F
100
AcDbEntity
  8
SANINDUSA
  6
Continuous
100
AcDbPolyline
 90
        9
 70
   128
 43
0.0
 10
5234.933012243683
 20
1854.606045687782
 10
5234.931450479396
 20
1854.605893225415
 10
5234.929948520073
 20
1854.605438835007
 10
5234.928564152485
 20
1854.604699998892
 10
5234.927350639145
 20
1854.60370514324
 10
5234.926354669078
 20
1854.602492544384
 10
5234.925614561493
 20
1854.601108856165
 10
5234.92515879148
 20
1854.599607314957
 10
5234.925004894451
 20
1854.598045691445
  0
LWPOLYLINE
  5
1213
330
1F
100
AcDbEntity
  8
SANINDUSA
  6
Continuous
100
AcDbPolyline
 90
        9
 70
   128
 43
0.0
 10
5234.933364125925
 20
1854.605677298708
 10
5234.931753689361
 20
1854.605586918698
 10
5234.930194115743
 20
1854.605175334626
 10
5234.928748803557
 20
1854.604459277862
 10
5234.92747650643
 20
1854.603467856951
 10
5234.926428944723
 20
1854.602241374307
 10
5234.92564870304
 20
1854.600829687881
 10
5234.925167499116
 20
1854.599290184372
 10
5234.925004894451
 20
1854.597685446393
  0
LINE
  5
1214
330
1F
100
AcDbEntity
  8
SANINDUSA
  6
Continuous
100
AcDbLine
 10
5234.925004894451
 20
1854.610715579262
 30
0.0
 11
5234.925004894451
 21
1854.609615743155
 31
0.0
  0
LWPOLYLINE
  5
1215
330
1F
100
AcDbEntity
  8
SANINDUSA
  6
Continuous
100
AcDbPolyline
 90
        9
 70
   128
 43
0.0
 10
5234.925004894451
 20
1854.610715579262
 10
5234.925158612208
 20
1854.612283238114
 10
5234.925613858191
 20
1854.613790652717
 10
5234.926353137552
 20
1854.615179893971
 10
5234.927348040201
 20
1854.616397574114
 10
5234.928560332587
 20
1854.617396898382
 10
5234.929943426992
 20
1854.618139463302
 10
5234.931444171875
 20
1854.618596732523
 10
5234.933004894451
 20
1854.618751133443
  0
LINE
  5
1216
330
1F
100
AcDbEntity
  8
SANINDUSA
  6
Continuous
100
AcDbLine
 10
5234.925004894451
 20
1854.609615743155
 30
0.0
 11
5234.925004894451
 21
1854.604111848405
 31
0.0
  0
LWPOLYLINE
  5
1217
330
1F
100
AcDbEntity
  8
SANINDUSA
  6
Continuous
100
AcDbPolyline
 90
        5
 70
   128
 43
0.0
 10
5234.933364125925
 20
1854.605677298708
 10
5234.933184483017
 20
1854.605869377163
 10
5234.933104113026
 20
1854.60595258689
 10
5234.933045340659
 20
1854.606012392551
 10
5234.933012243683
 20
1854.606045687782
  0
LWPOLYLINE
  5
1218
330
1F
100
AcDbEntity
  8
SANINDUSA
  6
Continuous
100
AcDbPolyline
 90
        6
 70
   128
 43
0.0
 10
5234.940395814009
 20
1854.605300035401
 10
5234.938074422555
 20
1854.60541680663
 10
5234.936011238978
 20
1854.605524754101
 10
5234.934440161262
 20
1854.605609768003
 10
5234.933539319704
 20
1854.605662423158
 10
5234.933364125925
 20
1854.605677298708
  0
LWPOLYLINE
  5
1219
330
1F
100
AcDbEntity
  8
SANINDUSA
  6
Continuous
100
AcDbPolyline
 90
       13
 70
   128
 43
0.0
 10
5235.590933357356
 20
1854.454134874678
 10
5235.590933417202
 20
1854.45413487849
 10
5235.595218344162
 20
1854.454709922941
 10
5235.599377603833
 20
1854.455885115049
 10
5235.603977909653
 20
1854.45802041652
 10
5235.608157839374
 20
1854.46089429604
 10
5235.611790102705
 20
1854.464423675849
 10
5235.614789723638
 20
1854.468504755762
 10
5235.617066077182
 20
1854.473043722082
 10
5235.61857245845
 20
1854.477894659623
 10
5235.620490335291
 20
1854.487206908138
 10
5235.622292565017
 20
1854.496543432954
 10
5235.625397865952
 20
1854.512330416668
  0
LWPOLYLINE
  5
121A
330
1F
100
AcDbEntity
  8
SANINDUSA
  6
Continuous
100
AcDbPolyline
 90
       18
 70
   128
 43
0.0
 10
5235.094580489082
 20
1854.512324588167
 10
5235.097732245253
 20
1854.496138805333
 10
5235.100123335872
 20
1854.48367965716
 10
5235.100980656568
 20
1854.479524650162
 10
5235.101684253609
 20
1854.476486615581
 10
5235.102599335444
 20
1854.473658282397
 10
5235.103856897362
 20
1854.470775689158
 10
5235.105387160867
 20
1854.468070178864
 10
5235.107158060502
 20
1854.465580634726
 10
5235.109190478318
 20
1854.463258972231
 10
5235.111462475598
 20
1854.461141789821
 10
5235.11391851396
 20
1854.459287109774
 10
5235.116549101095
 20
1854.457691677257
 10
5235.119350951368
 20
1854.456360222108
 10
5235.122250966427
 20
1854.455334762944
 10
5235.125225204161
 20
1854.454615561768
 10
5235.12828627703
 20
1854.454195882989
 10
5235.129074895264
 20
1854.45413487849
  0
LWPOLYLINE
  5
121B
330
1F
100
AcDbEntity
  8
SANINDUSA
  6
Continuous
100
AcDbPolyline
 90
       26
 70
   128
 43
0.0
 10
5235.360004705892
 20
1854.435016319557
 10
5235.366969428933
 20
1854.435103606687
 10
5235.376759804615
 20
1854.435453677003
 10
5235.387087116277
 20
1854.436131261504
 10
5235.397349597575
 20
1854.437120245852
 10
5235.40761285389
 20
1854.438424712704
 10
5235.417872495936
 20
1854.440050894656
 10
5235.427996880307
 20
1854.441975450806
 10
5235.438118028786
 20
1854.444219179411
 10
5235.448198106876
 20
1854.446776520772
 10
5235.458198274564
 20
1854.449639517279
 10
5235.468073418686
 20
1854.452795807351
 10
5235.477787680008
 20
1854.456233162758
 10
5235.487310371812
 20
1854.459933757097
 10
5235.496821976395
 20
1854.463965715776
 10
5235.506178908472
 20
1854.468276190959
 10
5235.515362380568
 20
1854.472856038506
 10
5235.524377543492
 20
1854.477706495447
 10
5235.533229271926
 20
1854.482829356222
 10
5235.541921963457
 20
1854.488226850329
 10
5235.550451789789
 20
1854.493884568941
 10
5235.558043395347
 20
1854.499226445314
 10
5235.564826832471
 20
1854.504315439289
 10
5235.570989342658
 20
1854.509267610862
 10
5235.576415248408
 20
1854.513951045648
 10
5235.581215052697
 20
1854.518531645924
  0
LWPOLYLINE
  5
121C
330
1F
100
AcDbEntity
  8
SANINDUSA
  6
Continuous
100
AcDbPolyline
 90
       26
 70
   128
 43
0.0
 10
5235.138768940607
 20
1854.518505876248
 10
5235.142186976901
 20
1854.515226673762
 10
5235.147561275077
 20
1854.510493214155
 10
5235.153277163099
 20
1854.505808813605
 10
5235.159812666597
 20
1854.500804993515
 10
5235.166952516219
 20
1854.49568051994
 10
5235.174847916522
 20
1854.490334670545
 10
5235.183828555098
 20
1854.48461964856
 10
5235.192586974212
 20
1854.479426813352
 10
5235.201500970476
 20
1854.474507283703
 10
5235.210571787552
 20
1854.469860246543
 10
5235.219802293301
 20
1854.465484337031
 10
5235.229197280845
 20
1854.461377791137
 10
5235.238761835813
 20
1854.45753937719
 10
5235.248509453131
 20
1854.453969454728
 10
5235.258278731885
 20
1854.450729986727
 10
5235.268173703421
 20
1854.447779574902
 10
5235.278202090093
 20
1854.445117174458
 10
5235.288328093617
 20
1854.442754791727
 10
5235.298510068639
 20
1854.440703542704
 10
5235.308705600072
 20
1854.438972032174
 10
5235.318878944132
 20
1854.437563909756
 10
5235.329103630818
 20
1854.436462368386
 10
5235.339433991489
 20
1854.435666879252
 10
5235.349762127465
 20
1854.435189892324
 10
5235.360002957188
 20
1854.434996212615
  0
LWPOLYLINE
  5
121D
330
1F
100
AcDbEntity
  8
SANINDUSA
  6
Continuous
100
AcDbPolyline
 90
        5
 70
   128
 43
0.0
 10
5235.404900510307
 20
1854.436848255328
 10
5235.424178360397
 20
1854.438365071466
 10
5235.444774777017
 20
1854.440977945839
 10
5235.465269547324
 20
1854.444582885531
 10
5235.466408944269
 20
1854.444828425009
  0
LWPOLYLINE
  5
121E
330
1F
100
AcDbEntity
  8
SANINDUSA
  6
Continuous
100
AcDbPolyline
 90
        9
 70
   128
 43
0.0
 10
5235.466408944269
 20
1854.444828425009
 10
5235.4713460907
 20
1854.445435773135
 10
5235.479032991723
 20
1854.446485434775
 10
5235.486673709853
 20
1854.447616816812
 10
5235.494285790093
 20
1854.448815429557
 10
5235.501879220479
 20
1854.450076492563
 10
5235.509479501519
 20
1854.451417831847
 10
5235.517163575533
 20
1854.452902255057
 10
5235.525008664565
 20
1854.454851488071
  0
LWPOLYLINE
  5
121F
330
1F
100
AcDbEntity
  8
SANINDUSA
  6
Continuous
100
AcDbPolyline
 90
        6
 70
   128
 43
0.0
 10
5235.25371192575
 20
1854.444814578626
 10
5235.255628595957
 20
1854.444405208354
 10
5235.267909413238
 20
1854.442149654002
 10
5235.284060904823
 20
1854.43973567845
 10
5235.300251129768
 20
1854.437933929416
 10
5235.315107078648
 20
1854.436841424968
  0
LWPOLYLINE
  5
1220
330
1F
100
AcDbEntity
  8
SANINDUSA
  6
Continuous
100
AcDbPolyline
 90
       10
 70
   128
 43
0.0
 10
5235.130552069946
 20
1854.454087695655
 10
5235.132659288317
 20
1854.454061660578
 10
5235.135278375389
 20
1854.45402218863
 10
5235.137468987189
 20
1854.453981700183
 10
5235.139235973599
 20
1854.453943970563
 10
5235.140904079413
 20
1854.453904086137
 10
5235.142646939478
 20
1854.453858008935
 10
5235.144465090677
 20
1854.453805230048
 10
5235.14979868818
 20
1854.453623474077
 10
5235.151002906409
 20
1854.453600179514
  0
LWPOLYLINE
  5
1221
330
1F
100
AcDbEntity
  8
SANINDUSA
  6
Continuous
100
AcDbPolyline
 90
        4
 70
   128
 43
0.0
 10
5235.13055236954
 20
1854.454100722268
 10
5235.129075014923
 20
1854.454134870836
 10
5235.129074955111
 20
1854.454134874678
 10
5235.129074955111
 20
1854.454134874678
  0
LWPOLYLINE
  5
1222
330
1F
100
AcDbEntity
  8
SANINDUSA
  6
Continuous
100
AcDbPolyline
 90
        9
 70
   128
 43
0.0
 10
5235.25371192575
 20
1854.444814578626
 10
5235.248662221767
 20
1854.445435773135
 10
5235.240975320743
 20
1854.446485434775
 10
5235.233334602613
 20
1854.447616816812
 10
5235.225722522374
 20
1854.448815429557
 10
5235.218129091988
 20
1854.450076492563
 10
5235.210528810948
 20
1854.451417831847
 10
5235.202844736934
 20
1854.452902255057
 10
5235.194999647901
 20
1854.454851488071
  0
LINE
  5
1223
330
1F
100
AcDbEntity
  8
SANINDUSA
  6
Continuous
100
AcDbLine
 10
5235.160575323945
 20
1854.455970078874
 30
0.0
 11
5235.173508653471
 21
1854.462617723418
 31
0.0
  0
LWPOLYLINE
  5
1224
330
1F
100
AcDbEntity
  8
SANINDUSA
  6
Continuous
100
AcDbPolyline
 90
       11
 70
   128
 43
0.0
 10
5235.194999647901
 20
1854.454851488071
 10
5235.189984981236
 20
1854.456439267445
 10
5235.185020313113
 20
1854.458184445945
 10
5235.180236389333
 20
1854.459994187645
 10
5235.17567151772
 20
1854.461785104536
 10
5235.171520934983
 20
1854.463382917973
 10
5235.167934225053
 20
1854.464594848421
 10
5235.166446193979
 20
1854.464972361571
 10
5235.165210894137
 20
1854.465157657082
 10
5235.164248488036
 20
1854.465129751169
 10
5235.163580453439
 20
1854.464875200062
  0
LWPOLYLINE
  5
1225
330
1F
100
AcDbEntity
  8
SANINDUSA
  6
Continuous
100
AcDbPolyline
 90
        7
 70
   128
 43
0.0
 10
5235.151002906409
 20
1854.453600179514
 10
5235.151147174639
 20
1854.453593823986
 10
5235.152645849819
 20
1854.453647846034
 10
5235.154834374394
 20
1854.453938431911
 10
5235.157201263149
 20
1854.454539782423
 10
5235.159845719343
 20
1854.455597604356
 10
5235.160575323945
 20
1854.455970078874
  0
LWPOLYLINE
  5
1226
330
1F
100
AcDbEntity
  8
SANINDUSA
  6
Continuous
100
AcDbPolyline
 90
        8
 70
   128
 43
0.0
 10
5235.163580453439
 20
1854.464875200062
 10
5235.160057563504
 20
1854.462172234173
 10
5235.15679668341
 20
1854.459463714656
 10
5235.153838706691
 20
1854.456979773144
 10
5235.152446342542
 20
1854.455857749203
 10
5235.151166428097
 20
1854.454919883774
 10
5235.150045580486
 20
1854.454216481267
 10
5235.149082945992
 20
1854.453835236066
  0
LINE
  5
1227
330
1F
100
AcDbEntity
  8
SANINDUSA
  6
Continuous
100
AcDbLine
 10
5235.39402145897
 20
1854.396097278488
 30
0.0
 11
5235.325986853496
 21
1854.396097278488
 31
0.0
  0
LWPOLYLINE
  5
1228
330
1F
100
AcDbEntity
  8
SANINDUSA
  6
Continuous
100
AcDbPolyline
 90
       11
 70
   128
 43
0.0
 10
5235.395543798761
 20
1854.427013648051
 10
5235.39503898581
 20
1854.427013242181
 10
5235.393546871367
 20
1854.427019431311
 10
5235.391095769176
 20
1854.42701096279
 10
5235.387768073133
 20
1854.42697925811
 10
5235.383648611981
 20
1854.426929323496
 10
5235.378863343226
 20
1854.426870762258
 10
5235.373537770459
 20
1854.426813780773
 10
5235.367830891104
 20
1854.426768416333
 10
5235.363941692316
 20
1854.426749621588
 10
5235.360004156233
 20
1854.426742727767
  0
ARC
  5
1229
330
1F
100
AcDbEntity
  8
SANINDUSA
  6
Continuous
100
AcDbCircle
 10
5235.314466034083
 20
1854.426839114557
 30
0.0
 40
0.0100000028184919
100
AcDbArc
 50
1.000053483020467
 51
86.67790643009515
  0
LWPOLYLINE
  5
122A
330
1F
100
AcDbEntity
  8
SANINDUSA
  6
Continuous
100
AcDbPolyline
 90
       11
 70
   128
 43
0.0
 10
5235.324464513706
 20
1854.427013648051
 10
5235.324969326656
 20
1854.427013242181
 10
5235.326461441101
 20
1854.427019431311
 10
5235.32891254329
 20
1854.42701096279
 10
5235.332240239333
 20
1854.42697925811
 10
5235.336359700486
 20
1854.426929323496
 10
5235.34114496924
 20
1854.426870762258
 10
5235.346470542008
 20
1854.426813780773
 10
5235.352177421363
 20
1854.426768416333
 10
5235.35606662015
 20
1854.426749621588
 10
5235.360004156233
 20
1854.426742727767
  0
ARC
  5
122B
330
1F
100
AcDbEntity
  8
SANINDUSA
  6
Continuous
100
AcDbCircle
 10
5235.325986853496
 20
1854.397097278488
 30
0.0
 40
0.0010000000000001
100
AcDbArc
 50
180.9999999966945
 51
270.0
  0
LINE
  5
122C
330
1F
100
AcDbEntity
  8
SANINDUSA
  6
Continuous
100
AcDbLine
 10
5235.324464513414
 20
1854.427013394856
 30
0.0
 11
5235.324987005801
 21
1854.397079826081
 31
0.0
  0
LWPOLYLINE
  5
122D
330
1F
100
AcDbEntity
  8
SANINDUSA
  6
Continuous
100
AcDbPolyline
 90
        8
 70
   128
 43
0.0
 10
5235.326175526819
 20
1854.436777823303
 10
5235.324889993667
 20
1854.43678966639
 10
5235.320678883191
 20
1854.436820006546
 10
5235.31757189886
 20
1854.436827972332
 10
5235.315683413685
 20
1854.436821979007
 10
5235.315045523972
 20
1854.436822312719
 10
5235.315045524052
 20
1854.436822312784
 10
5235.315045524052
 20
1854.436822312784
  0
ARC
  5
122E
330
1F
100
AcDbEntity
  8
SANINDUSA
  6
Continuous
100
AcDbCircle
 10
5235.405542278373
 20
1854.426839114504
 30
0.0
 40
0.010000002826267
100
AcDbArc
 50
93.32209304741365
 51
178.9999459438545
  0
ARC
  5
122F
330
1F
100
AcDbEntity
  8
SANINDUSA
  6
Continuous
100
AcDbCircle
 10
5235.39402145897
 20
1854.397097278488
 30
0.0
 40
0.0010000000000001
100
AcDbArc
 50
270.0
 51
359.0000000033055
  0
LINE
  5
1230
330
1F
100
AcDbEntity
  8
SANINDUSA
  6
Continuous
100
AcDbLine
 10
5235.395021306665
 20
1854.397079826081
 30
0.0
 11
5235.39554380298
 21
1854.427013619906
 31
0.0
  0
LWPOLYLINE
  5
1231
330
1F
100
AcDbEntity
  8
SANINDUSA
  6
Continuous
100
AcDbPolyline
 90
        8
 70
   128
 43
0.0
 10
5235.393792500066
 20
1854.436777452169
 10
5235.3951183188
 20
1854.43678966639
 10
5235.399329429275
 20
1854.436820006546
 10
5235.402436413607
 20
1854.436827972332
 10
5235.404324898782
 20
1854.436821979007
 10
5235.404962788493
 20
1854.436822312719
 10
5235.404962788415
 20
1854.436822312784
 10
5235.404962788415
 20
1854.436822312784
  0
LINE
  5
1232
330
1F
100
AcDbEntity
  8
SANINDUSA
  6
Continuous
100
AcDbLine
 10
5234.653126738914
 20
1854.687595748925
 30
0.0
 11
5234.653126738914
 21
1854.686362822812
 31
0.0
  0
LINE
  5
1233
330
1F
100
AcDbEntity
  8
SANINDUSA
  6
Continuous
100
AcDbLine
 10
5234.653126738914
 20
1854.68206989518
 30
0.0
 11
5234.653126738914
 21
1854.668599426508
 31
0.0
  0
LINE
  5
1234
330
1F
100
AcDbEntity
  8
SANINDUSA
  6
Continuous
100
AcDbLine
 10
5234.653126738914
 20
1854.686362822812
 30
0.0
 11
5234.653126738914
 21
1854.68206989518
 31
0.0
  0
LWPOLYLINE
  5
1235
330
1F
100
AcDbEntity
  8
SANINDUSA
  6
Continuous
100
AcDbPolyline
 90
        9
 70
   128
 43
0.0
 10
5234.645126738914
 20
1854.680373808601
 10
5234.64668746149
 20
1854.680488885829
 10
5234.648188206373
 20
1854.680829695162
 10
5234.649571300778
 20
1854.681383139488
 10
5234.650783593163
 20
1854.682127950251
 10
5234.651778495812
 20
1854.683035504791
 10
5234.652517775174
 20
1854.684070926298
 10
5234.652973021157
 20
1854.685194424101
 10
5234.653126738914
 20
1854.686362822812
  0
LINE
  5
1236
330
1F
100
AcDbEntity
  8
SANINDUSA
  6
Continuous
100
AcDbLine
 10
5234.653126738914
 20
1854.695844519727
 30
0.0
 11
5234.653126738914
 21
1854.687595748925
 31
0.0
  0
ARC
  5
1237
330
1F
100
AcDbEntity
  8
SANINDUSA
  6
Continuous
100
AcDbCircle
 10
5234.651126738913
 20
1854.695844519727
 30
0.0
 40
0.002
100
AcDbArc
 50
0.0
 51
90.0
  0
LINE
  5
1238
330
1F
100
AcDbEntity
  8
SANINDUSA
  6
Continuous
100
AcDbLine
 10
5234.645126738914
 20
1854.697844519727
 30
0.0
 11
5234.651126738913
 21
1854.697844519727
 31
0.0
  0
LWPOLYLINE
  5
1239
330
1F
100
AcDbEntity
  8
SANINDUSA
  6
Continuous
100
AcDbPolyline
 90
        9
 70
   128
 43
0.0
 10
5235.569648684798
 20
1854.453595989811
 10
5235.57419660924
 20
1854.45376309153
 10
5235.576253196836
 20
1854.453826406544
 10
5235.578221215354
 20
1854.453881298859
 10
5235.580098052807
 20
1854.453928349592
 10
5235.58195280992
 20
1854.453969684314
 10
5235.584246289722
 20
1854.454013840274
 10
5235.587061211075
 20
1854.454057793878
 10
5235.58945479322
 20
1854.454087590214
  0
LWPOLYLINE
  5
123A
330
1F
100
AcDbEntity
  8
SANINDUSA
  6
Continuous
100
AcDbPolyline
 90
       11
 70
   128
 43
0.0
 10
5235.525008664565
 20
1854.454851488071
 10
5235.530023331231
 20
1854.456439267445
 10
5235.534987999354
 20
1854.458184445945
 10
5235.539771923134
 20
1854.459994187645
 10
5235.544336794746
 20
1854.461785104536
 10
5235.548487377485
 20
1854.463382917973
 10
5235.552074087412
 20
1854.464594848421
 10
5235.553562118487
 20
1854.464972361571
 10
5235.55479741833
 20
1854.465157657082
 10
5235.555759824432
 20
1854.465129751169
 10
5235.556427859027
 20
1854.464875200062
  0
LINE
  5
123B
330
1F
100
AcDbEntity
  8
SANINDUSA
  6
Continuous
100
AcDbLine
 10
5235.55943298852
 20
1854.455970078874
 30
0.0
 11
5235.546482314495
 21
1854.462626638374
 31
0.0
  0
LWPOLYLINE
  5
123C
330
1F
100
AcDbEntity
  8
SANINDUSA
  6
Continuous
100
AcDbPolyline
 90
        7
 70
   128
 43
0.0
 10
5235.569648684798
 20
1854.453595989811
 10
5235.568861137828
 20
1854.453593823986
 10
5235.567362462649
 20
1854.453647846034
 10
5235.565173938072
 20
1854.453938431911
 10
5235.562807049317
 20
1854.454539782423
 10
5235.560162593124
 20
1854.455597604356
 10
5235.55943298852
 20
1854.455970078874
  0
LWPOLYLINE
  5
123D
330
1F
100
AcDbEntity
  8
SANINDUSA
  6
Continuous
100
AcDbPolyline
 90
        8
 70
   128
 43
0.0
 10
5235.556427859027
 20
1854.464875200062
 10
5235.559950748962
 20
1854.462172234173
 10
5235.563211629056
 20
1854.459463714656
 10
5235.566169605775
 20
1854.456979773144
 10
5235.567561969924
 20
1854.455857749203
 10
5235.568841884369
 20
1854.454919883774
 10
5235.56996273198
 20
1854.454216481267
 10
5235.570925366475
 20
1854.453835236066
  0
LWPOLYLINE
  5
123E
330
1F
100
AcDbEntity
  8
SANINDUSA
  6
Continuous
100
AcDbPolyline
 90
        4
 70
   128
 43
0.0
 10
5235.589454491963
 20
1854.45410068873
 10
5235.590933297544
 20
1854.454134870836
 10
5235.590933357356
 20
1854.454134874678
 10
5235.590933357356
 20
1854.454134874678
  0
LWPOLYLINE
  5
123F
330
1F
100
AcDbEntity
  8
SANINDUSA
  6
Continuous
100
AcDbPolyline
 90
        6
 70
   128
 43
0.0
 10
5235.786997057968
 20
1854.606145061249
 10
5235.71500416697
 20
1854.606078901561
 10
5235.635004210106
 20
1854.606005265031
 10
5235.49750418271
 20
1854.605878215997
 10
5235.463044853415
 20
1854.605846278525
 10
5235.360004156233
 20
1854.605750543501
  0
LWPOLYLINE
  5
1240
330
1F
100
AcDbEntity
  8
SANINDUSA
  6
Continuous
100
AcDbPolyline
 90
       12
 70
   128
 43
0.0
 10
5235.360004156233
 20
1854.605678755015
 10
5235.384060116666
 20
1854.605697845775
 10
5235.408046976289
 20
1854.605703251528
 10
5235.432175164248
 20
1854.60569768868
 10
5235.456090683944
 20
1854.605683744695
 10
5235.480188981353
 20
1854.605663610442
 10
5235.503937092573
 20
1854.605640099375
 10
5235.527225778605
 20
1854.605615819663
 10
5235.544848270895
 20
1854.605598151638
 10
5235.562148655567
 20
1854.605582667855
 10
5235.579080011392
 20
1854.605570557443
 10
5235.595595417137
 20
1854.605563009532
  0
LINE
  5
1241
330
1F
100
AcDbEntity
  8
SANINDUSA
  6
Continuous
100
AcDbLine
 10
5235.360004156233
 20
1854.600097278488
 30
0.0
 11
5235.606400440611
 21
1854.600097278488
 31
0.0
  0
LWPOLYLINE
  5
1242
330
1F
100
AcDbEntity
  8
SANINDUSA
  6
Continuous
100
AcDbPolyline
 90
       12
 70
   128
 43
0.0
 10
5235.360004156233
 20
1854.605678755015
 10
5235.335948195801
 20
1854.605697845775
 10
5235.311961336177
 20
1854.605703251528
 10
5235.287833148219
 20
1854.60569768868
 10
5235.263917628522
 20
1854.605683744695
 10
5235.239819331114
 20
1854.605663610442
 10
5235.216071219893
 20
1854.605640099375
 10
5235.192782533861
 20
1854.605615819663
 10
5235.175160041571
 20
1854.605598151638
 10
5235.157859656899
 20
1854.605582667855
 10
5235.140928301075
 20
1854.605570557443
 10
5235.12441289533
 20
1854.605563009532
  0
LINE
  5
1243
330
1F
100
AcDbEntity
  8
SANINDUSA
  6
Continuous
100
AcDbLine
 10
5235.360004156233
 20
1854.600097278488
 30
0.0
 11
5235.113607871856
 21
1854.600097278488
 31
0.0
  0
LWPOLYLINE
  5
1244
330
1F
100
AcDbEntity
  8
SANINDUSA
  6
Continuous
100
AcDbPolyline
 90
       13
 70
   128
 43
0.0
 10
5235.065576501548
 20
1854.546097278488
 10
5235.076083587738
 20
1854.545409096665
 10
5235.09037917144
 20
1854.543287678614
 10
5235.096394097503
 20
1854.541856529914
 10
5235.102167769538
 20
1854.540149396827
 10
5235.107709493786
 20
1854.538172788915
 10
5235.113023886586
 20
1854.53593440039
 10
5235.118127091862
 20
1854.533436285371
 10
5235.122993396859
 20
1854.53069633748
 10
5235.127594851509
 20
1854.527736423414
 10
5235.131910412077
 20
1854.524577757506
 10
5235.135925359256
 20
1854.521240076177
 10
5235.138793259771
 20
1854.518531645924
  0
LWPOLYLINE
  5
1245
330
1F
100
AcDbEntity
  8
SANINDUSA
  6
Continuous
100
AcDbPolyline
 90
        5
 70
   128
 43
0.0
 10
5235.092370059625
 20
1854.5205848812
 10
5235.092020404502
 20
1854.521562941904
 10
5235.091660457718
 20
1854.52253747457
 10
5235.091319118054
 20
1854.52343971742
 10
5235.090976373107
 20
1854.524336296427
  0
LWPOLYLINE
  5
1246
330
1F
100
AcDbEntity
  8
SANINDUSA
  6
Continuous
100
AcDbPolyline
 90
        4
 70
   128
 43
0.0
 10
5235.085457539282
 20
1854.534882872857
 10
5235.081233533879
 20
1854.540258753491
 10
5235.076415369976
 20
1854.545140805196
 10
5235.076083587738
 20
1854.545409096665
  0
LWPOLYLINE
  5
1247
330
1F
100
AcDbEntity
  8
SANINDUSA
  6
Continuous
100
AcDbPolyline
 90
        5
 70
   128
 43
0.0
 10
5235.090976373107
 20
1854.524336296427
 10
5235.089084191386
 20
1854.528696609699
 10
5235.086727217725
 20
1854.532954672401
 10
5235.086105818568
 20
1854.533925367675
 10
5235.085457539282
 20
1854.534882872857
  0
LWPOLYLINE
  5
1248
330
1F
100
AcDbEntity
  8
SANINDUSA
  6
Continuous
100
AcDbPolyline
 90
        4
 70
   128
 43
0.0
 10
5235.092370059625
 20
1854.5205848812
 10
5235.093431458409
 20
1854.516971860902
 10
5235.094452751646
 20
1854.51274378618
 10
5235.094580489082
 20
1854.512324588167
  0
LWPOLYLINE
  5
1249
330
1F
100
AcDbEntity
  8
SANINDUSA
  6
Continuous
100
AcDbPolyline
 90
        3
 70
   128
 43
0.0
 10
5235.092182390893
 20
1854.600182032667
 10
5235.09050330416
 20
1854.600328613308
 10
5235.089690849559
 20
1854.600517642764
  0
LWPOLYLINE
  5
124A
330
1F
100
AcDbEntity
  8
SANINDUSA
  6
Continuous
100
AcDbPolyline
 90
       11
 70
   128
 43
0.0
 10
5235.12441289533
 20
1854.605563009532
 10
5235.11671277265
 20
1854.605559963984
 10
5235.109304773735
 20
1854.605555606126
 10
5235.099639451525
 20
1854.605547632011
 10
5235.090703597906
 20
1854.605537404719
 10
5235.082337221498
 20
1854.605524337546
 10
5235.074869807008
 20
1854.60550802974
 10
5235.068529380601
 20
1854.605488166788
 10
5235.063133412196
 20
1854.605462892414
 10
5235.058609267508
 20
1854.605429336915
 10
5235.055157689167
 20
1854.605385405507
  0
LWPOLYLINE
  5
124B
330
1F
100
AcDbEntity
  8
SANINDUSA
  6
Continuous
100
AcDbPolyline
 90
       16
 70
   128
 43
0.0
 10
5235.055157689167
 20
1854.605385405507
 10
5235.052950057574
 20
1854.605337665648
 10
5235.051366768166
 20
1854.605279837294
 10
5235.050410075494
 20
1854.605209560768
 10
5235.050084092609
 20
1854.605121308148
 10
5235.050428257114
 20
1854.605012538488
 10
5235.051442090757
 20
1854.604878671478
 10
5235.053071509658
 20
1854.604719242184
 10
5235.055327320755
 20
1854.604524070214
 10
5235.058198218309
 20
1854.604285868524
 10
5235.063590743898
 20
1854.603820676123
 10
5235.069937305446
 20
1854.603198750301
 10
5235.074151395989
 20
1854.60273036625
 10
5235.078678255054
 20
1854.602168521976
 10
5235.083532676081
 20
1854.601488599578
 10
5235.088683056591
 20
1854.600662436946
  0
LWPOLYLINE
  5
124C
330
1F
100
AcDbEntity
  8
SANINDUSA
  6
Continuous
100
AcDbPolyline
 90
        6
 70
   128
 43
0.0
 10
5235.089267456582
 20
1854.600609326414
 10
5235.089232861692
 20
1854.600615093227
 10
5235.089096309661
 20
1854.600634585736
 10
5235.088959063915
 20
1854.600648982857
 10
5235.088821265642
 20
1854.600658269778
 10
5235.088683056591
 20
1854.600662436946
  0
LWPOLYLINE
  5
124D
330
1F
100
AcDbEntity
  8
SANINDUSA
  6
Continuous
100
AcDbPolyline
 90
        4
 70
   128
 43
0.0
 10
5235.088683056591
 20
1854.600662436946
 10
5235.084532276441
 20
1854.600951915236
 10
5235.080275220235
 20
1854.601218335109
 10
5235.073657574853
 20
1854.601582830807
  0
ARC
  5
124E
330
1F
100
AcDbEntity
  8
SANINDUSA
  6
Continuous
100
AcDbCircle
 10
5235.088421947455
 20
1854.595681333484
 30
0.0
 40
0.0050000000000001
100
AcDbArc
 50
75.29866860336632
 51
80.26439861099737
  0
LINE
  5
124F
330
1F
100
AcDbEntity
  8
SANINDUSA
  6
Continuous
100
AcDbLine
 10
5235.09291888277
 20
1854.600097278488
 30
0.0
 11
5235.092182551598
 21
1854.60018830916
 31
0.0
  0
LINE
  5
1250
330
1F
100
AcDbEntity
  8
SANINDUSA
  6
Continuous
100
AcDbLine
 10
5235.113607871856
 20
1854.600097278488
 30
0.0
 11
5235.09291888277
 21
1854.600097278488
 31
0.0
  0
LINE
  5
1251
330
1F
100
AcDbEntity
  8
SANINDUSA
  6
Continuous
100
AcDbLine
 10
5235.094735768598
 20
1854.600097278488
 30
0.0
 11
5235.09472999918
 21
1854.600097276417
 31
0.0
  0
LINE
  5
1252
330
1F
100
AcDbEntity
  8
SANINDUSA
  6
Continuous
100
AcDbLine
 10
5235.780004156233
 20
1854.546097278488
 30
0.0
 11
5235.654431810919
 21
1854.546097278488
 31
0.0
  0
LWPOLYLINE
  5
1253
330
1F
100
AcDbEntity
  8
SANINDUSA
  6
Continuous
100
AcDbPolyline
 90
        5
 70
   128
 43
0.0
 10
5235.646350737614
 20
1854.601582830807
 10
5235.664662510501
 20
1854.602537127203
 10
5235.682978507096
 20
1854.603499756021
 10
5235.701297329001
 20
1854.604435918767
 10
5235.779613236676
 20
1854.60534427012
  0
LWPOLYLINE
  5
1254
330
1F
100
AcDbEntity
  8
SANINDUSA
  6
Continuous
100
AcDbPolyline
 90
       13
 70
   128
 43
0.0
 10
5235.654431810919
 20
1854.546097278488
 10
5235.643924724728
 20
1854.545409096665
 10
5235.629629141026
 20
1854.543287678614
 10
5235.623614214962
 20
1854.541856529914
 10
5235.617840542929
 20
1854.540149396827
 10
5235.612298818679
 20
1854.538172788915
 10
5235.606984425881
 20
1854.53593440039
 10
5235.601881220603
 20
1854.533436285371
 10
5235.597014915607
 20
1854.53069633748
 10
5235.592413460956
 20
1854.527736423414
 10
5235.58809790039
 20
1854.524577757506
 10
5235.584082953209
 20
1854.521240076177
 10
5235.581215052697
 20
1854.518531645924
  0
LWPOLYLINE
  5
1255
330
1F
100
AcDbEntity
  8
SANINDUSA
  6
Continuous
100
AcDbPolyline
 90
        4
 70
   128
 43
0.0
 10
5235.634550773185
 20
1854.534882872857
 10
5235.638774778586
 20
1854.540258753491
 10
5235.643592942491
 20
1854.545140805196
 10
5235.64395783593
 20
1854.545435871615
  0
LWPOLYLINE
  5
1256
330
1F
100
AcDbEntity
  8
SANINDUSA
  6
Continuous
100
AcDbPolyline
 90
        3
 70
   128
 43
0.0
 10
5235.625397865952
 20
1854.512330416668
 10
5235.626296178714
 20
1854.516230610494
 10
5235.627638252842
 20
1854.5205848812
  0
LINE
  5
1257
330
1F
100
AcDbEntity
  8
SANINDUSA
  6
Continuous
100
AcDbLine
 10
5235.627672635075
 20
1854.520572828144
 30
0.0
 11
5235.627638252842
 21
1854.5205848812
 31
0.0
  0
LWPOLYLINE
  5
1258
330
1F
100
AcDbEntity
  8
SANINDUSA
  6
Continuous
100
AcDbPolyline
 90
        3
 70
   128
 43
0.0
 10
5235.629093772017
 20
1854.524396735374
 10
5235.629077995727
 20
1854.524370365378
 10
5235.629031939359
 20
1854.524336296427
  0
LINE
  5
1259
330
1F
100
AcDbEntity
  8
SANINDUSA
  6
Continuous
100
AcDbLine
 10
5235.634573389816
 20
1854.534867142819
 30
0.0
 11
5235.634550773185
 21
1854.534882872857
 31
0.0
  0
LWPOLYLINE
  5
125A
330
1F
100
AcDbEntity
  8
SANINDUSA
  6
Continuous
100
AcDbPolyline
 90
        5
 70
   128
 43
0.0
 10
5235.627638252842
 20
1854.5205848812
 10
5235.627987907964
 20
1854.521562941904
 10
5235.628347854749
 20
1854.52253747457
 10
5235.628689194413
 20
1854.52343971742
 10
5235.629031939359
 20
1854.524336296427
  0
LWPOLYLINE
  5
125B
330
1F
100
AcDbEntity
  8
SANINDUSA
  6
Continuous
100
AcDbPolyline
 90
        5
 70
   128
 43
0.0
 10
5235.629031939359
 20
1854.524336296427
 10
5235.63092412108
 20
1854.528696609699
 10
5235.633281094742
 20
1854.532954672401
 10
5235.633902493899
 20
1854.533925367675
 10
5235.634550773185
 20
1854.534882872857
  0
LWPOLYLINE
  5
125C
330
1F
100
AcDbEntity
  8
SANINDUSA
  6
Continuous
100
AcDbPolyline
 90
        4
 70
   128
 43
0.0
 10
5235.627677769565
 20
1854.520570971715
 10
5235.628404554296
 20
1854.522586921018
 10
5235.629004590425
 20
1854.524163661323
 10
5235.629092627914
 20
1854.52439528291
  0
LWPOLYLINE
  5
125D
330
1F
100
AcDbEntity
  8
SANINDUSA
  6
Continuous
100
AcDbPolyline
 90
        4
 70
   128
 43
0.0
 10
5235.629101302251
 20
1854.524394637731
 10
5235.629277317764
 20
1854.524870085967
 10
5235.630684003925
 20
1854.528121617718
 10
5235.632112380137
 20
1854.530903246453
  0
LWPOLYLINE
  5
125E
330
1F
100
AcDbEntity
  8
SANINDUSA
  6
Continuous
100
AcDbPolyline
 90
        4
 70
   128
 43
0.0
 10
5235.632112380137
 20
1854.530903246453
 10
5235.632132492476
 20
1854.530942413347
 10
5235.63358618419
 20
1854.533384526948
 10
5235.63458547833
 20
1854.534859281491
  0
LWPOLYLINE
  5
125F
330
1F
100
AcDbEntity
  8
SANINDUSA
  6
Continuous
100
AcDbPolyline
 90
       11
 70
   128
 43
0.0
 10
5235.595595417137
 20
1854.605563009532
 10
5235.603295539817
 20
1854.605559963984
 10
5235.610703538732
 20
1854.605555606126
 10
5235.620368860941
 20
1854.605547632011
 10
5235.62930471456
 20
1854.605537404719
 10
5235.63767109097
 20
1854.605524337546
 10
5235.645138505458
 20
1854.60550802974
 10
5235.651478931865
 20
1854.605488166788
 10
5235.656874900271
 20
1854.605462892414
 10
5235.661399044958
 20
1854.605429336915
 10
5235.6648506233
 20
1854.605385405507
  0
LWPOLYLINE
  5
1260
330
1F
100
AcDbEntity
  8
SANINDUSA
  6
Continuous
100
AcDbPolyline
 90
       16
 70
   128
 43
0.0
 10
5235.6648506233
 20
1854.605385405507
 10
5235.667058254892
 20
1854.605337665648
 10
5235.6686415443
 20
1854.605279837294
 10
5235.669598236972
 20
1854.605209560768
 10
5235.669924219856
 20
1854.605121308148
 10
5235.669580055351
 20
1854.605012538488
 10
5235.668566221709
 20
1854.604878671478
 10
5235.666936802807
 20
1854.604719242184
 10
5235.66468099171
 20
1854.604524070214
 10
5235.661810094157
 20
1854.604285868524
 10
5235.656417568569
 20
1854.603820676123
 10
5235.650071007021
 20
1854.603198750301
 10
5235.645856916477
 20
1854.60273036625
 10
5235.641330057412
 20
1854.602168521976
 10
5235.636475636386
 20
1854.601488599578
 10
5235.631325255876
 20
1854.600662436946
  0
LWPOLYLINE
  5
1261
330
1F
100
AcDbEntity
  8
SANINDUSA
  6
Continuous
100
AcDbPolyline
 90
        4
 70
   128
 43
0.0
 10
5235.631325255876
 20
1854.600662436946
 10
5235.635476036026
 20
1854.600951915236
 10
5235.639733092232
 20
1854.601218335109
 10
5235.646350737614
 20
1854.601582830807
  0
LWPOLYLINE
  5
1262
330
1F
100
AcDbEntity
  8
SANINDUSA
  6
Continuous
100
AcDbPolyline
 90
        3
 70
   128
 43
0.0
 10
5235.630698430219
 20
1854.600628643122
 10
5235.629090755693
 20
1854.600291178503
 10
5235.627721264184
 20
1854.600178886715
  0
LINE
  5
1263
330
1F
100
AcDbEntity
  8
SANINDUSA
  6
Continuous
100
AcDbLine
 10
5235.606400440611
 20
1854.600097278488
 30
0.0
 11
5235.627089429697
 21
1854.600097278488
 31
0.0
  0
LINE
  5
1264
330
1F
100
AcDbEntity
  8
SANINDUSA
  6
Continuous
100
AcDbLine
 10
5235.627089429697
 20
1854.600097278488
 30
0.0
 11
5235.627721238723
 21
1854.600175387363
 31
0.0
  0
LINE
  5
1265
330
1F
100
AcDbEntity
  8
SANINDUSA
  6
Continuous
100
AcDbLine
 10
5235.625278313286
 20
1854.600097276417
 30
0.0
 11
5235.62527254387
 21
1854.600097278488
 31
0.0
  0
ARC
  5
1266
330
1F
100
AcDbEntity
  8
SANINDUSA
  6
Continuous
100
AcDbCircle
 10
5235.505904982996
 20
1855.243642538656
 30
0.0
 40
0.6550387066477828
100
AcDbArc
 50
280.8395177920629
 51
280.9865091968143
  0
LWPOLYLINE
  5
1267
330
1F
100
AcDbEntity
  8
SANINDUSA
  6
Continuous
100
AcDbPolyline
 90
        6
 70
   128
 43
0.0
 10
5235.630740855884
 20
1854.600609326414
 10
5235.630775450776
 20
1854.600615093227
 10
5235.630912002807
 20
1854.600634585736
 10
5235.631049248551
 20
1854.600648982857
 10
5235.631187046825
 20
1854.600658269778
 10
5235.631325255876
 20
1854.600662436946
  0
LWPOLYLINE
  5
1268
330
1F
100
AcDbEntity
  8
SANINDUSA
  6
Continuous
100
AcDbPolyline
 90
        5
 70
   128
 43
0.0
 10
5235.668777113631
 20
1854.604934384423
 10
5235.668735691482
 20
1854.604927867281
 10
5235.668469877377
 20
1854.604892158761
 10
5235.667907036717
 20
1854.604828385234
 10
5235.667341114154
 20
1854.60477230513
  0
LINE
  5
1269
330
1F
100
AcDbEntity
  8
SANINDUSA
  6
Continuous
100
AcDbLine
 10
5235.795004156234
 20
1854.597729681112
 30
0.0
 11
5235.795004156234
 21
1854.550097278488
 31
0.0
  0
ARC
  5
126A
330
1F
100
AcDbEntity
  8
SANINDUSA
  6
Continuous
100
AcDbCircle
 10
5235.791004156233
 20
1854.550097278488
 30
0.0
 40
0.0040000000000001
100
AcDbArc
 50
270.0
 51
0.0
  0
LINE
  5
126B
330
1F
100
AcDbEntity
  8
SANINDUSA
  6
Continuous
100
AcDbLine
 10
5235.791004156233
 20
1854.546097278488
 30
0.0
 11
5235.780004156233
 21
1854.546097278488
 31
0.0
  0
LINE
  5
126C
330
1F
100
AcDbEntity
  8
SANINDUSA
  6
Continuous
100
AcDbLine
 10
5235.795004156234
 20
1854.604156083124
 30
0.0
 11
5235.795004156234
 21
1854.598089926165
 31
0.0
  0
LWPOLYLINE
  5
126D
330
1F
100
AcDbEntity
  8
SANINDUSA
  6
Continuous
100
AcDbPolyline
 90
        9
 70
   128
 43
0.0
 10
5235.786996807002
 20
1854.606089922501
 10
5235.788558571289
 20
1854.605937460134
 10
5235.790060530611
 20
1854.605483069726
 10
5235.7914448982
 20
1854.604744233611
 10
5235.79265841154
 20
1854.603749377959
 10
5235.793654381606
 20
1854.602536779104
 10
5235.794394489191
 20
1854.601153090884
 10
5235.794850259204
 20
1854.599651549676
 10
5235.795004156234
 20
1854.598089926165
  0
LWPOLYLINE
  5
126E
330
1F
100
AcDbEntity
  8
SANINDUSA
  6
Continuous
100
AcDbPolyline
 90
        9
 70
   128
 43
0.0
 10
5235.78664492476
 20
1854.605721533427
 10
5235.788255361324
 20
1854.605631153417
 10
5235.789814934941
 20
1854.605219569345
 10
5235.791260247127
 20
1854.604503512581
 10
5235.792532544254
 20
1854.60351209167
 10
5235.793580105962
 20
1854.602285609026
 10
5235.794360347645
 20
1854.6008739226
 10
5235.794841551569
 20
1854.599334419091
 10
5235.795004156234
 20
1854.597729681112
  0
LINE
  5
126F
330
1F
100
AcDbEntity
  8
SANINDUSA
  6
Continuous
100
AcDbLine
 10
5235.795004156234
 20
1854.598089926165
 30
0.0
 11
5235.795004156234
 21
1854.597729681112
 31
0.0
  0
LINE
  5
1270
330
1F
100
AcDbEntity
  8
SANINDUSA
  6
Continuous
100
AcDbLine
 10
5235.727004156234
 20
1854.618812912361
 30
0.0
 11
5235.727004156234
 21
1854.618795368162
 31
0.0
  0
LINE
  5
1271
330
1F
100
AcDbEntity
  8
SANINDUSA
  6
Continuous
100
AcDbLine
 10
5235.795004156234
 20
1854.610759813981
 30
0.0
 11
5235.795004156234
 21
1854.609659977874
 31
0.0
  0
LWPOLYLINE
  5
1272
330
1F
100
AcDbEntity
  8
SANINDUSA
  6
Continuous
100
AcDbPolyline
 90
        9
 70
   128
 43
0.0
 10
5235.795004156234
 20
1854.610759813981
 10
5235.794850438477
 20
1854.612327472834
 10
5235.794395192494
 20
1854.613834887436
 10
5235.793655913131
 20
1854.61522412869
 10
5235.792661010482
 20
1854.616441808833
 10
5235.791448718098
 20
1854.617441133101
 10
5235.790065623692
 20
1854.618183698022
 10
5235.788564878809
 20
1854.618640967242
 10
5235.787004156233
 20
1854.618795368162
  0
LINE
  5
1273
330
1F
100
AcDbEntity
  8
SANINDUSA
  6
Continuous
100
AcDbLine
 10
5235.795004156234
 20
1854.609659977874
 30
0.0
 11
5235.795004156234
 21
1854.609003505405
 31
0.0
  0
LINE
  5
1274
330
1F
100
AcDbEntity
  8
SANINDUSA
  6
Continuous
100
AcDbLine
 10
5235.795004156234
 20
1854.609003505405
 30
0.0
 11
5235.795004156234
 21
1854.604156083124
 31
0.0
  0
LWPOLYLINE
  5
1275
330
1F
100
AcDbEntity
  8
SANINDUSA
  6
Continuous
100
AcDbPolyline
 90
        5
 70
   128
 43
0.0
 10
5235.78664492476
 20
1854.605721533427
 10
5235.786824567668
 20
1854.605913611882
 10
5235.786904937659
 20
1854.605996821609
 10
5235.786963710026
 20
1854.60605662727
 10
5235.786996807002
 20
1854.606089922501
  0
LWPOLYLINE
  5
1276
330
1F
100
AcDbEntity
  8
SANINDUSA
  6
Continuous
100
AcDbPolyline
 90
        6
 70
   128
 43
0.0
 10
5235.779613236676
 20
1854.60534427012
 10
5235.781934628128
 20
1854.605461041349
 10
5235.783997811706
 20
1854.60556898882
 10
5235.785568889423
 20
1854.605654002722
 10
5235.786469730982
 20
1854.605706657877
 10
5235.78664492476
 20
1854.605721533427
  0
LINE
  5
1277
330
1F
100
AcDbEntity
  8
SANINDUSA
  6
Continuous
100
AcDbLine
 10
5236.889430270828
 20
1854.460781368396
 30
0.0
 11
5236.889430270828
 21
1854.506723295506
 31
0.0
  0
LINE
  5
1278
330
1F
100
AcDbEntity
  8
SANINDUSA
  6
Continuous
100
AcDbLine
 10
5236.920140361205
 20
1854.473776533132
 30
0.0
 11
5236.920131092134
 21
1854.472101206099
 31
0.0
  0
LINE
  5
1279
330
1F
100
AcDbEntity
  8
SANINDUSA
  6
Continuous
100
AcDbLine
 10
5237.05102954529
 20
1854.593072233235
 30
0.0
 11
5237.066200963091
 21
1854.469510950861
 31
0.0
  0
ARC
  5
127A
330
1F
100
AcDbEntity
  8
SANINDUSA
  6
Continuous
100
AcDbCircle
 10
5013.205593536119
 20
1823.419163949307
 30
0.0
 40
225.9895537642068
100
AcDbArc
 50
7.896143893971682
 51
7.928934090963645
  0
LINE
  5
127B
330
1F
100
AcDbEntity
  8
SANINDUSA
  6
Continuous
100
AcDbLine
 10
5236.891430270829
 20
1854.46331823095
 30
0.0
 11
5236.891430270829
 21
1854.504749475755
 31
0.0
  0
LINE
  5
127C
330
1F
100
AcDbEntity
  8
SANINDUSA
  6
Continuous
100
AcDbLine
 10
5237.022721497566
 20
1854.433422885083
 30
0.0
 11
5237.001912160849
 21
1854.581489009497
 31
0.0
  0
LINE
  5
127D
330
1F
100
AcDbEntity
  8
SANINDUSA
  6
Continuous
100
AcDbLine
 10
5237.030861203201
 20
1854.43298824233
 30
0.0
 11
5237.00878096812
 21
1854.590097278488
 31
0.0
  0
LINE
  5
127E
330
1F
100
AcDbEntity
  8
SANINDUSA
  6
Continuous
100
AcDbLine
 10
5237.04972296807
 20
1854.456856335429
 30
0.0
 11
5237.035334381087
 21
1854.559236451589
 31
0.0
  0
LINE
  5
127F
330
1F
100
AcDbEntity
  8
SANINDUSA
  6
Continuous
100
AcDbLine
 10
5237.039830880707
 20
1854.455389228995
 30
0.0
 11
5237.025275224369
 21
1854.558958105387
 31
0.0
  0
LWPOLYLINE
  5
1280
330
1F
100
AcDbEntity
  8
SANINDUSA
  6
Continuous
100
AcDbPolyline
 90
       12
 70
   128
 43
0.0
 10
5237.372789158738
 20
1854.590097278488
 10
5237.367871697612
 20
1854.577444393538
 10
5237.362128235766
 20
1854.56493135311
 10
5237.355555998045
 20
1854.552638240472
 10
5237.348170533498
 20
1854.540645863912
 10
5237.339983633682
 20
1854.529027648275
 10
5237.329076674241
 20
1854.515614541475
 10
5237.317129380475
 20
1854.502993248196
 10
5237.304219638248
 20
1854.491282585097
 10
5237.290464131046
 20
1854.480596022449
 10
5237.275984279637
 20
1854.471010912287
 10
5237.262430270829
 20
1854.463381672095
  0
LWPOLYLINE
  5
1281
330
1F
100
AcDbEntity
  8
SANINDUSA
  6
Continuous
100
AcDbPolyline
 90
       14
 70
   128
 43
0.0
 10
5237.399953308551
 20
1854.590097278488
 10
5237.394854721106
 20
1854.574053324676
 10
5237.388538187886
 20
1854.558601164844
 10
5237.381058363924
 20
1854.543797859676
 10
5237.372469904261
 20
1854.529700469857
 10
5237.362827463937
 20
1854.516366056072
 10
5237.352185697988
 20
1854.503851679005
 10
5237.340599261454
 20
1854.49221439934
 10
5237.329195173669
 20
1854.482366132518
 10
5237.317085323894
 20
1854.473346769234
 10
5237.304311810427
 20
1854.465200260745
 10
5237.290916731563
 20
1854.457970558308
 10
5237.276942185598
 20
1854.45170161318
 10
5237.262430270829
 20
1854.446437376617
  0
LWPOLYLINE
  5
1282
330
1F
100
AcDbEntity
  8
SANINDUSA
  6
Continuous
100
AcDbPolyline
 90
       16
 70
   128
 43
0.0
 10
5237.411022932254
 20
1854.593916929777
 10
5237.407070398305
 20
1854.579739507967
 10
5237.402216260338
 20
1854.565968221138
 10
5237.396493418412
 20
1854.552637326938
 10
5237.389934772582
 20
1854.539781083015
 10
5237.382573222902
 20
1854.527433747017
 10
5237.374593437386
 20
1854.515835403773
 10
5237.365902071512
 20
1854.504793455528
 10
5237.356530294118
 20
1854.494340357275
 10
5237.346509274045
 20
1854.48450856401
 10
5237.333776189945
 20
1854.473659143123
 10
5237.320219738379
 20
1854.463791010328
 10
5237.305892506878
 20
1854.454958923132
 10
5237.290847082969
 20
1854.447217639042
 10
5237.275136054179
 20
1854.440621915566
 10
5237.258812008037
 20
1854.435226510211
  0
LWPOLYLINE
  5
1283
330
1F
100
AcDbEntity
  8
SANINDUSA
  6
Continuous
100
AcDbPolyline
 90
       21
 70
   128
 43
0.0
 10
5237.363816787286
 20
1854.594726924897
 10
5237.358522131662
 20
1854.581010882289
 10
5237.35221443926
 20
1854.567472467451
 10
5237.344890809852
 20
1854.55421855176
 10
5237.336573668019
 20
1854.541360093781
 10
5237.327287964022
 20
1854.529009143222
 10
5237.317089316587
 20
1854.517267784851
 10
5237.306696027761
 20
1854.506844557269
 10
5237.295606330998
 20
1854.497131985984
 10
5237.283896131859
 20
1854.488193278477
 10
5237.271650847479
 20
1854.480082761768
 10
5237.258957330372
 20
1854.472850011159
 10
5237.245909134863
 20
1854.466521510909
 10
5237.232601646774
 20
1854.461116288934
 10
5237.219129655503
 20
1854.456645450483
 10
5237.205584813869
 20
1854.453098313459
 10
5237.192054076911
 20
1854.450455112784
 10
5237.178838208397
 20
1854.448707274337
 10
5237.165588989451
 20
1854.447648411754
 10
5237.152316441351
 20
1854.446894400305
 10
5237.139030635021
 20
1854.446384720276
  0
LINE
  5
1284
330
1F
100
AcDbEntity
  8
SANINDUSA
  6
Continuous
100
AcDbLine
 10
5237.124430270829
 20
1854.396097278488
 30
0.0
 11
5237.074430270829
 21
1854.396097278488
 31
0.0
  0
LWPOLYLINE
  5
1285
330
1F
100
AcDbEntity
  8
SANINDUSA
  6
Continuous
100
AcDbPolyline
 90
       13
 70
   128
 43
0.0
 10
5237.099430270829
 20
1854.446556942761
 10
5237.099430330829
 20
1854.446556942716
 10
5237.105090407203
 20
1854.446556319674
 10
5237.110635307124
 20
1854.446560115581
 10
5237.116923176835
 20
1854.44655931951
 10
5237.122705735829
 20
1854.44654414109
 10
5237.127695628246
 20
1854.446515107248
 10
5237.131905778152
 20
1854.446478561724
 10
5237.135221334318
 20
1854.446440924274
 10
5237.137544430576
 20
1854.446408966512
 10
5237.138655626569
 20
1854.44639131667
 10
5237.139030635021
 20
1854.446384720276
 10
5237.139030635021
 20
1854.446384720276
  0
LINE
  5
1286
330
1F
100
AcDbEntity
  8
SANINDUSA
  6
Continuous
100
AcDbLine
 10
5237.073644208877
 20
1854.437608148229
 30
0.0
 11
5237.12521633278
 21
1854.437608148229
 31
0.0
  0
LWPOLYLINE
  5
1287
330
1F
100
AcDbEntity
  8
SANINDUSA
  6
Continuous
100
AcDbPolyline
 90
       11
 70
   128
 43
0.0
 10
5237.132892679941
 20
1854.4440493683
 10
5237.132580261104
 20
1854.444056184272
 10
5237.131652050201
 20
1854.444074438389
 10
5237.129707602784
 20
1854.444107504262
 10
5237.126924063817
 20
1854.444146523299
 10
5237.123381438198
 20
1854.444184489116
 10
5237.119171609699
 20
1854.444214750806
 10
5237.114281544283
 20
1854.444230663777
 10
5237.108956999623
 20
1854.444231576717
 10
5237.104239126809
 20
1854.444227625973
 10
5237.099423684363
 20
1854.444228309525
  0
ARC
  5
1288
330
1F
100
AcDbEntity
  8
SANINDUSA
  6
Continuous
100
AcDbCircle
 10
5237.128430270828
 20
1854.433777926013
 30
0.0
 40
0.0050000000000002
100
AcDbArc
 50
130.0000000018092
 51
180.0
  0
ARC
  5
1289
330
1F
100
AcDbEntity
  8
SANINDUSA
  6
Continuous
100
AcDbCircle
 10
5237.124430270829
 20
1854.397097278488
 30
0.0
 40
0.0009999999999999
100
AcDbArc
 50
180.0
 51
270.0
  0
LWPOLYLINE
  5
128A
330
1F
100
AcDbEntity
  8
SANINDUSA
  6
Continuous
100
AcDbPolyline
 90
        5
 70
   128
 43
0.0
 10
5236.891368434736
 20
1854.454035597797
 10
5236.900523108344
 20
1854.453799907758
 10
5236.911677665258
 20
1854.453614793236
 10
5236.92171668472
 20
1854.453536092937
 10
5236.925021873268
 20
1854.453553110878
  0
LINE
  5
128B
330
1F
100
AcDbEntity
  8
SANINDUSA
  6
Continuous
100
AcDbLine
 10
5236.889430270828
 20
1854.456034637253
 30
0.0
 11
5236.889430270828
 21
1854.458164242997
 31
0.0
  0
LWPOLYLINE
  5
128C
330
1F
100
AcDbEntity
  8
SANINDUSA
  6
Continuous
100
AcDbPolyline
 90
        9
 70
   128
 43
0.0
 10
5236.889430270828
 20
1854.456034637253
 10
5236.889467206733
 20
1854.455652042545
 10
5236.889576650183
 20
1854.455283579318
 10
5236.889754558786
 20
1854.454942857094
 10
5236.889994361328
 20
1854.454642460757
 10
5236.890287200486
 20
1854.454393485718
 10
5236.890622259979
 20
1854.454205128093
 10
5236.890987164084
 20
1854.454084345042
 10
5236.891368434736
 20
1854.454035597797
  0
LINE
  5
128D
330
1F
100
AcDbEntity
  8
SANINDUSA
  6
Continuous
100
AcDbLine
 10
5236.889430270828
 20
1854.458164242997
 30
0.0
 11
5236.889430270828
 21
1854.460781368396
 31
0.0
  0
LWPOLYLINE
  5
128E
330
1F
100
AcDbEntity
  8
SANINDUSA
  6
Continuous
100
AcDbPolyline
 90
        4
 70
   128
 43
0.0
 10
5236.889430270828
 20
1854.460781368396
 10
5236.889452256542
 20
1854.460809152837
 10
5236.889755031681
 20
1854.460885068228
 10
5236.890430270829
 20
1854.460951665756
  0
LWPOLYLINE
  5
128F
330
1F
100
AcDbEntity
  8
SANINDUSA
  6
Continuous
100
AcDbPolyline
 90
        4
 70
   128
 43
0.0
 10
5236.890430270829
 20
1854.460951665756
 10
5236.891191078633
 20
1854.462083736385
 10
5236.89142607639
 20
1854.463152462853
 10
5236.891430270829
 20
1854.46331823095
  0
LWPOLYLINE
  5
1290
330
1F
100
AcDbEntity
  8
SANINDUSA
  6
Continuous
100
AcDbPolyline
 90
       20
 70
   128
 43
0.0
 10
5236.925021873268
 20
1854.453553110878
 10
5236.941647821112
 20
1854.453950170729
 10
5236.950880380805
 20
1854.454206066306
 10
5236.959209770793
 20
1854.454598998047
 10
5236.966624274541
 20
1854.455060134208
 10
5236.973167239349
 20
1854.45553962118
 10
5236.977957284572
 20
1854.455929184872
 10
5236.982135330605
 20
1854.456293691715
 10
5236.985692136292
 20
1854.456620917517
 10
5236.989886203732
 20
1854.457024719762
 10
5236.992755229916
 20
1854.45731135629
 10
5236.993939561611
 20
1854.457432037201
 10
5236.994851497978
 20
1854.45752582821
 10
5236.996414724579
 20
1854.457688247997
 10
5236.998689497256
 20
1854.45792821404
 10
5237.001673715816
 20
1854.458249250215
 10
5237.005363721516
 20
1854.458655414162
 10
5237.010714958137
 20
1854.459260927477
 10
5237.017082137327
 20
1854.460001168863
 10
5237.018954894943
 20
1854.460223655337
  0
LWPOLYLINE
  5
1291
330
1F
100
AcDbEntity
  8
SANINDUSA
  6
Continuous
100
AcDbPolyline
 90
        7
 70
   128
 43
0.0
 10
5236.9183889448
 20
1854.456104900563
 10
5236.918602493251
 20
1854.455115601634
 10
5236.919533464735
 20
1854.454446111791
 10
5236.921520610827
 20
1854.45400212491
 10
5236.923329928863
 20
1854.453863212049
 10
5236.925314287746
 20
1854.453805695434
 10
5236.927832506037
 20
1854.453777311119
  0
LWPOLYLINE
  5
1292
330
1F
100
AcDbEntity
  8
SANINDUSA
  6
Continuous
100
AcDbPolyline
 90
        5
 70
   128
 43
0.0
 10
5236.920146996911
 20
1854.470353880236
 10
5236.920006998378
 20
1854.468491194585
 10
5236.919816461703
 20
1854.466714212252
 10
5236.919365135668
 20
1854.463203334393
 10
5236.9183889448
 20
1854.456104900563
  0
LINE
  5
1293
330
1F
100
AcDbEntity
  8
SANINDUSA
  6
Continuous
100
AcDbLine
 10
5236.920131092134
 20
1854.472101206099
 30
0.0
 11
5236.920146996911
 21
1854.470353880236
 31
0.0
  0
LWPOLYLINE
  5
1294
330
1F
100
AcDbEntity
  8
SANINDUSA
  6
Continuous
100
AcDbPolyline
 90
        9
 70
   128
 43
0.0
 10
5237.066200963091
 20
1854.469510950861
 10
5237.06664176868
 20
1854.467336790585
 10
5237.067451483305
 20
1854.465176382134
 10
5237.068634643083
 20
1854.463118176015
 10
5237.070165971503
 20
1854.461251899292
 10
5237.071990771288
 20
1854.459656630784
 10
5237.074031158436
 20
1854.458390037368
 10
5237.076196730169
 20
1854.457481704793
 10
5237.099430210829
 20
1854.446556942807
  0
LINE
  5
1295
330
1F
100
AcDbEntity
  8
SANINDUSA
  6
Continuous
100
AcDbLine
 10
5237.065412968092
 20
1854.396097278488
 30
0.0
 11
5237.074430270829
 21
1854.396097278488
 31
0.0
  0
LINE
  5
1296
330
1F
100
AcDbEntity
  8
SANINDUSA
  6
Continuous
100
AcDbLine
 10
5237.074534385795
 20
1854.413163839273
 30
0.0
 11
5237.048584265246
 21
1854.415880398975
 31
0.0
  0
LINE
  5
1297
330
1F
100
AcDbEntity
  8
SANINDUSA
  6
Continuous
100
AcDbLine
 10
5237.074326155862
 20
1854.423240281883
 30
0.0
 11
5237.063937505133
 21
1854.424327806308
 31
0.0
  0
LINE
  5
1298
330
1F
100
AcDbEntity
  8
SANINDUSA
  6
Continuous
100
AcDbLine
 10
5237.073644208877
 20
1854.437608148229
 30
0.0
 11
5237.06362724561
 21
1854.446013378412
 31
0.0
  0
LWPOLYLINE
  5
1299
330
1F
100
AcDbEntity
  8
SANINDUSA
  6
Continuous
100
AcDbPolyline
 90
       10
 70
   128
 43
0.0
 10
5237.099423684363
 20
1854.444228309524
 10
5237.093057801804
 20
1854.444309337791
 10
5237.086863988285
 20
1854.444522135474
 10
5237.081003199427
 20
1854.444844763139
 10
5237.075685255046
 20
1854.445215546961
 10
5237.071313194757
 20
1854.445544861925
 10
5237.067806339235
 20
1854.445800964574
 10
5237.065506356801
 20
1854.445941756678
 10
5237.064107138749
 20
1854.446003709266
 10
5237.06362724561
 20
1854.446013378412
  0
LWPOLYLINE
  5
129A
330
1F
100
AcDbEntity
  8
SANINDUSA
  6
Continuous
100
AcDbPolyline
 90
       12
 70
   128
 43
0.0
 10
5237.058975545398
 20
1854.448193929826
 10
5237.058975545398
 20
1854.448193929826
 10
5237.059518857289
 20
1854.448184711695
 10
5237.061094084725
 20
1854.448128113348
 10
5237.063659573095
 20
1854.448000681357
 10
5237.067571250445
 20
1854.447768055634
 10
5237.072461375642
 20
1854.44746750715
 10
5237.078425733785
 20
1854.447127956003
 10
5237.085059135971
 20
1854.446830265781
 10
5237.092128838256
 20
1854.446632628573
 10
5237.099430210829
 20
1854.446556942807
 10
5237.099430270829
 20
1854.446556942761
  0
ARC
  5
129B
330
1F
100
AcDbEntity
  8
SANINDUSA
  6
Continuous
100
AcDbCircle
 10
5237.052429539628
 20
1854.437598078112
 30
0.0
 40
0.0300000000000001
100
AcDbArc
 50
187.9999999999174
 51
264.023821614804
  0
ARC
  5
129C
330
1F
100
AcDbEntity
  8
SANINDUSA
  6
Continuous
100
AcDbCircle
 10
5237.050666564575
 20
1854.43577170435
 30
0.0
 40
0.02
100
AcDbArc
 50
187.9999999999174
 51
264.023821614804
  0
ARC
  5
129D
330
1F
100
AcDbEntity
  8
SANINDUSA
  6
Continuous
100
AcDbCircle
 10
5237.053857870929
 20
1854.428802778089
 30
0.0
 40
0.0099999999999999
100
AcDbArc
 50
0.999999996694513
 51
79.17976170500532
  0
LINE
  5
129E
330
1F
100
AcDbEntity
  8
SANINDUSA
  6
Continuous
100
AcDbLine
 10
5237.059852563107
 20
1854.40665707423
 30
0.0
 11
5237.049306090634
 21
1854.40776112005
 31
0.0
  0
ARC
  5
129F
330
1F
100
AcDbEntity
  8
SANINDUSA
  6
Continuous
100
AcDbCircle
 10
5237.059331988274
 20
1854.401684247886
 30
0.0
 40
0.0050000000000001
100
AcDbArc
 50
0.999999996694513
 51
84.02382161480403
  0
ARC
  5
12A0
330
1F
100
AcDbEntity
  8
SANINDUSA
  6
Continuous
100
AcDbCircle
 10
5237.065412968092
 20
1854.397097278488
 30
0.0
 40
0.0009999999999999
100
AcDbArc
 50
180.9999999966945
 51
270.0
  0
LINE
  5
12A1
330
1F
100
AcDbEntity
  8
SANINDUSA
  6
Continuous
100
AcDbLine
 10
5237.06385634788
 20
1854.428977302153
 30
0.0
 11
5237.063937505133
 21
1854.424327806308
 31
0.0
  0
LINE
  5
12A2
330
1F
100
AcDbEntity
  8
SANINDUSA
  6
Continuous
100
AcDbLine
 10
5237.064331226751
 20
1854.401771509918
 30
0.0
 11
5237.064413120397
 21
1854.397079826081
 31
0.0
  0
LWPOLYLINE
  5
12A3
330
1F
100
AcDbEntity
  8
SANINDUSA
  6
Continuous
100
AcDbPolyline
 90
        8
 70
   128
 43
0.0
 10
5237.039830880707
 20
1854.455389228995
 10
5237.040585406079
 20
1854.452087269203
 10
5237.041880062909
 20
1854.448957362958
 10
5237.043684879982
 20
1854.446091390855
 10
5237.045941894191
 20
1854.443566107671
 10
5237.048595619083
 20
1854.441456878617
 10
5237.051564355208
 20
1854.439820658281
 10
5237.053559432609
 20
1854.43905812136
  0
LWPOLYLINE
  5
12A4
330
1F
100
AcDbEntity
  8
SANINDUSA
  6
Continuous
100
AcDbPolyline
 90
        9
 70
   128
 43
0.0
 10
5237.052475086783
 20
1854.465130363458
 10
5237.052675711792
 20
1854.46304250868
 10
5237.053088511232
 20
1854.461042004927
 10
5237.053705035221
 20
1854.459169801911
 10
5237.054512663699
 20
1854.457464223064
 10
5237.055494864753
 20
1854.455960181076
 10
5237.056631533022
 20
1854.454688463233
 10
5237.057899401248
 20
1854.453675101219
 10
5237.067571250445
 20
1854.447768055634
  0
LWPOLYLINE
  5
12A5
330
1F
100
AcDbEntity
  8
SANINDUSA
  6
Continuous
100
AcDbPolyline
 90
        3
 70
   128
 43
0.0
 10
5237.057761996112
 20
1854.448418700836
 10
5237.058441264925
 20
1854.448291472426
 10
5237.058975545398
 20
1854.448193929826
  0
LWPOLYLINE
  5
12A6
330
1F
100
AcDbEntity
  8
SANINDUSA
  6
Continuous
100
AcDbPolyline
 90
        5
 70
   128
 43
0.0
 10
5237.057762355846
 20
1854.448420492801
 10
5237.055971233303
 20
1854.448936011997
 10
5237.054308118528
 20
1854.449777449326
 10
5237.052762328056
 20
1854.450971493536
 10
5237.051480408507
 20
1854.452446077664
  0
LWPOLYLINE
  5
12A7
330
1F
100
AcDbEntity
  8
SANINDUSA
  6
Continuous
100
AcDbPolyline
 90
        3
 70
   128
 43
0.0
 10
5237.04972306599
 20
1854.456856349191
 10
5237.050332423655
 20
1854.454543900392
 10
5237.051480408338
 20
1854.452446077903
  0
LINE
  5
12A8
330
1F
100
AcDbEntity
  8
SANINDUSA
  6
Continuous
100
AcDbLine
 10
5237.053559427468
 20
1854.439058123017
 30
0.0
 11
5237.055735153643
 21
1854.438624988105
 31
0.0
  0
ARC
  5
12A9
330
1F
100
AcDbEntity
  8
SANINDUSA
  6
Continuous
100
AcDbCircle
 10
5237.057199369512
 20
1854.438352933981
 30
0.0
 40
0.0099999999999999
100
AcDbArc
 50
49.99999999819078
 51
79.76897827187642
  0
LINE
  5
12AA
330
1F
100
AcDbEntity
  8
SANINDUSA
  6
Continuous
100
AcDbLine
 10
5237.075430270829
 20
1854.433777926013
 30
0.0
 11
5237.075430270829
 21
1854.424234847152
 31
0.0
  0
LINE
  5
12AB
330
1F
100
AcDbEntity
  8
SANINDUSA
  6
Continuous
100
AcDbLine
 10
5237.123430270829
 20
1854.397097278488
 30
0.0
 11
5237.123430270829
 21
1854.433777926013
 31
0.0
  0
LINE
  5
12AC
330
1F
100
AcDbEntity
  8
SANINDUSA
  6
Continuous
100
AcDbLine
 10
5237.079840941004
 20
1854.413576939796
 30
0.0
 11
5237.080060551444
 21
1854.421597665551
 31
0.0
  0
LWPOLYLINE
  5
12AD
330
1F
100
AcDbEntity
  8
SANINDUSA
  6
Continuous
100
AcDbPolyline
 90
        6
 70
   128
 43
0.0
 10
5237.080060551444
 20
1854.421597665551
 10
5237.08002723624
 20
1854.421774063233
 10
5237.079871271992
 20
1854.422058941438
 10
5237.079555261909
 20
1854.422363254526
 10
5237.078999647915
 20
1854.422667632711
 10
5237.078420080909
 20
1854.422811713862
  0
LWPOLYLINE
  5
12AE
330
1F
100
AcDbEntity
  8
SANINDUSA
  6
Continuous
100
AcDbPolyline
 90
        9
 70
   128
 43
0.0
 10
5237.080801836703
 20
1854.421564465931
 10
5237.080730291811
 20
1854.421569158089
 10
5237.08065072202
 20
1854.42157379681
 10
5237.080564033521
 20
1854.421578329265
 10
5237.08047121358
 20
1854.421582703835
 10
5237.080373319294
 20
1854.4215868707
 10
5237.080271465544
 20
1854.421590782405
 10
5237.080166812307
 20
1854.421594394401
 10
5237.080060551444
 20
1854.421597665551
  0
LWPOLYLINE
  5
12AF
330
1F
100
AcDbEntity
  8
SANINDUSA
  6
Continuous
100
AcDbPolyline
 90
        9
 70
   128
 43
0.0
 10
5237.080591010681
 20
1854.413543740175
 10
5237.080519354151
 20
1854.413548451997
 10
5237.080439304937
 20
1854.413553108381
 10
5237.080351804881
 20
1854.413557654541
 10
5237.080257883491
 20
1854.413562036986
 10
5237.080158645823
 20
1854.413566204156
 10
5237.080055259489
 20
1854.413570107019
 10
5237.079948940908
 20
1854.413573699656
 10
5237.079840941004
 20
1854.413576939796
  0
LWPOLYLINE
  5
12B0
330
1F
100
AcDbEntity
  8
SANINDUSA
  6
Continuous
100
AcDbPolyline
 90
        8
 70
   128
 43
0.0
 10
5237.078460405708
 20
1854.412752848215
 10
5237.078569412089
 20
1854.412744761944
 10
5237.079036205461
 20
1854.412785440098
 10
5237.079393398264
 20
1854.412914387756
 10
5237.079638391989
 20
1854.413090209186
 10
5237.079793442962
 20
1854.413312827477
 10
5237.079837868922
 20
1854.413479755187
 10
5237.079840941004
 20
1854.413576939796
  0
LWPOLYLINE
  5
12B1
330
1F
100
AcDbEntity
  8
SANINDUSA
  6
Continuous
100
AcDbPolyline
 90
        6
 70
   128
 43
0.0
 10
5237.079360438873
 20
1854.423806279131
 10
5237.079896623829
 20
1854.423580990816
 10
5237.080395337213
 20
1854.423034179558
 10
5237.08066651717
 20
1854.4224621447
 10
5237.080787297193
 20
1854.421911871634
 10
5237.080801836703
 20
1854.421564465931
  0
LINE
  5
12B2
330
1F
100
AcDbEntity
  8
SANINDUSA
  6
Continuous
100
AcDbLine
 10
5237.080801836703
 20
1854.421564465931
 30
0.0
 11
5237.080591010681
 21
1854.413543740175
 31
0.0
  0
LWPOLYLINE
  5
12B3
330
1F
100
AcDbEntity
  8
SANINDUSA
  6
Continuous
100
AcDbPolyline
 90
        7
 70
   128
 43
0.0
 10
5237.080591010681
 20
1854.413543740175
 10
5237.080520059398
 20
1854.413013307912
 10
5237.080350814238
 20
1854.41255406411
 10
5237.080100678397
 20
1854.412178403701
 10
5237.079748715497
 20
1854.411884103766
 10
5237.079301800229
 20
1854.411753750159
 10
5237.079199249945
 20
1854.411758282946
  0
LINE
  5
12B4
330
1F
100
AcDbEntity
  8
SANINDUSA
  6
Continuous
100
AcDbLine
 10
5237.074534385795
 20
1854.413163839273
 30
0.0
 11
5237.078460405708
 21
1854.412752848215
 31
0.0
  0
LINE
  5
12B5
330
1F
100
AcDbEntity
  8
SANINDUSA
  6
Continuous
100
AcDbLine
 10
5237.079199249945
 20
1854.411758282946
 30
0.0
 11
5237.075430270829
 21
1854.412169274004
 31
0.0
  0
LWPOLYLINE
  5
12B6
330
1F
100
AcDbEntity
  8
SANINDUSA
  6
Continuous
100
AcDbPolyline
 90
        9
 70
   128
 43
0.0
 10
5237.079199249945
 20
1854.411758282946
 10
5237.079190384442
 20
1854.411942296482
 10
5237.07915294135
 20
1854.412120005376
 10
5237.079088203538
 20
1854.41228532099
 10
5237.078998389042
 20
1854.412432579309
 10
5237.078886575072
 20
1854.412556734989
 10
5237.078756592583
 20
1854.412653534229
 10
5237.078612895015
 20
1854.412719660507
 10
5237.078460405708
 20
1854.412752848215
  0
LINE
  5
12B7
330
1F
100
AcDbEntity
  8
SANINDUSA
  6
Continuous
100
AcDbLine
 10
5237.078420080909
 20
1854.422811713862
 30
0.0
 11
5237.074326155862
 21
1854.423240281883
 31
0.0
  0
LWPOLYLINE
  5
12B8
330
1F
100
AcDbEntity
  8
SANINDUSA
  6
Continuous
100
AcDbPolyline
 90
        9
 70
   128
 43
0.0
 10
5237.079360438873
 20
1854.423806279131
 10
5237.079336077773
 20
1854.423600851202
 10
5237.079276970073
 20
1854.423404215098
 10
5237.079185645441
 20
1854.423224786371
 10
5237.079066012351
 20
1854.423070244141
 10
5237.078923190814
 20
1854.422947202445
 10
5237.07876329325
 20
1854.422860927173
 10
5237.078593162891
 20
1854.4228151107
 10
5237.078420080909
 20
1854.422811713862
  0
LINE
  5
12B9
330
1F
100
AcDbEntity
  8
SANINDUSA
  6
Continuous
100
AcDbLine
 10
5237.075430270829
 20
1854.424234847152
 30
0.0
 11
5237.079360438873
 21
1854.423806279131
 31
0.0
  0
ARC
  5
12BA
330
1F
100
AcDbEntity
  8
SANINDUSA
  6
Continuous
100
AcDbCircle
 10
5237.074430270829
 20
1854.397097278488
 30
0.0
 40
0.0010000000000002
100
AcDbArc
 50
270.0
 51
0.0
  0
LINE
  5
12BB
330
1F
100
AcDbEntity
  8
SANINDUSA
  6
Continuous
100
AcDbLine
 10
5237.075430270829
 20
1854.412169274004
 30
0.0
 11
5237.075430270829
 21
1854.397097278488
 31
0.0
  0
ARC
  5
12BC
330
1F
100
AcDbEntity
  8
SANINDUSA
  6
Continuous
100
AcDbCircle
 10
5237.074430270829
 20
1854.412169274004
 30
0.0
 40
0.0010000000000002
100
AcDbArc
 50
0.0
 51
84.02382161480403
  0
ARC
  5
12BD
330
1F
100
AcDbEntity
  8
SANINDUSA
  6
Continuous
100
AcDbCircle
 10
5237.074430270829
 20
1854.424234847152
 30
0.0
 40
0.0010000000000002
100
AcDbArc
 50
264.023821614804
 51
0.0
  0
LINE
  5
12BE
330
1F
100
AcDbEntity
  8
SANINDUSA
  6
Continuous
100
AcDbLine
 10
5237.123430270829
 20
1854.433777926013
 30
0.0
 11
5237.075430270829
 21
1854.433777926013
 31
0.0
  0
ARC
  5
12BF
330
1F
100
AcDbEntity
  8
SANINDUSA
  6
Continuous
100
AcDbCircle
 10
5237.070430270829
 20
1854.433777926013
 30
0.0
 40
0.0050000000000002
100
AcDbArc
 50
0.0
 51
49.99999999819078
  0
LWPOLYLINE
  5
12C0
330
1F
100
AcDbEntity
  8
SANINDUSA
  6
Continuous
100
AcDbPolyline
 90
        8
 70
   128
 43
0.0
 10
5237.24549539531
 20
1854.455449125727
 10
5237.229637760226
 20
1854.449475996049
 10
5237.213619495901
 20
1854.44475403785
 10
5237.197574085186
 20
1854.441257360115
 10
5237.184130487856
 20
1854.439235035
 10
5237.170801886326
 20
1854.437992284513
 10
5237.157694286025
 20
1854.437155068784
 10
5237.144600063615
 20
1854.436561591178
  0
ARC
  5
12C1
330
1F
100
AcDbEntity
  8
SANINDUSA
  6
Continuous
100
AcDbCircle
 10
5237.144963666088
 20
1854.426568203702
 30
0.0
 40
0.0100000000000001
100
AcDbArc
 50
92.08374804304062
 51
179.0000000033055
  0
LINE
  5
12C2
330
1F
100
AcDbEntity
  8
SANINDUSA
  6
Continuous
100
AcDbLine
 10
5237.124430270829
 20
1854.396097278488
 30
0.0
 11
5237.133447573565
 21
1854.396097278488
 31
0.0
  0
ARC
  5
12C3
330
1F
100
AcDbEntity
  8
SANINDUSA
  6
Continuous
100
AcDbCircle
 10
5237.133447573565
 20
1854.397097278488
 30
0.0
 40
0.0009999999999999
100
AcDbArc
 50
270.0
 51
359.0000000033055
  0
LINE
  5
12C4
330
1F
100
AcDbEntity
  8
SANINDUSA
  6
Continuous
100
AcDbLine
 10
5237.134447421261
 20
1854.397079826081
 30
0.0
 11
5237.134965189136
 21
1854.426742727767
 31
0.0
  0
ARC
  5
12C5
330
1F
100
AcDbEntity
  8
SANINDUSA
  6
Continuous
100
AcDbCircle
 10
5237.139320556038
 20
1854.436388923869
 30
0.0
 40
0.0099999999999998
100
AcDbArc
 50
91.66135786582174
 51
130.0000000018092
  0
LINE
  5
12C6
330
1F
100
AcDbEntity
  8
SANINDUSA
  6
Continuous
100
AcDbLine
 10
5237.132892679941
 20
1854.4440493683
 30
0.0
 11
5237.12521633278
 21
1854.437608148229
 31
0.0
  0
ARC
  5
12C7
330
1F
100
AcDbEntity
  8
SANINDUSA
  6
Continuous
100
AcDbCircle
 10
5237.247430270829
 20
1854.45083867491
 30
0.0
 40
0.005
100
AcDbArc
 50
0.0
 51
112.7664119628497
  0
LINE
  5
12C8
330
1F
100
AcDbEntity
  8
SANINDUSA
  6
Continuous
100
AcDbLine
 10
5237.252430270829
 20
1854.45083867491
 30
0.0
 11
5237.252430270829
 21
1854.440031799202
 31
0.0
  0
ARC
  5
12C9
330
1F
100
AcDbEntity
  8
SANINDUSA
  6
Continuous
100
AcDbCircle
 10
5237.25743027083
 20
1854.440031799202
 30
0.0
 40
0.0050000000000003
100
AcDbArc
 50
180.0
 51
286.0423289693637
  0
LINE
  5
12CA
330
1F
100
AcDbEntity
  8
SANINDUSA
  6
Continuous
100
AcDbLine
 10
5237.262430270829
 20
1854.463381672095
 30
0.0
 11
5237.262430270829
 21
1854.446437376617
 31
0.0
  0
LWPOLYLINE
  5
12CB
330
1F
100
AcDbEntity
  8
SANINDUSA
  6
Continuous
100
AcDbPolyline
 90
        5
 70
   128
 43
0.0
 10
5237.24942163758
 20
1854.60572793524
 10
5237.180625919894
 20
1854.605913611882
 10
5237.111785302134
 20
1854.605996821609
 10
5237.015230449353
 20
1854.60605662727
 10
5236.918677509275
 20
1854.606089922501
  0
LWPOLYLINE
  5
12CC
330
1F
100
AcDbEntity
  8
SANINDUSA
  6
Continuous
100
AcDbPolyline
 90
       16
 70
   128
 43
0.0
 10
5237.088420925595
 20
1854.605385405507
 10
5237.099645436953
 20
1854.605337665648
 10
5237.110983863104
 20
1854.605279837294
 10
5237.122383546477
 20
1854.605209560768
 10
5237.134149761099
 20
1854.605121308148
 10
5237.145924856431
 20
1854.605012538488
 10
5237.1576513187
 20
1854.604878671478
 10
5237.168989500045
 20
1854.604719242184
 10
5237.180228311456
 20
1854.604524070214
 10
5237.191315987669
 20
1854.604285868524
 10
5237.208028384029
 20
1854.603820676123
 10
5237.224399238348
 20
1854.603198750301
 10
5237.234009735876
 20
1854.60273036625
 10
5237.243471819716
 20
1854.602168521976
 10
5237.252818864999
 20
1854.601488599578
 10
5237.26199402192
 20
1854.600662436946
  0
LINE
  5
12CD
330
1F
100
AcDbEntity
  8
SANINDUSA
  6
Continuous
100
AcDbLine
 10
5237.105349215819
 20
1854.600097278488
 30
0.0
 11
5237.371372246223
 21
1854.600097278488
 31
0.0
  0
LWPOLYLINE
  5
12CE
330
1F
100
AcDbEntity
  8
SANINDUSA
  6
Continuous
100
AcDbPolyline
 90
       15
 70
   128
 43
0.0
 10
5236.918728476977
 20
1854.595751353767
 10
5236.915405493913
 20
1854.596035783186
 10
5236.912123842362
 20
1854.596924203564
 10
5236.909081638584
 20
1854.59833074427
 10
5236.906459688455
 20
1854.600131280221
 10
5236.905104198388
 20
1854.601336667171
 10
5236.9041546192
 20
1854.602326582926
 42
-0.0099492713077585
 10
5236.904127649174
 20
1854.602355842322
 10
5236.901178897605
 20
1854.605685468461
 42
0.6903147546889464
 10
5236.899430270828
 20
1854.605022476794
 10
5236.899430270828
 20
1854.517097278488
 42
0.4142135623730924
 10
5236.900430270829
 20
1854.516097278487
 10
5236.914249871113
 20
1854.516097278487
 42
0.3797183575947316
 10
5236.915242776058
 20
1854.516978367716
 10
5236.923090127278
 20
1854.582503750401
  0
ARC
  5
12CF
330
1F
100
AcDbEntity
  8
SANINDUSA
  6
Continuous
100
AcDbCircle
 10
5236.899414714191
 20
1854.607677522072
 30
0.0
 40
0.0100000000000002
100
AcDbArc
 50
41.52843534471958
 51
82.40535663140857
  0
LINE
  5
12D0
330
1F
100
AcDbEntity
  8
SANINDUSA
  6
Continuous
100
AcDbLine
 10
5236.891430270829
 20
1854.506097278488
 30
0.0
 11
5236.9222363386
 21
1854.506097278488
 31
0.0
  0
LINE
  5
12D1
330
1F
100
AcDbEntity
  8
SANINDUSA
  6
Continuous
100
AcDbLine
 10
5236.889430270828
 20
1854.616812912361
 30
0.0
 11
5236.889430270828
 21
1854.508097278488
 31
0.0
  0
LINE
  5
12D2
330
1F
100
AcDbEntity
  8
SANINDUSA
  6
Continuous
100
AcDbLine
 10
5236.889430270828
 20
1854.506723295506
 30
0.0
 11
5236.889430270828
 21
1854.508097278488
 31
0.0
  0
LINE
  5
12D3
330
1F
100
AcDbEntity
  8
SANINDUSA
  6
Continuous
100
AcDbLine
 10
5236.891430270829
 20
1854.506097278488
 30
0.0
 11
5236.891430270829
 21
1854.50472978003
 31
0.0
  0
ARC
  5
12D4
330
1F
100
AcDbEntity
  8
SANINDUSA
  6
Continuous
100
AcDbCircle
 10
5236.891430270829
 20
1854.508097278488
 30
0.0
 40
0.0020000000000002
100
AcDbArc
 50
180.0
 51
270.0
  0
LINE
  5
12D5
330
1F
100
AcDbEntity
  8
SANINDUSA
  6
Continuous
100
AcDbLine
 10
5236.891694598269
 20
1854.618795368162
 30
0.0
 11
5236.90073635139
 21
1854.617589801079
 31
0.0
  0
ARC
  5
12D6
330
1F
100
AcDbEntity
  8
SANINDUSA
  6
Continuous
100
AcDbCircle
 10
5236.891430270829
 20
1854.616812912361
 30
0.0
 40
0.0020000000000002
100
AcDbArc
 50
82.40535663140857
 51
180.0
  0
LINE
  5
12D7
330
1F
100
AcDbEntity
  8
SANINDUSA
  6
Continuous
100
AcDbLine
 10
5237.022637472467
 20
1854.600097278488
 30
0.0
 11
5236.992930270829
 21
1854.600097278488
 31
0.0
  0
LINE
  5
12D8
330
1F
100
AcDbEntity
  8
SANINDUSA
  6
Continuous
100
AcDbLine
 10
5237.020898898991
 20
1854.590097278488
 30
0.0
 11
5237.00878096812
 21
1854.590097278488
 31
0.0
  0
LWPOLYLINE
  5
12D9
330
1F
100
AcDbEntity
  8
SANINDUSA
  6
Continuous
100
AcDbPolyline
 90
       11
 70
   128
 43
0.0
 10
5236.991374077184
 20
1854.605563009532
 10
5236.996455826066
 20
1854.605559963984
 10
5237.002010447872
 20
1854.605555606126
 10
5237.010404413292
 20
1854.605547632011
 10
5237.019571068032
 20
1854.605537404719
 10
5237.029747115985
 20
1854.605524337546
 10
5237.040600033118
 20
1854.60550802974
 10
5237.051722311253
 20
1854.605488166788
 10
5237.063332193208
 20
1854.605462892414
 10
5237.075706089895
 20
1854.605429336915
 10
5237.088420925595
 20
1854.605385405507
  0
LINE
  5
12DA
330
1F
100
AcDbEntity
  8
SANINDUSA
  6
Continuous
100
AcDbLine
 10
5236.933019176721
 20
1854.581314642683
 30
0.0
 11
5236.924222148488
 21
1854.507859456944
 31
0.0
  0
ARC
  5
12DB
330
1F
100
AcDbEntity
  8
SANINDUSA
  6
Continuous
100
AcDbCircle
 10
5236.9222363386
 20
1854.508097278488
 30
0.0
 40
0.0020000000000002
100
AcDbArc
 50
270.0
 51
353.1707556987383
  0
LINE
  5
12DC
330
1F
100
AcDbEntity
  8
SANINDUSA
  6
Continuous
100
AcDbLine
 10
5236.924222148488
 20
1854.507859456944
 30
0.0
 11
5236.920140361205
 21
1854.473776533132
 31
0.0
  0
LWPOLYLINE
  5
12DD
330
1F
100
AcDbEntity
  8
SANINDUSA
  6
Continuous
100
AcDbPolyline
 90
        3
 70
   128
 43
0.0
 10
5236.964878477368
 20
1854.583695570761
 10
5236.963441087586
 20
1854.583999943896
 10
5236.959686659696
 20
1854.584394637841
  0
LINE
  5
12DE
330
1F
100
AcDbEntity
  8
SANINDUSA
  6
Continuous
100
AcDbLine
 10
5236.992009480162
 20
1854.590097278488
 30
0.0
 11
5236.955930270829
 21
1854.590097278488
 31
0.0
  0
LINE
  5
12DF
330
1F
100
AcDbEntity
  8
SANINDUSA
  6
Continuous
100
AcDbLine
 10
5236.955930270829
 20
1854.600097278488
 30
0.0
 11
5236.992930270829
 21
1854.600097278488
 31
0.0
  0
LWPOLYLINE
  5
12E0
330
1F
100
AcDbEntity
  8
SANINDUSA
  6
Continuous
100
AcDbPolyline
 90
       11
 70
   128
 43
0.0
 10
5236.925137476717
 20
1854.605697845775
 10
5236.927069642566
 20
1854.605703251528
 10
5236.930333058651
 20
1854.60569768868
 10
5236.934901110725
 20
1854.605683744695
 10
5236.940893409382
 20
1854.605663610442
 10
5236.948215460251
 20
1854.605640099375
 10
5236.956833606193
 20
1854.605615819663
 10
5236.964361194189
 20
1854.605598151638
 10
5236.97264292189
 20
1854.605582667855
 10
5236.98165510949
 20
1854.605570557443
 10
5236.991374077184
 20
1854.605563009532
  0
ARC
  5
12E1
330
1F
100
AcDbEntity
  8
SANINDUSA
  6
Continuous
100
AcDbCircle
 10
5236.955930270829
 20
1854.599097278487
 30
0.0
 40
0.0009999999999999
100
AcDbArc
 50
0.0
 51
90.0
  0
ARC
  5
12E2
330
1F
100
AcDbEntity
  8
SANINDUSA
  6
Continuous
100
AcDbCircle
 10
5236.936104999351
 20
1854.610097284045
 30
0.0
 40
0.0100000055580548
100
AcDbArc
 50
218.8934440541532
 51
270.0000034913839
  0
LWPOLYLINE
  5
12E3
330
1F
100
AcDbEntity
  8
SANINDUSA
  6
Continuous
100
AcDbPolyline
 90
        9
 70
   128
 43
0.0
 10
5236.943357199154
 20
1854.590126668451
 10
5236.941495330491
 20
1854.590028714344
 10
5236.939684006056
 20
1854.589586839797
 10
5236.937986190207
 20
1854.588816405032
 10
5236.936460901571
 20
1854.587744191519
 10
5236.935161161469
 20
1854.586407471009
 10
5236.934132150821
 20
1854.584852709914
 10
5236.933409639579
 20
1854.583133954063
 10
5236.933022240224
 20
1854.581340113622
  0
ARC
  5
12E4
330
1F
100
AcDbEntity
  8
SANINDUSA
  6
Continuous
100
AcDbCircle
 10
5236.936104999351
 20
1854.610097284045
 30
0.0
 40
0.0200000055580548
100
AcDbArc
 50
227.1074565031863
 51
239.9138833881806
  0
LINE
  5
12E5
330
1F
100
AcDbEntity
  8
SANINDUSA
  6
Continuous
100
AcDbLine
 10
5236.918728476977
 20
1854.595751353767
 30
0.0
 11
5236.921824589195
 21
1854.595711937828
 31
0.0
  0
ARC
  5
12E6
330
1F
100
AcDbEntity
  8
SANINDUSA
  6
Continuous
100
AcDbCircle
 10
5236.921811859442
 20
1854.594712018855
 30
0.0
 40
0.001
100
AcDbArc
 50
47.10745650318628
 51
89.27061914987293
  0
ARC
  5
12E7
330
1F
100
AcDbEntity
  8
SANINDUSA
  6
Continuous
100
AcDbCircle
 10
5236.942948226163
 20
1854.580125534965
 30
0.0
 40
0.02
100
AcDbArc
 50
145.809031326483
 51
173.1707556987383
  0
ARC
  5
12E8
330
1F
100
AcDbEntity
  8
SANINDUSA
  6
Continuous
100
AcDbCircle
 10
5236.925577673736
 20
1854.591926547989
 30
0.0
 40
0.001
100
AcDbArc
 50
325.809031326483
 51
59.91388338818054
  0
LWPOLYLINE
  5
12E9
330
1F
100
AcDbEntity
  8
SANINDUSA
  6
Continuous
100
AcDbPolyline
 90
        5
 70
   128
 43
0.0
 10
5236.959686659696
 20
1854.584394637841
 10
5236.959732203533
 20
1854.586149668213
 10
5236.959813465592
 20
1854.587805973103
 10
5236.959927817558
 20
1854.589309981536
 10
5236.960008361308
 20
1854.590097278488
  0
LWPOLYLINE
  5
12EA
330
1F
100
AcDbEntity
  8
SANINDUSA
  6
Continuous
100
AcDbPolyline
 90
       13
 70
   128
 43
0.0
 10
5236.959686659696
 20
1854.584394637841
 10
5236.956409651114
 20
1854.584500564078
 10
5236.953219001355
 20
1854.58458926999
 10
5236.950153864262
 20
1854.584659667029
 10
5236.947251853458
 20
1854.584710891324
 10
5236.944548580771
 20
1854.584742314278
 10
5236.942077219228
 20
1854.584753550288
 10
5236.939868095974
 20
1854.58474446147
 10
5236.937948320115
 20
1854.584715159358
 10
5236.936341450053
 20
1854.58466600353
 10
5236.93506720438
 20
1854.5845975972
 10
5236.93414121992
 20
1854.584510779811
 10
5236.933944098041
 20
1854.584483014308
  0
LINE
  5
12EB
330
1F
100
AcDbEntity
  8
SANINDUSA
  6
Continuous
100
AcDbLine
 10
5236.955930270829
 20
1854.600097278488
 30
0.0
 11
5236.936104999958
 21
1854.600097278488
 31
0.0
  0
ARC
  5
12EC
330
1F
100
AcDbEntity
  8
SANINDUSA
  6
Continuous
100
AcDbCircle
 10
5236.944628954983
 20
1854.630097278487
 30
0.0
 40
0.0400000000000001
100
AcDbArc
 50
268.0736637318865
 51
270.0
  0
LINE
  5
12ED
330
1F
100
AcDbEntity
  8
SANINDUSA
  6
Continuous
100
AcDbLine
 10
5236.955930270829
 20
1854.590097278488
 30
0.0
 11
5236.944628954983
 21
1854.590097278488
 31
0.0
  0
ARC
  5
12EE
330
1F
100
AcDbEntity
  8
SANINDUSA
  6
Continuous
100
AcDbCircle
 10
5236.955930270829
 20
1854.591097278488
 30
0.0
 40
0.0010000000000002
100
AcDbArc
 50
270.0
 51
0.0
  0
LINE
  5
12EF
330
1F
100
AcDbEntity
  8
SANINDUSA
  6
Continuous
100
AcDbLine
 10
5236.956930270828
 20
1854.599097278487
 30
0.0
 11
5236.956930270828
 21
1854.591097278488
 31
0.0
  0
LINE
  5
12F0
330
1F
100
AcDbEntity
  8
SANINDUSA
  6
Continuous
100
AcDbLine
 10
5236.924494742332
 20
1854.605678755015
 30
0.0
 11
5236.925137476717
 21
1854.605697845775
 31
0.0
  0
LWPOLYLINE
  5
12F1
330
1F
100
AcDbEntity
  8
SANINDUSA
  6
Continuous
100
AcDbPolyline
 90
        4
 70
   128
 43
0.0
 10
5236.918677509275
 20
1854.606089922501
 10
5236.91536760025
 20
1854.606654525031
 10
5236.912431159964
 20
1854.608282898274
 10
5236.911193909588
 20
1854.609460016454
  0
LWPOLYLINE
  5
12F2
330
1F
100
AcDbEntity
  8
SANINDUSA
  6
Continuous
100
AcDbPolyline
 90
        6
 70
   128
 43
0.0
 10
5236.918677509275
 20
1854.606089922501
 10
5236.918683254885
 20
1854.606078901561
 10
5236.91872171881
 20
1854.606005265031
 10
5236.91878838801
 20
1854.605878215997
 10
5236.918805208138
 20
1854.605846278525
 10
5236.91885577451
 20
1854.605750543501
  0
LINE
  5
12F3
330
1F
100
AcDbEntity
  8
SANINDUSA
  6
Continuous
100
AcDbLine
 10
5236.906900981955
 20
1854.614307438735
 30
0.0
 11
5236.911495172074
 21
1854.609119841493
 31
0.0
  0
ARC
  5
12F4
330
1F
100
AcDbEntity
  8
SANINDUSA
  6
Continuous
100
AcDbCircle
 10
5236.924430270541
 20
1854.600679172026
 30
0.0
 40
0.0049999986670119
100
AcDbArc
 50
38.8934336879479
 51
89.26118705340114
  0
LINE
  5
12F5
330
1F
100
AcDbEntity
  8
SANINDUSA
  6
Continuous
100
AcDbLine
 10
5236.91885577451
 20
1854.605750543501
 30
0.0
 11
5236.924494742332
 21
1854.605678755015
 31
0.0
  0
LWPOLYLINE
  5
12F6
330
1F
100
AcDbEntity
  8
SANINDUSA
  6
Continuous
100
AcDbPolyline
 90
        7
 70
   128
 43
0.0
 10
5236.91885577451
 20
1854.605750543501
 10
5236.917202609146
 20
1854.605909238805
 10
5236.915553061894
 20
1854.606355810103
 10
5236.914045616476
 20
1854.607052766487
 10
5236.912636873711
 20
1854.608020173137
 10
5236.912046000824
 20
1854.608545614441
 10
5236.911495172074
 20
1854.609119841493
  0
ARC
  5
12F7
330
1F
100
AcDbEntity
  8
SANINDUSA
  6
Continuous
100
AcDbCircle
 10
5236.992930270829
 20
1854.599097278487
 30
0.0
 40
0.0009999999999999
100
AcDbArc
 50
90.0
 51
180.0
  0
LINE
  5
12F8
330
1F
100
AcDbEntity
  8
SANINDUSA
  6
Continuous
100
AcDbLine
 10
5237.001974767392
 20
1854.581043540795
 30
0.0
 11
5236.98197383203
 21
1854.581043540795
 31
0.0
  0
LWPOLYLINE
  5
12F9
330
1F
100
AcDbEntity
  8
SANINDUSA
  6
Continuous
100
AcDbPolyline
 90
        6
 70
   128
 43
0.0
 10
5236.968291410014
 20
1854.582887697406
 10
5236.968722942865
 20
1854.584708253422
 10
5236.969074371529
 20
1854.586426580545
 10
5236.969332711357
 20
1854.587979189722
 10
5236.969488417162
 20
1854.589308714874
 10
5236.969533527417
 20
1854.590097278488
  0
LWPOLYLINE
  5
12FA
330
1F
100
AcDbEntity
  8
SANINDUSA
  6
Continuous
100
AcDbPolyline
 90
        3
 70
   128
 43
0.0
 10
5236.98197383203
 20
1854.581043540795
 10
5236.975140356171
 20
1854.581499087989
 10
5236.968291410014
 20
1854.582887697406
  0
LWPOLYLINE
  5
12FB
330
1F
100
AcDbEntity
  8
SANINDUSA
  6
Continuous
100
AcDbPolyline
 90
        9
 70
   128
 43
0.0
 10
5236.98197383203
 20
1854.581043540795
 10
5236.981914078331
 20
1854.582853833501
 10
5236.981797407936
 20
1854.584570554681
 10
5236.981627781233
 20
1854.586135430071
 10
5236.981410956214
 20
1854.587495339824
 10
5236.98115429303
 20
1854.588604121672
 10
5236.980866504135
 20
1854.58942413791
 10
5236.980557358551
 20
1854.589927553006
 10
5236.980237350254
 20
1854.590097278488
  0
LINE
  5
12FC
330
1F
100
AcDbEntity
  8
SANINDUSA
  6
Continuous
100
AcDbLine
 10
5236.968291410014
 20
1854.582887697406
 30
0.0
 11
5236.964878477368
 21
1854.583695570761
 31
0.0
  0
LINE
  5
12FD
330
1F
100
AcDbEntity
  8
SANINDUSA
  6
Continuous
100
AcDbLine
 10
5236.992846562586
 20
1854.590062181548
 30
0.0
 11
5236.992009480162
 21
1854.590097278488
 31
0.0
  0
ARC
  5
12FE
330
1F
100
AcDbEntity
  8
SANINDUSA
  6
Continuous
100
AcDbCircle
 10
5236.992009480162
 20
1854.580097278488
 30
0.0
 40
0.0100000000000001
100
AcDbArc
 50
7.999999999917474
 51
85.1982521220575
  0
ARC
  5
12FF
330
1F
100
AcDbEntity
  8
SANINDUSA
  6
Continuous
100
AcDbCircle
 10
5236.992930270829
 20
1854.591058671855
 30
0.0
 40
0.0009999999999999
100
AcDbArc
 50
180.0
 51
265.1982521220574
  0
LINE
  5
1300
330
1F
100
AcDbEntity
  8
SANINDUSA
  6
Continuous
100
AcDbLine
 10
5236.991930270828
 20
1854.591058671855
 30
0.0
 11
5236.991930270828
 21
1854.599097278487
 31
0.0
  0
LINE
  5
1301
330
1F
100
AcDbEntity
  8
SANINDUSA
  6
Continuous
100
AcDbLine
 10
5237.043089176078
 20
1854.600097278488
 30
0.0
 11
5237.105349215819
 21
1854.600097278488
 31
0.0
  0
ARC
  5
1302
330
1F
100
AcDbEntity
  8
SANINDUSA
  6
Continuous
100
AcDbCircle
 10
5237.043089176078
 20
1854.592097278487
 30
0.0
 40
0.0080000000000001
100
AcDbArc
 50
7.000000004459772
 51
90.0
  0
ARC
  5
1303
330
1F
100
AcDbEntity
  8
SANINDUSA
  6
Continuous
100
AcDbCircle
 10
5237.022637472467
 20
1854.592097278487
 30
0.0
 40
0.0080000000000001
100
AcDbArc
 50
7.999999999917474
 51
90.0
  0
LINE
  5
1304
330
1F
100
AcDbEntity
  8
SANINDUSA
  6
Continuous
100
AcDbLine
 10
5237.029364423837
 20
1854.600097278488
 30
0.0
 11
5237.043089176078
 21
1854.600097278488
 31
0.0
  0
LINE
  5
1305
330
1F
100
AcDbEntity
  8
SANINDUSA
  6
Continuous
100
AcDbLine
 10
5237.022812492466
 20
1854.600097278488
 30
0.0
 11
5237.029364423837
 21
1854.600097278488
 31
0.0
  0
LWPOLYLINE
  5
1306
330
1F
100
AcDbEntity
  8
SANINDUSA
  6
Continuous
100
AcDbPolyline
 90
        9
 70
   128
 43
0.0
 10
5237.03467091599
 20
1854.593232176297
 10
5237.034451479576
 20
1854.594620638022
 10
5237.034070285518
 20
1854.595928862236
 10
5237.033539454982
 20
1854.597115250167
 10
5237.03287586726
 20
1854.59814207718
 10
5237.032100623043
 20
1854.598976692343
 10
5237.031238373461
 20
1854.599592556653
 10
5237.030316536232
 20
1854.599970086923
 10
5237.029364423837
 20
1854.600097278488
  0
LINE
  5
1307
330
1F
100
AcDbEntity
  8
SANINDUSA
  6
Continuous
100
AcDbLine
 10
5237.030971132986
 20
1854.582097278488
 30
0.0
 11
5237.022892512406
 21
1854.582097278488
 31
0.0
  0
ARC
  5
1308
330
1F
100
AcDbEntity
  8
SANINDUSA
  6
Continuous
100
AcDbCircle
 10
5237.030971132986
 20
1854.583097278488
 30
0.0
 40
0.0009999999999999
100
AcDbArc
 50
270.0
 51
7.999999999917474
  0
LINE
  5
1309
330
1F
100
AcDbEntity
  8
SANINDUSA
  6
Continuous
100
AcDbLine
 10
5237.031961401055
 20
1854.583236451588
 30
0.0
 11
5237.030559617015
 21
1854.593210663295
 31
0.0
  0
LWPOLYLINE
  5
130A
330
1F
100
AcDbEntity
  8
SANINDUSA
  6
Continuous
100
AcDbPolyline
 90
       17
 70
   128
 43
0.0
 10
5237.031961401055
 20
1854.583236451588
 10
5237.031976650251
 20
1854.583113903735
 10
5237.032033683516
 20
1854.582656896458
 10
5237.032131509495
 20
1854.581878531434
 10
5237.032269982577
 20
1854.580787604632
 10
5237.032445107558
 20
1854.579425684249
 10
5237.032655183355
 20
1854.577817276996
 10
5237.032893792452
 20
1854.57602165415
 10
5237.033156134276
 20
1854.574084615935
 10
5237.033434634427
 20
1854.572067420769
 10
5237.033721921765
 20
1854.570027498537
 10
5237.034009678401
 20
1854.568022434017
 10
5237.03429956135
 20
1854.566040057656
 10
5237.034570772665
 20
1854.564216776428
 10
5237.03499618219
 20
1854.561415570998
 10
5237.035261622008
 20
1854.559701824679
 10
5237.035334381087
 20
1854.559236451589
  0
ARC
  5
130B
330
1F
100
AcDbEntity
  8
SANINDUSA
  6
Continuous
100
AcDbCircle
 10
5237.022892512406
 20
1854.583097278488
 30
0.0
 40
0.0009999999999999
100
AcDbArc
 50
187.9999999999174
 51
270.0
  0
LWPOLYLINE
  5
130C
330
1F
100
AcDbEntity
  8
SANINDUSA
  6
Continuous
100
AcDbPolyline
 90
       17
 70
   128
 43
0.0
 10
5237.025275224369
 20
1854.558958105387
 10
5237.025174838646
 20
1854.559600133688
 10
5237.024882858012
 20
1854.561488126232
 10
5237.024437690489
 20
1854.56442861816
 10
5237.024158693731
 20
1854.566312305876
 10
5237.023863812548
 20
1854.568338941964
 10
5237.023575382695
 20
1854.570359856959
 10
5237.023289985837
 20
1854.57239830105
 10
5237.023015773885
 20
1854.574396518855
 10
5237.02275978332
 20
1854.576298197954
 10
5237.022529582779
 20
1854.578040794111
 10
5237.022329326596
 20
1854.579582542436
 10
5237.022165262127
 20
1854.580864792273
 10
5237.022038626467
 20
1854.581866722547
 10
5237.02195311399
 20
1854.582549379095
 10
5237.021908659844
 20
1854.582906472603
 10
5237.021902244337
 20
1854.582958105387
  0
LINE
  5
130D
330
1F
100
AcDbEntity
  8
SANINDUSA
  6
Continuous
100
AcDbLine
 10
5237.021902244337
 20
1854.582958105387
 30
0.0
 11
5237.020898898991
 21
1854.590097278488
 31
0.0
  0
ARC
  5
130E
330
1F
100
AcDbEntity
  8
SANINDUSA
  6
Continuous
100
AcDbCircle
 10
5237.034344113019
 20
1854.559097278488
 30
0.0
 40
0.0009999999999999
100
AcDbArc
 50
7.999999999917474
 51
90.0
  0
LINE
  5
130F
330
1F
100
AcDbEntity
  8
SANINDUSA
  6
Continuous
100
AcDbLine
 10
5237.026265492438
 20
1854.560097278488
 30
0.0
 11
5237.034344113019
 21
1854.560097278488
 31
0.0
  0
ARC
  5
1310
330
1F
100
AcDbEntity
  8
SANINDUSA
  6
Continuous
100
AcDbCircle
 10
5237.026265492438
 20
1854.559097278488
 30
0.0
 40
0.0010000000000002
100
AcDbArc
 50
90.0
 51
187.9999999999174
  0
LWPOLYLINE
  5
1311
330
1F
100
AcDbEntity
  8
SANINDUSA
  6
Continuous
100
AcDbPolyline
 90
        6
 70
   128
 43
0.0
 10
5237.260846363713
 20
1854.604016686075
 10
5237.260847889782
 20
1854.604015883604
 10
5237.262113282312
 20
1854.602978019671
 10
5237.263140613652
 20
1854.601704572878
 10
5237.263874549233
 20
1854.600280298813
 10
5237.263919323084
 20
1854.600044544059
  0
ARC
  5
1312
330
1F
100
AcDbEntity
  8
SANINDUSA
  6
Continuous
100
AcDbCircle
 10
5237.261646991203
 20
1854.595681333484
 30
0.0
 40
0.005
100
AcDbArc
 50
63.56714716692969
 51
76.3016477786642
  0
LWPOLYLINE
  5
1313
330
1F
100
AcDbEntity
  8
SANINDUSA
  6
Continuous
100
AcDbPolyline
 90
       13
 70
   128
 43
0.0
 10
5237.260846363713
 20
1854.604016686075
 10
5237.260304914665
 20
1854.604368296235
 10
5237.259431886911
 20
1854.604790336914
 10
5237.258652350023
 20
1854.6050681016
 10
5237.257990263675
 20
1854.605241197105
 10
5237.257374778615
 20
1854.605358522654
 10
5237.256706244406
 20
1854.605449347558
 10
5237.255666839431
 20
1854.60554382879
 10
5237.254449300469
 20
1854.605615632342
 10
5237.253150749165
 20
1854.605666769355
 10
5237.251650879101
 20
1854.60570448677
 10
5237.250083083914
 20
1854.605725678652
 10
5237.24942163758
 20
1854.60572793524
  0
LINE
  5
1314
330
1F
100
AcDbEntity
  8
SANINDUSA
  6
Continuous
100
AcDbLine
 10
5237.26199402192
 20
1854.600662436946
 30
0.0
 11
5237.262831042227
 21
1854.600539113139
 31
0.0
  0
LINE
  5
1315
330
1F
100
AcDbEntity
  8
SANINDUSA
  6
Continuous
100
AcDbLine
 10
5237.40616425168
 20
1854.600097278488
 30
0.0
 11
5237.371372246223
 21
1854.600097278488
 31
0.0
  0
LINE
  5
1316
330
1F
100
AcDbEntity
  8
SANINDUSA
  6
Continuous
100
AcDbLine
 10
5237.399953308551
 20
1854.590097278488
 30
0.0
 11
5237.372789158738
 21
1854.590097278488
 31
0.0
  0
ARC
  5
1317
330
1F
100
AcDbEntity
  8
SANINDUSA
  6
Continuous
100
AcDbCircle
 10
5237.371372246223
 20
1854.592097278487
 30
0.0
 40
0.0080000000000002
100
AcDbArc
 50
90.0
 51
160.8097582835175
  0
ARC
  5
1318
330
1F
100
AcDbEntity
  8
SANINDUSA
  6
Continuous
100
AcDbCircle
 10
5237.40616425168
 20
1854.595097278487
 30
0.0
 40
0.005
100
AcDbArc
 50
346.3453111996407
 51
90.0
  0
INSERT
  5
133E
330
1F
100
AcDbEntity
  8
cotas
100
AcDbBlockReference
  2
118780AL
 10
5236.116924802137
 20
1854.397079826081
 30
0.0
  0
ENDSEC
  0
SECTION
  2
OBJECTS
  0
DICTIONARY
  5
C
330
0
100
AcDbDictionary
281
     1
  3
ACAD_COLOR
350
EE6
  3
ACAD_GROUP
350
D
  3
ACAD_LAYOUT
350
1A
  3
ACAD_MATERIAL
350
EE5
  3
ACAD_MLINESTYLE
350
17
  3
ACAD_PLOTSETTINGS
350
19
  3
ACAD_PLOTSTYLENAME
350
E
  3
ACAD_TABLESTYLE
350
EE7
  3
ACDBHEADERROUNDTRIPXREC
350
1359
  3
AcDbVariableDictionary
350
3D
  3
ASE_INDEX_DICTIONARY
350
1066
  0
DICTIONARY
  5
1051
330
2
100
AcDbDictionary
280
     1
281
     1
  3
ACAD_LAYERFILTERS
360
1065
  3
ACLYDICTIONARY
360
1064
  0
DICTIONARY
  5
EE6
102
{ACAD_REACTORS
330
C
102
}
330
C
100
AcDbDictionary
281
     1
  0
DICTIONARY
  5
D
102
{ACAD_REACTORS
330
C
102
}
330
C
100
AcDbDictionary
281
     1
  0
DICTIONARY
  5
1A
102
{ACAD_REACTORS
330
C
102
}
330
C
100
AcDbDictionary
281
     1
  3
Layout1
350
1E
  3
Layout2
350
26
  3
Model
350
22
  0
DICTIONARY
  5
EE5
102
{ACAD_REACTORS
330
C
102
}
330
C
100
AcDbDictionary
281
     1
  0
DICTIONARY
  5
17
102
{ACAD_REACTORS
330
C
102
}
330
C
100
AcDbDictionary
281
     1
  3
Standard
350
18
  0
DICTIONARY
  5
19
102
{ACAD_REACTORS
330
C
102
}
330
C
100
AcDbDictionary
281
     1
  0
ACDBDICTIONARYWDFLT
  5
E
102
{ACAD_REACTORS
330
C
102
}
330
C
100
AcDbDictionary
281
     1
  3
Normal
350
F
100
AcDbDictionaryWithDefault
340
F
  0
DICTIONARY
  5
EE7
102
{ACAD_REACTORS
330
C
102
}
330
C
100
AcDbDictionary
281
     1
  3
Standard
350
EE8
  0
DICTIONARY
  5
1359
102
{ACAD_REACTORS
330
C
102
}
330
C
100
AcDbDictionary
281
     1
  0
DICTIONARY
  5
3D
102
{ACAD_REACTORS
330
C
102
}
330
C
100
AcDbDictionary
281
     1
  3
CTABLESTYLE
350
1049
  3
DIMASSOC
350
3F
  3
HIDETEXT
350
3E
  3
PROJECTNAME
350
1357
  0
DICTIONARY
  5
1066
102
{ACAD_REACTORS
330
C
102
}
330
C
100
AcDbDictionary
281
     1
  3
ASEBlockHierarchyIndexRecord
350
1067
1001
DCO15
1040
1602247867.484
  0
DICTIONARY
  5
1065
102
{ACAD_REACTORS
330
1051
102
}
330
1051
100
AcDbDictionary
281
     1
  0
DICTIONARY
  5
1064
102
{ACAD_REACTORS
330
1051
102
}
330
1051
100
AcDbDictionary
281
     1
1001
ACAD
1000
<All
  0
LAYOUT
  5
1E
102
{ACAD_XDICTIONARY
360
135A
102
}
102
{ACAD_REACTORS
330
1A
102
}
330
1A
100
AcDbPlotSettings
  1

  2
Ploter HP500
  4

  6

 40
0.0
 41
0.0
 42
0.0
 43
0.0
 44
0.0
 45
0.0
 46
0.0
 47
0.0
 48
0.0
 49
0.0
140
0.0
141
0.0
142
1.0
143
1.0
 70
   688
 72
     0
 73
     0
 74
     5
  7
sanindusa.ctb
 75
    16
147
1.0
148
0.0
149
0.0
100
AcDbLayout
  1
Layout1
 70
     1
 71
     1
 10
0.0
 20
0.0
 11
420.0
 21
297.0
 12
0.0
 22
0.0
 32
0.0
 14
1.000000000000000E+20
 24
1.000000000000000E+20
 34
1.000000000000000E+20
 15
-1.000000000000000E+20
 25
-1.000000000000000E+20
 35
-1.000000000000000E+20
146
0.0
 13
0.0
 23
0.0
 33
0.0
 16
1.0
 26
0.0
 36
0.0
 17
0.0
 27
1.0
 37
0.0
 76
     0
330
1B
  0
LAYOUT
  5
26
102
{ACAD_XDICTIONARY
360
135E
102
}
102
{ACAD_REACTORS
330
1A
102
}
330
1A
100
AcDbPlotSettings
  1

  2
Ploter HP500
  4

  6

 40
0.0
 41
0.0
 42
0.0
 43
0.0
 44
0.0
 45
0.0
 46
0.0
 47
0.0
 48
0.0
 49
0.0
140
0.0
141
0.0
142
1.0
143
1.0
 70
   688
 72
     0
 73
     0
 74
     5
  7
sanindusa.ctb
 75
    16
147
1.0
148
0.0
149
0.0
100
AcDbLayout
  1
Layout2
 70
     1
 71
     2
 10
0.0
 20
0.0
 11
12.0
 21
9.0
 12
0.0
 22
0.0
 32
0.0
 14
0.0
 24
0.0
 34
0.0
 15
0.0
 25
0.0
 35
0.0
146
0.0
 13
0.0
 23
0.0
 33
0.0
 16
1.0
 26
0.0
 36
0.0
 17
0.0
 27
1.0
 37
0.0
 76
     0
330
23
  0
LAYOUT
  5
22
102
{ACAD_XDICTIONARY
360
135C
102
}
102
{ACAD_REACTORS
330
1A
102
}
330
1A
100
AcDbPlotSettings
  1

  2
Ploter HP500
  4
User268
  6

 40
4.995333194732666
 41
16.97565841674804
 42
4.995330810546875
 43
16.97567749023437
 44
209.9733276367187
 45
296.9259948730469
 46
0.0
 47
0.0
 48
0.0
 49
0.0
140
0.0
141
0.0
142
1.0
143
1.0
 70
 11952
 72
     1
 73
     1
 74
     0
  7
sanindusa.ctb
 75
     0
147
1.0
148
-427.5957866592534
149
7.362384574453926
100
AcDbLayout
  1
Model
 70
     1
 71
     0
 10
0.0
 20
0.0
 11
12.0
 21
9.0
 12
0.0
 22
0.0
 32
0.0
 14
0.0
 24
0.0
 34
0.0
 15
0.0
 25
0.0
 35
0.0
146
0.0
 13
0.0
 23
0.0
 33
0.0
 16
1.0
 26
0.0
 36
0.0
 17
0.0
 27
1.0
 37
0.0
 76
     0
330
1F
  0
MLINESTYLE
  5
18
102
{ACAD_REACTORS
330
17
102
}
330
17
100
AcDbMlineStyle
  2
STANDARD
 70
     0
  3

 62
   256
 51
90.0
 52
90.0
 71
     2
 49
0.5
 62
   256
  6
BYLAYER
 49
-0.5
 62
   256
  6
BYLAYER
  0
ACDBPLACEHOLDER
  5
F
102
{ACAD_REACTORS
330
E
102
}
330
E
  0
TABLESTYLE
  5
EE8
102
{ACAD_REACTORS
330
EE7
102
}
330
EE7
100
AcDbTableStyle
  3
Standard
 70
     0
 71
     0
 40
1.5
 41
1.5
280
     0
281
     0
  7
Standard
140
4.5
170
     2
 62
     0
 63
     7
283
     0
274
    -2
284
     1
 64
     0
275
    -2
285
     1
 65
     0
276
    -2
286
     1
 66
     0
277
    -2
287
     1
 67
     0
278
    -2
288
     1
 68
     0
279
    -2
289
     1
 69
     0
  7
Standard
140
6.0
170
     5
 62
     0
 63
     7
283
     0
274
    -2
284
     1
 64
     0
275
    -2
285
     1
 65
     0
276
    -2
286
     1
 66
     0
277
    -2
287
     1
 67
     0
278
    -2
288
     1
 68
     0
279
    -2
289
     1
 69
     0
  7
Standard
140
4.5
170
     5
 62
     0
 63
     7
283
     0
274
    -2
284
     1
 64
     0
275
    -2
285
     1
 65
     0
276
    -2
286
     1
 66
     0
277
    -2
287
     1
 67
     0
278
    -2
288
     1
 68
     0
279
    -2
289
     1
 69
     0
  0
DICTIONARYVAR
  5
1049
102
{ACAD_REACTORS
330
3D
102
}
330
3D
100
DictionaryVariables
280
     0
  1
STANDARD
  0
DICTIONARYVAR
  5
3F
102
{ACAD_REACTORS
330
3D
102
}
330
3D
100
DictionaryVariables
280
     0
  1
2
  0
DICTIONARYVAR
  5
3E
102
{ACAD_REACTORS
330
3D
102
}
330
3D
100
DictionaryVariables
280
     0
  1
1
  0
DICTIONARYVAR
  5
1357
102
{ACAD_REACTORS
330
3D
102
}
330
3D
100
DictionaryVariables
280
     0
  1

  0
XRECORD
  5
1067
102
{ACAD_REACTORS
330
1066
102
}
330
1066
100
AcDbXrecord
280
     1
  0
DICTIONARY
  5
135A
330
1E
100
AcDbDictionary
280
     1
281
     1
  3
ACAD_XREC_ROUNDTRIP
360
135B
  0
DICTIONARY
  5
135E
330
26
100
AcDbDictionary
280
     1
281
     1
  3
ACAD_XREC_ROUNDTRIP
360
135F
  0
DICTIONARY
  5
135C
330
22
100
AcDbDictionary
280
     1
281
     1
  3
ACAD_XREC_ROUNDTRIP
360
135D
  0
XRECORD
  5
135B
102
{ACAD_REACTORS
330
135A
102
}
330
135A
100
AcDbXrecord
280
     1
102
SHADEPLOT
 70
     0
102
SHADEPLOTRESLEVEL
 70
     2
102
SHADEPLOTCUSTOMDPI
 70
   300
  0
XRECORD
  5
135F
102
{ACAD_REACTORS
330
135E
102
}
330
135E
100
AcDbXrecord
280
     1
102
SHADEPLOT
 70
     0
102
SHADEPLOTRESLEVEL
 70
     2
102
SHADEPLOTCUSTOMDPI
 70
   300
  0
XRECORD
  5
135D
102
{ACAD_REACTORS
330
135C
102
}
330
135C
100
AcDbXrecord
280
     1
102
SHADEPLOT
 70
     0
102
SHADEPLOTRESLEVEL
 70
     2
102
SHADEPLOTCUSTOMDPI
 70
   300
  0
ENDSEC
  0
EOF
