  0
SECTION
  2
HEADER
  9
$ACADVER
  1
AC1015
  9
$ACADMAINTVER
 70
    20
  9
$DWGCODEPAGE
  3
ANSI_1252
  9
$INSBASE
 10
0.0
 20
0.0
 30
0.0
  9
$EXTMIN
 10
719.3148050819128
 20
962.065153162637
 30
0.0
  9
$EXTMAX
 10
721.9228143889101
 20
962.5006587400177
 30
0.0
  9
$LIMMIN
 10
0.0
 20
0.0
  9
$LIMMAX
 10
420.0
 20
297.0
  9
$ORTHOMODE
 70
     1
  9
$REGENMODE
 70
     1
  9
$FILLMODE
 70
     1
  9
$QTEXTMODE
 70
     0
  9
$MIRRTEXT
 70
     1
  9
$LTSCALE
 40
1.0
  9
$ATTMODE
 70
     1
  9
$TEXTSIZE
 40
2.5
  9
$TRACEWID
 40
1.0
  9
$TEXTSTYLE
  7
SANINDUSA
  9
$CLAYER
  8
0
  9
$CELTYPE
  6
ByLayer
  9
$CECOLOR
 62
   256
  9
$CELTSCALE
 40
1.0
  9
$DISPSILH
 70
     0
  9
$DIMSCALE
 40
1.0
  9
$DIMASZ
 40
2.0
  9
$DIMEXO
 40
1.0
  9
$DIMDLI
 40
1.0
  9
$DIMRND
 40
0.0
  9
$DIMDLE
 40
0.0
  9
$DIMEXE
 40
1.0
  9
$DIMTP
 40
0.0
  9
$DIMTM
 40
0.0
  9
$DIMTXT
 40
2.0
  9
$DIMCEN
 40
0.0
  9
$DIMTSZ
 40
0.0
  9
$DIMTOL
 70
     0
  9
$DIMLIM
 70
     0
  9
$DIMTIH
 70
     0
  9
$DIMTOH
 70
     0
  9
$DIMSE1
 70
     0
  9
$DIMSE2
 70
     0
  9
$DIMTAD
 70
     1
  9
$DIMZIN
 70
     8
  9
$DIMBLK
  1

  9
$DIMASO
 70
     1
  9
$DIMSHO
 70
     1
  9
$DIMPOST
  1

  9
$DIMAPOST
  1

  9
$DIMALT
 70
     0
  9
$DIMALTD
 70
     3
  9
$DIMALTF
 40
0.03937007874016
  9
$DIMLFAC
 40
1.0
  9
$DIMTOFL
 70
     1
  9
$DIMTVP
 40
0.0
  9
$DIMTIX
 70
     0
  9
$DIMSOXD
 70
     0
  9
$DIMSAH
 70
     0
  9
$DIMBLK1
  1

  9
$DIMBLK2
  1

  9
$DIMSTYLE
  2
SANINDUSA
  9
$DIMCLRD
 70
   256
  9
$DIMCLRE
 70
   256
  9
$DIMCLRT
 70
   256
  9
$DIMTFAC
 40
1.0
  9
$DIMGAP
 40
1.0
  9
$DIMJUST
 70
     0
  9
$DIMSD1
 70
     0
  9
$DIMSD2
 70
     0
  9
$DIMTOLJ
 70
     0
  9
$DIMTZIN
 70
     8
  9
$DIMALTZ
 70
     0
  9
$DIMALTTZ
 70
     0
  9
$DIMUPT
 70
     0
  9
$DIMDEC
 70
     1
  9
$DIMTDEC
 70
     1
  9
$DIMALTU
 70
     2
  9
$DIMALTTD
 70
     3
  9
$DIMTXSTY
  7
SANINDUSA
  9
$DIMAUNIT
 70
     0
  9
$DIMADEC
 70
     1
  9
$DIMALTRND
 40
0.0
  9
$DIMAZIN
 70
     0
  9
$DIMDSEP
 70
    44
  9
$DIMATFIT
 70
     3
  9
$DIMFRAC
 70
     0
  9
$DIMLDRBLK
  1

  9
$DIMLUNIT
 70
     2
  9
$DIMLWD
 70
    -1
  9
$DIMLWE
 70
    -1
  9
$DIMTMOVE
 70
     0
  9
$LUNITS
 70
     2
  9
$LUPREC
 70
     4
  9
$SKETCHINC
 40
1.0
  9
$FILLETRAD
 40
0.0
  9
$AUNITS
 70
     0
  9
$AUPREC
 70
     0
  9
$MENU
  1
.
  9
$ELEVATION
 40
0.0
  9
$PELEVATION
 40
0.0
  9
$THICKNESS
 40
0.0
  9
$LIMCHECK
 70
     0
  9
$CHAMFERA
 40
10.0
  9
$CHAMFERB
 40
10.0
  9
$CHAMFERC
 40
20.0
  9
$CHAMFERD
 40
0.0
  9
$SKPOLY
 70
     0
  9
$TDCREATE
 40
2453563.474022709
  9
$TDUCREATE
 40
2453563.432356042
  9
$TDUPDATE
 40
2456146.505151540
  9
$TDUUPDATE
 40
2456146.463484873
  9
$TDINDWG
 40
0.0033928241
  9
$TDUSRTIMER
 40
0.0033928241
  9
$USRTIMER
 70
     1
  9
$ANGBASE
 50
0.0
  9
$ANGDIR
 70
     0
  9
$PDMODE
 70
     0
  9
$PDSIZE
 40
0.0
  9
$PLINEWID
 40
0.0
  9
$SPLFRAME
 70
     0
  9
$SPLINETYPE
 70
     6
  9
$SPLINESEGS
 70
     8
  9
$HANDSEED
  5
1685
  9
$SURFTAB1
 70
     6
  9
$SURFTAB2
 70
     6
  9
$SURFTYPE
 70
     6
  9
$SURFU
 70
     6
  9
$SURFV
 70
     6
  9
$UCSBASE
  2

  9
$UCSNAME
  2

  9
$UCSORG
 10
0.0
 20
0.0
 30
0.0
  9
$UCSXDIR
 10
1.0
 20
0.0
 30
0.0
  9
$UCSYDIR
 10
0.0
 20
1.0
 30
0.0
  9
$UCSORTHOREF
  2

  9
$UCSORTHOVIEW
 70
     0
  9
$UCSORGTOP
 10
0.0
 20
0.0
 30
0.0
  9
$UCSORGBOTTOM
 10
0.0
 20
0.0
 30
0.0
  9
$UCSORGLEFT
 10
0.0
 20
0.0
 30
0.0
  9
$UCSORGRIGHT
 10
0.0
 20
0.0
 30
0.0
  9
$UCSORGFRONT
 10
0.0
 20
0.0
 30
0.0
  9
$UCSORGBACK
 10
0.0
 20
0.0
 30
0.0
  9
$PUCSBASE
  2

  9
$PUCSNAME
  2

  9
$PUCSORG
 10
0.0
 20
0.0
 30
0.0
  9
$PUCSXDIR
 10
1.0
 20
0.0
 30
0.0
  9
$PUCSYDIR
 10
0.0
 20
1.0
 30
0.0
  9
$PUCSORTHOREF
  2

  9
$PUCSORTHOVIEW
 70
     0
  9
$PUCSORGTOP
 10
0.0
 20
0.0
 30
0.0
  9
$PUCSORGBOTTOM
 10
0.0
 20
0.0
 30
0.0
  9
$PUCSORGLEFT
 10
0.0
 20
0.0
 30
0.0
  9
$PUCSORGRIGHT
 10
0.0
 20
0.0
 30
0.0
  9
$PUCSORGFRONT
 10
0.0
 20
0.0
 30
0.0
  9
$PUCSORGBACK
 10
0.0
 20
0.0
 30
0.0
  9
$USERI1
 70
     0
  9
$USERI2
 70
     0
  9
$USERI3
 70
     0
  9
$USERI4
 70
     0
  9
$USERI5
 70
     0
  9
$USERR1
 40
0.0
  9
$USERR2
 40
0.0
  9
$USERR3
 40
0.0
  9
$USERR4
 40
0.0
  9
$USERR5
 40
0.0
  9
$WORLDVIEW
 70
     1
  9
$SHADEDGE
 70
     3
  9
$SHADEDIF
 70
    70
  9
$TILEMODE
 70
     1
  9
$MAXACTVP
 70
    64
  9
$PINSBASE
 10
0.0
 20
0.0
 30
0.0
  9
$PLIMCHECK
 70
     0
  9
$PEXTMIN
 10
1.000000000000000E+20
 20
1.000000000000000E+20
 30
1.000000000000000E+20
  9
$PEXTMAX
 10
-1.000000000000000E+20
 20
-1.000000000000000E+20
 30
-1.000000000000000E+20
  9
$PLIMMIN
 10
0.0
 20
0.0
  9
$PLIMMAX
 10
420.0
 20
297.0
  9
$UNITMODE
 70
     0
  9
$VISRETAIN
 70
     1
  9
$PLINEGEN
 70
     0
  9
$PSLTSCALE
 70
     1
  9
$TREEDEPTH
 70
  3020
  9
$CMLSTYLE
  2
Standard
  9
$CMLJUST
 70
     0
  9
$CMLSCALE
 40
20.0
  9
$PROXYGRAPHICS
 70
     1
  9
$MEASUREMENT
 70
     1
  9
$CELWEIGHT
370
    -1
  9
$ENDCAPS
280
     0
  9
$JOINSTYLE
280
     0
  9
$LWDISPLAY
290
     0
  9
$INSUNITS
 70
     4
  9
$HYPERLINKBASE
  1

  9
$STYLESHEET
  1
monochrome.ctb
  9
$XEDIT
290
     1
  9
$CEPSNTYPE
380
     0
  9
$PSTYLEMODE
290
     1
  9
$FINGERPRINTGUID
  2
{76FA5D5E-EF1F-4E89-9FC0-5FC1530A6E09}
  9
$VERSIONGUID
  2
{216C97FE-A4B4-4C24-A15C-BC974179F9D4}
  9
$EXTNAMES
290
     1
  9
$PSVPSCALE
 40
0.0
  9
$OLESTARTUP
290
     0
  0
ENDSEC
  0
SECTION
  2
CLASSES
  0
CLASS
  1
ACDBDICTIONARYWDFLT
  2
AcDbDictionaryWithDefault
  3
ObjectDBX Classes
 90
        0
280
     0
281
     0
  0
CLASS
  1
ACDBPLACEHOLDER
  2
AcDbPlaceHolder
  3
ObjectDBX Classes
 90
        0
280
     0
281
     0
  0
CLASS
  1
LAYOUT
  2
AcDbLayout
  3
ObjectDBX Classes
 90
        0
280
     0
281
     0
  0
CLASS
  1
DICTIONARYVAR
  2
AcDbDictionaryVar
  3
ObjectDBX Classes
 90
        0
280
     0
281
     0
  0
CLASS
  1
DIMASSOC
  2
AcDbDimAssoc
  3
"AcDbDimAssoc|Product Desc:     AcDim ARX App For Dimension|Company:          Autodesk, Inc.|WEB Address:      www.autodesk.com"
 90
    32768
280
     0
281
     0
  0
CLASS
  1
TABLESTYLE
  2
AcDbTableStyle
  3
ObjectDBX Classes
 90
     4095
280
     0
281
     0
  0
CLASS
  1
SORTENTSTABLE
  2
AcDbSortentsTable
  3
ObjectDBX Classes
 90
        0
280
     0
281
     0
  0
CLASS
  1
MATERIAL
  2
AcDbMaterial
  3
ObjectDBX Classes
 90
     1153
280
     0
281
     0
  0
CLASS
  1
VISUALSTYLE
  2
AcDbVisualStyle
  3
ObjectDBX Classes
 90
     4095
280
     0
281
     0
  0
CLASS
  1
SCALE
  2
AcDbScale
  3
ObjectDBX Classes
 90
     1153
280
     0
281
     0
  0
CLASS
  1
MLEADERSTYLE
  2
AcDbMLeaderStyle
  3
ACDB_MLEADERSTYLE_CLASS
 90
     4095
280
     0
281
     0
  0
CLASS
  1
CELLSTYLEMAP
  2
AcDbCellStyleMap
  3
ObjectDBX Classes
 90
     1152
280
     0
281
     0
  0
ENDSEC
  0
SECTION
  2
TABLES
  0
TABLE
  2
VPORT
  5
8
330
0
100
AcDbSymbolTable
 70
     1
  0
VPORT
  5
15CE
330
8
100
AcDbSymbolTableRecord
100
AcDbViewportTableRecord
  2
*Active
 70
     0
 10
0.0
 20
0.0
 11
1.0
 21
1.0
 12
720.7643200689658
 22
962.2749907001757
 13
0.0
 23
0.0
 14
10.0
 24
10.0
 15
10.0
 25
10.0
 16
0.0
 26
0.0
 36
1.0
 17
0.0
 27
0.0
 37
0.0
 40
1.9604045584216
 41
1.645464025026068
 42
50.0
 43
0.0
 44
0.0
 50
0.0
 51
0.0
 71
     0
 72
   100
 73
     1
 74
     2
 75
     0
 76
     0
 77
     0
 78
     0
281
     0
 65
     1
110
0.0
120
0.0
130
0.0
111
1.0
121
0.0
131
0.0
112
0.0
122
1.0
132
0.0
 79
     0
146
0.0
  0
ENDTAB
  0
TABLE
  2
LTYPE
  5
5
330
0
100
AcDbSymbolTable
 70
     3
  0
LTYPE
  5
14
330
5
100
AcDbSymbolTableRecord
100
AcDbLinetypeTableRecord
  2
ByBlock
 70
     0
  3

 72
    65
 73
     0
 40
0.0
  0
LTYPE
  5
15
330
5
100
AcDbSymbolTableRecord
100
AcDbLinetypeTableRecord
  2
ByLayer
 70
     0
  3

 72
    65
 73
     0
 40
0.0
  0
LTYPE
  5
16
330
5
100
AcDbSymbolTableRecord
100
AcDbLinetypeTableRecord
  2
Continuous
 70
     0
  3
Solid line
 72
    65
 73
     0
 40
0.0
  0
LTYPE
  5
2D
330
5
100
AcDbSymbolTableRecord
100
AcDbLinetypeTableRecord
  2
DASHDOT
 70
     0
  3
Dash dot __ . __ . __ . __ . __ . __ . __ . __
 72
    65
 73
     4
 40
25.4
 49
12.7
 74
     0
 49
-6.349999999999999
 74
     0
 49
0.0
 74
     0
 49
-6.349999999999999
 74
     0
  0
LTYPE
  5
2E
330
5
100
AcDbSymbolTableRecord
100
AcDbLinetypeTableRecord
  2
HIDDEN
 70
     0
  3
Hidden __ __ __ __ __ __ __ __ __ __ __ __ __ _
 72
    65
 73
     2
 40
9.524999999999998
 49
6.349999999999999
 74
     0
 49
-3.174999999999999
 74
     0
  0
ENDTAB
  0
TABLE
  2
LAYER
  5
2
330
0
100
AcDbSymbolTable
 70
    16
  0
LAYER
  5
10
102
{ACAD_XDICTIONARY
360
161D
102
}
330
2
100
AcDbSymbolTableRecord
100
AcDbLayerTableRecord
  2
0
 70
     0
 62
     7
  6
Continuous
370
    -3
390
F
  0
LAYER
  5
2F
102
{ACAD_XDICTIONARY
360
161F
102
}
330
2
100
AcDbSymbolTableRecord
100
AcDbLayerTableRecord
  2
1
 70
     0
 62
     1
  6
Continuous
370
    -3
390
F
  0
LAYER
  5
30
102
{ACAD_XDICTIONARY
360
1621
102
}
330
2
100
AcDbSymbolTableRecord
100
AcDbLayerTableRecord
  2
2
 70
     0
 62
     2
  6
Continuous
370
    -3
390
F
  0
LAYER
  5
31
102
{ACAD_XDICTIONARY
360
1623
102
}
330
2
100
AcDbSymbolTableRecord
100
AcDbLayerTableRecord
  2
3
 70
     0
 62
     3
  6
Continuous
370
    -3
390
F
  0
LAYER
  5
32
102
{ACAD_XDICTIONARY
360
1625
102
}
330
2
100
AcDbSymbolTableRecord
100
AcDbLayerTableRecord
  2
4
 70
     0
 62
     4
  6
Continuous
370
    -3
390
F
  0
LAYER
  5
33
102
{ACAD_XDICTIONARY
360
1627
102
}
330
2
100
AcDbSymbolTableRecord
100
AcDbLayerTableRecord
  2
5
 70
     0
 62
     5
  6
Continuous
370
    -3
390
F
  0
LAYER
  5
34
102
{ACAD_XDICTIONARY
360
1629
102
}
330
2
100
AcDbSymbolTableRecord
100
AcDbLayerTableRecord
  2
6
 70
     0
 62
     6
  6
Continuous
370
    -3
390
F
  0
LAYER
  5
35
102
{ACAD_XDICTIONARY
360
162B
102
}
330
2
100
AcDbSymbolTableRecord
100
AcDbLayerTableRecord
  2
7
 70
     0
 62
     7
  6
Continuous
370
    -3
390
F
  0
LAYER
  5
36
102
{ACAD_XDICTIONARY
360
162D
102
}
330
2
100
AcDbSymbolTableRecord
100
AcDbLayerTableRecord
  2
cen
 70
     0
 62
     7
  6
DASHDOT
370
    -3
390
F
  0
LAYER
  5
37
102
{ACAD_XDICTIONARY
360
162F
102
}
330
2
100
AcDbSymbolTableRecord
100
AcDbLayerTableRecord
  2
hid
 70
     0
 62
     7
  6
HIDDEN
370
    -3
390
F
  0
LAYER
  5
5D6
102
{ACAD_XDICTIONARY
360
1631
102
}
330
2
100
AcDbSymbolTableRecord
100
AcDbLayerTableRecord
  2
hatch
 70
     0
 62
     9
  6
Continuous
370
    -3
390
F
  0
LAYER
  5
8AF
102
{ACAD_XDICTIONARY
360
1633
102
}
330
2
100
AcDbSymbolTableRecord
100
AcDbLayerTableRecord
  2
9
 70
     0
 62
     9
  6
Continuous
370
    -3
390
F
  0
LAYER
  5
8F8
102
{ACAD_XDICTIONARY
360
1635
102
}
330
2
100
AcDbSymbolTableRecord
100
AcDbLayerTableRecord
  2
leg fin
 70
     0
 62
     9
  6
Continuous
370
    -3
390
F
  0
LAYER
  5
91D
102
{ACAD_XDICTIONARY
360
1637
102
}
330
2
100
AcDbSymbolTableRecord
100
AcDbLayerTableRecord
  2
cotas
 70
     0
 62
     1
  6
Continuous
370
    -3
390
F
  0
LAYER
  5
92F
330
2
100
AcDbSymbolTableRecord
100
AcDbLayerTableRecord
  2
Defpoints
 70
     0
 62
     7
  6
Continuous
290
     0
370
    -3
390
F
  0
LAYER
  5
BA5
102
{ACAD_XDICTIONARY
360
1639
102
}
330
2
100
AcDbSymbolTableRecord
100
AcDbLayerTableRecord
  2
SANINDUSA
 70
     0
 62
     3
  6
Continuous
370
    -3
390
F
  0
ENDTAB
  0
TABLE
  2
STYLE
  5
3
330
0
100
AcDbSymbolTable
 70
     3
  0
STYLE
  5
11
330
3
100
AcDbSymbolTableRecord
100
AcDbTextStyleTableRecord
  2
Standard
 70
     0
 40
0.0
 41
1.0
 50
0.0
 71
     0
 42
2.5
  3
Avgardn.ttf
  4

1001
ACAD
1000
AvantGarde Bk BT
1071
       34
  0
STYLE
  5
2C
330
3
100
AcDbSymbolTableRecord
100
AcDbTextStyleTableRecord
  2

 70
     1
 40
0.0
 41
1.0
 50
0.0
 71
     0
 42
2.5
  3
ltypeshp.shx
  4

  0
STYLE
  5
91F
330
3
100
AcDbSymbolTableRecord
100
AcDbTextStyleTableRecord
  2
SANINDUSA
 70
     0
 40
0.0
 41
1.0
 50
0.0
 71
     0
 42
2.5
  3
verdana.TTF
  4

1001
ACAD
1000
Verdana
1071
       34
  0
ENDTAB
  0
TABLE
  2
VIEW
  5
6
330
0
100
AcDbSymbolTable
 70
     0
  0
ENDTAB
  0
TABLE
  2
UCS
  5
7
330
0
100
AcDbSymbolTable
 70
     0
  0
ENDTAB
  0
TABLE
  2
APPID
  5
9
330
0
100
AcDbSymbolTable
 70
     8
  0
APPID
  5
12
330
9
100
AcDbSymbolTableRecord
100
AcDbRegAppTableRecord
  2
ACAD
 70
     0
  0
APPID
  5
3A
330
9
100
AcDbSymbolTableRecord
100
AcDbRegAppTableRecord
  2
DCO15
 70
     0
  0
APPID
  5
D40
330
9
100
AcDbSymbolTableRecord
100
AcDbRegAppTableRecord
  2
ACAD_DSTYLE_DIMEXT_LENGTH
 70
     0
  0
APPID
  5
D41
330
9
100
AcDbSymbolTableRecord
100
AcDbRegAppTableRecord
  2
ACAD_DSTYLE_DIMEXT_ENABLED
 70
     0
  0
APPID
  5
D42
330
9
100
AcDbSymbolTableRecord
100
AcDbRegAppTableRecord
  2
ACAD_DSTYLE_DIMJOGGED_JOGANGLE_SYMBOL
 70
     0
  0
APPID
  5
D43
330
9
100
AcDbSymbolTableRecord
100
AcDbRegAppTableRecord
  2
ACAD_DSTYLE_DIMARC_LENGTH_SYMBOL
 70
     0
  0
APPID
  5
15C1
330
9
100
AcDbSymbolTableRecord
100
AcDbRegAppTableRecord
  2
ACAD_EXEMPT_FROM_CAD_STANDARDS
 70
     0
  0
APPID
  5
1684
330
9
100
AcDbSymbolTableRecord
100
AcDbRegAppTableRecord
  2
ACAD_MLEADERVER
 70
     0
  0
ENDTAB
  0
TABLE
  2
DIMSTYLE
  5
A
330
0
100
AcDbSymbolTable
 70
     2
100
AcDbDimStyleTable
 71
     1
340
921
  0
DIMSTYLE
105
45
330
A
100
AcDbSymbolTableRecord
100
AcDbDimStyleTableRecord
  2
STANDARD
 70
     0
289
     0
340
11
  0
DIMSTYLE
105
921
330
A
100
AcDbSymbolTableRecord
100
AcDbDimStyleTableRecord
  2
SANINDUSA
 70
     0
 41
2.0
 42
1.0
 43
1.0
 44
1.0
 73
     0
 74
     0
 77
     1
 78
     8
140
2.0
141
0.0
143
0.03937007874016
147
1.0
171
     3
172
     1
176
   256
177
   256
178
   256
179
     1
271
     1
272
     1
274
     3
278
    44
283
     0
284
     8
340
91F
371
    -1
372
    -1
  0
ENDTAB
  0
TABLE
  2
BLOCK_RECORD
  5
1
330
0
100
AcDbSymbolTable
 70
    76
  0
BLOCK_RECORD
  5
1F
102
{ACAD_XDICTIONARY
360
15CC
102
}
330
1
100
AcDbSymbolTableRecord
100
AcDbBlockTableRecord
  2
*Model_Space
340
22
  0
BLOCK_RECORD
  5
1B
330
1
100
AcDbSymbolTableRecord
100
AcDbBlockTableRecord
  2
*Paper_Space
340
1E
  0
BLOCK_RECORD
  5
23
330
1
100
AcDbSymbolTableRecord
100
AcDbBlockTableRecord
  2
*Paper_Space0
340
26
  0
BLOCK_RECORD
  5
919
330
1
100
AcDbSymbolTableRecord
100
AcDbBlockTableRecord
  2
_DotSmall
340
0
  0
BLOCK_RECORD
  5
922
330
1
100
AcDbSymbolTableRecord
100
AcDbBlockTableRecord
  2
base para cotas
340
0
310
2800000020000000200000000100080000000000000400000000000000000000000000000000000000000000000080000080000000808000800000008000800080800000C0C0C000C0DCC000F0CAA6000020400000206000002080000020A0000020C0000020E00000400000004020000040400000406000004080000040A0
310
000040C0000040E00000600000006020000060400000606000006080000060A0000060C0000060E00000800000008020000080400000806000008080000080A0000080C0000080E00000A0000000A0200000A0400000A0600000A0800000A0A00000A0C00000A0E00000C0000000C0200000C0400000C0600000C0800000C0
310
A00000C0C00000C0E00000E0000000E0200000E0400000E0600000E0800000E0A00000E0C00000E0E00040000000400020004000400040006000400080004000A0004000C0004000E00040200000402020004020400040206000402080004020A0004020C0004020E000404000004040200040404000404060004040800040
310
40A0004040C0004040E00040600000406020004060400040606000406080004060A0004060C0004060E00040800000408020004080400040806000408080004080A0004080C0004080E00040A0000040A0200040A0400040A0600040A0800040A0A00040A0C00040A0E00040C0000040C0200040C0400040C0600040C08000
310
40C0A00040C0C00040C0E00040E0000040E0200040E0400040E0600040E0800040E0A00040E0C00040E0E00080000000800020008000400080006000800080008000A0008000C0008000E00080200000802020008020400080206000802080008020A0008020C0008020E00080400000804020008040400080406000804080
310
008040A0008040C0008040E00080600000806020008060400080606000806080008060A0008060C0008060E00080800000808020008080400080806000808080008080A0008080C0008080E00080A0000080A0200080A0400080A0600080A0800080A0A00080A0C00080A0E00080C0000080C0200080C0400080C0600080C0
310
800080C0A00080C0C00080C0E00080E0000080E0200080E0400080E0600080E0800080E0A00080E0C00080E0E000C0000000C0002000C0004000C0006000C0008000C000A000C000C000C000E000C0200000C0202000C0204000C0206000C0208000C020A000C020C000C020E000C0400000C0402000C0404000C0406000C0
310
408000C040A000C040C000C040E000C0600000C0602000C0604000C0606000C0608000C060A000C060C000C060E000C0800000C0802000C0804000C0806000C0808000C080A000C080C000C080E000C0A00000C0A02000C0A04000C0A06000C0A08000C0A0A000C0A0C000C0A0E000C0C00000C0C02000C0C04000C0C06000
310
C0C08000C0C0A000F0FBFF00A4A0A000808080000000FF0000FF000000FFFF00FF000000FF00FF00FFFF0000FFFFFF00A4A4A4A4A4A4A4A4A4A4A4A4A4A4A4A4A4A4A4A4A4A4A4A4A4A4A4A4A4A4A4A4A4A4A4A4A4A4A4A4A4A4A4A4A4A4A4A4A4A4A4A4A4A4A4A4A4A4A4A4A4A4A4A4A4A4A4A4A4A4A4A4A4A4A4A4A4A4A4
310
A4A4A4A4A4A4A4A4A4A4A4A4A4A4A4A4A4A4A4A4A4A4A4A4A4A4A4A4A4A4A4A4A4A4A4A4A4A4A4A4A4A4A4A4A4A4A4A4A4A4A4A4A4A4A4A4A4A4A4A4A4A4A4A4A4A4A4A4A4A4A4A4A4A4A4A4A4A4A4A4A4A4A4A4A4A4A4A4A4A4A4A4A4A4A4A4A4A4A4A4A4A4A4A4A4A4A4A4A4A4A4A4A4A4A4A4A4A4A4A4A4A4A4A4A4A4A4
310
A4A4A4A4A4A4A4A4A4A4A4A4A4A4A4A4A4A4A4A4A4A4A4A4A4A4A4A4A4A4A4A4A4A4A4A4A4A4A4A4A4A4A4A4A4A4A4A4A4A4A4A4A4A4A4A4A4A4A4A4A4A4A4A4A4A4A4A4A4A4A4A4A4A4A4A4A4A4A4A4A4A4A4A4A4A4A4A4A4A4A4A4A4A4A4A4A4A4A4A4A4A4A4A4A4A4A4A4A4A4A4A4A4A4A4A4A4A4A4A4A4A4A4A4A4A4A4
310
A4A4A4A4A4A4A4A4A4A4A4A4A4A4A4A4A4A4A4A4A4A4A4A4A4A4A4A4A4A4A4A4A4A4A4A4A4A4A4A4A4A4A4A4A4A4A4A4A4A4A4A4A4A4A4A4A4A4A4A4A4A4A4A4A4A4A4A4A4A4A4A4A4A4A4A4A4A4A4A4A4A4A4A4A4A4A4A4A4A4A4A4A4A4A4A4A4A4A4A4A4A4A4A4A4A4A4A4A4A4A4A4A4A4A4A4F9F9F9F9F9F9F9F9F9F9F9
310
F9F9F9F9F9F9F9F9F9F9F9F9F9F9F9F9F9F9F9A4A4F9F9F9F9F9F9F9F9F9F9F9F9F9F9F9F9F9F9F9F9F9F9F9F9F9F9F9F9F9F9A4A4F9F9F9F9F9F9F9F9F9F9F9F9F9F9F9F9F9F9F9F9F9F9F9F9F9F9F9F9F9F9A4A4F9A4A4A4A4A4A4A4A4A4A4A4A4A4A4A4A4A4A4A4A4A4A4A4A4A4A4A4A4F9A4A4A4A4A4A4A4A4A4A4A4A4
310
A4A4A4A4A4A4A4A4A4A4A4A4A4A4A4A4A4A4A4A4A4A4A4A4A4A4A4A4A4A4A4A4A4A4A4A4A4A4A4A4A4A4A4A4A4A4A4A4A4A4A4A4A4A4A4A4A4A4A4A4A4A4A4A4A4A4A4A4A4A4A4A4A4A4A4A4A4A4A4A4A4A4A4A4A4A4A4A4A4A4A4A4A4A4A4A4A4A4A4A4A4A4A4A4A4A4A4A4A4A4A4A4A4A4A4A4A4A4A4A4A4A4A4A4A4A4A4
310
A4A4A4A4A4A4A4A4A4A4A4A4A4A4A4A4A4A4A4A4A4A4A4A4A4A4A4A4A4A4A4A4A4A4A4A4A4A4A4A4A4A4A4A4A4A4A4A4A4A4A4A4A4A4A4A4A4A4A4A4A4A4A4A4A4A4A4A4A4A4A4A4A4A4A4A4A4A4A4A4A4A4A4A4A4A4A4A4A4A4A4A4A4A4A4A4A4A4A4A4A4A4A4A4A4A4A4A4A4A4A4A4A4A4A4A4A4A4A4A4A4A4A4A4A4A4A4
310
A4A4A4A4A4A4A4A4A4A4A4A4A4A4A4A4A4A4A4A4A4A4A4A4A4A4A4A4A4A4A4A4A4A4A4A4A4A4A4A4A4A4A4A4A4A4A4A4A4A4A4A4A4A4A4A4A4A4A4A4A4A4A4A4A4A4A4A4A4A4A4A4A4A4A4A4A4A4A4A4A4A4A4A4A4A4A4A4A4A4A4A4A4A4A4A4A4A4A4A4A4A4A4A4A4A4A4A4A4A4A4A4A4A4A4A4A4A4A4A4A4A4A4A4A4A4A4
310
A4A4A4A4A4A4A4A4A4A4A4A4A4A4A4A4A4A4A4A4A4A4A4A4A4A4A4A4A4A4A4A4A4A4A4A4A4A4A4A4A4A4A4A4A4A4A4A4A4A4A4A4A4A4A4A4
1001
ACAD
1000
DesignCenter Data
1002
{
1070
     1
1070
     4
1002
}
  0
BLOCK_RECORD
  5
AA8
330
1
100
AcDbSymbolTableRecord
100
AcDbBlockTableRecord
  2
_CLOSED
340
0
  0
ENDTAB
  0
ENDSEC
  0
SECTION
  2
BLOCKS
  0
BLOCK
  5
20
330
1F
100
AcDbEntity
  8
0
100
AcDbBlockBegin
  2
*Model_Space
 70
     0
 10
0.0
 20
0.0
 30
0.0
  3
*Model_Space
  1

  0
ENDBLK
  5
21
330
1F
100
AcDbEntity
  8
0
100
AcDbBlockEnd
  0
BLOCK
  5
1C
330
1B
100
AcDbEntity
 67
     1
  8
0
100
AcDbBlockBegin
  2
*Paper_Space
 70
     0
 10
0.0
 20
0.0
 30
0.0
  3
*Paper_Space
  1

  0
ENDBLK
  5
1D
330
1B
100
AcDbEntity
 67
     1
  8
0
100
AcDbBlockEnd
  0
BLOCK
  5
24
330
23
100
AcDbEntity
 67
     1
  8
0
100
AcDbBlockBegin
  2
*Paper_Space0
 70
     0
 10
0.0
 20
0.0
 30
0.0
  3
*Paper_Space0
  1

  0
ENDBLK
  5
25
330
23
100
AcDbEntity
 67
     1
  8
0
100
AcDbBlockEnd
  0
BLOCK
  5
91B
330
919
100
AcDbEntity
  8
0
100
AcDbBlockBegin
  2
_DotSmall
 70
     0
 10
0.0
 20
0.0
 30
0.0
  3
_DotSmall
  1

  0
LWPOLYLINE
  5
91A
330
919
100
AcDbEntity
  8
0
  6
ByBlock
 62
     0
100
AcDbPolyline
 90
        2
 70
     1
 43
0.5
 10
-0.0625
 20
0.0
 42
1.0
 10
0.0625
 20
0.0
 42
1.0
  0
ENDBLK
  5
91C
330
919
100
AcDbEntity
  8
0
100
AcDbBlockEnd
  0
BLOCK
  5
92A
330
922
100
AcDbEntity
  8
0
100
AcDbBlockBegin
  2
base para cotas
 70
     0
 10
0.0
 20
0.0
 30
0.0
  3
base para cotas
  1

  0
LINE
  5
B36
330
922
100
AcDbEntity
  8
cotas
100
AcDbLine
 10
0.0
 20
-30.0
 30
0.0
 11
327.1260136525398
 21
-30.0
 31
0.0
  0
LINE
  5
B37
330
922
100
AcDbEntity
  8
cotas
100
AcDbLine
 10
0.0
 20
-25.0
 30
0.0
 11
327.1260136525398
 21
-25.0
 31
0.0
  0
LINE
  5
B38
330
922
100
AcDbEntity
  8
cotas
100
AcDbLine
 10
0.0
 20
-20.0
 30
0.0
 11
327.1260136525398
 21
-20.0
 31
0.0
  0
LINE
  5
B39
330
922
100
AcDbEntity
  8
cotas
100
AcDbLine
 10
0.0
 20
-15.0
 30
0.0
 11
327.1260136525398
 21
-15.0
 31
0.0
  0
LINE
  5
B3A
330
922
100
AcDbEntity
  8
cotas
100
AcDbLine
 10
0.0
 20
-10.0
 30
0.0
 11
327.1260136525398
 21
-10.0
 31
0.0
  0
LINE
  5
B3B
330
922
100
AcDbEntity
  8
cotas
100
AcDbLine
 10
0.0
 20
0.0
 30
0.0
 11
0.0
 21
-30.0
 31
0.0
  0
LINE
  5
B3C
330
922
100
AcDbEntity
  8
cotas
100
AcDbLine
 10
327.1260136525398
 20
-30.0
 30
0.0
 11
327.1260136525398
 21
0.0
 31
0.0
  0
ENDBLK
  5
92B
330
922
100
AcDbEntity
  8
0
100
AcDbBlockEnd
  0
BLOCK
  5
AAD
330
AA8
100
AcDbEntity
  8
0
100
AcDbBlockBegin
  2
_CLOSED
 70
     0
 10
0.0
 20
0.0
 30
0.0
  3
_CLOSED
  1

  0
LINE
  5
AA9
330
AA8
100
AcDbEntity
  8
0
100
AcDbLine
 10
-1.0
 20
0.166667
 30
0.0
 11
0.0
 21
0.0
 31
0.0
  0
LINE
  5
AAA
330
AA8
100
AcDbEntity
  8
0
100
AcDbLine
 10
0.0
 20
0.0
 30
0.0
 11
-1.0
 21
-0.166667
 31
0.0
  0
LINE
  5
AAB
330
AA8
100
AcDbEntity
  8
0
100
AcDbLine
 10
-1.0
 20
0.166667
 30
0.0
 11
-1.0
 21
-0.166667
 31
0.0
  0
LINE
  5
AAC
330
AA8
100
AcDbEntity
  8
0
100
AcDbLine
 10
0.0
 20
0.0
 30
0.0
 11
-1.0
 21
0.0
 31
0.0
  0
ENDBLK
  5
AAE
330
AA8
100
AcDbEntity
  8
0
100
AcDbBlockEnd
  0
ENDSEC
  0
SECTION
  2
ENTITIES
  0
LWPOLYLINE
  5
107D
330
1F
100
AcDbEntity
  8
SANINDUSA
100
AcDbPolyline
 90
       18
 70
   128
 43
0.0
 10
720.9997688764759
 20
962.2612317565019
 10
721.001456673197
 20
962.261218405696
 10
721.0112214497057
 20
962.2612947642762
 10
721.0215924119378
 20
962.2616906204624
 10
721.0316926382699
 20
962.2623949479789
 10
721.0417687006563
 20
962.2634132553317
 10
721.0517892261265
 20
962.2647427948745
 10
721.0617279474888
 20
962.2663797492705
 10
721.0715649407524
 20
962.2683171676291
 10
721.0814154258635
 20
962.2705761875142
 10
721.0912044588346
 20
962.2731456548478
 10
721.1009014448046
 20
962.2760186454305
 10
721.1105101071829
 20
962.2791960321942
 10
721.1200314987983
 20
962.2826781759036
 10
721.1280073167674
 20
962.2858511985876
 10
721.1341711802272
 20
962.2885346427203
 10
721.1395790496148
 20
962.2911504483097
 10
721.1437522516434
 20
962.2934138176416
  0
LWPOLYLINE
  5
107E
330
1F
100
AcDbEntity
  8
SANINDUSA
100
AcDbPolyline
 90
       19
 70
   128
 43
0.0
 10
720.8557613850083
 20
962.2933684616853
 10
720.8569089995704
 20
962.2927692814995
 10
720.8617854297478
 20
962.2902344662376
 10
720.8672323191552
 20
962.2876943674665
 10
720.8733955466613
 20
962.2850859949993
 10
720.8806496462406
 20
962.2822426341254
 10
720.8901293360504
 20
962.2788151607712
 10
720.8997221296669
 20
962.2756808306101
 10
720.9093966604818
 20
962.2728509482836
 10
720.91915756241
 20
962.2703238221005
 10
720.9290053476982
 20
962.2680992516203
 10
720.9389467212245
 20
962.2661764122074
 10
720.9489417644909
 20
962.2645678952938
 10
720.9589482517851
 20
962.2632778155058
 10
720.9690294267565
 20
962.2622961272162
 10
720.9791590066496
 20
962.2616272447842
 10
720.9893105999364
 20
962.2612742335004
 10
720.9994089227983
 20
962.2612223265464
 10
720.9997700983369
 20
962.2612248886269
  0
LWPOLYLINE
  5
107F
330
1F
100
AcDbEntity
  8
SANINDUSA
100
AcDbPolyline
 90
       12
 70
   128
 43
0.0
 10
721.1437785360065
 20
962.2933668903492
 10
721.1474474007381
 20
962.2953912872777
 10
721.1522357583732
 20
962.2976699790898
 10
721.1571317432857
 20
962.2996469165739
 10
721.1621217634633
 20
962.3013175307132
 10
721.1665613875209
 20
962.3025106601938
 10
721.1712755550498
 20
962.3034683025021
 10
721.1761715709752
 20
962.3041630924085
 10
721.1813517998908
 20
962.3046075237192
 10
721.1868837419414
 20
962.3047990842577
 10
721.1930185184882
 20
962.3048068750099
 10
721.2023127040753
 20
962.3048068750099
  0
LWPOLYLINE
  5
1080
330
1F
100
AcDbEntity
  8
SANINDUSA
100
AcDbPolyline
 90
       12
 70
   128
 43
0.0
 10
720.7972262859316
 20
962.3048068750099
 10
720.8057405807151
 20
962.3048068750099
 10
720.8126158602697
 20
962.3047995141646
 10
720.8179970273415
 20
962.3046186924417
 10
720.8231650253606
 20
962.3041857976067
 10
720.8280130097834
 20
962.303510928937
 10
720.8330925689034
 20
962.302483460402
 10
720.8378941427162
 20
962.3011723496601
 10
720.8425198656284
 20
962.2996052790666
 10
720.847348426358
 20
962.2976501054692
 10
720.8520747230275
 20
962.2953999423344
 10
720.8557613850083
 20
962.2933684616853
  0
ARC
  5
1081
330
1F
100
AcDbEntity
  8
SANINDUSA
100
AcDbCircle
 10
720.9894697307937
 20
962.4462055079916
 30
0.0
 40
0.2265594030261829
100
AcDbArc
 50
249.4892000776868
 51
256.1299489424385
  0
ARC
  5
1082
330
1F
100
AcDbEntity
  8
SANINDUSA
100
AcDbCircle
 10
720.9894697307937
 20
962.4462055079916
 30
0.0
 40
0.2265594030261718
100
AcDbArc
 50
256.1299489424385
 51
261.4315272243972
  0
ARC
  5
1083
330
1F
100
AcDbEntity
  8
SANINDUSA
100
AcDbCircle
 10
721.0099898528181
 20
962.446508117534
 30
0.0
 40
0.2268704683182311
100
AcDbArc
 50
278.5769164574713
 51
283.8670700725467
  0
ARC
  5
1084
330
1F
100
AcDbEntity
  8
SANINDUSA
100
AcDbCircle
 10
721.0099898528181
 20
962.446508117534
 30
0.0
 40
0.2268704683182311
100
AcDbArc
 50
283.8670700725467
 51
290.5046473495859
  0
LINE
  5
1085
330
1F
100
AcDbEntity
  8
SANINDUSA
100
AcDbLine
 10
720.9637982317164
 20
962.2126202165032
 30
0.0
 11
720.9647357929513
 21
962.1857719755132
 31
0.0
  0
LINE
  5
1086
330
1F
100
AcDbEntity
  8
SANINDUSA
100
AcDbLine
 10
721.0348031970556
 20
962.1857719755132
 30
0.0
 11
721.0357407637421
 21
962.2126203726168
 31
0.0
  0
ARC
  5
1087
330
1F
100
AcDbEntity
  8
SANINDUSA
100
AcDbCircle
 10
721.0338038062286
 20
962.1858068750098
 30
0.0
 40
0.001
100
AcDbArc
 50
270.0
 51
358.0000000027562
  0
ARC
  5
1088
330
1F
100
AcDbEntity
  8
SANINDUSA
100
AcDbCircle
 10
720.9657351837782
 20
962.1858068750098
 30
0.0
 40
0.001
100
AcDbArc
 50
181.9999999972438
 51
270.0
  0
LWPOLYLINE
  5
1089
330
1F
100
AcDbEntity
  8
SANINDUSA
100
AcDbPolyline
 90
       13
 70
   128
 43
0.0
 10
721.1030443112759
 20
962.2329630709698
 10
721.1054894751158
 20
962.2334954823381
 10
721.1083706249021
 20
962.2341103940861
 10
721.1112312621232
 20
962.2347029505524
 10
721.1140340827938
 20
962.2352591815664
 10
721.1167305133671
 20
962.2357627938162
 10
721.1192568050928
 20
962.2361955454261
 10
721.1211243392218
 20
962.2364812007283
 10
721.1228178676812
 20
962.2366975311958
 10
721.1244342608448
 20
962.2368522852379
 10
721.1257342499236
 20
962.2369266134654
 10
721.126565101223
 20
962.2369387036986
 10
721.1268624863317
 20
962.2369294165716
  0
LWPOLYLINE
  5
108A
330
1F
100
AcDbEntity
  8
SANINDUSA
100
AcDbPolyline
 90
       14
 70
   128
 43
0.0
 10
720.8725393544696
 20
962.2369266437216
 10
720.872549357359
 20
962.2369273391766
 10
720.8730986303662
 20
962.2369393319953
 10
720.8739612917012
 20
962.2369207210969
 10
720.8751505373954
 20
962.2368487413032
 10
720.8766590503874
 20
962.2367044948456
 10
720.8784601043691
 20
962.2364747467912
 10
720.8802982980817
 20
962.2361929357573
 10
720.8823894341398
 20
962.2358375524822
 10
720.8850653618224
 20
962.2353436576155
 10
720.8879262790938
 20
962.2347802463577
 10
720.8909028710847
 20
962.2341662402547
 10
720.8939301554122
 20
962.2335212393538
 10
720.8964950546884
 20
962.2329629018599
  0
ARC
  5
108B
330
1F
100
AcDbEntity
  8
SANINDUSA
100
AcDbCircle
 10
721.1344518088865
 20
962.3894614735275
 30
0.0
 40
0.0245526042806009
100
AcDbArc
 50
239.2466341080548
 51
268.6135674496324
  0
ARC
  5
108C
330
1F
100
AcDbEntity
  8
SANINDUSA
100
AcDbCircle
 10
720.8648517973677
 20
962.3898868165927
 30
0.0
 40
0.0250185220591296
100
AcDbArc
 50
269.7100058196462
 51
300.7482751921563
  0
ARC
  5
108D
330
1F
100
AcDbEntity
  8
SANINDUSA
100
AcDbCircle
 10
721.1166396051477
 20
962.35980687501
 30
0.0
 40
0.01
100
AcDbArc
 50
58.4509825732352
 51
90.0
  0
ARC
  5
108E
330
1F
100
AcDbEntity
  8
SANINDUSA
100
AcDbCircle
 10
720.8828993848593
 20
962.35980687501
 30
0.0
 40
0.0100000000000001
100
AcDbArc
 50
90.0
 51
121.5490174267648
  0
ARC
  5
108F
330
1F
100
AcDbEntity
  8
SANINDUSA
100
AcDbCircle
 10
720.9051797833175
 20
962.1075026914123
 30
0.0
 40
0.1334764287308366
100
AcDbArc
 50
104.1546963793801
 51
106.7417756765767
  0
ARC
  5
1092
330
1F
100
AcDbEntity
  8
SANINDUSA
100
AcDbCircle
 10
721.0948190901805
 20
962.1076505833334
 30
0.0
 40
0.133190825360964
100
AcDbArc
 50
73.42255726227337
 51
76.07907109070703
  0
LINE
  5
1098
330
1F
100
AcDbEntity
  8
SANINDUSA
100
AcDbLine
 10
720.8426549126346
 20
962.36480687501
 30
0.0
 11
720.9997694950035
 21
962.36480687501
 31
0.0
  0
LINE
  5
1099
330
1F
100
AcDbEntity
  8
SANINDUSA
100
AcDbLine
 10
721.1568840773724
 20
962.36480687501
 30
0.0
 11
720.9997694950035
 21
962.36480687501
 31
0.0
  0
LINE
  5
10A8
330
1F
100
AcDbEntity
  8
SANINDUSA
100
AcDbLine
 10
720.7724107342847
 20
962.36480687501
 30
0.0
 11
720.8426549126346
 21
962.36480687501
 31
0.0
  0
LINE
  5
10AA
330
1F
100
AcDbEntity
  8
SANINDUSA
100
AcDbLine
 10
721.2271282557223
 20
962.36480687501
 30
0.0
 11
721.1568840773724
 21
962.36480687501
 31
0.0
  0
LINE
  5
10B3
330
1F
100
AcDbEntity
  8
SANINDUSA
100
AcDbLine
 10
720.7472694950034
 20
962.36480687501
 30
0.0
 11
720.7724107342847
 21
962.36480687501
 31
0.0
  0
LINE
  5
10B7
330
1F
100
AcDbEntity
  8
SANINDUSA
100
AcDbLine
 10
721.2522694950035
 20
962.36480687501
 30
0.0
 11
721.2271282557223
 21
962.36480687501
 31
0.0
  0
LINE
  5
10B9
330
1F
100
AcDbEntity
  8
SANINDUSA
100
AcDbLine
 10
721.2722694950034
 20
962.3098068750099
 30
0.0
 11
721.2722694950034
 21
962.3528068750099
 31
0.0
  0
ARC
  5
10BB
330
1F
100
AcDbEntity
  8
SANINDUSA
100
AcDbCircle
 10
721.2602694950035
 20
962.3528068750099
 30
0.0
 40
0.012
100
AcDbArc
 50
0.0
 51
90.0
  0
LINE
  5
10BC
330
1F
100
AcDbEntity
  8
SANINDUSA
100
AcDbLine
 10
721.2602694950035
 20
962.36480687501
 30
0.0
 11
721.2522694950035
 21
962.36480687501
 31
0.0
  0
ARC
  5
10BE
330
1F
100
AcDbEntity
  8
SANINDUSA
100
AcDbCircle
 10
720.7392694950035
 20
962.3528068750099
 30
0.0
 40
0.012
100
AcDbArc
 50
90.0
 51
180.0
  0
LINE
  5
10BF
330
1F
100
AcDbEntity
  8
SANINDUSA
100
AcDbLine
 10
720.7392694950035
 20
962.36480687501
 30
0.0
 11
720.7472694950034
 21
962.36480687501
 31
0.0
  0
LINE
  5
10C1
330
1F
100
AcDbEntity
  8
SANINDUSA
100
AcDbLine
 10
720.7272694950034
 20
962.3098068750099
 30
0.0
 11
720.7272694950034
 21
962.3528068750099
 31
0.0
  0
LINE
  5
10C3
330
1F
100
AcDbEntity
  8
SANINDUSA
100
AcDbLine
 10
721.2023127040753
 20
962.3048068750099
 30
0.0
 11
721.2522694950035
 21
962.3048068750099
 31
0.0
  0
LINE
  5
10C5
330
1F
100
AcDbEntity
  8
SANINDUSA
100
AcDbLine
 10
720.7972262859316
 20
962.3048068750099
 30
0.0
 11
720.7472694950034
 21
962.3048068750099
 31
0.0
  0
LINE
  5
10C6
330
1F
100
AcDbEntity
  8
SANINDUSA
100
AcDbLine
 10
720.7472694950034
 20
962.3048068750099
 30
0.0
 11
720.7322694950034
 21
962.3048068750099
 31
0.0
  0
ARC
  5
10C7
330
1F
100
AcDbEntity
  8
SANINDUSA
100
AcDbCircle
 10
720.7322694950034
 20
962.3098068750099
 30
0.0
 40
0.005
100
AcDbArc
 50
180.0
 51
270.0
  0
ARC
  5
10C8
330
1F
100
AcDbEntity
  8
SANINDUSA
100
AcDbCircle
 10
721.2672694950034
 20
962.3098068750099
 30
0.0
 40
0.005
100
AcDbArc
 50
270.0
 51
0.0
  0
LINE
  5
10C9
330
1F
100
AcDbEntity
  8
SANINDUSA
100
AcDbLine
 10
721.2522694950035
 20
962.3048068750099
 30
0.0
 11
721.2672694950034
 21
962.3048068750099
 31
0.0
  0
LWPOLYLINE
  5
10CA
330
1F
100
AcDbEntity
  8
SANINDUSA
100
AcDbPolyline
 90
       13
 70
   128
 43
0.0
 10
720.9553337430884
 20
962.2221535957036
 10
720.9553337429987
 20
962.2221535956255
 10
720.9559360072525
 20
962.2221626423245
 10
720.9578169315818
 20
962.2222057103449
 10
720.9608204451076
 20
962.2222734857606
 10
720.9650317418301
 20
962.2223637624887
 10
720.9700864943637
 20
962.2224670100704
 10
720.9761416012257
 20
962.2225916327147
 10
720.982727400822
 20
962.2227167335383
 10
720.9899819210467
 20
962.2228083867581
 10
720.9948166049827
 20
962.2228418974087
 10
720.9997694350034
 20
962.2228532650339
 10
720.9997694950035
 20
962.2228532650339
  0
LWPOLYLINE
  5
10CB
330
1F
100
AcDbEntity
  8
SANINDUSA
100
AcDbPolyline
 90
       10
 70
   128
 43
0.0
 10
720.8696187893017
 20
962.2558220511931
 10
720.8753332908709
 20
962.2522715557758
 10
720.8810761574651
 20
962.2488852858682
 10
720.884158533699
 20
962.2471179663394
 10
720.887130383698
 20
962.2454293002608
 10
720.8900485179856
 20
962.2437773959989
 10
720.8928143765708
 20
962.2422329428836
 10
720.8994985278852
 20
962.2387067242431
 10
720.9060772776012
 20
962.2356254294453
 10
720.9100869562562
 20
962.2340085753883
  0
ARC
  5
10CC
330
1F
100
AcDbEntity
  8
SANINDUSA
100
AcDbCircle
 10
721.0149991804869
 20
962.4838975892631
 30
0.0
 40
0.2704697935205343
100
AcDbArc
 50
231.3977430756303
 51
237.4856625873857
  0
LWPOLYLINE
  5
10CD
330
1F
100
AcDbEntity
  8
SANINDUSA
100
AcDbPolyline
 90
        6
 70
   128
 43
0.0
 10
720.8145728486831
 20
962.3047337540773
 10
720.8176939345797
 20
962.3006103726341
 10
720.8275579363776
 20
962.2895548374712
 10
720.8349471452979
 20
962.2822958858421
 10
720.8427065921365
 20
962.2754335602705
 10
720.8462502685871
 20
962.2725265554395
  0
LWPOLYLINE
  5
10CE
330
1F
100
AcDbEntity
  8
SANINDUSA
100
AcDbPolyline
 90
        6
 70
   128
 43
0.0
 10
721.184965307556
 20
962.304732652556
 10
721.1818450554273
 20
962.3006103726341
 10
721.1719810536293
 20
962.2895548374712
 10
721.164591844709
 20
962.2822958858421
 10
721.1568323978704
 20
962.2754335602705
 10
721.1532887214199
 20
962.2725265554395
  0
ARC
  5
10CF
330
1F
100
AcDbEntity
  8
SANINDUSA
100
AcDbCircle
 10
720.9845398095199
 20
962.4838975892631
 30
0.0
 40
0.2704697935206131
100
AcDbArc
 50
302.5143374126143
 51
308.6022569243696
  0
LWPOLYLINE
  5
10D0
330
1F
100
AcDbEntity
  8
SANINDUSA
100
AcDbPolyline
 90
       10
 70
   128
 43
0.0
 10
721.1299202007052
 20
962.2558220511931
 10
721.1242056991361
 20
962.2522715557758
 10
721.1184628325418
 20
962.2488852858682
 10
721.115380456308
 20
962.2471179663394
 10
721.112408606309
 20
962.2454293002608
 10
721.1094904720213
 20
962.2437773959989
 10
721.1067246134363
 20
962.2422329428836
 10
721.1000404621217
 20
962.2387067242431
 10
721.0934617124057
 20
962.2356254294453
 10
721.0894588016221
 20
962.2340113044499
  0
LWPOLYLINE
  5
10D1
330
1F
100
AcDbEntity
  8
SANINDUSA
100
AcDbPolyline
 90
       13
 70
   128
 43
0.0
 10
721.0442052469186
 20
962.2221535957036
 10
721.0442052470083
 20
962.2221535956255
 10
721.0436029827544
 20
962.2221626423245
 10
721.041722058425
 20
962.2222057103449
 10
721.0387185448994
 20
962.2222734857606
 10
721.0345072481768
 20
962.2223637624887
 10
721.0294524956432
 20
962.2224670100704
 10
721.0233973887812
 20
962.2225916327147
 10
721.0168115891849
 20
962.2227167335383
 10
721.0095570689603
 20
962.2228083867581
 10
721.0047223850242
 20
962.2228418974087
 10
720.9997695550034
 20
962.2228532650339
 10
720.9997694950035
 20
962.2228532650339
  0
ARC
  5
10D3
330
1F
100
AcDbEntity
  8
SANINDUSA
100
AcDbCircle
 10
720.9538043269688
 20
962.2122712397041
 30
0.0
 40
0.0100000036883691
100
AcDbArc
 50
2.000082752981686
 51
81.20256730923355
  0
ARC
  5
10D4
330
1F
100
AcDbEntity
  8
SANINDUSA
100
AcDbCircle
 10
721.0457346619834
 20
962.2122712371739
 30
0.0
 40
0.010000003407198
100
AcDbArc
 50
98.79740484230502
 51
177.9998939199996
  0
LINE
  5
10E5
330
1F
100
AcDbEntity
  8
SANINDUSA
100
AcDbLine
 10
721.0338038062286
 20
962.1848068750098
 30
0.0
 11
720.9657351837782
 21
962.1848068750098
 31
0.0
  0
ARC
  5
10E7
330
1F
100
AcDbEntity
  8
SANINDUSA
100
AcDbCircle
 10
721.0358845082321
 20
962.3538428691004
 30
0.0
 40
0.248251648912109
100
AcDbArc
 50
191.3922854725149
 51
207.4368530117427
  0
ARC
  5
10E8
330
1F
100
AcDbEntity
  8
SANINDUSA
100
AcDbCircle
 10
720.9636544817749
 20
962.3538428691004
 30
0.0
 40
0.2482516489121132
100
AcDbArc
 50
332.5631469882572
 51
348.6077145274851
  0
ARC
  5
10EC
330
1F
100
AcDbEntity
  8
SANINDUSA
100
AcDbCircle
 10
720.9902704845758
 20
962.7679607749412
 30
0.0
 40
0.5467544963174338
100
AcDbArc
 50
277.7884008827256
 51
281.9032943611895
  0
ARC
  5
10F0
330
1F
100
AcDbEntity
  8
SANINDUSA
100
AcDbCircle
 10
721.0092829797382
 20
962.7680501722945
 30
0.0
 40
0.5468450447961815
100
AcDbArc
 50
258.0971958673264
 51
262.209642643537
  0
ARC
  5
10F5
330
1F
100
AcDbEntity
  8
SANINDUSA
100
AcDbCircle
 10
721.1571295097351
 20
962.253407326385
 30
0.0
 40
0.0302610946203177
100
AcDbArc
 50
270.4166001739189
 51
332.5458020437183
  0
ARC
  5
10FA
330
1F
100
AcDbEntity
  8
SANINDUSA
100
AcDbCircle
 10
720.8424094802719
 20
962.253407326385
 30
0.0
 40
0.0302610946202838
100
AcDbArc
 50
207.4541979562817
 51
269.5833998260811
  0
LINE
  5
1100
330
1F
100
AcDbEntity
  8
SANINDUSA
100
AcDbLine
 10
721.1166396051477
 20
962.3698068750099
 30
0.0
 11
720.9997694950035
 21
962.3698068750099
 31
0.0
  0
LINE
  5
1103
330
1F
100
AcDbEntity
  8
SANINDUSA
100
AcDbLine
 10
720.8828993848593
 20
962.3698068750099
 30
0.0
 11
720.9997694950035
 21
962.3698068750099
 31
0.0
  0
LWPOLYLINE
  5
1116
330
1F
100
AcDbEntity
  8
SANINDUSA
100
AcDbPolyline
 90
        4
 70
   128
 43
0.0
 10
721.1573495281348
 20
962.2231470433085
 10
721.1573494681362
 20
962.2231470429936
 10
721.1571672940797
 20
962.2231460877785
 10
721.1566916067257
 20
962.2231436013416
  0
LWPOLYLINE
  5
1117
330
1F
100
AcDbEntity
  8
SANINDUSA
100
AcDbPolyline
 90
        3
 70
   128
 43
0.0
 10
721.1566916067257
 20
962.2231436013416
 10
721.1526916893457
 20
962.2231231358492
 10
721.1459876183632
 20
962.2230905734637
  0
LWPOLYLINE
  5
111A
330
1F
100
AcDbEntity
  8
SANINDUSA
100
AcDbPolyline
 90
        3
 70
   128
 43
0.0
 10
720.8428473832811
 20
962.2231436013416
 10
720.8468473006613
 20
962.2231231358492
 10
720.8535513716437
 20
962.2230905734637
  0
LWPOLYLINE
  5
111B
330
1F
100
AcDbEntity
  8
SANINDUSA
100
AcDbPolyline
 90
        4
 70
   128
 43
0.0
 10
720.8421894618721
 20
962.2231470433085
 10
720.8421895218708
 20
962.2231470429936
 10
720.8423716959272
 20
962.2231460877785
 10
720.8428473832811
 20
962.2231436013416
  0
LINE
  5
1120
330
1F
100
AcDbEntity
  8
SANINDUSA
100
AcDbLine
 10
721.2722694950034
 20
962.3528068750099
 30
0.0
 11
721.2722694950034
 21
962.3581817151885
 31
0.0
  0
LINE
  5
1122
330
1F
100
AcDbEntity
  8
SANINDUSA
100
AcDbLine
 10
720.7272694950034
 20
962.3528068750099
 30
0.0
 11
720.7272694950034
 21
962.3581817151885
 31
0.0
  0
LINE
  5
112C
330
1F
100
AcDbEntity
  8
SANINDUSA
100
AcDbLine
 10
721.1328199051022
 20
962.2353053287431
 30
0.0
 11
721.1336686114118
 21
962.2341319316555
 31
0.0
  0
LINE
  5
112E
330
1F
100
AcDbEntity
  8
SANINDUSA
100
AcDbLine
 10
720.8667307215669
 20
962.2353214172596
 30
0.0
 11
720.8658703785951
 21
962.2341319316555
 31
0.0
  0
LINE
  5
1130
330
1F
100
AcDbEntity
  8
SANINDUSA
100
AcDbLine
 10
720.8658703785951
 20
962.2341319316555
 30
0.0
 11
720.863359920126
 21
962.2300205294397
 31
0.0
  0
LINE
  5
1131
330
1F
100
AcDbEntity
  8
SANINDUSA
100
AcDbLine
 10
721.1336686114118
 20
962.2341319316555
 30
0.0
 11
721.1361790698811
 21
962.2300205294397
 31
0.0
  0
ARC
  5
1132
330
1F
100
AcDbEntity
  8
SANINDUSA
100
AcDbCircle
 10
721.1459411680623
 20
962.2331533925379
 30
0.0
 40
0.0100629262817828
100
AcDbArc
 50
208.0597545877178
 51
270.2644773104191
  0
LWPOLYLINE
  5
1133
330
1F
100
AcDbEntity
  8
SANINDUSA
100
AcDbPolyline
 90
        3
 70
   128
 43
0.0
 10
721.1361790698811
 20
962.2300205294397
 10
721.1366225017655
 20
962.229227381667
 10
721.137061063352
 20
962.228419871049
  0
LWPOLYLINE
  5
1134
330
1F
100
AcDbEntity
  8
SANINDUSA
100
AcDbPolyline
 90
        3
 70
   128
 43
0.0
 10
720.863359920126
 20
962.2300205294397
 10
720.8629164882414
 20
962.229227381667
 10
720.862477926655
 20
962.228419871049
  0
ARC
  5
1135
330
1F
100
AcDbEntity
  8
SANINDUSA
100
AcDbCircle
 10
720.8535978219447
 20
962.2331533925377
 30
0.0
 40
0.0100629262817203
100
AcDbArc
 50
269.7355226895809
 51
331.9402454122822
  0
ARC
  5
113A
330
1F
100
AcDbEntity
  8
SANINDUSA
100
AcDbCircle
 10
721.2542893884
 20
962.3645315780008
 30
0.0
 40
0.0179801071057362
100
AcDbArc
 50
359.9864581266612
 51
11.65602061178519
  0
LINE
  5
113C
330
1F
100
AcDbEntity
  8
SANINDUSA
100
AcDbLine
 10
721.2722694950034
 20
962.3581817151885
 30
0.0
 11
721.2722694950034
 21
962.3645273284168
 31
0.0
  0
ARC
  5
113D
330
1F
100
AcDbEntity
  8
SANINDUSA
100
AcDbCircle
 10
720.7452496016053
 20
962.3645315780009
 30
0.0
 40
0.0179801071040816
100
AcDbArc
 50
168.3439793882148
 51
180.0135419189352
  0
LINE
  5
113F
330
1F
100
AcDbEntity
  8
SANINDUSA
100
AcDbLine
 10
720.7272694950034
 20
962.3581817151885
 30
0.0
 11
720.7272694950034
 21
962.3645273284168
 31
0.0
  0
ARC
  5
1140
330
1F
100
AcDbEntity
  8
SANINDUSA
100
AcDbCircle
 10
720.7392516291519
 20
962.3659432887075
 30
0.0
 40
0.0118218417819289
100
AcDbArc
 50
89.91341126806817
 51
169.1717823951087
  0
LINE
  5
1142
330
1F
100
AcDbEntity
  8
SANINDUSA
100
AcDbLine
 10
721.2602694950035
 20
962.3777651169893
 30
0.0
 11
720.7392694950035
 21
962.3777651169893
 31
0.0
  0
ARC
  5
1144
330
1F
100
AcDbEntity
  8
SANINDUSA
100
AcDbCircle
 10
721.2602873608552
 20
962.3659432887073
 30
0.0
 40
0.0118218417819362
100
AcDbArc
 50
10.82821760489132
 51
90.08658873193182
  0
LWPOLYLINE
  5
1148
330
1F
100
AcDbEntity
  8
SANINDUSA
100
AcDbPolyline
 90
       21
 70
   128
 43
0.0
 10
719.4231752815344
 20
962.1149147990523
 10
719.425136958022
 20
962.11349074487
 10
719.4321573843344
 20
962.1087636517007
 10
719.4395235247439
 20
962.1041629497042
 10
719.447243151358
 20
962.0996915450415
 10
719.4553761921689
 20
962.0953376821315
 10
719.4635126870159
 20
962.0913439455355
 10
719.4717893830207
 20
962.0876306071389
 10
719.4802413018789
 20
962.0841816085361
 10
719.4888539681134
 20
962.0810053753663
 10
719.4976120635569
 20
962.0781098403337
 10
719.5064941255597
 20
962.075502578248
 10
719.515528522721
 20
962.0731770217686
 10
719.5246363301046
 20
962.0711605165258
 10
719.5337494648804
 20
962.0694692544944
 10
719.5428506219244
 20
962.0681045809638
 10
719.5519237036387
 20
962.067066802788
 10
719.5608613264035
 20
962.0663422577338
 10
719.570316846762
 20
962.0657905314303
 10
719.5822878168038
 20
962.0653051426156
 10
719.5873008363611
 20
962.0651543594005
  0
LWPOLYLINE
  5
1149
330
1F
100
AcDbEntity
  8
SANINDUSA
100
AcDbPolyline
 90
       20
 70
   128
 43
0.0
 10
719.5873093404303
 20
962.065153162637
 10
719.5917557838595
 20
962.0652861878582
 10
719.6066785638061
 20
962.0659127921777
 10
719.6165980983672
 20
962.0665478297262
 10
719.6251828747444
 20
962.0673201543212
 10
719.634298423433
 20
962.068452699108
 10
719.6432538824995
 20
962.0698818921662
 10
719.6522273335968
 20
962.0716289929269
 10
719.6612023560192
 20
962.073693668773
 10
719.67016253741
 20
962.0760748380954
 10
719.6790956687816
 20
962.0787733785514
 10
719.6878973524487
 20
962.0817639905517
 10
719.6965413533874
 20
962.0850360755142
 10
719.7050297405524
 20
962.0885883754578
 10
719.7133466664909
 20
962.0924130040558
 10
719.7214772789139
 20
962.0965015853018
 10
719.7293971322255
 20
962.1008349953578
 10
719.7372620990432
 20
962.1054859666447
 10
719.7450110920495
 20
962.1104453441725
 10
719.7514382825695
 20
962.1149021000277
  0
ARC
  5
114A
330
1F
100
AcDbEntity
  8
SANINDUSA
100
AcDbCircle
 10
719.8151242524077
 20
962.0273152952162
 30
0.0
 40
0.1083200369847134
100
AcDbArc
 50
97.79586676556514
 51
126.0215640157799
  0
ARC
  5
114B
330
1F
100
AcDbEntity
  8
SANINDUSA
100
AcDbCircle
 10
719.3596088512615
 20
962.0276057789029
 30
0.0
 40
0.108001840396137
100
AcDbArc
 50
53.94112906976528
 51
82.28051652199146
  0
LINE
  5
114E
330
1F
100
AcDbEntity
  8
SANINDUSA
100
AcDbLine
 10
719.3171140669581
 20
962.5006587400177
 30
0.0
 11
719.3268050819128
 21
962.5006587400177
 31
0.0
  0
LINE
  5
1150
330
1F
100
AcDbEntity
  8
SANINDUSA
100
AcDbLine
 10
719.8574960968675
 20
962.5006587400177
 30
0.0
 11
719.8478050819127
 21
962.5006587400177
 31
0.0
  0
LINE
  5
1158
330
1F
100
AcDbEntity
  8
SANINDUSA
100
AcDbLine
 10
719.3268050819128
 20
962.5006587400177
 30
0.0
 11
719.8478050819127
 21
962.5006587400177
 31
0.0
  0
LWPOLYLINE
  5
115C
330
1F
100
AcDbEntity
  8
SANINDUSA
100
AcDbPolyline
 90
       10
 70
   128
 43
0.0
 10
719.3148050819128
 20
962.4913368786005
 10
719.3149873888765
 20
962.4899721486665
 10
719.3155287704634
 20
962.488648885361
 10
719.3164127770674
 20
962.48740729537
 10
719.3176125485953
 20
962.4862851037768
 10
719.3190916305965
 20
962.4853164078055
 10
719.3208050819127
 20
962.4845306407927
 10
719.3227008401928
 20
962.4839516778715
 10
719.3247213037807
 20
962.4835971105374
 10
719.3268050819128
 20
962.4834777121394
  0
LINE
  5
115D
330
1F
100
AcDbEntity
  8
SANINDUSA
100
AcDbLine
 10
719.3148050819128
 20
962.4913368786005
 30
0.0
 11
719.3148050819128
 21
962.4986587400178
 31
0.0
  0
LINE
  5
1160
330
1F
100
AcDbEntity
  8
SANINDUSA
100
AcDbLine
 10
719.8598050819128
 20
962.4913368786005
 30
0.0
 11
719.8598050819128
 21
962.4986587400178
 31
0.0
  0
LWPOLYLINE
  5
1161
330
1F
100
AcDbEntity
  8
SANINDUSA
100
AcDbPolyline
 90
       10
 70
   128
 43
0.0
 10
719.8598050819128
 20
962.4913368786005
 10
719.8596227749488
 20
962.4899721486665
 10
719.8590813933622
 20
962.488648885361
 10
719.8581973867582
 20
962.48740729537
 10
719.8569976152302
 20
962.4862851037768
 10
719.8555185332289
 20
962.4853164078055
 10
719.8538050819128
 20
962.4845306407927
 10
719.8519093236326
 20
962.4839516778715
 10
719.8498888600447
 20
962.4835971105374
 10
719.8478050819127
 20
962.4834777121394
  0
LINE
  5
1163
330
1F
100
AcDbEntity
  8
SANINDUSA
100
AcDbLine
 10
719.8478050819127
 20
962.4834777121394
 30
0.0
 11
719.7082164207184
 21
962.4834777121394
 31
0.0
  0
ARC
  5
1164
330
1F
100
AcDbEntity
  8
SANINDUSA
100
AcDbCircle
 10
719.7082403610452
 20
962.4921337752326
 30
0.0
 40
0.008656096199387
100
AcDbArc
 50
231.0624759391334
 51
269.8415357888849
  0
ARC
  5
1165
330
1F
100
AcDbEntity
  8
SANINDUSA
100
AcDbCircle
 10
719.6920044382203
 20
962.4721724606134
 30
0.0
 40
0.0170744852343997
100
AcDbArc
 50
50.78168764042088
 51
90.03361825117904
  0
LINE
  5
1166
330
1F
100
AcDbEntity
  8
SANINDUSA
100
AcDbLine
 10
719.4826157440451
 20
962.4892469429086
 30
0.0
 11
719.6919944197803
 21
962.4892469429086
 31
0.0
  0
ARC
  5
1167
330
1F
100
AcDbEntity
  8
SANINDUSA
100
AcDbCircle
 10
719.4826057256052
 20
962.4721724606134
 30
0.0
 40
0.0170744852344427
100
AcDbArc
 50
89.96638174882095
 51
129.2183123595791
  0
ARC
  5
1168
330
1F
100
AcDbEntity
  8
SANINDUSA
100
AcDbCircle
 10
719.4663698027803
 20
962.4921337752326
 30
0.0
 40
0.0086560961992558
100
AcDbArc
 50
270.1584642111151
 51
308.9375240608667
  0
LINE
  5
1169
330
1F
100
AcDbEntity
  8
SANINDUSA
100
AcDbLine
 10
719.3268050819128
 20
962.4834777121394
 30
0.0
 11
719.4663937431071
 21
962.4834777121394
 31
0.0
  0
LWPOLYLINE
  5
116C
330
1F
100
AcDbEntity
  8
SANINDUSA
100
AcDbPolyline
 90
        9
 70
   128
 43
0.0
 10
719.4718099221399
 20
962.4854007890625
 10
719.4725903406982
 20
962.484809327759
 10
719.473361788716
 20
962.4841493838694
 10
719.4741153987652
 20
962.4834285431349
 10
719.4748425084562
 20
962.4826550912775
 10
719.475534760009
 20
962.4818379187585
 10
719.4761841963208
 20
962.4809864185877
 10
719.4767833524298
 20
962.4801103783548
 10
719.4773253413215
 20
962.479219867726
  0
LWPOLYLINE
  5
116F
330
1F
100
AcDbEntity
  8
SANINDUSA
100
AcDbPolyline
 90
        9
 70
   128
 43
0.0
 10
719.7028002416857
 20
962.4854007890625
 10
719.7020198231274
 20
962.484809327759
 10
719.7012483751096
 20
962.4841493838694
 10
719.7004947650603
 20
962.4834285431349
 10
719.6997676553693
 20
962.4826550912775
 10
719.6990754038165
 20
962.4818379187585
 10
719.6984259675048
 20
962.4809864185877
 10
719.6978268113958
 20
962.4801103783548
 10
719.6972848225041
 20
962.479219867726
  0
LWPOLYLINE
  5
1172
330
1F
100
AcDbEntity
  8
SANINDUSA
100
AcDbPolyline
 90
       27
 70
   128
 43
0.0
 10
719.3893506107861
 20
962.3106648800265
 10
719.3893505951006
 20
962.3106648221261
 10
719.3867941169229
 20
962.2994528924227
 10
719.3851343126781
 20
962.2880729630656
 10
719.384364683218
 20
962.2762959362338
 10
719.3845541671513
 20
962.2644954730683
 10
719.3857404042034
 20
962.252523956393
 10
719.3879061096859
 20
962.2406897879784
 10
719.3911480488439
 20
962.2287428353864
 10
719.395409453941
 20
962.2171206080976
 10
719.400533791988
 20
962.2061642641581
 10
719.4065634709208
 20
962.1956788491207
 10
719.4136978067363
 20
962.1854529337795
 10
719.421715546003
 20
962.1759039756772
 10
719.429177090663
 20
962.1684196831861
 10
719.4371573836032
 20
962.1614654007514
 10
719.4454979519609
 20
962.1549552952815
 10
719.4588778420804
 20
962.1456606440879
 10
719.4728564287736
 20
962.137293712376
 10
719.4877136128483
 20
962.1297460401789
 10
719.5030622252374
 20
962.1232555406656
 10
719.5191566279802
 20
962.1177621075407
 10
719.5356052003366
 20
962.1134434104272
 10
719.5478550507496
 20
962.111038918859
 10
719.5602522156165
 20
962.1092913212816
 10
719.5737345516119
 20
962.1081608971056
 10
719.5873050819127
 20
962.107806328867
  0
LWPOLYLINE
  5
1174
330
1F
100
AcDbEntity
  8
SANINDUSA
100
AcDbPolyline
 90
       27
 70
   128
 43
0.0
 10
719.7852595530394
 20
962.3106648800265
 10
719.7852595687248
 20
962.3106648221261
 10
719.7878160469025
 20
962.2994528924227
 10
719.7894758511474
 20
962.2880729630656
 10
719.7902454806076
 20
962.2762959362338
 10
719.7900559966741
 20
962.2644954730683
 10
719.7888697596221
 20
962.252523956393
 10
719.7867040541396
 20
962.2406897879784
 10
719.7834621149817
 20
962.2287428353864
 10
719.7792007098845
 20
962.2171206080976
 10
719.7740763718376
 20
962.2061642641581
 10
719.7680466929048
 20
962.1956788491207
 10
719.7609123570892
 20
962.1854529337795
 10
719.7528946178225
 20
962.1759039756772
 10
719.7454330731625
 20
962.1684196831861
 10
719.7374527802223
 20
962.1614654007514
 10
719.7291122118646
 20
962.1549552952815
 10
719.7157323217451
 20
962.1456606440879
 10
719.7017537350518
 20
962.137293712376
 10
719.6868965509772
 20
962.1297460401789
 10
719.6715479385881
 20
962.1232555406656
 10
719.6554535358452
 20
962.1177621075407
 10
719.639004963489
 20
962.1134434104272
 10
719.6267551130759
 20
962.111038918859
 10
719.614357948209
 20
962.1092913212816
 10
719.6008756122136
 20
962.1081608971056
 10
719.5873050819127
 20
962.107806328867
  0
ARC
  5
1179
330
1F
100
AcDbEntity
  8
SANINDUSA
100
AcDbCircle
 10
719.2025208953443
 20
962.460865220369
 30
0.0
 40
0.2754167326223896
100
AcDbArc
 50
342.4814275696682
 51
3.821205143577977
  0
ARC
  5
117C
330
1F
100
AcDbEntity
  8
SANINDUSA
100
AcDbCircle
 10
719.9720892684812
 20
962.460865220369
 30
0.0
 40
0.2754167326223897
100
AcDbArc
 50
176.178794856422
 51
197.5185724303317
  0
CIRCLE
  5
1180
330
1F
100
AcDbEntity
  8
SANINDUSA
100
AcDbCircle
 10
719.5873050819127
 20
962.4356587400178
 30
0.0
 40
0.0175
  0
ARC
  5
1182
330
1F
100
AcDbEntity
  8
SANINDUSA
100
AcDbCircle
 10
719.5933830584763
 20
961.2038679869533
 30
0.0
 40
1.16765201530612
100
AcDbArc
 50
84.60210905988553
 51
90.29824294410682
  0
ARC
  5
1184
330
1F
100
AcDbEntity
  8
SANINDUSA
100
AcDbCircle
 10
719.5812271053492
 20
961.2038679869533
 30
0.0
 40
1.167652015306124
100
AcDbArc
 50
89.70175705589317
 51
95.39789094011446
  0
LWPOLYLINE
  5
1187
330
1F
100
AcDbEntity
  8
SANINDUSA
100
AcDbPolyline
 90
       10
 70
   128
 43
0.0
 10
719.4713841342746
 20
962.3663419653949
 10
719.470339315608
 20
962.3664343820774
 10
719.4692982739812
 20
962.3669162201048
 10
719.4683021155336
 20
962.3677684538199
 10
719.4673901741667
 20
962.3689574322742
 10
719.4665984584206
 20
962.3704362079553
 10
719.4659582296564
 20
962.3721463905372
 10
719.4654947676825
 20
962.3740204524571
 10
719.4652263725672
 20
962.3759843952795
 10
719.4651636420492
 20
962.3779606715691
  0
LWPOLYLINE
  5
1188
330
1F
100
AcDbEntity
  8
SANINDUSA
100
AcDbPolyline
 90
       10
 70
   128
 43
0.0
 10
719.7032260295509
 20
962.3663419653949
 10
719.7042708482174
 20
962.3664343820774
 10
719.7053118898444
 20
962.3669162201048
 10
719.7063080482919
 20
962.3677684538199
 10
719.7072199896588
 20
962.3689574322742
 10
719.7080117054049
 20
962.3704362079553
 10
719.7086519341691
 20
962.3721463905372
 10
719.709115396143
 20
962.3740204524571
 10
719.7093837912583
 20
962.3759843952795
 10
719.7094465217763
 20
962.3779606715691
  0
ARC
  5
1191
330
1F
100
AcDbEntity
  8
SANINDUSA
100
AcDbCircle
 10
719.5164747726866
 20
961.8487395871371
 30
0.0
 40
0.5195626888554774
100
AcDbArc
 50
94.97872043026399
 51
96.95367451502505
  0
ARC
  5
1194
330
1F
100
AcDbEntity
  8
SANINDUSA
100
AcDbCircle
 10
719.6581353911389
 20
961.8487395871362
 30
0.0
 40
0.5195626888562175
100
AcDbArc
 50
83.04632548497496
 51
85.021279569736
  0
ARC
  5
1195
330
1F
100
AcDbEntity
  8
SANINDUSA
100
AcDbCircle
 10
719.3168050819127
 20
962.4986587400178
 30
0.0
 40
0.002
100
AcDbArc
 50
90.0
 51
180.0
  0
ARC
  5
1196
330
1F
100
AcDbEntity
  8
SANINDUSA
100
AcDbCircle
 10
719.8578050819128
 20
962.4986587400178
 30
0.0
 40
0.002
100
AcDbArc
 50
0.0
 51
90.0
  0
LINE
  5
1198
330
1F
100
AcDbEntity
  8
SANINDUSA
100
AcDbLine
 10
719.8598050819128
 20
962.4769284067552
 30
0.0
 11
719.8598050819128
 21
962.4913368786005
 31
0.0
  0
LINE
  5
119A
330
1F
100
AcDbEntity
  8
SANINDUSA
100
AcDbLine
 10
719.3148050819128
 20
962.4769284067552
 30
0.0
 11
719.3148050819128
 21
962.4913368786005
 31
0.0
  0
LWPOLYLINE
  5
11A3
330
1F
100
AcDbEntity
  8
SANINDUSA
100
AcDbPolyline
 90
       14
 70
   128
 43
0.0
 10
719.4438721886544
 20
962.3631729643856
 10
719.4379092704983
 20
962.3621425215604
 10
719.4320083271528
 20
962.3607164945878
 10
719.4262745478899
 20
962.3587896705108
 10
719.4208131219816
 20
962.3562568363725
 10
719.4144497896608
 20
962.3522261646719
 10
719.4086421816275
 20
962.3473751454065
 10
719.4035372639137
 20
962.3418327782195
 10
719.3997769219613
 20
962.3365224602672
 10
719.396613500551
 20
962.3308081317956
 10
719.3940034523895
 20
962.3248324879741
 10
719.3914906385516
 20
962.3178097128366
 10
719.3893505999421
 20
962.3106649379284
 10
719.3893505842631
 20
962.3106648800265
  0
LWPOLYLINE
  5
11A7
330
1F
100
AcDbEntity
  8
SANINDUSA
100
AcDbPolyline
 90
       14
 70
   128
 43
0.0
 10
719.7307379751711
 20
962.3631729643856
 10
719.7367008933272
 20
962.3621425215604
 10
719.7426018366727
 20
962.3607164945878
 10
719.7483356159356
 20
962.3587896705108
 10
719.753797041844
 20
962.3562568363725
 10
719.7601603741645
 20
962.3522261646719
 10
719.765967982198
 20
962.3473751454065
 10
719.7710728999116
 20
962.3418327782195
 10
719.7748332418642
 20
962.3365224602672
 10
719.7779966632745
 20
962.3308081317956
 10
719.7806067114361
 20
962.3248324879741
 10
719.7831195252738
 20
962.3178097128366
 10
719.7852595638834
 20
962.3106649379284
 10
719.7852595795623
 20
962.3106648800265
  0
LINE
  5
11B3
330
1F
100
AcDbEntity
  8
SANINDUSA
100
AcDbLine
 10
719.3148050819128
 20
962.1556587400178
 30
0.0
 11
719.3148050819128
 21
962.4769284067552
 31
0.0
  0
LINE
  5
11B5
330
1F
100
AcDbEntity
  8
SANINDUSA
100
AcDbLine
 10
719.8598050819128
 20
962.1556587400178
 30
0.0
 11
719.8598050819128
 21
962.4769284067552
 31
0.0
  0
LWPOLYLINE
  5
11B7
330
1F
100
AcDbEntity
  8
SANINDUSA
100
AcDbPolyline
 90
        3
 70
   128
 43
0.0
 10
719.72103718227
 20
962.3644805611959
 10
719.7284138814394
 20
962.3635054727433
 10
719.7307379751711
 20
962.3631729643856
  0
LWPOLYLINE
  5
11B8
330
1F
100
AcDbEntity
  8
SANINDUSA
100
AcDbPolyline
 90
        3
 70
   128
 43
0.0
 10
719.4535729815554
 20
962.3644805611959
 10
719.4461962823861
 20
962.3635054727433
 10
719.4438721886544
 20
962.3631729643856
  0
ARC
  5
11BA
330
1F
100
AcDbEntity
  8
SANINDUSA
100
AcDbCircle
 10
719.8145482866411
 20
962.0348117968179
 30
0.0
 40
0.1008470094051667
100
AcDbArc
 50
89.93434736387783
 51
98.04427773957501
  0
ARC
  5
11BB
330
1F
100
AcDbEntity
  8
SANINDUSA
100
AcDbCircle
 10
719.3600548082757
 20
962.0345749689228
 30
0.0
 40
0.1010838293112905
100
AcDbArc
 50
82.00519822545476
 51
90.06149206337362
  0
ARC
  5
11BD
330
1F
100
AcDbEntity
  8
SANINDUSA
100
AcDbCircle
 10
719.3348050819127
 20
962.1556587400178
 30
0.0
 40
0.0200000000000001
100
AcDbArc
 50
180.0
 51
270.0
  0
ARC
  5
11BF
330
1F
100
AcDbEntity
  8
SANINDUSA
100
AcDbCircle
 10
719.8398050819128
 20
962.1556587400178
 30
0.0
 40
0.0200000000000001
100
AcDbArc
 50
270.0
 51
0.0
  0
LINE
  5
11C1
330
1F
100
AcDbEntity
  8
SANINDUSA
100
AcDbLine
 10
719.8146638426315
 20
962.1356587400178
 30
0.0
 11
719.8398050819128
 21
962.1356587400178
 31
0.0
  0
LINE
  5
11C2
330
1F
100
AcDbEntity
  8
SANINDUSA
100
AcDbLine
 10
719.3599463211939
 20
962.1356587400178
 30
0.0
 11
719.3348050819127
 21
962.1356587400178
 31
0.0
  0
ARC
  5
11D7
330
1F
100
AcDbEntity
  8
SANINDUSA
100
AcDbCircle
 10
720.3399994108925
 20
962.4058285021737
 30
0.0
 40
0.1675754829585171
100
AcDbArc
 50
300.8537737003766
 51
320.4331966122459
  0
ARC
  5
11D8
330
1F
100
AcDbEntity
  8
SANINDUSA
100
AcDbCircle
 10
720.282185444794
 20
960.8847125286743
 30
0.0
 40
1.355812319296754
100
AcDbArc
 50
94.32192942905572
 51
97.75411578581547
  0
ARC
  5
11D9
330
1F
100
AcDbEntity
  8
SANINDUSA
100
AcDbCircle
 10
720.4233688220051
 20
962.2662147919662
 30
0.0
 40
0.005
100
AcDbArc
 50
180.0
 51
301.1957860614696
  0
LWPOLYLINE
  5
11DA
330
1F
100
AcDbEntity
  8
SANINDUSA
100
AcDbPolyline
 90
       11
 70
   128
 43
0.0
 10
720.1799809293641
 20
962.2367170135014
 10
720.1803686517412
 20
962.2367475733694
 10
720.1829871817128
 20
962.2368827199061
 10
720.1854953266005
 20
962.2369379964922
 10
720.1878320453379
 20
962.2369127763214
 10
720.1899346138148
 20
962.2368119086967
 10
720.1917444802884
 20
962.2366473830016
 10
720.1932122743322
 20
962.2364398152139
 10
720.194525641425
 20
962.2361837821195
 10
720.1956339230593
 20
962.235907887295
 10
720.1962743662224
 20
962.2357087703798
  0
ARC
  5
11DB
330
1F
100
AcDbEntity
  8
SANINDUSA
100
AcDbCircle
 10
720.1877308130917
 20
962.35980687501
 30
0.0
 40
0.0100000000000001
100
AcDbArc
 50
30.59597176657865
 51
90.0
  0
LINE
  5
11DC
330
1F
100
AcDbEntity
  8
SANINDUSA
100
AcDbLine
 10
720.2883963840486
 20
962.1857719755132
 30
0.0
 11
720.2893603250551
 21
962.213375634324
 31
0.0
  0
ARC
  5
11DD
330
1F
100
AcDbEntity
  8
SANINDUSA
100
AcDbCircle
 10
720.2873969932215
 20
962.1858068750098
 30
0.0
 40
0.0010000000000001
100
AcDbArc
 50
270.0
 51
358.0000000027562
  0
ARC
  5
11DE
330
1F
100
AcDbEntity
  8
SANINDUSA
100
AcDbCircle
 10
720.2133271737373
 20
962.1857046846697
 30
0.0
 40
0.0050022588285894
100
AcDbArc
 50
0.7707713149271953
 51
85.65116470166307
  0
ARC
  5
11DF
330
1F
100
AcDbEntity
  8
SANINDUSA
100
AcDbCircle
 10
720.2193283707712
 20
962.1858068750098
 30
0.0
 40
0.0009999999999999
100
AcDbArc
 50
181.9999999972438
 51
270.0
  0
LINE
  5
11E2
330
1F
100
AcDbEntity
  8
SANINDUSA
100
AcDbLine
 10
720.0633688220051
 20
962.3677913996882
 30
0.0
 11
720.0633688220051
 21
962.3757734685934
 31
0.0
  0
ARC
  5
11E3
330
1F
100
AcDbEntity
  8
SANINDUSA
100
AcDbCircle
 10
720.065368822005
 20
962.3757734685934
 30
0.0
 40
0.0020000000000002
100
AcDbArc
 50
84.7620804342833
 51
180.0
  0
ARC
  5
11E5
330
1F
100
AcDbEntity
  8
SANINDUSA
100
AcDbCircle
 10
720.0646384887426
 20
962.3678068750098
 30
0.0
 40
0.01
100
AcDbArc
 50
49.08561677964671
 51
84.7620804342833
  0
LINE
  5
11E8
330
1F
100
AcDbEntity
  8
SANINDUSA
100
AcDbLine
 10
720.0633688220051
 20
962.3645273284168
 30
0.0
 11
720.0633688220051
 21
962.3677913996882
 31
0.0
  0
ARC
  5
11EA
330
1F
100
AcDbEntity
  8
SANINDUSA
100
AcDbCircle
 10
720.065368822005
 20
962.30680687501
 30
0.0
 40
0.0020000000000002
100
AcDbArc
 50
180.0
 51
270.0
  0
LINE
  5
11EB
330
1F
100
AcDbEntity
  8
SANINDUSA
100
AcDbLine
 10
720.0633688220051
 20
962.30680687501
 30
0.0
 11
720.0633688220051
 21
962.3098068750099
 31
0.0
  0
LINE
  5
11EE
330
1F
100
AcDbEntity
  8
SANINDUSA
100
AcDbLine
 10
720.0633688220051
 20
962.3098068750099
 30
0.0
 11
720.0633688220051
 21
962.3645273284168
 31
0.0
  0
LINE
  5
11F5
330
1F
100
AcDbEntity
  8
SANINDUSA
100
AcDbLine
 10
720.408368822005
 20
962.3048068750099
 30
0.0
 11
720.065368822005
 21
962.3048068750099
 31
0.0
  0
LINE
  5
11F6
330
1F
100
AcDbEntity
  8
SANINDUSA
100
AcDbLine
 10
720.0711877941268
 20
962.3753637658378
 30
0.0
 11
720.0805498498835
 21
962.367249984182
 31
0.0
  0
ARC
  5
11F8
330
1F
100
AcDbEntity
  8
SANINDUSA
100
AcDbCircle
 10
720.0870991552676
 20
962.3748068750099
 30
0.0
 40
0.01
100
AcDbArc
 50
229.0856167796467
 51
270.0
  0
LINE
  5
11FA
330
1F
100
AcDbEntity
  8
SANINDUSA
100
AcDbLine
 10
720.0870991552676
 20
962.36480687501
 30
0.0
 11
720.408368822005
 21
962.36480687501
 31
0.0
  0
LINE
  5
11FD
330
1F
100
AcDbEntity
  8
SANINDUSA
100
AcDbLine
 10
720.408368822005
 20
962.36480687501
 30
0.0
 11
720.4163688220051
 21
962.36480687501
 31
0.0
  0
ARC
  5
11FE
330
1F
100
AcDbEntity
  8
SANINDUSA
100
AcDbCircle
 10
720.4163688220051
 20
962.3528068750099
 30
0.0
 40
0.0119999999999999
100
AcDbArc
 50
0.0
 51
90.0
  0
LINE
  5
1200
330
1F
100
AcDbEntity
  8
SANINDUSA
100
AcDbLine
 10
720.4283688220051
 20
962.3528068750099
 30
0.0
 11
720.4283688220051
 21
962.3098068750099
 31
0.0
  0
LINE
  5
1201
330
1F
100
AcDbEntity
  8
SANINDUSA
100
AcDbLine
 10
720.4233688220051
 20
962.3048068750099
 30
0.0
 11
720.408368822005
 21
962.3048068750099
 31
0.0
  0
ARC
  5
1202
330
1F
100
AcDbEntity
  8
SANINDUSA
100
AcDbCircle
 10
720.4233688220051
 20
962.3098068750099
 30
0.0
 40
0.005
100
AcDbArc
 50
270.0
 51
0.0
  0
LINE
  5
1205
330
1F
100
AcDbEntity
  8
SANINDUSA
100
AcDbLine
 10
720.4163688220051
 20
962.36480687501
 30
0.0
 11
720.4393283086637
 21
962.36480687501
 31
0.0
  0
LINE
  5
120E
330
1F
100
AcDbEntity
  8
SANINDUSA
100
AcDbLine
 10
720.0633688220051
 20
962.2403587951387
 30
0.0
 11
720.0633688220051
 21
962.3065718750099
 31
0.0
  0
LINE
  5
1213
330
1F
100
AcDbEntity
  8
SANINDUSA
100
AcDbLine
 10
720.418368822005
 20
962.2977164778093
 30
0.0
 11
720.418368822005
 21
962.3048068750099
 31
0.0
  0
ARC
  5
1214
330
1F
100
AcDbEntity
  8
SANINDUSA
100
AcDbCircle
 10
720.2613821393267
 20
963.1086070992731
 30
0.0
 40
0.8864899150048962
100
AcDbArc
 50
269.4806966577508
 51
272.3350356807565
  0
LWPOLYLINE
  5
1219
330
1F
100
AcDbEntity
  8
SANINDUSA
100
AcDbPolyline
 90
        9
 70
   128
 43
0.0
 10
720.2975002031734
 20
962.2228532650339
 10
720.3131667372336
 20
962.2262983451699
 10
720.3283845083334
 20
962.2306217104799
 10
720.3431096908255
 20
962.235792118898
 10
720.3580901300888
 20
962.2421438591018
 10
720.3724192847612
 20
962.2493713966228
 10
720.3860448491012
 20
962.2574391388665
 10
720.398913962783
 20
962.2663118910878
 10
720.4101269502459
 20
962.2752303458831
  0
ARC
  5
121D
330
1F
100
AcDbEntity
  8
SANINDUSA
100
AcDbCircle
 10
720.3420620184958
 20
962.4070088655704
 30
0.0
 40
0.166633975766614
100
AcDbArc
 50
319.6628796286382
 51
339.4630383901962
  0
ARC
  5
121F
330
1F
100
AcDbEntity
  8
SANINDUSA
100
AcDbCircle
 10
720.0653688133273
 20
962.2251252472766
 30
0.0
 40
0.0019999913222252
100
AcDbArc
 50
180.0
 51
278.4626183319454
  0
LINE
  5
1220
330
1F
100
AcDbEntity
  8
SANINDUSA
100
AcDbLine
 10
720.0633688220051
 20
962.2251252374056
 30
0.0
 11
720.0633688220051
 21
962.2403587951387
 31
0.0
  0
LINE
  5
1223
330
1F
100
AcDbEntity
  8
SANINDUSA
100
AcDbLine
 10
720.0894731548856
 20
962.2266771153206
 30
0.0
 11
720.0992563888284
 21
962.2281275820515
 31
0.0
  0
LINE
  5
1225
330
1F
100
AcDbEntity
  8
SANINDUSA
100
AcDbLine
 10
720.0656632186799
 20
962.2231470433085
 30
0.0
 11
720.0894731548856
 21
962.2266771153206
 31
0.0
  0
ARC
  5
1227
330
1F
100
AcDbEntity
  8
SANINDUSA
100
AcDbCircle
 10
720.4868850403991
 20
962.3528065518616
 30
0.0
 40
0.0120003234450084
100
AcDbArc
 50
339.2336416144073
 51
90.01274270465589
  0
LINE
  5
1228
330
1F
100
AcDbEntity
  8
SANINDUSA
100
AcDbLine
 10
720.4393283086637
 20
962.36480687501
 30
0.0
 11
720.4868823715011
 21
962.36480687501
 31
0.0
  0
LINE
  5
1234
330
1F
100
AcDbEntity
  8
SANINDUSA
100
AcDbLine
 10
720.418368822005
 20
962.2662622244689
 30
0.0
 11
720.418368822005
 21
962.2977164778093
 31
0.0
  0
LINE
  5
123C
330
1F
100
AcDbEntity
  8
SANINDUSA
100
AcDbLine
 10
720.0813299244984
 20
962.3698068750099
 30
0.0
 11
720.1877308130917
 21
962.3698068750099
 31
0.0
  0
ARC
  5
123E
330
1F
100
AcDbEntity
  8
SANINDUSA
100
AcDbCircle
 10
720.413368822005
 20
962.271423737485
 30
0.0
 40
0.005
100
AcDbArc
 50
0.0
 51
130.4191468094802
  0
ARC
  5
123F
330
1F
100
AcDbEntity
  8
SANINDUSA
100
AcDbCircle
 10
720.0813299244984
 20
962.3798068750099
 30
0.0
 40
0.01
100
AcDbArc
 50
229.0856167796467
 51
270.0
  0
ARC
  5
1240
330
1F
100
AcDbEntity
  8
SANINDUSA
100
AcDbCircle
 10
720.2262897534155
 20
962.258960326914
 30
0.0
 40
0.037967859428997
100
AcDbArc
 50
217.7633168761068
 51
237.7107857797807
  0
LWPOLYLINE
  5
1245
330
1F
100
AcDbEntity
  8
SANINDUSA
100
AcDbPolyline
 90
        3
 70
   128
 43
0.0
 10
720.2215957805062
 20
962.2225119615277
 10
720.2253308593225
 20
962.2224700783558
 10
720.2294313552826
 20
962.2223041400122
  0
ARC
  5
1246
330
1F
100
AcDbEntity
  8
SANINDUSA
100
AcDbCircle
 10
720.2476058538215
 20
963.2099222920137
 30
0.0
 40
0.9877853646211955
100
AcDbArc
 50
268.9457417946479
 51
270.3328920684935
  0
ARC
  5
124A
330
1F
100
AcDbEntity
  8
SANINDUSA
100
AcDbCircle
 10
720.2993542333253
 20
962.213026639357
 30
0.0
 40
0.0099999999999999
100
AcDbArc
 50
100.6846299604949
 51
178.0000000027562
  0
LWPOLYLINE
  5
124B
330
1F
100
AcDbEntity
  8
SANINDUSA
100
AcDbPolyline
 90
        3
 70
   128
 43
0.0
 10
720.2091675399857
 20
962.2250386605539
 10
720.2075790498073
 20
962.2259101413119
 10
720.2060075802696
 20
962.2268637258153
  0
LWPOLYLINE
  5
124C
330
1F
100
AcDbEntity
  8
SANINDUSA
100
AcDbPolyline
 90
        3
 70
   128
 43
0.0
 10
720.2254885689998
 20
962.2128766656745
 10
720.2258045723714
 20
962.2028830196557
 10
720.2260531416937
 20
962.1950239719135
  0
LWPOLYLINE
  5
1250
330
1F
100
AcDbEntity
  8
SANINDUSA
100
AcDbPolyline
 90
        7
 70
   128
 43
0.0
 10
720.2260531416937
 20
962.1950239719135
 10
720.2259475539709
 20
962.1928958495262
 10
720.225372584636
 20
962.1904650280169
 10
720.2242316167472
 20
962.1880897265965
 10
720.2234177317344
 20
962.1870063173382
 10
720.2225744964642
 20
962.1862176751493
 10
720.221790974302
 20
962.1857719755132
  0
LWPOLYLINE
  5
1251
330
1F
100
AcDbEntity
  8
SANINDUSA
100
AcDbPolyline
 90
        9
 70
   128
 43
0.0
 10
720.221790974302
 20
962.1857719755132
 10
720.2218135225384
 20
962.1855819239556
 10
720.2218683365203
 20
962.1854001383669
 10
720.2219534020739
 20
962.1852332985737
 10
720.2220655934111
 20
962.1850875352096
 10
720.2222007879903
 20
962.184968204442
 10
720.2223540180011
 20
962.1848796911553
 10
720.2225196529098
 20
962.1848252478265
 10
720.2226916063567
 20
962.1848068750098
  0
LINE
  5
1252
330
1F
100
AcDbEntity
  8
SANINDUSA
100
AcDbLine
 10
720.2873969932215
 20
962.1848068750098
 30
0.0
 11
720.2226916063567
 21
962.1848068750098
 31
0.0
  0
LINE
  5
1253
330
1F
100
AcDbEntity
  8
SANINDUSA
100
AcDbLine
 10
720.2167918627556
 20
962.22244400939
 30
0.0
 11
720.2179035382824
 21
962.2224722413593
 31
0.0
  0
LWPOLYLINE
  5
1254
330
1F
100
AcDbEntity
  8
SANINDUSA
100
AcDbPolyline
 90
        3
 70
   128
 43
0.0
 10
720.2109534718403
 20
962.2241596587478
 10
720.2137761146359
 20
962.2230936070266
 10
720.2167918627556
 20
962.22244400939
  0
LINE
  5
1255
330
1F
100
AcDbEntity
  8
SANINDUSA
100
AcDbLine
 10
720.2109534718403
 20
962.2241596587478
 30
0.0
 11
720.2091675399857
 21
962.2250386605539
 31
0.0
  0
LINE
  5
1256
330
1F
100
AcDbEntity
  8
SANINDUSA
100
AcDbLine
 10
720.2179035382824
 20
962.2224722413593
 30
0.0
 11
720.2215957805062
 21
962.2225119615277
 31
0.0
  0
ARC
  5
1257
330
1F
100
AcDbEntity
  8
SANINDUSA
100
AcDbCircle
 10
720.2157506663006
 20
962.2125403941215
 30
0.0
 40
0.0097437070736376
100
AcDbArc
 50
1.977765474642899
 51
35.93382365771416
  0
ARC
  5
125A
330
1F
100
AcDbEntity
  8
SANINDUSA
100
AcDbCircle
 10
720.215272234833
 20
962.212262415637
 30
0.0
 40
0.0102943732386733
100
AcDbArc
 50
35.62386712781387
 51
81.51112732922193
  0
LINE
  5
126A
330
1F
100
AcDbEntity
  8
SANINDUSA
100
AcDbLine
 10
720.2137064882065
 20
962.1906925413158
 30
0.0
 11
720.196214278166
 21
962.1920197445691
 31
0.0
  0
LINE
  5
126C
330
1F
100
AcDbEntity
  8
SANINDUSA
100
AcDbLine
 10
720.1685398352891
 20
962.2201038434294
 30
0.0
 11
720.1675904098599
 21
962.2356398976602
 31
0.0
  0
ARC
  5
126D
330
1F
100
AcDbEntity
  8
SANINDUSA
100
AcDbCircle
 10
720.1984839732001
 20
962.2219337627621
 30
0.0
 40
0.0299999999999967
100
AcDbArc
 50
183.4970593428783
 51
265.6610557727716
  0
LINE
  5
1270
330
1F
100
AcDbEntity
  8
SANINDUSA
100
AcDbLine
 10
720.2226916063567
 20
962.1848068750098
 30
0.0
 11
720.221934793636
 21
962.1848068750098
 31
0.0
  0
LINE
  5
1271
330
1F
100
AcDbEntity
  8
SANINDUSA
100
AcDbLine
 10
720.221934793636
 20
962.1848068750098
 30
0.0
 11
720.2205509334747
 21
962.1848068750098
 31
0.0
  0
LINE
  5
1273
330
1F
100
AcDbEntity
  8
SANINDUSA
100
AcDbLine
 10
720.2205509334747
 20
962.1848068750098
 30
0.0
 11
720.2193283707712
 21
962.1848068750098
 31
0.0
  0
ARC
  5
1274
330
1F
100
AcDbEntity
  8
SANINDUSA
100
AcDbCircle
 10
721.6116598381579
 20
962.35980687501
 30
0.0
 40
0.0099999999999999
100
AcDbArc
 50
30.00000000033557
 51
90.0
  0
ARC
  5
1275
330
1F
100
AcDbEntity
  8
SANINDUSA
100
AcDbCircle
 10
721.6903678263896
 20
961.03401178128
 30
0.0
 40
1.205686996931847
100
AcDbArc
 50
94.70267957251268
 51
97.51377809282052
  0
LINE
  5
1276
330
1F
100
AcDbEntity
  8
SANINDUSA
100
AcDbLine
 10
721.4895488228337
 20
962.2230905734637
 30
0.0
 11
721.5054296760271
 21
962.2251333455629
 31
0.0
  0
LWPOLYLINE
  5
1277
330
1F
100
AcDbEntity
  8
SANINDUSA
100
AcDbPolyline
 90
        3
 70
   128
 43
0.0
 10
721.5277214236452
 20
962.2287866209056
 10
721.528844220159
 20
962.228967693858
 10
721.5326892466504
 20
962.229456621119
  0
ARC
  5
1278
330
1F
100
AcDbEntity
  8
SANINDUSA
100
AcDbCircle
 10
721.5778186874032
 20
961.8697722833058
 30
0.0
 40
0.3626599929368009
100
AcDbArc
 50
100.1491991611734
 51
101.5079732292297
  0
ARC
  5
127A
330
1F
100
AcDbEntity
  8
SANINDUSA
100
AcDbCircle
 10
721.8896078834425
 20
962.35480687501
 30
0.0
 40
0.0100000000000003
100
AcDbArc
 50
90.0
 51
161.0429782323011
  0
LINE
  5
127B
330
1F
100
AcDbEntity
  8
SANINDUSA
100
AcDbLine
 10
721.8896078834425
 20
962.36480687501
 30
0.0
 11
721.6748122809381
 21
962.36480687501
 31
0.0
  0
ARC
  5
127E
330
1F
100
AcDbEntity
  8
SANINDUSA
100
AcDbCircle
 10
721.7603507269118
 20
962.4099010101842
 30
0.0
 40
0.1629297127930859
100
AcDbArc
 50
320.1483739663445
 51
339.2202318793636
  0
ARC
  5
127F
330
1F
100
AcDbEntity
  8
SANINDUSA
100
AcDbCircle
 10
721.9108121245803
 20
962.3528068750099
 30
0.0
 40
0.002
100
AcDbArc
 50
339.2202318793636
 51
90.0
  0
LINE
  5
1280
330
1F
100
AcDbEntity
  8
SANINDUSA
100
AcDbLine
 10
721.8903157720301
 20
962.35480687501
 30
0.0
 11
721.9108121245803
 21
962.35480687501
 31
0.0
  0
ARC
  5
1281
330
1F
100
AcDbEntity
  8
SANINDUSA
100
AcDbCircle
 10
721.7218507094709
 20
962.413546656843
 30
0.0
 40
0.1777437239081054
100
AcDbArc
 50
317.340554793204
 51
340.4748679545813
  0
ARC
  5
1282
330
1F
100
AcDbEntity
  8
SANINDUSA
100
AcDbCircle
 10
721.8532978470712
 20
962.2924228819131
 30
0.0
 40
0.001
100
AcDbArc
 50
137.340554793204
 51
180.0
  0
ARC
  5
1283
330
1F
100
AcDbEntity
  8
SANINDUSA
100
AcDbCircle
 10
721.8903157720301
 20
962.3538068750098
 30
0.0
 40
0.001
100
AcDbArc
 50
90.0
 51
160.4748679545813
  0
LINE
  5
1284
330
1F
100
AcDbEntity
  8
SANINDUSA
100
AcDbLine
 10
721.8522978470712
 20
962.2773127194562
 30
0.0
 11
721.8522978470712
 21
962.2924228819131
 31
0.0
  0
ARC
  5
1285
330
1F
100
AcDbEntity
  8
SANINDUSA
100
AcDbCircle
 10
721.7604068128475
 20
962.4098817786686
 30
0.0
 40
0.162874333047572
100
AcDbArc
 50
305.0188982263634
 51
320.1409247630439
  0
ARC
  5
1286
330
1F
100
AcDbEntity
  8
SANINDUSA
100
AcDbCircle
 10
721.8532978470712
 20
962.2773127194562
 30
0.0
 40
0.001
100
AcDbArc
 50
180.0
 51
305.0188982263634
  0
ARC
  5
1287
330
1F
100
AcDbEntity
  8
SANINDUSA
100
AcDbCircle
 10
721.9108140654651
 20
962.3528065518616
 30
0.0
 40
0.0120003234450446
100
AcDbArc
 50
339.2336416144073
 51
90.01274270465589
  0
ARC
  5
1288
330
1F
100
AcDbEntity
  8
SANINDUSA
100
AcDbCircle
 10
721.7604081931239
 20
962.4098747421429
 30
0.0
 40
0.1728689179582965
100
AcDbArc
 50
301.1715047080404
 51
339.2226735037504
  0
ARC
  5
1289
330
1F
100
AcDbEntity
  8
SANINDUSA
100
AcDbCircle
 10
721.8472978982856
 20
962.2662427973361
 30
0.0
 40
0.0050000512221515
100
AcDbArc
 50
180.0
 51
301.1645273489092
  0
LINE
  5
128A
330
1F
100
AcDbEntity
  8
SANINDUSA
100
AcDbLine
 10
721.8422978470712
 20
962.2662430753983
 30
0.0
 11
721.8422978470712
 21
962.271423737485
 31
0.0
  0
ARC
  5
128B
330
1F
100
AcDbEntity
  8
SANINDUSA
100
AcDbCircle
 10
721.8372978470712
 20
962.271423737485
 30
0.0
 40
0.0050000000000001
100
AcDbArc
 50
0.0
 51
130.4191468094802
  0
LWPOLYLINE
  5
128C
330
1F
100
AcDbEntity
  8
SANINDUSA
100
AcDbPolyline
 90
        9
 70
   128
 43
0.0
 10
721.7214292282395
 20
962.2228532650339
 10
721.7370957622998
 20
962.2262983451699
 10
721.7523135333995
 20
962.2306217104799
 10
721.7670387158916
 20
962.235792118898
 10
721.782019155155
 20
962.2421438591018
 10
721.7963483098274
 20
962.2493713966228
 10
721.8099738741671
 20
962.2574391388665
 10
721.822842987849
 20
962.2663118910878
 10
721.834055975312
 20
962.2752303458831
  0
ARC
  5
128D
330
1F
100
AcDbEntity
  8
SANINDUSA
100
AcDbCircle
 10
721.7232832583913
 20
962.213026639357
 30
0.0
 40
0.01
100
AcDbArc
 50
100.6846299604949
 51
178.0000000027562
  0
LINE
  5
128E
330
1F
100
AcDbEntity
  8
SANINDUSA
100
AcDbLine
 10
721.7132893501212
 20
962.213375634324
 30
0.0
 11
721.7123254091148
 21
962.1857719755132
 31
0.0
  0
ARC
  5
128F
330
1F
100
AcDbEntity
  8
SANINDUSA
100
AcDbCircle
 10
721.7113260182877
 20
962.1858068750098
 30
0.0
 40
0.0009999999999999
100
AcDbArc
 50
270.0
 51
358.0000000027562
  0
LINE
  5
1290
330
1F
100
AcDbEntity
  8
SANINDUSA
100
AcDbLine
 10
721.7113260182877
 20
962.1848068750098
 30
0.0
 11
721.7017917070625
 21
962.1848068750098
 31
0.0
  0
ARC
  5
1291
330
1F
100
AcDbEntity
  8
SANINDUSA
100
AcDbCircle
 10
721.7017917070625
 20
962.1858068750098
 30
0.0
 40
0.0009999999999999
100
AcDbArc
 50
180.0
 51
270.0
  0
LINE
  5
1292
330
1F
100
AcDbEntity
  8
SANINDUSA
100
AcDbLine
 10
721.7007917070625
 20
962.2182501389778
 30
0.0
 11
721.7007917070625
 21
962.1858068750098
 31
0.0
  0
ARC
  5
1293
330
1F
100
AcDbEntity
  8
SANINDUSA
100
AcDbCircle
 10
721.7057917117443
 20
962.2182501396716
 30
0.0
 40
0.0050000046818292
100
AcDbArc
 50
131.5420226317374
 51
180.0
  0
LINE
  5
1294
330
1F
100
AcDbEntity
  8
SANINDUSA
100
AcDbLine
 10
721.7024758630939
 20
962.2219924911444
 30
0.0
 11
721.7111466541179
 21
962.2296751044251
 31
0.0
  0
ARC
  5
1295
330
1F
100
AcDbEntity
  8
SANINDUSA
100
AcDbCircle
 10
721.7177783540523
 20
962.2221903951011
 30
0.0
 40
0.0100000158843752
100
AcDbArc
 50
99.89701598887311
 51
131.5419949826542
  0
LWPOLYLINE
  5
1296
330
1F
100
AcDbEntity
  8
SANINDUSA
100
AcDbPolyline
 90
       16
 70
   128
 43
0.0
 10
721.7160595733749
 20
962.2320415935393
 10
721.7323746730373
 20
962.2354330035442
 10
721.7481830172125
 20
962.2398053176237
 10
721.7634308325251
 20
962.2451185989481
 10
721.7780643456004
 20
962.2513329106883
 10
721.7920297830633
 20
962.2584083160148
 10
721.8052733715386
 20
962.2663048780982
 10
721.8177413376515
 20
962.2749826601094
 10
721.8293799080269
 20
962.2844017252186
 10
721.8390798396858
 20
962.2934584674586
 10
721.8480287102574
 20
962.3030518103803
 10
721.856187585019
 20
962.3131528376401
 10
721.8635175292481
 20
962.3237326328945
 10
721.8699796103208
 20
962.3347622798005
 10
721.8755357823416
 20
962.3462128620147
 10
721.880150258222
 20
962.3580554631937
  0
LINE
  5
1297
330
1F
100
AcDbEntity
  8
SANINDUSA
100
AcDbLine
 10
721.8896078834425
 20
962.36480687501
 30
0.0
 11
721.9108113965672
 21
962.36480687501
 31
0.0
  0
ARC
  5
129C
330
1F
100
AcDbEntity
  8
SANINDUSA
100
AcDbCircle
 10
721.63750886312
 20
962.2229347353588
 30
0.0
 40
0.0100000337076582
100
AcDbArc
 50
45.44805861888638
 51
68.8291972693967
  0
LINE
  5
129E
330
1F
100
AcDbEntity
  8
SANINDUSA
100
AcDbLine
 10
721.6445244431151
 20
962.230060906244
 30
0.0
 11
721.6522994852302
 21
962.2224065232334
 31
0.0
  0
ARC
  5
12A1
330
1F
100
AcDbEntity
  8
SANINDUSA
100
AcDbCircle
 10
721.6487917008138
 20
962.218843447178
 30
0.0
 40
0.0050000062487741
100
AcDbArc
 50
0.0
 51
45.44802464910009
  0
LINE
  5
12A8
330
1F
100
AcDbEntity
  8
SANINDUSA
100
AcDbLine
 10
721.6537917070625
 20
962.2065914439357
 30
0.0
 11
721.6537917070625
 21
962.2188434468846
 31
0.0
  0
LINE
  5
12AB
330
1F
100
AcDbEntity
  8
SANINDUSA
100
AcDbLine
 10
721.6537917070625
 20
962.1858068750098
 30
0.0
 11
721.6537917070625
 21
962.1965627009542
 31
0.0
  0
LWPOLYLINE
  5
12AD
330
1F
100
AcDbEntity
  8
SANINDUSA
100
AcDbPolyline
 90
       14
 70
   128
 43
0.0
 10
721.6092042653294
 20
962.3172795569301
 10
721.6104932815517
 20
962.2971601302561
 10
721.6117232774398
 20
962.2779526761824
 10
721.612949877122
 20
962.2587324552652
 10
721.61309759914
 20
962.2564160049638
 10
721.613247434595
 20
962.2540944602016
 10
721.6135217692825
 20
962.2511549299632
 10
721.6141096158479
 20
962.2480402788847
 10
721.6161096533639
 20
962.2422650941267
 10
721.6189934032262
 20
962.237192527712
 10
721.6225208624282
 20
962.2328380056247
 10
721.6265573169512
 20
962.2291443335575
 10
721.630943538948
 20
962.2261259619227
 10
721.6358318190415
 20
962.2236000320405
  0
LINE
  5
12AE
330
1F
100
AcDbEntity
  8
SANINDUSA
100
AcDbLine
 10
721.6067972751873
 20
962.35480687501
 30
0.0
 11
721.6076701792738
 21
962.3412304465389
 31
0.0
  0
ARC
  5
12AF
330
1F
100
AcDbEntity
  8
SANINDUSA
100
AcDbCircle
 10
721.608668132005
 20
962.3412944023545
 30
0.0
 40
0.0009999999999999
100
AcDbArc
 50
183.6669010262139
 51
273.6371637703761
  0
ARC
  5
12B1
330
1F
100
AcDbEntity
  8
SANINDUSA
100
AcDbCircle
 10
721.610202220194
 20
962.3173434794484
 30
0.0
 40
0.0010000000000003
100
AcDbArc
 50
93.6371637703761
 51
183.6649893208026
  0
ARC
  5
12B3
330
1F
100
AcDbEntity
  8
SANINDUSA
100
AcDbCircle
 10
721.6166520194056
 20
962.3418019052747
 30
0.0
 40
0.001
100
AcDbArc
 50
273.6371637703761
 51
3.666897260045725
  0
LWPOLYLINE
  5
12B4
330
1F
100
AcDbEntity
  8
SANINDUSA
100
AcDbPolyline
 90
       12
 70
   128
 43
0.0
 10
721.6191840623252
 20
962.3179149048819
 10
721.6191840623252
 20
962.3179149048821
 10
721.6191373378093
 20
962.3185897262111
 10
721.6190065743337
 20
962.3205383370949
 10
721.6188110616933
 20
962.323541326042
 10
721.61857355614
 20
962.327260239121
 10
721.6183186353239
 20
962.3312757423596
 10
721.6180731383059
 20
962.3351350503392
 10
721.617865359564
 20
962.3384030513417
 10
721.6177204372131
 20
962.3407113436465
 10
721.6176539187326
 20
962.3417995346942
 10
721.6176499721409
 20
962.3418658610246
  0
ARC
  5
12B5
330
1F
100
AcDbEntity
  8
SANINDUSA
100
AcDbCircle
 10
721.6181861074608
 20
962.3178509823601
 30
0.0
 40
0.0010000000000002
100
AcDbArc
 50
3.664989529649877
 51
93.6371637703761
  0
LINE
  5
12B6
330
1F
100
AcDbEntity
  8
SANINDUSA
100
AcDbLine
 10
721.6087315698614
 20
962.340296416564
 30
0.0
 11
721.616715457262
 21
962.340803919484
 31
0.0
  0
LINE
  5
12B7
330
1F
100
AcDbEntity
  8
SANINDUSA
100
AcDbLine
 10
721.6181226696043
 20
962.3188489681506
 30
0.0
 11
721.6101387823376
 21
962.3183414652391
 31
0.0
  0
LINE
  5
12B8
330
1F
100
AcDbEntity
  8
SANINDUSA
100
AcDbLine
 10
721.6065340114519
 20
962.3588715111591
 30
0.0
 11
721.6067972751873
 21
962.35480687501
 31
0.0
  0
LINE
  5
12B9
330
1F
100
AcDbEntity
  8
SANINDUSA
100
AcDbLine
 10
721.5930093546508
 20
962.3598068751864
 30
0.0
 11
721.6055361022421
 21
962.3598068772651
 31
0.0
  0
ARC
  5
12BA
330
1F
100
AcDbEntity
  8
SANINDUSA
100
AcDbCircle
 10
721.5930093548167
 20
962.3588068751864
 30
0.0
 40
0.001
100
AcDbArc
 50
90.00000951011294
 51
183.4970593428783
  0
ARC
  5
12BB
330
1F
100
AcDbEntity
  8
SANINDUSA
100
AcDbCircle
 10
721.6055361024081
 20
962.3588068772649
 30
0.0
 40
0.001
100
AcDbArc
 50
3.705832617621914
 51
90.00000951011294
  0
LINE
  5
12BC
330
1F
100
AcDbEntity
  8
SANINDUSA
100
AcDbLine
 10
721.5920112168864
 20
962.3587458778754
 30
0.0
 11
721.6004539637983
 21
962.2205918219181
 31
0.0
  0
ARC
  5
12BD
330
1F
100
AcDbEntity
  8
SANINDUSA
100
AcDbCircle
 10
721.6224129982663
 20
962.2219337627621
 30
0.0
 40
0.022
100
AcDbArc
 50
183.4970593428783
 51
265.6610557727716
  0
LINE
  5
12BE
330
1F
100
AcDbEntity
  8
SANINDUSA
100
AcDbLine
 10
721.6207485552412
 20
962.1999968160872
 30
0.0
 11
721.6528673635637
 21
962.1975598348939
 31
0.0
  0
ARC
  5
12BF
330
1F
100
AcDbEntity
  8
SANINDUSA
100
AcDbCircle
 10
721.6527917070625
 20
962.1965627009542
 30
0.0
 40
0.0010000000000001
100
AcDbArc
 50
0.0
 51
85.66105577277161
  0
ARC
  5
12C0
330
1F
100
AcDbEntity
  8
SANINDUSA
100
AcDbCircle
 10
721.6527917070625
 20
962.1858068750098
 30
0.0
 40
0.0009999999999999
100
AcDbArc
 50
270.0
 51
0.0
  0
LINE
  5
12C1
330
1F
100
AcDbEntity
  8
SANINDUSA
100
AcDbLine
 10
721.6527917070625
 20
962.1848068750098
 30
0.0
 11
721.6432573958374
 21
962.1848068750098
 31
0.0
  0
ARC
  5
12C2
330
1F
100
AcDbEntity
  8
SANINDUSA
100
AcDbCircle
 10
721.6432573958374
 20
962.1858068750098
 30
0.0
 40
0.0009999999999999
100
AcDbArc
 50
181.9999999972438
 51
270.0
  0
ARC
  5
12C4
330
1F
100
AcDbEntity
  8
SANINDUSA
100
AcDbCircle
 10
721.6372572307669
 20
962.1857068716169
 30
0.0
 40
0.0050000000000001
100
AcDbArc
 50
1.999999997243794
 51
85.66105577277161
  0
LINE
  5
12C5
330
1F
100
AcDbEntity
  8
SANINDUSA
100
AcDbLine
 10
721.620143303232
 20
962.1920197445691
 30
0.0
 11
721.6376355132727
 21
962.1906925413158
 31
0.0
  0
ARC
  5
12C6
330
1F
100
AcDbEntity
  8
SANINDUSA
100
AcDbCircle
 10
721.6224129982663
 20
962.2219337627621
 30
0.0
 40
0.03
100
AcDbArc
 50
183.4970593428783
 51
265.6610557727716
  0
LINE
  5
12C7
330
1F
100
AcDbEntity
  8
SANINDUSA
100
AcDbLine
 10
721.5842183712886
 20
962.3551118615655
 30
0.0
 11
721.5924688603553
 21
962.2201038434294
 31
0.0
  0
LINE
  5
12C8
330
1F
100
AcDbEntity
  8
SANINDUSA
100
AcDbLine
 10
721.5707978470712
 20
962.35980687501
 30
0.0
 11
721.5792276816367
 21
962.35980687501
 31
0.0
  0
ARC
  5
12C9
330
1F
100
AcDbEntity
  8
SANINDUSA
100
AcDbCircle
 10
721.5792276816367
 20
962.35480687501
 30
0.0
 40
0.005
100
AcDbArc
 50
3.497059342878391
 51
90.0
  0
ARC
  5
12CA
330
1F
100
AcDbEntity
  8
SANINDUSA
100
AcDbCircle
 10
721.5707978470712
 20
962.3608068750099
 30
0.0
 40
0.0010000000000002
100
AcDbArc
 50
180.0
 51
270.0
  0
LINE
  5
12CB
330
1F
100
AcDbEntity
  8
SANINDUSA
100
AcDbLine
 10
721.5697978470712
 20
962.36880687501
 30
0.0
 11
721.5697978470712
 21
962.3608068750099
 31
0.0
  0
ARC
  5
12CC
330
1F
100
AcDbEntity
  8
SANINDUSA
100
AcDbCircle
 10
721.5707978470712
 20
962.36880687501
 30
0.0
 40
0.0010000000000002
100
AcDbArc
 50
90.0
 51
180.0
  0
LINE
  5
12CD
330
1F
100
AcDbEntity
  8
SANINDUSA
100
AcDbLine
 10
721.5707978470712
 20
962.3698068750099
 30
0.0
 11
721.6064734285684
 21
962.3698068750099
 31
0.0
  0
ARC
  5
12CE
330
1F
100
AcDbEntity
  8
SANINDUSA
100
AcDbCircle
 10
721.6064734285684
 20
962.35980687501
 30
0.0
 40
0.01
100
AcDbArc
 50
3.716033422217586
 51
90.0
  0
LINE
  5
12CF
330
1F
100
AcDbEntity
  8
SANINDUSA
100
AcDbLine
 10
721.6164524037759
 20
962.3604549905934
 30
0.0
 11
721.6176499721409
 21
962.3418658610246
 31
0.0
  0
LWPOLYLINE
  5
12D0
330
1F
100
AcDbEntity
  8
SANINDUSA
100
AcDbPolyline
 90
       14
 70
   128
 43
0.0
 10
721.6191840623252
 20
962.3179149048819
 10
721.6204729308708
 20
962.2977977845124
 10
721.6217028936807
 20
962.2785908451923
 10
721.6220618229879
 20
962.2729739863725
 10
721.6224139017698
 20
962.2674566808951
 10
721.622759320991
 20
962.2620396155813
 10
721.6230983264071
 20
962.256723190284
 10
721.623576109386
 20
962.2515905286844
 10
721.6249644466738
 20
962.2469661318122
 10
721.6272311126972
 20
962.2428617554081
 10
721.6300854946595
 20
962.2393976449121
 10
721.6334412949232
 20
962.2364648782752
 10
721.6371651760373
 20
962.2340884760285
 10
721.6411203695098
 20
962.2322598463902
  0
ARC
  5
12D1
330
1F
100
AcDbEntity
  8
SANINDUSA
100
AcDbCircle
 10
721.6527917070625
 20
962.2065914439357
 30
0.0
 40
0.001
100
AcDbArc
 50
265.6610557727716
 51
0.0
  0
LINE
  5
12D2
330
1F
100
AcDbEntity
  8
SANINDUSA
100
AcDbLine
 10
721.6415361718867
 20
962.2064425716686
 30
0.0
 11
721.6527160505613
 21
962.2055943099958
 31
0.0
  0
LINE
  5
12D3
330
1F
100
AcDbEntity
  8
SANINDUSA
100
AcDbLine
 10
721.6415361718867
 20
962.2064425716686
 30
0.0
 11
721.6412350699146
 21
962.2150650040076
 31
0.0
  0
LINE
  5
12D8
330
1F
100
AcDbEntity
  8
SANINDUSA
100
AcDbLine
 10
721.6116598381579
 20
962.3698068750099
 30
0.0
 11
721.6064734285684
 21
962.3698068750099
 31
0.0
  0
ARC
  5
12D9
330
1F
100
AcDbEntity
  8
SANINDUSA
100
AcDbCircle
 10
721.5052589495646
 20
962.3798068750099
 30
0.0
 40
0.01
100
AcDbArc
 50
229.0856167796467
 51
270.0
  0
ARC
  5
12DB
330
1F
100
AcDbEntity
  8
SANINDUSA
100
AcDbCircle
 10
721.5052589495646
 20
962.3798068750099
 30
0.0
 40
0.02
100
AcDbArc
 50
250.6413048463117
 51
265.8652991403159
  0
ARC
  5
12DC
330
1F
100
AcDbEntity
  8
SANINDUSA
100
AcDbCircle
 10
721.4982978470713
 20
962.3599941757472
 30
0.0
 40
0.001
100
AcDbArc
 50
70.64130484631161
 51
180.0
  0
LINE
  5
12DD
330
1F
100
AcDbEntity
  8
SANINDUSA
100
AcDbLine
 10
721.5052589495646
 20
962.3698068750099
 30
0.0
 11
721.5337978470712
 21
962.3698068750099
 31
0.0
  0
ARC
  5
12DE
330
1F
100
AcDbEntity
  8
SANINDUSA
100
AcDbCircle
 10
721.5337978470712
 20
962.36880687501
 30
0.0
 40
0.0009999999999999
100
AcDbArc
 50
0.0
 51
90.0
  0
LINE
  5
12DF
330
1F
100
AcDbEntity
  8
SANINDUSA
100
AcDbLine
 10
721.5347978470711
 20
962.3608068750099
 30
0.0
 11
721.5347978470711
 21
962.36880687501
 31
0.0
  0
ARC
  5
12E0
330
1F
100
AcDbEntity
  8
SANINDUSA
100
AcDbCircle
 10
721.5337978470712
 20
962.3608068750099
 30
0.0
 40
0.0009999999999999
100
AcDbArc
 50
270.0
 51
0.0
  0
LINE
  5
12E1
330
1F
100
AcDbEntity
  8
SANINDUSA
100
AcDbLine
 10
721.5192225356665
 20
962.35980687501
 30
0.0
 11
721.5337978470712
 21
962.35980687501
 31
0.0
  0
ARC
  5
12E2
330
1F
100
AcDbEntity
  8
SANINDUSA
100
AcDbCircle
 10
721.5192225356665
 20
962.35480687501
 30
0.0
 40
0.0050000000000001
100
AcDbArc
 50
90.0
 51
176.999999996727
  0
ARC
  5
12E3
330
1F
100
AcDbEntity
  8
SANINDUSA
100
AcDbCircle
 10
721.5192225356665
 20
962.35480687501
 30
0.0
 40
0.0150000000000001
100
AcDbArc
 50
165.3202512880926
 51
176.999999996727
  0
ARC
  5
12E4
330
1F
100
AcDbEntity
  8
SANINDUSA
100
AcDbCircle
 10
721.5037448175304
 20
962.3588615317522
 30
0.0
 40
0.001
100
AcDbArc
 50
345.3202512880926
 51
85.86529914031583
  0
LINE
  5
12E5
330
1F
100
AcDbEntity
  8
SANINDUSA
100
AcDbLine
 10
721.5099045219791
 20
962.2725451952288
 30
0.0
 11
721.5142293879928
 21
962.3550685547911
 31
0.0
  0
LINE
  5
12E6
330
1F
100
AcDbEntity
  8
SANINDUSA
100
AcDbLine
 10
721.5002162164398
 20
962.2787545390536
 30
0.0
 11
721.5042430926453
 21
962.3555919143536
 31
0.0
  0
ARC
  5
12E7
330
1F
100
AcDbEntity
  8
SANINDUSA
100
AcDbCircle
 10
721.4992175869051
 20
962.27880687501
 30
0.0
 40
0.001
100
AcDbArc
 50
270.0
 51
356.999999996727
  0
ARC
  5
12E8
330
1F
100
AcDbEntity
  8
SANINDUSA
100
AcDbCircle
 10
721.5049113743053
 20
962.2728068750101
 30
0.0
 40
0.0050000000000001
100
AcDbArc
 50
270.0
 51
356.999999996727
  0
LINE
  5
12E9
330
1F
100
AcDbEntity
  8
SANINDUSA
100
AcDbLine
 10
721.5049113743053
 20
962.2678068750101
 30
0.0
 11
721.4892978470713
 21
962.2678068750101
 31
0.0
  0
LINE
  5
12EA
330
1F
100
AcDbEntity
  8
SANINDUSA
100
AcDbLine
 10
721.4992175869051
 20
962.27780687501
 30
0.0
 11
721.4982978470713
 21
962.27780687501
 31
0.0
  0
ARC
  5
12EB
330
1F
100
AcDbEntity
  8
SANINDUSA
100
AcDbCircle
 10
721.4982978470713
 20
962.27880687501
 30
0.0
 40
0.001
100
AcDbArc
 50
180.0
 51
270.0
  0
ARC
  5
12EC
330
1F
100
AcDbEntity
  8
SANINDUSA
100
AcDbCircle
 10
721.4892978470713
 20
962.26980687501
 30
0.0
 40
0.002
100
AcDbArc
 50
180.0
 51
270.0
  0
LINE
  5
12ED
330
1F
100
AcDbEntity
  8
SANINDUSA
100
AcDbLine
 10
721.4872978470712
 20
962.26980687501
 30
0.0
 11
721.4872978470712
 21
962.3757734685934
 31
0.0
  0
LINE
  5
12EE
330
1F
100
AcDbEntity
  8
SANINDUSA
100
AcDbLine
 10
721.4972978470711
 20
962.27880687501
 30
0.0
 11
721.4972978470711
 21
962.3599941757472
 31
0.0
  0
ARC
  5
12EF
330
1F
100
AcDbEntity
  8
SANINDUSA
100
AcDbCircle
 10
721.4892978470713
 20
962.3757734685934
 30
0.0
 40
0.002
100
AcDbArc
 50
84.7620804342833
 51
180.0
  0
ARC
  5
12F0
330
1F
100
AcDbEntity
  8
SANINDUSA
100
AcDbCircle
 10
721.4885675138086
 20
962.3678068750098
 30
0.0
 40
0.0100000000000002
100
AcDbArc
 50
49.08561677964671
 51
84.7620804342833
  0
LINE
  5
12F1
330
1F
100
AcDbEntity
  8
SANINDUSA
100
AcDbLine
 10
721.4951168191928
 20
962.3753637658378
 30
0.0
 11
721.4987096441803
 21
962.372249984182
 31
0.0
  0
LINE
  5
12F3
330
1F
100
AcDbEntity
  8
SANINDUSA
100
AcDbLine
 10
721.5337978470712
 20
962.3698068750099
 30
0.0
 11
721.5707978470712
 21
962.3698068750099
 31
0.0
  0
LINE
  5
12FB
330
1F
100
AcDbEntity
  8
SANINDUSA
100
AcDbLine
 10
721.7017917070625
 20
962.1848068750098
 30
0.0
 11
721.6527917070625
 21
962.1848068750098
 31
0.0
  0
LINE
  5
1308
330
1F
100
AcDbEntity
  8
SANINDUSA
100
AcDbLine
 10
721.5083300895895
 20
962.2425032355961
 30
0.0
 11
721.5099045219791
 21
962.2725451952288
 31
0.0
  0
LINE
  5
130B
330
1F
100
AcDbEntity
  8
SANINDUSA
100
AcDbLine
 10
721.4872978470712
 20
962.26980687501
 30
0.0
 11
721.4872978470712
 21
962.2293635422318
 31
0.0
  0
LINE
  5
1318
330
1F
100
AcDbEntity
  8
SANINDUSA
100
AcDbLine
 10
721.508259647288
 20
962.2364500654049
 30
0.0
 11
721.5083300895895
 21
962.2425032355961
 31
0.0
  0
LINE
  5
131B
330
1F
100
AcDbEntity
  8
SANINDUSA
100
AcDbLine
 10
721.5082369384442
 20
962.2315819556815
 30
0.0
 11
721.508259647288
 21
962.2364500654049
 31
0.0
  0
LWPOLYLINE
  5
131F
330
1F
100
AcDbEntity
  8
SANINDUSA
100
AcDbPolyline
 90
        5
 70
   128
 43
0.0
 10
721.5087580451481
 20
962.2282628427596
 10
721.5085769719527
 20
962.2284185061245
 10
721.508333727937
 20
962.229062926997
 10
721.5082279784649
 20
962.2301602567091
 10
721.5082369384442
 20
962.2315819556815
  0
ARC
  5
1321
330
1F
100
AcDbEntity
  8
SANINDUSA
100
AcDbCircle
 10
721.5136582584696
 20
962.2378366564012
 30
0.0
 40
0.0107549987559013
100
AcDbArc
 50
242.8950423714836
 51
283.8895864805656
  0
LWPOLYLINE
  5
1323
330
1F
100
AcDbEntity
  8
SANINDUSA
100
AcDbPolyline
 90
        9
 70
   128
 43
0.0
 10
721.4895488228337
 20
962.2230905734637
 10
721.489125546111
 20
962.2230821995712
 10
721.4887099899059
 20
962.223163108351
 10
721.4883207745969
 20
962.2233296744157
 10
721.4879753402707
 20
962.2235744342187
 10
721.4876891652614
 20
962.2238864204827
 10
721.4874750725924
 20
962.2242516536253
 10
721.487342655398
 20
962.2246537681602
 10
721.4872978470712
 20
962.2250747460086
  0
LINE
  5
1324
330
1F
100
AcDbEntity
  8
SANINDUSA
100
AcDbLine
 10
721.4872978470712
 20
962.2293635422318
 30
0.0
 11
721.4872978470712
 21
962.2250747460086
 31
0.0
  0
LINE
  5
1325
330
1F
100
AcDbEntity
  8
SANINDUSA
100
AcDbLine
 10
721.6748122809057
 20
962.36480687501
 30
0.0
 11
721.6203200921958
 21
962.36480687501
 31
0.0
  0
ARC
  5
1326
330
1F
100
AcDbEntity
  8
SANINDUSA
100
AcDbCircle
 10
721.5130114848482
 20
962.2347893006521
 30
0.0
 40
0.0080673621320438
100
AcDbArc
 50
276.4015254942901
 51
293.5904500805984
  0
LINE
  5
1327
330
1F
100
AcDbEntity
  8
SANINDUSA
100
AcDbLine
 10
721.513731084323
 20
962.2267258788328
 30
0.0
 11
721.5277195684554
 21
962.2287998178768
 31
0.0
  0
ARC
  5
132A
330
1F
100
AcDbEntity
  8
SANINDUSA
100
AcDbCircle
 10
721.6312411616444
 20
962.2147160090404
 30
0.0
 40
0.01
100
AcDbArc
 50
1.999999997243794
 51
62.67316218908199
  0
CIRCLE
  5
132B
330
1F
100
AcDbEntity
  8
SANINDUSA
100
AcDbCircle
 10
719.5873050819127
 20
962.3106648800265
 30
0.0
 40
0.0235
  0
ENDSEC
  0
SECTION
  2
OBJECTS
  0
DICTIONARY
  5
C
330
0
100
AcDbDictionary
281
     1
  3
ACAD_COLOR
350
BA9
  3
ACAD_GROUP
350
D
  3
ACAD_LAYOUT
350
1A
  3
ACAD_MATERIAL
350
BA8
  3
ACAD_MLEADERSTYLE
350
1616
  3
ACAD_MLINESTYLE
350
17
  3
ACAD_PLOTSETTINGS
350
19
  3
ACAD_PLOTSTYLENAME
350
E
  3
ACAD_SCALELIST
350
1604
  3
ACAD_TABLESTYLE
350
BAA
  3
ACAD_VISUALSTYLE
350
15F0
  3
ACDB_RECOMPOSE_DATA
350
1642
  3
AcDbVariableDictionary
350
3D
  3
ASE_INDEX_DICTIONARY
350
15C7
  3
DWGPROPS
350
1643
  0
DICTIONARY
  5
161D
330
10
100
AcDbDictionary
280
     1
281
     1
  3
ADSK_XREC_LAYER_RECONCILED
360
161E
  0
DICTIONARY
  5
161F
330
2F
100
AcDbDictionary
280
     1
281
     1
  3
ADSK_XREC_LAYER_RECONCILED
360
1620
  0
DICTIONARY
  5
1621
330
30
100
AcDbDictionary
280
     1
281
     1
  3
ADSK_XREC_LAYER_RECONCILED
360
1622
  0
DICTIONARY
  5
1623
330
31
100
AcDbDictionary
280
     1
281
     1
  3
ADSK_XREC_LAYER_RECONCILED
360
1624
  0
DICTIONARY
  5
1625
330
32
100
AcDbDictionary
280
     1
281
     1
  3
ADSK_XREC_LAYER_RECONCILED
360
1626
  0
DICTIONARY
  5
1627
330
33
100
AcDbDictionary
280
     1
281
     1
  3
ADSK_XREC_LAYER_RECONCILED
360
1628
  0
DICTIONARY
  5
1629
330
34
100
AcDbDictionary
280
     1
281
     1
  3
ADSK_XREC_LAYER_RECONCILED
360
162A
  0
DICTIONARY
  5
162B
330
35
100
AcDbDictionary
280
     1
281
     1
  3
ADSK_XREC_LAYER_RECONCILED
360
162C
  0
DICTIONARY
  5
162D
330
36
100
AcDbDictionary
280
     1
281
     1
  3
ADSK_XREC_LAYER_RECONCILED
360
162E
  0
DICTIONARY
  5
162F
330
37
100
AcDbDictionary
280
     1
281
     1
  3
ADSK_XREC_LAYER_RECONCILED
360
1630
  0
DICTIONARY
  5
1631
330
5D6
100
AcDbDictionary
280
     1
281
     1
  3
ADSK_XREC_LAYER_RECONCILED
360
1632
  0
DICTIONARY
  5
1633
330
8AF
100
AcDbDictionary
280
     1
281
     1
  3
ADSK_XREC_LAYER_RECONCILED
360
1634
  0
DICTIONARY
  5
1635
330
8F8
100
AcDbDictionary
280
     1
281
     1
  3
ADSK_XREC_LAYER_RECONCILED
360
1636
  0
DICTIONARY
  5
1637
330
91D
100
AcDbDictionary
280
     1
281
     1
  3
ADSK_XREC_LAYER_RECONCILED
360
1638
  0
DICTIONARY
  5
1639
330
BA5
100
AcDbDictionary
280
     1
281
     1
  3
ADSK_XREC_LAYER_RECONCILED
360
163A
  0
DICTIONARY
  5
15CC
330
1F
100
AcDbDictionary
280
     1
281
     1
  3
ACAD_SORTENTS
360
15CD
  0
DICTIONARY
  5
BA9
102
{ACAD_REACTORS
330
C
102
}
330
C
100
AcDbDictionary
281
     1
  0
DICTIONARY
  5
D
102
{ACAD_REACTORS
330
C
102
}
330
C
100
AcDbDictionary
281
     1
  0
DICTIONARY
  5
1A
102
{ACAD_REACTORS
330
C
102
}
330
C
100
AcDbDictionary
281
     1
  3
Layout1
350
1E
  3
Layout2
350
26
  3
Model
350
22
  0
DICTIONARY
  5
BA8
102
{ACAD_REACTORS
330
C
102
}
330
C
100
AcDbDictionary
281
     1
  3
ByBlock
350
15E0
  3
ByLayer
350
15D8
  3
Global
350
15E8
  0
DICTIONARY
  5
1616
102
{ACAD_REACTORS
330
C
102
}
330
C
100
AcDbDictionary
281
     1
  3
Standard
350
1617
  0
DICTIONARY
  5
17
102
{ACAD_REACTORS
330
C
102
}
330
C
100
AcDbDictionary
281
     1
  3
Standard
350
18
  0
DICTIONARY
  5
19
102
{ACAD_REACTORS
330
C
102
}
330
C
100
AcDbDictionary
281
     1
  0
ACDBDICTIONARYWDFLT
  5
E
102
{ACAD_REACTORS
330
C
102
}
330
C
100
AcDbDictionary
281
     1
  3
Normal
350
F
100
AcDbDictionaryWithDefault
340
F
  0
DICTIONARY
  5
1604
102
{ACAD_REACTORS
330
C
102
}
330
C
100
AcDbDictionary
281
     1
  3
A0
350
1605
  3
A1
350
1606
  3
A2
350
1607
  3
A3
350
1608
  3
A4
350
1609
  3
A5
350
160A
  3
A6
350
160B
  3
A7
350
160C
  3
A8
350
160D
  3
A9
350
160E
  3
B0
350
160F
  3
B1
350
1610
  3
B2
350
1611
  3
B3
350
1612
  3
B4
350
1613
  3
B5
350
1614
  3
B6
350
1615
  0
DICTIONARY
  5
BAA
102
{ACAD_REACTORS
330
C
102
}
330
C
100
AcDbDictionary
281
     1
  3
Standard
350
BAB
  0
DICTIONARY
  5
15F0
102
{ACAD_REACTORS
330
C
102
}
330
C
100
AcDbDictionary
281
     1
  3
2dWireframe
350
15F6
  3
3D Hidden
350
15F8
  3
3dWireframe
350
15F7
  3
Basic
350
15F5
  3
Brighten
350
15FC
  3
ColorChange
350
1600
  3
Conceptual
350
15F9
  3
Dim
350
15FB
  3
EdgeColorOff
350
1603
  3
Facepattern
350
15FF
  3
Flat
350
15F1
  3
FlatWithEdges
350
15F2
  3
Gouraud
350
15F3
  3
GouraudWithEdges
350
15F4
  3
JitterOff
350
1601
  3
Linepattern
350
15FE
  3
OverhangOff
350
1602
  3
Realistic
350
15FA
  3
Thicken
350
15FD
  0
XRECORD
  5
1642
102
{ACAD_REACTORS
330
C
102
}
330
C
100
AcDbXrecord
280
     1
 90
        1
330
BAB
  0
DICTIONARY
  5
3D
102
{ACAD_REACTORS
330
C
102
}
330
C
100
AcDbDictionary
281
     1
  3
CANNOSCALE
350
163C
  3
CMLEADERSTYLE
350
163B
  3
CTABLESTYLE
350
15CA
  3
DIMASSOC
350
3F
  3
HIDETEXT
350
3E
  3
INDEXCTL
350
163E
  3
PROJECTNAME
350
15D6
  3
SORTENTS
350
163D
  3
XCLIPFRAME
350
163F
  0
DICTIONARY
  5
15C7
102
{ACAD_REACTORS
330
C
102
}
330
C
100
AcDbDictionary
281
     1
  3
ASEBlockHierarchyIndexRecord
350
15C8
1001
DCO15
1040
1534486931.968
  0
XRECORD
  5
1643
102
{ACAD_REACTORS
330
C
102
}
330
C
100
AcDbXrecord
280
     1
  1
DWGPROPS COOKIE
  2

  3

  4

  6

  7

  8
Julio
  9

300
=
301
=
302
=
303
=
304
=
305
=
306
=
307
=
308
=
309
=
 40
0.0033924652777778
 41
2453563.474022709
 42
2456146.50515154
  1

 90
        0
  0
XRECORD
  5
161E
102
{ACAD_REACTORS
330
161D
102
}
330
161D
100
AcDbXrecord
280
     1
290
     1
  0
XRECORD
  5
1620
102
{ACAD_REACTORS
330
161F
102
}
330
161F
100
AcDbXrecord
280
     1
290
     1
  0
XRECORD
  5
1622
102
{ACAD_REACTORS
330
1621
102
}
330
1621
100
AcDbXrecord
280
     1
290
     1
  0
XRECORD
  5
1624
102
{ACAD_REACTORS
330
1623
102
}
330
1623
100
AcDbXrecord
280
     1
290
     1
  0
XRECORD
  5
1626
102
{ACAD_REACTORS
330
1625
102
}
330
1625
100
AcDbXrecord
280
     1
290
     1
  0
XRECORD
  5
1628
102
{ACAD_REACTORS
330
1627
102
}
330
1627
100
AcDbXrecord
280
     1
290
     1
  0
XRECORD
  5
162A
102
{ACAD_REACTORS
330
1629
102
}
330
1629
100
AcDbXrecord
280
     1
290
     1
  0
XRECORD
  5
162C
102
{ACAD_REACTORS
330
162B
102
}
330
162B
100
AcDbXrecord
280
     1
290
     1
  0
XRECORD
  5
162E
102
{ACAD_REACTORS
330
162D
102
}
330
162D
100
AcDbXrecord
280
     1
290
     1
  0
XRECORD
  5
1630
102
{ACAD_REACTORS
330
162F
102
}
330
162F
100
AcDbXrecord
280
     1
290
     1
  0
XRECORD
  5
1632
102
{ACAD_REACTORS
330
1631
102
}
330
1631
100
AcDbXrecord
280
     1
290
     1
  0
XRECORD
  5
1634
102
{ACAD_REACTORS
330
1633
102
}
330
1633
100
AcDbXrecord
280
     1
290
     1
  0
XRECORD
  5
1636
102
{ACAD_REACTORS
330
1635
102
}
330
1635
100
AcDbXrecord
280
     1
290
     1
  0
XRECORD
  5
1638
102
{ACAD_REACTORS
330
1637
102
}
330
1637
100
AcDbXrecord
280
     1
290
     1
  0
XRECORD
  5
163A
102
{ACAD_REACTORS
330
1639
102
}
330
1639
100
AcDbXrecord
280
     1
290
     1
  0
SORTENTSTABLE
  5
15CD
102
{ACAD_REACTORS
330
15CC
102
}
330
15CC
100
AcDbSortentsTable
330
1F
331
1227
  5
1228
331
11E8
  5
11E9
331
126A
  5
126B
331
1223
  5
1224
331
12A1
  5
12A2
331
125A
  5
125B
331
12E7
  5
12E8
331
12E3
  5
12E4
331
12DF
  5
12E0
331
132A
  5
132B
331
10E5
  5
10E5
331
1167
  5
1167
331
12DB
  5
12DC
331
1163
  5
1163
331
119A
  5
119A
331
10D1
  5
10D1
331
1120
  5
1120
331
121F
  5
1220
331
1256
  5
1257
331
11DC
  5
11DD
331
1252
  5
1253
331
11D8
  5
11D8
331
1213
  5
1214
331
1295
  5
1296
331
1291
  5
1292
331
124A
  5
124B
331
1326
  5
1327
331
12D3
  5
12D4
331
108D
  5
108D
331
12CF
  5
12D0
331
1089
  5
1089
331
12CB
  5
12CC
331
1196
  5
1196
331
10CD
  5
10CD
331
1085
  5
1085
331
10C9
  5
10C9
331
10C5
  5
10C5
331
1081
  5
1081
331
10C1
  5
10C1
331
114B
  5
114B
331
128D
  5
128E
331
1246
  5
1247
331
1289
  5
128A
331
1285
  5
1286
331
123E
  5
123F
331
11B8
  5
11B8
331
1281
  5
1282
331
12C7
  5
12C8
331
12BF
  5
12C0
331
107D
  5
107D
331
12BB
  5
12BC
331
1100
  5
1100
331
1182
  5
1182
331
10B9
  5
10B9
331
113F
  5
113F
331
1275
  5
1276
331
1271
  5
1272
331
12B7
  5
12B8
331
12B3
  5
12B4
331
12AF
  5
12B0
331
12EE
  5
12EF
331
12AB
  5
12AC
331
12EA
  5
12EB
331
1172
  5
1172
331
1133
  5
1133
331
10F0
  5
10F0
331
10EC
  5
10EC
331
1099
  5
1099
331
10E8
  5
10E8
331
11EB
  5
11EC
331
126D
  5
126E
331
11E3
  5
11E4
331
12E6
  5
12E7
331
12E2
  5
12E3
331
12DE
  5
12DF
331
1166
  5
1166
331
10D4
  5
10D4
331
10D0
  5
10D0
331
11DF
  5
11E0
331
129C
  5
129D
331
1255
  5
1256
331
11DB
  5
11DC
331
1251
  5
1252
331
11D7
  5
11D7
331
1294
  5
1295
331
1290
  5
1291
331
1325
  5
1326
331
12D2
  5
12D3
331
1321
  5
1322
331
108C
  5
108C
331
12CE
  5
12CF
331
1088
  5
1088
331
111B
  5
111B
331
12CA
  5
12CB
331
1195
  5
1195
331
10CC
  5
10CC
331
1084
  5
1084
331
1117
  5
1117
331
1191
  5
1191
331
10C8
  5
10C8
331
1080
  5
1080
331
114E
  5
114E
331
114A
  5
114A
331
120E
  5
120F
331
128C
  5
128D
331
1245
  5
1246
331
11BF
  5
11BF
331
1288
  5
1289
331
1202
  5
1203
331
1284
  5
1285
331
11BB
  5
11BB
331
1280
  5
1281
331
12C6
  5
12C7
331
12C2
  5
12C3
331
12BE
  5
12BF
331
1103
  5
1103
331
12BA
  5
12BB
331
10BC
  5
10BC
331
1142
  5
1142
331
113A
  5
113A
331
1179
  5
1179
331
11FE
  5
11FF
331
11B7
  5
11B7
331
11FA
  5
11FB
331
11B3
  5
11B3
331
11F6
  5
11F7
331
1278
  5
1279
331
11A7
  5
11A7
331
1274
  5
1275
331
11A3
  5
11A3
331
1270
  5
1271
331
12B6
  5
12B7
331
12F1
  5
12F2
331
12AE
  5
12AF
331
12ED
  5
12EE
331
12E9
  5
12EA
331
1132
  5
1132
331
10A8
  5
10A8
331
112E
  5
112E
331
1098
  5
1098
331
1169
  5
1169
331
11EE
  5
11EF
331
11EA
  5
11EB
331
126C
  5
126D
331
1225
  5
1226
331
11E2
  5
11E3
331
12E5
  5
12E6
331
12E1
  5
12E2
331
10E7
  5
10E7
331
12DD
  5
12DE
331
1165
  5
1165
331
12D9
  5
12DB
331
1161
  5
1161
331
10D3
  5
10D3
331
1122
  5
1122
331
115D
  5
115D
331
1198
  5
1198
331
121D
  5
121E
331
11DE
  5
11DF
331
1254
  5
1255
331
11DA
  5
11DA
331
1219
  5
121A
331
1250
  5
1251
331
1297
  5
1298
331
1293
  5
1294
331
124C
  5
124D
331
1324
  5
1325
331
108F
  5
108F
331
12D1
  5
12D2
331
108B
  5
108B
331
12CD
  5
12CE
331
10CF
  5
10CF
331
1318
  5
1319
331
1087
  5
1087
331
111A
  5
111A
331
12C9
  5
12CA
331
1194
  5
1194
331
10CB
  5
10CB
331
1083
  5
1083
331
1116
  5
1116
331
10C7
  5
10C7
331
10C3
  5
10C3
331
1149
  5
1149
331
1188
  5
1188
331
128F
  5
1290
331
128B
  5
128C
331
11C2
  5
11C2
331
1205
  5
1206
331
1287
  5
1288
331
1240
  5
1241
331
1283
  5
1284
331
11BA
  5
11BA
331
123C
  5
123D
331
1201
  5
1202
331
12C5
  5
12C6
331
12C1
  5
12C2
331
1308
  5
1309
331
107F
  5
107F
331
10BF
  5
10BF
331
12BD
  5
12BE
331
12B9
  5
12BA
331
1184
  5
1184
331
10BB
  5
10BB
331
1180
  5
1180
331
10B7
  5
10B7
331
10FA
  5
10FA
331
117C
  5
117C
331
10B3
  5
10B3
331
113D
  5
113D
331
11FD
  5
11FE
331
127F
  5
1280
331
1234
  5
1235
331
127B
  5
127E
331
11F5
  5
11F6
331
1277
  5
1278
331
1273
  5
1274
331
1228
  5
1229
331
12B5
  5
12B6
331
12B1
  5
12B2
331
12F0
  5
12F1
331
12AD
  5
12AE
331
12EC
  5
12ED
331
1174
  5
1174
331
1135
  5
1135
331
12E8
  5
12E9
331
1131
  5
1131
331
116C
  5
116C
331
1168
  5
1168
331
11E5
  5
11E6
331
1220
  5
1221
331
12E4
  5
12E5
331
12E0
  5
12E1
331
132B
  5
15CB
331
12DC
  5
12DD
331
12D8
  5
12D9
331
1164
  5
1164
331
1160
  5
1160
331
1092
  5
1092
331
115C
  5
115C
331
1158
  5
1158
331
129E
  5
129F
331
1257
  5
1258
331
11DD
  5
11DE
331
1253
  5
1254
331
11D9
  5
11D9
331
1214
  5
1215
331
1296
  5
1297
331
1292
  5
1293
331
124B
  5
124C
331
1327
  5
1328
331
1323
  5
1324
331
12D0
  5
12D1
331
131F
  5
1320
331
108E
  5
108E
331
131B
  5
131C
331
108A
  5
108A
331
12CC
  5
12CD
331
10CE
  5
10CE
331
1086
  5
1086
331
12C8
  5
12C9
331
10CA
  5
10CA
331
1082
  5
1082
331
1150
  5
1150
331
10C6
  5
10C6
331
1148
  5
1148
331
128E
  5
128F
331
11C1
  5
11C1
331
128A
  5
128B
331
123F
  5
1240
331
1286
  5
1287
331
11BD
  5
11BD
331
1200
  5
1201
331
1282
  5
1283
331
130B
  5
130C
331
12C4
  5
12C5
331
107E
  5
107E
331
12C0
  5
12C1
331
12BC
  5
12BD
331
1187
  5
1187
331
10BE
  5
10BE
331
12FB
  5
12FC
331
12B8
  5
12B9
331
1144
  5
1144
331
1140
  5
1140
331
113C
  5
113C
331
127E
  5
127F
331
11B5
  5
11B5
331
11F8
  5
11F9
331
127A
  5
127B
331
1276
  5
1277
331
12B4
  5
12B5
331
12F3
  5
12F4
331
12EF
  5
12F0
331
12EB
  5
12EC
331
10F5
  5
10F5
331
12A8
  5
12A9
331
1134
  5
1134
331
10AA
  5
10AA
331
1130
  5
1130
331
116F
  5
116F
331
112C
  5
112C
  0
LAYOUT
  5
1E
102
{ACAD_XDICTIONARY
360
1644
102
}
102
{ACAD_REACTORS
330
1A
102
}
330
1A
100
AcDbPlotSettings
  1

  2
Ploter HP500
  4

  6

 40
0.0
 41
0.0
 42
0.0
 43
0.0
 44
0.0
 45
0.0
 46
0.0
 47
0.0
 48
0.0
 49
0.0
140
0.0
141
0.0
142
1.0
143
1.0
 70
   688
 72
     0
 73
     0
 74
     5
  7
monochrome.ctb
 75
    16
147
1.0
148
0.0
149
0.0
100
AcDbLayout
  1
Layout1
 70
     1
 71
     1
 10
0.0
 20
0.0
 11
420.0
 21
297.0
 12
0.0
 22
0.0
 32
0.0
 14
1.000000000000000E+20
 24
1.000000000000000E+20
 34
1.000000000000000E+20
 15
-1.000000000000000E+20
 25
-1.000000000000000E+20
 35
-1.000000000000000E+20
146
0.0
 13
0.0
 23
0.0
 33
0.0
 16
1.0
 26
0.0
 36
0.0
 17
0.0
 27
1.0
 37
0.0
 76
     0
330
1B
  0
LAYOUT
  5
26
102
{ACAD_XDICTIONARY
360
1648
102
}
102
{ACAD_REACTORS
330
1A
102
}
330
1A
100
AcDbPlotSettings
  1

  2
Ploter HP500
  4

  6

 40
0.0
 41
0.0
 42
0.0
 43
0.0
 44
0.0
 45
0.0
 46
0.0
 47
0.0
 48
0.0
 49
0.0
140
0.0
141
0.0
142
1.0
143
1.0
 70
   688
 72
     0
 73
     0
 74
     5
  7
monochrome.ctb
 75
    16
147
1.0
148
0.0
149
0.0
100
AcDbLayout
  1
Layout2
 70
     1
 71
     2
 10
0.0
 20
0.0
 11
12.0
 21
9.0
 12
0.0
 22
0.0
 32
0.0
 14
0.0
 24
0.0
 34
0.0
 15
0.0
 25
0.0
 35
0.0
146
0.0
 13
0.0
 23
0.0
 33
0.0
 16
1.0
 26
0.0
 36
0.0
 17
0.0
 27
1.0
 37
0.0
 76
     0
330
23
  0
LAYOUT
  5
22
102
{ACAD_XDICTIONARY
360
1646
102
}
102
{ACAD_REACTORS
330
1A
102
}
330
1A
100
AcDbPlotSettings
  1

  2
Ploter HP500
  4
User268
  6

 40
4.995333194732666
 41
16.97565841674804
 42
4.995330810546875
 43
16.97567749023437
 44
209.9733276367187
 45
296.9259948730469
 46
0.0
 47
0.0
 48
0.0
 49
0.0
140
0.0
141
0.0
142
1.0
143
1.0
 70
 11952
 72
     1
 73
     1
 74
     0
  7

 75
     0
147
1.0
148
-427.5957866592534
149
7.362384574453926
100
AcDbLayout
  1
Model
 70
     1
 71
     0
 10
0.0
 20
0.0
 11
12.0
 21
9.0
 12
0.0
 22
0.0
 32
0.0
 14
0.0
 24
0.0
 34
0.0
 15
0.0
 25
0.0
 35
0.0
146
0.0
 13
0.0
 23
0.0
 33
0.0
 16
1.0
 26
0.0
 36
0.0
 17
0.0
 27
1.0
 37
0.0
 76
     0
330
1F
331
15CE
  0
MATERIAL
  5
15E0
102
{ACAD_XDICTIONARY
360
15E1
102
}
102
{ACAD_REACTORS
330
BA8
102
}
330
BA8
100
AcDbMaterial
  1
ByBlock
 72
     0
 43
0.0008202099737533
 43
0.0
 43
0.0
 43
0.0
 43
0.0
 43
0.0008202099737533
 43
0.0
 43
0.0
 43
0.0
 43
0.0
 43
1.0
 43
0.0
 43
0.0
 43
0.0
 43
0.0
 43
1.0
 77
     0
 47
0.0008202099737533
 47
0.0
 47
0.0
 47
0.0
 47
0.0
 47
0.0008202099737533
 47
0.0
 47
0.0
 47
0.0
 47
0.0
 47
1.0
 47
0.0
 47
0.0
 47
0.0
 47
0.0
 47
1.0
171
     0
 49
0.0008202099737533
 49
0.0
 49
0.0
 49
0.0
 49
0.0
 49
0.0008202099737533
 49
0.0
 49
0.0
 49
0.0
 49
0.0
 49
1.0
 49
0.0
 49
0.0
 49
0.0
 49
0.0
 49
1.0
175
     0
142
0.0008202099737533
142
0.0
142
0.0
142
0.0
142
0.0
142
0.0008202099737533
142
0.0
142
0.0
142
0.0
142
0.0
142
1.0
142
0.0
142
0.0
142
0.0
142
0.0
142
1.0
179
     0
144
0.0008202099737533
144
0.0
144
0.0
144
0.0
144
0.0
144
0.0008202099737533
144
0.0
144
0.0
144
0.0
144
0.0
144
1.0
144
0.0
144
0.0
144
0.0
144
0.0
144
1.0
147
0.0008202099737533
147
0.0
147
0.0
147
0.0
147
0.0
147
0.0008202099737533
147
0.0
147
0.0
147
0.0
147
0.0
147
1.0
147
0.0
147
0.0
147
0.0
147
0.0
147
1.0
  0
MATERIAL
  5
15D8
102
{ACAD_XDICTIONARY
360
15D9
102
}
102
{ACAD_REACTORS
330
BA8
102
}
330
BA8
100
AcDbMaterial
  1
ByLayer
 72
     0
 43
0.0008202099737533
 43
0.0
 43
0.0
 43
0.0
 43
0.0
 43
0.0008202099737533
 43
0.0
 43
0.0
 43
0.0
 43
0.0
 43
1.0
 43
0.0
 43
0.0
 43
0.0
 43
0.0
 43
1.0
 77
     0
 47
0.0008202099737533
 47
0.0
 47
0.0
 47
0.0
 47
0.0
 47
0.0008202099737533
 47
0.0
 47
0.0
 47
0.0
 47
0.0
 47
1.0
 47
0.0
 47
0.0
 47
0.0
 47
0.0
 47
1.0
171
     0
 49
0.0008202099737533
 49
0.0
 49
0.0
 49
0.0
 49
0.0
 49
0.0008202099737533
 49
0.0
 49
0.0
 49
0.0
 49
0.0
 49
1.0
 49
0.0
 49
0.0
 49
0.0
 49
0.0
 49
1.0
175
     0
142
0.0008202099737533
142
0.0
142
0.0
142
0.0
142
0.0
142
0.0008202099737533
142
0.0
142
0.0
142
0.0
142
0.0
142
1.0
142
0.0
142
0.0
142
0.0
142
0.0
142
1.0
179
     0
144
0.0008202099737533
144
0.0
144
0.0
144
0.0
144
0.0
144
0.0008202099737533
144
0.0
144
0.0
144
0.0
144
0.0
144
1.0
144
0.0
144
0.0
144
0.0
144
0.0
144
1.0
147
0.0008202099737533
147
0.0
147
0.0
147
0.0
147
0.0
147
0.0008202099737533
147
0.0
147
0.0
147
0.0
147
0.0
147
1.0
147
0.0
147
0.0
147
0.0
147
0.0
147
1.0
  0
MATERIAL
  5
15E8
102
{ACAD_XDICTIONARY
360
15E9
102
}
102
{ACAD_REACTORS
330
BA8
102
}
330
BA8
100
AcDbMaterial
  1
Global
 72
     0
 43
0.0008202099737533
 43
0.0
 43
0.0
 43
0.0
 43
0.0
 43
0.0008202099737533
 43
0.0
 43
0.0
 43
0.0
 43
0.0
 43
1.0
 43
0.0
 43
0.0
 43
0.0
 43
0.0
 43
1.0
 77
     0
 47
0.0008202099737533
 47
0.0
 47
0.0
 47
0.0
 47
0.0
 47
0.0008202099737533
 47
0.0
 47
0.0
 47
0.0
 47
0.0
 47
1.0
 47
0.0
 47
0.0
 47
0.0
 47
0.0
 47
1.0
171
     0
 49
0.0008202099737533
 49
0.0
 49
0.0
 49
0.0
 49
0.0
 49
0.0008202099737533
 49
0.0
 49
0.0
 49
0.0
 49
0.0
 49
1.0
 49
0.0
 49
0.0
 49
0.0
 49
0.0
 49
1.0
175
     0
142
0.0008202099737533
142
0.0
142
0.0
142
0.0
142
0.0
142
0.0008202099737533
142
0.0
142
0.0
142
0.0
142
0.0
142
1.0
142
0.0
142
0.0
142
0.0
142
0.0
142
1.0
179
     0
144
0.0008202099737533
144
0.0
144
0.0
144
0.0
144
0.0
144
0.0008202099737533
144
0.0
144
0.0
144
0.0
144
0.0
144
1.0
144
0.0
144
0.0
144
0.0
144
0.0
144
1.0
147
0.0008202099737533
147
0.0
147
0.0
147
0.0
147
0.0
147
0.0008202099737533
147
0.0
147
0.0
147
0.0
147
0.0
147
1.0
147
0.0
147
0.0
147
0.0
147
0.0
147
1.0
  0
MLEADERSTYLE
  5
1617
102
{ACAD_REACTORS
330
1616
102
}
330
1616
100
AcDbMLeaderStyle
170
     2
171
     1
172
     0
 90
        2
 40
0.0
 41
0.0
173
     1
 91
-1056964608
340
14
 92
       -2
290
     1
 42
2.0
291
     1
 43
0.36
  3
Standard
 44
4.0
300

342
11
174
     1
178
     6
175
     1
176
     0
 93
-1056964608
 45
4.0
292
     0
297
     0
 46
4.0
 94
-1056964608
 47
1.0
 49
1.0
140
1.0
293
     1
141
0.0
294
     1
177
     0
142
1.0
295
     0
296
     0
143
0.125
1001
ACAD_MLEADERVER
1070
     2
  0
MLINESTYLE
  5
18
102
{ACAD_REACTORS
330
17
102
}
330
17
100
AcDbMlineStyle
  2
STANDARD
 70
     0
  3

 62
   256
 51
90.0
 52
90.0
 71
     2
 49
0.5
 62
   256
  6
BYLAYER
 49
-0.5
 62
   256
  6
BYLAYER
  0
ACDBPLACEHOLDER
  5
F
102
{ACAD_REACTORS
330
E
102
}
330
E
  0
SCALE
  5
1605
102
{ACAD_REACTORS
330
1604
102
}
330
1604
100
AcDbScale
 70
     0
300
1:1
140
1.0
141
1.0
290
     1
  0
SCALE
  5
1606
102
{ACAD_REACTORS
330
1604
102
}
330
1604
100
AcDbScale
 70
     0
300
1:2
140
1.0
141
2.0
290
     0
  0
SCALE
  5
1607
102
{ACAD_REACTORS
330
1604
102
}
330
1604
100
AcDbScale
 70
     0
300
1:4
140
1.0
141
4.0
290
     0
  0
SCALE
  5
1608
102
{ACAD_REACTORS
330
1604
102
}
330
1604
100
AcDbScale
 70
     0
300
1:5
140
1.0
141
5.0
290
     0
  0
SCALE
  5
1609
102
{ACAD_REACTORS
330
1604
102
}
330
1604
100
AcDbScale
 70
     0
300
1:8
140
1.0
141
8.0
290
     0
  0
SCALE
  5
160A
102
{ACAD_REACTORS
330
1604
102
}
330
1604
100
AcDbScale
 70
     0
300
1:10
140
1.0
141
10.0
290
     0
  0
SCALE
  5
160B
102
{ACAD_REACTORS
330
1604
102
}
330
1604
100
AcDbScale
 70
     0
300
1:16
140
1.0
141
16.0
290
     0
  0
SCALE
  5
160C
102
{ACAD_REACTORS
330
1604
102
}
330
1604
100
AcDbScale
 70
     0
300
1:20
140
1.0
141
20.0
290
     0
  0
SCALE
  5
160D
102
{ACAD_REACTORS
330
1604
102
}
330
1604
100
AcDbScale
 70
     0
300
1:30
140
1.0
141
30.0
290
     0
  0
SCALE
  5
160E
102
{ACAD_REACTORS
330
1604
102
}
330
1604
100
AcDbScale
 70
     0
300
1:40
140
1.0
141
40.0
290
     0
  0
SCALE
  5
160F
102
{ACAD_REACTORS
330
1604
102
}
330
1604
100
AcDbScale
 70
     0
300
1:50
140
1.0
141
50.0
290
     0
  0
SCALE
  5
1610
102
{ACAD_REACTORS
330
1604
102
}
330
1604
100
AcDbScale
 70
     0
300
1:100
140
1.0
141
100.0
290
     0
  0
SCALE
  5
1611
102
{ACAD_REACTORS
330
1604
102
}
330
1604
100
AcDbScale
 70
     0
300
2:1
140
2.0
141
1.0
290
     0
  0
SCALE
  5
1612
102
{ACAD_REACTORS
330
1604
102
}
330
1604
100
AcDbScale
 70
     0
300
4:1
140
4.0
141
1.0
290
     0
  0
SCALE
  5
1613
102
{ACAD_REACTORS
330
1604
102
}
330
1604
100
AcDbScale
 70
     0
300
8:1
140
8.0
141
1.0
290
     0
  0
SCALE
  5
1614
102
{ACAD_REACTORS
330
1604
102
}
330
1604
100
AcDbScale
 70
     0
300
10:1
140
10.0
141
1.0
290
     0
  0
SCALE
  5
1615
102
{ACAD_REACTORS
330
1604
102
}
330
1604
100
AcDbScale
 70
     0
300
100:1
140
100.0
141
1.0
290
     0
  0
TABLESTYLE
  5
BAB
102
{ACAD_XDICTIONARY
360
1640
102
}
102
{ACAD_REACTORS
330
BAA
102
}
330
BAA
100
AcDbTableStyle
  3
Standard
 70
     0
 71
     0
 40
1.5
 41
1.5
280
     0
281
     0
  7
Standard
140
4.5
170
     2
 62
     0
 63
     7
283
     0
274
    -2
284
     1
 64
     0
275
    -2
285
     1
 65
     0
276
    -2
286
     1
 66
     0
277
    -2
287
     1
 67
     0
278
    -2
288
     1
 68
     0
279
    -2
289
     1
 69
     0
  7
Standard
140
6.0
170
     5
 62
     0
 63
     7
283
     0
274
    -2
284
     1
 64
     0
275
    -2
285
     1
 65
     0
276
    -2
286
     1
 66
     0
277
    -2
287
     1
 67
     0
278
    -2
288
     1
 68
     0
279
    -2
289
     1
 69
     0
  7
Standard
140
4.5
170
     5
 62
     0
 63
     7
283
     0
274
    -2
284
     1
 64
     0
275
    -2
285
     1
 65
     0
276
    -2
286
     1
 66
     0
277
    -2
287
     1
 67
     0
278
    -2
288
     1
 68
     0
279
    -2
289
     1
 69
     0
  0
VISUALSTYLE
  5
15F6
102
{ACAD_XDICTIONARY
360
1668
102
}
102
{ACAD_REACTORS
330
15F0
102
}
330
15F0
100
AcDbVisualStyle
  2
2dWireframe
 70
     4
 71
     0
 72
     2
 73
     0
 90
        0
 40
-0.6
 41
-30.0
 62
     5
 63
     7
 74
     1
 91
        4
 64
     7
 65
   257
 75
     1
175
     1
 42
1.0
 92
        0
 66
   257
 43
1.0
 76
     1
 77
     6
 78
     2
 67
     7
 79
     5
170
     0
171
     0
290
     0
174
     0
 93
        1
 44
0.0
173
     0
291
     0
 45
0.0
1001
ACAD
1000
AcDbSavedByObjectVersion
1070
     0
  0
VISUALSTYLE
  5
15F8
102
{ACAD_XDICTIONARY
360
166C
102
}
102
{ACAD_REACTORS
330
15F0
102
}
330
15F0
100
AcDbVisualStyle
  2
3D Hidden
 70
     6
 71
     1
 72
     2
 73
     2
 90
        0
 40
-0.6
 41
-30.0
 62
     5
 63
     7
 74
     2
 91
        2
 64
     7
 65
   257
 75
     2
175
     1
 42
179.0
 92
        0
 66
   257
 43
1.0
 76
     1
 77
     6
 78
     2
 67
     7
 79
     3
170
     0
171
     0
290
     0
174
     0
 93
        1
 44
0.0
173
     0
291
     0
 45
0.0
1001
ACAD
1000
AcDbSavedByObjectVersion
1070
     0
  0
VISUALSTYLE
  5
15F7
102
{ACAD_XDICTIONARY
360
166A
102
}
102
{ACAD_REACTORS
330
15F0
102
}
330
15F0
100
AcDbVisualStyle
  2
3dWireframe
 70
     5
 71
     0
 72
     2
 73
     0
 90
        0
 40
-0.6
 41
-30.0
 62
     5
 63
     7
 74
     1
 91
        4
 64
     7
 65
   257
 75
     1
175
     1
 42
1.0
 92
        0
 66
   257
 43
1.0
 76
     1
 77
     6
 78
     2
 67
     7
 79
     5
170
     0
171
     0
290
     0
174
     0
 93
        1
 44
0.0
173
     0
291
     0
 45
0.0
1001
ACAD
1000
AcDbSavedByObjectVersion
1070
     0
  0
VISUALSTYLE
  5
15F5
102
{ACAD_XDICTIONARY
360
1666
102
}
102
{ACAD_REACTORS
330
15F0
102
}
330
15F0
100
AcDbVisualStyle
  2
Basic
 70
     7
 71
     1
 72
     0
 73
     1
 90
        0
 40
-0.6
 41
-30.0
 62
     5
 63
     7
 74
     0
 91
        4
 64
     7
 65
   257
 75
     1
175
     1
 42
1.0
 92
        8
 66
     7
 43
1.0
 76
     1
 77
     6
 78
     2
 67
     7
 79
     5
170
     0
171
     0
290
     0
174
     0
 93
        1
 44
0.0
173
     0
291
     1
 45
0.0
1001
ACAD
1000
AcDbSavedByObjectVersion
1070
     0
  0
VISUALSTYLE
  5
15FC
102
{ACAD_XDICTIONARY
360
1674
102
}
102
{ACAD_REACTORS
330
15F0
102
}
330
15F0
100
AcDbVisualStyle
  2
Brighten
 70
    12
 71
     2
 72
     2
 73
     0
 90
        0
 40
-0.6
 41
-30.0
 62
     5
 63
     7
 74
     1
 91
        4
 64
     7
 65
   257
 75
     1
175
     1
 42
1.0
 92
        8
 66
     7
 43
1.0
 76
     1
 77
     6
 78
     2
 67
     7
 79
     5
170
     0
171
     0
290
     0
174
     0
 93
        1
 44
50.0
173
     0
291
     1
 45
0.0
1001
ACAD
1000
AcDbSavedByObjectVersion
1070
     0
  0
VISUALSTYLE
  5
1600
102
{ACAD_XDICTIONARY
360
167C
102
}
102
{ACAD_REACTORS
330
15F0
102
}
330
15F0
100
AcDbVisualStyle
  2
ColorChange
 70
    16
 71
     2
 72
     2
 73
     3
 90
        0
 40
-0.6
 41
-30.0
 62
     5
 63
     8
 74
     1
 91
        4
 64
     7
 65
   257
 75
     1
175
     1
 42
1.0
 92
        8
 66
     8
 43
1.0
 76
     1
 77
     6
 78
     2
 67
     7
 79
     5
170
     0
171
     0
290
     0
174
     0
 93
        1
 44
0.0
173
     0
291
     1
 45
0.0
1001
ACAD
1000
AcDbSavedByObjectVersion
1070
     0
  0
VISUALSTYLE
  5
15F9
102
{ACAD_XDICTIONARY
360
166E
102
}
102
{ACAD_REACTORS
330
15F0
102
}
330
15F0
100
AcDbVisualStyle
  2
Conceptual
 70
     9
 71
     3
 72
     2
 73
     0
 90
        0
 40
-0.6
 41
-30.0
 62
     5
 63
     7
 74
     2
 91
        2
 64
     7
 65
   257
 75
     1
175
     1
 42
179.0
 92
        8
 66
     7
 43
1.0
 76
     1
 77
     6
 78
     2
 67
     7
 79
     3
170
     0
171
     0
290
     0
174
     0
 93
        1
 44
0.0
173
     0
291
     0
 45
0.0
1001
ACAD
1000
AcDbSavedByObjectVersion
1070
     0
  0
VISUALSTYLE
  5
15FB
102
{ACAD_XDICTIONARY
360
1672
102
}
102
{ACAD_REACTORS
330
15F0
102
}
330
15F0
100
AcDbVisualStyle
  2
Dim
 70
    11
 71
     2
 72
     2
 73
     0
 90
        0
 40
-0.6
 41
-30.0
 62
     5
 63
     7
 74
     1
 91
        4
 64
     7
 65
   257
 75
     1
175
     1
 42
1.0
 92
        8
 66
     7
 43
1.0
 76
     1
 77
     6
 78
     2
 67
     7
 79
     5
170
     0
171
     0
290
     0
174
     0
 93
        1
 44
-50.0
173
     0
291
     1
 45
0.0
1001
ACAD
1000
AcDbSavedByObjectVersion
1070
     0
  0
VISUALSTYLE
  5
1603
102
{ACAD_XDICTIONARY
360
1682
102
}
102
{ACAD_REACTORS
330
15F0
102
}
330
15F0
100
AcDbVisualStyle
  2
EdgeColorOff
 70
    22
 71
     2
 72
     2
 73
     0
 90
        0
 40
-0.6
 41
-30.0
 62
     5
 63
     7
 74
     1
 91
        4
 64
     7
 65
   257
 75
     1
175
     1
 42
1.0
 92
        8
 66
     7
 43
1.0
 76
     1
 77
     6
 78
     2
 67
     7
 79
     5
170
     0
171
     0
290
     0
174
     0
 93
        1
 44
0.0
173
     0
291
     1
 45
0.0
1001
ACAD
1000
AcDbSavedByObjectVersion
1070
     0
  0
VISUALSTYLE
  5
15FF
102
{ACAD_XDICTIONARY
360
167A
102
}
102
{ACAD_REACTORS
330
15F0
102
}
330
15F0
100
AcDbVisualStyle
  2
Facepattern
 70
    15
 71
     2
 72
     2
 73
     0
 90
        0
 40
-0.6
 41
-30.0
 62
     5
 63
     7
 74
     1
 91
        4
 64
     7
 65
   257
 75
     1
175
     1
 42
1.0
 92
        8
 66
     7
 43
1.0
 76
     1
 77
     6
 78
     2
 67
     7
 79
     5
170
     0
171
     0
290
     0
174
     0
 93
        1
 44
0.0
173
     0
291
     1
 45
0.0
1001
ACAD
1000
AcDbSavedByObjectVersion
1070
     0
  0
VISUALSTYLE
  5
15F1
102
{ACAD_XDICTIONARY
360
165E
102
}
102
{ACAD_REACTORS
330
15F0
102
}
330
15F0
100
AcDbVisualStyle
  2
Flat
 70
     0
 71
     2
 72
     1
 73
     1
 90
        2
 40
-0.6
 41
30.0
 62
     5
 63
     7
 74
     0
 91
        4
 64
     7
 65
   257
 75
     1
175
     1
 42
1.0
 92
        8
 66
     7
 43
1.0
 76
     1
 77
     6
 78
     2
 67
     7
 79
     5
170
     0
171
     0
290
     0
174
     0
 93
       13
 44
0.0
173
     0
291
     1
 45
0.0
1001
ACAD
1000
AcDbSavedByObjectVersion
1070
     0
  0
VISUALSTYLE
  5
15F2
102
{ACAD_XDICTIONARY
360
1660
102
}
102
{ACAD_REACTORS
330
15F0
102
}
330
15F0
100
AcDbVisualStyle
  2
FlatWithEdges
 70
     1
 71
     2
 72
     1
 73
     1
 90
        2
 40
-0.6
 41
30.0
 62
     5
 63
     7
 74
     1
 91
        4
 64
     7
 65
   257
 75
     1
175
     1
 42
1.0
 92
        0
 66
   257
 43
1.0
 76
     1
 77
     6
 78
     2
 67
     7
 79
     5
170
     0
171
     0
290
     0
174
     0
 93
       13
 44
0.0
173
     0
291
     1
 45
0.0
1001
ACAD
1000
AcDbSavedByObjectVersion
1070
     0
  0
VISUALSTYLE
  5
15F3
102
{ACAD_XDICTIONARY
360
1662
102
}
102
{ACAD_REACTORS
330
15F0
102
}
330
15F0
100
AcDbVisualStyle
  2
Gouraud
 70
     2
 71
     2
 72
     2
 73
     1
 90
        2
 40
-0.6
 41
30.0
 62
     5
 63
     7
 74
     0
 91
        4
 64
     7
 65
   257
 75
     1
175
     1
 42
1.0
 92
        0
 66
     7
 43
1.0
 76
     1
 77
     6
 78
     2
 67
     7
 79
     5
170
     0
171
     0
290
     0
174
     0
 93
       13
 44
0.0
173
     0
291
     1
 45
0.0
1001
ACAD
1000
AcDbSavedByObjectVersion
1070
     0
  0
VISUALSTYLE
  5
15F4
102
{ACAD_XDICTIONARY
360
1664
102
}
102
{ACAD_REACTORS
330
15F0
102
}
330
15F0
100
AcDbVisualStyle
  2
GouraudWithEdges
 70
     3
 71
     2
 72
     2
 73
     1
 90
        2
 40
-0.6
 41
30.0
 62
     5
 63
     7
 74
     1
 91
        4
 64
     7
 65
   257
 75
     1
175
     1
 42
1.0
 92
        0
 66
   257
 43
1.0
 76
     1
 77
     6
 78
     2
 67
     7
 79
     5
170
     0
171
     0
290
     0
174
     0
 93
       13
 44
0.0
173
     0
291
     1
 45
0.0
1001
ACAD
1000
AcDbSavedByObjectVersion
1070
     0
  0
VISUALSTYLE
  5
1601
102
{ACAD_XDICTIONARY
360
167E
102
}
102
{ACAD_REACTORS
330
15F0
102
}
330
15F0
100
AcDbVisualStyle
  2
JitterOff
 70
    20
 71
     2
 72
     2
 73
     0
 90
        0
 40
-0.6
 41
-30.0
 62
     5
 63
     7
 74
     1
 91
        4
 64
     7
 65
   257
 75
     1
175
     1
 42
1.0
 92
       10
 66
     7
 43
1.0
 76
     1
 77
     6
 78
     2
 67
     7
 79
     5
170
     0
171
     0
290
     0
174
     0
 93
        1
 44
0.0
173
     0
291
     1
 45
0.0
1001
ACAD
1000
AcDbSavedByObjectVersion
1070
     0
  0
VISUALSTYLE
  5
15FE
102
{ACAD_XDICTIONARY
360
1678
102
}
102
{ACAD_REACTORS
330
15F0
102
}
330
15F0
100
AcDbVisualStyle
  2
Linepattern
 70
    14
 71
     2
 72
     2
 73
     0
 90
        0
 40
-0.6
 41
-30.0
 62
     5
 63
     7
 74
     1
 91
        4
 64
     7
 65
   257
 75
     7
175
     7
 42
1.0
 92
        8
 66
     7
 43
1.0
 76
     1
 77
     6
 78
     2
 67
     7
 79
     5
170
     0
171
     0
290
     0
174
     0
 93
        1
 44
0.0
173
     0
291
     1
 45
0.0
1001
ACAD
1000
AcDbSavedByObjectVersion
1070
     0
  0
VISUALSTYLE
  5
1602
102
{ACAD_XDICTIONARY
360
1680
102
}
102
{ACAD_REACTORS
330
15F0
102
}
330
15F0
100
AcDbVisualStyle
  2
OverhangOff
 70
    21
 71
     2
 72
     2
 73
     0
 90
        0
 40
-0.6
 41
-30.0
 62
     5
 63
     7
 74
     1
 91
        4
 64
     7
 65
   257
 75
     1
175
     1
 42
1.0
 92
        9
 66
     7
 43
1.0
 76
     1
 77
     6
 78
     2
 67
     7
 79
     5
170
     0
171
     0
290
     0
174
     0
 93
        1
 44
0.0
173
     0
291
     1
 45
0.0
1001
ACAD
1000
AcDbSavedByObjectVersion
1070
     0
  0
VISUALSTYLE
  5
15FA
102
{ACAD_XDICTIONARY
360
1670
102
}
102
{ACAD_REACTORS
330
15F0
102
}
330
15F0
100
AcDbVisualStyle
  2
Realistic
 70
     8
 71
     2
 72
     2
 73
     0
 90
        0
 40
-0.6
 41
-30.0
 62
     5
 63
     7
 74
     1
 91
        0
 64
     7
 65
   257
 75
     1
175
     1
 42
1.0
 92
        8
 66
     8
 43
1.0
 76
     1
 77
     6
 78
     2
 67
     7
 79
     5
170
     0
171
     0
290
     0
174
     0
 93
       13
 44
0.0
173
     0
291
     0
 45
0.0
1001
ACAD
1000
AcDbSavedByObjectVersion
1070
     0
  0
VISUALSTYLE
  5
15FD
102
{ACAD_XDICTIONARY
360
1676
102
}
102
{ACAD_REACTORS
330
15F0
102
}
330
15F0
100
AcDbVisualStyle
  2
Thicken
 70
    13
 71
     2
 72
     2
 73
     0
 90
        0
 40
-0.6
 41
-30.0
 62
     5
 63
     7
 74
     1
 91
        4
 64
     7
 65
   257
 75
     1
175
     1
 42
1.0
 92
       12
 66
     7
 43
1.0
 76
     1
 77
     6
 78
     2
 67
     7
 79
     5
170
     0
171
     0
290
     0
174
     0
 93
        1
 44
0.0
173
     0
291
     1
 45
0.0
1001
ACAD
1000
AcDbSavedByObjectVersion
1070
     0
  0
DICTIONARYVAR
  5
163C
102
{ACAD_REACTORS
330
3D
102
}
330
3D
100
DictionaryVariables
280
     0
  1
1:1
  0
DICTIONARYVAR
  5
163B
102
{ACAD_REACTORS
330
3D
102
}
330
3D
100
DictionaryVariables
280
     0
  1
STANDARD
  0
DICTIONARYVAR
  5
15CA
102
{ACAD_REACTORS
330
3D
102
}
330
3D
100
DictionaryVariables
280
     0
  1
STANDARD
  0
DICTIONARYVAR
  5
3F
102
{ACAD_REACTORS
330
3D
102
}
330
3D
100
DictionaryVariables
280
     0
  1
2
  0
DICTIONARYVAR
  5
3E
102
{ACAD_REACTORS
330
3D
102
}
330
3D
100
DictionaryVariables
280
     0
  1
1
  0
DICTIONARYVAR
  5
163E
102
{ACAD_REACTORS
330
3D
102
}
330
3D
100
DictionaryVariables
280
     0
  1
0
  0
DICTIONARYVAR
  5
15D6
102
{ACAD_REACTORS
330
3D
102
}
330
3D
100
DictionaryVariables
280
     0
  1

  0
DICTIONARYVAR
  5
163D
102
{ACAD_REACTORS
330
3D
102
}
330
3D
100
DictionaryVariables
280
     0
  1
127
  0
DICTIONARYVAR
  5
163F
102
{ACAD_REACTORS
330
3D
102
}
330
3D
100
DictionaryVariables
280
     0
  1
2
  0
XRECORD
  5
15C8
102
{ACAD_REACTORS
330
15C7
102
}
330
15C7
100
AcDbXrecord
280
     1
  0
DICTIONARY
  5
1644
330
1E
100
AcDbDictionary
280
     1
281
     1
  3
ACAD_XREC_ROUNDTRIP
360
1645
  0
DICTIONARY
  5
1648
330
26
100
AcDbDictionary
280
     1
281
     1
  3
ACAD_XREC_ROUNDTRIP
360
1649
  0
DICTIONARY
  5
1646
330
22
100
AcDbDictionary
280
     1
281
     1
  3
ACAD_XREC_ROUNDTRIP
360
1647
  0
DICTIONARY
  5
15E1
330
15E0
100
AcDbDictionary
280
     1
281
     1
  3
ACAD_XREC_ROUNDTRIP
360
165C
  3
BUMPTILE
360
15E3
  3
DIFFUSETILE
360
15E2
  3
OPACITYTILE
360
15E6
  3
REFLECTIONTILE
360
15E5
  3
REFRACTIONTILE
360
15E7
  3
SPECULARTILE
360
15E4
  0
DICTIONARY
  5
15D9
330
15D8
100
AcDbDictionary
280
     1
281
     1
  3
ACAD_XREC_ROUNDTRIP
360
165B
  3
BUMPTILE
360
15DB
  3
DIFFUSETILE
360
15DA
  3
OPACITYTILE
360
15DE
  3
REFLECTIONTILE
360
15DD
  3
REFRACTIONTILE
360
15DF
  3
SPECULARTILE
360
15DC
  0
DICTIONARY
  5
15E9
330
15E8
100
AcDbDictionary
280
     1
281
     1
  3
ACAD_XREC_ROUNDTRIP
360
165D
  3
BUMPTILE
360
15EB
  3
DIFFUSETILE
360
15EA
  3
OPACITYTILE
360
15EE
  3
REFLECTIONTILE
360
15ED
  3
REFRACTIONTILE
360
15EF
  3
SPECULARTILE
360
15EC
  0
DICTIONARY
  5
1640
330
BAB
100
AcDbDictionary
280
     1
281
     1
  3
ACAD_ROUNDTRIP_2008_TABLESTYLE_CELLSTYLEMAP
360
1641
  3
ACAD_XREC_ROUNDTRIP
360
164A
  0
DICTIONARY
  5
1668
330
15F6
100
AcDbDictionary
280
     1
281
     1
  3
ACAD_XREC_ROUNDTRIP
360
1669
  0
DICTIONARY
  5
166C
330
15F8
100
AcDbDictionary
280
     1
281
     1
  3
ACAD_XREC_ROUNDTRIP
360
166D
  0
DICTIONARY
  5
166A
330
15F7
100
AcDbDictionary
280
     1
281
     1
  3
ACAD_XREC_ROUNDTRIP
360
166B
  0
DICTIONARY
  5
1666
330
15F5
100
AcDbDictionary
280
     1
281
     1
  3
ACAD_XREC_ROUNDTRIP
360
1667
  0
DICTIONARY
  5
1674
330
15FC
100
AcDbDictionary
280
     1
281
     1
  3
ACAD_XREC_ROUNDTRIP
360
1675
  0
DICTIONARY
  5
167C
330
1600
100
AcDbDictionary
280
     1
281
     1
  3
ACAD_XREC_ROUNDTRIP
360
167D
  0
DICTIONARY
  5
166E
330
15F9
100
AcDbDictionary
280
     1
281
     1
  3
ACAD_XREC_ROUNDTRIP
360
166F
  0
DICTIONARY
  5
1672
330
15FB
100
AcDbDictionary
280
     1
281
     1
  3
ACAD_XREC_ROUNDTRIP
360
1673
  0
DICTIONARY
  5
1682
330
1603
100
AcDbDictionary
280
     1
281
     1
  3
ACAD_XREC_ROUNDTRIP
360
1683
  0
DICTIONARY
  5
167A
330
15FF
100
AcDbDictionary
280
     1
281
     1
  3
ACAD_XREC_ROUNDTRIP
360
167B
  0
DICTIONARY
  5
165E
330
15F1
100
AcDbDictionary
280
     1
281
     1
  3
ACAD_XREC_ROUNDTRIP
360
165F
  0
DICTIONARY
  5
1660
330
15F2
100
AcDbDictionary
280
     1
281
     1
  3
ACAD_XREC_ROUNDTRIP
360
1661
  0
DICTIONARY
  5
1662
330
15F3
100
AcDbDictionary
280
     1
281
     1
  3
ACAD_XREC_ROUNDTRIP
360
1663
  0
DICTIONARY
  5
1664
330
15F4
100
AcDbDictionary
280
     1
281
     1
  3
ACAD_XREC_ROUNDTRIP
360
1665
  0
DICTIONARY
  5
167E
330
1601
100
AcDbDictionary
280
     1
281
     1
  3
ACAD_XREC_ROUNDTRIP
360
167F
  0
DICTIONARY
  5
1678
330
15FE
100
AcDbDictionary
280
     1
281
     1
  3
ACAD_XREC_ROUNDTRIP
360
1679
  0
DICTIONARY
  5
1680
330
1602
100
AcDbDictionary
280
     1
281
     1
  3
ACAD_XREC_ROUNDTRIP
360
1681
  0
DICTIONARY
  5
1670
330
15FA
100
AcDbDictionary
280
     1
281
     1
  3
ACAD_XREC_ROUNDTRIP
360
1671
  0
DICTIONARY
  5
1676
330
15FD
100
AcDbDictionary
280
     1
281
     1
  3
ACAD_XREC_ROUNDTRIP
360
1677
  0
XRECORD
  5
1645
102
{ACAD_REACTORS
330
1644
102
}
330
1644
100
AcDbXrecord
280
     1
102
SHADEPLOT
 70
     0
102
SHADEPLOTRESLEVEL
 70
     2
102
SHADEPLOTCUSTOMDPI
 70
   300
  0
XRECORD
  5
1649
102
{ACAD_REACTORS
330
1648
102
}
330
1648
100
AcDbXrecord
280
     1
102
SHADEPLOT
 70
     0
102
SHADEPLOTRESLEVEL
 70
     2
102
SHADEPLOTCUSTOMDPI
 70
   300
  0
XRECORD
  5
1647
102
{ACAD_REACTORS
330
1646
102
}
330
1646
100
AcDbXrecord
280
     1
102
SHADEPLOT
 70
     0
102
SHADEPLOTRESLEVEL
 70
     2
102
SHADEPLOTCUSTOMDPI
 70
   300
  0
XRECORD
  5
165C
102
{ACAD_REACTORS
330
15E1
102
}
330
15E1
100
AcDbXrecord
280
     1
102
MATERIAL
148
0.0
149
0.0
149
0.0
 93
        0
 94
      127
282
     0
 72
     0
 77
     0
171
     0
175
     0
179
     0
273
     0
  0
XRECORD
  5
15E3
102
{ACAD_REACTORS
330
15E1
102
}
330
15E1
100
AcDbXrecord
280
     1
270
     1
271
     1
  0
XRECORD
  5
15E2
102
{ACAD_REACTORS
330
15E1
102
}
330
15E1
100
AcDbXrecord
280
     1
270
     1
271
     1
  0
XRECORD
  5
15E6
102
{ACAD_REACTORS
330
15E1
102
}
330
15E1
100
AcDbXrecord
280
     1
270
     1
271
     1
  0
XRECORD
  5
15E5
102
{ACAD_REACTORS
330
15E1
102
}
330
15E1
100
AcDbXrecord
280
     1
270
     1
271
     1
  0
XRECORD
  5
15E7
102
{ACAD_REACTORS
330
15E1
102
}
330
15E1
100
AcDbXrecord
280
     1
270
     1
271
     1
  0
XRECORD
  5
15E4
102
{ACAD_REACTORS
330
15E1
102
}
330
15E1
100
AcDbXrecord
280
     1
270
     1
271
     1
  0
XRECORD
  5
165B
102
{ACAD_REACTORS
330
15D9
102
}
330
15D9
100
AcDbXrecord
280
     1
102
MATERIAL
148
0.0
149
0.0
149
0.0
 93
        0
 94
      127
282
     0
 72
     0
 77
     0
171
     0
175
     0
179
     0
273
     0
  0
XRECORD
  5
15DB
102
{ACAD_REACTORS
330
15D9
102
}
330
15D9
100
AcDbXrecord
280
     1
270
     1
271
     1
  0
XRECORD
  5
15DA
102
{ACAD_REACTORS
330
15D9
102
}
330
15D9
100
AcDbXrecord
280
     1
270
     1
271
     1
  0
XRECORD
  5
15DE
102
{ACAD_REACTORS
330
15D9
102
}
330
15D9
100
AcDbXrecord
280
     1
270
     1
271
     1
  0
XRECORD
  5
15DD
102
{ACAD_REACTORS
330
15D9
102
}
330
15D9
100
AcDbXrecord
280
     1
270
     1
271
     1
  0
XRECORD
  5
15DF
102
{ACAD_REACTORS
330
15D9
102
}
330
15D9
100
AcDbXrecord
280
     1
270
     1
271
     1
  0
XRECORD
  5
15DC
102
{ACAD_REACTORS
330
15D9
102
}
330
15D9
100
AcDbXrecord
280
     1
270
     1
271
     1
  0
XRECORD
  5
165D
102
{ACAD_REACTORS
330
15E9
102
}
330
15E9
100
AcDbXrecord
280
     1
102
MATERIAL
148
0.0
149
0.0
149
0.0
 93
        0
 94
      127
282
     0
 72
     0
 77
     0
171
     0
175
     0
179
     0
273
     0
  0
XRECORD
  5
15EB
102
{ACAD_REACTORS
330
15E9
102
}
330
15E9
100
AcDbXrecord
280
     1
270
     1
271
     1
  0
XRECORD
  5
15EA
102
{ACAD_REACTORS
330
15E9
102
}
330
15E9
100
AcDbXrecord
280
     1
270
     1
271
     1
  0
XRECORD
  5
15EE
102
{ACAD_REACTORS
330
15E9
102
}
330
15E9
100
AcDbXrecord
280
     1
270
     1
271
     1
  0
XRECORD
  5
15ED
102
{ACAD_REACTORS
330
15E9
102
}
330
15E9
100
AcDbXrecord
280
     1
270
     1
271
     1
  0
XRECORD
  5
15EF
102
{ACAD_REACTORS
330
15E9
102
}
330
15E9
100
AcDbXrecord
280
     1
270
     1
271
     1
  0
XRECORD
  5
15EC
102
{ACAD_REACTORS
330
15E9
102
}
330
15E9
100
AcDbXrecord
280
     1
270
     1
271
     1
  0
CELLSTYLEMAP
  5
1641
102
{ACAD_REACTORS
330
1640
102
}
330
1640
100
AcDbCellStyleMap
 90
        3
300
CELLSTYLE
  1
TABLEFORMAT_BEGIN
 90
        5
170
     1
 91
        0
 92
    32768
 62
   257
 93
        1
300
CONTENTFORMAT
  1
CONTENTFORMAT_BEGIN
 90
        0
 91
        0
 92
        4
 93
        0
300

 40
0.0
140
1.0
 94
        5
 62
     0
340
11
144
6.0
309
CONTENTFORMAT_END
171
     1
301
MARGIN
  1
CELLMARGIN_BEGIN
 40
1.5
 40
1.5
 40
1.5
 40
1.5
 40
0.18
 40
0.18
309
CELLMARGIN_END
 94
        6
 95
        1
302
GRIDFORMAT
  1
GRIDFORMAT_BEGIN
 90
        0
 91
        1
 62
     0
 92
       -2
340
0
 93
        0
 40
0.045
309
GRIDFORMAT_END
 95
        2
302
GRIDFORMAT
  1
GRIDFORMAT_BEGIN
 90
        0
 91
        1
 62
     0
 92
       -2
340
0
 93
        0
 40
0.045
309
GRIDFORMAT_END
 95
        4
302
GRIDFORMAT
  1
GRIDFORMAT_BEGIN
 90
        0
 91
        1
 62
     0
 92
       -2
340
0
 93
        0
 40
0.045
309
GRIDFORMAT_END
 95
        8
302
GRIDFORMAT
  1
GRIDFORMAT_BEGIN
 90
        0
 91
        1
 62
     0
 92
       -2
340
0
 93
        0
 40
0.045
309
GRIDFORMAT_END
 95
       16
302
GRIDFORMAT
  1
GRIDFORMAT_BEGIN
 90
        0
 91
        1
 62
     0
 92
       -2
340
0
 93
        0
 40
0.045
309
GRIDFORMAT_END
 95
       32
302
GRIDFORMAT
  1
GRIDFORMAT_BEGIN
 90
        0
 91
        1
 62
     0
 92
       -2
340
0
 93
        0
 40
0.045
309
GRIDFORMAT_END
309
TABLEFORMAT_END
  1
CELLSTYLE_BEGIN
 90
        1
 91
        1
300
_TITLE
309
CELLSTYLE_END
300
CELLSTYLE
  1
TABLEFORMAT_BEGIN
 90
        5
170
     1
 91
        0
 92
        0
 62
   257
 93
        1
300
CONTENTFORMAT
  1
CONTENTFORMAT_BEGIN
 90
        0
 91
        0
 92
        4
 93
        0
300

 40
0.0
140
1.0
 94
        5
 62
     0
340
11
144
4.5
309
CONTENTFORMAT_END
171
     1
301
MARGIN
  1
CELLMARGIN_BEGIN
 40
1.5
 40
1.5
 40
1.5
 40
1.5
 40
0.18
 40
0.18
309
CELLMARGIN_END
 94
        6
 95
        1
302
GRIDFORMAT
  1
GRIDFORMAT_BEGIN
 90
        0
 91
        1
 62
     0
 92
       -2
340
0
 93
        0
 40
0.045
309
GRIDFORMAT_END
 95
        2
302
GRIDFORMAT
  1
GRIDFORMAT_BEGIN
 90
        0
 91
        1
 62
     0
 92
       -2
340
0
 93
        0
 40
0.045
309
GRIDFORMAT_END
 95
        4
302
GRIDFORMAT
  1
GRIDFORMAT_BEGIN
 90
        0
 91
        1
 62
     0
 92
       -2
340
0
 93
        0
 40
0.045
309
GRIDFORMAT_END
 95
        8
302
GRIDFORMAT
  1
GRIDFORMAT_BEGIN
 90
        0
 91
        1
 62
     0
 92
       -2
340
0
 93
        0
 40
0.045
309
GRIDFORMAT_END
 95
       16
302
GRIDFORMAT
  1
GRIDFORMAT_BEGIN
 90
        0
 91
        1
 62
     0
 92
       -2
340
0
 93
        0
 40
0.045
309
GRIDFORMAT_END
 95
       32
302
GRIDFORMAT
  1
GRIDFORMAT_BEGIN
 90
        0
 91
        1
 62
     0
 92
       -2
340
0
 93
        0
 40
0.045
309
GRIDFORMAT_END
309
TABLEFORMAT_END
  1
CELLSTYLE_BEGIN
 90
        2
 91
        1
300
_HEADER
309
CELLSTYLE_END
300
CELLSTYLE
  1
TABLEFORMAT_BEGIN
 90
        5
170
     1
 91
        0
 92
        0
 62
   257
 93
        1
300
CONTENTFORMAT
  1
CONTENTFORMAT_BEGIN
 90
        0
 91
        0
 92
        4
 93
        0
300

 40
0.0
140
1.0
 94
        2
 62
     0
340
11
144
4.5
309
CONTENTFORMAT_END
171
     1
301
MARGIN
  1
CELLMARGIN_BEGIN
 40
1.5
 40
1.5
 40
1.5
 40
1.5
 40
0.18
 40
0.18
309
CELLMARGIN_END
 94
        6
 95
        1
302
GRIDFORMAT
  1
GRIDFORMAT_BEGIN
 90
        0
 91
        1
 62
     0
 92
       -2
340
0
 93
        0
 40
0.045
309
GRIDFORMAT_END
 95
        2
302
GRIDFORMAT
  1
GRIDFORMAT_BEGIN
 90
        0
 91
        1
 62
     0
 92
       -2
340
0
 93
        0
 40
0.045
309
GRIDFORMAT_END
 95
        4
302
GRIDFORMAT
  1
GRIDFORMAT_BEGIN
 90
        0
 91
        1
 62
     0
 92
       -2
340
0
 93
        0
 40
0.045
309
GRIDFORMAT_END
 95
        8
302
GRIDFORMAT
  1
GRIDFORMAT_BEGIN
 90
        0
 91
        1
 62
     0
 92
       -2
340
0
 93
        0
 40
0.045
309
GRIDFORMAT_END
 95
       16
302
GRIDFORMAT
  1
GRIDFORMAT_BEGIN
 90
        0
 91
        1
 62
     0
 92
       -2
340
0
 93
        0
 40
0.045
309
GRIDFORMAT_END
 95
       32
302
GRIDFORMAT
  1
GRIDFORMAT_BEGIN
 90
        0
 91
        1
 62
     0
 92
       -2
340
0
 93
        0
 40
0.045
309
GRIDFORMAT_END
309
TABLEFORMAT_END
  1
CELLSTYLE_BEGIN
 90
        3
 91
        2
300
_DATA
309
CELLSTYLE_END
  0
XRECORD
  5
164A
102
{ACAD_REACTORS
330
1640
102
}
330
1640
100
AcDbXrecord
280
     1
102
ACAD_ROUNDTRIP_PRE2007_TABLESTYLE
 90
        4
 91
        0
  1

 92
        4
 93
        0
  2

 94
        4
 95
        0
  3

  0
XRECORD
  5
1669
102
{ACAD_REACTORS
330
1668
102
}
330
1668
100
AcDbXrecord
280
     1
102
RTVSPropertyOp0
 70
     1
102
RTVSPropertyOp1
 70
     1
102
RTVSPropertyOp2
 70
     1
102
RTVSPropertyOp3
 70
     1
102
RTVSPropertyOp4
 70
     1
102
RTVSPropertyOp5
 70
     1
102
RTVSPropertyOp6
 70
     1
102
RTVSPropertyOp7
 70
     1
102
RTVSPropertyOp8
 70
     1
102
RTVSPropertyOp9
 70
     1
102
RTVSPropertyOp10
 70
     1
102
RTVSPropertyOp11
 70
     1
102
RTVSPropertyOp12
 70
     1
102
RTVSPropertyOp13
 70
     1
102
RTVSPropertyOp14
 70
     1
102
RTVSPropertyOp15
 70
     1
102
RTVSPropertyOp16
 70
     1
102
RTVSPropertyOp17
 70
     1
102
RTVSPropertyOp18
 70
     1
102
RTVSPropertyOp19
 70
     1
102
RTVSPropertyOp20
 70
     1
102
RTVSPropertyOp21
 70
     1
102
RTVSPropertyOp22
 70
     1
102
RTVSPropertyOp23
 70
     1
102
RTVSPropertyOp24
 70
     1
102
RTVSPropertyOp25
 70
     1
102
RTVSPropertyOp26
 70
     1
102
RTVSPropertyOp27
 70
     1
  0
XRECORD
  5
166D
102
{ACAD_REACTORS
330
166C
102
}
330
166C
100
AcDbXrecord
280
     1
102
RTVSPropertyOp0
 70
     1
102
RTVSPropertyOp1
 70
     1
102
RTVSPropertyOp2
 70
     1
102
RTVSPropertyOp3
 70
     1
102
RTVSPropertyOp4
 70
     1
102
RTVSPropertyOp5
 70
     1
102
RTVSPropertyOp6
 70
     1
102
RTVSPropertyOp7
 70
     1
102
RTVSPropertyOp8
 70
     1
102
RTVSPropertyOp9
 70
     1
102
RTVSPropertyOp10
 70
     1
102
RTVSPropertyOp11
 70
     1
102
RTVSPropertyOp12
 70
     1
102
RTVSPropertyOp13
 70
     1
102
RTVSPropertyOp14
 70
     1
102
RTVSPropertyOp15
 70
     1
102
RTVSPropertyOp16
 70
     1
102
RTVSPropertyOp17
 70
     1
102
RTVSPropertyOp18
 70
     1
102
RTVSPropertyOp19
 70
     1
102
RTVSPropertyOp20
 70
     1
102
RTVSPropertyOp21
 70
     1
102
RTVSPropertyOp22
 70
     1
102
RTVSPropertyOp23
 70
     1
102
RTVSPropertyOp24
 70
     1
102
RTVSPropertyOp25
 70
     1
102
RTVSPropertyOp26
 70
     1
102
RTVSPropertyOp27
 70
     1
  0
XRECORD
  5
166B
102
{ACAD_REACTORS
330
166A
102
}
330
166A
100
AcDbXrecord
280
     1
102
RTVSPropertyOp0
 70
     1
102
RTVSPropertyOp1
 70
     1
102
RTVSPropertyOp2
 70
     1
102
RTVSPropertyOp3
 70
     1
102
RTVSPropertyOp4
 70
     1
102
RTVSPropertyOp5
 70
     1
102
RTVSPropertyOp6
 70
     1
102
RTVSPropertyOp7
 70
     1
102
RTVSPropertyOp8
 70
     1
102
RTVSPropertyOp9
 70
     1
102
RTVSPropertyOp10
 70
     1
102
RTVSPropertyOp11
 70
     1
102
RTVSPropertyOp12
 70
     1
102
RTVSPropertyOp13
 70
     1
102
RTVSPropertyOp14
 70
     1
102
RTVSPropertyOp15
 70
     1
102
RTVSPropertyOp16
 70
     1
102
RTVSPropertyOp17
 70
     1
102
RTVSPropertyOp18
 70
     1
102
RTVSPropertyOp19
 70
     1
102
RTVSPropertyOp20
 70
     1
102
RTVSPropertyOp21
 70
     1
102
RTVSPropertyOp22
 70
     1
102
RTVSPropertyOp23
 70
     1
102
RTVSPropertyOp24
 70
     1
102
RTVSPropertyOp25
 70
     1
102
RTVSPropertyOp26
 70
     1
102
RTVSPropertyOp27
 70
     1
  0
XRECORD
  5
1667
102
{ACAD_REACTORS
330
1666
102
}
330
1666
100
AcDbXrecord
280
     1
102
RTVSPropertyOp0
 70
     1
102
RTVSPropertyOp1
 70
     1
102
RTVSPropertyOp2
 70
     1
102
RTVSPropertyOp3
 70
     1
102
RTVSPropertyOp4
 70
     1
102
RTVSPropertyOp5
 70
     1
102
RTVSPropertyOp6
 70
     1
102
RTVSPropertyOp7
 70
     1
102
RTVSPropertyOp8
 70
     1
102
RTVSPropertyOp9
 70
     1
102
RTVSPropertyOp10
 70
     1
102
RTVSPropertyOp11
 70
     1
102
RTVSPropertyOp12
 70
     1
102
RTVSPropertyOp13
 70
     1
102
RTVSPropertyOp14
 70
     1
102
RTVSPropertyOp15
 70
     1
102
RTVSPropertyOp16
 70
     1
102
RTVSPropertyOp17
 70
     1
102
RTVSPropertyOp18
 70
     1
102
RTVSPropertyOp19
 70
     1
102
RTVSPropertyOp20
 70
     1
102
RTVSPropertyOp21
 70
     1
102
RTVSPropertyOp22
 70
     1
102
RTVSPropertyOp23
 70
     1
102
RTVSPropertyOp24
 70
     1
102
RTVSPropertyOp25
 70
     1
102
RTVSPropertyOp26
 70
     1
102
RTVSPropertyOp27
 70
     1
  0
XRECORD
  5
1675
102
{ACAD_REACTORS
330
1674
102
}
330
1674
100
AcDbXrecord
280
     1
102
RTVSPropertyOp0
 70
     1
102
RTVSPropertyOp1
 70
     1
102
RTVSPropertyOp2
 70
     1
102
RTVSPropertyOp3
 70
     1
102
RTVSPropertyOp4
 70
     1
102
RTVSPropertyOp5
 70
     1
102
RTVSPropertyOp6
 70
     1
102
RTVSPropertyOp7
 70
     1
102
RTVSPropertyOp8
 70
     1
102
RTVSPropertyOp9
 70
     1
102
RTVSPropertyOp10
 70
     1
102
RTVSPropertyOp11
 70
     1
102
RTVSPropertyOp12
 70
     1
102
RTVSPropertyOp13
 70
     1
102
RTVSPropertyOp14
 70
     1
102
RTVSPropertyOp15
 70
     1
102
RTVSPropertyOp16
 70
     1
102
RTVSPropertyOp17
 70
     1
102
RTVSPropertyOp18
 70
     1
102
RTVSPropertyOp19
 70
     1
102
RTVSPropertyOp20
 70
     1
102
RTVSPropertyOp21
 70
     1
102
RTVSPropertyOp22
 70
     1
102
RTVSPropertyOp23
 70
     1
102
RTVSPropertyOp24
 70
     1
102
RTVSPropertyOp25
 70
     1
102
RTVSPropertyOp26
 70
     1
102
RTVSPropertyOp27
 70
     1
  0
XRECORD
  5
167D
102
{ACAD_REACTORS
330
167C
102
}
330
167C
100
AcDbXrecord
280
     1
102
RTVSPropertyOp0
 70
     1
102
RTVSPropertyOp1
 70
     1
102
RTVSPropertyOp2
 70
     1
102
RTVSPropertyOp3
 70
     1
102
RTVSPropertyOp4
 70
     1
102
RTVSPropertyOp5
 70
     1
102
RTVSPropertyOp6
 70
     1
102
RTVSPropertyOp7
 70
     1
102
RTVSPropertyOp8
 70
     1
102
RTVSPropertyOp9
 70
     1
102
RTVSPropertyOp10
 70
     1
102
RTVSPropertyOp11
 70
     1
102
RTVSPropertyOp12
 70
     1
102
RTVSPropertyOp13
 70
     1
102
RTVSPropertyOp14
 70
     1
102
RTVSPropertyOp15
 70
     1
102
RTVSPropertyOp16
 70
     1
102
RTVSPropertyOp17
 70
     1
102
RTVSPropertyOp18
 70
     1
102
RTVSPropertyOp19
 70
     1
102
RTVSPropertyOp20
 70
     1
102
RTVSPropertyOp21
 70
     1
102
RTVSPropertyOp22
 70
     1
102
RTVSPropertyOp23
 70
     1
102
RTVSPropertyOp24
 70
     1
102
RTVSPropertyOp25
 70
     1
102
RTVSPropertyOp26
 70
     1
102
RTVSPropertyOp27
 70
     1
  0
XRECORD
  5
166F
102
{ACAD_REACTORS
330
166E
102
}
330
166E
100
AcDbXrecord
280
     1
102
RTVSPropertyOp0
 70
     1
102
RTVSPropertyOp1
 70
     1
102
RTVSPropertyOp2
 70
     1
102
RTVSPropertyOp3
 70
     1
102
RTVSPropertyOp4
 70
     1
102
RTVSPropertyOp5
 70
     1
102
RTVSPropertyOp6
 70
     1
102
RTVSPropertyOp7
 70
     1
102
RTVSPropertyOp8
 70
     1
102
RTVSPropertyOp9
 70
     1
102
RTVSPropertyOp10
 70
     1
102
RTVSPropertyOp11
 70
     1
102
RTVSPropertyOp12
 70
     1
102
RTVSPropertyOp13
 70
     1
102
RTVSPropertyOp14
 70
     1
102
RTVSPropertyOp15
 70
     1
102
RTVSPropertyOp16
 70
     1
102
RTVSPropertyOp17
 70
     1
102
RTVSPropertyOp18
 70
     1
102
RTVSPropertyOp19
 70
     1
102
RTVSPropertyOp20
 70
     1
102
RTVSPropertyOp21
 70
     1
102
RTVSPropertyOp22
 70
     1
102
RTVSPropertyOp23
 70
     1
102
RTVSPropertyOp24
 70
     1
102
RTVSPropertyOp25
 70
     1
102
RTVSPropertyOp26
 70
     1
102
RTVSPropertyOp27
 70
     1
  0
XRECORD
  5
1673
102
{ACAD_REACTORS
330
1672
102
}
330
1672
100
AcDbXrecord
280
     1
102
RTVSPropertyOp0
 70
     1
102
RTVSPropertyOp1
 70
     1
102
RTVSPropertyOp2
 70
     1
102
RTVSPropertyOp3
 70
     1
102
RTVSPropertyOp4
 70
     1
102
RTVSPropertyOp5
 70
     1
102
RTVSPropertyOp6
 70
     1
102
RTVSPropertyOp7
 70
     1
102
RTVSPropertyOp8
 70
     1
102
RTVSPropertyOp9
 70
     1
102
RTVSPropertyOp10
 70
     1
102
RTVSPropertyOp11
 70
     1
102
RTVSPropertyOp12
 70
     1
102
RTVSPropertyOp13
 70
     1
102
RTVSPropertyOp14
 70
     1
102
RTVSPropertyOp15
 70
     1
102
RTVSPropertyOp16
 70
     1
102
RTVSPropertyOp17
 70
     1
102
RTVSPropertyOp18
 70
     1
102
RTVSPropertyOp19
 70
     1
102
RTVSPropertyOp20
 70
     1
102
RTVSPropertyOp21
 70
     1
102
RTVSPropertyOp22
 70
     1
102
RTVSPropertyOp23
 70
     1
102
RTVSPropertyOp24
 70
     1
102
RTVSPropertyOp25
 70
     1
102
RTVSPropertyOp26
 70
     1
102
RTVSPropertyOp27
 70
     1
  0
XRECORD
  5
1683
102
{ACAD_REACTORS
330
1682
102
}
330
1682
100
AcDbXrecord
280
     1
102
RTVSPropertyOp0
 70
     0
102
RTVSPropertyOp1
 70
     0
102
RTVSPropertyOp2
 70
     0
102
RTVSPropertyOp3
 70
     0
102
RTVSPropertyOp4
 70
     0
102
RTVSPropertyOp5
 70
     0
102
RTVSPropertyOp6
 70
     0
102
RTVSPropertyOp7
 70
     0
102
RTVSPropertyOp8
 70
     0
102
RTVSPropertyOp9
 70
     0
102
RTVSPropertyOp10
 70
     0
102
RTVSPropertyOp11
 70
     0
102
RTVSPropertyOp12
 70
     0
102
RTVSPropertyOp13
 70
     0
102
RTVSPropertyOp14
 70
     2
102
RTVSPropertyOp15
 70
     0
102
RTVSPropertyOp16
 70
     0
102
RTVSPropertyOp17
 70
     0
102
RTVSPropertyOp18
 70
     0
102
RTVSPropertyOp19
 70
     0
102
RTVSPropertyOp20
 70
     0
102
RTVSPropertyOp21
 70
     0
102
RTVSPropertyOp22
 70
     0
102
RTVSPropertyOp23
 70
     0
102
RTVSPropertyOp24
 70
     0
102
RTVSPropertyOp25
 70
     0
102
RTVSPropertyOp26
 70
     0
102
RTVSPropertyOp27
 70
     0
  0
XRECORD
  5
167B
102
{ACAD_REACTORS
330
167A
102
}
330
167A
100
AcDbXrecord
280
     1
102
RTVSPropertyOp0
 70
     1
102
RTVSPropertyOp1
 70
     1
102
RTVSPropertyOp2
 70
     1
102
RTVSPropertyOp3
 70
     1
102
RTVSPropertyOp4
 70
     1
102
RTVSPropertyOp5
 70
     1
102
RTVSPropertyOp6
 70
     1
102
RTVSPropertyOp7
 70
     1
102
RTVSPropertyOp8
 70
     1
102
RTVSPropertyOp9
 70
     1
102
RTVSPropertyOp10
 70
     1
102
RTVSPropertyOp11
 70
     1
102
RTVSPropertyOp12
 70
     1
102
RTVSPropertyOp13
 70
     1
102
RTVSPropertyOp14
 70
     1
102
RTVSPropertyOp15
 70
     1
102
RTVSPropertyOp16
 70
     1
102
RTVSPropertyOp17
 70
     1
102
RTVSPropertyOp18
 70
     1
102
RTVSPropertyOp19
 70
     1
102
RTVSPropertyOp20
 70
     1
102
RTVSPropertyOp21
 70
     1
102
RTVSPropertyOp22
 70
     1
102
RTVSPropertyOp23
 70
     1
102
RTVSPropertyOp24
 70
     1
102
RTVSPropertyOp25
 70
     1
102
RTVSPropertyOp26
 70
     1
102
RTVSPropertyOp27
 70
     1
  0
XRECORD
  5
165F
102
{ACAD_REACTORS
330
165E
102
}
330
165E
100
AcDbXrecord
280
     1
102
RTVSPropertyOp0
 70
     1
102
RTVSPropertyOp1
 70
     1
102
RTVSPropertyOp2
 70
     1
102
RTVSPropertyOp3
 70
     1
102
RTVSPropertyOp4
 70
     1
102
RTVSPropertyOp5
 70
     1
102
RTVSPropertyOp6
 70
     1
102
RTVSPropertyOp7
 70
     1
102
RTVSPropertyOp8
 70
     1
102
RTVSPropertyOp9
 70
     1
102
RTVSPropertyOp10
 70
     1
102
RTVSPropertyOp11
 70
     1
102
RTVSPropertyOp12
 70
     1
102
RTVSPropertyOp13
 70
     1
102
RTVSPropertyOp14
 70
     1
102
RTVSPropertyOp15
 70
     1
102
RTVSPropertyOp16
 70
     1
102
RTVSPropertyOp17
 70
     1
102
RTVSPropertyOp18
 70
     1
102
RTVSPropertyOp19
 70
     1
102
RTVSPropertyOp20
 70
     1
102
RTVSPropertyOp21
 70
     1
102
RTVSPropertyOp22
 70
     1
102
RTVSPropertyOp23
 70
     1
102
RTVSPropertyOp24
 70
     1
102
RTVSPropertyOp25
 70
     1
102
RTVSPropertyOp26
 70
     1
102
RTVSPropertyOp27
 70
     1
  0
XRECORD
  5
1661
102
{ACAD_REACTORS
330
1660
102
}
330
1660
100
AcDbXrecord
280
     1
102
RTVSPropertyOp0
 70
     1
102
RTVSPropertyOp1
 70
     1
102
RTVSPropertyOp2
 70
     1
102
RTVSPropertyOp3
 70
     1
102
RTVSPropertyOp4
 70
     1
102
RTVSPropertyOp5
 70
     1
102
RTVSPropertyOp6
 70
     1
102
RTVSPropertyOp7
 70
     1
102
RTVSPropertyOp8
 70
     1
102
RTVSPropertyOp9
 70
     1
102
RTVSPropertyOp10
 70
     1
102
RTVSPropertyOp11
 70
     1
102
RTVSPropertyOp12
 70
     1
102
RTVSPropertyOp13
 70
     1
102
RTVSPropertyOp14
 70
     1
102
RTVSPropertyOp15
 70
     1
102
RTVSPropertyOp16
 70
     1
102
RTVSPropertyOp17
 70
     1
102
RTVSPropertyOp18
 70
     1
102
RTVSPropertyOp19
 70
     1
102
RTVSPropertyOp20
 70
     1
102
RTVSPropertyOp21
 70
     1
102
RTVSPropertyOp22
 70
     1
102
RTVSPropertyOp23
 70
     1
102
RTVSPropertyOp24
 70
     1
102
RTVSPropertyOp25
 70
     1
102
RTVSPropertyOp26
 70
     1
102
RTVSPropertyOp27
 70
     1
  0
XRECORD
  5
1663
102
{ACAD_REACTORS
330
1662
102
}
330
1662
100
AcDbXrecord
280
     1
102
RTVSPropertyOp0
 70
     1
102
RTVSPropertyOp1
 70
     1
102
RTVSPropertyOp2
 70
     1
102
RTVSPropertyOp3
 70
     1
102
RTVSPropertyOp4
 70
     1
102
RTVSPropertyOp5
 70
     1
102
RTVSPropertyOp6
 70
     1
102
RTVSPropertyOp7
 70
     1
102
RTVSPropertyOp8
 70
     1
102
RTVSPropertyOp9
 70
     1
102
RTVSPropertyOp10
 70
     1
102
RTVSPropertyOp11
 70
     1
102
RTVSPropertyOp12
 70
     1
102
RTVSPropertyOp13
 70
     1
102
RTVSPropertyOp14
 70
     1
102
RTVSPropertyOp15
 70
     1
102
RTVSPropertyOp16
 70
     1
102
RTVSPropertyOp17
 70
     1
102
RTVSPropertyOp18
 70
     1
102
RTVSPropertyOp19
 70
     1
102
RTVSPropertyOp20
 70
     1
102
RTVSPropertyOp21
 70
     1
102
RTVSPropertyOp22
 70
     1
102
RTVSPropertyOp23
 70
     1
102
RTVSPropertyOp24
 70
     1
102
RTVSPropertyOp25
 70
     1
102
RTVSPropertyOp26
 70
     1
102
RTVSPropertyOp27
 70
     1
  0
XRECORD
  5
1665
102
{ACAD_REACTORS
330
1664
102
}
330
1664
100
AcDbXrecord
280
     1
102
RTVSPropertyOp0
 70
     1
102
RTVSPropertyOp1
 70
     1
102
RTVSPropertyOp2
 70
     1
102
RTVSPropertyOp3
 70
     1
102
RTVSPropertyOp4
 70
     1
102
RTVSPropertyOp5
 70
     1
102
RTVSPropertyOp6
 70
     1
102
RTVSPropertyOp7
 70
     1
102
RTVSPropertyOp8
 70
     1
102
RTVSPropertyOp9
 70
     1
102
RTVSPropertyOp10
 70
     1
102
RTVSPropertyOp11
 70
     1
102
RTVSPropertyOp12
 70
     1
102
RTVSPropertyOp13
 70
     1
102
RTVSPropertyOp14
 70
     1
102
RTVSPropertyOp15
 70
     1
102
RTVSPropertyOp16
 70
     1
102
RTVSPropertyOp17
 70
     1
102
RTVSPropertyOp18
 70
     1
102
RTVSPropertyOp19
 70
     1
102
RTVSPropertyOp20
 70
     1
102
RTVSPropertyOp21
 70
     1
102
RTVSPropertyOp22
 70
     1
102
RTVSPropertyOp23
 70
     1
102
RTVSPropertyOp24
 70
     1
102
RTVSPropertyOp25
 70
     1
102
RTVSPropertyOp26
 70
     1
102
RTVSPropertyOp27
 70
     1
  0
XRECORD
  5
167F
102
{ACAD_REACTORS
330
167E
102
}
330
167E
100
AcDbXrecord
280
     1
102
RTVSPropertyOp0
 70
     0
102
RTVSPropertyOp1
 70
     0
102
RTVSPropertyOp2
 70
     0
102
RTVSPropertyOp3
 70
     0
102
RTVSPropertyOp4
 70
     0
102
RTVSPropertyOp5
 70
     0
102
RTVSPropertyOp6
 70
     0
102
RTVSPropertyOp7
 70
     0
102
RTVSPropertyOp8
 70
     0
102
RTVSPropertyOp9
 70
     0
102
RTVSPropertyOp10
 70
     0
102
RTVSPropertyOp11
 70
     0
102
RTVSPropertyOp12
 70
     0
102
RTVSPropertyOp13
 70
     0
102
RTVSPropertyOp14
 70
     2
102
RTVSPropertyOp15
 70
     0
102
RTVSPropertyOp16
 70
     0
102
RTVSPropertyOp17
 70
     0
102
RTVSPropertyOp18
 70
     0
102
RTVSPropertyOp19
 70
     0
102
RTVSPropertyOp20
 70
     0
102
RTVSPropertyOp21
 70
     0
102
RTVSPropertyOp22
 70
     0
102
RTVSPropertyOp23
 70
     0
102
RTVSPropertyOp24
 70
     0
102
RTVSPropertyOp25
 70
     0
102
RTVSPropertyOp26
 70
     0
102
RTVSPropertyOp27
 70
     0
  0
XRECORD
  5
1679
102
{ACAD_REACTORS
330
1678
102
}
330
1678
100
AcDbXrecord
280
     1
102
RTVSPropertyOp0
 70
     1
102
RTVSPropertyOp1
 70
     1
102
RTVSPropertyOp2
 70
     1
102
RTVSPropertyOp3
 70
     1
102
RTVSPropertyOp4
 70
     1
102
RTVSPropertyOp5
 70
     1
102
RTVSPropertyOp6
 70
     1
102
RTVSPropertyOp7
 70
     1
102
RTVSPropertyOp8
 70
     1
102
RTVSPropertyOp9
 70
     1
102
RTVSPropertyOp10
 70
     1
102
RTVSPropertyOp11
 70
     1
102
RTVSPropertyOp12
 70
     1
102
RTVSPropertyOp13
 70
     1
102
RTVSPropertyOp14
 70
     1
102
RTVSPropertyOp15
 70
     1
102
RTVSPropertyOp16
 70
     1
102
RTVSPropertyOp17
 70
     1
102
RTVSPropertyOp18
 70
     1
102
RTVSPropertyOp19
 70
     1
102
RTVSPropertyOp20
 70
     1
102
RTVSPropertyOp21
 70
     1
102
RTVSPropertyOp22
 70
     1
102
RTVSPropertyOp23
 70
     1
102
RTVSPropertyOp24
 70
     1
102
RTVSPropertyOp25
 70
     1
102
RTVSPropertyOp26
 70
     1
102
RTVSPropertyOp27
 70
     1
  0
XRECORD
  5
1681
102
{ACAD_REACTORS
330
1680
102
}
330
1680
100
AcDbXrecord
280
     1
102
RTVSPropertyOp0
 70
     0
102
RTVSPropertyOp1
 70
     0
102
RTVSPropertyOp2
 70
     0
102
RTVSPropertyOp3
 70
     0
102
RTVSPropertyOp4
 70
     0
102
RTVSPropertyOp5
 70
     0
102
RTVSPropertyOp6
 70
     0
102
RTVSPropertyOp7
 70
     0
102
RTVSPropertyOp8
 70
     0
102
RTVSPropertyOp9
 70
     0
102
RTVSPropertyOp10
 70
     0
102
RTVSPropertyOp11
 70
     0
102
RTVSPropertyOp12
 70
     0
102
RTVSPropertyOp13
 70
     0
102
RTVSPropertyOp14
 70
     2
102
RTVSPropertyOp15
 70
     0
102
RTVSPropertyOp16
 70
     0
102
RTVSPropertyOp17
 70
     0
102
RTVSPropertyOp18
 70
     0
102
RTVSPropertyOp19
 70
     0
102
RTVSPropertyOp20
 70
     0
102
RTVSPropertyOp21
 70
     0
102
RTVSPropertyOp22
 70
     0
102
RTVSPropertyOp23
 70
     0
102
RTVSPropertyOp24
 70
     0
102
RTVSPropertyOp25
 70
     0
102
RTVSPropertyOp26
 70
     0
102
RTVSPropertyOp27
 70
     0
  0
XRECORD
  5
1671
102
{ACAD_REACTORS
330
1670
102
}
330
1670
100
AcDbXrecord
280
     1
102
RTVSPropertyOp0
 70
     1
102
RTVSPropertyOp1
 70
     1
102
RTVSPropertyOp2
 70
     1
102
RTVSPropertyOp3
 70
     1
102
RTVSPropertyOp4
 70
     1
102
RTVSPropertyOp5
 70
     1
102
RTVSPropertyOp6
 70
     1
102
RTVSPropertyOp7
 70
     1
102
RTVSPropertyOp8
 70
     1
102
RTVSPropertyOp9
 70
     1
102
RTVSPropertyOp10
 70
     1
102
RTVSPropertyOp11
 70
     1
102
RTVSPropertyOp12
 70
     1
102
RTVSPropertyOp13
 70
     1
102
RTVSPropertyOp14
 70
     1
102
RTVSPropertyOp15
 70
     1
102
RTVSPropertyOp16
 70
     1
102
RTVSPropertyOp17
 70
     1
102
RTVSPropertyOp18
 70
     1
102
RTVSPropertyOp19
 70
     1
102
RTVSPropertyOp20
 70
     1
102
RTVSPropertyOp21
 70
     1
102
RTVSPropertyOp22
 70
     1
102
RTVSPropertyOp23
 70
     1
102
RTVSPropertyOp24
 70
     1
102
RTVSPropertyOp25
 70
     1
102
RTVSPropertyOp26
 70
     1
102
RTVSPropertyOp27
 70
     1
  0
XRECORD
  5
1677
102
{ACAD_REACTORS
330
1676
102
}
330
1676
100
AcDbXrecord
280
     1
102
RTVSPropertyOp0
 70
     1
102
RTVSPropertyOp1
 70
     1
102
RTVSPropertyOp2
 70
     1
102
RTVSPropertyOp3
 70
     1
102
RTVSPropertyOp4
 70
     1
102
RTVSPropertyOp5
 70
     1
102
RTVSPropertyOp6
 70
     1
102
RTVSPropertyOp7
 70
     1
102
RTVSPropertyOp8
 70
     1
102
RTVSPropertyOp9
 70
     1
102
RTVSPropertyOp10
 70
     1
102
RTVSPropertyOp11
 70
     1
102
RTVSPropertyOp12
 70
     1
102
RTVSPropertyOp13
 70
     1
102
RTVSPropertyOp14
 70
     1
102
RTVSPropertyOp15
 70
     1
102
RTVSPropertyOp16
 70
     1
102
RTVSPropertyOp17
 70
     1
102
RTVSPropertyOp18
 70
     1
102
RTVSPropertyOp19
 70
     1
102
RTVSPropertyOp20
 70
     1
102
RTVSPropertyOp21
 70
     1
102
RTVSPropertyOp22
 70
     1
102
RTVSPropertyOp23
 70
     1
102
RTVSPropertyOp24
 70
     1
102
RTVSPropertyOp25
 70
     1
102
RTVSPropertyOp26
 70
     1
102
RTVSPropertyOp27
 70
     1
  0
ENDSEC
  0
EOF
