  0
SECTION
  2
HEADER
  9
$ACADVER
  1
AC1015
  9
$ACADMAINTVER
 70
    20
  9
$DWGCODEPAGE
  3
ANSI_1252
  9
$INSBASE
 10
0.0
 20
0.0
 30
0.0
  9
$EXTMIN
 10
646.7107510143783
 20
971.0107463782478
 30
0.0
  9
$EXTMAX
 10
648.853943045613
 20
971.3726146743265
 30
0.0
  9
$LIMMIN
 10
0.0
 20
0.0
  9
$LIMMAX
 10
420.0
 20
297.0
  9
$ORTHOMODE
 70
     1
  9
$REGENMODE
 70
     1
  9
$FILLMODE
 70
     1
  9
$QTEXTMODE
 70
     0
  9
$MIRRTEXT
 70
     1
  9
$LTSCALE
 40
1.0
  9
$ATTMODE
 70
     1
  9
$TEXTSIZE
 40
2.5
  9
$TRACEWID
 40
1.0
  9
$TEXTSTYLE
  7
SANINDUSA
  9
$CLAYER
  8
0
  9
$CELTYPE
  6
ByLayer
  9
$CECOLOR
 62
   256
  9
$CELTSCALE
 40
1.0
  9
$DISPSILH
 70
     0
  9
$DIMSCALE
 40
1.0
  9
$DIMASZ
 40
2.0
  9
$DIMEXO
 40
1.0
  9
$DIMDLI
 40
1.0
  9
$DIMRND
 40
0.0
  9
$DIMDLE
 40
0.0
  9
$DIMEXE
 40
1.0
  9
$DIMTP
 40
0.0
  9
$DIMTM
 40
0.0
  9
$DIMTXT
 40
2.0
  9
$DIMCEN
 40
0.0
  9
$DIMTSZ
 40
0.0
  9
$DIMTOL
 70
     0
  9
$DIMLIM
 70
     0
  9
$DIMTIH
 70
     0
  9
$DIMTOH
 70
     0
  9
$DIMSE1
 70
     0
  9
$DIMSE2
 70
     0
  9
$DIMTAD
 70
     1
  9
$DIMZIN
 70
     8
  9
$DIMBLK
  1

  9
$DIMASO
 70
     1
  9
$DIMSHO
 70
     1
  9
$DIMPOST
  1

  9
$DIMAPOST
  1

  9
$DIMALT
 70
     0
  9
$DIMALTD
 70
     3
  9
$DIMALTF
 40
0.03937007874016
  9
$DIMLFAC
 40
1.0
  9
$DIMTOFL
 70
     1
  9
$DIMTVP
 40
0.0
  9
$DIMTIX
 70
     0
  9
$DIMSOXD
 70
     0
  9
$DIMSAH
 70
     0
  9
$DIMBLK1
  1

  9
$DIMBLK2
  1

  9
$DIMSTYLE
  2
SANINDUSA
  9
$DIMCLRD
 70
   256
  9
$DIMCLRE
 70
   256
  9
$DIMCLRT
 70
   256
  9
$DIMTFAC
 40
1.0
  9
$DIMGAP
 40
1.0
  9
$DIMJUST
 70
     0
  9
$DIMSD1
 70
     0
  9
$DIMSD2
 70
     0
  9
$DIMTOLJ
 70
     0
  9
$DIMTZIN
 70
     8
  9
$DIMALTZ
 70
     0
  9
$DIMALTTZ
 70
     0
  9
$DIMUPT
 70
     0
  9
$DIMDEC
 70
     1
  9
$DIMTDEC
 70
     1
  9
$DIMALTU
 70
     2
  9
$DIMALTTD
 70
     3
  9
$DIMTXSTY
  7
SANINDUSA
  9
$DIMAUNIT
 70
     0
  9
$DIMADEC
 70
     1
  9
$DIMALTRND
 40
0.0
  9
$DIMAZIN
 70
     0
  9
$DIMDSEP
 70
    44
  9
$DIMATFIT
 70
     3
  9
$DIMFRAC
 70
     0
  9
$DIMLDRBLK
  1

  9
$DIMLUNIT
 70
     2
  9
$DIMLWD
 70
    -1
  9
$DIMLWE
 70
    -1
  9
$DIMTMOVE
 70
     0
  9
$LUNITS
 70
     2
  9
$LUPREC
 70
     4
  9
$SKETCHINC
 40
1.0
  9
$FILLETRAD
 40
0.0
  9
$AUNITS
 70
     0
  9
$AUPREC
 70
     0
  9
$MENU
  1
.
  9
$ELEVATION
 40
0.0
  9
$PELEVATION
 40
0.0
  9
$THICKNESS
 40
0.0
  9
$LIMCHECK
 70
     0
  9
$CHAMFERA
 40
10.0
  9
$CHAMFERB
 40
10.0
  9
$CHAMFERC
 40
20.0
  9
$CHAMFERD
 40
0.0
  9
$SKPOLY
 70
     0
  9
$TDCREATE
 40
2453563.468614537
  9
$TDUCREATE
 40
2453563.426947870
  9
$TDUPDATE
 40
2456146.504229051
  9
$TDUUPDATE
 40
2456146.462562384
  9
$TDINDWG
 40
0.0040791435
  9
$TDUSRTIMER
 40
0.0040789699
  9
$USRTIMER
 70
     1
  9
$ANGBASE
 50
0.0
  9
$ANGDIR
 70
     0
  9
$PDMODE
 70
     0
  9
$PDSIZE
 40
0.0
  9
$PLINEWID
 40
0.0
  9
$SPLFRAME
 70
     0
  9
$SPLINETYPE
 70
     6
  9
$SPLINESEGS
 70
     8
  9
$HANDSEED
  5
1621
  9
$SURFTAB1
 70
     6
  9
$SURFTAB2
 70
     6
  9
$SURFTYPE
 70
     6
  9
$SURFU
 70
     6
  9
$SURFV
 70
     6
  9
$UCSBASE
  2

  9
$UCSNAME
  2

  9
$UCSORG
 10
0.0
 20
0.0
 30
0.0
  9
$UCSXDIR
 10
1.0
 20
0.0
 30
0.0
  9
$UCSYDIR
 10
0.0
 20
1.0
 30
0.0
  9
$UCSORTHOREF
  2

  9
$UCSORTHOVIEW
 70
     0
  9
$UCSORGTOP
 10
0.0
 20
0.0
 30
0.0
  9
$UCSORGBOTTOM
 10
0.0
 20
0.0
 30
0.0
  9
$UCSORGLEFT
 10
0.0
 20
0.0
 30
0.0
  9
$UCSORGRIGHT
 10
0.0
 20
0.0
 30
0.0
  9
$UCSORGFRONT
 10
0.0
 20
0.0
 30
0.0
  9
$UCSORGBACK
 10
0.0
 20
0.0
 30
0.0
  9
$PUCSBASE
  2

  9
$PUCSNAME
  2

  9
$PUCSORG
 10
0.0
 20
0.0
 30
0.0
  9
$PUCSXDIR
 10
1.0
 20
0.0
 30
0.0
  9
$PUCSYDIR
 10
0.0
 20
1.0
 30
0.0
  9
$PUCSORTHOREF
  2

  9
$PUCSORTHOVIEW
 70
     0
  9
$PUCSORGTOP
 10
0.0
 20
0.0
 30
0.0
  9
$PUCSORGBOTTOM
 10
0.0
 20
0.0
 30
0.0
  9
$PUCSORGLEFT
 10
0.0
 20
0.0
 30
0.0
  9
$PUCSORGRIGHT
 10
0.0
 20
0.0
 30
0.0
  9
$PUCSORGFRONT
 10
0.0
 20
0.0
 30
0.0
  9
$PUCSORGBACK
 10
0.0
 20
0.0
 30
0.0
  9
$USERI1
 70
     0
  9
$USERI2
 70
     0
  9
$USERI3
 70
     0
  9
$USERI4
 70
     0
  9
$USERI5
 70
     0
  9
$USERR1
 40
0.0
  9
$USERR2
 40
0.0
  9
$USERR3
 40
0.0
  9
$USERR4
 40
0.0
  9
$USERR5
 40
0.0
  9
$WORLDVIEW
 70
     1
  9
$SHADEDGE
 70
     3
  9
$SHADEDIF
 70
    70
  9
$TILEMODE
 70
     1
  9
$MAXACTVP
 70
    64
  9
$PINSBASE
 10
0.0
 20
0.0
 30
0.0
  9
$PLIMCHECK
 70
     0
  9
$PEXTMIN
 10
1.000000000000000E+20
 20
1.000000000000000E+20
 30
1.000000000000000E+20
  9
$PEXTMAX
 10
-1.000000000000000E+20
 20
-1.000000000000000E+20
 30
-1.000000000000000E+20
  9
$PLIMMIN
 10
0.0
 20
0.0
  9
$PLIMMAX
 10
420.0
 20
297.0
  9
$UNITMODE
 70
     0
  9
$VISRETAIN
 70
     1
  9
$PLINEGEN
 70
     0
  9
$PSLTSCALE
 70
     1
  9
$TREEDEPTH
 70
  3020
  9
$CMLSTYLE
  2
Standard
  9
$CMLJUST
 70
     0
  9
$CMLSCALE
 40
20.0
  9
$PROXYGRAPHICS
 70
     1
  9
$MEASUREMENT
 70
     1
  9
$CELWEIGHT
370
    -1
  9
$ENDCAPS
280
     0
  9
$JOINSTYLE
280
     0
  9
$LWDISPLAY
290
     0
  9
$INSUNITS
 70
     4
  9
$HYPERLINKBASE
  1

  9
$STYLESHEET
  1
monochrome.ctb
  9
$XEDIT
290
     1
  9
$CEPSNTYPE
380
     0
  9
$PSTYLEMODE
290
     1
  9
$FINGERPRINTGUID
  2
{213B6190-6EB7-402F-8554-AB2CEEC4A6CC}
  9
$VERSIONGUID
  2
{C583938B-1495-4847-A69F-B18D7ABD6249}
  9
$EXTNAMES
290
     1
  9
$PSVPSCALE
 40
0.0
  9
$OLESTARTUP
290
     0
  0
ENDSEC
  0
SECTION
  2
CLASSES
  0
CLASS
  1
ACDBDICTIONARYWDFLT
  2
AcDbDictionaryWithDefault
  3
ObjectDBX Classes
 90
        0
280
     0
281
     0
  0
CLASS
  1
ACDBPLACEHOLDER
  2
AcDbPlaceHolder
  3
ObjectDBX Classes
 90
        0
280
     0
281
     0
  0
CLASS
  1
LAYOUT
  2
AcDbLayout
  3
ObjectDBX Classes
 90
        0
280
     0
281
     0
  0
CLASS
  1
DICTIONARYVAR
  2
AcDbDictionaryVar
  3
ObjectDBX Classes
 90
        0
280
     0
281
     0
  0
CLASS
  1
DIMASSOC
  2
AcDbDimAssoc
  3
"AcDbDimAssoc|Product Desc:     AcDim ARX App For Dimension|Company:          Autodesk, Inc.|WEB Address:      www.autodesk.com"
 90
    32768
280
     0
281
     0
  0
CLASS
  1
TABLESTYLE
  2
AcDbTableStyle
  3
ObjectDBX Classes
 90
     4095
280
     0
281
     0
  0
CLASS
  1
SORTENTSTABLE
  2
AcDbSortentsTable
  3
ObjectDBX Classes
 90
        0
280
     0
281
     0
  0
CLASS
  1
MATERIAL
  2
AcDbMaterial
  3
ObjectDBX Classes
 90
     1153
280
     0
281
     0
  0
CLASS
  1
VISUALSTYLE
  2
AcDbVisualStyle
  3
ObjectDBX Classes
 90
     4095
280
     0
281
     0
  0
CLASS
  1
SCALE
  2
AcDbScale
  3
ObjectDBX Classes
 90
     1153
280
     0
281
     0
  0
CLASS
  1
MLEADERSTYLE
  2
AcDbMLeaderStyle
  3
ACDB_MLEADERSTYLE_CLASS
 90
     4095
280
     0
281
     0
  0
CLASS
  1
CELLSTYLEMAP
  2
AcDbCellStyleMap
  3
ObjectDBX Classes
 90
     1152
280
     0
281
     0
  0
ENDSEC
  0
SECTION
  2
TABLES
  0
TABLE
  2
VPORT
  5
8
330
0
100
AcDbSymbolTable
 70
     1
  0
VPORT
  5
1572
330
8
100
AcDbSymbolTableRecord
100
AcDbViewportTableRecord
  2
*Active
 70
     0
 10
0.0
 20
0.0
 11
1.0
 21
1.0
 12
647.8964102357203
 22
971.1955442537641
 13
0.0
 23
0.0
 14
10.0
 24
10.0
 15
10.0
 25
10.0
 16
0.0
 26
0.0
 36
1.0
 17
0.0
 27
0.0
 37
0.0
 40
1.611300586223478
 41
1.645464025026068
 42
50.0
 43
0.0
 44
0.0
 50
0.0
 51
0.0
 71
     0
 72
   100
 73
     1
 74
     2
 75
     0
 76
     0
 77
     0
 78
     0
281
     0
 65
     1
110
0.0
120
0.0
130
0.0
111
1.0
121
0.0
131
0.0
112
0.0
122
1.0
132
0.0
 79
     0
146
0.0
  0
ENDTAB
  0
TABLE
  2
LTYPE
  5
5
330
0
100
AcDbSymbolTable
 70
     3
  0
LTYPE
  5
14
330
5
100
AcDbSymbolTableRecord
100
AcDbLinetypeTableRecord
  2
ByBlock
 70
     0
  3

 72
    65
 73
     0
 40
0.0
  0
LTYPE
  5
15
330
5
100
AcDbSymbolTableRecord
100
AcDbLinetypeTableRecord
  2
ByLayer
 70
     0
  3

 72
    65
 73
     0
 40
0.0
  0
LTYPE
  5
16
330
5
100
AcDbSymbolTableRecord
100
AcDbLinetypeTableRecord
  2
Continuous
 70
     0
  3
Solid line
 72
    65
 73
     0
 40
0.0
  0
LTYPE
  5
2D
330
5
100
AcDbSymbolTableRecord
100
AcDbLinetypeTableRecord
  2
DASHDOT
 70
     0
  3
Dash dot __ . __ . __ . __ . __ . __ . __ . __
 72
    65
 73
     4
 40
25.4
 49
12.7
 74
     0
 49
-6.349999999999999
 74
     0
 49
0.0
 74
     0
 49
-6.349999999999999
 74
     0
  0
LTYPE
  5
2E
330
5
100
AcDbSymbolTableRecord
100
AcDbLinetypeTableRecord
  2
HIDDEN
 70
     0
  3
Hidden __ __ __ __ __ __ __ __ __ __ __ __ __ _
 72
    65
 73
     2
 40
9.524999999999998
 49
6.349999999999999
 74
     0
 49
-3.174999999999999
 74
     0
  0
ENDTAB
  0
TABLE
  2
LAYER
  5
2
330
0
100
AcDbSymbolTable
 70
    16
  0
LAYER
  5
10
102
{ACAD_XDICTIONARY
360
15C1
102
}
330
2
100
AcDbSymbolTableRecord
100
AcDbLayerTableRecord
  2
0
 70
     0
 62
     7
  6
Continuous
370
    -3
390
F
  0
LAYER
  5
2F
102
{ACAD_XDICTIONARY
360
15C3
102
}
330
2
100
AcDbSymbolTableRecord
100
AcDbLayerTableRecord
  2
1
 70
     0
 62
     1
  6
Continuous
370
    -3
390
F
  0
LAYER
  5
30
102
{ACAD_XDICTIONARY
360
15C5
102
}
330
2
100
AcDbSymbolTableRecord
100
AcDbLayerTableRecord
  2
2
 70
     0
 62
     2
  6
Continuous
370
    -3
390
F
  0
LAYER
  5
31
102
{ACAD_XDICTIONARY
360
15C7
102
}
330
2
100
AcDbSymbolTableRecord
100
AcDbLayerTableRecord
  2
3
 70
     0
 62
     3
  6
Continuous
370
    -3
390
F
  0
LAYER
  5
32
102
{ACAD_XDICTIONARY
360
15C9
102
}
330
2
100
AcDbSymbolTableRecord
100
AcDbLayerTableRecord
  2
4
 70
     0
 62
     4
  6
Continuous
370
    -3
390
F
  0
LAYER
  5
33
102
{ACAD_XDICTIONARY
360
15CB
102
}
330
2
100
AcDbSymbolTableRecord
100
AcDbLayerTableRecord
  2
5
 70
     0
 62
     5
  6
Continuous
370
    -3
390
F
  0
LAYER
  5
34
102
{ACAD_XDICTIONARY
360
15CD
102
}
330
2
100
AcDbSymbolTableRecord
100
AcDbLayerTableRecord
  2
6
 70
     0
 62
     6
  6
Continuous
370
    -3
390
F
  0
LAYER
  5
35
102
{ACAD_XDICTIONARY
360
15CF
102
}
330
2
100
AcDbSymbolTableRecord
100
AcDbLayerTableRecord
  2
7
 70
     0
 62
     7
  6
Continuous
370
    -3
390
F
  0
LAYER
  5
36
102
{ACAD_XDICTIONARY
360
15D1
102
}
330
2
100
AcDbSymbolTableRecord
100
AcDbLayerTableRecord
  2
cen
 70
     0
 62
     7
  6
DASHDOT
370
    -3
390
F
  0
LAYER
  5
37
102
{ACAD_XDICTIONARY
360
15D3
102
}
330
2
100
AcDbSymbolTableRecord
100
AcDbLayerTableRecord
  2
hid
 70
     0
 62
     7
  6
HIDDEN
370
    -3
390
F
  0
LAYER
  5
5D6
102
{ACAD_XDICTIONARY
360
15D5
102
}
330
2
100
AcDbSymbolTableRecord
100
AcDbLayerTableRecord
  2
hatch
 70
     0
 62
     9
  6
Continuous
370
    -3
390
F
  0
LAYER
  5
8AF
102
{ACAD_XDICTIONARY
360
15D7
102
}
330
2
100
AcDbSymbolTableRecord
100
AcDbLayerTableRecord
  2
9
 70
     0
 62
     9
  6
Continuous
370
    -3
390
F
  0
LAYER
  5
8F8
102
{ACAD_XDICTIONARY
360
15D9
102
}
330
2
100
AcDbSymbolTableRecord
100
AcDbLayerTableRecord
  2
leg fin
 70
     0
 62
     9
  6
Continuous
370
    -3
390
F
  0
LAYER
  5
91D
102
{ACAD_XDICTIONARY
360
15DB
102
}
330
2
100
AcDbSymbolTableRecord
100
AcDbLayerTableRecord
  2
cotas
 70
     0
 62
     1
  6
Continuous
370
    -3
390
F
  0
LAYER
  5
92F
330
2
100
AcDbSymbolTableRecord
100
AcDbLayerTableRecord
  2
Defpoints
 70
     0
 62
     7
  6
Continuous
290
     0
370
    -3
390
F
  0
LAYER
  5
BA5
102
{ACAD_XDICTIONARY
360
15DD
102
}
330
2
100
AcDbSymbolTableRecord
100
AcDbLayerTableRecord
  2
SANINDUSA
 70
     0
 62
     3
  6
Continuous
370
    -3
390
F
  0
ENDTAB
  0
TABLE
  2
STYLE
  5
3
330
0
100
AcDbSymbolTable
 70
     3
  0
STYLE
  5
11
330
3
100
AcDbSymbolTableRecord
100
AcDbTextStyleTableRecord
  2
Standard
 70
     0
 40
0.0
 41
1.0
 50
0.0
 71
     0
 42
2.5
  3
Avgardn.ttf
  4

1001
ACAD
1000
AvantGarde Bk BT
1071
       34
  0
STYLE
  5
2C
330
3
100
AcDbSymbolTableRecord
100
AcDbTextStyleTableRecord
  2

 70
     1
 40
0.0
 41
1.0
 50
0.0
 71
     0
 42
2.5
  3
ltypeshp.shx
  4

  0
STYLE
  5
91F
330
3
100
AcDbSymbolTableRecord
100
AcDbTextStyleTableRecord
  2
SANINDUSA
 70
     0
 40
0.0
 41
1.0
 50
0.0
 71
     0
 42
2.5
  3
verdana.TTF
  4

1001
ACAD
1000
Verdana
1071
       34
  0
ENDTAB
  0
TABLE
  2
VIEW
  5
6
330
0
100
AcDbSymbolTable
 70
     0
  0
ENDTAB
  0
TABLE
  2
UCS
  5
7
330
0
100
AcDbSymbolTable
 70
     0
  0
ENDTAB
  0
TABLE
  2
APPID
  5
9
330
0
100
AcDbSymbolTable
 70
     8
  0
APPID
  5
12
330
9
100
AcDbSymbolTableRecord
100
AcDbRegAppTableRecord
  2
ACAD
 70
     0
  0
APPID
  5
3A
330
9
100
AcDbSymbolTableRecord
100
AcDbRegAppTableRecord
  2
DCO15
 70
     0
  0
APPID
  5
CE2
330
9
100
AcDbSymbolTableRecord
100
AcDbRegAppTableRecord
  2
ACAD_DSTYLE_DIMEXT_LENGTH
 70
     0
  0
APPID
  5
CE3
330
9
100
AcDbSymbolTableRecord
100
AcDbRegAppTableRecord
  2
ACAD_DSTYLE_DIMEXT_ENABLED
 70
     0
  0
APPID
  5
CE4
330
9
100
AcDbSymbolTableRecord
100
AcDbRegAppTableRecord
  2
ACAD_DSTYLE_DIMJOGGED_JOGANGLE_SYMBOL
 70
     0
  0
APPID
  5
CE5
330
9
100
AcDbSymbolTableRecord
100
AcDbRegAppTableRecord
  2
ACAD_DSTYLE_DIMARC_LENGTH_SYMBOL
 70
     0
  0
APPID
  5
1562
330
9
100
AcDbSymbolTableRecord
100
AcDbRegAppTableRecord
  2
ACAD_EXEMPT_FROM_CAD_STANDARDS
 70
     0
  0
APPID
  5
1620
330
9
100
AcDbSymbolTableRecord
100
AcDbRegAppTableRecord
  2
ACAD_MLEADERVER
 70
     0
  0
ENDTAB
  0
TABLE
  2
DIMSTYLE
  5
A
330
0
100
AcDbSymbolTable
 70
     2
100
AcDbDimStyleTable
 71
     1
340
921
  0
DIMSTYLE
105
45
330
A
100
AcDbSymbolTableRecord
100
AcDbDimStyleTableRecord
  2
STANDARD
 70
     0
289
     0
340
11
  0
DIMSTYLE
105
921
330
A
100
AcDbSymbolTableRecord
100
AcDbDimStyleTableRecord
  2
SANINDUSA
 70
     0
 41
2.0
 42
1.0
 43
1.0
 44
1.0
 73
     0
 74
     0
 77
     1
 78
     8
140
2.0
141
0.0
143
0.03937007874016
147
1.0
171
     3
172
     1
176
   256
177
   256
178
   256
179
     1
271
     1
272
     1
274
     3
278
    44
283
     0
284
     8
340
91F
371
    -1
372
    -1
  0
ENDTAB
  0
TABLE
  2
BLOCK_RECORD
  5
1
330
0
100
AcDbSymbolTable
 70
    58
  0
BLOCK_RECORD
  5
1F
102
{ACAD_XDICTIONARY
360
156A
102
}
330
1
100
AcDbSymbolTableRecord
100
AcDbBlockTableRecord
  2
*Model_Space
340
22
  0
BLOCK_RECORD
  5
1B
330
1
100
AcDbSymbolTableRecord
100
AcDbBlockTableRecord
  2
*Paper_Space
340
1E
  0
BLOCK_RECORD
  5
23
330
1
100
AcDbSymbolTableRecord
100
AcDbBlockTableRecord
  2
*Paper_Space0
340
26
  0
BLOCK_RECORD
  5
919
330
1
100
AcDbSymbolTableRecord
100
AcDbBlockTableRecord
  2
_DotSmall
340
0
  0
BLOCK_RECORD
  5
922
330
1
100
AcDbSymbolTableRecord
100
AcDbBlockTableRecord
  2
base para cotas
340
0
310
2800000020000000200000000100080000000000000400000000000000000000000000000000000000000000000080000080000000808000800000008000800080800000C0C0C000C0DCC000F0CAA6000020400000206000002080000020A0000020C0000020E00000400000004020000040400000406000004080000040A0
310
000040C0000040E00000600000006020000060400000606000006080000060A0000060C0000060E00000800000008020000080400000806000008080000080A0000080C0000080E00000A0000000A0200000A0400000A0600000A0800000A0A00000A0C00000A0E00000C0000000C0200000C0400000C0600000C0800000C0
310
A00000C0C00000C0E00000E0000000E0200000E0400000E0600000E0800000E0A00000E0C00000E0E00040000000400020004000400040006000400080004000A0004000C0004000E00040200000402020004020400040206000402080004020A0004020C0004020E000404000004040200040404000404060004040800040
310
40A0004040C0004040E00040600000406020004060400040606000406080004060A0004060C0004060E00040800000408020004080400040806000408080004080A0004080C0004080E00040A0000040A0200040A0400040A0600040A0800040A0A00040A0C00040A0E00040C0000040C0200040C0400040C0600040C08000
310
40C0A00040C0C00040C0E00040E0000040E0200040E0400040E0600040E0800040E0A00040E0C00040E0E00080000000800020008000400080006000800080008000A0008000C0008000E00080200000802020008020400080206000802080008020A0008020C0008020E00080400000804020008040400080406000804080
310
008040A0008040C0008040E00080600000806020008060400080606000806080008060A0008060C0008060E00080800000808020008080400080806000808080008080A0008080C0008080E00080A0000080A0200080A0400080A0600080A0800080A0A00080A0C00080A0E00080C0000080C0200080C0400080C0600080C0
310
800080C0A00080C0C00080C0E00080E0000080E0200080E0400080E0600080E0800080E0A00080E0C00080E0E000C0000000C0002000C0004000C0006000C0008000C000A000C000C000C000E000C0200000C0202000C0204000C0206000C0208000C020A000C020C000C020E000C0400000C0402000C0404000C0406000C0
310
408000C040A000C040C000C040E000C0600000C0602000C0604000C0606000C0608000C060A000C060C000C060E000C0800000C0802000C0804000C0806000C0808000C080A000C080C000C080E000C0A00000C0A02000C0A04000C0A06000C0A08000C0A0A000C0A0C000C0A0E000C0C00000C0C02000C0C04000C0C06000
310
C0C08000C0C0A000F0FBFF00A4A0A000808080000000FF0000FF000000FFFF00FF000000FF00FF00FFFF0000FFFFFF00A4A4A4A4A4A4A4A4A4A4A4A4A4A4A4A4A4A4A4A4A4A4A4A4A4A4A4A4A4A4A4A4A4A4A4A4A4A4A4A4A4A4A4A4A4A4A4A4A4A4A4A4A4A4A4A4A4A4A4A4A4A4A4A4A4A4A4A4A4A4A4A4A4A4A4A4A4A4A4
310
A4A4A4A4A4A4A4A4A4A4A4A4A4A4A4A4A4A4A4A4A4A4A4A4A4A4A4A4A4A4A4A4A4A4A4A4A4A4A4A4A4A4A4A4A4A4A4A4A4A4A4A4A4A4A4A4A4A4A4A4A4A4A4A4A4A4A4A4A4A4A4A4A4A4A4A4A4A4A4A4A4A4A4A4A4A4A4A4A4A4A4A4A4A4A4A4A4A4A4A4A4A4A4A4A4A4A4A4A4A4A4A4A4A4A4A4A4A4A4A4A4A4A4A4A4A4A4
310
A4A4A4A4A4A4A4A4A4A4A4A4A4A4A4A4A4A4A4A4A4A4A4A4A4A4A4A4A4A4A4A4A4A4A4A4A4A4A4A4A4A4A4A4A4A4A4A4A4A4A4A4A4A4A4A4A4A4A4A4A4A4A4A4A4A4A4A4A4A4A4A4A4A4A4A4A4A4A4A4A4A4A4A4A4A4A4A4A4A4A4A4A4A4A4A4A4A4A4A4A4A4A4A4A4A4A4A4A4A4A4A4A4A4A4A4A4A4A4A4A4A4A4A4A4A4A4
310
A4A4A4A4A4A4A4A4A4A4A4A4A4A4A4A4A4A4A4A4A4A4A4A4A4A4A4A4A4A4A4A4A4A4A4A4A4A4A4A4A4A4A4A4A4A4A4A4A4A4A4A4A4A4A4A4A4A4A4A4A4A4A4A4A4A4A4A4A4A4A4A4A4A4A4A4A4A4A4A4A4A4A4A4A4A4A4A4A4A4A4A4A4A4A4A4A4A4A4A4A4A4A4A4A4A4A4A4A4A4A4A4A4A4A4A4F9F9F9F9F9F9F9F9F9F9F9
310
F9F9F9F9F9F9F9F9F9F9F9F9F9F9F9F9F9F9F9A4A4F9F9F9F9F9F9F9F9F9F9F9F9F9F9F9F9F9F9F9F9F9F9F9F9F9F9F9F9F9F9A4A4F9F9F9F9F9F9F9F9F9F9F9F9F9F9F9F9F9F9F9F9F9F9F9F9F9F9F9F9F9F9A4A4F9A4A4A4A4A4A4A4A4A4A4A4A4A4A4A4A4A4A4A4A4A4A4A4A4A4A4A4A4F9A4A4A4A4A4A4A4A4A4A4A4A4
310
A4A4A4A4A4A4A4A4A4A4A4A4A4A4A4A4A4A4A4A4A4A4A4A4A4A4A4A4A4A4A4A4A4A4A4A4A4A4A4A4A4A4A4A4A4A4A4A4A4A4A4A4A4A4A4A4A4A4A4A4A4A4A4A4A4A4A4A4A4A4A4A4A4A4A4A4A4A4A4A4A4A4A4A4A4A4A4A4A4A4A4A4A4A4A4A4A4A4A4A4A4A4A4A4A4A4A4A4A4A4A4A4A4A4A4A4A4A4A4A4A4A4A4A4A4A4A4
310
A4A4A4A4A4A4A4A4A4A4A4A4A4A4A4A4A4A4A4A4A4A4A4A4A4A4A4A4A4A4A4A4A4A4A4A4A4A4A4A4A4A4A4A4A4A4A4A4A4A4A4A4A4A4A4A4A4A4A4A4A4A4A4A4A4A4A4A4A4A4A4A4A4A4A4A4A4A4A4A4A4A4A4A4A4A4A4A4A4A4A4A4A4A4A4A4A4A4A4A4A4A4A4A4A4A4A4A4A4A4A4A4A4A4A4A4A4A4A4A4A4A4A4A4A4A4A4
310
A4A4A4A4A4A4A4A4A4A4A4A4A4A4A4A4A4A4A4A4A4A4A4A4A4A4A4A4A4A4A4A4A4A4A4A4A4A4A4A4A4A4A4A4A4A4A4A4A4A4A4A4A4A4A4A4A4A4A4A4A4A4A4A4A4A4A4A4A4A4A4A4A4A4A4A4A4A4A4A4A4A4A4A4A4A4A4A4A4A4A4A4A4A4A4A4A4A4A4A4A4A4A4A4A4A4A4A4A4A4A4A4A4A4A4A4A4A4A4A4A4A4A4A4A4A4A4
310
A4A4A4A4A4A4A4A4A4A4A4A4A4A4A4A4A4A4A4A4A4A4A4A4A4A4A4A4A4A4A4A4A4A4A4A4A4A4A4A4A4A4A4A4A4A4A4A4A4A4A4A4A4A4A4A4
1001
ACAD
1000
DesignCenter Data
1002
{
1070
     1
1070
     4
1002
}
  0
BLOCK_RECORD
  5
AA8
330
1
100
AcDbSymbolTableRecord
100
AcDbBlockTableRecord
  2
_CLOSED
340
0
  0
ENDTAB
  0
ENDSEC
  0
SECTION
  2
BLOCKS
  0
BLOCK
  5
20
330
1F
100
AcDbEntity
  8
0
100
AcDbBlockBegin
  2
*Model_Space
 70
     0
 10
0.0
 20
0.0
 30
0.0
  3
*Model_Space
  1

  0
ENDBLK
  5
21
330
1F
100
AcDbEntity
  8
0
100
AcDbBlockEnd
  0
BLOCK
  5
1C
330
1B
100
AcDbEntity
 67
     1
  8
0
100
AcDbBlockBegin
  2
*Paper_Space
 70
     0
 10
0.0
 20
0.0
 30
0.0
  3
*Paper_Space
  1

  0
ENDBLK
  5
1D
330
1B
100
AcDbEntity
 67
     1
  8
0
100
AcDbBlockEnd
  0
BLOCK
  5
24
330
23
100
AcDbEntity
 67
     1
  8
0
100
AcDbBlockBegin
  2
*Paper_Space0
 70
     0
 10
0.0
 20
0.0
 30
0.0
  3
*Paper_Space0
  1

  0
ENDBLK
  5
25
330
23
100
AcDbEntity
 67
     1
  8
0
100
AcDbBlockEnd
  0
BLOCK
  5
91B
330
919
100
AcDbEntity
  8
0
100
AcDbBlockBegin
  2
_DotSmall
 70
     0
 10
0.0
 20
0.0
 30
0.0
  3
_DotSmall
  1

  0
LWPOLYLINE
  5
91A
330
919
100
AcDbEntity
  8
0
  6
ByBlock
 62
     0
100
AcDbPolyline
 90
        2
 70
     1
 43
0.5
 10
-0.0625
 20
0.0
 42
1.0
 10
0.0625
 20
0.0
 42
1.0
  0
ENDBLK
  5
91C
330
919
100
AcDbEntity
  8
0
100
AcDbBlockEnd
  0
BLOCK
  5
92A
330
922
100
AcDbEntity
  8
0
100
AcDbBlockBegin
  2
base para cotas
 70
     0
 10
0.0
 20
0.0
 30
0.0
  3
base para cotas
  1

  0
LINE
  5
B36
330
922
100
AcDbEntity
  8
cotas
100
AcDbLine
 10
0.0
 20
-30.0
 30
0.0
 11
327.1260136525398
 21
-30.0
 31
0.0
  0
LINE
  5
B37
330
922
100
AcDbEntity
  8
cotas
100
AcDbLine
 10
0.0
 20
-25.0
 30
0.0
 11
327.1260136525398
 21
-25.0
 31
0.0
  0
LINE
  5
B38
330
922
100
AcDbEntity
  8
cotas
100
AcDbLine
 10
0.0
 20
-20.0
 30
0.0
 11
327.1260136525398
 21
-20.0
 31
0.0
  0
LINE
  5
B39
330
922
100
AcDbEntity
  8
cotas
100
AcDbLine
 10
0.0
 20
-15.0
 30
0.0
 11
327.1260136525398
 21
-15.0
 31
0.0
  0
LINE
  5
B3A
330
922
100
AcDbEntity
  8
cotas
100
AcDbLine
 10
0.0
 20
-10.0
 30
0.0
 11
327.1260136525398
 21
-10.0
 31
0.0
  0
LINE
  5
B3B
330
922
100
AcDbEntity
  8
cotas
100
AcDbLine
 10
0.0
 20
0.0
 30
0.0
 11
0.0
 21
-30.0
 31
0.0
  0
LINE
  5
B3C
330
922
100
AcDbEntity
  8
cotas
100
AcDbLine
 10
327.1260136525398
 20
-30.0
 30
0.0
 11
327.1260136525398
 21
0.0
 31
0.0
  0
ENDBLK
  5
92B
330
922
100
AcDbEntity
  8
0
100
AcDbBlockEnd
  0
BLOCK
  5
AAD
330
AA8
100
AcDbEntity
  8
0
100
AcDbBlockBegin
  2
_CLOSED
 70
     0
 10
0.0
 20
0.0
 30
0.0
  3
_CLOSED
  1

  0
LINE
  5
AA9
330
AA8
100
AcDbEntity
  8
0
100
AcDbLine
 10
-1.0
 20
0.166667
 30
0.0
 11
0.0
 21
0.0
 31
0.0
  0
LINE
  5
AAA
330
AA8
100
AcDbEntity
  8
0
100
AcDbLine
 10
0.0
 20
0.0
 30
0.0
 11
-1.0
 21
-0.166667
 31
0.0
  0
LINE
  5
AAB
330
AA8
100
AcDbEntity
  8
0
100
AcDbLine
 10
-1.0
 20
0.166667
 30
0.0
 11
-1.0
 21
-0.166667
 31
0.0
  0
LINE
  5
AAC
330
AA8
100
AcDbEntity
  8
0
100
AcDbLine
 10
0.0
 20
0.0
 30
0.0
 11
-1.0
 21
0.0
 31
0.0
  0
ENDBLK
  5
AAE
330
AA8
100
AcDbEntity
  8
0
100
AcDbBlockEnd
  0
ENDSEC
  0
SECTION
  2
ENTITIES
  0
LWPOLYLINE
  5
1055
330
1F
100
AcDbEntity
  8
SANINDUSA
100
AcDbPolyline
 90
       23
 70
   128
 43
0.0
 10
647.97546345662
 20
971.2094514463174
 10
647.9773288228268
 20
971.2076341322779
 10
647.9819737725907
 20
971.2035490861387
 10
647.9868337030055
 20
971.1996953686494
 10
647.9918710842293
 20
971.1960962673533
 10
647.9970390717256
 20
971.192665971591
 10
648.0041550951845
 20
971.1882690737391
 10
648.0114606186604
 20
971.1841207771472
 10
648.0189675423537
 20
971.1802152422313
 10
648.0266803899484
 20
971.1765522178085
 10
648.0346040143364
 20
971.1731320661893
 10
648.0427453029907
 20
971.1699560955917
 10
648.0509992872262
 20
971.1670780355637
 10
648.05926592144
 20
971.1645289915653
 10
648.0676450576078
 20
971.1622728591271
 10
648.0761150619859
 20
971.160317039569
 10
648.0846530063973
 20
971.1586679595212
 10
648.0932317998282
 20
971.1573313294113
 10
648.1018391090621
 20
971.156308332039
 10
648.1105134542552
 20
971.1555948099698
 10
648.1192252236776
 20
971.1551951874678
 10
648.1279585225355
 20
971.1551045459943
 10
648.1312479666101
 20
971.1551561048795
  0
LWPOLYLINE
  5
1056
330
1F
100
AcDbEntity
  8
SANINDUSA
100
AcDbPolyline
 90
       22
 70
   128
 43
0.0
 10
648.1312466291459
 20
971.1551371552955
 10
648.1397148960951
 20
971.1551226164147
 10
648.1479842893434
 20
971.1553723023019
 10
648.1566770299333
 20
971.155941828475
 10
648.1653318601932
 20
971.1568250829566
 10
648.1739566510216
 20
971.158023296563
 10
648.1825409919443
 20
971.1595361730902
 10
648.1910761067448
 20
971.1613619641855
 10
648.1995517642756
 20
971.1634992899373
 10
648.2079423978864
 20
971.1659427150729
 10
648.216222920629
 20
971.1686852182094
 10
648.2243688222517
 20
971.1717176240972
 10
648.2323701348418
 20
971.1750247992686
 10
648.2403433684623
 20
971.1786622411258
 10
648.2480886889204
 20
971.1825473537764
 10
648.2556110555714
 20
971.1866785515711
 10
648.2629158851308
 20
971.191055269494
 10
648.2700082568079
 20
971.1956776341208
 10
648.2748884745379
 20
971.1991197313704
 10
648.2799731211374
 20
971.2030951507935
 10
648.2846469378886
 20
971.2071575573714
 10
648.2870294336469
 20
971.209452059905
  0
ARC
  5
1057
330
1F
100
AcDbEntity
  8
SANINDUSA
100
AcDbCircle
 10
647.9205989463699
 20
971.1524510336859
 30
0.0
 40
0.0791464888388962
100
AcDbArc
 50
46.09352570016453
 51
79.96854725212063
  0
ARC
  5
1058
330
1F
100
AcDbEntity
  8
SANINDUSA
100
AcDbCircle
 10
648.3421113302807
 20
971.1519736416605
 30
0.0
 40
0.079647855722055
100
AcDbArc
 50
99.87127730050367
 51
133.7801010783461
  0
LWPOLYLINE
  5
1059
330
1F
100
AcDbEntity
  8
SANINDUSA
100
AcDbPolyline
 90
        2
 70
   128
 43
0.0
 10
648.1751170277395
 20
971.1500071630478
 10
648.1861632606585
 20
971.1529188268569
  0
LINE
  5
105A
330
1F
100
AcDbEntity
  8
SANINDUSA
100
AcDbLine
 10
648.1662804925547
 20
971.1124797273154
 30
0.0
 11
648.1672620390369
 21
971.1405875409882
 31
0.0
  0
ARC
  5
105D
330
1F
100
AcDbEntity
  8
SANINDUSA
100
AcDbCircle
 10
648.1652811017276
 20
971.1125146268122
 30
0.0
 40
0.0010000000000001
100
AcDbArc
 50
270.0
 51
358.0000000027562
  0
LINE
  5
105E
330
1F
100
AcDbEntity
  8
SANINDUSA
100
AcDbLine
 10
648.0602617968637
 20
971.1532844050271
 30
0.0
 11
648.0613048115103
 21
971.1234163734314
 31
0.0
  0
LWPOLYLINE
  5
105F
330
1F
100
AcDbEntity
  8
SANINDUSA
100
AcDbPolyline
 90
       18
 70
   128
 43
0.0
 10
648.0613048115103
 20
971.1234169781326
 10
648.0614276898935
 20
971.1227880011596
 10
648.0617784684235
 20
971.1214177288892
 10
648.0623719238512
 20
971.1202214074656
 10
648.0631448978219
 20
971.1192039728455
 10
648.0640701705901
 20
971.1183365894093
 10
648.065170881462
 20
971.1175763226831
 10
648.0665379211789
 20
971.1168778927532
 10
648.0683358272187
 20
971.1162113917323
 10
648.0706247128289
 20
971.1156124581217
 10
648.0730437260667
 20
971.1151611577228
 10
648.0756310720037
 20
971.1147993864061
 10
648.0783663293915
 20
971.114506340371
 10
648.0812891648537
 20
971.1142640500892
 10
648.0843958399701
 20
971.1140649068232
 10
648.087671644006
 20
971.1139037852255
 10
648.0910946808458
 20
971.113776537873
 10
648.0916298546965
 20
971.1137618625214
  0
LWPOLYLINE
  5
1060
330
1F
100
AcDbEntity
  8
SANINDUSA
100
AcDbPolyline
 90
        8
 70
   128
 43
0.0
 10
648.0569322737026
 20
971.1563885607422
 10
648.0572110472408
 20
971.1563478781886
 10
648.0583414657953
 20
971.155865883165
 10
648.0592040482787
 20
971.155190734394
 10
648.0597653704347
 20
971.1544924549983
 10
648.060077259888
 20
971.1539003413173
 10
648.0602190618754
 20
971.1534858975005
 10
648.0602617968637
 20
971.1532844050271
  0
ARC
  5
1063
330
1F
100
AcDbEntity
  8
SANINDUSA
100
AcDbCircle
 10
648.0152420379547
 20
971.3236022056277
 30
0.0
 40
0.032059972324279
100
AcDbArc
 50
268.5936356159174
 51
297.7209956885186
  0
ARC
  5
1064
330
1F
100
AcDbEntity
  8
SANINDUSA
100
AcDbCircle
 10
648.2472136586862
 20
971.3235524079097
 30
0.0
 40
0.0320054772591997
100
AcDbArc
 50
242.2913765910756
 51
270.9289560209041
  0
ARC
  5
1065
330
1F
100
AcDbEntity
  8
SANINDUSA
100
AcDbCircle
 10
648.2271117308554
 20
971.2853646434869
 30
0.0
 40
0.0111500267516235
100
AcDbArc
 50
62.08405818968466
 51
89.84008965989323
  0
ARC
  5
1066
330
1F
100
AcDbEntity
  8
SANINDUSA
100
AcDbCircle
 10
648.0353998848725
 20
971.2852298508263
 30
0.0
 40
0.0112848830373364
100
AcDbArc
 50
90.2495661370157
 51
117.6938925408731
  0
LINE
  5
1088
330
1F
100
AcDbEntity
  8
SANINDUSA
100
AcDbLine
 10
648.2264807817621
 20
971.2915146268121
 30
0.0
 11
648.0360235996957
 21
971.291540199375
 31
0.0
  0
LINE
  5
1089
330
1F
100
AcDbEntity
  8
SANINDUSA
100
AcDbLine
 10
647.9617642618956
 20
971.2915146268121
 30
0.0
 11
648.036012799243
 21
971.2915146268121
 31
0.0
  0
LINE
  5
108A
330
1F
100
AcDbEntity
  8
SANINDUSA
100
AcDbLine
 10
648.2969566020228
 20
971.2915146268121
 30
0.0
 11
648.2264807817621
 21
971.2915146268121
 31
0.0
  0
LINE
  5
1092
330
1F
100
AcDbEntity
  8
SANINDUSA
100
AcDbLine
 10
648.3007293191096
 20
971.2915146268121
 30
0.0
 11
648.297029175811
 21
971.2915146268121
 31
0.0
  0
LINE
  5
1095
330
1F
100
AcDbEntity
  8
SANINDUSA
100
AcDbLine
 10
647.9177861489842
 20
971.2915146268121
 30
0.0
 11
647.9617642618956
 21
971.2915146268121
 31
0.0
  0
LINE
  5
109A
330
1F
100
AcDbEntity
  8
SANINDUSA
100
AcDbLine
 10
648.3447074320208
 20
971.2915146268121
 30
0.0
 11
648.3007293191096
 21
971.2915146268121
 31
0.0
  0
LWPOLYLINE
  5
109D
330
1F
100
AcDbEntity
  8
SANINDUSA
100
AcDbPolyline
 90
        3
 70
   128
 43
0.0
 10
647.9343853755622
 20
971.2303875531466
 10
647.929760789903
 20
971.2311142339908
 10
647.9222203036109
 20
971.2315146268121
  0
LWPOLYLINE
  5
109F
330
1F
100
AcDbEntity
  8
SANINDUSA
100
AcDbPolyline
 90
        3
 70
   128
 43
0.0
 10
648.3284568811926
 20
971.2304423420526
 10
648.3327327911021
 20
971.2311142339908
 10
648.3402732773941
 20
971.2315146268121
  0
LINE
  5
10AA
330
1F
100
AcDbEntity
  8
SANINDUSA
100
AcDbLine
 10
647.9012467905025
 20
971.2355146268121
 30
0.0
 11
647.9012467905025
 21
971.2840146268121
 31
0.0
  0
LINE
  5
10AD
330
1F
100
AcDbEntity
  8
SANINDUSA
100
AcDbLine
 10
648.3612467905025
 20
971.2355146268121
 30
0.0
 11
648.3612467905025
 21
971.2840146268121
 31
0.0
  0
LINE
  5
10B4
330
1F
100
AcDbEntity
  8
SANINDUSA
100
AcDbLine
 10
648.3404638486161
 20
971.2315146268121
 30
0.0
 11
648.3432467905025
 21
971.2315146268121
 31
0.0
  0
LINE
  5
10B5
330
1F
100
AcDbEntity
  8
SANINDUSA
100
AcDbLine
 10
647.9220297323889
 20
971.2315146268121
 30
0.0
 11
647.9192467905026
 21
971.2315146268121
 31
0.0
  0
LINE
  5
10B7
330
1F
100
AcDbEntity
  8
SANINDUSA
100
AcDbLine
 10
647.9192467905026
 20
971.2315146268121
 30
0.0
 11
647.9052467905026
 21
971.2315146268121
 31
0.0
  0
LINE
  5
10B8
330
1F
100
AcDbEntity
  8
SANINDUSA
100
AcDbLine
 10
648.3432467905025
 20
971.2315146268121
 30
0.0
 11
648.3572467905026
 21
971.2315146268121
 31
0.0
  0
ARC
  5
10B9
330
1F
100
AcDbEntity
  8
SANINDUSA
100
AcDbCircle
 10
648.3537467905025
 20
971.2840146268121
 30
0.0
 40
0.0075
100
AcDbArc
 50
0.0
 51
90.0
  0
LINE
  5
10BA
330
1F
100
AcDbEntity
  8
SANINDUSA
100
AcDbLine
 10
648.3537467905025
 20
971.2915146268121
 30
0.0
 11
648.3447074320208
 21
971.2915146268121
 31
0.0
  0
ARC
  5
10BB
330
1F
100
AcDbEntity
  8
SANINDUSA
100
AcDbCircle
 10
647.9087467905024
 20
971.2840146268121
 30
0.0
 40
0.0075
100
AcDbArc
 50
90.0
 51
180.0
  0
LINE
  5
10BC
330
1F
100
AcDbEntity
  8
SANINDUSA
100
AcDbLine
 10
647.9087467905024
 20
971.2915146268121
 30
0.0
 11
647.9177861489842
 21
971.2915146268121
 31
0.0
  0
ARC
  5
10BD
330
1F
100
AcDbEntity
  8
SANINDUSA
100
AcDbCircle
 10
648.1414864538077
 20
969.9403973139904
 30
0.0
 40
1.21080347612129
100
AcDbArc
 50
90.4845513716015
 51
92.54222743611576
  0
ARC
  5
10BE
330
1F
100
AcDbEntity
  8
SANINDUSA
100
AcDbCircle
 10
648.1134263750232
 20
971.2799524841635
 30
0.0
 40
0.1324499595920033
100
AcDbArc
 50
250.816260391364
 51
258.8354515665757
  0
LWPOLYLINE
  5
10C0
330
1F
100
AcDbEntity
  8
SANINDUSA
100
AcDbPolyline
 90
       13
 70
   128
 43
0.0
 10
648.1751170196189
 20
971.1500071671697
 10
648.175117019829
 20
971.1500071669691
 10
648.1745323180095
 20
971.1500144718524
 10
648.1726748024536
 20
971.1500808590278
 10
648.1697121601396
 20
971.1501920570816
 10
648.1655563836044
 20
971.1503447026595
 10
648.1605881951024
 20
971.1505213489774
 10
648.1546400731939
 20
971.1507335824427
 10
648.1482153183199
 20
971.1509356024246
 10
648.1411506179158
 20
971.151082506736
 10
648.1362612078639
 20
971.1511385481381
 10
648.1312468505024
 20
971.1511574913512
 10
648.1312467905025
 20
971.1511574913512
  0
ARC
  5
10C1
330
1F
100
AcDbEntity
  8
SANINDUSA
100
AcDbCircle
 10
647.9052467905026
 20
971.2355146268121
 30
0.0
 40
0.00400000000001
100
AcDbArc
 50
180.0
 51
270.0
  0
ARC
  5
10C2
330
1F
100
AcDbEntity
  8
SANINDUSA
100
AcDbCircle
 10
648.3572467905026
 20
971.2355146268121
 30
0.0
 40
0.0040000000000595
100
AcDbArc
 50
270.0
 51
0.0
  0
ARC
  5
10C3
330
1F
100
AcDbEntity
  8
SANINDUSA
100
AcDbCircle
 10
648.1772559119183
 20
971.1402385609542
 30
0.0
 40
0.0100000206197763
100
AcDbArc
 50
102.350295536109
 51
177.999389596122
  0
ARC
  5
10C6
330
1F
100
AcDbEntity
  8
SANINDUSA
100
AcDbCircle
 10
648.0858838204965
 20
971.1401679386675
 30
0.0
 40
0.0100222762588927
100
AcDbArc
 50
2.473120314762458
 51
79.09154133693109
  0
LINE
  5
10C7
330
1F
100
AcDbEntity
  8
SANINDUSA
100
AcDbLine
 10
648.0958967617587
 20
971.1406004068047
 30
0.0
 11
648.0965847531686
 21
971.1185033611002
 31
0.0
  0
ARC
  5
10C9
330
1F
100
AcDbEntity
  8
SANINDUSA
100
AcDbCircle
 10
648.0284863051885
 20
971.1169024731111
 30
0.0
 40
0.06811726256723
100
AcDbArc
 50
356.2772571372613
 51
1.346686110428087
  0
LINE
  5
10CD
330
1F
100
AcDbEntity
  8
SANINDUSA
100
AcDbLine
 10
648.1652811017276
 20
971.111514626812
 30
0.0
 11
648.0974521871712
 21
971.111514626812
 31
0.0
  0
LWPOLYLINE
  5
10CE
330
1F
100
AcDbEntity
  8
SANINDUSA
100
AcDbPolyline
 90
        9
 70
   128
 43
0.0
 10
648.0974521871712
 20
971.111514626812
 10
648.0972627220674
 20
971.1115329996287
 10
648.0970802189787
 20
971.1115874429575
 10
648.0969113840967
 20
971.1116759562441
 10
648.0967624213661
 20
971.1117952870118
 10
648.0966388045168
 20
971.1119410503757
 10
648.0965450759279
 20
971.112107890169
 10
648.0964846797162
 20
971.1122896757578
 10
648.0964598351782
 20
971.1124797273154
  0
LWPOLYLINE
  5
10CF
330
1F
100
AcDbEntity
  8
SANINDUSA
100
AcDbPolyline
 90
        4
 70
   128
 43
0.0
 10
648.28843026359
 20
971.1500026005376
 10
648.2884302035925
 20
971.1500026000928
 10
648.2844303596163
 20
971.1499734806483
 10
648.2820153584198
 20
971.1499564112338
  0
ARC
  5
10D0
330
1F
100
AcDbEntity
  8
SANINDUSA
100
AcDbCircle
 10
648.5404538201517
 20
971.379208652614
 30
0.0
 40
0.3437986123625682
100
AcDbArc
 50
217.7357956737142
 51
221.0519757184299
  0
LWPOLYLINE
  5
10D1
330
1F
100
AcDbEntity
  8
SANINDUSA
100
AcDbPolyline
 90
        9
 70
   128
 43
0.0
 10
648.2685636698114
 20
971.1687965997029
 10
648.267626278905
 20
971.1695409109713
 10
648.2661314887317
 20
971.1700550770324
 10
648.2635150331266
 20
971.1703084777711
 10
648.2601654227013
 20
971.1701154138529
 10
648.2557522887063
 20
971.169389681272
 10
648.2508292121658
 20
971.1682353232092
 10
648.2454870702057
 20
971.1667428328501
 10
648.2399803611244
 20
971.1650620007132
  0
ARC
  5
10D2
330
1F
100
AcDbEntity
  8
SANINDUSA
100
AcDbCircle
 10
648.1194272512316
 20
971.5740119505682
 30
0.0
 40
0.4263485824899805
100
AcDbArc
 50
279.0054965519314
 51
284.6764668507755
  0
ARC
  5
10D3
330
1F
100
AcDbEntity
  8
SANINDUSA
100
AcDbCircle
 10
648.1194272512317
 20
971.5740119505678
 30
0.0
 40
0.4263485824896374
100
AcDbArc
 50
284.6764668507755
 51
286.4248291571088
  0
LWPOLYLINE
  5
10D6
330
1F
100
AcDbEntity
  8
SANINDUSA
100
AcDbPolyline
 90
        9
 70
   128
 43
0.0
 10
647.9939299111936
 20
971.1687965997029
 10
647.9948673021001
 20
971.1695409109713
 10
647.9963620922734
 20
971.1700550770324
 10
647.9989785478785
 20
971.1703084777711
 10
648.0023281583036
 20
971.1701154138529
 10
648.0067412922988
 20
971.169389681272
 10
648.0116643688393
 20
971.1682353232092
 10
648.0170065107994
 20
971.1667428328501
 10
648.0225132198807
 20
971.1650620007132
  0
ARC
  5
10D7
330
1F
100
AcDbEntity
  8
SANINDUSA
100
AcDbCircle
 10
647.7220397608524
 20
971.3792086526147
 30
0.0
 40
0.3437986123635914
100
AcDbArc
 50
318.94802428157
 51
322.2642043262859
  0
LWPOLYLINE
  5
10D8
330
1F
100
AcDbEntity
  8
SANINDUSA
100
AcDbPolyline
 90
        4
 70
   128
 43
0.0
 10
647.9740633174151
 20
971.1500026005376
 10
647.9740633774127
 20
971.1500026000928
 10
647.9780632213889
 20
971.1499734806483
 10
647.9804782225852
 20
971.1499564112338
  0
ARC
  5
10DB
330
1F
100
AcDbEntity
  8
SANINDUSA
100
AcDbCircle
 10
648.0592864445758
 20
971.1216417460386
 30
0.0
 40
0.0348025910040478
100
AcDbArc
 50
79.80499070976484
 51
93.3050382274717
  0
ARC
  5
10DC
330
1F
100
AcDbEntity
  8
SANINDUSA
100
AcDbCircle
 10
648.1364761735911
 20
971.5477237567354
 30
0.0
 40
0.3992713041784096
100
AcDbArc
 50
253.4156044517876
 51
255.2801062061371
  0
ARC
  5
10DD
330
1F
100
AcDbEntity
  8
SANINDUSA
100
AcDbCircle
 10
648.1364761735911
 20
971.5477237567352
 30
0.0
 40
0.3992713041783396
100
AcDbArc
 50
255.2801062061371
 51
258.559415030884
  0
LWPOLYLINE
  5
10DE
330
1F
100
AcDbEntity
  8
SANINDUSA
100
AcDbPolyline
 90
        6
 70
   128
 43
0.0
 10
648.3088931691701
 20
971.2243240429298
 10
648.3081830655102
 20
971.207699700129
 10
648.3068937484419
 20
971.1786787384456
 10
648.3063724122891
 20
971.1672814544476
 10
648.3063724095242
 20
971.1672813945122
 10
648.3063724095242
 20
971.1672813945122
  0
LWPOLYLINE
  5
10E1
330
1F
100
AcDbEntity
  8
SANINDUSA
100
AcDbPolyline
 90
        6
 70
   128
 43
0.0
 10
647.9535989425171
 20
971.224358441349
 10
647.954310515495
 20
971.207699700129
 10
647.9555998325633
 20
971.1786787384456
 10
647.9561211687159
 20
971.1672814544476
 10
647.9561211714809
 20
971.1672813945122
 10
647.9561211714809
 20
971.1672813945122
  0
ARC
  5
10E4
330
1F
100
AcDbEntity
  8
SANINDUSA
100
AcDbCircle
 10
647.974327252351
 20
971.1682315499929
 30
0.0
 40
0.0182309289585104
100
AcDbArc
 50
182.9876635896233
 51
269.1702695853644
  0
ARC
  5
10E7
330
1F
100
AcDbEntity
  8
SANINDUSA
100
AcDbCircle
 10
648.288166328654
 20
971.1682315499929
 30
0.0
 40
0.0182309289585058
100
AcDbArc
 50
270.8297304146356
 51
357.0123364103766
  0
LINE
  5
10EF
330
1F
100
AcDbEntity
  8
SANINDUSA
100
AcDbLine
 10
648.0922322774555
 20
971.1137282770776
 30
0.0
 11
648.0916298546965
 21
971.1137618625214
 31
0.0
  0
ARC
  5
10F2
330
1F
100
AcDbEntity
  8
SANINDUSA
100
AcDbCircle
 10
648.091853881716
 20
971.1083287121747
 30
0.0
 40
0.0054128074487558
100
AcDbArc
 50
44.18909279528242
 51
85.99132668818443
  0
ARC
  5
10F4
330
1F
100
AcDbEntity
  8
SANINDUSA
100
AcDbCircle
 10
648.0967252887839
 20
971.1125115824614
 30
0.0
 40
0.0009969556498857
100
AcDbArc
 50
221.8996921493074
 51
269.9981725992291
  0
ARC
  5
10F5
330
1F
100
AcDbEntity
  8
SANINDUSA
100
AcDbCircle
 10
648.092154453063
 20
971.108380001584
 30
0.0
 40
0.0051644239755144
100
AcDbArc
 50
42.15112973367681
 51
46.10577352086636
  0
LINE
  5
10F6
330
1F
100
AcDbEntity
  8
SANINDUSA
100
AcDbLine
 10
648.0974521871712
 20
971.111514626812
 30
0.0
 11
648.0967252569866
 21
971.111514626812
 31
0.0
  0
LWPOLYLINE
  5
10FC
330
1F
100
AcDbEntity
  8
SANINDUSA
100
AcDbPolyline
 90
        3
 70
   128
 43
0.0
 10
648.0654464687977
 20
971.1558948399455
 10
648.068669193543
 20
971.1552363722612
 10
648.0699035008209
 20
971.1548575153713
  0
LINE
  5
1102
330
1F
100
AcDbEntity
  8
SANINDUSA
100
AcDbLine
 10
648.2271428501152
 20
971.2965146268121
 30
0.0
 11
648.1312467905025
 21
971.2965146268121
 31
0.0
  0
LINE
  5
1105
330
1F
100
AcDbEntity
  8
SANINDUSA
100
AcDbLine
 10
648.0353507308898
 20
971.2965146268121
 30
0.0
 11
648.1312467905025
 21
971.2965146268121
 31
0.0
  0
LINE
  5
111F
330
1F
100
AcDbEntity
  8
SANINDUSA
100
AcDbLine
 10
648.3612467905025
 20
971.2840146268121
 30
0.0
 11
648.3612467905025
 21
971.2882900678632
 31
0.0
  0
LINE
  5
1121
330
1F
100
AcDbEntity
  8
SANINDUSA
100
AcDbLine
 10
647.9012467905025
 20
971.2840146268121
 30
0.0
 11
647.9012467905025
 21
971.2882900678632
 31
0.0
  0
LWPOLYLINE
  5
1127
330
1F
100
AcDbEntity
  8
SANINDUSA
100
AcDbPolyline
 90
        3
 70
   128
 43
0.0
 10
648.2339454816517
 20
971.156248476416
 10
648.2281876323035
 20
971.1609964025678
 10
648.2274471994446
 20
971.161574313368
  0
LWPOLYLINE
  5
1128
330
1F
100
AcDbEntity
  8
SANINDUSA
100
AcDbPolyline
 90
        3
 70
   128
 43
0.0
 10
648.0350238200885
 20
971.1615567018109
 10
648.0343059487014
 20
971.1609964025678
 10
648.0285480993533
 20
971.156248476416
  0
ARC
  5
1129
330
1F
100
AcDbEntity
  8
SANINDUSA
100
AcDbCircle
 10
648.0152767856647
 20
971.1715173251189
 30
0.0
 40
0.0202303116075019
100
AcDbArc
 50
267.9380368474268
 51
310.9963791436432
  0
ARC
  5
112B
330
1F
100
AcDbEntity
  8
SANINDUSA
100
AcDbCircle
 10
648.2472167953404
 20
971.1715173251189
 30
0.0
 40
0.0202303116074482
100
AcDbArc
 50
229.0036208563567
 51
272.0619631525732
  0
LWPOLYLINE
  5
1131
330
1F
100
AcDbEntity
  8
SANINDUSA
100
AcDbPolyline
 90
        3
 70
   128
 43
0.0
 10
648.0145488934226
 20
971.151300112635
 10
648.0045563632213
 20
971.1516646762511
 10
647.9895002563536
 20
971.1522812737893
  0
LWPOLYLINE
  5
1134
330
1F
100
AcDbEntity
  8
SANINDUSA
100
AcDbPolyline
 90
        3
 70
   128
 43
0.0
 10
648.2479446875824
 20
971.151300112635
 10
648.2579372177838
 20
971.1516646762511
 10
648.2729933246515
 20
971.1522812737893
  0
ARC
  5
1135
330
1F
100
AcDbEntity
  8
SANINDUSA
100
AcDbCircle
 10
647.9909117964727
 20
971.192474292118
 30
0.0
 40
0.0402177966562705
100
AcDbArc
 50
256.1774735239981
 51
267.9886539943126
  0
ARC
  5
1136
330
1F
100
AcDbEntity
  8
SANINDUSA
100
AcDbCircle
 10
648.2715817845322
 20
971.1924742921183
 30
0.0
 40
0.0402177966566723
100
AcDbArc
 50
272.0113460056873
 51
283.8225264760019
  0
LWPOLYLINE
  5
1138
330
1F
100
AcDbEntity
  8
SANINDUSA
100
AcDbPolyline
 90
        4
 70
   128
 43
0.0
 10
647.9804782225852
 20
971.1499564112338
 10
647.9844780812875
 20
971.1499289780453
 10
648.0004776036786
 20
971.1498294223236
 10
648.0133963603218
 20
971.1497604023135
  0
LWPOLYLINE
  5
1139
330
1F
100
AcDbEntity
  8
SANINDUSA
100
AcDbPolyline
 90
        4
 70
   128
 43
0.0
 10
648.2820153584198
 20
971.1499564112338
 10
648.2780154997176
 20
971.1499289780453
 10
648.2620159773264
 20
971.1498294223236
 10
648.2490972206833
 20
971.1497604023135
  0
ARC
  5
113F
330
1F
100
AcDbEntity
  8
SANINDUSA
100
AcDbCircle
 10
648.013491815821
 20
971.1701075689768
 30
0.0
 40
0.0203473905692006
100
AcDbArc
 50
269.7312079241763
 51
311.6586201304012
  0
LWPOLYLINE
  5
1140
330
1F
100
AcDbEntity
  8
SANINDUSA
100
AcDbPolyline
 90
        3
 70
   128
 43
0.0
 10
648.0285480993533
 20
971.156248476416
 10
648.0277818539674
 20
971.1555810528405
 10
648.0270165421464
 20
971.1549056585443
  0
ARC
  5
1141
330
1F
100
AcDbEntity
  8
SANINDUSA
100
AcDbCircle
 10
648.2490017651841
 20
971.1701075689768
 30
0.0
 40
0.0203473905691973
100
AcDbArc
 50
228.3413798695988
 51
270.2687920758237
  0
LWPOLYLINE
  5
1142
330
1F
100
AcDbEntity
  8
SANINDUSA
100
AcDbPolyline
 90
        3
 70
   128
 43
0.0
 10
648.2339454816517
 20
971.156248476416
 10
648.2347117270377
 20
971.1555810528405
 10
648.2354770388585
 20
971.1549056585443
  0
LINE
  5
1144
330
1F
100
AcDbEntity
  8
SANINDUSA
100
AcDbLine
 10
647.9012467905025
 20
971.2882900678632
 30
0.0
 11
647.9012467905025
 21
971.2964038495192
 31
0.0
  0
LINE
  5
1146
330
1F
100
AcDbEntity
  8
SANINDUSA
100
AcDbLine
 10
648.3612467905025
 20
971.2882900678632
 30
0.0
 11
648.3612467905025
 21
971.2964038495192
 31
0.0
  0
LINE
  5
1148
330
1F
100
AcDbEntity
  8
SANINDUSA
100
AcDbLine
 10
648.3537467905025
 20
971.3044728687915
 30
0.0
 11
647.9087467905024
 21
971.3044728687915
 31
0.0
  0
ARC
  5
114A
330
1F
100
AcDbEntity
  8
SANINDUSA
100
AcDbCircle
 10
648.3537307645607
 20
971.2969566861236
 30
0.0
 40
0.0075161997532041
100
AcDbArc
 50
359.6103465906021
 51
89.87783460548934
  0
LINE
  5
114B
330
1F
100
AcDbEntity
  8
SANINDUSA
100
AcDbLine
 10
648.3612467905025
 20
971.2964038495192
 30
0.0
 11
648.3612467905025
 21
971.2969055708361
 31
0.0
  0
ARC
  5
114C
330
1F
100
AcDbEntity
  8
SANINDUSA
100
AcDbCircle
 10
647.9087628164442
 20
971.2969566861236
 30
0.0
 40
0.0075161997531612
100
AcDbArc
 50
90.12216539451065
 51
180.3896534028842
  0
LINE
  5
114D
330
1F
100
AcDbEntity
  8
SANINDUSA
100
AcDbLine
 10
647.9012467905025
 20
971.2964038495192
 30
0.0
 11
647.9012467905025
 21
971.2969055708361
 31
0.0
  0
ARC
  5
1153
330
1F
100
AcDbEntity
  8
SANINDUSA
100
AcDbCircle
 10
647.5477599093677
 20
971.333187017513
 30
0.0
 40
0.2008732358100392
100
AcDbArc
 50
298.1342008570284
 51
311.4104368686719
  0
LWPOLYLINE
  5
1154
330
1F
100
AcDbEntity
  8
SANINDUSA
100
AcDbPolyline
 90
        9
 70
   128
 43
0.0
 10
647.6425305400247
 20
971.1557299611881
 10
647.6413268750865
 20
971.1552538222788
 10
647.6400413176941
 20
971.1551026261124
 10
647.6387600268373
 20
971.1552865059662
 10
647.6375688755593
 20
971.1557931380788
 10
647.636547695684
 20
971.1565885675982
 10
647.6357649274278
 20
971.1576194842603
 10
647.6352730324877
 20
971.158816795282
 10
647.6351049780195
 20
971.1601002560096
  0
ARC
  5
1155
330
1F
100
AcDbEntity
  8
SANINDUSA
100
AcDbCircle
 10
647.4886549252753
 20
971.2885082523687
 30
0.0
 40
0.0079848120797493
100
AcDbArc
 50
22.11777034879842
 51
90.31178950380473
  0
LINE
  5
1156
330
1F
100
AcDbEntity
  8
SANINDUSA
100
AcDbLine
 10
647.507176791372
 20
971.1171241793239
 30
0.0
 11
647.50733897921
 21
971.1124797273154
 31
0.0
  0
LINE
  5
1157
330
1F
100
AcDbEntity
  8
SANINDUSA
100
AcDbLine
 10
647.5774063833145
 20
971.1124797273154
 30
0.0
 11
647.5784320359148
 21
971.1418505749589
 31
0.0
  0
ARC
  5
1158
330
1F
100
AcDbEntity
  8
SANINDUSA
100
AcDbCircle
 10
647.5764069924874
 20
971.1125146268122
 30
0.0
 40
0.0010000000000001
100
AcDbArc
 50
270.0
 51
358.0000000027562
  0
ARC
  5
1159
330
1F
100
AcDbEntity
  8
SANINDUSA
100
AcDbCircle
 10
647.5083383700371
 20
971.1125146268122
 30
0.0
 40
0.0010000000000001
100
AcDbArc
 50
181.9999999972438
 51
270.0
  0
LINE
  5
115B
330
1F
100
AcDbEntity
  8
SANINDUSA
100
AcDbLine
 10
647.380104977636
 20
971.2969055708361
 30
0.0
 11
647.380104977636
 21
971.3024812203958
 31
0.0
  0
ARC
  5
115C
330
1F
100
AcDbEntity
  8
SANINDUSA
100
AcDbCircle
 10
647.3821049776361
 20
971.3024812203958
 30
0.0
 40
0.002
100
AcDbArc
 50
84.7620804342833
 51
180.0
  0
ARC
  5
1161
330
1F
100
AcDbEntity
  8
SANINDUSA
100
AcDbCircle
 10
647.3813746443735
 20
971.2945146268122
 30
0.0
 40
0.0099999999999999
100
AcDbArc
 50
49.08561677964671
 51
84.7620804342833
  0
LINE
  5
1169
330
1F
100
AcDbEntity
  8
SANINDUSA
100
AcDbLine
 10
647.6271049776361
 20
971.2315146268121
 30
0.0
 11
647.3821049776361
 21
971.2315146268121
 31
0.0
  0
LINE
  5
116B
330
1F
100
AcDbEntity
  8
SANINDUSA
100
AcDbLine
 10
647.645104977636
 20
971.2420560611185
 30
0.0
 11
647.645104977636
 21
971.2355146268121
 31
0.0
  0
LWPOLYLINE
  5
1170
330
1F
100
AcDbEntity
  8
SANINDUSA
100
AcDbPolyline
 90
        4
 70
   128
 43
0.0
 10
647.645104977636
 20
971.2420560611185
 10
647.6450496448469
 20
971.260002330327
 10
647.6449550613804
 20
971.2779948103321
 10
647.6449299657119
 20
971.2840146268121
  0
LINE
  5
1171
330
1F
100
AcDbEntity
  8
SANINDUSA
100
AcDbLine
 10
647.6411052130654
 20
971.2315146268121
 30
0.0
 11
647.6271049776361
 21
971.2315146268121
 31
0.0
  0
LINE
  5
1172
330
1F
100
AcDbEntity
  8
SANINDUSA
100
AcDbLine
 10
647.3879239497577
 20
971.30207151764
 30
0.0
 11
647.3972860055144
 21
971.2939577359842
 31
0.0
  0
LINE
  5
1174
330
1F
100
AcDbEntity
  8
SANINDUSA
100
AcDbLine
 10
647.380104977636
 20
971.2355146268121
 30
0.0
 11
647.380104977636
 21
971.2969055708361
 31
0.0
  0
LINE
  5
1176
330
1F
100
AcDbEntity
  8
SANINDUSA
100
AcDbLine
 10
647.380104977636
 20
971.2335146268122
 30
0.0
 11
647.380104977636
 21
971.2355146268121
 31
0.0
  0
ARC
  5
1177
330
1F
100
AcDbEntity
  8
SANINDUSA
100
AcDbCircle
 10
647.3821049776361
 20
971.2335146268122
 30
0.0
 40
0.002
100
AcDbArc
 50
180.0
 51
270.0
  0
ARC
  5
1178
330
1F
100
AcDbEntity
  8
SANINDUSA
100
AcDbCircle
 10
647.4038353108985
 20
971.3015146268121
 30
0.0
 40
0.0100000000000002
100
AcDbArc
 50
229.0856167796467
 51
270.0
  0
LINE
  5
117A
330
1F
100
AcDbEntity
  8
SANINDUSA
100
AcDbLine
 10
647.4038353108985
 20
971.2915146268121
 30
0.0
 11
647.6271049776361
 21
971.2915146268121
 31
0.0
  0
LINE
  5
117C
330
1F
100
AcDbEntity
  8
SANINDUSA
100
AcDbLine
 10
647.6271049776361
 20
971.2915146268121
 30
0.0
 11
647.6375028873469
 21
971.2915146268121
 31
0.0
  0
LWPOLYLINE
  5
117D
330
1F
100
AcDbEntity
  8
SANINDUSA
100
AcDbPolyline
 90
        9
 70
   128
 43
0.0
 10
647.6375028873469
 20
971.2915146268121
 10
647.6389518384568
 20
971.2913705164153
 10
647.640345107188
 20
971.290943723306
 10
647.6416291510047
 20
971.2902506489044
 10
647.6427546248231
 20
971.289317927671
 10
647.6436782773155
 20
971.2881814035597
 10
647.6443646130345
 20
971.2868847525548
 10
647.6447872564835
 20
971.2854778042272
 10
647.6449299657119
 20
971.2840146268121
  0
ARC
  5
117E
330
1F
100
AcDbEntity
  8
SANINDUSA
100
AcDbCircle
 10
647.6411049776362
 20
971.2355146268119
 30
0.0
 40
0.0039999999999074
100
AcDbArc
 50
270.0
 51
0.0
  0
LINE
  5
1182
330
1F
100
AcDbEntity
  8
SANINDUSA
100
AcDbLine
 10
647.6375028873469
 20
971.2915146268121
 30
0.0
 11
647.6625078203441
 21
971.2915146268121
 31
0.0
  0
LINE
  5
1189
330
1F
100
AcDbEntity
  8
SANINDUSA
100
AcDbLine
 10
647.6351049776361
 20
971.2130080578607
 30
0.0
 11
647.6351049776361
 21
971.2316044234771
 31
0.0
  0
ARC
  5
1196
330
1F
100
AcDbEntity
  8
SANINDUSA
100
AcDbCircle
 10
647.5470190885996
 20
971.3333461372881
 30
0.0
 40
0.2013970474848656
100
AcDbArc
 50
311.5375607932285
 51
345.2593301835484
  0
LINE
  5
119A
330
1F
100
AcDbEntity
  8
SANINDUSA
100
AcDbLine
 10
647.380104977636
 20
971.1673679598103
 30
0.0
 11
647.380104977636
 21
971.233454687924
 31
0.0
  0
LINE
  5
11A4
330
1F
100
AcDbEntity
  8
SANINDUSA
100
AcDbLine
 10
647.380104977636
 20
971.1519619975947
 30
0.0
 11
647.380104977636
 21
971.1673679598103
 31
0.0
  0
LINE
  5
11A5
330
1F
100
AcDbEntity
  8
SANINDUSA
100
AcDbLine
 10
647.6625078203441
 20
971.2915146268121
 30
0.0
 11
647.7345352873832
 21
971.2915146269478
 31
0.0
  0
ARC
  5
11AA
330
1F
100
AcDbEntity
  8
SANINDUSA
100
AcDbCircle
 10
647.5370356598216
 20
971.3323184330652
 30
0.0
 40
0.1876158716910214
100
AcDbArc
 50
285.0730694120805
 51
298.8937722726729
  0
ARC
  5
11AB
330
1F
100
AcDbEntity
  8
SANINDUSA
100
AcDbCircle
 10
647.5529073765065
 20
971.6134101696011
 30
0.0
 40
0.4634232707923886
100
AcDbArc
 50
269.4389045752066
 51
274.0732685870958
  0
LWPOLYLINE
  5
11AF
330
1F
100
AcDbEntity
  8
SANINDUSA
100
AcDbPolyline
 90
        9
 70
   128
 43
0.0
 10
647.4707552446378
 20
971.1676237918412
 10
647.4802904291057
 20
971.1695409109713
 10
647.4841048463368
 20
971.1700550770324
 10
647.4885133046702
 20
971.1703084777711
 10
647.4923976637469
 20
971.1701154138529
 10
647.4959133686438
 20
971.169389681272
 10
647.4985359031099
 20
971.1682353232092
 10
647.5002631552468
 20
971.1667428328501
 10
647.5010624712303
 20
971.1650620007132
  0
ARC
  5
11B0
330
1F
100
AcDbEntity
  8
SANINDUSA
100
AcDbCircle
 10
646.4947784214784
 20
975.8267028301803
 30
0.0
 40
4.760204643167667
100
AcDbArc
 50
280.966177135583
 51
281.8311576457375
  0
LWPOLYLINE
  5
11B5
330
1F
100
AcDbEntity
  8
SANINDUSA
100
AcDbPolyline
 90
        6
 70
   128
 43
0.0
 10
647.5010624712303
 20
971.1650620007132
 10
647.5019709948263
 20
971.1627518217422
 10
647.503500627275
 20
971.1607071385925
 10
647.505334108067
 20
971.1588377604565
 10
647.5072634869761
 20
971.1571074636275
 10
647.5080920916891
 20
971.1563856061031
  0
LINE
  5
11B6
330
1F
100
AcDbEntity
  8
SANINDUSA
100
AcDbLine
 10
647.6351049776361
 20
971.1601909417939
 30
0.0
 11
647.6351049776361
 21
971.2130080578607
 31
0.0
  0
LWPOLYLINE
  5
11B8
330
1F
100
AcDbEntity
  8
SANINDUSA
100
AcDbPolyline
 90
        9
 70
   128
 43
0.0
 10
647.380104977636
 20
971.1517481164886
 10
647.3801489993733
 20
971.1513308090779
 10
647.3802791266714
 20
971.1509318722642
 10
647.3804896311009
 20
971.1505688679393
 10
647.3807712458912
 20
971.1502577761839
 10
647.3811115738697
 20
971.1500122917978
 10
647.3814956332077
 20
971.1498432214302
 10
647.381906516946
 20
971.1497580078523
 10
647.3823261372687
 20
971.1497604023135
  0
LINE
  5
11B9
330
1F
100
AcDbEntity
  8
SANINDUSA
100
AcDbLine
 10
647.380104977636
 20
971.1517481164886
 30
0.0
 11
647.380104977636
 21
971.1519620463873
 31
0.0
  0
ARC
  5
11BA
330
1F
100
AcDbEntity
  8
SANINDUSA
100
AcDbCircle
 10
647.4112218879207
 20
971.108374187448
 30
0.0
 40
0.0463498398544247
100
AcDbArc
 50
103.6170136339277
 51
108.6844106654137
  0
LWPOLYLINE
  5
11BC
330
1F
100
AcDbEntity
  8
SANINDUSA
100
AcDbPolyline
 90
        3
 70
   128
 43
0.0
 10
647.3823261372687
 20
971.1497604023135
 10
647.3912205859725
 20
971.1507551467992
 10
647.3960308288666
 20
971.151300112635
  0
ARC
  5
11BD
330
1F
100
AcDbEntity
  8
SANINDUSA
100
AcDbCircle
 10
647.630104977636
 20
971.1636798369294
 30
0.0
 40
0.0049999999999999
100
AcDbArc
 50
0.0
 51
118.8910210287758
  0
LWPOLYLINE
  5
11BE
330
1F
100
AcDbEntity
  8
SANINDUSA
100
AcDbPolyline
 90
        6
 70
   128
 43
0.0
 10
647.3992887416999
 20
971.1530593648065
 10
647.3990981981044
 20
971.1528443324386
 10
647.3984456625707
 20
971.1522611852689
 10
647.3977013608942
 20
971.1518007224681
 10
647.3968881071397
 20
971.1514770579745
 10
647.3960308288666
 20
971.151300112635
  0
LINE
  5
11CB
330
1F
100
AcDbEntity
  8
SANINDUSA
100
AcDbLine
 10
647.3980660801294
 20
971.2965146268121
 30
0.0
 11
647.4886136731135
 21
971.2965146268121
 31
0.0
  0
ARC
  5
11CD
330
1F
100
AcDbEntity
  8
SANINDUSA
100
AcDbCircle
 10
647.3980660801294
 20
971.3065146268121
 30
0.0
 40
0.0100000000000002
100
AcDbArc
 50
229.0856167796467
 51
270.0
  0
LWPOLYLINE
  5
11D1
330
1F
100
AcDbEntity
  8
SANINDUSA
100
AcDbPolyline
 90
        3
 70
   128
 43
0.0
 10
647.4894977698924
 20
971.161949618277
 10
647.4869380431938
 20
971.1672192695735
 10
647.486008862501
 20
971.1701645209844
  0
LINE
  5
11D2
330
1F
100
AcDbEntity
  8
SANINDUSA
100
AcDbLine
 10
647.4903313071089
 20
971.1606344288082
 30
0.0
 11
647.4894976142798
 21
971.1619495265127
 31
0.0
  0
ARC
  5
11D5
330
1F
100
AcDbEntity
  8
SANINDUSA
100
AcDbCircle
 10
647.5134002571918
 20
971.015611172862
 30
0.0
 40
0.1362063869246278
100
AcDbArc
 50
84.61015462341668
 51
92.44975257369851
  0
ARC
  5
11D6
330
1F
100
AcDbEntity
  8
SANINDUSA
100
AcDbCircle
 10
647.5187621576225
 20
971.1528241383248
 30
0.0
 40
0.0112408488835556
100
AcDbArc
 50
161.5239720763235
 51
185.7748974391303
  0
ARC
  5
11D7
330
1F
100
AcDbEntity
  8
SANINDUSA
100
AcDbCircle
 10
647.5066166049497
 20
971.1709421778811
 30
0.0
 40
0.0192733135894823
100
AcDbArc
 50
212.3316892473998
 51
272.8603072203402
  0
LWPOLYLINE
  5
11D8
330
1F
100
AcDbEntity
  8
SANINDUSA
100
AcDbPolyline
 90
        3
 70
   128
 43
0.0
 10
647.5335795217956
 20
971.1495415015686
 10
647.5300892547186
 20
971.1505812579293
 10
647.5261943773776
 20
971.1512153406731
  0
LWPOLYLINE
  5
11D9
330
1F
100
AcDbEntity
  8
SANINDUSA
100
AcDbPolyline
 90
        3
 70
   128
 43
0.0
 10
647.538355450359
 20
971.1477034185151
 10
647.5383523782429
 20
971.1477046505748
 10
647.5335795217956
 20
971.1495415015686
  0
LWPOLYLINE
  5
11DA
330
1F
100
AcDbEntity
  8
SANINDUSA
100
AcDbPolyline
 90
        3
 70
   128
 43
0.0
 10
647.5440423943781
 20
971.1452985145044
 10
647.5414526781617
 20
971.1464319611428
 10
647.5383554504258
 20
971.147703418886
  0
LWPOLYLINE
  5
11DB
330
1F
100
AcDbEntity
  8
SANINDUSA
100
AcDbPolyline
 90
        6
 70
   128
 43
0.0
 10
647.5455650855905
 20
971.1406004068047
 10
647.5455180928961
 20
971.1420416739324
 10
647.5453073722235
 20
971.1433073691734
 10
647.5449364592025
 20
971.1443365674474
 10
647.5443670046074
 20
971.1450913218367
 10
647.5440423943781
 20
971.1452985145044
  0
LINE
  5
11DC
330
1F
100
AcDbEntity
  8
SANINDUSA
100
AcDbLine
 10
647.5449852722235
 20
971.1185033611002
 30
0.0
 11
647.5455650855905
 21
971.1406004068047
 31
0.0
  0
LWPOLYLINE
  5
11DE
330
1F
100
AcDbEntity
  8
SANINDUSA
100
AcDbPolyline
 90
        8
 70
   128
 43
0.0
 10
647.5384184589645
 20
971.1137854758932
 10
647.5384809583713
 20
971.1137817453749
 10
647.5406412170626
 20
971.1139762670727
 10
647.542484654794
 20
971.114700892997
 10
647.5438193338168
 20
971.1157488252359
 10
647.5446682028602
 20
971.1170336755902
 10
647.5449651215276
 20
971.1181627469917
 10
647.5449852722235
 20
971.1185033611002
  0
ARC
  5
11DF
330
1F
100
AcDbEntity
  8
SANINDUSA
100
AcDbCircle
 10
647.5619560475477
 20
971.4818768356737
 30
0.0
 40
0.3688431471795297
100
AcDbArc
 50
258.809548017152
 51
261.4590404801127
  0
ARC
  5
11E0
330
1F
100
AcDbEntity
  8
SANINDUSA
100
AcDbCircle
 10
647.5619560475477
 20
971.4818768356737
 30
0.0
 40
0.3688431471795492
100
AcDbArc
 50
261.4590404801127
 51
266.3412049255399
  0
LINE
  5
11E2
330
1F
100
AcDbEntity
  8
SANINDUSA
100
AcDbLine
 10
647.4707552446378
 20
971.1676237918412
 30
0.0
 11
647.4719809589011
 21
971.138193598397
 31
0.0
  0
LINE
  5
11E6
330
1F
100
AcDbEntity
  8
SANINDUSA
100
AcDbLine
 10
647.4867526699198
 20
971.1207816692498
 30
0.0
 11
647.4903743341635
 21
971.1200463152222
 31
0.0
  0
ARC
  5
11E8
330
1F
100
AcDbEntity
  8
SANINDUSA
100
AcDbCircle
 10
647.4905399379325
 20
971.1389665462661
 30
0.0
 40
0.0185750679971616
100
AcDbArc
 50
182.3848871804694
 51
258.2354797691552
  0
LWPOLYLINE
  5
11EC
330
1F
100
AcDbEntity
  8
SANINDUSA
100
AcDbPolyline
 90
        9
 70
   128
 43
0.0
 10
647.5483691622961
 20
971.1500091202674
 10
647.5475767250438
 20
971.1498284881916
 10
647.5468141001924
 20
971.1495012059931
 10
647.5461050606639
 20
971.1490374758763
 10
647.5454717089924
 20
971.1484517534675
 10
647.5449337883323
 20
971.1477622971978
 10
647.5445080670145
 20
971.1469905991421
 10
647.5442078158367
 20
971.1461607150575
 10
647.5440423943781
 20
971.1452985145044
  0
ARC
  5
11ED
330
1F
100
AcDbEntity
  8
SANINDUSA
100
AcDbCircle
 10
647.5884259441849
 20
971.1415015799918
 30
0.0
 40
0.0100000000000001
100
AcDbArc
 50
105.0739138014363
 51
178.0000000027562
  0
LWPOLYLINE
  5
11F1
330
1F
100
AcDbEntity
  8
SANINDUSA
100
AcDbPolyline
 90
        5
 70
   128
 43
0.0
 10
647.5393307072197
 20
971.1137282770776
 10
647.540045467479
 20
971.1136315054721
 10
647.5406814980525
 20
971.1134042231687
 10
647.5423500026728
 20
971.1124014851636
 10
647.5429192060251
 20
971.1121015938502
  0
ARC
  5
11F2
330
1F
100
AcDbEntity
  8
SANINDUSA
100
AcDbCircle
 10
647.5428748348786
 20
971.1117704488346
 30
0.0
 40
0.0003341045047983
100
AcDbArc
 50
13.03186082846252
 51
82.36821842499093
  0
LINE
  5
11FC
330
1F
100
AcDbEntity
  8
SANINDUSA
100
AcDbLine
 10
647.5430967190749
 20
971.111514626812
 30
0.0
 11
647.5168187660031
 21
971.111514626812
 31
0.0
  0
LWPOLYLINE
  5
11FD
330
1F
100
AcDbEntity
  8
SANINDUSA
100
AcDbPolyline
 90
        5
 70
   128
 43
0.0
 10
647.5430967190749
 20
971.111514626812
 10
647.5430984680488
 20
971.1115147060912
 10
647.5431192141634
 20
971.1115278086472
 10
647.5431634533342
 20
971.1116370130497
 10
647.543200334463
 20
971.1118457870092
  0
ARC
  5
11FE
330
1F
100
AcDbEntity
  8
SANINDUSA
100
AcDbCircle
 10
647.7345352873832
 20
971.2840143333972
 30
0.0
 40
0.0075002935506719
100
AcDbArc
 50
345.2265254795804
 51
90.01089778178908
  0
LINE
  5
1200
330
1F
100
AcDbEntity
  8
SANINDUSA
100
AcDbLine
 10
647.5464049419497
 20
971.111514626812
 30
0.0
 11
647.5430967190749
 21
971.111514626812
 31
0.0
  0
LINE
  5
1202
330
1F
100
AcDbEntity
  8
SANINDUSA
100
AcDbLine
 10
647.5146524626274
 20
971.111514626812
 30
0.0
 11
647.5083383700371
 21
971.111514626812
 31
0.0
  0
LINE
  5
1203
330
1F
100
AcDbEntity
  8
SANINDUSA
100
AcDbLine
 10
647.5764069924874
 20
971.111514626812
 30
0.0
 11
647.5464049419497
 21
971.111514626812
 31
0.0
  0
LINE
  5
1209
330
1F
100
AcDbEntity
  8
SANINDUSA
100
AcDbLine
 10
647.5164169703211
 20
971.111514626812
 30
0.0
 11
647.5146524626274
 21
971.111514626812
 31
0.0
  0
ARC
  5
120A
330
1F
100
AcDbEntity
  8
SANINDUSA
100
AcDbCircle
 10
646.9521482767251
 20
971.3764462693502
 30
0.0
 40
0.3658774027069797
100
AcDbArc
 50
262.4165010916886
 51
268.2151539094624
  0
ARC
  5
120B
330
1F
100
AcDbEntity
  8
SANINDUSA
100
AcDbCircle
 10
646.9294392919863
 20
971.377623433179
 30
0.0
 40
0.367051443773345
100
AcDbArc
 50
271.7662440219545
 51
277.5460217761057
  0
ARC
  5
120C
330
1F
100
AcDbEntity
  8
SANINDUSA
100
AcDbCircle
 10
647.163296817836
 20
971.0477439964657
 30
0.0
 40
0.0604497756810736
100
AcDbArc
 50
117.461699159012
 51
141.3445334204303
  0
ARC
  5
120D
330
1F
100
AcDbEntity
  8
SANINDUSA
100
AcDbCircle
 10
646.7186989488161
 20
971.048366351151
 30
0.0
 40
0.0596558247797999
100
AcDbArc
 50
38.48773844893575
 51
62.60658835173081
  0
LWPOLYLINE
  5
120E
330
1F
100
AcDbEntity
  8
SANINDUSA
100
AcDbPolyline
 90
        3
 70
   128
 43
0.0
 10
646.7654298554457
 20
971.0855203534073
 10
646.7661660089357
 20
971.0845958345986
 10
646.7693450893524
 20
971.0808824289401
  0
LWPOLYLINE
  5
120F
330
1F
100
AcDbEntity
  8
SANINDUSA
100
AcDbPolyline
 90
        3
 70
   128
 43
0.0
 10
647.1121641892366
 20
971.0808763360549
 10
647.1156476510111
 20
971.0849786128399
 10
647.116075477601
 20
971.0855178038558
  0
ARC
  5
1210
330
1F
100
AcDbEntity
  8
SANINDUSA
100
AcDbCircle
 10
647.0355320319464
 20
971.145126126529
 30
0.0
 40
0.1000001926768039
100
AcDbArc
 50
311.7164118390006
 51
319.9664443865086
  0
ARC
  5
1211
330
1F
100
AcDbEntity
  8
SANINDUSA
100
AcDbCircle
 10
646.8530388681037
 20
971.1521600944037
 30
0.0
 40
0.10992726434121
100
AcDbArc
 50
220.47079893353
 51
227.9737253555737
  0
LWPOLYLINE
  5
1212
330
1F
100
AcDbEntity
  8
SANINDUSA
100
AcDbPolyline
 90
        3
 70
   128
 43
0.0
 10
647.0974540115851
 20
971.066367804757
 10
647.0977874438943
 20
971.0666412294932
 10
647.1020742623744
 20
971.0704818025586
  0
LWPOLYLINE
  5
1213
330
1F
100
AcDbEntity
  8
SANINDUSA
100
AcDbPolyline
 90
        3
 70
   128
 43
0.0
 10
646.7794258321199
 20
971.0704807896723
 10
646.7802571507336
 20
971.069701162802
 10
646.784060342105
 20
971.0663835554514
  0
LWPOLYLINE
  5
1214
330
1F
100
AcDbEntity
  8
SANINDUSA
100
AcDbPolyline
 90
       10
 70
   128
 43
0.0
 10
646.7840738587632
 20
971.0663991346969
 10
646.786640931137
 20
971.064206079343
 10
646.7921455470389
 20
971.0598809976735
 10
646.798110620086
 20
971.0555509117513
 10
646.804601975677
 20
971.0511777494403
 10
646.8117442044583
 20
971.0466921205483
 10
646.8195266195135
 20
971.042178482239
 10
646.8272384863142
 20
971.0380766718065
 10
646.8351077303918
 20
971.0342490926667
 10
646.8425923092138
 20
971.030936850642
  0
ARC
  5
1215
330
1F
100
AcDbEntity
  8
SANINDUSA
100
AcDbCircle
 10
646.9493191462543
 20
971.2449179947453
 30
0.0
 40
0.2319633882574879
100
AcDbArc
 50
292.7181287507638
 51
309.6809740765035
  0
LWPOLYLINE
  5
1216
330
1F
100
AcDbEntity
  8
SANINDUSA
100
AcDbPolyline
 90
        3
 70
   128
 43
0.0
 10
647.0367303486705
 20
971.0300414996019
 10
647.0370850984137
 20
971.0301879086854
 10
647.0389029243009
 20
971.0309512678863
  0
ARC
  5
1218
330
1F
100
AcDbEntity
  8
SANINDUSA
100
AcDbCircle
 10
646.9340303899882
 20
971.2448096711476
 30
0.0
 40
0.2325919711931678
100
AcDbArc
 50
247.431968338755
 51
251.9144232512643
  0
ARC
  5
1219
330
1F
100
AcDbEntity
  8
SANINDUSA
100
AcDbCircle
 10
646.9524533264165
 20
971.2312198397549
 30
0.0
 40
0.2181177228625228
100
AcDbArc
 50
287.949848038894
 51
292.7296374680032
  0
LWPOLYLINE
  5
121A
330
1F
100
AcDbEntity
  8
SANINDUSA
100
AcDbPolyline
 90
        3
 70
   128
 43
0.0
 10
646.8618252028708
 20
971.0237091600291
 10
646.8628323700097
 20
971.0233794887487
 10
646.8664771003209
 20
971.0222376949946
  0
LWPOLYLINE
  5
121B
330
1F
100
AcDbEntity
  8
SANINDUSA
100
AcDbPolyline
 90
        3
 70
   128
 43
0.0
 10
647.01502647566
 20
971.0222318587195
 10
647.0156390163829
 20
971.0224194826388
 10
647.0196755384929
 20
971.0237122965859
  0
ARC
  5
121C
330
1F
100
AcDbEntity
  8
SANINDUSA
100
AcDbCircle
 10
646.940818252236
 20
971.2635632460077
 30
0.0
 40
0.2524791056276115
100
AcDbArc
 50
280.3992936175126
 51
287.0924508106607
  0
ARC
  5
121D
330
1F
100
AcDbEntity
  8
SANINDUSA
100
AcDbCircle
 10
646.9409408659033
 20
971.264316718191
 30
0.0
 40
0.2532696051961484
100
AcDbArc
 50
252.9020744218532
 51
259.5742784735394
  0
LWPOLYLINE
  5
121E
330
1F
100
AcDbEntity
  8
SANINDUSA
100
AcDbPolyline
 90
        3
 70
   128
 43
0.0
 10
646.8951083868424
 20
971.015225657503
 10
646.8969457016348
 20
971.0148884163491
 10
646.9038631006302
 20
971.0137689808675
  0
LWPOLYLINE
  5
121F
330
1F
100
AcDbEntity
  8
SANINDUSA
100
AcDbPolyline
 90
        3
 70
   128
 43
0.0
 10
646.9776414087913
 20
971.013750765462
 10
646.9790297456248
 20
971.0139641751153
 10
646.9863925029744
 20
971.0152314388462
  0
LINE
  5
1223
330
1F
100
AcDbEntity
  8
SANINDUSA
100
AcDbLine
 10
647.1687510143785
 20
971.3726146743265
 30
0.0
 11
647.1632510143784
 21
971.3726146743265
 31
0.0
  0
ARC
  5
1224
330
1F
100
AcDbEntity
  8
SANINDUSA
100
AcDbCircle
 10
647.1687510143785
 20
971.3706146743266
 30
0.0
 40
0.002
100
AcDbArc
 50
0.0
 51
90.0
  0
LINE
  5
1225
330
1F
100
AcDbEntity
  8
SANINDUSA
100
AcDbLine
 10
646.7127510143784
 20
971.3726146743265
 30
0.0
 11
646.7182510143784
 21
971.3726146743265
 31
0.0
  0
ARC
  5
1228
330
1F
100
AcDbEntity
  8
SANINDUSA
100
AcDbCircle
 10
646.7127510143784
 20
971.3706146743266
 30
0.0
 40
0.002
100
AcDbArc
 50
90.0
 51
180.0
  0
LINE
  5
122A
330
1F
100
AcDbEntity
  8
SANINDUSA
100
AcDbLine
 10
646.7107510143785
 20
971.3697076812431
 30
0.0
 11
646.7107510143785
 21
971.3706146743266
 31
0.0
  0
LINE
  5
122C
330
1F
100
AcDbEntity
  8
SANINDUSA
100
AcDbLine
 10
647.1707510143784
 20
971.3697076812431
 30
0.0
 11
647.1707510143784
 21
971.3706146743266
 31
0.0
  0
LINE
  5
122F
330
1F
100
AcDbEntity
  8
SANINDUSA
100
AcDbLine
 10
646.7182510143784
 20
971.3726146743265
 30
0.0
 11
647.1632510143784
 21
971.3726146743265
 31
0.0
  0
LWPOLYLINE
  5
1233
330
1F
100
AcDbEntity
  8
SANINDUSA
100
AcDbPolyline
 90
        9
 70
   128
 43
0.0
 10
646.7182510143784
 20
971.3554336464481
 10
646.7167878369633
 20
971.3555280287481
 10
646.7153808886357
 20
971.355807548589
 10
646.7140842376307
 20
971.3562614641798
 10
646.7129477135196
 20
971.3568723317994
 10
646.7120149922862
 20
971.3576166761475
 10
646.7113219178846
 20
971.3584658924883
 10
646.7108951247754
 20
971.359387345914
 10
646.7107510143785
 20
971.3603456254864
  0
LINE
  5
1234
330
1F
100
AcDbEntity
  8
SANINDUSA
100
AcDbLine
 10
646.7107510143785
 20
971.3603456254864
 30
0.0
 11
646.7107510143785
 21
971.3697076812431
 31
0.0
  0
LINE
  5
1235
330
1F
100
AcDbEntity
  8
SANINDUSA
100
AcDbLine
 10
647.1707510143784
 20
971.3603456254864
 30
0.0
 11
647.1707510143784
 21
971.3697076812431
 31
0.0
  0
LWPOLYLINE
  5
1236
330
1F
100
AcDbEntity
  8
SANINDUSA
100
AcDbPolyline
 90
        9
 70
   128
 43
0.0
 10
647.1632510143784
 20
971.3554336464481
 10
647.1647141917935
 20
971.3555280287481
 10
647.1661211401212
 20
971.355807548589
 10
647.167417791126
 20
971.3562614641798
 10
647.1685543152373
 20
971.3568723317994
 10
647.1694870364707
 20
971.3576166761475
 10
647.1701801108722
 20
971.3584658924883
 10
647.1706069039814
 20
971.359387345914
 10
647.1707510143784
 20
971.3603456254864
  0
LINE
  5
1238
330
1F
100
AcDbEntity
  8
SANINDUSA
100
AcDbLine
 10
647.1632510143784
 20
971.3554336464481
 30
0.0
 11
647.0377308308257
 21
971.3554336464481
 31
0.0
  0
ARC
  5
1239
330
1F
100
AcDbEntity
  8
SANINDUSA
100
AcDbCircle
 10
647.0376147433569
 20
971.3633297864769
 30
0.0
 40
0.0078969933298362
100
AcDbArc
 50
229.1453799238464
 51
270.8422903899344
  0
ARC
  5
123A
330
1F
100
AcDbEntity
  8
SANINDUSA
100
AcDbCircle
 10
647.0220792093474
 20
971.3453043708987
 30
0.0
 40
0.0158994190057069
100
AcDbArc
 50
49.29147376829842
 51
90.613917475105
  0
LINE
  5
123B
330
1F
100
AcDbEntity
  8
SANINDUSA
100
AcDbLine
 10
646.8595931765371
 20
971.3612028772175
 30
0.0
 11
647.0219088522197
 21
971.3612028772175
 31
0.0
  0
ARC
  5
123C
330
1F
100
AcDbEntity
  8
SANINDUSA
100
AcDbCircle
 10
646.8594228194095
 20
971.3453043708987
 30
0.0
 40
0.0158994190056742
100
AcDbArc
 50
89.38608252489499
 51
130.7085262317015
  0
ARC
  5
123D
330
1F
100
AcDbEntity
  8
SANINDUSA
100
AcDbCircle
 10
646.8438872854
 20
971.363329786477
 30
0.0
 40
0.0078969933299887
100
AcDbArc
 50
269.1577096100656
 51
310.8546200718927
  0
LINE
  5
123E
330
1F
100
AcDbEntity
  8
SANINDUSA
100
AcDbLine
 10
646.7182510143784
 20
971.3554336464481
 30
0.0
 11
646.8437711979312
 21
971.3554336464481
 31
0.0
  0
LWPOLYLINE
  5
1241
330
1F
100
AcDbEntity
  8
SANINDUSA
100
AcDbPolyline
 90
        9
 70
   128
 43
0.0
 10
646.8490530400195
 20
971.3573567233714
 10
646.849812696519
 20
971.3568230625471
 10
646.8505646196024
 20
971.3562281615672
 10
646.8513011545812
 20
971.3555780766125
 10
646.8520148034196
 20
971.3548794256439
 10
646.8526983010664
 20
971.3541393210324
 10
646.8533446894142
 20
971.3533652971529
 10
646.8539473881336
 20
971.3525652336834
 10
646.8545002616618
 20
971.3517472753888
  0
LWPOLYLINE
  5
1244
330
1F
100
AcDbEntity
  8
SANINDUSA
100
AcDbPolyline
 90
        9
 70
   128
 43
0.0
 10
647.0324489887373
 20
971.3573567233714
 10
647.0316893322379
 20
971.3568230625471
 10
647.0309374091544
 20
971.3562281615672
 10
647.0302008741757
 20
971.3555780766125
 10
647.0294872253374
 20
971.3548794256439
 10
647.0288037276905
 20
971.3541393210324
 10
647.0281573393426
 20
971.3533652971529
 10
647.0275546406234
 20
971.3525652336834
 10
647.027001767095
 20
971.3517472753888
  0
ARC
  5
1248
330
1F
100
AcDbEntity
  8
SANINDUSA
100
AcDbCircle
 10
646.7270407994714
 20
971.3297555653344
 30
0.0
 40
0.1293427609609572
100
AcDbArc
 50
330.5478403265206
 51
9.78936571996056
  0
ARC
  5
124B
330
1F
100
AcDbEntity
  8
SANINDUSA
100
AcDbCircle
 10
647.1544612292855
 20
971.3297555653344
 30
0.0
 40
0.1293427609609572
100
AcDbArc
 50
170.2106342800394
 51
209.4521596734794
  0
LWPOLYLINE
  5
124C
330
1F
100
AcDbEntity
  8
SANINDUSA
100
AcDbPolyline
 90
       10
 70
   128
 43
0.0
 10
647.0372474506319
 20
971.2560177158811
 10
647.0380598635276
 20
971.2561169362967
 10
647.0388688981876
 20
971.2565628371432
 10
647.0396389016983
 20
971.2573357682561
 10
647.0403359411887
 20
971.2584016677498
 10
647.0409292992008
 20
971.2597135630721
 10
647.0413928273589
 20
971.2612136410138
 10
647.0417060986899
 20
971.2628357954462
 10
647.041855307808
 20
971.2645085405181
 10
647.0418338792967
 20
971.2661581609257
  0
LWPOLYLINE
  5
124D
330
1F
100
AcDbEntity
  8
SANINDUSA
100
AcDbPolyline
 90
        4
 70
   128
 43
0.0
 10
647.0359202185118
 20
971.2561390706705
 10
647.0363965959893
 20
971.2560955452342
 10
647.0371510278038
 20
971.2560265240792
 10
647.0372474506319
 20
971.2560177158811
  0
LWPOLYLINE
  5
124F
330
1F
100
AcDbEntity
  8
SANINDUSA
100
AcDbPolyline
 90
        4
 70
   128
 43
0.0
 10
646.8455818102451
 20
971.2561390706705
 10
646.8451054327675
 20
971.2560955452342
 10
646.8443510009531
 20
971.2560265240792
 10
646.844254578125
 20
971.2560177158811
  0
LWPOLYLINE
  5
1251
330
1F
100
AcDbEntity
  8
SANINDUSA
100
AcDbPolyline
 90
       10
 70
   128
 43
0.0
 10
646.844254578125
 20
971.2560177158811
 10
646.8434421652292
 20
971.2561169362967
 10
646.8426331305693
 20
971.2565628371432
 10
646.8418631270586
 20
971.2573357682561
 10
646.841166087568
 20
971.2584016677498
 10
646.8405727295561
 20
971.2597135630721
 10
646.840109201398
 20
971.2612136410138
 10
646.839795930067
 20
971.2628357954462
 10
646.839646720949
 20
971.2645085405181
 10
646.8396681494602
 20
971.2661581609257
  0
CIRCLE
  5
1256
330
1F
100
AcDbEntity
  8
SANINDUSA
100
AcDbCircle
 10
646.9407510143785
 20
971.3076146743265
 30
0.0
 40
0.0175
  0
ARC
  5
1257
330
1F
100
AcDbEntity
  8
SANINDUSA
100
AcDbCircle
 10
646.9359087614035
 20
970.2612507243511
 30
0.0
 40
0.998980370051232
100
AcDbArc
 50
89.7222750776914
 51
95.18772065662213
  0
ARC
  5
1259
330
1F
100
AcDbEntity
  8
SANINDUSA
100
AcDbCircle
 10
646.9455932673533
 20
970.2612507243511
 30
0.0
 40
0.9989803700512139
100
AcDbArc
 50
84.81227934337786
 51
90.27772492230859
  0
ARC
  5
1261
330
1F
100
AcDbEntity
  8
SANINDUSA
100
AcDbCircle
 10
646.8903154466906
 20
970.7199463898707
 30
0.0
 40
0.5380465316157491
100
AcDbArc
 50
94.91096475135783
 51
96.97734533059772
  0
ARC
  5
1265
330
1F
100
AcDbEntity
  8
SANINDUSA
100
AcDbCircle
 10
646.9911865820662
 20
970.7199463898714
 30
0.0
 40
0.5380465316151274
100
AcDbArc
 50
83.02265466940228
 51
85.08903524864216
  0
LWPOLYLINE
  5
1268
330
1F
100
AcDbEntity
  8
SANINDUSA
100
AcDbPolyline
 90
       23
 70
   128
 43
0.0
 10
646.7692018719001
 20
971.1755186051791
 10
646.7698485335975
 20
971.166557942926
 10
646.7712098891115
 20
971.1575647003973
 10
646.7732681523061
 20
971.1487047916909
 10
646.7760569749544
 20
971.1399268766271
 10
646.7797467964916
 20
971.1309672182711
 10
646.7841739105741
 20
971.1223474550257
 10
646.7893821803303
 20
971.1140110987431
 10
646.7953772272468
 20
971.1060379426982
 10
646.8028948031271
 20
971.0977503711072
 10
646.8112601228128
 20
971.0901600762117
 10
646.8203869462008
 20
971.0831147960849
 10
646.8299309126601
 20
971.0765751659437
 10
646.8392559968151
 20
971.0709139931905
 10
646.8488999319995
 20
971.0657476322953
 10
646.8588963628773
 20
971.0610691816784
 10
646.8691601517972
 20
971.056923974244
 10
646.882637785515
 20
971.0524295080675
 10
646.8964641534341
 20
971.0488705494313
 10
646.9073373237989
 20
971.0467832974648
 10
646.9183415675147
 20
971.0452906207287
 10
646.9295134028252
 20
971.0444022889127
 10
646.9407510143785
 20
971.044123829985
  0
LWPOLYLINE
  5
126C
330
1F
100
AcDbEntity
  8
SANINDUSA
100
AcDbPolyline
 90
       23
 70
   128
 43
0.0
 10
647.1123001568569
 20
971.1755186051791
 10
647.1116504810862
 20
971.1665306294227
 10
647.1103027013862
 20
971.1576200512515
 10
647.1082260883511
 20
971.1486766553447
 10
647.1054450538024
 20
971.1399268766271
 10
647.1017845438969
 20
971.1310304415009
 10
647.0973281181827
 20
971.1223474550257
 10
647.0921198484266
 20
971.1140110987431
 10
647.0861248015101
 20
971.1060379426982
 10
647.0786072256299
 20
971.0977503711072
 10
647.0702419059441
 20
971.0901600762117
 10
647.0611150825561
 20
971.0831147960849
 10
647.0515711160967
 20
971.0765751659437
 10
647.0422460319418
 20
971.0709139931905
 10
647.0326020967575
 20
971.0657476322953
 10
647.0226056658796
 20
971.0610691816784
 10
647.0123418769596
 20
971.056923974244
 10
646.9988642432419
 20
971.0524295080675
 10
646.9850378753227
 20
971.0488705494313
 10
646.974164704958
 20
971.0467832974648
 10
646.9631604612422
 20
971.0452906207287
 10
646.9519886259316
 20
971.0444022889127
 10
646.9407510143785
 20
971.044123829985
  0
LINE
  5
1270
330
1F
100
AcDbEntity
  8
SANINDUSA
100
AcDbLine
 10
647.1707510143784
 20
971.348884341064
 30
0.0
 11
647.1707510143784
 21
971.3603456254864
 31
0.0
  0
LINE
  5
1273
330
1F
100
AcDbEntity
  8
SANINDUSA
100
AcDbLine
 10
646.7107510143785
 20
971.348884341064
 30
0.0
 11
646.7107510143785
 21
971.3603456254864
 31
0.0
  0
LWPOLYLINE
  5
1278
330
1F
100
AcDbEntity
  8
SANINDUSA
100
AcDbPolyline
 90
        6
 70
   128
 43
0.0
 10
646.782286907143
 20
971.231646980838
 10
646.7802363493753
 20
971.2282134427942
 10
646.7784774271865
 20
971.2246210600826
 10
646.7755178328751
 20
971.2170359413489
 10
646.7734148021809
 20
971.2103470284608
 10
646.7734147859731
 20
971.2103469707003
  0
ARC
  5
127A
330
1F
100
AcDbEntity
  8
SANINDUSA
100
AcDbCircle
 10
646.8847673512438
 20
971.1792084985249
 30
0.0
 40
0.1156243716907318
100
AcDbArc
 50
164.376956474813
 51
181.8287772190435
  0
LWPOLYLINE
  5
127E
330
1F
100
AcDbEntity
  8
SANINDUSA
100
AcDbPolyline
 90
        6
 70
   128
 43
0.0
 10
647.0992151216138
 20
971.231646980838
 10
647.1012656793816
 20
971.2282134427942
 10
647.1030246015703
 20
971.2246210600826
 10
647.1059841958819
 20
971.2170359413489
 10
647.1080872265759
 20
971.2103470284608
 10
647.1080872427838
 20
971.2103469707003
  0
ARC
  5
1280
330
1F
100
AcDbEntity
  8
SANINDUSA
100
AcDbCircle
 10
646.9967346775129
 20
971.1792084985249
 30
0.0
 40
0.1156243716907487
100
AcDbArc
 50
358.1712227809564
 51
15.62304352518702
  0
LINE
  5
12A2
330
1F
100
AcDbEntity
  8
SANINDUSA
100
AcDbLine
 10
646.7107510143785
 20
971.1256146743265
 30
0.0
 11
646.7107510143785
 21
971.348884341064
 31
0.0
  0
LINE
  5
12A4
330
1F
100
AcDbEntity
  8
SANINDUSA
100
AcDbLine
 10
647.1707510143784
 20
971.1256146743265
 30
0.0
 11
647.1707510143784
 21
971.348884341064
 31
0.0
  0
LWPOLYLINE
  5
12A5
330
1F
100
AcDbEntity
  8
SANINDUSA
100
AcDbPolyline
 90
        6
 70
   128
 43
0.0
 10
646.8249552313728
 20
971.2540082893141
 10
646.8167702009908
 20
971.2529084643016
 10
646.8126832521898
 20
971.2522042199672
 10
646.8086625515235
 20
971.2512021836891
 10
646.8043459469866
 20
971.2496879336839
 10
646.8001540759818
 20
971.2477560002158
  0
LWPOLYLINE
  5
12A6
330
1F
100
AcDbEntity
  8
SANINDUSA
100
AcDbPolyline
 90
        6
 70
   128
 43
0.0
 10
647.0565467973841
 20
971.2540082893141
 10
647.064731827766
 20
971.2529084643016
 10
647.0688098993381
 20
971.2522220586386
 10
647.0728394772334
 20
971.2512021836891
 10
647.0771560817703
 20
971.2496879336839
 10
647.0813479527752
 20
971.2477560002158
  0
LWPOLYLINE
  5
12A7
330
1F
100
AcDbEntity
  8
SANINDUSA
100
AcDbPolyline
 90
        3
 70
   128
 43
0.0
 10
647.0813479527752
 20
971.2477560002158
 10
647.0865475318715
 20
971.2446161501858
 10
647.0913850469334
 20
971.2407800905165
  0
LWPOLYLINE
  5
12A8
330
1F
100
AcDbEntity
  8
SANINDUSA
100
AcDbPolyline
 90
        3
 70
   128
 43
0.0
 10
646.8001540759818
 20
971.2477560002158
 10
646.7949544968854
 20
971.2446161501858
 10
646.7901169818236
 20
971.2407800905165
  0
LWPOLYLINE
  5
12A9
330
1F
100
AcDbEntity
  8
SANINDUSA
100
AcDbPolyline
 90
        3
 70
   128
 43
0.0
 10
647.0913850469334
 20
971.2407800905165
 10
647.0955576583095
 20
971.2364984428095
 10
647.0992151216138
 20
971.231646980838
  0
LWPOLYLINE
  5
12AA
330
1F
100
AcDbEntity
  8
SANINDUSA
100
AcDbPolyline
 90
        3
 70
   128
 43
0.0
 10
646.7901169818236
 20
971.2407800905165
 10
646.7859443704473
 20
971.2364984428095
 10
646.782286907143
 20
971.231646980838
  0
ARC
  5
12AC
330
1F
100
AcDbEntity
  8
SANINDUSA
100
AcDbCircle
 10
646.7287510143783
 20
971.1256146743265
 30
0.0
 40
0.018
100
AcDbArc
 50
180.0
 51
262.0037252239846
  0
ARC
  5
12AD
330
1F
100
AcDbEntity
  8
SANINDUSA
100
AcDbCircle
 10
647.1527510143785
 20
971.1256146743265
 30
0.0
 40
0.0180000000000001
100
AcDbArc
 50
277.9962747760154
 51
0.0
  0
ARC
  5
12AF
330
1F
100
AcDbEntity
  8
SANINDUSA
100
AcDbCircle
 10
647.1633110786577
 20
971.0493238807117
 30
0.0
 40
0.059018228401319
100
AcDbArc
 50
97.84548339631374
 51
118.175862097026
  0
ARC
  5
12B0
330
1F
100
AcDbEntity
  8
SANINDUSA
100
AcDbCircle
 10
646.7181740613495
 20
971.0492468336299
 30
0.0
 40
0.0590968599814382
100
AcDbArc
 50
61.767797340327
 51
82.14849238777658
  0
LWPOLYLINE
  5
12C0
330
1F
100
AcDbEntity
  8
SANINDUSA
100
AcDbPolyline
 90
        3
 70
   128
 43
0.0
 10
648.4942336019477
 20
971.1497604023135
 10
648.5048623328569
 20
971.1509704649619
 10
648.5079103546337
 20
971.1512869411089
  0
LWPOLYLINE
  5
12C1
330
1F
100
AcDbEntity
  8
SANINDUSA
100
AcDbPolyline
 90
       11
 70
   128
 43
0.0
 10
648.5877774727104
 20
971.1681958754924
 10
648.5881016496616
 20
971.1682620396882
 10
648.5907084058793
 20
971.1687144602102
 10
648.5931902447595
 20
971.1690611727306
 10
648.5954837277374
 20
971.1692941646488
 10
648.5975278664179
 20
971.1694129122227
 10
648.5992691573137
 20
971.16942658945
 10
648.6005352065928
 20
971.1693663417419
 10
648.6015012663773
 20
971.1692619514886
 10
648.6023568506879
 20
971.1691069766308
 10
648.6025875730423
 20
971.1690472881885
  0
LWPOLYLINE
  5
12C2
330
1F
100
AcDbEntity
  8
SANINDUSA
100
AcDbPolyline
 90
        3
 70
   128
 43
0.0
 10
648.5110056627834
 20
971.1528443324386
 10
648.5480276768513
 20
971.1603729375875
 10
648.5877814581454
 20
971.1682691933384
  0
ARC
  5
12C3
330
1F
100
AcDbEntity
  8
SANINDUSA
100
AcDbCircle
 10
648.8282175806
 20
971.2835146268121
 30
0.0
 40
0.0079999999999999
100
AcDbArc
 50
90.0
 51
164.6413369375458
  0
LINE
  5
12C5
330
1F
100
AcDbEntity
  8
SANINDUSA
100
AcDbLine
 10
648.8282175806
 20
971.2915146268121
 30
0.0
 11
648.607900693312
 21
971.2915146268121
 31
0.0
  0
ARC
  5
12C6
330
1F
100
AcDbEntity
  8
SANINDUSA
100
AcDbCircle
 10
648.700333408864
 20
971.1415015799918
 30
0.0
 40
0.01
100
AcDbArc
 50
105.0739138014363
 51
178.0000000027562
  0
LWPOLYLINE
  5
12C7
330
1F
100
AcDbEntity
  8
SANINDUSA
100
AcDbPolyline
 90
       15
 70
   128
 43
0.0
 10
648.6542801459412
 20
971.1593007741971
 10
648.6542800859423
 20
971.1593007743633
 10
648.6507027558271
 20
971.1593011923945
 10
648.647127209183
 20
971.1593032936743
 10
648.6418504179121
 20
971.1593480182218
 10
648.6367652636134
 20
971.1594730777029
 10
648.6329017819072
 20
971.1596761548756
 10
648.6295421738264
 20
971.1599993342748
 10
648.6286871504167
 20
971.1600951100614
 10
648.6253702603696
 20
971.1605107968255
 10
648.6229649056327
 20
971.1608575818065
 10
648.6215122152084
 20
971.1610820008866
 10
648.6208670460747
 20
971.1611825605018
 10
648.6208333796334
 20
971.161187570844
 10
648.6208333795878
 20
971.1611875708761
  0
LWPOLYLINE
  5
12CA
330
1F
100
AcDbEntity
  8
SANINDUSA
100
AcDbPolyline
 90
        3
 70
   128
 43
0.0
 10
648.6208333795878
 20
971.1611875708761
 10
648.6216711620104
 20
971.160524694879
 10
648.6224418555083
 20
971.159767030935
  0
LINE
  5
12CC
330
1F
100
AcDbEntity
  8
SANINDUSA
100
AcDbLine
 10
648.6224418564287
 20
971.1597670299267
 30
0.0
 11
648.6294729630862
 21
971.1520645046062
 31
0.0
  0
ARC
  5
12CE
330
1F
100
AcDbEntity
  8
SANINDUSA
100
AcDbCircle
 10
648.6605747252577
 20
971.6926351791054
 30
0.0
 40
0.5333715978952624
100
AcDbArc
 50
269.3238087593048
 51
273.4835701710251
  0
ARC
  5
12CF
330
1F
100
AcDbEntity
  8
SANINDUSA
100
AcDbCircle
 10
648.6954634775092
 20
971.1505614607935
 30
0.0
 40
0.0100000135595588
100
AcDbArc
 50
104.3583341191765
 51
132.0953866299308
  0
ARC
  5
12D1
330
1F
100
AcDbEntity
  8
SANINDUSA
100
AcDbCircle
 10
648.6576973395535
 20
971.3339226947262
 30
0.0
 40
0.1927304863565094
100
AcDbArc
 50
311.6924923837967
 51
343.8258373051092
  0
ARC
  5
12D2
330
1F
100
AcDbEntity
  8
SANINDUSA
100
AcDbCircle
 10
648.8418390178346
 20
971.2805146268122
 30
0.0
 40
0.001
100
AcDbArc
 50
343.8258373051092
 51
90.0
  0
LINE
  5
12D3
330
1F
100
AcDbEntity
  8
SANINDUSA
100
AcDbLine
 10
648.8418390178346
 20
971.2815146268122
 30
0.0
 11
648.8304905468313
 21
971.2815146268122
 31
0.0
  0
ARC
  5
12D4
330
1F
100
AcDbEntity
  8
SANINDUSA
100
AcDbCircle
 10
648.6487961902804
 20
971.3327445321299
 30
0.0
 40
0.1880523795459449
100
AcDbArc
 50
305.2891920348762
 51
343.9621602974319
  0
ARC
  5
12D5
330
1F
100
AcDbEntity
  8
SANINDUSA
100
AcDbCircle
 10
648.8304905468313
 20
971.2805146268122
 30
0.0
 40
0.001
100
AcDbArc
 50
90.0
 51
163.9621602974319
  0
ARC
  5
12D6
330
1F
100
AcDbEntity
  8
SANINDUSA
100
AcDbCircle
 10
648.758012442315
 20
971.1784311739801
 30
0.0
 40
0.001
100
AcDbArc
 50
125.2891920348762
 51
180.0
  0
LINE
  5
12D7
330
1F
100
AcDbEntity
  8
SANINDUSA
100
AcDbLine
 10
648.757012442315
 20
971.1705485117532
 30
0.0
 11
648.757012442315
 21
971.1784311739801
 31
0.0
  0
ARC
  5
12D8
330
1F
100
AcDbEntity
  8
SANINDUSA
100
AcDbCircle
 10
648.6580119811227
 20
971.33365573015
 30
0.0
 40
0.1923218673646038
100
AcDbArc
 50
301.512314985835
 51
311.6753967615982
  0
ARC
  5
12D9
330
1F
100
AcDbEntity
  8
SANINDUSA
100
AcDbCircle
 10
648.758012442315
 20
971.1705485117532
 30
0.0
 40
0.001
100
AcDbArc
 50
180.0
 51
301.512314985835
  0
ARC
  5
12DA
330
1F
100
AcDbEntity
  8
SANINDUSA
100
AcDbCircle
 10
648.8464427520624
 20
971.2840143333972
 30
0.0
 40
0.0075002935505989
100
AcDbArc
 50
345.2265254795804
 51
90.01089778178908
  0
ARC
  5
12DB
330
1F
100
AcDbEntity
  8
SANINDUSA
100
AcDbCircle
 10
648.6578921813531
 20
971.3338084440188
 30
0.0
 40
0.2025150904157461
100
AcDbArc
 50
298.4580789098836
 51
345.2073007750215
  0
ARC
  5
12DC
330
1F
100
AcDbEntity
  8
SANINDUSA
100
AcDbCircle
 10
648.7520126497705
 20
971.1601609087098
 30
0.0
 40
0.0050002075081821
100
AcDbArc
 50
179.9916829437254
 51
298.4380312464794
  0
LINE
  5
12DD
330
1F
100
AcDbEntity
  8
SANINDUSA
100
AcDbLine
 10
648.747012442315
 20
971.1601616343907
 30
0.0
 11
648.747012442315
 21
971.1636798369294
 31
0.0
  0
ARC
  5
12DE
330
1F
100
AcDbEntity
  8
SANINDUSA
100
AcDbCircle
 10
648.7420124423151
 20
971.1636798369294
 30
0.0
 40
0.005
100
AcDbArc
 50
0.0
 51
118.8910210287758
  0
LINE
  5
12DF
330
1F
100
AcDbEntity
  8
SANINDUSA
100
AcDbLine
 10
648.6903395005938
 20
971.1418505749589
 30
0.0
 11
648.6893138479935
 21
971.1124797273154
 31
0.0
  0
ARC
  5
12E0
330
1F
100
AcDbEntity
  8
SANINDUSA
100
AcDbCircle
 10
648.6883144571664
 20
971.1125146268122
 30
0.0
 40
0.0010000000000001
100
AcDbArc
 50
270.0
 51
358.0000000027562
  0
LINE
  5
12E1
330
1F
100
AcDbEntity
  8
SANINDUSA
100
AcDbLine
 10
648.6883144571664
 20
971.111514626812
 30
0.0
 11
648.6787801459412
 21
971.111514626812
 31
0.0
  0
ARC
  5
12E2
330
1F
100
AcDbEntity
  8
SANINDUSA
100
AcDbCircle
 10
648.6787801459412
 20
971.1125146268122
 30
0.0
 40
0.0010000000000002
100
AcDbArc
 50
180.0
 51
270.0
  0
LINE
  5
12E3
330
1F
100
AcDbEntity
  8
SANINDUSA
100
AcDbLine
 10
648.6777801459412
 20
971.1458413285864
 30
0.0
 11
648.6777801459412
 21
971.1125146268122
 31
0.0
  0
ARC
  5
12E4
330
1F
100
AcDbEntity
  8
SANINDUSA
100
AcDbCircle
 10
648.682780148915
 20
971.1458413290333
 30
0.0
 40
0.0050000029737949
100
AcDbArc
 50
132.0954098413371
 51
180.0
  0
LINE
  5
12E5
330
1F
100
AcDbEntity
  8
SANINDUSA
100
AcDbLine
 10
648.6794283113241
 20
971.1495514792327
 30
0.0
 11
648.6887597986473
 21
971.1579817681259
 31
0.0
  0
ARC
  5
12E6
330
1F
100
AcDbEntity
  8
SANINDUSA
100
AcDbCircle
 10
648.6487325280222
 20
971.3327916377211
 30
0.0
 40
0.1781265911238843
100
AcDbArc
 50
284.3843290698652
 51
344.6481979049845
  0
ARC
  5
12E7
330
1F
100
AcDbEntity
  8
SANINDUSA
100
AcDbCircle
 10
648.6489431245006
 20
971.3323184330651
 30
0.0
 40
0.1876158716908806
100
AcDbArc
 50
285.0730694120805
 51
298.8937722726729
  0
LINE
  5
12E8
330
1F
100
AcDbEntity
  8
SANINDUSA
100
AcDbLine
 10
648.8282175806
 20
971.2915146268121
 30
0.0
 11
648.84644132549
 21
971.2915146268121
 31
0.0
  0
LINE
  5
12E9
330
1F
100
AcDbEntity
  8
SANINDUSA
100
AcDbLine
 10
648.619246443889
 20
971.1124797273154
 30
0.0
 11
648.6180681680951
 21
971.1462211313859
 31
0.0
  0
ARC
  5
12EC
330
1F
100
AcDbEntity
  8
SANINDUSA
100
AcDbCircle
 10
648.6257801448203
 20
971.1486935841881
 30
0.0
 40
0.0050000011208256
100
AcDbArc
 50
0.0
 51
42.39080886598497
  0
LINE
  5
12EF
330
1F
100
AcDbEntity
  8
SANINDUSA
100
AcDbLine
 10
648.6307801459412
 20
971.1125146268122
 30
0.0
 11
648.6307801459412
 21
971.1486935840794
 31
0.0
  0
ARC
  5
12F0
330
1F
100
AcDbEntity
  8
SANINDUSA
100
AcDbCircle
 10
648.5964190436974
 20
971.2885146268121
 30
0.0
 40
0.008
100
AcDbArc
 50
3.043745028109645
 51
90.0
  0
LWPOLYLINE
  5
12F2
330
1F
100
AcDbEntity
  8
SANINDUSA
100
AcDbPolyline
 90
       15
 70
   128
 43
0.0
 10
648.6044077579812
 20
971.2889394139267
 10
648.6055484206893
 20
971.2673124137502
 10
648.6066678602363
 20
971.2459547923105
 10
648.6077520619172
 20
971.2252674970141
 10
648.6087905863956
 20
971.2055348065867
 10
648.6090878033398
 20
971.1999339793313
 10
648.6093796666969
 20
971.1944328121719
 10
648.6096624431915
 20
971.1890343373326
 10
648.6099322650627
 20
971.1837415629123
 10
648.6102848949102
 20
971.1786195861208
 10
648.6113428194017
 20
971.1740209272621
 10
648.6131018291177
 20
971.1699416659973
 10
648.6153170122079
 20
971.1665075528756
 10
648.617927158697
 20
971.1635849598438
 10
648.6208333795878
 20
971.1611875708761
  0
ARC
  5
12F3
330
1F
100
AcDbEntity
  8
SANINDUSA
100
AcDbCircle
 10
648.6297801459413
 20
971.1125146268122
 30
0.0
 40
0.0010000000000002
100
AcDbArc
 50
270.0
 51
0.0
  0
LINE
  5
12F4
330
1F
100
AcDbEntity
  8
SANINDUSA
100
AcDbLine
 10
648.6297801459413
 20
971.111514626812
 30
0.0
 11
648.6202458347161
 21
971.111514626812
 31
0.0
  0
ARC
  5
12F5
330
1F
100
AcDbEntity
  8
SANINDUSA
100
AcDbCircle
 10
648.6202458347161
 20
971.1125146268122
 30
0.0
 40
0.0010000000000001
100
AcDbArc
 50
181.9999999972438
 51
270.0
  0
ARC
  5
12F6
330
1F
100
AcDbEntity
  8
SANINDUSA
100
AcDbCircle
 10
648.6080742598249
 20
971.145872136419
 30
0.0
 40
0.01
100
AcDbArc
 50
1.999999997243794
 51
45.53982643063269
  0
LWPOLYLINE
  5
12F7
330
1F
100
AcDbEntity
  8
SANINDUSA
100
AcDbPolyline
 90
       16
 70
   128
 43
0.0
 10
648.5947872659587
 20
971.2815146268122
 10
648.5958320600623
 20
971.2616405966011
 10
648.596857248066
 20
971.24207921364
 10
648.5978502316144
 20
971.2231334872214
 10
648.5988045703419
 20
971.2050061447149
 10
648.5993214067993
 20
971.1952695321441
 10
648.5998121992086
 20
971.1858651265751
 10
648.5999284079017
 20
971.1835682862675
 10
648.600043436867
 20
971.1812667054632
 10
648.6002260043449
 20
971.1786158343816
 10
648.600638338395
 20
971.1756142697366
 10
648.6021065018421
 20
971.1701295805601
 10
648.6042985489409
 20
971.1651980114853
 10
648.6070571003721
 20
971.1608538125782
 10
648.6102995990855
 20
971.1570633996773
 10
648.6150783929547
 20
971.1530095112234
  0
ARC
  5
12F9
330
1F
100
AcDbEntity
  8
SANINDUSA
100
AcDbCircle
 10
648.5897802865581
 20
971.2815146268122
 30
0.0
 40
0.005
100
AcDbArc
 50
3.02589101518243
 51
90.0
  0
LINE
  5
12FA
330
1F
100
AcDbEntity
  8
SANINDUSA
100
AcDbLine
 10
648.575512442315
 20
971.2865146268121
 30
0.0
 11
648.5897802865581
 21
971.2865146268121
 31
0.0
  0
ARC
  5
12FB
330
1F
100
AcDbEntity
  8
SANINDUSA
100
AcDbCircle
 10
648.575512442315
 20
971.2875146268121
 30
0.0
 40
0.0010000000000001
100
AcDbArc
 50
180.0
 51
270.0
  0
LINE
  5
12FC
330
1F
100
AcDbEntity
  8
SANINDUSA
100
AcDbLine
 10
648.574512442315
 20
971.2955146268122
 30
0.0
 11
648.574512442315
 21
971.2875146268121
 31
0.0
  0
ARC
  5
12FD
330
1F
100
AcDbEntity
  8
SANINDUSA
100
AcDbCircle
 10
648.575512442315
 20
971.2955146268122
 30
0.0
 40
0.0010000000000001
100
AcDbArc
 50
90.0
 51
180.0
  0
LINE
  5
12FE
330
1F
100
AcDbEntity
  8
SANINDUSA
100
AcDbLine
 10
648.575512442315
 20
971.2965146268121
 30
0.0
 11
648.5964190436974
 21
971.2965146268121
 31
0.0
  0
LINE
  5
1307
330
1F
100
AcDbEntity
  8
SANINDUSA
100
AcDbLine
 10
648.6005211377925
 20
971.2965146268121
 30
0.0
 11
648.5964190436974
 21
971.2965146268121
 31
0.0
  0
LWPOLYLINE
  5
1309
330
1F
100
AcDbEntity
  8
SANINDUSA
100
AcDbPolyline
 90
        8
 70
   128
 43
0.0
 10
648.607900693312
 20
971.2915146268121
 10
648.6078837259127
 20
971.2915709460707
 10
648.6071479504164
 20
971.2929553274362
 10
648.6061572100118
 20
971.2941688539892
 10
648.6049496231804
 20
971.2951648356083
 10
648.6035716515146
 20
971.2959049521574
 10
648.6020763121193
 20
971.2963607278426
 10
648.6005211377925
 20
971.2965146268121
  0
ARC
  5
130C
330
1F
100
AcDbEntity
  8
SANINDUSA
100
AcDbCircle
 10
648.5096259695492
 20
971.1995146268121
 30
0.0
 40
0.005
100
AcDbArc
 50
270.0
 51
356.999999996727
  0
LINE
  5
130D
330
1F
100
AcDbEntity
  8
SANINDUSA
100
AcDbLine
 10
648.514619117223
 20
971.1992529470309
 30
0.0
 11
648.5125497830088
 21
971.159767698038
 31
0.0
  0
LINE
  5
1310
330
1F
100
AcDbEntity
  8
SANINDUSA
100
AcDbLine
 10
648.5096259695492
 20
971.1945146268121
 30
0.0
 11
648.4940124423151
 21
971.1945146268121
 31
0.0
  0
ARC
  5
1311
330
1F
100
AcDbEntity
  8
SANINDUSA
100
AcDbCircle
 10
648.4932821090525
 20
971.2945146268122
 30
0.0
 40
0.0100000000000002
100
AcDbArc
 50
49.08561677964671
 51
84.7620804342833
  0
LINE
  5
1312
330
1F
100
AcDbEntity
  8
SANINDUSA
100
AcDbLine
 10
648.4998314144367
 20
971.30207151764
 30
0.0
 11
648.5034242394241
 21
971.2989577359842
 31
0.0
  0
ARC
  5
1313
330
1F
100
AcDbEntity
  8
SANINDUSA
100
AcDbCircle
 10
648.5099735448084
 20
971.3065146268121
 30
0.0
 40
0.0100000000000002
100
AcDbArc
 50
229.0856167796467
 51
270.0
  0
ARC
  5
1315
330
1F
100
AcDbEntity
  8
SANINDUSA
100
AcDbCircle
 10
648.5099735448084
 20
971.3065146268121
 30
0.0
 40
0.0210000000000002
100
AcDbArc
 50
254.2786469420597
 51
265.4169372343608
  0
ARC
  5
1316
330
1F
100
AcDbEntity
  8
SANINDUSA
100
AcDbCircle
 10
648.5082156510323
 20
971.2845849708761
 30
0.0
 40
0.001
100
AcDbArc
 50
338.4795171582317
 51
85.41693723436077
  0
ARC
  5
1317
330
1F
100
AcDbEntity
  8
SANINDUSA
100
AcDbCircle
 10
648.5040124423151
 20
971.2853376285105
 30
0.0
 40
0.001
100
AcDbArc
 50
74.27864694205966
 51
180.0
  0
LINE
  5
1318
330
1F
100
AcDbEntity
  8
SANINDUSA
100
AcDbLine
 10
648.5099735448084
 20
971.2965146268121
 30
0.0
 11
648.538512442315
 21
971.2965146268121
 31
0.0
  0
ARC
  5
1319
330
1F
100
AcDbEntity
  8
SANINDUSA
100
AcDbCircle
 10
648.538512442315
 20
971.2955146268122
 30
0.0
 40
0.0010000000000001
100
AcDbArc
 50
0.0
 51
90.0
  0
LINE
  5
131A
330
1F
100
AcDbEntity
  8
SANINDUSA
100
AcDbLine
 10
648.539512442315
 20
971.2875146268121
 30
0.0
 11
648.539512442315
 21
971.2955146268122
 31
0.0
  0
ARC
  5
131B
330
1F
100
AcDbEntity
  8
SANINDUSA
100
AcDbCircle
 10
648.538512442315
 20
971.2875146268121
 30
0.0
 40
0.0010000000000001
100
AcDbArc
 50
270.0
 51
0.0
  0
ARC
  5
131C
330
1F
100
AcDbEntity
  8
SANINDUSA
100
AcDbCircle
 10
648.528681953744
 20
971.2765146268122
 30
0.0
 40
0.01
100
AcDbArc
 50
90.0
 51
176.999999996727
  0
ARC
  5
131D
330
1F
100
AcDbEntity
  8
SANINDUSA
100
AcDbCircle
 10
648.528681953744
 20
971.2765146268122
 30
0.0
 40
0.021
100
AcDbArc
 50
158.4795171582316
 51
176.999999996727
  0
ARC
  5
131E
330
1F
100
AcDbEntity
  8
SANINDUSA
100
AcDbCircle
 10
648.4940124423151
 20
971.1965146268122
 30
0.0
 40
0.002
100
AcDbArc
 50
180.0
 51
270.0
  0
ARC
  5
131F
330
1F
100
AcDbEntity
  8
SANINDUSA
100
AcDbCircle
 10
648.4940124423151
 20
971.3024812203958
 30
0.0
 40
0.0020000000000002
100
AcDbArc
 50
84.7620804342833
 51
180.0
  0
LINE
  5
1320
330
1F
100
AcDbEntity
  8
SANINDUSA
100
AcDbLine
 10
648.492012442315
 20
971.1965146268122
 30
0.0
 11
648.492012442315
 21
971.3024812203958
 31
0.0
  0
LINE
  5
1321
330
1F
100
AcDbEntity
  8
SANINDUSA
100
AcDbLine
 10
648.503012442315
 20
971.2070591749734
 30
0.0
 11
648.503012442315
 21
971.2853376285105
 31
0.0
  0
LINE
  5
1322
330
1F
100
AcDbEntity
  8
SANINDUSA
100
AcDbLine
 10
648.514619117223
 20
971.1992529470309
 30
0.0
 11
648.5186956583965
 21
971.2770379863746
 31
0.0
  0
LINE
  5
1323
330
1F
100
AcDbEntity
  8
SANINDUSA
100
AcDbLine
 10
648.5040117570824
 20
971.2070330069952
 30
0.0
 11
648.5077107335142
 21
971.2776136818932
 31
0.0
  0
ARC
  5
1324
330
1F
100
AcDbEntity
  8
SANINDUSA
100
AcDbCircle
 10
648.5035124423151
 20
971.2070591749734
 30
0.0
 40
0.0005
100
AcDbArc
 50
180.0
 51
356.999999996727
  0
LINE
  5
1325
330
1F
100
AcDbEntity
  8
SANINDUSA
100
AcDbLine
 10
648.528681953744
 20
971.2865146268121
 30
0.0
 11
648.538512442315
 21
971.2865146268121
 31
0.0
  0
LINE
  5
1327
330
1F
100
AcDbEntity
  8
SANINDUSA
100
AcDbLine
 10
648.492012442315
 20
971.1564009070905
 30
0.0
 11
648.492012442315
 21
971.1965146268122
 31
0.0
  0
LINE
  5
1329
330
1F
100
AcDbEntity
  8
SANINDUSA
100
AcDbLine
 10
648.538512442315
 20
971.2965146268121
 30
0.0
 11
648.575512442315
 21
971.2965146268121
 31
0.0
  0
LINE
  5
132C
330
1F
100
AcDbEntity
  8
SANINDUSA
100
AcDbLine
 10
648.6787801459412
 20
971.111514626812
 30
0.0
 11
648.6297801459413
 21
971.111514626812
 31
0.0
  0
LWPOLYLINE
  5
1340
330
1F
100
AcDbEntity
  8
SANINDUSA
100
AcDbPolyline
 90
        9
 70
   128
 43
0.0
 10
648.5123524334593
 20
971.1560020443089
 10
648.5122302970381
 20
971.1551357193709
 10
648.5119588561462
 20
971.1543039696243
 10
648.5115464308916
 20
971.1535322895612
 10
648.5110056627834
 20
971.1528443324386
 10
648.5103531272498
 20
971.1522611852689
 10
648.5096088255732
 20
971.1518007224681
 10
648.5087955718187
 20
971.1514770579745
 10
648.5079103546337
 20
971.1512869411089
  0
LINE
  5
1341
330
1F
100
AcDbEntity
  8
SANINDUSA
100
AcDbLine
 10
648.5123524334593
 20
971.1560020443089
 30
0.0
 11
648.5125497830088
 21
971.159767698038
 31
0.0
  0
LWPOLYLINE
  5
1343
330
1F
100
AcDbEntity
  8
SANINDUSA
100
AcDbPolyline
 90
        9
 70
   128
 43
0.0
 10
648.492012442315
 20
971.1517481164886
 10
648.4920564640522
 20
971.1513308090779
 10
648.4921865913504
 20
971.1509318722642
 10
648.49239709578
 20
971.1505688679393
 10
648.4926787105702
 20
971.1502577761839
 10
648.4930190385487
 20
971.1500122917978
 10
648.4934030978867
 20
971.1498432214302
 10
648.493813981625
 20
971.1497580078523
 10
648.4942336019477
 20
971.1497604023135
  0
LINE
  5
1344
330
1F
100
AcDbEntity
  8
SANINDUSA
100
AcDbLine
 10
648.492012442315
 20
971.1564009070905
 30
0.0
 11
648.492012442315
 21
971.1517481164886
 31
0.0
  0
CIRCLE
  5
1351
330
1F
100
AcDbEntity
  8
SANINDUSA
100
AcDbCircle
 10
646.9407510143785
 20
971.2106469707004
 30
0.0
 40
0.0235000000000011
  0
ENDSEC
  0
SECTION
  2
OBJECTS
  0
DICTIONARY
  5
C
330
0
100
AcDbDictionary
281
     1
  3
ACAD_COLOR
350
BA9
  3
ACAD_GROUP
350
D
  3
ACAD_LAYOUT
350
1A
  3
ACAD_MATERIAL
350
BA8
  3
ACAD_MLEADERSTYLE
350
15BA
  3
ACAD_MLINESTYLE
350
17
  3
ACAD_PLOTSETTINGS
350
19
  3
ACAD_PLOTSTYLENAME
350
E
  3
ACAD_SCALELIST
350
15A8
  3
ACAD_TABLESTYLE
350
BAA
  3
ACAD_VISUALSTYLE
350
1594
  3
ACDB_RECOMPOSE_DATA
350
15E6
  3
AcDbVariableDictionary
350
3D
  3
ASE_INDEX_DICTIONARY
350
156C
  3
DWGPROPS
350
15E7
  0
DICTIONARY
  5
15C1
330
10
100
AcDbDictionary
280
     1
281
     1
  3
ADSK_XREC_LAYER_RECONCILED
360
15C2
  0
DICTIONARY
  5
15C3
330
2F
100
AcDbDictionary
280
     1
281
     1
  3
ADSK_XREC_LAYER_RECONCILED
360
15C4
  0
DICTIONARY
  5
15C5
330
30
100
AcDbDictionary
280
     1
281
     1
  3
ADSK_XREC_LAYER_RECONCILED
360
15C6
  0
DICTIONARY
  5
15C7
330
31
100
AcDbDictionary
280
     1
281
     1
  3
ADSK_XREC_LAYER_RECONCILED
360
15C8
  0
DICTIONARY
  5
15C9
330
32
100
AcDbDictionary
280
     1
281
     1
  3
ADSK_XREC_LAYER_RECONCILED
360
15CA
  0
DICTIONARY
  5
15CB
330
33
100
AcDbDictionary
280
     1
281
     1
  3
ADSK_XREC_LAYER_RECONCILED
360
15CC
  0
DICTIONARY
  5
15CD
330
34
100
AcDbDictionary
280
     1
281
     1
  3
ADSK_XREC_LAYER_RECONCILED
360
15CE
  0
DICTIONARY
  5
15CF
330
35
100
AcDbDictionary
280
     1
281
     1
  3
ADSK_XREC_LAYER_RECONCILED
360
15D0
  0
DICTIONARY
  5
15D1
330
36
100
AcDbDictionary
280
     1
281
     1
  3
ADSK_XREC_LAYER_RECONCILED
360
15D2
  0
DICTIONARY
  5
15D3
330
37
100
AcDbDictionary
280
     1
281
     1
  3
ADSK_XREC_LAYER_RECONCILED
360
15D4
  0
DICTIONARY
  5
15D5
330
5D6
100
AcDbDictionary
280
     1
281
     1
  3
ADSK_XREC_LAYER_RECONCILED
360
15D6
  0
DICTIONARY
  5
15D7
330
8AF
100
AcDbDictionary
280
     1
281
     1
  3
ADSK_XREC_LAYER_RECONCILED
360
15D8
  0
DICTIONARY
  5
15D9
330
8F8
100
AcDbDictionary
280
     1
281
     1
  3
ADSK_XREC_LAYER_RECONCILED
360
15DA
  0
DICTIONARY
  5
15DB
330
91D
100
AcDbDictionary
280
     1
281
     1
  3
ADSK_XREC_LAYER_RECONCILED
360
15DC
  0
DICTIONARY
  5
15DD
330
BA5
100
AcDbDictionary
280
     1
281
     1
  3
ADSK_XREC_LAYER_RECONCILED
360
15DE
  0
DICTIONARY
  5
156A
330
1F
100
AcDbDictionary
280
     1
281
     1
  3
ACAD_SORTENTS
360
156B
  0
DICTIONARY
  5
BA9
102
{ACAD_REACTORS
330
C
102
}
330
C
100
AcDbDictionary
281
     1
  0
DICTIONARY
  5
D
102
{ACAD_REACTORS
330
C
102
}
330
C
100
AcDbDictionary
281
     1
  0
DICTIONARY
  5
1A
102
{ACAD_REACTORS
330
C
102
}
330
C
100
AcDbDictionary
281
     1
  3
Layout1
350
1E
  3
Layout2
350
26
  3
Model
350
22
  0
DICTIONARY
  5
BA8
102
{ACAD_REACTORS
330
C
102
}
330
C
100
AcDbDictionary
281
     1
  3
ByBlock
350
1584
  3
ByLayer
350
157C
  3
Global
350
158C
  0
DICTIONARY
  5
15BA
102
{ACAD_REACTORS
330
C
102
}
330
C
100
AcDbDictionary
281
     1
  3
Standard
350
15BB
  0
DICTIONARY
  5
17
102
{ACAD_REACTORS
330
C
102
}
330
C
100
AcDbDictionary
281
     1
  3
Standard
350
18
  0
DICTIONARY
  5
19
102
{ACAD_REACTORS
330
C
102
}
330
C
100
AcDbDictionary
281
     1
  0
ACDBDICTIONARYWDFLT
  5
E
102
{ACAD_REACTORS
330
C
102
}
330
C
100
AcDbDictionary
281
     1
  3
Normal
350
F
100
AcDbDictionaryWithDefault
340
F
  0
DICTIONARY
  5
15A8
102
{ACAD_REACTORS
330
C
102
}
330
C
100
AcDbDictionary
281
     1
  3
A0
350
15A9
  3
A1
350
15AA
  3
A2
350
15AB
  3
A3
350
15AC
  3
A4
350
15AD
  3
A5
350
15AE
  3
A6
350
15AF
  3
A7
350
15B0
  3
A8
350
15B1
  3
A9
350
15B2
  3
B0
350
15B3
  3
B1
350
15B4
  3
B2
350
15B5
  3
B3
350
15B6
  3
B4
350
15B7
  3
B5
350
15B8
  3
B6
350
15B9
  0
DICTIONARY
  5
BAA
102
{ACAD_REACTORS
330
C
102
}
330
C
100
AcDbDictionary
281
     1
  3
Standard
350
BAB
  0
DICTIONARY
  5
1594
102
{ACAD_REACTORS
330
C
102
}
330
C
100
AcDbDictionary
281
     1
  3
2dWireframe
350
159A
  3
3D Hidden
350
159C
  3
3dWireframe
350
159B
  3
Basic
350
1599
  3
Brighten
350
15A0
  3
ColorChange
350
15A4
  3
Conceptual
350
159D
  3
Dim
350
159F
  3
EdgeColorOff
350
15A7
  3
Facepattern
350
15A3
  3
Flat
350
1595
  3
FlatWithEdges
350
1596
  3
Gouraud
350
1597
  3
GouraudWithEdges
350
1598
  3
JitterOff
350
15A5
  3
Linepattern
350
15A2
  3
OverhangOff
350
15A6
  3
Realistic
350
159E
  3
Thicken
350
15A1
  0
XRECORD
  5
15E6
102
{ACAD_REACTORS
330
C
102
}
330
C
100
AcDbXrecord
280
     1
 90
        1
330
BAB
  0
DICTIONARY
  5
3D
102
{ACAD_REACTORS
330
C
102
}
330
C
100
AcDbDictionary
281
     1
  3
CANNOSCALE
350
15E0
  3
CMLEADERSTYLE
350
15DF
  3
CTABLESTYLE
350
156F
  3
DIMASSOC
350
3F
  3
HIDETEXT
350
3E
  3
INDEXCTL
350
15E2
  3
PROJECTNAME
350
157A
  3
SORTENTS
350
15E1
  3
XCLIPFRAME
350
15E3
  0
DICTIONARY
  5
156C
102
{ACAD_REACTORS
330
C
102
}
330
C
100
AcDbDictionary
281
     1
  3
ASEBlockHierarchyIndexRecord
350
156D
1001
DCO15
1040
1534486520.953
  0
XRECORD
  5
15E7
102
{ACAD_REACTORS
330
C
102
}
330
C
100
AcDbXrecord
280
     1
  1
DWGPROPS COOKIE
  2

  3

  4

  6

  7

  8
Julio
  9

300
=
301
=
302
=
303
=
304
=
305
=
306
=
307
=
308
=
309
=
 40
0.0040787847222222
 41
2453563.468614537
 42
2456146.504229051
  1

 90
        0
  0
XRECORD
  5
15C2
102
{ACAD_REACTORS
330
15C1
102
}
330
15C1
100
AcDbXrecord
280
     1
290
     1
  0
XRECORD
  5
15C4
102
{ACAD_REACTORS
330
15C3
102
}
330
15C3
100
AcDbXrecord
280
     1
290
     1
  0
XRECORD
  5
15C6
102
{ACAD_REACTORS
330
15C5
102
}
330
15C5
100
AcDbXrecord
280
     1
290
     1
  0
XRECORD
  5
15C8
102
{ACAD_REACTORS
330
15C7
102
}
330
15C7
100
AcDbXrecord
280
     1
290
     1
  0
XRECORD
  5
15CA
102
{ACAD_REACTORS
330
15C9
102
}
330
15C9
100
AcDbXrecord
280
     1
290
     1
  0
XRECORD
  5
15CC
102
{ACAD_REACTORS
330
15CB
102
}
330
15CB
100
AcDbXrecord
280
     1
290
     1
  0
XRECORD
  5
15CE
102
{ACAD_REACTORS
330
15CD
102
}
330
15CD
100
AcDbXrecord
280
     1
290
     1
  0
XRECORD
  5
15D0
102
{ACAD_REACTORS
330
15CF
102
}
330
15CF
100
AcDbXrecord
280
     1
290
     1
  0
XRECORD
  5
15D2
102
{ACAD_REACTORS
330
15D1
102
}
330
15D1
100
AcDbXrecord
280
     1
290
     1
  0
XRECORD
  5
15D4
102
{ACAD_REACTORS
330
15D3
102
}
330
15D3
100
AcDbXrecord
280
     1
290
     1
  0
XRECORD
  5
15D6
102
{ACAD_REACTORS
330
15D5
102
}
330
15D5
100
AcDbXrecord
280
     1
290
     1
  0
XRECORD
  5
15D8
102
{ACAD_REACTORS
330
15D7
102
}
330
15D7
100
AcDbXrecord
280
     1
290
     1
  0
XRECORD
  5
15DA
102
{ACAD_REACTORS
330
15D9
102
}
330
15D9
100
AcDbXrecord
280
     1
290
     1
  0
XRECORD
  5
15DC
102
{ACAD_REACTORS
330
15DB
102
}
330
15DB
100
AcDbXrecord
280
     1
290
     1
  0
XRECORD
  5
15DE
102
{ACAD_REACTORS
330
15DD
102
}
330
15DD
100
AcDbXrecord
280
     1
290
     1
  0
SORTENTSTABLE
  5
156B
102
{ACAD_REACTORS
330
156A
102
}
330
156A
100
AcDbSortentsTable
330
1F
331
11BE
  5
11BF
331
1144
  5
1145
331
11BA
  5
11BB
331
1140
  5
1141
331
11B6
  5
11B7
331
11FD
  5
11FE
331
1138
  5
1139
331
123E
  5
123F
331
12D4
  5
12D5
331
123A
  5
123B
331
1236
  5
1237
331
10BE
  5
10BF
331
10BA
  5
10BB
331
1057
  5
1057
331
12CC
  5
12CD
331
10F5
  5
10F6
331
1351
  5
1568
331
1341
  5
1342
331
1177
  5
1178
331
1134
  5
1135
331
11F1
  5
11F2
331
11AA
  5
11AB
331
116B
  5
116C
331
11ED
  5
11EE
331
1128
  5
1129
331
1307
  5
1308
331
122A
  5
122B
331
1265
  5
1266
331
12C0
  5
12C1
331
1261
  5
1263
331
12FB
  5
12FC
331
10AA
  5
10AB
331
12B0
  5
12B1
331
109A
  5
109B
331
10E1
  5
10E2
331
1329
  5
132A
331
1325
  5
1326
331
1321
  5
1322
331
119A
  5
119B
331
1196
  5
1197
331
115B
  5
115C
331
11D9
  5
11DA
331
121E
  5
121F
331
12F7
  5
12F8
331
121A
  5
121B
331
12F3
  5
12F4
331
1259
  5
125B
331
12AC
  5
12AD
331
1216
  5
1217
331
12EF
  5
12F0
331
10DD
  5
10DE
331
12A8
  5
12A9
331
1212
  5
1213
331
1251
  5
1252
331
12A4
  5
12A5
331
1092
  5
1093
331
10D1
  5
10D2
331
108A
  5
108B
331
131D
  5
131E
331
1319
  5
131A
331
1315
  5
1316
331
1311
  5
1312
331
1157
  5
1158
331
1153
  5
1154
331
11D5
  5
11D6
331
11D1
  5
11D2
331
10FC
  5
10FD
331
114B
  5
114C
331
11CD
  5
11CE
331
1182
  5
1183
331
124D
  5
124E
331
12E7
  5
12E8
331
120E
  5
120F
331
12E3
  5
12E4
331
120A
  5
120B
331
10CD
  5
10CE
331
1280
  5
1281
331
1066
  5
1067
331
12DF
  5
12E0
331
1241
  5
1242
331
1202
  5
1203
331
10C9
  5
10CA
331
12DB
  5
12DC
331
1278
  5
1279
331
105E
  5
105F
331
10C1
  5
10C2
331
105A
  5
105B
331
11BD
  5
11BE
331
113F
  5
1140
331
117E
  5
117F
331
11B9
  5
11BA
331
117A
  5
117B
331
11FC
  5
11FD
331
11B5
  5
11B6
331
12D7
  5
12D8
331
123D
  5
123E
331
12D3
  5
12D4
331
1239
  5
123A
331
12CF
  5
12D1
331
1235
  5
1236
331
10BD
  5
10BE
331
1056
  5
1056
331
10B9
  5
10BA
331
1270
  5
1271
331
10F4
  5
10F5
331
10B5
  5
10B6
331
1344
  5
1345
331
1340
  5
1341
331
1176
  5
1177
331
1172
  5
1173
331
112B
  5
112C
331
11A5
  5
11A6
331
11EC
  5
11ED
331
11E8
  5
11E9
331
12C7
  5
12C8
331
126C
  5
126E
331
12C3
  5
12C4
331
1268
  5
126A
331
1225
  5
1226
331
12FE
  5
12FF
331
10AD
  5
10AE
331
12FA
  5
12FB
331
10E4
  5
10E5
331
109D
  5
109E
331
132C
  5
132D
331
1324
  5
1325
331
1320
  5
1321
331
1127
  5
1128
331
11E0
  5
11E1
331
111F
  5
1120
331
11DC
  5
11DD
331
11D8
  5
11D9
331
121D
  5
121E
331
12F6
  5
12F7
331
12AF
  5
12B0
331
12F2
  5
12F3
331
1219
  5
121A
331
12A7
  5
12A8
331
10DC
  5
10DD
331
1095
  5
1096
331
1215
  5
1216
331
10D8
  5
10D9
331
1211
  5
1212
331
1089
  5
108A
331
10D0
  5
10D1
331
131C
  5
131D
331
1318
  5
1319
331
1310
  5
1311
331
1156
  5
1157
331
1189
  5
118A
331
114A
  5
114B
331
120D
  5
120E
331
12E6
  5
12E7
331
124C
  5
124D
331
1209
  5
120A
331
12E2
  5
12E3
331
1248
  5
1249
331
1065
  5
1066
331
12DE
  5
12DF
331
1244
  5
1245
331
12DA
  5
12DB
331
105D
  5
105E
331
10C0
  5
10C1
331
1059
  5
1059
331
1146
  5
1147
331
11BC
  5
11BD
331
1142
  5
1143
331
11B8
  5
11B9
331
117D
  5
117E
331
11B0
  5
11B1
331
12D6
  5
12D7
331
123C
  5
123D
331
12D2
  5
12D3
331
1238
  5
1239
331
1234
  5
1235
331
130D
  5
130E
331
1273
  5
1274
331
10BC
  5
10BD
331
12CE
  5
12CF
331
1309
  5
130A
331
10B8
  5
10B9
331
1055
  5
1055
331
12CA
  5
12CB
331
10B4
  5
10B5
331
1343
  5
1344
331
1136
  5
1137
331
1171
  5
1172
331
1169
  5
116A
331
11A4
  5
11A5
331
12C6
  5
12C7
331
122C
  5
122D
331
10EF
  5
10F0
331
12C2
  5
12C3
331
1228
  5
1229
331
1224
  5
1225
331
12FD
  5
12FE
331
10E7
  5
10E8
331
12F9
  5
12FA
331
1327
  5
1328
331
1323
  5
1324
331
1161
  5
1162
331
11DF
  5
11E0
331
1159
  5
115A
331
11DB
  5
11DC
331
121C
  5
121D
331
12F5
  5
12F6
331
1218
  5
1219
331
1257
  5
1259
331
12AA
  5
12AB
331
1214
  5
1215
331
12A6
  5
12A7
331
10DB
  5
10DC
331
1210
  5
1211
331
12E9
  5
12EA
331
12A2
  5
12A3
331
10D7
  5
10D8
331
10D3
  5
10D4
331
1088
  5
1089
331
131F
  5
1320
331
131B
  5
131C
331
1317
  5
1318
331
1313
  5
1315
331
1155
  5
1156
331
11D7
  5
11D8
331
1102
  5
1103
331
114D
  5
114E
331
11CB
  5
11CC
331
124F
  5
1251
331
124B
  5
124C
331
12E5
  5
12E6
331
120C
  5
120D
331
12E1
  5
12E2
331
10CF
  5
10D0
331
127E
  5
127F
331
1064
  5
1065
331
12DD
  5
12DE
331
1200
  5
1201
331
10C7
  5
10C8
331
127A
  5
127C
331
1060
  5
1061
331
12D9
  5
12DA
331
10C3
  5
10C4
331
1058
  5
1058
331
1141
  5
1142
331
117C
  5
117D
331
11FE
  5
11FF
331
1178
  5
1179
331
1139
  5
113A
331
12D5
  5
12D6
331
123B
  5
123C
331
12D1
  5
12D2
331
1233
  5
1234
331
10BB
  5
10BC
331
130C
  5
130D
331
10F6
  5
10F7
331
10B7
  5
10B8
331
10F2
  5
10F3
331
1174
  5
1175
331
11AF
  5
11B0
331
1135
  5
1136
331
11F2
  5
11F3
331
11AB
  5
11AC
331
1131
  5
1132
331
1170
  5
1171
331
1129
  5
112A
331
122F
  5
1230
331
12C5
  5
12C6
331
12C1
  5
12C2
331
1223
  5
1224
331
12FC
  5
12FD
331
109F
  5
10A0
331
1322
  5
1323
331
11E6
  5
11E7
331
1121
  5
1122
331
11E2
  5
11E3
331
115C
  5
115D
331
11DE
  5
11DF
331
1158
  5
1159
331
11DA
  5
11DB
331
121F
  5
1220
331
12F4
  5
12F5
331
12AD
  5
12AE
331
121B
  5
121C
331
1256
  5
1257
331
10DE
  5
10DF
331
12A9
  5
12AA
331
12F0
  5
12F2
331
1213
  5
1214
331
12A5
  5
12A6
331
12EC
  5
12ED
331
10D6
  5
10D7
331
12E8
  5
12E9
331
10D2
  5
10D3
331
131E
  5
131F
331
131A
  5
131B
331
1316
  5
1317
331
1312
  5
1313
331
1105
  5
1106
331
1154
  5
1155
331
11D6
  5
11D7
331
11D2
  5
11D3
331
114C
  5
114D
331
1148
  5
1149
331
120F
  5
1210
331
120B
  5
120C
331
12E4
  5
12E5
331
12E0
  5
12E1
331
10CE
  5
10CF
331
1203
  5
1204
331
1063
  5
1064
331
12DC
  5
12DD
331
12D8
  5
12D9
331
10C6
  5
10C7
331
105F
  5
1060
331
10C2
  5
10C3
  0
LAYOUT
  5
1E
102
{ACAD_XDICTIONARY
360
15E8
102
}
102
{ACAD_REACTORS
330
1A
102
}
330
1A
100
AcDbPlotSettings
  1

  2
Ploter HP500
  4

  6

 40
0.0
 41
0.0
 42
0.0
 43
0.0
 44
0.0
 45
0.0
 46
0.0
 47
0.0
 48
0.0
 49
0.0
140
0.0
141
0.0
142
1.0
143
1.0
 70
   688
 72
     0
 73
     0
 74
     5
  7
monochrome.ctb
 75
    16
147
1.0
148
0.0
149
0.0
100
AcDbLayout
  1
Layout1
 70
     1
 71
     1
 10
0.0
 20
0.0
 11
420.0
 21
297.0
 12
0.0
 22
0.0
 32
0.0
 14
1.000000000000000E+20
 24
1.000000000000000E+20
 34
1.000000000000000E+20
 15
-1.000000000000000E+20
 25
-1.000000000000000E+20
 35
-1.000000000000000E+20
146
0.0
 13
0.0
 23
0.0
 33
0.0
 16
1.0
 26
0.0
 36
0.0
 17
0.0
 27
1.0
 37
0.0
 76
     0
330
1B
  0
LAYOUT
  5
26
102
{ACAD_XDICTIONARY
360
15EC
102
}
102
{ACAD_REACTORS
330
1A
102
}
330
1A
100
AcDbPlotSettings
  1

  2
Ploter HP500
  4

  6

 40
0.0
 41
0.0
 42
0.0
 43
0.0
 44
0.0
 45
0.0
 46
0.0
 47
0.0
 48
0.0
 49
0.0
140
0.0
141
0.0
142
1.0
143
1.0
 70
   688
 72
     0
 73
     0
 74
     5
  7
monochrome.ctb
 75
    16
147
1.0
148
0.0
149
0.0
100
AcDbLayout
  1
Layout2
 70
     1
 71
     2
 10
0.0
 20
0.0
 11
12.0
 21
9.0
 12
0.0
 22
0.0
 32
0.0
 14
0.0
 24
0.0
 34
0.0
 15
0.0
 25
0.0
 35
0.0
146
0.0
 13
0.0
 23
0.0
 33
0.0
 16
1.0
 26
0.0
 36
0.0
 17
0.0
 27
1.0
 37
0.0
 76
     0
330
23
  0
LAYOUT
  5
22
102
{ACAD_XDICTIONARY
360
15EA
102
}
102
{ACAD_REACTORS
330
1A
102
}
330
1A
100
AcDbPlotSettings
  1

  2
Ploter HP500
  4
User268
  6

 40
4.995333194732666
 41
16.97565841674804
 42
4.995330810546875
 43
16.97567749023437
 44
209.9733276367187
 45
296.9259948730469
 46
0.0
 47
0.0
 48
0.0
 49
0.0
140
0.0
141
0.0
142
1.0
143
1.0
 70
 11952
 72
     1
 73
     1
 74
     0
  7

 75
     0
147
1.0
148
-427.5957866592534
149
7.362384574453926
100
AcDbLayout
  1
Model
 70
     1
 71
     0
 10
0.0
 20
0.0
 11
12.0
 21
9.0
 12
0.0
 22
0.0
 32
0.0
 14
0.0
 24
0.0
 34
0.0
 15
0.0
 25
0.0
 35
0.0
146
0.0
 13
0.0
 23
0.0
 33
0.0
 16
1.0
 26
0.0
 36
0.0
 17
0.0
 27
1.0
 37
0.0
 76
     0
330
1F
331
1572
  0
MATERIAL
  5
1584
102
{ACAD_XDICTIONARY
360
1585
102
}
102
{ACAD_REACTORS
330
BA8
102
}
330
BA8
100
AcDbMaterial
  1
ByBlock
 72
     0
 43
0.0008202099737533
 43
0.0
 43
0.0
 43
0.0
 43
0.0
 43
0.0008202099737533
 43
0.0
 43
0.0
 43
0.0
 43
0.0
 43
1.0
 43
0.0
 43
0.0
 43
0.0
 43
0.0
 43
1.0
 77
     0
 47
0.0008202099737533
 47
0.0
 47
0.0
 47
0.0
 47
0.0
 47
0.0008202099737533
 47
0.0
 47
0.0
 47
0.0
 47
0.0
 47
1.0
 47
0.0
 47
0.0
 47
0.0
 47
0.0
 47
1.0
171
     0
 49
0.0008202099737533
 49
0.0
 49
0.0
 49
0.0
 49
0.0
 49
0.0008202099737533
 49
0.0
 49
0.0
 49
0.0
 49
0.0
 49
1.0
 49
0.0
 49
0.0
 49
0.0
 49
0.0
 49
1.0
175
     0
142
0.0008202099737533
142
0.0
142
0.0
142
0.0
142
0.0
142
0.0008202099737533
142
0.0
142
0.0
142
0.0
142
0.0
142
1.0
142
0.0
142
0.0
142
0.0
142
0.0
142
1.0
179
     0
144
0.0008202099737533
144
0.0
144
0.0
144
0.0
144
0.0
144
0.0008202099737533
144
0.0
144
0.0
144
0.0
144
0.0
144
1.0
144
0.0
144
0.0
144
0.0
144
0.0
144
1.0
147
0.0008202099737533
147
0.0
147
0.0
147
0.0
147
0.0
147
0.0008202099737533
147
0.0
147
0.0
147
0.0
147
0.0
147
1.0
147
0.0
147
0.0
147
0.0
147
0.0
147
1.0
  0
MATERIAL
  5
157C
102
{ACAD_XDICTIONARY
360
157D
102
}
102
{ACAD_REACTORS
330
BA8
102
}
330
BA8
100
AcDbMaterial
  1
ByLayer
 72
     0
 43
0.0008202099737533
 43
0.0
 43
0.0
 43
0.0
 43
0.0
 43
0.0008202099737533
 43
0.0
 43
0.0
 43
0.0
 43
0.0
 43
1.0
 43
0.0
 43
0.0
 43
0.0
 43
0.0
 43
1.0
 77
     0
 47
0.0008202099737533
 47
0.0
 47
0.0
 47
0.0
 47
0.0
 47
0.0008202099737533
 47
0.0
 47
0.0
 47
0.0
 47
0.0
 47
1.0
 47
0.0
 47
0.0
 47
0.0
 47
0.0
 47
1.0
171
     0
 49
0.0008202099737533
 49
0.0
 49
0.0
 49
0.0
 49
0.0
 49
0.0008202099737533
 49
0.0
 49
0.0
 49
0.0
 49
0.0
 49
1.0
 49
0.0
 49
0.0
 49
0.0
 49
0.0
 49
1.0
175
     0
142
0.0008202099737533
142
0.0
142
0.0
142
0.0
142
0.0
142
0.0008202099737533
142
0.0
142
0.0
142
0.0
142
0.0
142
1.0
142
0.0
142
0.0
142
0.0
142
0.0
142
1.0
179
     0
144
0.0008202099737533
144
0.0
144
0.0
144
0.0
144
0.0
144
0.0008202099737533
144
0.0
144
0.0
144
0.0
144
0.0
144
1.0
144
0.0
144
0.0
144
0.0
144
0.0
144
1.0
147
0.0008202099737533
147
0.0
147
0.0
147
0.0
147
0.0
147
0.0008202099737533
147
0.0
147
0.0
147
0.0
147
0.0
147
1.0
147
0.0
147
0.0
147
0.0
147
0.0
147
1.0
  0
MATERIAL
  5
158C
102
{ACAD_XDICTIONARY
360
158D
102
}
102
{ACAD_REACTORS
330
BA8
102
}
330
BA8
100
AcDbMaterial
  1
Global
 72
     0
 43
0.0008202099737533
 43
0.0
 43
0.0
 43
0.0
 43
0.0
 43
0.0008202099737533
 43
0.0
 43
0.0
 43
0.0
 43
0.0
 43
1.0
 43
0.0
 43
0.0
 43
0.0
 43
0.0
 43
1.0
 77
     0
 47
0.0008202099737533
 47
0.0
 47
0.0
 47
0.0
 47
0.0
 47
0.0008202099737533
 47
0.0
 47
0.0
 47
0.0
 47
0.0
 47
1.0
 47
0.0
 47
0.0
 47
0.0
 47
0.0
 47
1.0
171
     0
 49
0.0008202099737533
 49
0.0
 49
0.0
 49
0.0
 49
0.0
 49
0.0008202099737533
 49
0.0
 49
0.0
 49
0.0
 49
0.0
 49
1.0
 49
0.0
 49
0.0
 49
0.0
 49
0.0
 49
1.0
175
     0
142
0.0008202099737533
142
0.0
142
0.0
142
0.0
142
0.0
142
0.0008202099737533
142
0.0
142
0.0
142
0.0
142
0.0
142
1.0
142
0.0
142
0.0
142
0.0
142
0.0
142
1.0
179
     0
144
0.0008202099737533
144
0.0
144
0.0
144
0.0
144
0.0
144
0.0008202099737533
144
0.0
144
0.0
144
0.0
144
0.0
144
1.0
144
0.0
144
0.0
144
0.0
144
0.0
144
1.0
147
0.0008202099737533
147
0.0
147
0.0
147
0.0
147
0.0
147
0.0008202099737533
147
0.0
147
0.0
147
0.0
147
0.0
147
1.0
147
0.0
147
0.0
147
0.0
147
0.0
147
1.0
  0
MLEADERSTYLE
  5
15BB
102
{ACAD_REACTORS
330
15BA
102
}
330
15BA
100
AcDbMLeaderStyle
170
     2
171
     1
172
     0
 90
        2
 40
0.0
 41
0.0
173
     1
 91
-1056964608
340
14
 92
       -2
290
     1
 42
2.0
291
     1
 43
0.36
  3
Standard
 44
4.0
300

342
11
174
     1
178
     6
175
     1
176
     0
 93
-1056964608
 45
4.0
292
     0
297
     0
 46
4.0
 94
-1056964608
 47
1.0
 49
1.0
140
1.0
293
     1
141
0.0
294
     1
177
     0
142
1.0
295
     0
296
     0
143
0.125
1001
ACAD_MLEADERVER
1070
     2
  0
MLINESTYLE
  5
18
102
{ACAD_REACTORS
330
17
102
}
330
17
100
AcDbMlineStyle
  2
STANDARD
 70
     0
  3

 62
   256
 51
90.0
 52
90.0
 71
     2
 49
0.5
 62
   256
  6
BYLAYER
 49
-0.5
 62
   256
  6
BYLAYER
  0
ACDBPLACEHOLDER
  5
F
102
{ACAD_REACTORS
330
E
102
}
330
E
  0
SCALE
  5
15A9
102
{ACAD_REACTORS
330
15A8
102
}
330
15A8
100
AcDbScale
 70
     0
300
1:1
140
1.0
141
1.0
290
     1
  0
SCALE
  5
15AA
102
{ACAD_REACTORS
330
15A8
102
}
330
15A8
100
AcDbScale
 70
     0
300
1:2
140
1.0
141
2.0
290
     0
  0
SCALE
  5
15AB
102
{ACAD_REACTORS
330
15A8
102
}
330
15A8
100
AcDbScale
 70
     0
300
1:4
140
1.0
141
4.0
290
     0
  0
SCALE
  5
15AC
102
{ACAD_REACTORS
330
15A8
102
}
330
15A8
100
AcDbScale
 70
     0
300
1:5
140
1.0
141
5.0
290
     0
  0
SCALE
  5
15AD
102
{ACAD_REACTORS
330
15A8
102
}
330
15A8
100
AcDbScale
 70
     0
300
1:8
140
1.0
141
8.0
290
     0
  0
SCALE
  5
15AE
102
{ACAD_REACTORS
330
15A8
102
}
330
15A8
100
AcDbScale
 70
     0
300
1:10
140
1.0
141
10.0
290
     0
  0
SCALE
  5
15AF
102
{ACAD_REACTORS
330
15A8
102
}
330
15A8
100
AcDbScale
 70
     0
300
1:16
140
1.0
141
16.0
290
     0
  0
SCALE
  5
15B0
102
{ACAD_REACTORS
330
15A8
102
}
330
15A8
100
AcDbScale
 70
     0
300
1:20
140
1.0
141
20.0
290
     0
  0
SCALE
  5
15B1
102
{ACAD_REACTORS
330
15A8
102
}
330
15A8
100
AcDbScale
 70
     0
300
1:30
140
1.0
141
30.0
290
     0
  0
SCALE
  5
15B2
102
{ACAD_REACTORS
330
15A8
102
}
330
15A8
100
AcDbScale
 70
     0
300
1:40
140
1.0
141
40.0
290
     0
  0
SCALE
  5
15B3
102
{ACAD_REACTORS
330
15A8
102
}
330
15A8
100
AcDbScale
 70
     0
300
1:50
140
1.0
141
50.0
290
     0
  0
SCALE
  5
15B4
102
{ACAD_REACTORS
330
15A8
102
}
330
15A8
100
AcDbScale
 70
     0
300
1:100
140
1.0
141
100.0
290
     0
  0
SCALE
  5
15B5
102
{ACAD_REACTORS
330
15A8
102
}
330
15A8
100
AcDbScale
 70
     0
300
2:1
140
2.0
141
1.0
290
     0
  0
SCALE
  5
15B6
102
{ACAD_REACTORS
330
15A8
102
}
330
15A8
100
AcDbScale
 70
     0
300
4:1
140
4.0
141
1.0
290
     0
  0
SCALE
  5
15B7
102
{ACAD_REACTORS
330
15A8
102
}
330
15A8
100
AcDbScale
 70
     0
300
8:1
140
8.0
141
1.0
290
     0
  0
SCALE
  5
15B8
102
{ACAD_REACTORS
330
15A8
102
}
330
15A8
100
AcDbScale
 70
     0
300
10:1
140
10.0
141
1.0
290
     0
  0
SCALE
  5
15B9
102
{ACAD_REACTORS
330
15A8
102
}
330
15A8
100
AcDbScale
 70
     0
300
100:1
140
100.0
141
1.0
290
     0
  0
TABLESTYLE
  5
BAB
102
{ACAD_XDICTIONARY
360
15E4
102
}
102
{ACAD_REACTORS
330
BAA
102
}
330
BAA
100
AcDbTableStyle
  3
Standard
 70
     0
 71
     0
 40
1.5
 41
1.5
280
     0
281
     0
  7
Standard
140
4.5
170
     2
 62
     0
 63
     7
283
     0
274
    -2
284
     1
 64
     0
275
    -2
285
     1
 65
     0
276
    -2
286
     1
 66
     0
277
    -2
287
     1
 67
     0
278
    -2
288
     1
 68
     0
279
    -2
289
     1
 69
     0
  7
Standard
140
6.0
170
     5
 62
     0
 63
     7
283
     0
274
    -2
284
     1
 64
     0
275
    -2
285
     1
 65
     0
276
    -2
286
     1
 66
     0
277
    -2
287
     1
 67
     0
278
    -2
288
     1
 68
     0
279
    -2
289
     1
 69
     0
  7
Standard
140
4.5
170
     5
 62
     0
 63
     7
283
     0
274
    -2
284
     1
 64
     0
275
    -2
285
     1
 65
     0
276
    -2
286
     1
 66
     0
277
    -2
287
     1
 67
     0
278
    -2
288
     1
 68
     0
279
    -2
289
     1
 69
     0
  0
VISUALSTYLE
  5
159A
102
{ACAD_XDICTIONARY
360
1604
102
}
102
{ACAD_REACTORS
330
1594
102
}
330
1594
100
AcDbVisualStyle
  2
2dWireframe
 70
     4
 71
     0
 72
     2
 73
     0
 90
        0
 40
-0.6
 41
-30.0
 62
     5
 63
     7
 74
     1
 91
        4
 64
     7
 65
   257
 75
     1
175
     1
 42
1.0
 92
        0
 66
   257
 43
1.0
 76
     1
 77
     6
 78
     2
 67
     7
 79
     5
170
     0
171
     0
290
     0
174
     0
 93
        1
 44
0.0
173
     0
291
     0
 45
0.0
1001
ACAD
1000
AcDbSavedByObjectVersion
1070
     0
  0
VISUALSTYLE
  5
159C
102
{ACAD_XDICTIONARY
360
1608
102
}
102
{ACAD_REACTORS
330
1594
102
}
330
1594
100
AcDbVisualStyle
  2
3D Hidden
 70
     6
 71
     1
 72
     2
 73
     2
 90
        0
 40
-0.6
 41
-30.0
 62
     5
 63
     7
 74
     2
 91
        2
 64
     7
 65
   257
 75
     2
175
     1
 42
179.0
 92
        0
 66
   257
 43
1.0
 76
     1
 77
     6
 78
     2
 67
     7
 79
     3
170
     0
171
     0
290
     0
174
     0
 93
        1
 44
0.0
173
     0
291
     0
 45
0.0
1001
ACAD
1000
AcDbSavedByObjectVersion
1070
     0
  0
VISUALSTYLE
  5
159B
102
{ACAD_XDICTIONARY
360
1606
102
}
102
{ACAD_REACTORS
330
1594
102
}
330
1594
100
AcDbVisualStyle
  2
3dWireframe
 70
     5
 71
     0
 72
     2
 73
     0
 90
        0
 40
-0.6
 41
-30.0
 62
     5
 63
     7
 74
     1
 91
        4
 64
     7
 65
   257
 75
     1
175
     1
 42
1.0
 92
        0
 66
   257
 43
1.0
 76
     1
 77
     6
 78
     2
 67
     7
 79
     5
170
     0
171
     0
290
     0
174
     0
 93
        1
 44
0.0
173
     0
291
     0
 45
0.0
1001
ACAD
1000
AcDbSavedByObjectVersion
1070
     0
  0
VISUALSTYLE
  5
1599
102
{ACAD_XDICTIONARY
360
1602
102
}
102
{ACAD_REACTORS
330
1594
102
}
330
1594
100
AcDbVisualStyle
  2
Basic
 70
     7
 71
     1
 72
     0
 73
     1
 90
        0
 40
-0.6
 41
-30.0
 62
     5
 63
     7
 74
     0
 91
        4
 64
     7
 65
   257
 75
     1
175
     1
 42
1.0
 92
        8
 66
     7
 43
1.0
 76
     1
 77
     6
 78
     2
 67
     7
 79
     5
170
     0
171
     0
290
     0
174
     0
 93
        1
 44
0.0
173
     0
291
     1
 45
0.0
1001
ACAD
1000
AcDbSavedByObjectVersion
1070
     0
  0
VISUALSTYLE
  5
15A0
102
{ACAD_XDICTIONARY
360
1610
102
}
102
{ACAD_REACTORS
330
1594
102
}
330
1594
100
AcDbVisualStyle
  2
Brighten
 70
    12
 71
     2
 72
     2
 73
     0
 90
        0
 40
-0.6
 41
-30.0
 62
     5
 63
     7
 74
     1
 91
        4
 64
     7
 65
   257
 75
     1
175
     1
 42
1.0
 92
        8
 66
     7
 43
1.0
 76
     1
 77
     6
 78
     2
 67
     7
 79
     5
170
     0
171
     0
290
     0
174
     0
 93
        1
 44
50.0
173
     0
291
     1
 45
0.0
1001
ACAD
1000
AcDbSavedByObjectVersion
1070
     0
  0
VISUALSTYLE
  5
15A4
102
{ACAD_XDICTIONARY
360
1618
102
}
102
{ACAD_REACTORS
330
1594
102
}
330
1594
100
AcDbVisualStyle
  2
ColorChange
 70
    16
 71
     2
 72
     2
 73
     3
 90
        0
 40
-0.6
 41
-30.0
 62
     5
 63
     8
 74
     1
 91
        4
 64
     7
 65
   257
 75
     1
175
     1
 42
1.0
 92
        8
 66
     8
 43
1.0
 76
     1
 77
     6
 78
     2
 67
     7
 79
     5
170
     0
171
     0
290
     0
174
     0
 93
        1
 44
0.0
173
     0
291
     1
 45
0.0
1001
ACAD
1000
AcDbSavedByObjectVersion
1070
     0
  0
VISUALSTYLE
  5
159D
102
{ACAD_XDICTIONARY
360
160A
102
}
102
{ACAD_REACTORS
330
1594
102
}
330
1594
100
AcDbVisualStyle
  2
Conceptual
 70
     9
 71
     3
 72
     2
 73
     0
 90
        0
 40
-0.6
 41
-30.0
 62
     5
 63
     7
 74
     2
 91
        2
 64
     7
 65
   257
 75
     1
175
     1
 42
179.0
 92
        8
 66
     7
 43
1.0
 76
     1
 77
     6
 78
     2
 67
     7
 79
     3
170
     0
171
     0
290
     0
174
     0
 93
        1
 44
0.0
173
     0
291
     0
 45
0.0
1001
ACAD
1000
AcDbSavedByObjectVersion
1070
     0
  0
VISUALSTYLE
  5
159F
102
{ACAD_XDICTIONARY
360
160E
102
}
102
{ACAD_REACTORS
330
1594
102
}
330
1594
100
AcDbVisualStyle
  2
Dim
 70
    11
 71
     2
 72
     2
 73
     0
 90
        0
 40
-0.6
 41
-30.0
 62
     5
 63
     7
 74
     1
 91
        4
 64
     7
 65
   257
 75
     1
175
     1
 42
1.0
 92
        8
 66
     7
 43
1.0
 76
     1
 77
     6
 78
     2
 67
     7
 79
     5
170
     0
171
     0
290
     0
174
     0
 93
        1
 44
-50.0
173
     0
291
     1
 45
0.0
1001
ACAD
1000
AcDbSavedByObjectVersion
1070
     0
  0
VISUALSTYLE
  5
15A7
102
{ACAD_XDICTIONARY
360
161E
102
}
102
{ACAD_REACTORS
330
1594
102
}
330
1594
100
AcDbVisualStyle
  2
EdgeColorOff
 70
    22
 71
     2
 72
     2
 73
     0
 90
        0
 40
-0.6
 41
-30.0
 62
     5
 63
     7
 74
     1
 91
        4
 64
     7
 65
   257
 75
     1
175
     1
 42
1.0
 92
        8
 66
     7
 43
1.0
 76
     1
 77
     6
 78
     2
 67
     7
 79
     5
170
     0
171
     0
290
     0
174
     0
 93
        1
 44
0.0
173
     0
291
     1
 45
0.0
1001
ACAD
1000
AcDbSavedByObjectVersion
1070
     0
  0
VISUALSTYLE
  5
15A3
102
{ACAD_XDICTIONARY
360
1616
102
}
102
{ACAD_REACTORS
330
1594
102
}
330
1594
100
AcDbVisualStyle
  2
Facepattern
 70
    15
 71
     2
 72
     2
 73
     0
 90
        0
 40
-0.6
 41
-30.0
 62
     5
 63
     7
 74
     1
 91
        4
 64
     7
 65
   257
 75
     1
175
     1
 42
1.0
 92
        8
 66
     7
 43
1.0
 76
     1
 77
     6
 78
     2
 67
     7
 79
     5
170
     0
171
     0
290
     0
174
     0
 93
        1
 44
0.0
173
     0
291
     1
 45
0.0
1001
ACAD
1000
AcDbSavedByObjectVersion
1070
     0
  0
VISUALSTYLE
  5
1595
102
{ACAD_XDICTIONARY
360
15FA
102
}
102
{ACAD_REACTORS
330
1594
102
}
330
1594
100
AcDbVisualStyle
  2
Flat
 70
     0
 71
     2
 72
     1
 73
     1
 90
        2
 40
-0.6
 41
30.0
 62
     5
 63
     7
 74
     0
 91
        4
 64
     7
 65
   257
 75
     1
175
     1
 42
1.0
 92
        8
 66
     7
 43
1.0
 76
     1
 77
     6
 78
     2
 67
     7
 79
     5
170
     0
171
     0
290
     0
174
     0
 93
       13
 44
0.0
173
     0
291
     1
 45
0.0
1001
ACAD
1000
AcDbSavedByObjectVersion
1070
     0
  0
VISUALSTYLE
  5
1596
102
{ACAD_XDICTIONARY
360
15FC
102
}
102
{ACAD_REACTORS
330
1594
102
}
330
1594
100
AcDbVisualStyle
  2
FlatWithEdges
 70
     1
 71
     2
 72
     1
 73
     1
 90
        2
 40
-0.6
 41
30.0
 62
     5
 63
     7
 74
     1
 91
        4
 64
     7
 65
   257
 75
     1
175
     1
 42
1.0
 92
        0
 66
   257
 43
1.0
 76
     1
 77
     6
 78
     2
 67
     7
 79
     5
170
     0
171
     0
290
     0
174
     0
 93
       13
 44
0.0
173
     0
291
     1
 45
0.0
1001
ACAD
1000
AcDbSavedByObjectVersion
1070
     0
  0
VISUALSTYLE
  5
1597
102
{ACAD_XDICTIONARY
360
15FE
102
}
102
{ACAD_REACTORS
330
1594
102
}
330
1594
100
AcDbVisualStyle
  2
Gouraud
 70
     2
 71
     2
 72
     2
 73
     1
 90
        2
 40
-0.6
 41
30.0
 62
     5
 63
     7
 74
     0
 91
        4
 64
     7
 65
   257
 75
     1
175
     1
 42
1.0
 92
        0
 66
     7
 43
1.0
 76
     1
 77
     6
 78
     2
 67
     7
 79
     5
170
     0
171
     0
290
     0
174
     0
 93
       13
 44
0.0
173
     0
291
     1
 45
0.0
1001
ACAD
1000
AcDbSavedByObjectVersion
1070
     0
  0
VISUALSTYLE
  5
1598
102
{ACAD_XDICTIONARY
360
1600
102
}
102
{ACAD_REACTORS
330
1594
102
}
330
1594
100
AcDbVisualStyle
  2
GouraudWithEdges
 70
     3
 71
     2
 72
     2
 73
     1
 90
        2
 40
-0.6
 41
30.0
 62
     5
 63
     7
 74
     1
 91
        4
 64
     7
 65
   257
 75
     1
175
     1
 42
1.0
 92
        0
 66
   257
 43
1.0
 76
     1
 77
     6
 78
     2
 67
     7
 79
     5
170
     0
171
     0
290
     0
174
     0
 93
       13
 44
0.0
173
     0
291
     1
 45
0.0
1001
ACAD
1000
AcDbSavedByObjectVersion
1070
     0
  0
VISUALSTYLE
  5
15A5
102
{ACAD_XDICTIONARY
360
161A
102
}
102
{ACAD_REACTORS
330
1594
102
}
330
1594
100
AcDbVisualStyle
  2
JitterOff
 70
    20
 71
     2
 72
     2
 73
     0
 90
        0
 40
-0.6
 41
-30.0
 62
     5
 63
     7
 74
     1
 91
        4
 64
     7
 65
   257
 75
     1
175
     1
 42
1.0
 92
       10
 66
     7
 43
1.0
 76
     1
 77
     6
 78
     2
 67
     7
 79
     5
170
     0
171
     0
290
     0
174
     0
 93
        1
 44
0.0
173
     0
291
     1
 45
0.0
1001
ACAD
1000
AcDbSavedByObjectVersion
1070
     0
  0
VISUALSTYLE
  5
15A2
102
{ACAD_XDICTIONARY
360
1614
102
}
102
{ACAD_REACTORS
330
1594
102
}
330
1594
100
AcDbVisualStyle
  2
Linepattern
 70
    14
 71
     2
 72
     2
 73
     0
 90
        0
 40
-0.6
 41
-30.0
 62
     5
 63
     7
 74
     1
 91
        4
 64
     7
 65
   257
 75
     7
175
     7
 42
1.0
 92
        8
 66
     7
 43
1.0
 76
     1
 77
     6
 78
     2
 67
     7
 79
     5
170
     0
171
     0
290
     0
174
     0
 93
        1
 44
0.0
173
     0
291
     1
 45
0.0
1001
ACAD
1000
AcDbSavedByObjectVersion
1070
     0
  0
VISUALSTYLE
  5
15A6
102
{ACAD_XDICTIONARY
360
161C
102
}
102
{ACAD_REACTORS
330
1594
102
}
330
1594
100
AcDbVisualStyle
  2
OverhangOff
 70
    21
 71
     2
 72
     2
 73
     0
 90
        0
 40
-0.6
 41
-30.0
 62
     5
 63
     7
 74
     1
 91
        4
 64
     7
 65
   257
 75
     1
175
     1
 42
1.0
 92
        9
 66
     7
 43
1.0
 76
     1
 77
     6
 78
     2
 67
     7
 79
     5
170
     0
171
     0
290
     0
174
     0
 93
        1
 44
0.0
173
     0
291
     1
 45
0.0
1001
ACAD
1000
AcDbSavedByObjectVersion
1070
     0
  0
VISUALSTYLE
  5
159E
102
{ACAD_XDICTIONARY
360
160C
102
}
102
{ACAD_REACTORS
330
1594
102
}
330
1594
100
AcDbVisualStyle
  2
Realistic
 70
     8
 71
     2
 72
     2
 73
     0
 90
        0
 40
-0.6
 41
-30.0
 62
     5
 63
     7
 74
     1
 91
        0
 64
     7
 65
   257
 75
     1
175
     1
 42
1.0
 92
        8
 66
     8
 43
1.0
 76
     1
 77
     6
 78
     2
 67
     7
 79
     5
170
     0
171
     0
290
     0
174
     0
 93
       13
 44
0.0
173
     0
291
     0
 45
0.0
1001
ACAD
1000
AcDbSavedByObjectVersion
1070
     0
  0
VISUALSTYLE
  5
15A1
102
{ACAD_XDICTIONARY
360
1612
102
}
102
{ACAD_REACTORS
330
1594
102
}
330
1594
100
AcDbVisualStyle
  2
Thicken
 70
    13
 71
     2
 72
     2
 73
     0
 90
        0
 40
-0.6
 41
-30.0
 62
     5
 63
     7
 74
     1
 91
        4
 64
     7
 65
   257
 75
     1
175
     1
 42
1.0
 92
       12
 66
     7
 43
1.0
 76
     1
 77
     6
 78
     2
 67
     7
 79
     5
170
     0
171
     0
290
     0
174
     0
 93
        1
 44
0.0
173
     0
291
     1
 45
0.0
1001
ACAD
1000
AcDbSavedByObjectVersion
1070
     0
  0
DICTIONARYVAR
  5
15E0
102
{ACAD_REACTORS
330
3D
102
}
330
3D
100
DictionaryVariables
280
     0
  1
1:1
  0
DICTIONARYVAR
  5
15DF
102
{ACAD_REACTORS
330
3D
102
}
330
3D
100
DictionaryVariables
280
     0
  1
STANDARD
  0
DICTIONARYVAR
  5
156F
102
{ACAD_REACTORS
330
3D
102
}
330
3D
100
DictionaryVariables
280
     0
  1
STANDARD
  0
DICTIONARYVAR
  5
3F
102
{ACAD_REACTORS
330
3D
102
}
330
3D
100
DictionaryVariables
280
     0
  1
2
  0
DICTIONARYVAR
  5
3E
102
{ACAD_REACTORS
330
3D
102
}
330
3D
100
DictionaryVariables
280
     0
  1
1
  0
DICTIONARYVAR
  5
15E2
102
{ACAD_REACTORS
330
3D
102
}
330
3D
100
DictionaryVariables
280
     0
  1
0
  0
DICTIONARYVAR
  5
157A
102
{ACAD_REACTORS
330
3D
102
}
330
3D
100
DictionaryVariables
280
     0
  1

  0
DICTIONARYVAR
  5
15E1
102
{ACAD_REACTORS
330
3D
102
}
330
3D
100
DictionaryVariables
280
     0
  1
127
  0
DICTIONARYVAR
  5
15E3
102
{ACAD_REACTORS
330
3D
102
}
330
3D
100
DictionaryVariables
280
     0
  1
2
  0
XRECORD
  5
156D
102
{ACAD_REACTORS
330
156C
102
}
330
156C
100
AcDbXrecord
280
     1
  0
DICTIONARY
  5
15E8
330
1E
100
AcDbDictionary
280
     1
281
     1
  3
ACAD_XREC_ROUNDTRIP
360
15E9
  0
DICTIONARY
  5
15EC
330
26
100
AcDbDictionary
280
     1
281
     1
  3
ACAD_XREC_ROUNDTRIP
360
15ED
  0
DICTIONARY
  5
15EA
330
22
100
AcDbDictionary
280
     1
281
     1
  3
ACAD_XREC_ROUNDTRIP
360
15EB
  0
DICTIONARY
  5
1585
330
1584
100
AcDbDictionary
280
     1
281
     1
  3
ACAD_XREC_ROUNDTRIP
360
15F8
  3
BUMPTILE
360
1587
  3
DIFFUSETILE
360
1586
  3
OPACITYTILE
360
158A
  3
REFLECTIONTILE
360
1589
  3
REFRACTIONTILE
360
158B
  3
SPECULARTILE
360
1588
  0
DICTIONARY
  5
157D
330
157C
100
AcDbDictionary
280
     1
281
     1
  3
ACAD_XREC_ROUNDTRIP
360
15F7
  3
BUMPTILE
360
157F
  3
DIFFUSETILE
360
157E
  3
OPACITYTILE
360
1582
  3
REFLECTIONTILE
360
1581
  3
REFRACTIONTILE
360
1583
  3
SPECULARTILE
360
1580
  0
DICTIONARY
  5
158D
330
158C
100
AcDbDictionary
280
     1
281
     1
  3
ACAD_XREC_ROUNDTRIP
360
15F9
  3
BUMPTILE
360
158F
  3
DIFFUSETILE
360
158E
  3
OPACITYTILE
360
1592
  3
REFLECTIONTILE
360
1591
  3
REFRACTIONTILE
360
1593
  3
SPECULARTILE
360
1590
  0
DICTIONARY
  5
15E4
330
BAB
100
AcDbDictionary
280
     1
281
     1
  3
ACAD_ROUNDTRIP_2008_TABLESTYLE_CELLSTYLEMAP
360
15E5
  3
ACAD_XREC_ROUNDTRIP
360
15EE
  0
DICTIONARY
  5
1604
330
159A
100
AcDbDictionary
280
     1
281
     1
  3
ACAD_XREC_ROUNDTRIP
360
1605
  0
DICTIONARY
  5
1608
330
159C
100
AcDbDictionary
280
     1
281
     1
  3
ACAD_XREC_ROUNDTRIP
360
1609
  0
DICTIONARY
  5
1606
330
159B
100
AcDbDictionary
280
     1
281
     1
  3
ACAD_XREC_ROUNDTRIP
360
1607
  0
DICTIONARY
  5
1602
330
1599
100
AcDbDictionary
280
     1
281
     1
  3
ACAD_XREC_ROUNDTRIP
360
1603
  0
DICTIONARY
  5
1610
330
15A0
100
AcDbDictionary
280
     1
281
     1
  3
ACAD_XREC_ROUNDTRIP
360
1611
  0
DICTIONARY
  5
1618
330
15A4
100
AcDbDictionary
280
     1
281
     1
  3
ACAD_XREC_ROUNDTRIP
360
1619
  0
DICTIONARY
  5
160A
330
159D
100
AcDbDictionary
280
     1
281
     1
  3
ACAD_XREC_ROUNDTRIP
360
160B
  0
DICTIONARY
  5
160E
330
159F
100
AcDbDictionary
280
     1
281
     1
  3
ACAD_XREC_ROUNDTRIP
360
160F
  0
DICTIONARY
  5
161E
330
15A7
100
AcDbDictionary
280
     1
281
     1
  3
ACAD_XREC_ROUNDTRIP
360
161F
  0
DICTIONARY
  5
1616
330
15A3
100
AcDbDictionary
280
     1
281
     1
  3
ACAD_XREC_ROUNDTRIP
360
1617
  0
DICTIONARY
  5
15FA
330
1595
100
AcDbDictionary
280
     1
281
     1
  3
ACAD_XREC_ROUNDTRIP
360
15FB
  0
DICTIONARY
  5
15FC
330
1596
100
AcDbDictionary
280
     1
281
     1
  3
ACAD_XREC_ROUNDTRIP
360
15FD
  0
DICTIONARY
  5
15FE
330
1597
100
AcDbDictionary
280
     1
281
     1
  3
ACAD_XREC_ROUNDTRIP
360
15FF
  0
DICTIONARY
  5
1600
330
1598
100
AcDbDictionary
280
     1
281
     1
  3
ACAD_XREC_ROUNDTRIP
360
1601
  0
DICTIONARY
  5
161A
330
15A5
100
AcDbDictionary
280
     1
281
     1
  3
ACAD_XREC_ROUNDTRIP
360
161B
  0
DICTIONARY
  5
1614
330
15A2
100
AcDbDictionary
280
     1
281
     1
  3
ACAD_XREC_ROUNDTRIP
360
1615
  0
DICTIONARY
  5
161C
330
15A6
100
AcDbDictionary
280
     1
281
     1
  3
ACAD_XREC_ROUNDTRIP
360
161D
  0
DICTIONARY
  5
160C
330
159E
100
AcDbDictionary
280
     1
281
     1
  3
ACAD_XREC_ROUNDTRIP
360
160D
  0
DICTIONARY
  5
1612
330
15A1
100
AcDbDictionary
280
     1
281
     1
  3
ACAD_XREC_ROUNDTRIP
360
1613
  0
XRECORD
  5
15E9
102
{ACAD_REACTORS
330
15E8
102
}
330
15E8
100
AcDbXrecord
280
     1
102
SHADEPLOT
 70
     0
102
SHADEPLOTRESLEVEL
 70
     2
102
SHADEPLOTCUSTOMDPI
 70
   300
  0
XRECORD
  5
15ED
102
{ACAD_REACTORS
330
15EC
102
}
330
15EC
100
AcDbXrecord
280
     1
102
SHADEPLOT
 70
     0
102
SHADEPLOTRESLEVEL
 70
     2
102
SHADEPLOTCUSTOMDPI
 70
   300
  0
XRECORD
  5
15EB
102
{ACAD_REACTORS
330
15EA
102
}
330
15EA
100
AcDbXrecord
280
     1
102
SHADEPLOT
 70
     0
102
SHADEPLOTRESLEVEL
 70
     2
102
SHADEPLOTCUSTOMDPI
 70
   300
  0
XRECORD
  5
15F8
102
{ACAD_REACTORS
330
1585
102
}
330
1585
100
AcDbXrecord
280
     1
102
MATERIAL
148
0.0
149
0.0
149
0.0
 93
        0
 94
      127
282
     0
 72
     0
 77
     0
171
     0
175
     0
179
     0
273
     0
  0
XRECORD
  5
1587
102
{ACAD_REACTORS
330
1585
102
}
330
1585
100
AcDbXrecord
280
     1
270
     1
271
     1
  0
XRECORD
  5
1586
102
{ACAD_REACTORS
330
1585
102
}
330
1585
100
AcDbXrecord
280
     1
270
     1
271
     1
  0
XRECORD
  5
158A
102
{ACAD_REACTORS
330
1585
102
}
330
1585
100
AcDbXrecord
280
     1
270
     1
271
     1
  0
XRECORD
  5
1589
102
{ACAD_REACTORS
330
1585
102
}
330
1585
100
AcDbXrecord
280
     1
270
     1
271
     1
  0
XRECORD
  5
158B
102
{ACAD_REACTORS
330
1585
102
}
330
1585
100
AcDbXrecord
280
     1
270
     1
271
     1
  0
XRECORD
  5
1588
102
{ACAD_REACTORS
330
1585
102
}
330
1585
100
AcDbXrecord
280
     1
270
     1
271
     1
  0
XRECORD
  5
15F7
102
{ACAD_REACTORS
330
157D
102
}
330
157D
100
AcDbXrecord
280
     1
102
MATERIAL
148
0.0
149
0.0
149
0.0
 93
        0
 94
      127
282
     0
 72
     0
 77
     0
171
     0
175
     0
179
     0
273
     0
  0
XRECORD
  5
157F
102
{ACAD_REACTORS
330
157D
102
}
330
157D
100
AcDbXrecord
280
     1
270
     1
271
     1
  0
XRECORD
  5
157E
102
{ACAD_REACTORS
330
157D
102
}
330
157D
100
AcDbXrecord
280
     1
270
     1
271
     1
  0
XRECORD
  5
1582
102
{ACAD_REACTORS
330
157D
102
}
330
157D
100
AcDbXrecord
280
     1
270
     1
271
     1
  0
XRECORD
  5
1581
102
{ACAD_REACTORS
330
157D
102
}
330
157D
100
AcDbXrecord
280
     1
270
     1
271
     1
  0
XRECORD
  5
1583
102
{ACAD_REACTORS
330
157D
102
}
330
157D
100
AcDbXrecord
280
     1
270
     1
271
     1
  0
XRECORD
  5
1580
102
{ACAD_REACTORS
330
157D
102
}
330
157D
100
AcDbXrecord
280
     1
270
     1
271
     1
  0
XRECORD
  5
15F9
102
{ACAD_REACTORS
330
158D
102
}
330
158D
100
AcDbXrecord
280
     1
102
MATERIAL
148
0.0
149
0.0
149
0.0
 93
        0
 94
      127
282
     0
 72
     0
 77
     0
171
     0
175
     0
179
     0
273
     0
  0
XRECORD
  5
158F
102
{ACAD_REACTORS
330
158D
102
}
330
158D
100
AcDbXrecord
280
     1
270
     1
271
     1
  0
XRECORD
  5
158E
102
{ACAD_REACTORS
330
158D
102
}
330
158D
100
AcDbXrecord
280
     1
270
     1
271
     1
  0
XRECORD
  5
1592
102
{ACAD_REACTORS
330
158D
102
}
330
158D
100
AcDbXrecord
280
     1
270
     1
271
     1
  0
XRECORD
  5
1591
102
{ACAD_REACTORS
330
158D
102
}
330
158D
100
AcDbXrecord
280
     1
270
     1
271
     1
  0
XRECORD
  5
1593
102
{ACAD_REACTORS
330
158D
102
}
330
158D
100
AcDbXrecord
280
     1
270
     1
271
     1
  0
XRECORD
  5
1590
102
{ACAD_REACTORS
330
158D
102
}
330
158D
100
AcDbXrecord
280
     1
270
     1
271
     1
  0
CELLSTYLEMAP
  5
15E5
102
{ACAD_REACTORS
330
15E4
102
}
330
15E4
100
AcDbCellStyleMap
 90
        3
300
CELLSTYLE
  1
TABLEFORMAT_BEGIN
 90
        5
170
     1
 91
        0
 92
    32768
 62
   257
 93
        1
300
CONTENTFORMAT
  1
CONTENTFORMAT_BEGIN
 90
        0
 91
        0
 92
        4
 93
        0
300

 40
0.0
140
1.0
 94
        5
 62
     0
340
11
144
6.0
309
CONTENTFORMAT_END
171
     1
301
MARGIN
  1
CELLMARGIN_BEGIN
 40
1.5
 40
1.5
 40
1.5
 40
1.5
 40
0.18
 40
0.18
309
CELLMARGIN_END
 94
        6
 95
        1
302
GRIDFORMAT
  1
GRIDFORMAT_BEGIN
 90
        0
 91
        1
 62
     0
 92
       -2
340
0
 93
        0
 40
0.045
309
GRIDFORMAT_END
 95
        2
302
GRIDFORMAT
  1
GRIDFORMAT_BEGIN
 90
        0
 91
        1
 62
     0
 92
       -2
340
0
 93
        0
 40
0.045
309
GRIDFORMAT_END
 95
        4
302
GRIDFORMAT
  1
GRIDFORMAT_BEGIN
 90
        0
 91
        1
 62
     0
 92
       -2
340
0
 93
        0
 40
0.045
309
GRIDFORMAT_END
 95
        8
302
GRIDFORMAT
  1
GRIDFORMAT_BEGIN
 90
        0
 91
        1
 62
     0
 92
       -2
340
0
 93
        0
 40
0.045
309
GRIDFORMAT_END
 95
       16
302
GRIDFORMAT
  1
GRIDFORMAT_BEGIN
 90
        0
 91
        1
 62
     0
 92
       -2
340
0
 93
        0
 40
0.045
309
GRIDFORMAT_END
 95
       32
302
GRIDFORMAT
  1
GRIDFORMAT_BEGIN
 90
        0
 91
        1
 62
     0
 92
       -2
340
0
 93
        0
 40
0.045
309
GRIDFORMAT_END
309
TABLEFORMAT_END
  1
CELLSTYLE_BEGIN
 90
        1
 91
        1
300
_TITLE
309
CELLSTYLE_END
300
CELLSTYLE
  1
TABLEFORMAT_BEGIN
 90
        5
170
     1
 91
        0
 92
        0
 62
   257
 93
        1
300
CONTENTFORMAT
  1
CONTENTFORMAT_BEGIN
 90
        0
 91
        0
 92
        4
 93
        0
300

 40
0.0
140
1.0
 94
        5
 62
     0
340
11
144
4.5
309
CONTENTFORMAT_END
171
     1
301
MARGIN
  1
CELLMARGIN_BEGIN
 40
1.5
 40
1.5
 40
1.5
 40
1.5
 40
0.18
 40
0.18
309
CELLMARGIN_END
 94
        6
 95
        1
302
GRIDFORMAT
  1
GRIDFORMAT_BEGIN
 90
        0
 91
        1
 62
     0
 92
       -2
340
0
 93
        0
 40
0.045
309
GRIDFORMAT_END
 95
        2
302
GRIDFORMAT
  1
GRIDFORMAT_BEGIN
 90
        0
 91
        1
 62
     0
 92
       -2
340
0
 93
        0
 40
0.045
309
GRIDFORMAT_END
 95
        4
302
GRIDFORMAT
  1
GRIDFORMAT_BEGIN
 90
        0
 91
        1
 62
     0
 92
       -2
340
0
 93
        0
 40
0.045
309
GRIDFORMAT_END
 95
        8
302
GRIDFORMAT
  1
GRIDFORMAT_BEGIN
 90
        0
 91
        1
 62
     0
 92
       -2
340
0
 93
        0
 40
0.045
309
GRIDFORMAT_END
 95
       16
302
GRIDFORMAT
  1
GRIDFORMAT_BEGIN
 90
        0
 91
        1
 62
     0
 92
       -2
340
0
 93
        0
 40
0.045
309
GRIDFORMAT_END
 95
       32
302
GRIDFORMAT
  1
GRIDFORMAT_BEGIN
 90
        0
 91
        1
 62
     0
 92
       -2
340
0
 93
        0
 40
0.045
309
GRIDFORMAT_END
309
TABLEFORMAT_END
  1
CELLSTYLE_BEGIN
 90
        2
 91
        1
300
_HEADER
309
CELLSTYLE_END
300
CELLSTYLE
  1
TABLEFORMAT_BEGIN
 90
        5
170
     1
 91
        0
 92
        0
 62
   257
 93
        1
300
CONTENTFORMAT
  1
CONTENTFORMAT_BEGIN
 90
        0
 91
        0
 92
        4
 93
        0
300

 40
0.0
140
1.0
 94
        2
 62
     0
340
11
144
4.5
309
CONTENTFORMAT_END
171
     1
301
MARGIN
  1
CELLMARGIN_BEGIN
 40
1.5
 40
1.5
 40
1.5
 40
1.5
 40
0.18
 40
0.18
309
CELLMARGIN_END
 94
        6
 95
        1
302
GRIDFORMAT
  1
GRIDFORMAT_BEGIN
 90
        0
 91
        1
 62
     0
 92
       -2
340
0
 93
        0
 40
0.045
309
GRIDFORMAT_END
 95
        2
302
GRIDFORMAT
  1
GRIDFORMAT_BEGIN
 90
        0
 91
        1
 62
     0
 92
       -2
340
0
 93
        0
 40
0.045
309
GRIDFORMAT_END
 95
        4
302
GRIDFORMAT
  1
GRIDFORMAT_BEGIN
 90
        0
 91
        1
 62
     0
 92
       -2
340
0
 93
        0
 40
0.045
309
GRIDFORMAT_END
 95
        8
302
GRIDFORMAT
  1
GRIDFORMAT_BEGIN
 90
        0
 91
        1
 62
     0
 92
       -2
340
0
 93
        0
 40
0.045
309
GRIDFORMAT_END
 95
       16
302
GRIDFORMAT
  1
GRIDFORMAT_BEGIN
 90
        0
 91
        1
 62
     0
 92
       -2
340
0
 93
        0
 40
0.045
309
GRIDFORMAT_END
 95
       32
302
GRIDFORMAT
  1
GRIDFORMAT_BEGIN
 90
        0
 91
        1
 62
     0
 92
       -2
340
0
 93
        0
 40
0.045
309
GRIDFORMAT_END
309
TABLEFORMAT_END
  1
CELLSTYLE_BEGIN
 90
        3
 91
        2
300
_DATA
309
CELLSTYLE_END
  0
XRECORD
  5
15EE
102
{ACAD_REACTORS
330
15E4
102
}
330
15E4
100
AcDbXrecord
280
     1
102
ACAD_ROUNDTRIP_PRE2007_TABLESTYLE
 90
        4
 91
        0
  1

 92
        4
 93
        0
  2

 94
        4
 95
        0
  3

  0
XRECORD
  5
1605
102
{ACAD_REACTORS
330
1604
102
}
330
1604
100
AcDbXrecord
280
     1
102
RTVSPropertyOp0
 70
     1
102
RTVSPropertyOp1
 70
     1
102
RTVSPropertyOp2
 70
     1
102
RTVSPropertyOp3
 70
     1
102
RTVSPropertyOp4
 70
     1
102
RTVSPropertyOp5
 70
     1
102
RTVSPropertyOp6
 70
     1
102
RTVSPropertyOp7
 70
     1
102
RTVSPropertyOp8
 70
     1
102
RTVSPropertyOp9
 70
     1
102
RTVSPropertyOp10
 70
     1
102
RTVSPropertyOp11
 70
     1
102
RTVSPropertyOp12
 70
     1
102
RTVSPropertyOp13
 70
     1
102
RTVSPropertyOp14
 70
     1
102
RTVSPropertyOp15
 70
     1
102
RTVSPropertyOp16
 70
     1
102
RTVSPropertyOp17
 70
     1
102
RTVSPropertyOp18
 70
     1
102
RTVSPropertyOp19
 70
     1
102
RTVSPropertyOp20
 70
     1
102
RTVSPropertyOp21
 70
     1
102
RTVSPropertyOp22
 70
     1
102
RTVSPropertyOp23
 70
     1
102
RTVSPropertyOp24
 70
     1
102
RTVSPropertyOp25
 70
     1
102
RTVSPropertyOp26
 70
     1
102
RTVSPropertyOp27
 70
     1
  0
XRECORD
  5
1609
102
{ACAD_REACTORS
330
1608
102
}
330
1608
100
AcDbXrecord
280
     1
102
RTVSPropertyOp0
 70
     1
102
RTVSPropertyOp1
 70
     1
102
RTVSPropertyOp2
 70
     1
102
RTVSPropertyOp3
 70
     1
102
RTVSPropertyOp4
 70
     1
102
RTVSPropertyOp5
 70
     1
102
RTVSPropertyOp6
 70
     1
102
RTVSPropertyOp7
 70
     1
102
RTVSPropertyOp8
 70
     1
102
RTVSPropertyOp9
 70
     1
102
RTVSPropertyOp10
 70
     1
102
RTVSPropertyOp11
 70
     1
102
RTVSPropertyOp12
 70
     1
102
RTVSPropertyOp13
 70
     1
102
RTVSPropertyOp14
 70
     1
102
RTVSPropertyOp15
 70
     1
102
RTVSPropertyOp16
 70
     1
102
RTVSPropertyOp17
 70
     1
102
RTVSPropertyOp18
 70
     1
102
RTVSPropertyOp19
 70
     1
102
RTVSPropertyOp20
 70
     1
102
RTVSPropertyOp21
 70
     1
102
RTVSPropertyOp22
 70
     1
102
RTVSPropertyOp23
 70
     1
102
RTVSPropertyOp24
 70
     1
102
RTVSPropertyOp25
 70
     1
102
RTVSPropertyOp26
 70
     1
102
RTVSPropertyOp27
 70
     1
  0
XRECORD
  5
1607
102
{ACAD_REACTORS
330
1606
102
}
330
1606
100
AcDbXrecord
280
     1
102
RTVSPropertyOp0
 70
     1
102
RTVSPropertyOp1
 70
     1
102
RTVSPropertyOp2
 70
     1
102
RTVSPropertyOp3
 70
     1
102
RTVSPropertyOp4
 70
     1
102
RTVSPropertyOp5
 70
     1
102
RTVSPropertyOp6
 70
     1
102
RTVSPropertyOp7
 70
     1
102
RTVSPropertyOp8
 70
     1
102
RTVSPropertyOp9
 70
     1
102
RTVSPropertyOp10
 70
     1
102
RTVSPropertyOp11
 70
     1
102
RTVSPropertyOp12
 70
     1
102
RTVSPropertyOp13
 70
     1
102
RTVSPropertyOp14
 70
     1
102
RTVSPropertyOp15
 70
     1
102
RTVSPropertyOp16
 70
     1
102
RTVSPropertyOp17
 70
     1
102
RTVSPropertyOp18
 70
     1
102
RTVSPropertyOp19
 70
     1
102
RTVSPropertyOp20
 70
     1
102
RTVSPropertyOp21
 70
     1
102
RTVSPropertyOp22
 70
     1
102
RTVSPropertyOp23
 70
     1
102
RTVSPropertyOp24
 70
     1
102
RTVSPropertyOp25
 70
     1
102
RTVSPropertyOp26
 70
     1
102
RTVSPropertyOp27
 70
     1
  0
XRECORD
  5
1603
102
{ACAD_REACTORS
330
1602
102
}
330
1602
100
AcDbXrecord
280
     1
102
RTVSPropertyOp0
 70
     1
102
RTVSPropertyOp1
 70
     1
102
RTVSPropertyOp2
 70
     1
102
RTVSPropertyOp3
 70
     1
102
RTVSPropertyOp4
 70
     1
102
RTVSPropertyOp5
 70
     1
102
RTVSPropertyOp6
 70
     1
102
RTVSPropertyOp7
 70
     1
102
RTVSPropertyOp8
 70
     1
102
RTVSPropertyOp9
 70
     1
102
RTVSPropertyOp10
 70
     1
102
RTVSPropertyOp11
 70
     1
102
RTVSPropertyOp12
 70
     1
102
RTVSPropertyOp13
 70
     1
102
RTVSPropertyOp14
 70
     1
102
RTVSPropertyOp15
 70
     1
102
RTVSPropertyOp16
 70
     1
102
RTVSPropertyOp17
 70
     1
102
RTVSPropertyOp18
 70
     1
102
RTVSPropertyOp19
 70
     1
102
RTVSPropertyOp20
 70
     1
102
RTVSPropertyOp21
 70
     1
102
RTVSPropertyOp22
 70
     1
102
RTVSPropertyOp23
 70
     1
102
RTVSPropertyOp24
 70
     1
102
RTVSPropertyOp25
 70
     1
102
RTVSPropertyOp26
 70
     1
102
RTVSPropertyOp27
 70
     1
  0
XRECORD
  5
1611
102
{ACAD_REACTORS
330
1610
102
}
330
1610
100
AcDbXrecord
280
     1
102
RTVSPropertyOp0
 70
     1
102
RTVSPropertyOp1
 70
     1
102
RTVSPropertyOp2
 70
     1
102
RTVSPropertyOp3
 70
     1
102
RTVSPropertyOp4
 70
     1
102
RTVSPropertyOp5
 70
     1
102
RTVSPropertyOp6
 70
     1
102
RTVSPropertyOp7
 70
     1
102
RTVSPropertyOp8
 70
     1
102
RTVSPropertyOp9
 70
     1
102
RTVSPropertyOp10
 70
     1
102
RTVSPropertyOp11
 70
     1
102
RTVSPropertyOp12
 70
     1
102
RTVSPropertyOp13
 70
     1
102
RTVSPropertyOp14
 70
     1
102
RTVSPropertyOp15
 70
     1
102
RTVSPropertyOp16
 70
     1
102
RTVSPropertyOp17
 70
     1
102
RTVSPropertyOp18
 70
     1
102
RTVSPropertyOp19
 70
     1
102
RTVSPropertyOp20
 70
     1
102
RTVSPropertyOp21
 70
     1
102
RTVSPropertyOp22
 70
     1
102
RTVSPropertyOp23
 70
     1
102
RTVSPropertyOp24
 70
     1
102
RTVSPropertyOp25
 70
     1
102
RTVSPropertyOp26
 70
     1
102
RTVSPropertyOp27
 70
     1
  0
XRECORD
  5
1619
102
{ACAD_REACTORS
330
1618
102
}
330
1618
100
AcDbXrecord
280
     1
102
RTVSPropertyOp0
 70
     1
102
RTVSPropertyOp1
 70
     1
102
RTVSPropertyOp2
 70
     1
102
RTVSPropertyOp3
 70
     1
102
RTVSPropertyOp4
 70
     1
102
RTVSPropertyOp5
 70
     1
102
RTVSPropertyOp6
 70
     1
102
RTVSPropertyOp7
 70
     1
102
RTVSPropertyOp8
 70
     1
102
RTVSPropertyOp9
 70
     1
102
RTVSPropertyOp10
 70
     1
102
RTVSPropertyOp11
 70
     1
102
RTVSPropertyOp12
 70
     1
102
RTVSPropertyOp13
 70
     1
102
RTVSPropertyOp14
 70
     1
102
RTVSPropertyOp15
 70
     1
102
RTVSPropertyOp16
 70
     1
102
RTVSPropertyOp17
 70
     1
102
RTVSPropertyOp18
 70
     1
102
RTVSPropertyOp19
 70
     1
102
RTVSPropertyOp20
 70
     1
102
RTVSPropertyOp21
 70
     1
102
RTVSPropertyOp22
 70
     1
102
RTVSPropertyOp23
 70
     1
102
RTVSPropertyOp24
 70
     1
102
RTVSPropertyOp25
 70
     1
102
RTVSPropertyOp26
 70
     1
102
RTVSPropertyOp27
 70
     1
  0
XRECORD
  5
160B
102
{ACAD_REACTORS
330
160A
102
}
330
160A
100
AcDbXrecord
280
     1
102
RTVSPropertyOp0
 70
     1
102
RTVSPropertyOp1
 70
     1
102
RTVSPropertyOp2
 70
     1
102
RTVSPropertyOp3
 70
     1
102
RTVSPropertyOp4
 70
     1
102
RTVSPropertyOp5
 70
     1
102
RTVSPropertyOp6
 70
     1
102
RTVSPropertyOp7
 70
     1
102
RTVSPropertyOp8
 70
     1
102
RTVSPropertyOp9
 70
     1
102
RTVSPropertyOp10
 70
     1
102
RTVSPropertyOp11
 70
     1
102
RTVSPropertyOp12
 70
     1
102
RTVSPropertyOp13
 70
     1
102
RTVSPropertyOp14
 70
     1
102
RTVSPropertyOp15
 70
     1
102
RTVSPropertyOp16
 70
     1
102
RTVSPropertyOp17
 70
     1
102
RTVSPropertyOp18
 70
     1
102
RTVSPropertyOp19
 70
     1
102
RTVSPropertyOp20
 70
     1
102
RTVSPropertyOp21
 70
     1
102
RTVSPropertyOp22
 70
     1
102
RTVSPropertyOp23
 70
     1
102
RTVSPropertyOp24
 70
     1
102
RTVSPropertyOp25
 70
     1
102
RTVSPropertyOp26
 70
     1
102
RTVSPropertyOp27
 70
     1
  0
XRECORD
  5
160F
102
{ACAD_REACTORS
330
160E
102
}
330
160E
100
AcDbXrecord
280
     1
102
RTVSPropertyOp0
 70
     1
102
RTVSPropertyOp1
 70
     1
102
RTVSPropertyOp2
 70
     1
102
RTVSPropertyOp3
 70
     1
102
RTVSPropertyOp4
 70
     1
102
RTVSPropertyOp5
 70
     1
102
RTVSPropertyOp6
 70
     1
102
RTVSPropertyOp7
 70
     1
102
RTVSPropertyOp8
 70
     1
102
RTVSPropertyOp9
 70
     1
102
RTVSPropertyOp10
 70
     1
102
RTVSPropertyOp11
 70
     1
102
RTVSPropertyOp12
 70
     1
102
RTVSPropertyOp13
 70
     1
102
RTVSPropertyOp14
 70
     1
102
RTVSPropertyOp15
 70
     1
102
RTVSPropertyOp16
 70
     1
102
RTVSPropertyOp17
 70
     1
102
RTVSPropertyOp18
 70
     1
102
RTVSPropertyOp19
 70
     1
102
RTVSPropertyOp20
 70
     1
102
RTVSPropertyOp21
 70
     1
102
RTVSPropertyOp22
 70
     1
102
RTVSPropertyOp23
 70
     1
102
RTVSPropertyOp24
 70
     1
102
RTVSPropertyOp25
 70
     1
102
RTVSPropertyOp26
 70
     1
102
RTVSPropertyOp27
 70
     1
  0
XRECORD
  5
161F
102
{ACAD_REACTORS
330
161E
102
}
330
161E
100
AcDbXrecord
280
     1
102
RTVSPropertyOp0
 70
     0
102
RTVSPropertyOp1
 70
     0
102
RTVSPropertyOp2
 70
     0
102
RTVSPropertyOp3
 70
     0
102
RTVSPropertyOp4
 70
     0
102
RTVSPropertyOp5
 70
     0
102
RTVSPropertyOp6
 70
     0
102
RTVSPropertyOp7
 70
     0
102
RTVSPropertyOp8
 70
     0
102
RTVSPropertyOp9
 70
     0
102
RTVSPropertyOp10
 70
     0
102
RTVSPropertyOp11
 70
     0
102
RTVSPropertyOp12
 70
     0
102
RTVSPropertyOp13
 70
     0
102
RTVSPropertyOp14
 70
     2
102
RTVSPropertyOp15
 70
     0
102
RTVSPropertyOp16
 70
     0
102
RTVSPropertyOp17
 70
     0
102
RTVSPropertyOp18
 70
     0
102
RTVSPropertyOp19
 70
     0
102
RTVSPropertyOp20
 70
     0
102
RTVSPropertyOp21
 70
     0
102
RTVSPropertyOp22
 70
     0
102
RTVSPropertyOp23
 70
     0
102
RTVSPropertyOp24
 70
     0
102
RTVSPropertyOp25
 70
     0
102
RTVSPropertyOp26
 70
     0
102
RTVSPropertyOp27
 70
     0
  0
XRECORD
  5
1617
102
{ACAD_REACTORS
330
1616
102
}
330
1616
100
AcDbXrecord
280
     1
102
RTVSPropertyOp0
 70
     1
102
RTVSPropertyOp1
 70
     1
102
RTVSPropertyOp2
 70
     1
102
RTVSPropertyOp3
 70
     1
102
RTVSPropertyOp4
 70
     1
102
RTVSPropertyOp5
 70
     1
102
RTVSPropertyOp6
 70
     1
102
RTVSPropertyOp7
 70
     1
102
RTVSPropertyOp8
 70
     1
102
RTVSPropertyOp9
 70
     1
102
RTVSPropertyOp10
 70
     1
102
RTVSPropertyOp11
 70
     1
102
RTVSPropertyOp12
 70
     1
102
RTVSPropertyOp13
 70
     1
102
RTVSPropertyOp14
 70
     1
102
RTVSPropertyOp15
 70
     1
102
RTVSPropertyOp16
 70
     1
102
RTVSPropertyOp17
 70
     1
102
RTVSPropertyOp18
 70
     1
102
RTVSPropertyOp19
 70
     1
102
RTVSPropertyOp20
 70
     1
102
RTVSPropertyOp21
 70
     1
102
RTVSPropertyOp22
 70
     1
102
RTVSPropertyOp23
 70
     1
102
RTVSPropertyOp24
 70
     1
102
RTVSPropertyOp25
 70
     1
102
RTVSPropertyOp26
 70
     1
102
RTVSPropertyOp27
 70
     1
  0
XRECORD
  5
15FB
102
{ACAD_REACTORS
330
15FA
102
}
330
15FA
100
AcDbXrecord
280
     1
102
RTVSPropertyOp0
 70
     1
102
RTVSPropertyOp1
 70
     1
102
RTVSPropertyOp2
 70
     1
102
RTVSPropertyOp3
 70
     1
102
RTVSPropertyOp4
 70
     1
102
RTVSPropertyOp5
 70
     1
102
RTVSPropertyOp6
 70
     1
102
RTVSPropertyOp7
 70
     1
102
RTVSPropertyOp8
 70
     1
102
RTVSPropertyOp9
 70
     1
102
RTVSPropertyOp10
 70
     1
102
RTVSPropertyOp11
 70
     1
102
RTVSPropertyOp12
 70
     1
102
RTVSPropertyOp13
 70
     1
102
RTVSPropertyOp14
 70
     1
102
RTVSPropertyOp15
 70
     1
102
RTVSPropertyOp16
 70
     1
102
RTVSPropertyOp17
 70
     1
102
RTVSPropertyOp18
 70
     1
102
RTVSPropertyOp19
 70
     1
102
RTVSPropertyOp20
 70
     1
102
RTVSPropertyOp21
 70
     1
102
RTVSPropertyOp22
 70
     1
102
RTVSPropertyOp23
 70
     1
102
RTVSPropertyOp24
 70
     1
102
RTVSPropertyOp25
 70
     1
102
RTVSPropertyOp26
 70
     1
102
RTVSPropertyOp27
 70
     1
  0
XRECORD
  5
15FD
102
{ACAD_REACTORS
330
15FC
102
}
330
15FC
100
AcDbXrecord
280
     1
102
RTVSPropertyOp0
 70
     1
102
RTVSPropertyOp1
 70
     1
102
RTVSPropertyOp2
 70
     1
102
RTVSPropertyOp3
 70
     1
102
RTVSPropertyOp4
 70
     1
102
RTVSPropertyOp5
 70
     1
102
RTVSPropertyOp6
 70
     1
102
RTVSPropertyOp7
 70
     1
102
RTVSPropertyOp8
 70
     1
102
RTVSPropertyOp9
 70
     1
102
RTVSPropertyOp10
 70
     1
102
RTVSPropertyOp11
 70
     1
102
RTVSPropertyOp12
 70
     1
102
RTVSPropertyOp13
 70
     1
102
RTVSPropertyOp14
 70
     1
102
RTVSPropertyOp15
 70
     1
102
RTVSPropertyOp16
 70
     1
102
RTVSPropertyOp17
 70
     1
102
RTVSPropertyOp18
 70
     1
102
RTVSPropertyOp19
 70
     1
102
RTVSPropertyOp20
 70
     1
102
RTVSPropertyOp21
 70
     1
102
RTVSPropertyOp22
 70
     1
102
RTVSPropertyOp23
 70
     1
102
RTVSPropertyOp24
 70
     1
102
RTVSPropertyOp25
 70
     1
102
RTVSPropertyOp26
 70
     1
102
RTVSPropertyOp27
 70
     1
  0
XRECORD
  5
15FF
102
{ACAD_REACTORS
330
15FE
102
}
330
15FE
100
AcDbXrecord
280
     1
102
RTVSPropertyOp0
 70
     1
102
RTVSPropertyOp1
 70
     1
102
RTVSPropertyOp2
 70
     1
102
RTVSPropertyOp3
 70
     1
102
RTVSPropertyOp4
 70
     1
102
RTVSPropertyOp5
 70
     1
102
RTVSPropertyOp6
 70
     1
102
RTVSPropertyOp7
 70
     1
102
RTVSPropertyOp8
 70
     1
102
RTVSPropertyOp9
 70
     1
102
RTVSPropertyOp10
 70
     1
102
RTVSPropertyOp11
 70
     1
102
RTVSPropertyOp12
 70
     1
102
RTVSPropertyOp13
 70
     1
102
RTVSPropertyOp14
 70
     1
102
RTVSPropertyOp15
 70
     1
102
RTVSPropertyOp16
 70
     1
102
RTVSPropertyOp17
 70
     1
102
RTVSPropertyOp18
 70
     1
102
RTVSPropertyOp19
 70
     1
102
RTVSPropertyOp20
 70
     1
102
RTVSPropertyOp21
 70
     1
102
RTVSPropertyOp22
 70
     1
102
RTVSPropertyOp23
 70
     1
102
RTVSPropertyOp24
 70
     1
102
RTVSPropertyOp25
 70
     1
102
RTVSPropertyOp26
 70
     1
102
RTVSPropertyOp27
 70
     1
  0
XRECORD
  5
1601
102
{ACAD_REACTORS
330
1600
102
}
330
1600
100
AcDbXrecord
280
     1
102
RTVSPropertyOp0
 70
     1
102
RTVSPropertyOp1
 70
     1
102
RTVSPropertyOp2
 70
     1
102
RTVSPropertyOp3
 70
     1
102
RTVSPropertyOp4
 70
     1
102
RTVSPropertyOp5
 70
     1
102
RTVSPropertyOp6
 70
     1
102
RTVSPropertyOp7
 70
     1
102
RTVSPropertyOp8
 70
     1
102
RTVSPropertyOp9
 70
     1
102
RTVSPropertyOp10
 70
     1
102
RTVSPropertyOp11
 70
     1
102
RTVSPropertyOp12
 70
     1
102
RTVSPropertyOp13
 70
     1
102
RTVSPropertyOp14
 70
     1
102
RTVSPropertyOp15
 70
     1
102
RTVSPropertyOp16
 70
     1
102
RTVSPropertyOp17
 70
     1
102
RTVSPropertyOp18
 70
     1
102
RTVSPropertyOp19
 70
     1
102
RTVSPropertyOp20
 70
     1
102
RTVSPropertyOp21
 70
     1
102
RTVSPropertyOp22
 70
     1
102
RTVSPropertyOp23
 70
     1
102
RTVSPropertyOp24
 70
     1
102
RTVSPropertyOp25
 70
     1
102
RTVSPropertyOp26
 70
     1
102
RTVSPropertyOp27
 70
     1
  0
XRECORD
  5
161B
102
{ACAD_REACTORS
330
161A
102
}
330
161A
100
AcDbXrecord
280
     1
102
RTVSPropertyOp0
 70
     0
102
RTVSPropertyOp1
 70
     0
102
RTVSPropertyOp2
 70
     0
102
RTVSPropertyOp3
 70
     0
102
RTVSPropertyOp4
 70
     0
102
RTVSPropertyOp5
 70
     0
102
RTVSPropertyOp6
 70
     0
102
RTVSPropertyOp7
 70
     0
102
RTVSPropertyOp8
 70
     0
102
RTVSPropertyOp9
 70
     0
102
RTVSPropertyOp10
 70
     0
102
RTVSPropertyOp11
 70
     0
102
RTVSPropertyOp12
 70
     0
102
RTVSPropertyOp13
 70
     0
102
RTVSPropertyOp14
 70
     2
102
RTVSPropertyOp15
 70
     0
102
RTVSPropertyOp16
 70
     0
102
RTVSPropertyOp17
 70
     0
102
RTVSPropertyOp18
 70
     0
102
RTVSPropertyOp19
 70
     0
102
RTVSPropertyOp20
 70
     0
102
RTVSPropertyOp21
 70
     0
102
RTVSPropertyOp22
 70
     0
102
RTVSPropertyOp23
 70
     0
102
RTVSPropertyOp24
 70
     0
102
RTVSPropertyOp25
 70
     0
102
RTVSPropertyOp26
 70
     0
102
RTVSPropertyOp27
 70
     0
  0
XRECORD
  5
1615
102
{ACAD_REACTORS
330
1614
102
}
330
1614
100
AcDbXrecord
280
     1
102
RTVSPropertyOp0
 70
     1
102
RTVSPropertyOp1
 70
     1
102
RTVSPropertyOp2
 70
     1
102
RTVSPropertyOp3
 70
     1
102
RTVSPropertyOp4
 70
     1
102
RTVSPropertyOp5
 70
     1
102
RTVSPropertyOp6
 70
     1
102
RTVSPropertyOp7
 70
     1
102
RTVSPropertyOp8
 70
     1
102
RTVSPropertyOp9
 70
     1
102
RTVSPropertyOp10
 70
     1
102
RTVSPropertyOp11
 70
     1
102
RTVSPropertyOp12
 70
     1
102
RTVSPropertyOp13
 70
     1
102
RTVSPropertyOp14
 70
     1
102
RTVSPropertyOp15
 70
     1
102
RTVSPropertyOp16
 70
     1
102
RTVSPropertyOp17
 70
     1
102
RTVSPropertyOp18
 70
     1
102
RTVSPropertyOp19
 70
     1
102
RTVSPropertyOp20
 70
     1
102
RTVSPropertyOp21
 70
     1
102
RTVSPropertyOp22
 70
     1
102
RTVSPropertyOp23
 70
     1
102
RTVSPropertyOp24
 70
     1
102
RTVSPropertyOp25
 70
     1
102
RTVSPropertyOp26
 70
     1
102
RTVSPropertyOp27
 70
     1
  0
XRECORD
  5
161D
102
{ACAD_REACTORS
330
161C
102
}
330
161C
100
AcDbXrecord
280
     1
102
RTVSPropertyOp0
 70
     0
102
RTVSPropertyOp1
 70
     0
102
RTVSPropertyOp2
 70
     0
102
RTVSPropertyOp3
 70
     0
102
RTVSPropertyOp4
 70
     0
102
RTVSPropertyOp5
 70
     0
102
RTVSPropertyOp6
 70
     0
102
RTVSPropertyOp7
 70
     0
102
RTVSPropertyOp8
 70
     0
102
RTVSPropertyOp9
 70
     0
102
RTVSPropertyOp10
 70
     0
102
RTVSPropertyOp11
 70
     0
102
RTVSPropertyOp12
 70
     0
102
RTVSPropertyOp13
 70
     0
102
RTVSPropertyOp14
 70
     2
102
RTVSPropertyOp15
 70
     0
102
RTVSPropertyOp16
 70
     0
102
RTVSPropertyOp17
 70
     0
102
RTVSPropertyOp18
 70
     0
102
RTVSPropertyOp19
 70
     0
102
RTVSPropertyOp20
 70
     0
102
RTVSPropertyOp21
 70
     0
102
RTVSPropertyOp22
 70
     0
102
RTVSPropertyOp23
 70
     0
102
RTVSPropertyOp24
 70
     0
102
RTVSPropertyOp25
 70
     0
102
RTVSPropertyOp26
 70
     0
102
RTVSPropertyOp27
 70
     0
  0
XRECORD
  5
160D
102
{ACAD_REACTORS
330
160C
102
}
330
160C
100
AcDbXrecord
280
     1
102
RTVSPropertyOp0
 70
     1
102
RTVSPropertyOp1
 70
     1
102
RTVSPropertyOp2
 70
     1
102
RTVSPropertyOp3
 70
     1
102
RTVSPropertyOp4
 70
     1
102
RTVSPropertyOp5
 70
     1
102
RTVSPropertyOp6
 70
     1
102
RTVSPropertyOp7
 70
     1
102
RTVSPropertyOp8
 70
     1
102
RTVSPropertyOp9
 70
     1
102
RTVSPropertyOp10
 70
     1
102
RTVSPropertyOp11
 70
     1
102
RTVSPropertyOp12
 70
     1
102
RTVSPropertyOp13
 70
     1
102
RTVSPropertyOp14
 70
     1
102
RTVSPropertyOp15
 70
     1
102
RTVSPropertyOp16
 70
     1
102
RTVSPropertyOp17
 70
     1
102
RTVSPropertyOp18
 70
     1
102
RTVSPropertyOp19
 70
     1
102
RTVSPropertyOp20
 70
     1
102
RTVSPropertyOp21
 70
     1
102
RTVSPropertyOp22
 70
     1
102
RTVSPropertyOp23
 70
     1
102
RTVSPropertyOp24
 70
     1
102
RTVSPropertyOp25
 70
     1
102
RTVSPropertyOp26
 70
     1
102
RTVSPropertyOp27
 70
     1
  0
XRECORD
  5
1613
102
{ACAD_REACTORS
330
1612
102
}
330
1612
100
AcDbXrecord
280
     1
102
RTVSPropertyOp0
 70
     1
102
RTVSPropertyOp1
 70
     1
102
RTVSPropertyOp2
 70
     1
102
RTVSPropertyOp3
 70
     1
102
RTVSPropertyOp4
 70
     1
102
RTVSPropertyOp5
 70
     1
102
RTVSPropertyOp6
 70
     1
102
RTVSPropertyOp7
 70
     1
102
RTVSPropertyOp8
 70
     1
102
RTVSPropertyOp9
 70
     1
102
RTVSPropertyOp10
 70
     1
102
RTVSPropertyOp11
 70
     1
102
RTVSPropertyOp12
 70
     1
102
RTVSPropertyOp13
 70
     1
102
RTVSPropertyOp14
 70
     1
102
RTVSPropertyOp15
 70
     1
102
RTVSPropertyOp16
 70
     1
102
RTVSPropertyOp17
 70
     1
102
RTVSPropertyOp18
 70
     1
102
RTVSPropertyOp19
 70
     1
102
RTVSPropertyOp20
 70
     1
102
RTVSPropertyOp21
 70
     1
102
RTVSPropertyOp22
 70
     1
102
RTVSPropertyOp23
 70
     1
102
RTVSPropertyOp24
 70
     1
102
RTVSPropertyOp25
 70
     1
102
RTVSPropertyOp26
 70
     1
102
RTVSPropertyOp27
 70
     1
  0
ENDSEC
  0
EOF
