  0
SECTION
  2
HEADER
  9
$ACADVER
  1
AC1015
  9
$ACADMAINTVER
 70
    20
  9
$DWGCODEPAGE
  3
ANSI_1252
  9
$INSBASE
 10
0.0
 20
0.0
 30
0.0
  9
$EXTMIN
 10
-14.4494658842925
 20
914.8558891307715
 30
0.0
  9
$EXTMAX
 10
-12.36701558938858
 20
915.2658891307716
 30
0.0
  9
$LIMMIN
 10
0.0
 20
0.0
  9
$LIMMAX
 10
420.0
 20
297.0
  9
$ORTHOMODE
 70
     1
  9
$REGENMODE
 70
     1
  9
$FILLMODE
 70
     1
  9
$QTEXTMODE
 70
     0
  9
$MIRRTEXT
 70
     1
  9
$LTSCALE
 40
1.0
  9
$ATTMODE
 70
     1
  9
$TEXTSIZE
 40
2.5
  9
$TRACEWID
 40
1.0
  9
$TEXTSTYLE
  7
SANINDUSA
  9
$CLAYER
  8
0
  9
$CELTYPE
  6
ByLayer
  9
$CECOLOR
 62
   256
  9
$CELTSCALE
 40
1.0
  9
$DISPSILH
 70
     0
  9
$DIMSCALE
 40
1.0
  9
$DIMASZ
 40
2.0
  9
$DIMEXO
 40
1.0
  9
$DIMDLI
 40
1.0
  9
$DIMRND
 40
0.0
  9
$DIMDLE
 40
0.0
  9
$DIMEXE
 40
1.0
  9
$DIMTP
 40
0.0
  9
$DIMTM
 40
0.0
  9
$DIMTXT
 40
2.0
  9
$DIMCEN
 40
0.0
  9
$DIMTSZ
 40
0.0
  9
$DIMTOL
 70
     0
  9
$DIMLIM
 70
     0
  9
$DIMTIH
 70
     0
  9
$DIMTOH
 70
     0
  9
$DIMSE1
 70
     0
  9
$DIMSE2
 70
     0
  9
$DIMTAD
 70
     1
  9
$DIMZIN
 70
     8
  9
$DIMBLK
  1

  9
$DIMASO
 70
     1
  9
$DIMSHO
 70
     1
  9
$DIMPOST
  1

  9
$DIMAPOST
  1

  9
$DIMALT
 70
     0
  9
$DIMALTD
 70
     3
  9
$DIMALTF
 40
0.03937007874016
  9
$DIMLFAC
 40
1.0
  9
$DIMTOFL
 70
     1
  9
$DIMTVP
 40
0.0
  9
$DIMTIX
 70
     0
  9
$DIMSOXD
 70
     0
  9
$DIMSAH
 70
     0
  9
$DIMBLK1
  1

  9
$DIMBLK2
  1

  9
$DIMSTYLE
  2
SANINDUSA
  9
$DIMCLRD
 70
   256
  9
$DIMCLRE
 70
   256
  9
$DIMCLRT
 70
   256
  9
$DIMTFAC
 40
1.0
  9
$DIMGAP
 40
1.0
  9
$DIMJUST
 70
     0
  9
$DIMSD1
 70
     0
  9
$DIMSD2
 70
     0
  9
$DIMTOLJ
 70
     0
  9
$DIMTZIN
 70
     8
  9
$DIMALTZ
 70
     0
  9
$DIMALTTZ
 70
     0
  9
$DIMUPT
 70
     0
  9
$DIMDEC
 70
     1
  9
$DIMTDEC
 70
     1
  9
$DIMALTU
 70
     2
  9
$DIMALTTD
 70
     3
  9
$DIMTXSTY
  7
SANINDUSA
  9
$DIMAUNIT
 70
     0
  9
$DIMADEC
 70
     1
  9
$DIMALTRND
 40
0.0
  9
$DIMAZIN
 70
     0
  9
$DIMDSEP
 70
    44
  9
$DIMATFIT
 70
     3
  9
$DIMFRAC
 70
     0
  9
$DIMLDRBLK
  1

  9
$DIMLUNIT
 70
     2
  9
$DIMLWD
 70
    -1
  9
$DIMLWE
 70
    -1
  9
$DIMTMOVE
 70
     0
  9
$LUNITS
 70
     2
  9
$LUPREC
 70
     4
  9
$SKETCHINC
 40
1.0
  9
$FILLETRAD
 40
0.0
  9
$AUNITS
 70
     0
  9
$AUPREC
 70
     0
  9
$MENU
  1
.
  9
$ELEVATION
 40
0.0
  9
$PELEVATION
 40
0.0
  9
$THICKNESS
 40
0.0
  9
$LIMCHECK
 70
     0
  9
$CHAMFERA
 40
10.0
  9
$CHAMFERB
 40
10.0
  9
$CHAMFERC
 40
20.0
  9
$CHAMFERD
 40
0.0
  9
$SKPOLY
 70
     0
  9
$TDCREATE
 40
2453501.694815348
  9
$TDUCREATE
 40
2453501.653148681
  9
$TDUPDATE
 40
2456141.519620764
  9
$TDUUPDATE
 40
2456141.477954097
  9
$TDINDWG
 40
0.0030497685
  9
$TDUSRTIMER
 40
0.0030495949
  9
$USRTIMER
 70
     1
  9
$ANGBASE
 50
0.0
  9
$ANGDIR
 70
     0
  9
$PDMODE
 70
     0
  9
$PDSIZE
 40
0.0
  9
$PLINEWID
 40
0.0
  9
$SPLFRAME
 70
     0
  9
$SPLINETYPE
 70
     6
  9
$SPLINESEGS
 70
     8
  9
$HANDSEED
  5
11C7
  9
$SURFTAB1
 70
     6
  9
$SURFTAB2
 70
     6
  9
$SURFTYPE
 70
     6
  9
$SURFU
 70
     6
  9
$SURFV
 70
     6
  9
$UCSBASE
  2

  9
$UCSNAME
  2

  9
$UCSORG
 10
0.0
 20
0.0
 30
0.0
  9
$UCSXDIR
 10
1.0
 20
0.0
 30
0.0
  9
$UCSYDIR
 10
0.0
 20
1.0
 30
0.0
  9
$UCSORTHOREF
  2

  9
$UCSORTHOVIEW
 70
     0
  9
$UCSORGTOP
 10
0.0
 20
0.0
 30
0.0
  9
$UCSORGBOTTOM
 10
0.0
 20
0.0
 30
0.0
  9
$UCSORGLEFT
 10
0.0
 20
0.0
 30
0.0
  9
$UCSORGRIGHT
 10
0.0
 20
0.0
 30
0.0
  9
$UCSORGFRONT
 10
0.0
 20
0.0
 30
0.0
  9
$UCSORGBACK
 10
0.0
 20
0.0
 30
0.0
  9
$PUCSBASE
  2

  9
$PUCSNAME
  2

  9
$PUCSORG
 10
0.0
 20
0.0
 30
0.0
  9
$PUCSXDIR
 10
1.0
 20
0.0
 30
0.0
  9
$PUCSYDIR
 10
0.0
 20
1.0
 30
0.0
  9
$PUCSORTHOREF
  2

  9
$PUCSORTHOVIEW
 70
     0
  9
$PUCSORGTOP
 10
0.0
 20
0.0
 30
0.0
  9
$PUCSORGBOTTOM
 10
0.0
 20
0.0
 30
0.0
  9
$PUCSORGLEFT
 10
0.0
 20
0.0
 30
0.0
  9
$PUCSORGRIGHT
 10
0.0
 20
0.0
 30
0.0
  9
$PUCSORGFRONT
 10
0.0
 20
0.0
 30
0.0
  9
$PUCSORGBACK
 10
0.0
 20
0.0
 30
0.0
  9
$USERI1
 70
     0
  9
$USERI2
 70
     0
  9
$USERI3
 70
     0
  9
$USERI4
 70
     0
  9
$USERI5
 70
     0
  9
$USERR1
 40
0.0
  9
$USERR2
 40
0.0
  9
$USERR3
 40
0.0
  9
$USERR4
 40
0.0
  9
$USERR5
 40
0.0
  9
$WORLDVIEW
 70
     1
  9
$SHADEDGE
 70
     3
  9
$SHADEDIF
 70
    70
  9
$TILEMODE
 70
     1
  9
$MAXACTVP
 70
    64
  9
$PINSBASE
 10
0.0
 20
0.0
 30
0.0
  9
$PLIMCHECK
 70
     0
  9
$PEXTMIN
 10
1.000000000000000E+20
 20
1.000000000000000E+20
 30
1.000000000000000E+20
  9
$PEXTMAX
 10
-1.000000000000000E+20
 20
-1.000000000000000E+20
 30
-1.000000000000000E+20
  9
$PLIMMIN
 10
0.0
 20
0.0
  9
$PLIMMAX
 10
420.0
 20
297.0
  9
$UNITMODE
 70
     0
  9
$VISRETAIN
 70
     1
  9
$PLINEGEN
 70
     0
  9
$PSLTSCALE
 70
     1
  9
$TREEDEPTH
 70
  3020
  9
$CMLSTYLE
  2
Standard
  9
$CMLJUST
 70
     0
  9
$CMLSCALE
 40
20.0
  9
$PROXYGRAPHICS
 70
     1
  9
$MEASUREMENT
 70
     1
  9
$CELWEIGHT
370
    -1
  9
$ENDCAPS
280
     0
  9
$JOINSTYLE
280
     0
  9
$LWDISPLAY
290
     0
  9
$INSUNITS
 70
     4
  9
$HYPERLINKBASE
  1

  9
$STYLESHEET
  1
monochrome.ctb
  9
$XEDIT
290
     1
  9
$CEPSNTYPE
380
     0
  9
$PSTYLEMODE
290
     1
  9
$FINGERPRINTGUID
  2
{B98A73AA-52AA-4C10-B469-C0E7150AC31F}
  9
$VERSIONGUID
  2
{3914F1F2-0C23-4F53-9916-66AF8986E532}
  9
$EXTNAMES
290
     1
  9
$PSVPSCALE
 40
0.0
  9
$OLESTARTUP
290
     0
  0
ENDSEC
  0
SECTION
  2
CLASSES
  0
CLASS
  1
ACDBDICTIONARYWDFLT
  2
AcDbDictionaryWithDefault
  3
ObjectDBX Classes
 90
        0
280
     0
281
     0
  0
CLASS
  1
ACDBPLACEHOLDER
  2
AcDbPlaceHolder
  3
ObjectDBX Classes
 90
        0
280
     0
281
     0
  0
CLASS
  1
LAYOUT
  2
AcDbLayout
  3
ObjectDBX Classes
 90
        0
280
     0
281
     0
  0
CLASS
  1
DICTIONARYVAR
  2
AcDbDictionaryVar
  3
ObjectDBX Classes
 90
        0
280
     0
281
     0
  0
CLASS
  1
DIMASSOC
  2
AcDbDimAssoc
  3
"AcDbDimAssoc|Product Desc:     AcDim ARX App For Dimension|Company:          Autodesk, Inc.|WEB Address:      www.autodesk.com"
 90
    32768
280
     0
281
     0
  0
CLASS
  1
MATERIAL
  2
AcDbMaterial
  3
ObjectDBX Classes
 90
     1153
280
     0
281
     0
  0
CLASS
  1
VISUALSTYLE
  2
AcDbVisualStyle
  3
ObjectDBX Classes
 90
     4095
280
     0
281
     0
  0
CLASS
  1
TABLESTYLE
  2
AcDbTableStyle
  3
ObjectDBX Classes
 90
     4095
280
     0
281
     0
  0
CLASS
  1
SCALE
  2
AcDbScale
  3
ObjectDBX Classes
 90
     1153
280
     0
281
     0
  0
CLASS
  1
MLEADERSTYLE
  2
AcDbMLeaderStyle
  3
ACDB_MLEADERSTYLE_CLASS
 90
     4095
280
     0
281
     0
  0
CLASS
  1
CELLSTYLEMAP
  2
AcDbCellStyleMap
  3
ObjectDBX Classes
 90
     1152
280
     0
281
     0
  0
ENDSEC
  0
SECTION
  2
TABLES
  0
TABLE
  2
VPORT
  5
8
330
0
100
AcDbSymbolTable
 70
     1
  0
VPORT
  5
110F
330
8
100
AcDbSymbolTableRecord
100
AcDbViewportTableRecord
  2
*Active
 70
     0
 10
0.0
 20
0.0
 11
1.0
 21
1.0
 12
-13.36318201322608
 22
915.0328020287203
 13
0.0
 23
0.0
 14
10.0
 24
10.0
 15
10.0
 25
10.0
 16
0.0
 26
0.0
 36
1.0
 17
0.0
 27
0.0
 37
0.0
 40
1.484388788490264
 41
1.645464025026068
 42
50.0
 43
0.0
 44
0.0
 50
0.0
 51
0.0
 71
     0
 72
   100
 73
     1
 74
     2
 75
     0
 76
     0
 77
     0
 78
     0
281
     0
 65
     1
110
0.0
120
0.0
130
0.0
111
1.0
121
0.0
131
0.0
112
0.0
122
1.0
132
0.0
 79
     0
146
0.0
  0
ENDTAB
  0
TABLE
  2
LTYPE
  5
5
330
0
100
AcDbSymbolTable
 70
     3
  0
LTYPE
  5
14
330
5
100
AcDbSymbolTableRecord
100
AcDbLinetypeTableRecord
  2
ByBlock
 70
     0
  3

 72
    65
 73
     0
 40
0.0
  0
LTYPE
  5
15
330
5
100
AcDbSymbolTableRecord
100
AcDbLinetypeTableRecord
  2
ByLayer
 70
     0
  3

 72
    65
 73
     0
 40
0.0
  0
LTYPE
  5
16
330
5
100
AcDbSymbolTableRecord
100
AcDbLinetypeTableRecord
  2
Continuous
 70
     0
  3
Solid line
 72
    65
 73
     0
 40
0.0
  0
LTYPE
  5
2D
330
5
100
AcDbSymbolTableRecord
100
AcDbLinetypeTableRecord
  2
DASHDOT
 70
     0
  3
Dash dot __ . __ . __ . __ . __ . __ . __ . __
 72
    65
 73
     4
 40
25.4
 49
12.7
 74
     0
 49
-6.349999999999999
 74
     0
 49
0.0
 74
     0
 49
-6.349999999999999
 74
     0
  0
LTYPE
  5
2E
330
5
100
AcDbSymbolTableRecord
100
AcDbLinetypeTableRecord
  2
HIDDEN
 70
     0
  3
Hidden __ __ __ __ __ __ __ __ __ __ __ __ __ _
 72
    65
 73
     2
 40
9.524999999999998
 49
6.349999999999999
 74
     0
 49
-3.174999999999999
 74
     0
  0
ENDTAB
  0
TABLE
  2
LAYER
  5
2
330
0
100
AcDbSymbolTable
 70
    16
  0
LAYER
  5
10
102
{ACAD_XDICTIONARY
360
115A
102
}
330
2
100
AcDbSymbolTableRecord
100
AcDbLayerTableRecord
  2
0
 70
     0
 62
     7
  6
Continuous
370
    -3
390
F
  0
LAYER
  5
2F
102
{ACAD_XDICTIONARY
360
115C
102
}
330
2
100
AcDbSymbolTableRecord
100
AcDbLayerTableRecord
  2
1
 70
     0
 62
     1
  6
Continuous
370
    -3
390
F
  0
LAYER
  5
30
102
{ACAD_XDICTIONARY
360
115E
102
}
330
2
100
AcDbSymbolTableRecord
100
AcDbLayerTableRecord
  2
2
 70
     0
 62
     2
  6
Continuous
370
    -3
390
F
  0
LAYER
  5
31
102
{ACAD_XDICTIONARY
360
1160
102
}
330
2
100
AcDbSymbolTableRecord
100
AcDbLayerTableRecord
  2
3
 70
     0
 62
     3
  6
Continuous
370
    -3
390
F
  0
LAYER
  5
32
102
{ACAD_XDICTIONARY
360
1162
102
}
330
2
100
AcDbSymbolTableRecord
100
AcDbLayerTableRecord
  2
4
 70
     0
 62
     4
  6
Continuous
370
    -3
390
F
  0
LAYER
  5
33
102
{ACAD_XDICTIONARY
360
1164
102
}
330
2
100
AcDbSymbolTableRecord
100
AcDbLayerTableRecord
  2
5
 70
     0
 62
     5
  6
Continuous
370
    -3
390
F
  0
LAYER
  5
34
102
{ACAD_XDICTIONARY
360
1166
102
}
330
2
100
AcDbSymbolTableRecord
100
AcDbLayerTableRecord
  2
6
 70
     0
 62
     6
  6
Continuous
370
    -3
390
F
  0
LAYER
  5
35
102
{ACAD_XDICTIONARY
360
1168
102
}
330
2
100
AcDbSymbolTableRecord
100
AcDbLayerTableRecord
  2
7
 70
     0
 62
     7
  6
Continuous
370
    -3
390
F
  0
LAYER
  5
36
102
{ACAD_XDICTIONARY
360
116A
102
}
330
2
100
AcDbSymbolTableRecord
100
AcDbLayerTableRecord
  2
cen
 70
     0
 62
     7
  6
DASHDOT
370
    -3
390
F
  0
LAYER
  5
37
102
{ACAD_XDICTIONARY
360
116C
102
}
330
2
100
AcDbSymbolTableRecord
100
AcDbLayerTableRecord
  2
hid
 70
     0
 62
     7
  6
HIDDEN
370
    -3
390
F
  0
LAYER
  5
5D6
102
{ACAD_XDICTIONARY
360
116E
102
}
330
2
100
AcDbSymbolTableRecord
100
AcDbLayerTableRecord
  2
hatch
 70
     0
 62
     9
  6
Continuous
370
    -3
390
F
  0
LAYER
  5
8AF
102
{ACAD_XDICTIONARY
360
1170
102
}
330
2
100
AcDbSymbolTableRecord
100
AcDbLayerTableRecord
  2
9
 70
     0
 62
     9
  6
Continuous
370
    -3
390
F
  0
LAYER
  5
8F8
102
{ACAD_XDICTIONARY
360
1172
102
}
330
2
100
AcDbSymbolTableRecord
100
AcDbLayerTableRecord
  2
leg fin
 70
     0
 62
     9
  6
Continuous
370
    -3
390
F
  0
LAYER
  5
91D
102
{ACAD_XDICTIONARY
360
1174
102
}
330
2
100
AcDbSymbolTableRecord
100
AcDbLayerTableRecord
  2
cotas
 70
     0
 62
     1
  6
Continuous
370
    -3
390
F
  0
LAYER
  5
92F
330
2
100
AcDbSymbolTableRecord
100
AcDbLayerTableRecord
  2
Defpoints
 70
     0
 62
     7
  6
Continuous
290
     0
370
    -3
390
F
  0
LAYER
  5
BA5
102
{ACAD_XDICTIONARY
360
1176
102
}
330
2
100
AcDbSymbolTableRecord
100
AcDbLayerTableRecord
  2
SANINDUSA
 70
     0
 62
     3
  6
Continuous
370
    -3
390
F
  0
ENDTAB
  0
TABLE
  2
STYLE
  5
3
330
0
100
AcDbSymbolTable
 70
     3
  0
STYLE
  5
11
330
3
100
AcDbSymbolTableRecord
100
AcDbTextStyleTableRecord
  2
Standard
 70
     0
 40
0.0
 41
1.0
 50
0.0
 71
     0
 42
2.5
  3
Avgardn.ttf
  4

1001
ACAD
1000
AvantGarde Bk BT
1071
       34
  0
STYLE
  5
2C
330
3
100
AcDbSymbolTableRecord
100
AcDbTextStyleTableRecord
  2

 70
     1
 40
0.0
 41
1.0
 50
0.0
 71
     0
 42
2.5
  3
ltypeshp.shx
  4

  0
STYLE
  5
91F
330
3
100
AcDbSymbolTableRecord
100
AcDbTextStyleTableRecord
  2
SANINDUSA
 70
     0
 40
0.0
 41
1.0
 50
0.0
 71
     0
 42
2.5
  3
verdana.TTF
  4

1001
ACAD
1000
Verdana
1071
       34
  0
ENDTAB
  0
TABLE
  2
VIEW
  5
6
330
0
100
AcDbSymbolTable
 70
     0
  0
ENDTAB
  0
TABLE
  2
UCS
  5
7
330
0
100
AcDbSymbolTable
 70
     0
  0
ENDTAB
  0
TABLE
  2
APPID
  5
9
330
0
100
AcDbSymbolTable
 70
     3
  0
APPID
  5
12
330
9
100
AcDbSymbolTableRecord
100
AcDbRegAppTableRecord
  2
ACAD
 70
     0
  0
APPID
  5
3A
330
9
100
AcDbSymbolTableRecord
100
AcDbRegAppTableRecord
  2
DCO15
 70
     0
  0
APPID
  5
11C6
330
9
100
AcDbSymbolTableRecord
100
AcDbRegAppTableRecord
  2
ACAD_MLEADERVER
 70
     0
  0
ENDTAB
  0
TABLE
  2
DIMSTYLE
  5
A
330
0
100
AcDbSymbolTable
 70
     2
100
AcDbDimStyleTable
 71
     1
340
921
  0
DIMSTYLE
105
45
330
A
100
AcDbSymbolTableRecord
100
AcDbDimStyleTableRecord
  2
STANDARD
 70
     0
289
     0
340
11
  0
DIMSTYLE
105
921
330
A
100
AcDbSymbolTableRecord
100
AcDbDimStyleTableRecord
  2
SANINDUSA
 70
     0
 41
2.0
 42
1.0
 43
1.0
 44
1.0
 73
     0
 74
     0
 77
     1
 78
     8
140
2.0
141
0.0
143
0.03937007874016
147
1.0
171
     3
172
     1
176
   256
177
   256
178
   256
179
     1
271
     1
272
     1
274
     3
278
    44
283
     0
284
     8
340
91F
371
    -1
372
    -1
  0
ENDTAB
  0
TABLE
  2
BLOCK_RECORD
  5
1
330
0
100
AcDbSymbolTable
 70
    50
  0
BLOCK_RECORD
  5
1F
330
1
100
AcDbSymbolTableRecord
100
AcDbBlockTableRecord
  2
*Model_Space
340
22
  0
BLOCK_RECORD
  5
1B
330
1
100
AcDbSymbolTableRecord
100
AcDbBlockTableRecord
  2
*Paper_Space
340
1E
  0
BLOCK_RECORD
  5
23
330
1
100
AcDbSymbolTableRecord
100
AcDbBlockTableRecord
  2
*Paper_Space0
340
26
  0
BLOCK_RECORD
  5
919
330
1
100
AcDbSymbolTableRecord
100
AcDbBlockTableRecord
  2
_DotSmall
340
0
  0
BLOCK_RECORD
  5
922
330
1
100
AcDbSymbolTableRecord
100
AcDbBlockTableRecord
  2
base para cotas
340
0
310
2800000020000000200000000100080000000000000400000000000000000000000000000000000000000000000080000080000000808000800000008000800080800000C0C0C000C0DCC000F0CAA6000020400000206000002080000020A0000020C0000020E00000400000004020000040400000406000004080000040A0
310
000040C0000040E00000600000006020000060400000606000006080000060A0000060C0000060E00000800000008020000080400000806000008080000080A0000080C0000080E00000A0000000A0200000A0400000A0600000A0800000A0A00000A0C00000A0E00000C0000000C0200000C0400000C0600000C0800000C0
310
A00000C0C00000C0E00000E0000000E0200000E0400000E0600000E0800000E0A00000E0C00000E0E00040000000400020004000400040006000400080004000A0004000C0004000E00040200000402020004020400040206000402080004020A0004020C0004020E000404000004040200040404000404060004040800040
310
40A0004040C0004040E00040600000406020004060400040606000406080004060A0004060C0004060E00040800000408020004080400040806000408080004080A0004080C0004080E00040A0000040A0200040A0400040A0600040A0800040A0A00040A0C00040A0E00040C0000040C0200040C0400040C0600040C08000
310
40C0A00040C0C00040C0E00040E0000040E0200040E0400040E0600040E0800040E0A00040E0C00040E0E00080000000800020008000400080006000800080008000A0008000C0008000E00080200000802020008020400080206000802080008020A0008020C0008020E00080400000804020008040400080406000804080
310
008040A0008040C0008040E00080600000806020008060400080606000806080008060A0008060C0008060E00080800000808020008080400080806000808080008080A0008080C0008080E00080A0000080A0200080A0400080A0600080A0800080A0A00080A0C00080A0E00080C0000080C0200080C0400080C0600080C0
310
800080C0A00080C0C00080C0E00080E0000080E0200080E0400080E0600080E0800080E0A00080E0C00080E0E000C0000000C0002000C0004000C0006000C0008000C000A000C000C000C000E000C0200000C0202000C0204000C0206000C0208000C020A000C020C000C020E000C0400000C0402000C0404000C0406000C0
310
408000C040A000C040C000C040E000C0600000C0602000C0604000C0606000C0608000C060A000C060C000C060E000C0800000C0802000C0804000C0806000C0808000C080A000C080C000C080E000C0A00000C0A02000C0A04000C0A06000C0A08000C0A0A000C0A0C000C0A0E000C0C00000C0C02000C0C04000C0C06000
310
C0C08000C0C0A000F0FBFF00A4A0A000808080000000FF0000FF000000FFFF00FF000000FF00FF00FFFF0000FFFFFF00A4A4A4A4A4A4A4A4A4A4A4A4A4A4A4A4A4A4A4A4A4A4A4A4A4A4A4A4A4A4A4A4A4A4A4A4A4A4A4A4A4A4A4A4A4A4A4A4A4A4A4A4A4A4A4A4A4A4A4A4A4A4A4A4A4A4A4A4A4A4A4A4A4A4A4A4A4A4A4
310
A4A4A4A4A4A4A4A4A4A4A4A4A4A4A4A4A4A4A4A4A4A4A4A4A4A4A4A4A4A4A4A4A4A4A4A4A4A4A4A4A4A4A4A4A4A4A4A4A4A4A4A4A4A4A4A4A4A4A4A4A4A4A4A4A4A4A4A4A4A4A4A4A4A4A4A4A4A4A4A4A4A4A4A4A4A4A4A4A4A4A4A4A4A4A4A4A4A4A4A4A4A4A4A4A4A4A4A4A4A4A4A4A4A4A4A4A4A4A4A4A4A4A4A4A4A4A4
310
A4A4A4A4A4A4A4A4A4A4A4A4A4A4A4A4A4A4A4A4A4A4A4A4A4A4A4A4A4A4A4A4A4A4A4A4A4A4A4A4A4A4A4A4A4A4A4A4A4A4A4A4A4A4A4A4A4A4A4A4A4A4A4A4A4A4A4A4A4A4A4A4A4A4A4A4A4A4A4A4A4A4A4A4A4A4A4A4A4A4A4A4A4A4A4A4A4A4A4A4A4A4A4A4A4A4A4A4A4A4A4A4A4A4A4A4A4A4A4A4A4A4A4A4A4A4A4
310
A4A4A4A4A4A4A4A4A4A4A4A4A4A4A4A4A4A4A4A4A4A4A4A4A4A4A4A4A4A4A4A4A4A4A4A4A4A4A4A4A4A4A4A4A4A4A4A4A4A4A4A4A4A4A4A4A4A4A4A4A4A4A4A4A4A4A4A4A4A4A4A4A4A4A4A4A4A4A4A4A4A4A4A4A4A4A4A4A4A4A4A4A4A4A4A4A4A4A4A4A4A4A4A4A4A4A4A4A4A4A4A4A4A4A4A4F9F9F9F9F9F9F9F9F9F9F9
310
F9F9F9F9F9F9F9F9F9F9F9F9F9F9F9F9F9F9F9A4A4F9F9F9F9F9F9F9F9F9F9F9F9F9F9F9F9F9F9F9F9F9F9F9F9F9F9F9F9F9F9A4A4F9F9F9F9F9F9F9F9F9F9F9F9F9F9F9F9F9F9F9F9F9F9F9F9F9F9F9F9F9F9A4A4F9A4A4A4A4A4A4A4A4A4A4A4A4A4A4A4A4A4A4A4A4A4A4A4A4A4A4A4A4F9A4A4A4A4A4A4A4A4A4A4A4A4
310
A4A4A4A4A4A4A4A4A4A4A4A4A4A4A4A4A4A4A4A4A4A4A4A4A4A4A4A4A4A4A4A4A4A4A4A4A4A4A4A4A4A4A4A4A4A4A4A4A4A4A4A4A4A4A4A4A4A4A4A4A4A4A4A4A4A4A4A4A4A4A4A4A4A4A4A4A4A4A4A4A4A4A4A4A4A4A4A4A4A4A4A4A4A4A4A4A4A4A4A4A4A4A4A4A4A4A4A4A4A4A4A4A4A4A4A4A4A4A4A4A4A4A4A4A4A4A4
310
A4A4A4A4A4A4A4A4A4A4A4A4A4A4A4A4A4A4A4A4A4A4A4A4A4A4A4A4A4A4A4A4A4A4A4A4A4A4A4A4A4A4A4A4A4A4A4A4A4A4A4A4A4A4A4A4A4A4A4A4A4A4A4A4A4A4A4A4A4A4A4A4A4A4A4A4A4A4A4A4A4A4A4A4A4A4A4A4A4A4A4A4A4A4A4A4A4A4A4A4A4A4A4A4A4A4A4A4A4A4A4A4A4A4A4A4A4A4A4A4A4A4A4A4A4A4A4
310
A4A4A4A4A4A4A4A4A4A4A4A4A4A4A4A4A4A4A4A4A4A4A4A4A4A4A4A4A4A4A4A4A4A4A4A4A4A4A4A4A4A4A4A4A4A4A4A4A4A4A4A4A4A4A4A4A4A4A4A4A4A4A4A4A4A4A4A4A4A4A4A4A4A4A4A4A4A4A4A4A4A4A4A4A4A4A4A4A4A4A4A4A4A4A4A4A4A4A4A4A4A4A4A4A4A4A4A4A4A4A4A4A4A4A4A4A4A4A4A4A4A4A4A4A4A4A4
310
A4A4A4A4A4A4A4A4A4A4A4A4A4A4A4A4A4A4A4A4A4A4A4A4A4A4A4A4A4A4A4A4A4A4A4A4A4A4A4A4A4A4A4A4A4A4A4A4A4A4A4A4A4A4A4A4
1001
ACAD
1000
DesignCenter Data
1002
{
1070
     1
1070
     4
1002
}
  0
BLOCK_RECORD
  5
AA8
330
1
100
AcDbSymbolTableRecord
100
AcDbBlockTableRecord
  2
_CLOSED
340
0
  0
ENDTAB
  0
ENDSEC
  0
SECTION
  2
BLOCKS
  0
BLOCK
  5
20
330
1F
100
AcDbEntity
  8
0
100
AcDbBlockBegin
  2
*Model_Space
 70
     0
 10
0.0
 20
0.0
 30
0.0
  3
*Model_Space
  1

  0
ENDBLK
  5
21
330
1F
100
AcDbEntity
  8
0
100
AcDbBlockEnd
  0
BLOCK
  5
1C
330
1B
100
AcDbEntity
 67
     1
  8
0
100
AcDbBlockBegin
  2
*Paper_Space
 70
     0
 10
0.0
 20
0.0
 30
0.0
  3
*Paper_Space
  1

  0
ENDBLK
  5
1D
330
1B
100
AcDbEntity
 67
     1
  8
0
100
AcDbBlockEnd
  0
BLOCK
  5
24
330
23
100
AcDbEntity
 67
     1
  8
0
100
AcDbBlockBegin
  2
*Paper_Space0
 70
     0
 10
0.0
 20
0.0
 30
0.0
  3
*Paper_Space0
  1

  0
ENDBLK
  5
25
330
23
100
AcDbEntity
 67
     1
  8
0
100
AcDbBlockEnd
  0
BLOCK
  5
91B
330
919
100
AcDbEntity
  8
0
100
AcDbBlockBegin
  2
_DotSmall
 70
     0
 10
0.0
 20
0.0
 30
0.0
  3
_DotSmall
  1

  0
LWPOLYLINE
  5
91A
330
919
100
AcDbEntity
  8
0
  6
ByBlock
 62
     0
100
AcDbPolyline
 90
        2
 70
     1
 43
0.5
 10
-0.0625
 20
0.0
 42
1.0
 10
0.0625
 20
0.0
 42
1.0
  0
ENDBLK
  5
91C
330
919
100
AcDbEntity
  8
0
100
AcDbBlockEnd
  0
BLOCK
  5
92A
330
922
100
AcDbEntity
  8
0
100
AcDbBlockBegin
  2
base para cotas
 70
     0
 10
0.0
 20
0.0
 30
0.0
  3
base para cotas
  1

  0
LINE
  5
B36
330
922
100
AcDbEntity
  8
cotas
100
AcDbLine
 10
0.0
 20
-30.0
 30
0.0
 11
327.1260136525398
 21
-30.0
 31
0.0
  0
LINE
  5
B37
330
922
100
AcDbEntity
  8
cotas
100
AcDbLine
 10
0.0
 20
-25.0
 30
0.0
 11
327.1260136525398
 21
-25.0
 31
0.0
  0
LINE
  5
B38
330
922
100
AcDbEntity
  8
cotas
100
AcDbLine
 10
0.0
 20
-20.0
 30
0.0
 11
327.1260136525398
 21
-20.0
 31
0.0
  0
LINE
  5
B39
330
922
100
AcDbEntity
  8
cotas
100
AcDbLine
 10
0.0
 20
-15.0
 30
0.0
 11
327.1260136525398
 21
-15.0
 31
0.0
  0
LINE
  5
B3A
330
922
100
AcDbEntity
  8
cotas
100
AcDbLine
 10
0.0
 20
-10.0
 30
0.0
 11
327.1260136525398
 21
-10.0
 31
0.0
  0
LINE
  5
B3B
330
922
100
AcDbEntity
  8
cotas
100
AcDbLine
 10
0.0
 20
0.0
 30
0.0
 11
0.0
 21
-30.0
 31
0.0
  0
LINE
  5
B3C
330
922
100
AcDbEntity
  8
cotas
100
AcDbLine
 10
327.1260136525398
 20
-30.0
 30
0.0
 11
327.1260136525398
 21
0.0
 31
0.0
  0
ENDBLK
  5
92B
330
922
100
AcDbEntity
  8
0
100
AcDbBlockEnd
  0
BLOCK
  5
AAD
330
AA8
100
AcDbEntity
  8
0
100
AcDbBlockBegin
  2
_CLOSED
 70
     0
 10
0.0
 20
0.0
 30
0.0
  3
_CLOSED
  1

  0
LINE
  5
AA9
330
AA8
100
AcDbEntity
  8
0
100
AcDbLine
 10
-1.0
 20
0.166667
 30
0.0
 11
0.0
 21
0.0
 31
0.0
  0
LINE
  5
AAA
330
AA8
100
AcDbEntity
  8
0
100
AcDbLine
 10
0.0
 20
0.0
 30
0.0
 11
-1.0
 21
-0.166667
 31
0.0
  0
LINE
  5
AAB
330
AA8
100
AcDbEntity
  8
0
100
AcDbLine
 10
-1.0
 20
0.166667
 30
0.0
 11
-1.0
 21
-0.166667
 31
0.0
  0
LINE
  5
AAC
330
AA8
100
AcDbEntity
  8
0
100
AcDbLine
 10
0.0
 20
0.0
 30
0.0
 11
-1.0
 21
0.0
 31
0.0
  0
ENDBLK
  5
AAE
330
AA8
100
AcDbEntity
  8
0
100
AcDbBlockEnd
  0
ENDSEC
  0
SECTION
  2
ENTITIES
  0
CIRCLE
  5
E4B
330
1F
100
AcDbEntity
  8
SANINDUSA
100
AcDbCircle
 10
-14.2444658842925
 20
915.0608891307715
 30
0.0
 40
0.205
  0
ARC
  5
E4C
330
1F
100
AcDbEntity
  8
SANINDUSA
100
AcDbCircle
 10
-14.2444658842925
 20
915.0608891307715
 30
0.0
 40
0.1933747751836876
100
AcDbArc
 50
117.337826360656
 51
62.66217363934252
  0
ARC
  5
E4E
330
1F
100
AcDbEntity
  8
SANINDUSA
100
AcDbCircle
 10
-14.2444658842925
 20
915.2574962736286
 30
0.0
 40
0.0875749935045458
100
AcDbArc
 50
204.3076022434992
 51
335.6923977565009
  0
LWPOLYLINE
  5
E50
330
1F
100
AcDbEntity
  8
SANINDUSA
100
AcDbPolyline
 90
       38
 70
   128
 43
0.0
 10
-14.15088780890132
 20
915.2274095756997
 10
-14.15129146568608
 20
915.2239641106467
 10
-14.15194095643488
 20
915.2203049140871
 10
-14.15356452036219
 20
915.2140031017387
 10
-14.15599088724633
 20
915.207260942836
 10
-14.15931063615419
 20
915.2002095783172
 10
-14.16361434615265
 20
915.1929801491206
 10
-14.16740006090553
 20
915.1877085901748
 10
-14.17180192244601
 20
915.1824497652453
 10
-14.17683067789047
 20
915.1772942056089
 10
-14.18249707435528
 20
915.1723324425416
 10
-14.18921046210895
 20
915.1673858715383
 10
-14.19667582657408
 20
915.1628384443066
 10
-14.20481810386899
 20
915.1588408624007
 10
-14.21140725756642
 20
915.1562642057958
 10
-14.21835548372423
 20
915.1541102922928
 10
-14.22556775330341
 20
915.1524331391176
 10
-14.23294903726493
 20
915.1512867634952
 10
-14.23828557270539
 20
915.1508122799144
 10
-14.24365738358496
 20
915.1506238842795
 10
-14.25163724596741
 20
915.1508840181939
 10
-14.25955239846661
 20
915.1517722718544
 10
-14.26725975187093
 20
915.15325704145
 10
-14.27478035253187
 20
915.1553396021609
 10
-14.28197348398323
 20
915.157945302891
 10
-14.28874577713636
 20
915.1609972356961
 10
-14.29565801988295
 20
915.1647942632758
 10
-14.30201952774387
 20
915.1689781823032
 10
-14.30778861778834
 20
915.1734462184995
 10
-14.31361042053993
 20
915.1787584158695
 10
-14.31872237047678
 20
915.1842618942085
 10
-14.32314147872923
 20
915.1898536318183
 10
-14.32688475642763
 20
915.1954306070001
 10
-14.33100298395937
 20
915.2029350702935
 10
-14.3340838783578
 20
915.2101919913869
 10
-14.3362327780819
 20
915.2170611644836
 10
-14.33755502159068
 20
915.2234023837877
 10
-14.33804395968368
 20
915.2274095756997
  0
CIRCLE
  5
E55
330
1F
100
AcDbEntity
  8
SANINDUSA
100
AcDbCircle
 10
-14.2444658842925
 20
915.0608891307715
 30
0.0
 40
0.0235
  0
ARC
  5
E5B
330
1F
100
AcDbEntity
  8
SANINDUSA
100
AcDbCircle
 10
-14.2444658842925
 20
915.0608891307715
 30
0.0
 40
0.1939711575687493
100
AcDbArc
 50
65.18121531934624
 51
114.8187846806537
  0
LWPOLYLINE
  5
E5D
330
1F
100
AcDbEntity
  8
SANINDUSA
100
AcDbPolyline
 90
        3
 70
   128
 43
0.0
 10
-14.333270564735
 20
915.2326666974351
 10
-14.33083786259327
 20
915.234244416904
 10
-14.32588521538871
 20
915.2369450948636
  0
LWPOLYLINE
  5
E60
330
1F
100
AcDbEntity
  8
SANINDUSA
100
AcDbPolyline
 90
       10
 70
   128
 43
0.0
 10
-14.3242772379001
 20
915.2214473163255
 10
-14.3252023864173
 20
915.2233257801086
 10
-14.3264076880439
 20
915.225049425206
 10
-14.32781489973559
 20
915.2264715533844
 10
-14.32947001007278
 20
915.2276140857493
 10
-14.33213631757434
 20
915.2285685767477
 10
-14.33281170053677
 20
915.2286628157868
 10
-14.33554444340804
 20
915.2284683961031
 10
-14.33596131672041
 20
915.2283550241936
 10
-14.33804395968368
 20
915.2274095756997
  0
LWPOLYLINE
  5
E69
330
1F
100
AcDbEntity
  8
SANINDUSA
100
AcDbPolyline
 90
       31
 70
   128
 43
0.0
 10
-14.31769892143216
 20
915.2010865016119
 10
-14.31781411657193
 20
915.2014710405209
 10
-14.31786256378019
 20
915.2019885388119
 10
-14.31770029352966
 20
915.2022403705485
 10
-14.31733049454299
 20
915.2022141348727
 10
-14.31676455898321
 20
915.2019172969913
 10
-14.31601008571654
 20
915.2013571752872
 10
-14.31508607617901
 20
915.2005608558141
 10
-14.3140041717433
 20
915.1995508950548
 10
-14.31279291202199
 20
915.1983701183679
 10
-14.31147733541606
 20
915.1970577870857
 10
-14.31009005048026
 20
915.1956585666516
 10
-14.30724856994738
 20
915.1927780795826
 10
-14.30456151984598
 20
915.190029355794
 10
-14.30337170105138
 20
915.1887806344584
 10
-14.30234773308232
 20
915.1876619080754
 10
-14.30125127938606
 20
915.1863392969383
 10
-14.30059867145211
 20
915.1851580738256
 10
-14.3006725729649
 20
915.1848652767668
 10
-14.30101322846393
 20
915.1847811735329
 10
-14.30243190971776
 20
915.1852478466912
 10
-14.30467792735287
 20
915.1865463619621
 10
-14.30604260238763
 20
915.1875027168815
 10
-14.30749261327563
 20
915.1886298219626
 10
-14.30899773795955
 20
915.1899185859665
 10
-14.31049659204284
 20
915.1913242848378
 10
-14.31193218554058
 20
915.1927988385434
 10
-14.31327754483037
 20
915.1943099384077
 10
-14.31553063987701
 20
915.1972210345078
 10
-14.31707742579057
 20
915.1997143345889
 10
-14.31769892143216
 20
915.2010865016119
  0
CIRCLE
  5
E6C
330
1F
100
AcDbEntity
  8
SANINDUSA
100
AcDbCircle
 10
-14.2444658842925
 20
915.2158891307715
 30
0.0
 40
0.0175
  0
LWPOLYLINE
  5
E6F
330
1F
100
AcDbEntity
  8
SANINDUSA
100
AcDbPolyline
 90
        3
 70
   128
 43
0.0
 10
-14.16304655319629
 20
915.2369450948636
 10
-14.16015857435714
 20
915.2354699957097
 10
-14.15566120384999
 20
915.2326666974351
  0
LWPOLYLINE
  5
E74
330
1F
100
AcDbEntity
  8
SANINDUSA
100
AcDbPolyline
 90
        8
 70
   128
 43
0.0
 10
-14.15088780890132
 20
915.2274095756997
 10
-14.15268767625956
 20
915.2282646464774
 10
-14.15538889300575
 20
915.2287014715259
 10
-14.15584895658074
 20
915.2286847996261
 10
-14.15886273634335
 20
915.2279149330905
 10
-14.16157268706271
 20
915.2260657133837
 10
-14.16381635703281
 20
915.2231761796462
 10
-14.16465453068489
 20
915.2214473163255
  0
ARC
  5
E7D
330
1F
100
AcDbEntity
  8
SANINDUSA
100
AcDbCircle
 10
-13.13132122529661
 20
915.2218504207562
 30
0.0
 40
0.2351272909534262
100
AcDbArc
 50
307.5565444836467
 51
338.0031021072974
  0
LINE
  5
E7E
330
1F
100
AcDbEntity
  8
SANINDUSA
100
AcDbLine
 10
-12.91887345364824
 20
915.142029329052
 30
0.0
 11
-13.31687345364824
 21
915.142029329052
 31
0.0
  0
ARC
  5
E87
330
1F
100
AcDbEntity
  8
SANINDUSA
100
AcDbCircle
 10
-13.10442568199987
 20
915.2218504207562
 30
0.0
 40
0.2351272909534261
100
AcDbArc
 50
201.9968978927027
 51
232.4434555163544
  0
ARC
  5
E88
330
1F
100
AcDbEntity
  8
SANINDUSA
100
AcDbCircle
 10
-13.31687345364824
 20
915.1360293290521
 30
0.0
 40
0.006
100
AcDbArc
 50
90.0
 51
201.9968978927027
  0
LINE
  5
E89
330
1F
100
AcDbEntity
  8
SANINDUSA
100
AcDbLine
 10
-13.00787345364824
 20
914.987029329052
 30
0.0
 11
-13.00280524435155
 21
915.0117700703262
 31
0.0
  0
LINE
  5
E8A
330
1F
100
AcDbEntity
  8
SANINDUSA
100
AcDbLine
 10
-13.23294166294493
 20
915.0117700703262
 30
0.0
 11
-13.22787345364824
 21
914.987029329052
 31
0.0
  0
LINE
  5
E8B
330
1F
100
AcDbEntity
  8
SANINDUSA
100
AcDbLine
 10
-13.08383914242305
 20
914.9570293290519
 30
0.0
 11
-13.15190776487343
 21
914.9570293290519
 31
0.0
  0
LINE
  5
E8E
330
1F
100
AcDbEntity
  8
SANINDUSA
100
AcDbLine
 10
-13.00787345364824
 20
914.987029329052
 30
0.0
 11
-13.22787345364824
 21
914.987029329052
 31
0.0
  0
ARC
  5
E95
330
1F
100
AcDbEntity
  8
SANINDUSA
100
AcDbCircle
 10
-13.15190776487343
 20
914.9580293290521
 30
0.0
 40
0.0010000000000001
100
AcDbArc
 50
181.9999999999906
 51
270.0
  0
LINE
  5
E96
330
1F
100
AcDbEntity
  8
SANINDUSA
100
AcDbLine
 10
-13.15382846117105
 20
914.9843771663622
 30
0.0
 11
-13.15290715570045
 21
914.9579944295552
 31
0.0
  0
ARC
  5
E97
330
1F
100
AcDbEntity
  8
SANINDUSA
100
AcDbCircle
 10
-13.07192453785524
 20
914.9840281713951
 30
0.0
 40
0.0099999999999999
100
AcDbArc
 50
162.5354435904115
 51
178.0000000000028
  0
ARC
  5
E98
330
1F
100
AcDbEntity
  8
SANINDUSA
100
AcDbCircle
 10
-13.08383914242305
 20
914.9580293290521
 30
0.0
 40
0.0010000000000001
100
AcDbArc
 50
270.0
 51
358.0000000000094
  0
LINE
  5
E99
330
1F
100
AcDbEntity
  8
SANINDUSA
100
AcDbLine
 10
-13.08283975159603
 20
914.9579944295552
 30
0.0
 11
-13.08191844612544
 21
914.9843771663622
 31
0.0
  0
LINE
  5
E9A
330
1F
100
AcDbEntity
  8
SANINDUSA
100
AcDbLine
 10
-13.24774613091873
 20
915.0354527494382
 30
0.0
 11
-12.98800077637775
 21
915.0354527494382
 31
0.0
  0
LINE
  5
E9B
330
1F
100
AcDbEntity
  8
SANINDUSA
100
AcDbLine
 10
-13.00280524435155
 20
915.0117700703262
 30
0.0
 11
-13.23294166294493
 21
915.0117700703262
 31
0.0
  0
ARC
  5
E9C
330
1F
100
AcDbEntity
  8
SANINDUSA
100
AcDbCircle
 10
-13.27212789423301
 20
915.003742662436
 30
0.0
 40
0.0400000000000001
100
AcDbArc
 50
11.57703035459291
 51
52.44345551635325
  0
ARC
  5
E9D
330
1F
100
AcDbEntity
  8
SANINDUSA
100
AcDbCircle
 10
-12.96361901306347
 20
915.003742662436
 30
0.0
 40
0.0400000000000002
100
AcDbArc
 50
127.5565444836467
 51
168.4229696454071
  0
ARC
  5
EA3
330
1F
100
AcDbEntity
  8
SANINDUSA
100
AcDbCircle
 10
-12.91887345364824
 20
915.1360293290521
 30
0.0
 40
0.0059999999999999
100
AcDbArc
 50
338.0031021072974
 51
90.0
  0
ARC
  5
EAC
330
1F
100
AcDbEntity
  8
SANINDUSA
100
AcDbCircle
 10
-12.57550307433658
 20
915.2085765484599
 30
0.0
 40
0.2025383479981486
100
AcDbArc
 50
244.7976981371267
 51
258.5960783207791
  0
LINE
  5
EAD
330
1F
100
AcDbEntity
  8
SANINDUSA
100
AcDbLine
 10
-12.66401558938858
 20
914.987029329052
 30
0.0
 11
-12.64201558938858
 21
914.987029329052
 31
0.0
  0
ARC
  5
EB0
330
1F
100
AcDbEntity
  8
SANINDUSA
100
AcDbCircle
 10
-12.55856781774021
 20
915.2218504207562
 30
0.0
 40
0.2351272909534262
100
AcDbArc
 50
239.8183167727165
 51
257.8045444690075
  0
ARC
  5
EB1
330
1F
100
AcDbEntity
  8
SANINDUSA
100
AcDbCircle
 10
-12.52944532423992
 20
915.2505457124531
 30
0.0
 40
0.2859131300386355
100
AcDbArc
 50
236.3204611630564
 51
256.4811615098806
  0
LINE
  5
EB5
330
1F
100
AcDbEntity
  8
SANINDUSA
100
AcDbLine
 10
-12.37301558938858
 20
915.142029329052
 30
0.0
 11
-12.77101558938858
 21
915.142029329052
 31
0.0
  0
LINE
  5
EB8
330
1F
100
AcDbEntity
  8
SANINDUSA
100
AcDbLine
 10
-12.69898213806538
 20
915.0262708845856
 30
0.0
 11
-12.69953421982109
 21
915.0143699689319
 31
0.0
  0
LINE
  5
EB9
330
1F
100
AcDbEntity
  8
SANINDUSA
100
AcDbLine
 10
-12.6879976754088
 20
915.0126224688067
 30
0.0
 11
-12.68472174557972
 21
915.0751309336547
 31
0.0
  0
LINE
  5
EBA
330
1F
100
AcDbEntity
  8
SANINDUSA
100
AcDbLine
 10
-12.6980095548592
 20
915.0126576546055
 30
0.0
 11
-12.69229134234121
 21
915.1217676492708
 31
0.0
  0
LINE
  5
EBE
330
1F
100
AcDbEntity
  8
SANINDUSA
100
AcDbLine
 10
-12.68404627140766
 20
914.9969422145513
 30
0.0
 11
-12.68201558938858
 21
914.987029329052
 31
0.0
  0
ARC
  5
EBF
330
1F
100
AcDbEntity
  8
SANINDUSA
100
AcDbCircle
 10
-12.69384282922968
 20
914.9949353625785
 30
0.0
 40
0.0100000000000001
100
AcDbArc
 50
11.57703035459291
 51
57.25263156483238
  0
ARC
  5
EC2
330
1F
100
AcDbEntity
  8
SANINDUSA
100
AcDbCircle
 10
-12.69453965781639
 20
915.0141368372496
 30
0.0
 40
0.0050000000000002
100
AcDbArc
 50
177.3275387819841
 51
221.154919009293
  0
ARC
  5
EC4
330
1F
100
AcDbEntity
  8
SANINDUSA
100
AcDbCircle
 10
-12.69301640718543
 20
915.0123959748242
 30
0.0
 40
0.0050000000000001
100
AcDbArc
 50
176.9999999999813
 51
235.5171113158196
  0
LWPOLYLINE
  5
EC5
330
1F
100
AcDbEntity
  8
SANINDUSA
100
AcDbPolyline
 90
       11
 70
   128
 43
0.0
 10
-12.69830432251903
 20
915.0108463510123
 10
-12.69798749011355
 20
915.0104796226166
 10
-12.69736420453124
 20
915.0097686823299
 10
-12.6969619816034
 20
915.0093109003041
 10
-12.69677866621387
 20
915.0091026849624
 10
-12.69676561894514
 20
915.0090878910239
 10
-12.69675554751776
 20
915.0090765123524
 10
-12.6967500210964
 20
915.00907029769
 10
-12.69674232477079
 20
915.0090616774187
 10
-12.69672034914677
 20
915.0090372824079
 10
-12.69668261834712
 20
915.0089999087649
  0
ARC
  5
EC6
330
1F
100
AcDbEntity
  8
SANINDUSA
100
AcDbCircle
 10
-12.52944532423992
 20
915.2505457124531
 30
0.0
 40
0.2939131300386355
100
AcDbArc
 50
235.5171113158196
 51
237.2526315648324
  0
LINE
  5
EC7
330
1F
100
AcDbEntity
  8
SANINDUSA
100
AcDbLine
 10
-12.68201558938858
 20
914.987029329052
 30
0.0
 11
-12.67001558938858
 21
914.987029329052
 31
0.0
  0
LWPOLYLINE
  5
EC8
330
1F
100
AcDbEntity
  8
SANINDUSA
100
AcDbPolyline
 90
        4
 70
   128
 43
0.0
 10
-12.66582657414593
 20
914.9887738781039
 10
-12.66630472729795
 20
914.9886121942287
 10
-12.667216979254
 20
914.9878909606716
 10
-12.66776989825184
 20
914.9870293290518
  0
ARC
  5
EC9
330
1F
100
AcDbEntity
  8
SANINDUSA
100
AcDbCircle
 10
-12.66701558938858
 20
914.985779329052
 30
0.0
 40
0.0032500000000001
100
AcDbArc
 50
22.6198649480388
 51
157.3801350519612
  0
LINE
  5
ECA
330
1F
100
AcDbEntity
  8
SANINDUSA
100
AcDbLine
 10
-12.67001558938858
 20
914.987029329052
 30
0.0
 11
-12.66776989825184
 21
914.987029329052
 31
0.0
  0
ARC
  5
ED1
330
1F
100
AcDbEntity
  8
SANINDUSA
100
AcDbCircle
 10
-12.76413431433286
 20
915.1220293290519
 30
0.0
 40
0.005
100
AcDbArc
 50
270.0
 51
6.379370208454483
  0
ARC
  5
ED5
330
1F
100
AcDbEntity
  8
SANINDUSA
100
AcDbCircle
 10
-12.55856781774021
 20
915.2218504207562
 30
0.0
 40
0.2351272909534265
100
AcDbArc
 50
201.9968978927027
 51
205.7067148391236
  0
LINE
  5
ED6
330
1F
100
AcDbEntity
  8
SANINDUSA
100
AcDbLine
 10
-12.66739159542626
 20
915.0329742051921
 30
0.0
 11
-12.68104773874118
 21
915.1301427138596
 31
0.0
  0
LWPOLYLINE
  5
ED8
330
1F
100
AcDbEntity
  8
SANINDUSA
100
AcDbPolyline
 90
       11
 70
   128
 43
0.0
 10
-12.75722332844827
 20
915.1092640763929
 10
-12.75380791675736
 20
915.1027443081513
 10
-12.74960536419795
 20
915.0953835560141
 10
-12.7451495387447
 20
915.0881999146328
 10
-12.74044902880911
 20
915.0812071116256
 10
-12.73551298710286
 20
915.0744183303078
 10
-12.73034976219127
 20
915.0678446406464
 10
-12.724959046521
 20
915.0614850293274
 10
-12.71933314014591
 20
915.0553252608792
 10
-12.71345660663596
 20
915.0493495320402
 10
-12.70869505574633
 20
915.0448535397325
  0
LINE
  5
EDB
330
1F
100
AcDbEntity
  8
SANINDUSA
100
AcDbLine
 10
-12.76413431433286
 20
915.1170293290519
 30
0.0
 11
-12.76591853438365
 21
915.1170293290519
 31
0.0
  0
ARC
  5
EDC
330
1F
100
AcDbEntity
  8
SANINDUSA
100
AcDbCircle
 10
-12.76591853438365
 20
915.1220293290519
 30
0.0
 40
0.005
100
AcDbArc
 50
205.7067148391236
 51
270.0
  0
LWPOLYLINE
  5
EE0
330
1F
100
AcDbEntity
  8
SANINDUSA
100
AcDbPolyline
 90
        9
 70
   128
 43
0.0
 10
-12.76214022716547
 20
915.1170293290519
 10
-12.76197240547252
 20
915.1168351509475
 10
-12.76138712589751
 20
915.1160833060002
 10
-12.76069045968983
 20
915.1151045004032
 10
-12.75988742975392
 20
915.1138820756319
 10
-12.75903903526192
 20
915.1124921542127
 10
-12.75816664343536
 20
915.1109581621943
 10
-12.75731605580707
 20
915.1093517805934
 10
-12.75726366598636
 20
915.109244931985
  0
LINE
  5
EE2
330
1F
100
AcDbEntity
  8
SANINDUSA
100
AcDbLine
 10
-12.68472174557972
 20
915.0751309336547
 30
0.0
 11
-12.67677656377903
 21
915.0185980276312
 31
0.0
  0
LWPOLYLINE
  5
EE7
330
1F
100
AcDbEntity
  8
SANINDUSA
100
AcDbPolyline
 90
       11
 70
   128
 43
0.0
 10
-12.69986331877592
 20
915.0360708106871
 10
-12.69966689667404
 20
915.0358539513648
 10
-12.69958262162815
 20
915.0356366368724
 10
-12.69943753318547
 20
915.0351307963232
 10
-12.69927676518701
 20
915.0343526467013
 10
-12.69912206063398
 20
915.033256018426
 10
-12.69900064985708
 20
915.0318698684174
 10
-12.69892928015014
 20
915.0302359278329
 10
-12.69891773267142
 20
915.0284044850286
 10
-12.69897017832189
 20
915.026471581292
 10
-12.69898213806538
 20
915.0262708845854
  0
LWPOLYLINE
  5
EEA
330
1F
100
AcDbEntity
  8
SANINDUSA
100
AcDbPolyline
 90
        9
 70
   128
 43
0.0
 10
-12.70872188288485
 20
915.044827603871
 10
-12.70698436315342
 20
915.0432119518278
 10
-12.70517034028121
 20
915.0414951180342
 10
-12.70355179203528
 20
915.0399296728515
 10
-12.70229903570511
 20
915.0386856295309
 10
-12.70128138585393
 20
915.0376417520892
 10
-12.70050729949539
 20
915.0368126795811
 10
-12.69998460791088
 20
915.0362193848163
 10
-12.69986331877592
 20
915.0360708106871
  0
ARC
  5
EEE
330
1F
100
AcDbEntity
  8
SANINDUSA
100
AcDbCircle
 10
-12.65748891473885
 20
915.0343659362018
 30
0.0
 40
0.0100000000000002
100
AcDbArc
 50
188.0000000000007
 51
244.7976981371274
  0
LINE
  5
EF2
330
1F
100
AcDbEntity
  8
SANINDUSA
100
AcDbLine
 10
-12.70851558938858
 20
915.127029329052
 30
0.0
 11
-12.74551558938858
 21
915.127029329052
 31
0.0
  0
LINE
  5
EF4
330
1F
100
AcDbEntity
  8
SANINDUSA
100
AcDbLine
 10
-12.74551558938858
 20
915.137029329052
 30
0.0
 11
-12.70851558938858
 21
915.137029329052
 31
0.0
  0
ARC
  5
EFA
330
1F
100
AcDbEntity
  8
SANINDUSA
100
AcDbCircle
 10
-12.76179604493129
 20
915.142029329052
 30
0.0
 40
0.0050000000000002
100
AcDbArc
 50
213.0557311508521
 51
270.0
  0
ARC
  5
EFB
330
1F
100
AcDbEntity
  8
SANINDUSA
100
AcDbCircle
 10
-12.77101558938858
 20
915.1360293290521
 30
0.0
 40
0.0060000000000002
100
AcDbArc
 50
33.05573115085979
 51
201.9968978927096
  0
ARC
  5
EFD
330
1F
100
AcDbEntity
  8
SANINDUSA
100
AcDbCircle
 10
-12.75519004242287
 20
915.123029329052
 30
0.0
 40
0.0040000000000002
100
AcDbArc
 50
90.0
 51
186.3793702084413
  0
LINE
  5
EFE
330
1F
100
AcDbEntity
  8
SANINDUSA
100
AcDbLine
 10
-12.74551558938858
 20
915.137029329052
 30
0.0
 11
-12.76179604493129
 21
915.137029329052
 31
0.0
  0
LINE
  5
F05
330
1F
100
AcDbEntity
  8
SANINDUSA
100
AcDbLine
 10
-12.74451558938858
 20
915.1360293290521
 30
0.0
 11
-12.74451558938858
 21
915.128029329052
 31
0.0
  0
LINE
  5
F06
330
1F
100
AcDbEntity
  8
SANINDUSA
100
AcDbLine
 10
-12.74551558938858
 20
915.127029329052
 30
0.0
 11
-12.75519004242287
 21
915.127029329052
 31
0.0
  0
ARC
  5
F07
330
1F
100
AcDbEntity
  8
SANINDUSA
100
AcDbCircle
 10
-12.74551558938858
 20
915.128029329052
 30
0.0
 40
0.0010000000000002
100
AcDbArc
 50
270.0
 51
0.0
  0
ARC
  5
F0B
330
1F
100
AcDbEntity
  8
SANINDUSA
100
AcDbCircle
 10
-12.74551558938858
 20
915.1360293290521
 30
0.0
 40
0.0010000000000002
100
AcDbArc
 50
0.0
 51
90.0
  0
ARC
  5
F11
330
1F
100
AcDbEntity
  8
SANINDUSA
100
AcDbCircle
 10
-12.68896988329111
 20
915.129029329052
 30
0.0
 40
0.008
100
AcDbArc
 50
8.000000000000762
 51
90.0
  0
LINE
  5
F15
330
1F
100
AcDbEntity
  8
SANINDUSA
100
AcDbLine
 10
-12.69728449001498
 20
915.127029329052
 30
0.0
 11
-12.70851558938858
 21
915.127029329052
 31
0.0
  0
LINE
  5
F16
330
1F
100
AcDbEntity
  8
SANINDUSA
100
AcDbLine
 10
-12.70951558938858
 20
915.128029329052
 30
0.0
 11
-12.70951558938858
 21
915.1360293290521
 31
0.0
  0
ARC
  5
F17
330
1F
100
AcDbEntity
  8
SANINDUSA
100
AcDbCircle
 10
-12.70851558938858
 20
915.128029329052
 30
0.0
 40
0.0010000000000001
100
AcDbArc
 50
180.0
 51
270.0
  0
ARC
  5
F18
330
1F
100
AcDbEntity
  8
SANINDUSA
100
AcDbCircle
 10
-12.70851558938858
 20
915.1360293290521
 30
0.0
 40
0.0009999999999999
100
AcDbArc
 50
90.0
 51
180.0
  0
ARC
  5
F19
330
1F
100
AcDbEntity
  8
SANINDUSA
100
AcDbCircle
 10
-12.69728449001498
 20
915.1220293290519
 30
0.0
 40
0.005
100
AcDbArc
 50
356.9999999999944
 51
90.0
  0
LINE
  5
F1B
330
1F
100
AcDbEntity
  8
SANINDUSA
100
AcDbLine
 10
-12.68896988329111
 20
915.137029329052
 30
0.0
 11
-12.70851558938858
 21
915.137029329052
 31
0.0
  0
LINE
  5
F20
330
1F
100
AcDbEntity
  8
SANINDUSA
100
AcDbLine
 10
-12.47015695958356
 20
914.9971160700827
 30
0.0
 11
-12.46484564556568
 21
915.0230435403685
 31
0.0
  0
ARC
  5
F21
330
1F
100
AcDbEntity
  8
SANINDUSA
100
AcDbCircle
 10
-12.56852810444058
 20
915.2085765484599
 30
0.0
 40
0.2125383479981485
100
AcDbArc
 50
290.297076183102
 51
299.198015171612
  0
ARC
  5
F22
330
1F
100
AcDbEntity
  8
SANINDUSA
100
AcDbCircle
 10
-12.41776114880381
 20
915.003742662436
 30
0.0
 40
0.0400000000000002
100
AcDbArc
 50
127.5565444836467
 51
168.4229696454071
  0
ARC
  5
F23
330
1F
100
AcDbEntity
  8
SANINDUSA
100
AcDbCircle
 10
-12.56852810444058
 20
915.2085765484599
 30
0.0
 40
0.2025383479981485
100
AcDbArc
 50
281.4039216792227
 51
339.6420354235552
  0
ARC
  5
F26
330
1F
100
AcDbEntity
  8
SANINDUSA
100
AcDbCircle
 10
-12.47701558938858
 20
914.985779329052
 30
0.0
 40
0.0132500000000001
100
AcDbArc
 50
58.82642629897164
 51
121.8907918018476
  0
LINE
  5
F27
330
1F
100
AcDbEntity
  8
SANINDUSA
100
AcDbLine
 10
-12.49201558938858
 20
914.987029329052
 30
0.0
 11
-12.48001558938858
 21
914.987029329052
 31
0.0
  0
LINE
  5
F2E
330
1F
100
AcDbEntity
  8
SANINDUSA
100
AcDbLine
 10
-12.54751558938858
 20
914.9570293290519
 30
0.0
 11
-12.59651558938858
 21
914.9570293290519
 31
0.0
  0
LINE
  5
F33
330
1F
100
AcDbEntity
  8
SANINDUSA
100
AcDbLine
 10
-12.61554985491575
 20
915.0100367847473
 30
0.0
 11
-12.5284813238614
 21
915.0100367847473
 31
0.0
  0
LINE
  5
F34
330
1F
100
AcDbEntity
  8
SANINDUSA
100
AcDbLine
 10
-12.59551558938858
 20
914.9580293290521
 30
0.0
 11
-12.59551558938858
 21
914.9715820522366
 31
0.0
  0
LINE
  5
F35
330
1F
100
AcDbEntity
  8
SANINDUSA
100
AcDbLine
 10
-12.60724161776933
 20
914.9635019350123
 30
0.0
 11
-12.60704929144079
 21
914.9579944295552
 31
0.0
  0
LINE
  5
F36
330
1F
100
AcDbEntity
  8
SANINDUSA
100
AcDbLine
 10
-12.60604990061377
 20
914.9570293290519
 30
0.0
 11
-12.59651558938858
 21
914.9570293290519
 31
0.0
  0
ARC
  5
F37
330
1F
100
AcDbEntity
  8
SANINDUSA
100
AcDbCircle
 10
-12.60604990061377
 20
914.9580293290521
 30
0.0
 40
0.0010000000000001
100
AcDbArc
 50
181.9999999999971
 51
270.0
  0
ARC
  5
F38
330
1F
100
AcDbEntity
  8
SANINDUSA
100
AcDbCircle
 10
-12.59651558938858
 20
914.9580293290521
 30
0.0
 40
0.001
100
AcDbArc
 50
270.0
 51
0.0
  0
LINE
  5
F39
330
1F
100
AcDbEntity
  8
SANINDUSA
100
AcDbLine
 10
-12.59764770720682
 20
914.9985222540205
 30
0.0
 11
-12.61179133490992
 21
915.0084257287559
 31
0.0
  0
ARC
  5
F3B
330
1F
100
AcDbEntity
  8
SANINDUSA
100
AcDbCircle
 10
-12.52944532423992
 20
915.2505457124531
 30
0.0
 40
0.2779131300386355
100
AcDbArc
 50
253.5905324000521
 51
255.9831711317479
  0
ARC
  5
F3C
330
1F
100
AcDbEntity
  8
SANINDUSA
100
AcDbCircle
 10
-12.61223857190442
 20
914.9633274375288
 30
0.0
 40
0.005
100
AcDbArc
 50
2.000000000062314
 51
73.91989831508436
  0
LINE
  5
F3E
330
1F
100
AcDbEntity
  8
SANINDUSA
100
AcDbLine
 10
-12.60823781632079
 20
914.992029329052
 30
0.0
 11
-12.60795577535741
 21
914.9839527325884
 31
0.0
  0
LINE
  5
F3F
330
1F
100
AcDbEntity
  8
SANINDUSA
100
AcDbLine
 10
-12.64201558938858
 20
914.9790445827807
 30
0.0
 11
-12.64201558938858
 21
914.987029329052
 31
0.0
  0
ARC
  5
F40
330
1F
100
AcDbEntity
  8
SANINDUSA
100
AcDbCircle
 10
-12.52944532423992
 20
915.2505457124531
 30
0.0
 40
0.2939131300386355
100
AcDbArc
 50
247.4800419685979
 51
253.9198983150844
  0
ARC
  5
F41
330
1F
100
AcDbEntity
  8
SANINDUSA
100
AcDbCircle
 10
-12.61752709927343
 20
915.0002342083132
 30
0.0
 40
0.01
100
AcDbArc
 50
55.00000000000083
 51
78.59607832077734
  0
ARC
  5
F42
330
1F
100
AcDbEntity
  8
SANINDUSA
100
AcDbCircle
 10
-12.60051558938858
 20
914.9944264937992
 30
0.0
 40
0.005
100
AcDbArc
 50
0.0
 51
55.00000000000263
  0
ARC
  5
F47
330
1F
100
AcDbEntity
  8
SANINDUSA
100
AcDbCircle
 10
-12.59651558938858
 20
914.9715820522366
 30
0.0
 40
0.0009999999999999
100
AcDbArc
 50
0.0
 51
76.48116150988143
  0
ARC
  5
F48
330
1F
100
AcDbEntity
  8
SANINDUSA
100
AcDbCircle
 10
-12.59651558938858
 20
914.9818777740597
 30
0.0
 40
0.001
100
AcDbArc
 50
255.9831711317495
 51
0.0
  0
LINE
  5
F53
330
1F
100
AcDbEntity
  8
SANINDUSA
100
AcDbLine
 10
-12.59551558938858
 20
914.9818777740597
 30
0.0
 11
-12.59551558938858
 21
914.9944264937992
 31
0.0
  0
LINE
  5
F57
330
1F
100
AcDbEntity
  8
SANINDUSA
100
AcDbLine
 10
-12.53698188733636
 20
914.9579944295552
 30
0.0
 11
-12.53606058186577
 21
914.9843771663622
 31
0.0
  0
LINE
  5
F58
330
1F
100
AcDbEntity
  8
SANINDUSA
100
AcDbLine
 10
-12.54851558938858
 20
914.9944264937992
 30
0.0
 11
-12.54851558938858
 21
914.9580293290521
 31
0.0
  0
LINE
  5
F59
330
1F
100
AcDbEntity
  8
SANINDUSA
100
AcDbLine
 10
-12.54751558938858
 20
914.9570293290519
 30
0.0
 11
-12.53798127816338
 21
914.9570293290519
 31
0.0
  0
ARC
  5
F5A
330
1F
100
AcDbEntity
  8
SANINDUSA
100
AcDbCircle
 10
-12.54751558938858
 20
914.9580293290521
 30
0.0
 40
0.001
100
AcDbArc
 50
180.0
 51
270.0
  0
ARC
  5
F5B
330
1F
100
AcDbEntity
  8
SANINDUSA
100
AcDbCircle
 10
-12.53798127816338
 20
914.9580293290521
 30
0.0
 40
0.001
100
AcDbArc
 50
270.0
 51
357.9999999997292
  0
ARC
  5
F5C
330
1F
100
AcDbEntity
  8
SANINDUSA
100
AcDbCircle
 10
-12.58546336103695
 20
915.2218504207562
 30
0.0
 40
0.2351272909534262
100
AcDbArc
 50
284.0228929942211
 51
289.8351065385207
  0
LINE
  5
F5D
330
1F
100
AcDbEntity
  8
SANINDUSA
100
AcDbLine
 10
-12.53560570146631
 20
914.987029329052
 30
0.0
 11
-12.49201558938858
 21
914.987029329052
 31
0.0
  0
ARC
  5
F5E
330
1F
100
AcDbEntity
  8
SANINDUSA
100
AcDbCircle
 10
-12.52650407950373
 20
915.0002342083132
 30
0.0
 40
0.0100000000000001
100
AcDbArc
 50
101.4039216792242
 51
124.9999999999998
  0
ARC
  5
F5F
330
1F
100
AcDbEntity
  8
SANINDUSA
100
AcDbCircle
 10
-12.54351558938858
 20
914.9944264937992
 30
0.0
 40
0.0050000000000001
100
AcDbArc
 50
124.9999999999998
 51
180.0
  0
LINE
  5
F60
330
1F
100
AcDbEntity
  8
SANINDUSA
100
AcDbLine
 10
-12.53223984386724
 20
915.0084257287559
 30
0.0
 11
-12.54638347157033
 21
914.9985222540205
 31
0.0
  0
ARC
  5
F61
330
1F
100
AcDbEntity
  8
SANINDUSA
100
AcDbCircle
 10
-12.52606667359558
 20
914.9840281713951
 30
0.0
 40
0.01
100
AcDbArc
 50
104.022892994221
 51
177.9999999999833
  0
LINE
  5
F62
330
1F
100
AcDbEntity
  8
SANINDUSA
100
AcDbLine
 10
-12.4866637518037
 20
914.997029329052
 30
0.0
 11
-12.48401558938858
 21
914.997029329052
 31
0.0
  0
ARC
  5
F64
330
1F
100
AcDbEntity
  8
SANINDUSA
100
AcDbCircle
 10
-12.50398472358968
 20
914.9959691521649
 30
0.0
 40
0.0050000000000001
100
AcDbArc
 50
33.69006752597889
 51
109.8351065385191
  0
LINE
  5
F65
330
1F
100
AcDbEntity
  8
SANINDUSA
100
AcDbLine
 10
-12.49480114652143
 20
915.0092354211285
 30
0.0
 11
-12.4866637518037
 21
914.997029329052
 31
0.0
  0
LINE
  5
F66
330
1F
100
AcDbEntity
  8
SANINDUSA
100
AcDbLine
 10
-12.49982447211799
 20
914.9987426531462
 30
0.0
 11
-12.49201558938858
 21
914.987029329052
 31
0.0
  0
ARC
  5
F67
330
1F
100
AcDbEntity
  8
SANINDUSA
100
AcDbCircle
 10
-12.47701558938858
 20
914.985779329052
 30
0.0
 40
0.0032500000000001
100
AcDbArc
 50
22.61986494805302
 51
157.3801350519612
  0
LINE
  5
F68
330
1F
100
AcDbEntity
  8
SANINDUSA
100
AcDbLine
 10
-12.47401558938858
 20
914.987029329052
 30
0.0
 11
-12.46201558938858
 21
914.987029329052
 31
0.0
  0
LINE
  5
F69
330
1F
100
AcDbEntity
  8
SANINDUSA
100
AcDbLine
 10
-12.48001558938858
 20
914.987029329052
 30
0.0
 11
-12.47401558938858
 21
914.987029329052
 31
0.0
  0
LINE
  5
F6A
330
1F
100
AcDbEntity
  8
SANINDUSA
100
AcDbLine
 10
-12.46201558938858
 20
914.987029329052
 30
0.0
 11
-12.45694738009189
 21
915.0117700703262
 31
0.0
  0
ARC
  5
F6E
330
1F
100
AcDbEntity
  8
SANINDUSA
100
AcDbCircle
 10
-12.58546336103695
 20
915.2218504207562
 30
0.0
 40
0.2351272909534262
100
AcDbArc
 50
307.5565444836467
 51
338.0031021072974
  0
ARC
  5
F72
330
1F
100
AcDbEntity
  8
SANINDUSA
100
AcDbCircle
 10
-12.37301558938858
 20
915.1360293290521
 30
0.0
 40
0.0060000000000002
100
AcDbArc
 50
338.0031021072974
 51
159.6420354235412
  0
LINE
  5
F79
330
1F
100
AcDbEntity
  8
SANINDUSA
100
AcDbLine
 10
-13.48204080595788
 20
915.142029329052
 30
0.0
 11
-13.88004080595788
 21
915.142029329052
 31
0.0
  0
LINE
  5
F7B
330
1F
100
AcDbEntity
  8
SANINDUSA
100
AcDbLine
 10
-13.78995121316879
 20
915.0354527494382
 30
0.0
 11
-13.55116812868739
 21
915.0354527494382
 31
0.0
  0
LINE
  5
F7C
330
1F
100
AcDbEntity
  8
SANINDUSA
100
AcDbLine
 10
-13.64700649473327
 20
914.9570293290519
 30
0.0
 11
-13.71507511718307
 21
914.9570293290519
 31
0.0
  0
LINE
  5
F7F
330
1F
100
AcDbEntity
  8
SANINDUSA
100
AcDbLine
 10
-13.57104080595788
 20
914.987029329052
 30
0.0
 11
-13.76837853652384
 21
914.987029329052
 31
0.0
  0
LINE
  5
F80
330
1F
100
AcDbEntity
  8
SANINDUSA
100
AcDbLine
 10
-13.56597259666119
 20
915.0117700703262
 30
0.0
 11
-13.77454447953581
 21
915.0117700703262
 31
0.0
  0
ARC
  5
F81
330
1F
100
AcDbEntity
  8
SANINDUSA
100
AcDbCircle
 10
-13.77604080595788
 20
914.985779329052
 30
0.0
 40
0.0032500000000004
100
AcDbArc
 50
22.6198649480388
 51
67.99790138452479
  0
LWPOLYLINE
  5
F82
330
1F
100
AcDbEntity
  8
SANINDUSA
100
AcDbPolyline
 90
        8
 70
   128
 43
0.0
 10
-13.77058309866908
 20
914.9870293290518
 10
-13.77117125596702
 20
914.9879411296341
 10
-13.77202508451771
 20
914.9886088786608
 10
-13.77307412342942
 20
914.9889764241125
 10
-13.77422267577199
 20
914.9889866092355
 10
-13.77532994718845
 20
914.9886121924296
 10
-13.77624219829394
 20
914.9878909578962
 10
-13.77679511411831
 20
914.9870293290518
  0
LWPOLYLINE
  5
F84
330
1F
100
AcDbEntity
  8
SANINDUSA
100
AcDbPolyline
 90
        3
 70
   128
 43
0.0
 10
-13.77541465561708
 20
915.0115920028632
 10
-13.77362111880656
 20
915.0042062912062
 10
-13.76938212167889
 20
914.9870275124193
  0
LINE
  5
F86
330
1F
100
AcDbEntity
  8
SANINDUSA
100
AcDbLine
 10
-13.79307148797696
 20
914.9969422145513
 30
0.0
 11
-13.79104080595788
 21
914.987029329052
 31
0.0
  0
ARC
  5
F89
330
1F
100
AcDbEntity
  8
SANINDUSA
100
AcDbCircle
 10
-13.63847054080922
 20
915.2505457124531
 30
0.0
 40
0.2939131300386357
100
AcDbArc
 50
247.4800419685979
 51
253.9198983150844
  0
LINE
  5
F8B
330
1F
100
AcDbEntity
  8
SANINDUSA
100
AcDbLine
 10
-13.78502661362058
 20
914.987029329052
 30
0.0
 11
-13.78983244043746
 21
914.987029329052
 31
0.0
  0
LINE
  5
F8C
330
1F
100
AcDbEntity
  8
SANINDUSA
100
AcDbLine
 10
-13.78983244043746
 20
914.987029329052
 30
0.0
 11
-13.79104080595788
 21
914.987029329052
 31
0.0
  0
LINE
  5
F8F
330
1F
100
AcDbEntity
  8
SANINDUSA
100
AcDbLine
 10
-13.75104080595788
 20
914.987029329052
 30
0.0
 11
-13.75104080595788
 21
914.9790445827807
 31
0.0
  0
LINE
  5
F91
330
1F
100
AcDbEntity
  8
SANINDUSA
100
AcDbLine
 10
-13.76937481788845
 20
914.987029329052
 30
0.0
 11
-13.77058309866908
 21
914.987029329052
 31
0.0
  0
LINE
  5
F92
330
1F
100
AcDbEntity
  8
SANINDUSA
100
AcDbLine
 10
-13.76837853652384
 20
914.987029329052
 30
0.0
 11
-13.76937481788845
 21
914.987029329052
 31
0.0
  0
LINE
  5
F93
330
1F
100
AcDbEntity
  8
SANINDUSA
100
AcDbLine
 10
-13.77058309866908
 20
914.987029329052
 30
0.0
 11
-13.77304080595788
 21
914.987029329052
 31
0.0
  0
LINE
  5
F94
330
1F
100
AcDbEntity
  8
SANINDUSA
100
AcDbLine
 10
-13.77679511411831
 20
914.987029329052
 30
0.0
 11
-13.78502661362058
 21
914.987029329052
 31
0.0
  0
LWPOLYLINE
  5
F98
330
1F
100
AcDbEntity
  8
SANINDUSA
100
AcDbPolyline
 90
        4
 70
   128
 43
0.0
 10
-13.71014097620786
 20
914.9843562664242
 10
-13.71041347058076
 20
914.9856420259474
 10
-13.71109543289973
 20
914.9867574732438
 10
-13.7114144289536
 20
914.9870293290518
  0
LINE
  5
F99
330
1F
100
AcDbEntity
  8
SANINDUSA
100
AcDbLine
 10
-13.70989483939931
 20
914.9717979689034
 30
0.0
 11
-13.71014097620786
 21
914.9843562664242
 31
0.0
  0
ARC
  5
F9C
330
1F
100
AcDbEntity
  8
SANINDUSA
100
AcDbCircle
 10
-13.72126378847372
 20
914.9633274375288
 30
0.0
 40
0.0049999999999998
100
AcDbArc
 50
1.99999999999713
 51
73.91989831508436
  0
LINE
  5
F9D
330
1F
100
AcDbEntity
  8
SANINDUSA
100
AcDbLine
 10
-13.71987888364111
 20
914.9681318145542
 30
0.0
 11
-13.71504795932287
 21
914.9681318145542
 31
0.0
  0
ARC
  5
F9E
330
1F
100
AcDbEntity
  8
SANINDUSA
100
AcDbCircle
 10
-13.71507511718307
 20
914.9580293290521
 30
0.0
 40
0.0010000000000001
100
AcDbArc
 50
181.9999999999906
 51
270.0
  0
LINE
  5
F9F
330
1F
100
AcDbEntity
  8
SANINDUSA
100
AcDbLine
 10
-13.71626683433862
 20
914.9635019350123
 30
0.0
 11
-13.71607450801009
 21
914.9579944295552
 31
0.0
  0
LWPOLYLINE
  5
FA0
330
1F
100
AcDbEntity
  8
SANINDUSA
100
AcDbPolyline
 90
        8
 70
   128
 43
0.0
 10
-13.71504795932288
 20
914.9681318145542
 10
-13.71294528549553
 20
914.9682321527038
 10
-13.71096575476321
 20
914.9690796976006
 10
-13.7103653364873
 20
914.9696411079172
 10
-13.71010599050794
 20
914.9700206687457
 10
-13.7098552075996
 20
914.9707080162022
 10
-13.70981786991493
 20
914.971277461813
 10
-13.70989483939929
 20
914.9717979689034
  0
LWPOLYLINE
  5
FA3
330
1F
100
AcDbEntity
  8
SANINDUSA
100
AcDbPolyline
 90
       11
 70
   128
 43
0.0
 10
-13.86629563427731
 20
915.1092465692792
 10
-13.86373289566263
 20
915.1043579030373
 10
-13.8595937804206
 20
915.0969804316277
 10
-13.85520577624039
 20
915.0897866327253
 10
-13.85057398433346
 20
915.0827813930968
 10
-13.84568101986076
 20
915.0759400403499
 10
-13.84054363308282
 20
915.0692888451215
 10
-13.83515282648069
 20
915.062823887573
 10
-13.82959216556368
 20
915.0566385576997
 10
-13.82377340158739
 20
915.0506267699835
 10
-13.81775252930975
 20
915.0448304768223
  0
LWPOLYLINE
  5
FA5
330
1F
100
AcDbEntity
  8
SANINDUSA
100
AcDbPolyline
 90
        8
 70
   128
 43
0.0
 10
-13.87116042276193
 20
915.1170293290519
 10
-13.87065420592319
 20
915.1164023840751
 10
-13.86999721658075
 20
915.1155099748448
 10
-13.86922171769985
 20
915.1143632603423
 10
-13.8683919268053
 20
915.1130407385402
 10
-13.86752102716077
 20
915.1115496327884
 10
-13.8666618593019
 20
915.1099711115184
 10
-13.86629563427731
 20
915.1092465692792
  0
ARC
  5
FA7
330
1F
100
AcDbEntity
  8
SANINDUSA
100
AcDbCircle
 10
-13.88004080595788
 20
915.1360293290521
 30
0.0
 40
0.0059999999999999
100
AcDbArc
 50
90.0
 51
201.9968978927096
  0
ARC
  5
FA9
330
1F
100
AcDbEntity
  8
SANINDUSA
100
AcDbCircle
 10
-13.87494375095295
 20
915.1220293290519
 30
0.0
 40
0.0050000000000002
100
AcDbArc
 50
205.7067148391225
 51
270.0
  0
LINE
  5
FAC
330
1F
100
AcDbEntity
  8
SANINDUSA
100
AcDbLine
 10
-13.87116042276193
 20
915.1170293290519
 30
0.0
 11
-13.87494375095295
 21
915.1170293290519
 31
0.0
  0
ARC
  5
FAD
330
1F
100
AcDbEntity
  8
SANINDUSA
100
AcDbCircle
 10
-13.6675930343095
 20
915.2218504207562
 30
0.0
 40
0.2351272909534264
100
AcDbArc
 50
201.9968978927027
 51
205.7067148391236
  0
LWPOLYLINE
  5
FAE
330
1F
100
AcDbEntity
  8
SANINDUSA
100
AcDbPolyline
 90
        9
 70
   128
 43
0.0
 10
-13.81775252930975
 20
915.0448304768223
 10
-13.8168117106631
 20
915.0439613643053
 10
-13.81493066862251
 20
915.0421948674377
 10
-13.81323446293389
 20
915.0405702212729
 10
-13.81188272883679
 20
915.0392446753297
 10
-13.81076051693857
 20
915.0381122204359
 10
-13.80986492530997
 20
915.0371736731663
 10
-13.80922490679524
 20
915.0364684899049
 10
-13.80887929125331
 20
915.0360612247238
  0
LWPOLYLINE
  5
FB0
330
1F
100
AcDbEntity
  8
SANINDUSA
100
AcDbPolyline
 90
        3
 70
   128
 43
0.0
 10
-13.78995121316879
 20
915.035452749438
 10
-13.78992696015884
 20
915.0354292219038
 10
-13.7850330939221
 20
915.0301513773529
  0
LWPOLYLINE
  5
FB3
330
1F
100
AcDbEntity
  8
SANINDUSA
100
AcDbPolyline
 90
        4
 70
   128
 43
0.0
 10
-13.80766350120259
 20
915.034863941794
 10
-13.79558872502985
 20
915.0264540834907
 10
-13.78300404367892
 20
915.0188299930581
 10
-13.77656332049627
 20
915.0154753410941
  0
LWPOLYLINE
  5
FB6
330
1F
100
AcDbEntity
  8
SANINDUSA
100
AcDbPolyline
 90
        4
 70
   128
 43
0.0
 10
-13.80856041292281
 20
915.0356743294079
 10
-13.80854986262987
 20
915.0356614771913
 10
-13.80813725654332
 20
915.0352306920078
 10
-13.80766350120259
 20
915.034863941794
  0
LWPOLYLINE
  5
FB8
330
1F
100
AcDbEntity
  8
SANINDUSA
100
AcDbPolyline
 90
       10
 70
   128
 43
0.0
 10
-13.80887929125331
 20
915.0360612247238
 10
-13.80865079832413
 20
915.0356939485092
 10
-13.80849472471111
 20
915.0352546925013
 10
-13.80833334060528
 20
915.0345269587353
 10
-13.80817375785896
 20
915.0334790088235
 10
-13.80804568198933
 20
915.0321558914489
 10
-13.80796371651026
 20
915.0305650219008
 10
-13.80794026471484
 20
915.0287622916341
 10
-13.80798045982276
 20
915.0268432103855
 10
-13.8080102449809
 20
915.0262697285491
  0
LWPOLYLINE
  5
FBC
330
1F
100
AcDbEntity
  8
SANINDUSA
100
AcDbPolyline
 90
        7
 70
   128
 43
0.0
 10
-13.80579083551444
 20
915.0090878910239
 10
-13.80578076408706
 20
915.0090765123524
 10
-13.8057752376657
 20
915.00907029769
 10
-13.80576754134009
 20
915.0090616774187
 10
-13.80574556571607
 20
915.0090372824079
 10
-13.80536493879547
 20
915.00866025847
 10
-13.80491306350831
 20
915.0083024160617
  0
LWPOLYLINE
  5
FBD
330
1F
100
AcDbEntity
  8
SANINDUSA
100
AcDbPolyline
 90
        5
 70
   128
 43
0.0
 10
-13.80737048171526
 20
915.0108886365153
 10
-13.8071286363635
 20
915.0106120284144
 10
-13.80647212936138
 20
915.0098629446707
 10
-13.80603611558029
 20
915.0093665459893
 10
-13.80579083551444
 20
915.0090878910239
  0
ARC
  5
FC3
330
1F
100
AcDbEntity
  8
SANINDUSA
100
AcDbCircle
 10
-13.80286804579898
 20
914.9949353625785
 30
0.0
 40
0.0100000000000002
100
AcDbArc
 50
11.57703035459962
 51
57.25263156483125
  0
ARC
  5
FC5
330
1F
100
AcDbEntity
  8
SANINDUSA
100
AcDbCircle
 10
-13.63847054080922
 20
915.2505457124531
 30
0.0
 40
0.2939131300386357
100
AcDbArc
 50
235.5074997922252
 51
237.2526315648324
  0
ARC
  5
FC8
330
1F
100
AcDbEntity
  8
SANINDUSA
100
AcDbCircle
 10
-13.80356487438569
 20
915.0141368372496
 30
0.0
 40
0.0050000000000002
100
AcDbArc
 50
177.3275387820036
 51
221.1549190091458
  0
LINE
  5
FCC
330
1F
100
AcDbEntity
  8
SANINDUSA
100
AcDbLine
 10
-13.80800441086098
 20
915.0262689021287
 30
0.0
 11
-13.80855943669002
 21
915.0143699624274
 31
0.0
  0
LWPOLYLINE
  5
FD0
330
1F
100
AcDbEntity
  8
SANINDUSA
100
AcDbPolyline
 90
        8
 70
   128
 43
0.0
 10
-13.78500429616448
 20
915.0301733131021
 10
-13.78331636436455
 20
915.0281428750741
 10
-13.78126202633789
 20
915.0252151369748
 10
-13.77944640376562
 20
915.0221235478564
 10
-13.77789453473645
 20
915.0189185238449
 10
-13.77659903245638
 20
915.015594032719
 10
-13.77557106380126
 20
915.0121774946828
 10
-13.77544343288498
 20
915.0115864745805
  0
LINE
  5
FD4
330
1F
100
AcDbEntity
  8
SANINDUSA
100
AcDbLine
 10
-13.57104080595788
 20
914.987029329052
 30
0.0
 11
-13.56597259666119
 21
915.0117700703262
 31
0.0
  0
ARC
  5
FD5
330
1F
100
AcDbEntity
  8
SANINDUSA
100
AcDbCircle
 10
-13.63509189016488
 20
914.9840281713951
 30
0.0
 40
0.01
100
AcDbArc
 50
162.5354435904184
 51
177.9999999999833
  0
ARC
  5
FD6
330
1F
100
AcDbEntity
  8
SANINDUSA
100
AcDbCircle
 10
-13.64700649473268
 20
914.9580293290521
 30
0.0
 40
0.0010000000000001
100
AcDbArc
 50
270.0
 51
358.0000000000094
  0
LINE
  5
FD7
330
1F
100
AcDbEntity
  8
SANINDUSA
100
AcDbLine
 10
-13.64600710390566
 20
914.9579944295552
 30
0.0
 11
-13.64508579843507
 21
914.9843771663622
 31
0.0
  0
ARC
  5
FD8
330
1F
100
AcDbEntity
  8
SANINDUSA
100
AcDbCircle
 10
-13.69448857760625
 20
915.2218504207562
 30
0.0
 40
0.2351272909534264
100
AcDbArc
 50
307.5565444836467
 51
338.0031021072974
  0
ARC
  5
FD9
330
1F
100
AcDbEntity
  8
SANINDUSA
100
AcDbCircle
 10
-13.52678636537311
 20
915.003742662436
 30
0.0
 40
0.0400000000000002
100
AcDbArc
 50
127.5565444836467
 51
168.4229696454071
  0
ARC
  5
FDA
330
1F
100
AcDbEntity
  8
SANINDUSA
100
AcDbCircle
 10
-13.48204080595788
 20
915.1360293290521
 30
0.0
 40
0.0059999999999999
100
AcDbArc
 50
338.0031021072974
 51
90.0
  0
ENDSEC
  0
SECTION
  2
OBJECTS
  0
DICTIONARY
  5
C
330
0
100
AcDbDictionary
281
     1
  3
ACAD_COLOR
350
113E
  3
ACAD_GROUP
350
D
  3
ACAD_LAYOUT
350
1A
  3
ACAD_MATERIAL
350
1111
  3
ACAD_MLEADERSTYLE
350
1153
  3
ACAD_MLINESTYLE
350
17
  3
ACAD_PLOTSETTINGS
350
19
  3
ACAD_PLOTSTYLENAME
350
E
  3
ACAD_SCALELIST
350
1141
  3
ACAD_TABLESTYLE
350
113F
  3
ACAD_VISUALSTYLE
350
112A
  3
ACDB_RECOMPOSE_DATA
350
1180
  3
AcDbVariableDictionary
350
3D
  3
ASE_INDEX_DICTIONARY
350
110C
  3
DWGPROPS
350
1181
  0
DICTIONARY
  5
115A
330
10
100
AcDbDictionary
280
     1
281
     1
  3
ADSK_XREC_LAYER_RECONCILED
360
115B
  0
DICTIONARY
  5
115C
330
2F
100
AcDbDictionary
280
     1
281
     1
  3
ADSK_XREC_LAYER_RECONCILED
360
115D
  0
DICTIONARY
  5
115E
330
30
100
AcDbDictionary
280
     1
281
     1
  3
ADSK_XREC_LAYER_RECONCILED
360
115F
  0
DICTIONARY
  5
1160
330
31
100
AcDbDictionary
280
     1
281
     1
  3
ADSK_XREC_LAYER_RECONCILED
360
1161
  0
DICTIONARY
  5
1162
330
32
100
AcDbDictionary
280
     1
281
     1
  3
ADSK_XREC_LAYER_RECONCILED
360
1163
  0
DICTIONARY
  5
1164
330
33
100
AcDbDictionary
280
     1
281
     1
  3
ADSK_XREC_LAYER_RECONCILED
360
1165
  0
DICTIONARY
  5
1166
330
34
100
AcDbDictionary
280
     1
281
     1
  3
ADSK_XREC_LAYER_RECONCILED
360
1167
  0
DICTIONARY
  5
1168
330
35
100
AcDbDictionary
280
     1
281
     1
  3
ADSK_XREC_LAYER_RECONCILED
360
1169
  0
DICTIONARY
  5
116A
330
36
100
AcDbDictionary
280
     1
281
     1
  3
ADSK_XREC_LAYER_RECONCILED
360
116B
  0
DICTIONARY
  5
116C
330
37
100
AcDbDictionary
280
     1
281
     1
  3
ADSK_XREC_LAYER_RECONCILED
360
116D
  0
DICTIONARY
  5
116E
330
5D6
100
AcDbDictionary
280
     1
281
     1
  3
ADSK_XREC_LAYER_RECONCILED
360
116F
  0
DICTIONARY
  5
1170
330
8AF
100
AcDbDictionary
280
     1
281
     1
  3
ADSK_XREC_LAYER_RECONCILED
360
1171
  0
DICTIONARY
  5
1172
330
8F8
100
AcDbDictionary
280
     1
281
     1
  3
ADSK_XREC_LAYER_RECONCILED
360
1173
  0
DICTIONARY
  5
1174
330
91D
100
AcDbDictionary
280
     1
281
     1
  3
ADSK_XREC_LAYER_RECONCILED
360
1175
  0
DICTIONARY
  5
1176
330
BA5
100
AcDbDictionary
280
     1
281
     1
  3
ADSK_XREC_LAYER_RECONCILED
360
1177
  0
DICTIONARY
  5
113E
102
{ACAD_REACTORS
330
C
102
}
330
C
100
AcDbDictionary
281
     1
  0
DICTIONARY
  5
D
102
{ACAD_REACTORS
330
C
102
}
330
C
100
AcDbDictionary
281
     1
  0
DICTIONARY
  5
1A
102
{ACAD_REACTORS
330
C
102
}
330
C
100
AcDbDictionary
281
     1
  3
Layout1
350
1E
  3
Layout2
350
26
  3
Model
350
22
  0
DICTIONARY
  5
1111
102
{ACAD_REACTORS
330
C
102
}
330
C
100
AcDbDictionary
281
     1
  3
ByBlock
350
111A
  3
ByLayer
350
1112
  3
Global
350
1122
  0
DICTIONARY
  5
1153
102
{ACAD_REACTORS
330
C
102
}
330
C
100
AcDbDictionary
281
     1
  3
Standard
350
1154
  0
DICTIONARY
  5
17
102
{ACAD_REACTORS
330
C
102
}
330
C
100
AcDbDictionary
281
     1
  3
Standard
350
18
  0
DICTIONARY
  5
19
102
{ACAD_REACTORS
330
C
102
}
330
C
100
AcDbDictionary
281
     1
  0
ACDBDICTIONARYWDFLT
  5
E
102
{ACAD_REACTORS
330
C
102
}
330
C
100
AcDbDictionary
281
     1
  3
Normal
350
F
100
AcDbDictionaryWithDefault
340
F
  0
DICTIONARY
  5
1141
102
{ACAD_REACTORS
330
C
102
}
330
C
100
AcDbDictionary
281
     1
  3
A0
350
1142
  3
A1
350
1143
  3
A2
350
1144
  3
A3
350
1145
  3
A4
350
1146
  3
A5
350
1147
  3
A6
350
1148
  3
A7
350
1149
  3
A8
350
114A
  3
A9
350
114B
  3
B0
350
114C
  3
B1
350
114D
  3
B2
350
114E
  3
B3
350
114F
  3
B4
350
1150
  3
B5
350
1151
  3
B6
350
1152
  0
DICTIONARY
  5
113F
102
{ACAD_REACTORS
330
C
102
}
330
C
100
AcDbDictionary
281
     1
  3
Standard
350
1140
  0
DICTIONARY
  5
112A
102
{ACAD_REACTORS
330
C
102
}
330
C
100
AcDbDictionary
281
     1
  3
2dWireframe
350
1130
  3
3D Hidden
350
1132
  3
3dWireframe
350
1131
  3
Basic
350
112F
  3
Brighten
350
1136
  3
ColorChange
350
113A
  3
Conceptual
350
1133
  3
Dim
350
1135
  3
EdgeColorOff
350
113D
  3
Facepattern
350
1139
  3
Flat
350
112B
  3
FlatWithEdges
350
112C
  3
Gouraud
350
112D
  3
GouraudWithEdges
350
112E
  3
JitterOff
350
113B
  3
Linepattern
350
1138
  3
OverhangOff
350
113C
  3
Realistic
350
1134
  3
Thicken
350
1137
  0
XRECORD
  5
1180
102
{ACAD_REACTORS
330
C
102
}
330
C
100
AcDbXrecord
280
     1
 90
        1
330
1140
  0
DICTIONARY
  5
3D
102
{ACAD_REACTORS
330
C
102
}
330
C
100
AcDbDictionary
281
     1
  3
CANNOSCALE
350
117A
  3
CMLEADERSTYLE
350
1179
  3
CTABLESTYLE
350
1178
  3
DIMASSOC
350
3F
  3
HIDETEXT
350
3E
  3
INDEXCTL
350
117C
  3
SORTENTS
350
117B
  3
XCLIPFRAME
350
117D
  0
DICTIONARY
  5
110C
102
{ACAD_REACTORS
330
C
102
}
330
C
100
AcDbDictionary
281
     1
  3
ASEBlockHierarchyIndexRecord
350
110D
1001
DCO15
1040
1529149159.906
  0
XRECORD
  5
1181
102
{ACAD_REACTORS
330
C
102
}
330
C
100
AcDbXrecord
280
     1
  1
DWGPROPS COOKIE
  2

  3

  4

  6

  7

  8
Julio
  9

300
=
301
=
302
=
303
=
304
=
305
=
306
=
307
=
308
=
309
=
 40
0.0030494097222222
 41
2453501.694815348
 42
2456141.519620764
  1

 90
        0
  0
XRECORD
  5
115B
102
{ACAD_REACTORS
330
115A
102
}
330
115A
100
AcDbXrecord
280
     1
290
     1
  0
XRECORD
  5
115D
102
{ACAD_REACTORS
330
115C
102
}
330
115C
100
AcDbXrecord
280
     1
290
     1
  0
XRECORD
  5
115F
102
{ACAD_REACTORS
330
115E
102
}
330
115E
100
AcDbXrecord
280
     1
290
     1
  0
XRECORD
  5
1161
102
{ACAD_REACTORS
330
1160
102
}
330
1160
100
AcDbXrecord
280
     1
290
     1
  0
XRECORD
  5
1163
102
{ACAD_REACTORS
330
1162
102
}
330
1162
100
AcDbXrecord
280
     1
290
     1
  0
XRECORD
  5
1165
102
{ACAD_REACTORS
330
1164
102
}
330
1164
100
AcDbXrecord
280
     1
290
     1
  0
XRECORD
  5
1167
102
{ACAD_REACTORS
330
1166
102
}
330
1166
100
AcDbXrecord
280
     1
290
     1
  0
XRECORD
  5
1169
102
{ACAD_REACTORS
330
1168
102
}
330
1168
100
AcDbXrecord
280
     1
290
     1
  0
XRECORD
  5
116B
102
{ACAD_REACTORS
330
116A
102
}
330
116A
100
AcDbXrecord
280
     1
290
     1
  0
XRECORD
  5
116D
102
{ACAD_REACTORS
330
116C
102
}
330
116C
100
AcDbXrecord
280
     1
290
     1
  0
XRECORD
  5
116F
102
{ACAD_REACTORS
330
116E
102
}
330
116E
100
AcDbXrecord
280
     1
290
     1
  0
XRECORD
  5
1171
102
{ACAD_REACTORS
330
1170
102
}
330
1170
100
AcDbXrecord
280
     1
290
     1
  0
XRECORD
  5
1173
102
{ACAD_REACTORS
330
1172
102
}
330
1172
100
AcDbXrecord
280
     1
290
     1
  0
XRECORD
  5
1175
102
{ACAD_REACTORS
330
1174
102
}
330
1174
100
AcDbXrecord
280
     1
290
     1
  0
XRECORD
  5
1177
102
{ACAD_REACTORS
330
1176
102
}
330
1176
100
AcDbXrecord
280
     1
290
     1
  0
LAYOUT
  5
1E
102
{ACAD_XDICTIONARY
360
1182
102
}
102
{ACAD_REACTORS
330
1A
102
}
330
1A
100
AcDbPlotSettings
  1

  2
Ploter HP500
  4

  6

 40
0.0
 41
0.0
 42
0.0
 43
0.0
 44
0.0
 45
0.0
 46
0.0
 47
0.0
 48
0.0
 49
0.0
140
0.0
141
0.0
142
1.0
143
1.0
 70
   688
 72
     0
 73
     0
 74
     5
  7
monochrome.ctb
 75
    16
147
1.0
148
0.0
149
0.0
100
AcDbLayout
  1
Layout1
 70
     1
 71
     1
 10
0.0
 20
0.0
 11
420.0
 21
297.0
 12
0.0
 22
0.0
 32
0.0
 14
1.000000000000000E+20
 24
1.000000000000000E+20
 34
1.000000000000000E+20
 15
-1.000000000000000E+20
 25
-1.000000000000000E+20
 35
-1.000000000000000E+20
146
0.0
 13
0.0
 23
0.0
 33
0.0
 16
1.0
 26
0.0
 36
0.0
 17
0.0
 27
1.0
 37
0.0
 76
     0
330
1B
  0
LAYOUT
  5
26
102
{ACAD_XDICTIONARY
360
1186
102
}
102
{ACAD_REACTORS
330
1A
102
}
330
1A
100
AcDbPlotSettings
  1

  2
Ploter HP500
  4

  6

 40
0.0
 41
0.0
 42
0.0
 43
0.0
 44
0.0
 45
0.0
 46
0.0
 47
0.0
 48
0.0
 49
0.0
140
0.0
141
0.0
142
1.0
143
1.0
 70
   688
 72
     0
 73
     0
 74
     5
  7
monochrome.ctb
 75
    16
147
1.0
148
0.0
149
0.0
100
AcDbLayout
  1
Layout2
 70
     1
 71
     2
 10
0.0
 20
0.0
 11
12.0
 21
9.0
 12
0.0
 22
0.0
 32
0.0
 14
0.0
 24
0.0
 34
0.0
 15
0.0
 25
0.0
 35
0.0
146
0.0
 13
0.0
 23
0.0
 33
0.0
 16
1.0
 26
0.0
 36
0.0
 17
0.0
 27
1.0
 37
0.0
 76
     0
330
23
  0
LAYOUT
  5
22
102
{ACAD_XDICTIONARY
360
1184
102
}
102
{ACAD_REACTORS
330
1A
102
}
330
1A
100
AcDbPlotSettings
  1

  2
Ploter HP500
  4
User268
  6

 40
4.995333194732666
 41
16.97565841674804
 42
4.995330810546875
 43
16.97567749023437
 44
209.9733276367187
 45
296.9259948730469
 46
0.0
 47
0.0
 48
0.0
 49
0.0
140
0.0
141
0.0
142
1.0
143
1.0
 70
 11952
 72
     1
 73
     1
 74
     0
  7

 75
     0
147
1.0
148
-427.5957866592534
149
7.362384574453926
100
AcDbLayout
  1
Model
 70
     1
 71
     0
 10
0.0
 20
0.0
 11
12.0
 21
9.0
 12
0.0
 22
0.0
 32
0.0
 14
0.0
 24
0.0
 34
0.0
 15
0.0
 25
0.0
 35
0.0
146
0.0
 13
0.0
 23
0.0
 33
0.0
 16
1.0
 26
0.0
 36
0.0
 17
0.0
 27
1.0
 37
0.0
 76
     0
330
1F
331
110F
  0
MATERIAL
  5
111A
102
{ACAD_XDICTIONARY
360
111B
102
}
102
{ACAD_REACTORS
330
1111
102
}
330
1111
100
AcDbMaterial
  1
ByBlock
 72
     0
 43
0.0008202099737533
 43
0.0
 43
0.0
 43
0.0
 43
0.0
 43
0.0008202099737533
 43
0.0
 43
0.0
 43
0.0
 43
0.0
 43
1.0
 43
0.0
 43
0.0
 43
0.0
 43
0.0
 43
1.0
 77
     0
 47
0.0008202099737533
 47
0.0
 47
0.0
 47
0.0
 47
0.0
 47
0.0008202099737533
 47
0.0
 47
0.0
 47
0.0
 47
0.0
 47
1.0
 47
0.0
 47
0.0
 47
0.0
 47
0.0
 47
1.0
171
     0
 49
0.0008202099737533
 49
0.0
 49
0.0
 49
0.0
 49
0.0
 49
0.0008202099737533
 49
0.0
 49
0.0
 49
0.0
 49
0.0
 49
1.0
 49
0.0
 49
0.0
 49
0.0
 49
0.0
 49
1.0
175
     0
142
0.0008202099737533
142
0.0
142
0.0
142
0.0
142
0.0
142
0.0008202099737533
142
0.0
142
0.0
142
0.0
142
0.0
142
1.0
142
0.0
142
0.0
142
0.0
142
0.0
142
1.0
179
     0
144
0.0008202099737533
144
0.0
144
0.0
144
0.0
144
0.0
144
0.0008202099737533
144
0.0
144
0.0
144
0.0
144
0.0
144
1.0
144
0.0
144
0.0
144
0.0
144
0.0
144
1.0
147
0.0008202099737533
147
0.0
147
0.0
147
0.0
147
0.0
147
0.0008202099737533
147
0.0
147
0.0
147
0.0
147
0.0
147
1.0
147
0.0
147
0.0
147
0.0
147
0.0
147
1.0
  0
MATERIAL
  5
1112
102
{ACAD_XDICTIONARY
360
1113
102
}
102
{ACAD_REACTORS
330
1111
102
}
330
1111
100
AcDbMaterial
  1
ByLayer
 72
     0
 43
0.0008202099737533
 43
0.0
 43
0.0
 43
0.0
 43
0.0
 43
0.0008202099737533
 43
0.0
 43
0.0
 43
0.0
 43
0.0
 43
1.0
 43
0.0
 43
0.0
 43
0.0
 43
0.0
 43
1.0
 77
     0
 47
0.0008202099737533
 47
0.0
 47
0.0
 47
0.0
 47
0.0
 47
0.0008202099737533
 47
0.0
 47
0.0
 47
0.0
 47
0.0
 47
1.0
 47
0.0
 47
0.0
 47
0.0
 47
0.0
 47
1.0
171
     0
 49
0.0008202099737533
 49
0.0
 49
0.0
 49
0.0
 49
0.0
 49
0.0008202099737533
 49
0.0
 49
0.0
 49
0.0
 49
0.0
 49
1.0
 49
0.0
 49
0.0
 49
0.0
 49
0.0
 49
1.0
175
     0
142
0.0008202099737533
142
0.0
142
0.0
142
0.0
142
0.0
142
0.0008202099737533
142
0.0
142
0.0
142
0.0
142
0.0
142
1.0
142
0.0
142
0.0
142
0.0
142
0.0
142
1.0
179
     0
144
0.0008202099737533
144
0.0
144
0.0
144
0.0
144
0.0
144
0.0008202099737533
144
0.0
144
0.0
144
0.0
144
0.0
144
1.0
144
0.0
144
0.0
144
0.0
144
0.0
144
1.0
147
0.0008202099737533
147
0.0
147
0.0
147
0.0
147
0.0
147
0.0008202099737533
147
0.0
147
0.0
147
0.0
147
0.0
147
1.0
147
0.0
147
0.0
147
0.0
147
0.0
147
1.0
  0
MATERIAL
  5
1122
102
{ACAD_XDICTIONARY
360
1123
102
}
102
{ACAD_REACTORS
330
1111
102
}
330
1111
100
AcDbMaterial
  1
Global
 72
     0
 43
0.0008202099737533
 43
0.0
 43
0.0
 43
0.0
 43
0.0
 43
0.0008202099737533
 43
0.0
 43
0.0
 43
0.0
 43
0.0
 43
1.0
 43
0.0
 43
0.0
 43
0.0
 43
0.0
 43
1.0
 77
     0
 47
0.0008202099737533
 47
0.0
 47
0.0
 47
0.0
 47
0.0
 47
0.0008202099737533
 47
0.0
 47
0.0
 47
0.0
 47
0.0
 47
1.0
 47
0.0
 47
0.0
 47
0.0
 47
0.0
 47
1.0
171
     0
 49
0.0008202099737533
 49
0.0
 49
0.0
 49
0.0
 49
0.0
 49
0.0008202099737533
 49
0.0
 49
0.0
 49
0.0
 49
0.0
 49
1.0
 49
0.0
 49
0.0
 49
0.0
 49
0.0
 49
1.0
175
     0
142
0.0008202099737533
142
0.0
142
0.0
142
0.0
142
0.0
142
0.0008202099737533
142
0.0
142
0.0
142
0.0
142
0.0
142
1.0
142
0.0
142
0.0
142
0.0
142
0.0
142
1.0
179
     0
144
0.0008202099737533
144
0.0
144
0.0
144
0.0
144
0.0
144
0.0008202099737533
144
0.0
144
0.0
144
0.0
144
0.0
144
1.0
144
0.0
144
0.0
144
0.0
144
0.0
144
1.0
147
0.0008202099737533
147
0.0
147
0.0
147
0.0
147
0.0
147
0.0008202099737533
147
0.0
147
0.0
147
0.0
147
0.0
147
1.0
147
0.0
147
0.0
147
0.0
147
0.0
147
1.0
  0
MLEADERSTYLE
  5
1154
102
{ACAD_REACTORS
330
1153
102
}
330
1153
100
AcDbMLeaderStyle
170
     2
171
     1
172
     0
 90
        2
 40
0.0
 41
0.0
173
     1
 91
-1056964608
340
14
 92
       -2
290
     1
 42
2.0
291
     1
 43
0.36
  3
Standard
 44
4.0
300

342
11
174
     1
178
     6
175
     1
176
     0
 93
-1056964608
 45
4.0
292
     0
297
     0
 46
4.0
 94
-1056964608
 47
1.0
 49
1.0
140
1.0
293
     1
141
0.0
294
     1
177
     0
142
1.0
295
     0
296
     0
143
0.125
1001
ACAD_MLEADERVER
1070
     2
  0
MLINESTYLE
  5
18
102
{ACAD_REACTORS
330
17
102
}
330
17
100
AcDbMlineStyle
  2
STANDARD
 70
     0
  3

 62
   256
 51
90.0
 52
90.0
 71
     2
 49
0.5
 62
   256
  6
BYLAYER
 49
-0.5
 62
   256
  6
BYLAYER
  0
ACDBPLACEHOLDER
  5
F
102
{ACAD_REACTORS
330
E
102
}
330
E
  0
SCALE
  5
1142
102
{ACAD_REACTORS
330
1141
102
}
330
1141
100
AcDbScale
 70
     0
300
1:1
140
1.0
141
1.0
290
     1
  0
SCALE
  5
1143
102
{ACAD_REACTORS
330
1141
102
}
330
1141
100
AcDbScale
 70
     0
300
1:2
140
1.0
141
2.0
290
     0
  0
SCALE
  5
1144
102
{ACAD_REACTORS
330
1141
102
}
330
1141
100
AcDbScale
 70
     0
300
1:4
140
1.0
141
4.0
290
     0
  0
SCALE
  5
1145
102
{ACAD_REACTORS
330
1141
102
}
330
1141
100
AcDbScale
 70
     0
300
1:5
140
1.0
141
5.0
290
     0
  0
SCALE
  5
1146
102
{ACAD_REACTORS
330
1141
102
}
330
1141
100
AcDbScale
 70
     0
300
1:8
140
1.0
141
8.0
290
     0
  0
SCALE
  5
1147
102
{ACAD_REACTORS
330
1141
102
}
330
1141
100
AcDbScale
 70
     0
300
1:10
140
1.0
141
10.0
290
     0
  0
SCALE
  5
1148
102
{ACAD_REACTORS
330
1141
102
}
330
1141
100
AcDbScale
 70
     0
300
1:16
140
1.0
141
16.0
290
     0
  0
SCALE
  5
1149
102
{ACAD_REACTORS
330
1141
102
}
330
1141
100
AcDbScale
 70
     0
300
1:20
140
1.0
141
20.0
290
     0
  0
SCALE
  5
114A
102
{ACAD_REACTORS
330
1141
102
}
330
1141
100
AcDbScale
 70
     0
300
1:30
140
1.0
141
30.0
290
     0
  0
SCALE
  5
114B
102
{ACAD_REACTORS
330
1141
102
}
330
1141
100
AcDbScale
 70
     0
300
1:40
140
1.0
141
40.0
290
     0
  0
SCALE
  5
114C
102
{ACAD_REACTORS
330
1141
102
}
330
1141
100
AcDbScale
 70
     0
300
1:50
140
1.0
141
50.0
290
     0
  0
SCALE
  5
114D
102
{ACAD_REACTORS
330
1141
102
}
330
1141
100
AcDbScale
 70
     0
300
1:100
140
1.0
141
100.0
290
     0
  0
SCALE
  5
114E
102
{ACAD_REACTORS
330
1141
102
}
330
1141
100
AcDbScale
 70
     0
300
2:1
140
2.0
141
1.0
290
     0
  0
SCALE
  5
114F
102
{ACAD_REACTORS
330
1141
102
}
330
1141
100
AcDbScale
 70
     0
300
4:1
140
4.0
141
1.0
290
     0
  0
SCALE
  5
1150
102
{ACAD_REACTORS
330
1141
102
}
330
1141
100
AcDbScale
 70
     0
300
8:1
140
8.0
141
1.0
290
     0
  0
SCALE
  5
1151
102
{ACAD_REACTORS
330
1141
102
}
330
1141
100
AcDbScale
 70
     0
300
10:1
140
10.0
141
1.0
290
     0
  0
SCALE
  5
1152
102
{ACAD_REACTORS
330
1141
102
}
330
1141
100
AcDbScale
 70
     0
300
100:1
140
100.0
141
1.0
290
     0
  0
TABLESTYLE
  5
1140
102
{ACAD_XDICTIONARY
360
117E
102
}
102
{ACAD_REACTORS
330
113F
102
}
330
113F
100
AcDbTableStyle
  3
Standard
 70
     0
 71
     0
 40
1.5
 41
1.5
280
     0
281
     0
  7
Standard
140
4.5
170
     2
 62
     0
 63
     7
283
     0
274
    -2
284
     1
 64
     0
275
    -2
285
     1
 65
     0
276
    -2
286
     1
 66
     0
277
    -2
287
     1
 67
     0
278
    -2
288
     1
 68
     0
279
    -2
289
     1
 69
     0
  7
Standard
140
6.0
170
     5
 62
     0
 63
     7
283
     0
274
    -2
284
     1
 64
     0
275
    -2
285
     1
 65
     0
276
    -2
286
     1
 66
     0
277
    -2
287
     1
 67
     0
278
    -2
288
     1
 68
     0
279
    -2
289
     1
 69
     0
  7
Standard
140
4.5
170
     5
 62
     0
 63
     7
283
     0
274
    -2
284
     1
 64
     0
275
    -2
285
     1
 65
     0
276
    -2
286
     1
 66
     0
277
    -2
287
     1
 67
     0
278
    -2
288
     1
 68
     0
279
    -2
289
     1
 69
     0
  0
VISUALSTYLE
  5
1130
102
{ACAD_XDICTIONARY
360
11A9
102
}
102
{ACAD_REACTORS
330
112A
102
}
330
112A
100
AcDbVisualStyle
  2
2dWireframe
 70
     4
 71
     0
 72
     2
 73
     0
 90
        0
 40
-0.6
 41
-30.0
 62
     5
 63
     7
 74
     1
 91
        4
 64
     7
 65
   257
 75
     1
175
     1
 42
1.0
 92
        0
 66
   257
 43
1.0
 76
     1
 77
     6
 78
     2
 67
     7
 79
     5
170
     0
171
     0
290
     0
174
     0
 93
        1
 44
0.0
173
     0
291
     0
 45
0.0
1001
ACAD
1000
AcDbSavedByObjectVersion
1070
     0
  0
VISUALSTYLE
  5
1132
102
{ACAD_XDICTIONARY
360
11AD
102
}
102
{ACAD_REACTORS
330
112A
102
}
330
112A
100
AcDbVisualStyle
  2
3D Hidden
 70
     6
 71
     1
 72
     2
 73
     2
 90
        0
 40
-0.6
 41
-30.0
 62
     5
 63
     7
 74
     2
 91
        2
 64
     7
 65
   257
 75
     2
175
     1
 42
179.0
 92
        0
 66
   257
 43
1.0
 76
     1
 77
     6
 78
     2
 67
     7
 79
     3
170
     0
171
     0
290
     0
174
     0
 93
        1
 44
0.0
173
     0
291
     0
 45
0.0
1001
ACAD
1000
AcDbSavedByObjectVersion
1070
     0
  0
VISUALSTYLE
  5
1131
102
{ACAD_XDICTIONARY
360
11AB
102
}
102
{ACAD_REACTORS
330
112A
102
}
330
112A
100
AcDbVisualStyle
  2
3dWireframe
 70
     5
 71
     0
 72
     2
 73
     0
 90
        0
 40
-0.6
 41
-30.0
 62
     5
 63
     7
 74
     1
 91
        4
 64
     7
 65
   257
 75
     1
175
     1
 42
1.0
 92
        0
 66
   257
 43
1.0
 76
     1
 77
     6
 78
     2
 67
     7
 79
     5
170
     0
171
     0
290
     0
174
     0
 93
        1
 44
0.0
173
     0
291
     0
 45
0.0
1001
ACAD
1000
AcDbSavedByObjectVersion
1070
     0
  0
VISUALSTYLE
  5
112F
102
{ACAD_XDICTIONARY
360
11A7
102
}
102
{ACAD_REACTORS
330
112A
102
}
330
112A
100
AcDbVisualStyle
  2
Basic
 70
     7
 71
     1
 72
     0
 73
     1
 90
        0
 40
-0.6
 41
-30.0
 62
     5
 63
     7
 74
     0
 91
        4
 64
     7
 65
   257
 75
     1
175
     1
 42
1.0
 92
        8
 66
     7
 43
1.0
 76
     1
 77
     6
 78
     2
 67
     7
 79
     5
170
     0
171
     0
290
     0
174
     0
 93
        1
 44
0.0
173
     0
291
     1
 45
0.0
1001
ACAD
1000
AcDbSavedByObjectVersion
1070
     0
  0
VISUALSTYLE
  5
1136
102
{ACAD_XDICTIONARY
360
11B5
102
}
102
{ACAD_REACTORS
330
112A
102
}
330
112A
100
AcDbVisualStyle
  2
Brighten
 70
    12
 71
     2
 72
     2
 73
     0
 90
        0
 40
-0.6
 41
-30.0
 62
     5
 63
     7
 74
     1
 91
        4
 64
     7
 65
   257
 75
     1
175
     1
 42
1.0
 92
        8
 66
     7
 43
1.0
 76
     1
 77
     6
 78
     2
 67
     7
 79
     5
170
     0
171
     0
290
     0
174
     0
 93
        1
 44
50.0
173
     0
291
     1
 45
0.0
1001
ACAD
1000
AcDbSavedByObjectVersion
1070
     0
  0
VISUALSTYLE
  5
113A
102
{ACAD_XDICTIONARY
360
11BD
102
}
102
{ACAD_REACTORS
330
112A
102
}
330
112A
100
AcDbVisualStyle
  2
ColorChange
 70
    16
 71
     2
 72
     2
 73
     3
 90
        0
 40
-0.6
 41
-30.0
 62
     5
 63
     8
 74
     1
 91
        4
 64
     7
 65
   257
 75
     1
175
     1
 42
1.0
 92
        8
 66
     8
 43
1.0
 76
     1
 77
     6
 78
     2
 67
     7
 79
     5
170
     0
171
     0
290
     0
174
     0
 93
        1
 44
0.0
173
     0
291
     1
 45
0.0
1001
ACAD
1000
AcDbSavedByObjectVersion
1070
     0
  0
VISUALSTYLE
  5
1133
102
{ACAD_XDICTIONARY
360
11AF
102
}
102
{ACAD_REACTORS
330
112A
102
}
330
112A
100
AcDbVisualStyle
  2
Conceptual
 70
     9
 71
     3
 72
     2
 73
     0
 90
        0
 40
-0.6
 41
-30.0
 62
     5
 63
     7
 74
     2
 91
        2
 64
     7
 65
   257
 75
     1
175
     1
 42
179.0
 92
        8
 66
     7
 43
1.0
 76
     1
 77
     6
 78
     2
 67
     7
 79
     3
170
     0
171
     0
290
     0
174
     0
 93
        1
 44
0.0
173
     0
291
     0
 45
0.0
1001
ACAD
1000
AcDbSavedByObjectVersion
1070
     0
  0
VISUALSTYLE
  5
1135
102
{ACAD_XDICTIONARY
360
11B3
102
}
102
{ACAD_REACTORS
330
112A
102
}
330
112A
100
AcDbVisualStyle
  2
Dim
 70
    11
 71
     2
 72
     2
 73
     0
 90
        0
 40
-0.6
 41
-30.0
 62
     5
 63
     7
 74
     1
 91
        4
 64
     7
 65
   257
 75
     1
175
     1
 42
1.0
 92
        8
 66
     7
 43
1.0
 76
     1
 77
     6
 78
     2
 67
     7
 79
     5
170
     0
171
     0
290
     0
174
     0
 93
        1
 44
-50.0
173
     0
291
     1
 45
0.0
1001
ACAD
1000
AcDbSavedByObjectVersion
1070
     0
  0
VISUALSTYLE
  5
113D
102
{ACAD_XDICTIONARY
360
11C3
102
}
102
{ACAD_REACTORS
330
112A
102
}
330
112A
100
AcDbVisualStyle
  2
EdgeColorOff
 70
    22
 71
     2
 72
     2
 73
     0
 90
        0
 40
-0.6
 41
-30.0
 62
     5
 63
     7
 74
     1
 91
        4
 64
     7
 65
   257
 75
     1
175
     1
 42
1.0
 92
        8
 66
     7
 43
1.0
 76
     1
 77
     6
 78
     2
 67
     7
 79
     5
170
     0
171
     0
290
     0
174
     0
 93
        1
 44
0.0
173
     0
291
     1
 45
0.0
1001
ACAD
1000
AcDbSavedByObjectVersion
1070
     0
  0
VISUALSTYLE
  5
1139
102
{ACAD_XDICTIONARY
360
11BB
102
}
102
{ACAD_REACTORS
330
112A
102
}
330
112A
100
AcDbVisualStyle
  2
Facepattern
 70
    15
 71
     2
 72
     2
 73
     0
 90
        0
 40
-0.6
 41
-30.0
 62
     5
 63
     7
 74
     1
 91
        4
 64
     7
 65
   257
 75
     1
175
     1
 42
1.0
 92
        8
 66
     7
 43
1.0
 76
     1
 77
     6
 78
     2
 67
     7
 79
     5
170
     0
171
     0
290
     0
174
     0
 93
        1
 44
0.0
173
     0
291
     1
 45
0.0
1001
ACAD
1000
AcDbSavedByObjectVersion
1070
     0
  0
VISUALSTYLE
  5
112B
102
{ACAD_XDICTIONARY
360
119F
102
}
102
{ACAD_REACTORS
330
112A
102
}
330
112A
100
AcDbVisualStyle
  2
Flat
 70
     0
 71
     2
 72
     1
 73
     1
 90
        2
 40
-0.6
 41
30.0
 62
     5
 63
     7
 74
     0
 91
        4
 64
     7
 65
   257
 75
     1
175
     1
 42
1.0
 92
        8
 66
     7
 43
1.0
 76
     1
 77
     6
 78
     2
 67
     7
 79
     5
170
     0
171
     0
290
     0
174
     0
 93
       13
 44
0.0
173
     0
291
     1
 45
0.0
1001
ACAD
1000
AcDbSavedByObjectVersion
1070
     0
  0
VISUALSTYLE
  5
112C
102
{ACAD_XDICTIONARY
360
11A1
102
}
102
{ACAD_REACTORS
330
112A
102
}
330
112A
100
AcDbVisualStyle
  2
FlatWithEdges
 70
     1
 71
     2
 72
     1
 73
     1
 90
        2
 40
-0.6
 41
30.0
 62
     5
 63
     7
 74
     1
 91
        4
 64
     7
 65
   257
 75
     1
175
     1
 42
1.0
 92
        0
 66
   257
 43
1.0
 76
     1
 77
     6
 78
     2
 67
     7
 79
     5
170
     0
171
     0
290
     0
174
     0
 93
       13
 44
0.0
173
     0
291
     1
 45
0.0
1001
ACAD
1000
AcDbSavedByObjectVersion
1070
     0
  0
VISUALSTYLE
  5
112D
102
{ACAD_XDICTIONARY
360
11A3
102
}
102
{ACAD_REACTORS
330
112A
102
}
330
112A
100
AcDbVisualStyle
  2
Gouraud
 70
     2
 71
     2
 72
     2
 73
     1
 90
        2
 40
-0.6
 41
30.0
 62
     5
 63
     7
 74
     0
 91
        4
 64
     7
 65
   257
 75
     1
175
     1
 42
1.0
 92
        0
 66
     7
 43
1.0
 76
     1
 77
     6
 78
     2
 67
     7
 79
     5
170
     0
171
     0
290
     0
174
     0
 93
       13
 44
0.0
173
     0
291
     1
 45
0.0
1001
ACAD
1000
AcDbSavedByObjectVersion
1070
     0
  0
VISUALSTYLE
  5
112E
102
{ACAD_XDICTIONARY
360
11A5
102
}
102
{ACAD_REACTORS
330
112A
102
}
330
112A
100
AcDbVisualStyle
  2
GouraudWithEdges
 70
     3
 71
     2
 72
     2
 73
     1
 90
        2
 40
-0.6
 41
30.0
 62
     5
 63
     7
 74
     1
 91
        4
 64
     7
 65
   257
 75
     1
175
     1
 42
1.0
 92
        0
 66
   257
 43
1.0
 76
     1
 77
     6
 78
     2
 67
     7
 79
     5
170
     0
171
     0
290
     0
174
     0
 93
       13
 44
0.0
173
     0
291
     1
 45
0.0
1001
ACAD
1000
AcDbSavedByObjectVersion
1070
     0
  0
VISUALSTYLE
  5
113B
102
{ACAD_XDICTIONARY
360
11BF
102
}
102
{ACAD_REACTORS
330
112A
102
}
330
112A
100
AcDbVisualStyle
  2
JitterOff
 70
    20
 71
     2
 72
     2
 73
     0
 90
        0
 40
-0.6
 41
-30.0
 62
     5
 63
     7
 74
     1
 91
        4
 64
     7
 65
   257
 75
     1
175
     1
 42
1.0
 92
       10
 66
     7
 43
1.0
 76
     1
 77
     6
 78
     2
 67
     7
 79
     5
170
     0
171
     0
290
     0
174
     0
 93
        1
 44
0.0
173
     0
291
     1
 45
0.0
1001
ACAD
1000
AcDbSavedByObjectVersion
1070
     0
  0
VISUALSTYLE
  5
1138
102
{ACAD_XDICTIONARY
360
11B9
102
}
102
{ACAD_REACTORS
330
112A
102
}
330
112A
100
AcDbVisualStyle
  2
Linepattern
 70
    14
 71
     2
 72
     2
 73
     0
 90
        0
 40
-0.6
 41
-30.0
 62
     5
 63
     7
 74
     1
 91
        4
 64
     7
 65
   257
 75
     7
175
     7
 42
1.0
 92
        8
 66
     7
 43
1.0
 76
     1
 77
     6
 78
     2
 67
     7
 79
     5
170
     0
171
     0
290
     0
174
     0
 93
        1
 44
0.0
173
     0
291
     1
 45
0.0
1001
ACAD
1000
AcDbSavedByObjectVersion
1070
     0
  0
VISUALSTYLE
  5
113C
102
{ACAD_XDICTIONARY
360
11C1
102
}
102
{ACAD_REACTORS
330
112A
102
}
330
112A
100
AcDbVisualStyle
  2
OverhangOff
 70
    21
 71
     2
 72
     2
 73
     0
 90
        0
 40
-0.6
 41
-30.0
 62
     5
 63
     7
 74
     1
 91
        4
 64
     7
 65
   257
 75
     1
175
     1
 42
1.0
 92
        9
 66
     7
 43
1.0
 76
     1
 77
     6
 78
     2
 67
     7
 79
     5
170
     0
171
     0
290
     0
174
     0
 93
        1
 44
0.0
173
     0
291
     1
 45
0.0
1001
ACAD
1000
AcDbSavedByObjectVersion
1070
     0
  0
VISUALSTYLE
  5
1134
102
{ACAD_XDICTIONARY
360
11B1
102
}
102
{ACAD_REACTORS
330
112A
102
}
330
112A
100
AcDbVisualStyle
  2
Realistic
 70
     8
 71
     2
 72
     2
 73
     0
 90
        0
 40
-0.6
 41
-30.0
 62
     5
 63
     7
 74
     1
 91
        0
 64
     7
 65
   257
 75
     1
175
     1
 42
1.0
 92
        8
 66
     8
 43
1.0
 76
     1
 77
     6
 78
     2
 67
     7
 79
     5
170
     0
171
     0
290
     0
174
     0
 93
       13
 44
0.0
173
     0
291
     0
 45
0.0
1001
ACAD
1000
AcDbSavedByObjectVersion
1070
     0
  0
VISUALSTYLE
  5
1137
102
{ACAD_XDICTIONARY
360
11B7
102
}
102
{ACAD_REACTORS
330
112A
102
}
330
112A
100
AcDbVisualStyle
  2
Thicken
 70
    13
 71
     2
 72
     2
 73
     0
 90
        0
 40
-0.6
 41
-30.0
 62
     5
 63
     7
 74
     1
 91
        4
 64
     7
 65
   257
 75
     1
175
     1
 42
1.0
 92
       12
 66
     7
 43
1.0
 76
     1
 77
     6
 78
     2
 67
     7
 79
     5
170
     0
171
     0
290
     0
174
     0
 93
        1
 44
0.0
173
     0
291
     1
 45
0.0
1001
ACAD
1000
AcDbSavedByObjectVersion
1070
     0
  0
DICTIONARYVAR
  5
117A
102
{ACAD_REACTORS
330
3D
102
}
330
3D
100
DictionaryVariables
280
     0
  1
1:1
  0
DICTIONARYVAR
  5
1179
102
{ACAD_REACTORS
330
3D
102
}
330
3D
100
DictionaryVariables
280
     0
  1
STANDARD
  0
DICTIONARYVAR
  5
1178
102
{ACAD_REACTORS
330
3D
102
}
330
3D
100
DictionaryVariables
280
     0
  1
STANDARD
  0
DICTIONARYVAR
  5
3F
102
{ACAD_REACTORS
330
3D
102
}
330
3D
100
DictionaryVariables
280
     0
  1
2
  0
DICTIONARYVAR
  5
3E
102
{ACAD_REACTORS
330
3D
102
}
330
3D
100
DictionaryVariables
280
     0
  1
1
  0
DICTIONARYVAR
  5
117C
102
{ACAD_REACTORS
330
3D
102
}
330
3D
100
DictionaryVariables
280
     0
  1
0
  0
DICTIONARYVAR
  5
117B
102
{ACAD_REACTORS
330
3D
102
}
330
3D
100
DictionaryVariables
280
     0
  1
127
  0
DICTIONARYVAR
  5
117D
102
{ACAD_REACTORS
330
3D
102
}
330
3D
100
DictionaryVariables
280
     0
  1
2
  0
XRECORD
  5
110D
102
{ACAD_REACTORS
330
110C
102
}
330
110C
100
AcDbXrecord
280
     1
  0
DICTIONARY
  5
1182
330
1E
100
AcDbDictionary
280
     1
281
     1
  3
ACAD_XREC_ROUNDTRIP
360
1183
  0
DICTIONARY
  5
1186
330
26
100
AcDbDictionary
280
     1
281
     1
  3
ACAD_XREC_ROUNDTRIP
360
1187
  0
DICTIONARY
  5
1184
330
22
100
AcDbDictionary
280
     1
281
     1
  3
ACAD_XREC_ROUNDTRIP
360
1185
  0
DICTIONARY
  5
111B
330
111A
100
AcDbDictionary
280
     1
281
     1
  3
ACAD_XREC_ROUNDTRIP
360
119D
  3
BUMPTILE
360
111D
  3
DIFFUSETILE
360
111C
  3
OPACITYTILE
360
1120
  3
REFLECTIONTILE
360
111F
  3
REFRACTIONTILE
360
1121
  3
SPECULARTILE
360
111E
  0
DICTIONARY
  5
1113
330
1112
100
AcDbDictionary
280
     1
281
     1
  3
ACAD_XREC_ROUNDTRIP
360
119C
  3
BUMPTILE
360
1115
  3
DIFFUSETILE
360
1114
  3
OPACITYTILE
360
1118
  3
REFLECTIONTILE
360
1117
  3
REFRACTIONTILE
360
1119
  3
SPECULARTILE
360
1116
  0
DICTIONARY
  5
1123
330
1122
100
AcDbDictionary
280
     1
281
     1
  3
ACAD_XREC_ROUNDTRIP
360
119E
  3
BUMPTILE
360
1125
  3
DIFFUSETILE
360
1124
  3
OPACITYTILE
360
1128
  3
REFLECTIONTILE
360
1127
  3
REFRACTIONTILE
360
1129
  3
SPECULARTILE
360
1126
  0
DICTIONARY
  5
117E
330
1140
100
AcDbDictionary
280
     1
281
     1
  3
ACAD_ROUNDTRIP_2008_TABLESTYLE_CELLSTYLEMAP
360
117F
  3
ACAD_XREC_ROUNDTRIP
360
11C5
  0
DICTIONARY
  5
11A9
330
1130
100
AcDbDictionary
280
     1
281
     1
  3
ACAD_XREC_ROUNDTRIP
360
11AA
  0
DICTIONARY
  5
11AD
330
1132
100
AcDbDictionary
280
     1
281
     1
  3
ACAD_XREC_ROUNDTRIP
360
11AE
  0
DICTIONARY
  5
11AB
330
1131
100
AcDbDictionary
280
     1
281
     1
  3
ACAD_XREC_ROUNDTRIP
360
11AC
  0
DICTIONARY
  5
11A7
330
112F
100
AcDbDictionary
280
     1
281
     1
  3
ACAD_XREC_ROUNDTRIP
360
11A8
  0
DICTIONARY
  5
11B5
330
1136
100
AcDbDictionary
280
     1
281
     1
  3
ACAD_XREC_ROUNDTRIP
360
11B6
  0
DICTIONARY
  5
11BD
330
113A
100
AcDbDictionary
280
     1
281
     1
  3
ACAD_XREC_ROUNDTRIP
360
11BE
  0
DICTIONARY
  5
11AF
330
1133
100
AcDbDictionary
280
     1
281
     1
  3
ACAD_XREC_ROUNDTRIP
360
11B0
  0
DICTIONARY
  5
11B3
330
1135
100
AcDbDictionary
280
     1
281
     1
  3
ACAD_XREC_ROUNDTRIP
360
11B4
  0
DICTIONARY
  5
11C3
330
113D
100
AcDbDictionary
280
     1
281
     1
  3
ACAD_XREC_ROUNDTRIP
360
11C4
  0
DICTIONARY
  5
11BB
330
1139
100
AcDbDictionary
280
     1
281
     1
  3
ACAD_XREC_ROUNDTRIP
360
11BC
  0
DICTIONARY
  5
119F
330
112B
100
AcDbDictionary
280
     1
281
     1
  3
ACAD_XREC_ROUNDTRIP
360
11A0
  0
DICTIONARY
  5
11A1
330
112C
100
AcDbDictionary
280
     1
281
     1
  3
ACAD_XREC_ROUNDTRIP
360
11A2
  0
DICTIONARY
  5
11A3
330
112D
100
AcDbDictionary
280
     1
281
     1
  3
ACAD_XREC_ROUNDTRIP
360
11A4
  0
DICTIONARY
  5
11A5
330
112E
100
AcDbDictionary
280
     1
281
     1
  3
ACAD_XREC_ROUNDTRIP
360
11A6
  0
DICTIONARY
  5
11BF
330
113B
100
AcDbDictionary
280
     1
281
     1
  3
ACAD_XREC_ROUNDTRIP
360
11C0
  0
DICTIONARY
  5
11B9
330
1138
100
AcDbDictionary
280
     1
281
     1
  3
ACAD_XREC_ROUNDTRIP
360
11BA
  0
DICTIONARY
  5
11C1
330
113C
100
AcDbDictionary
280
     1
281
     1
  3
ACAD_XREC_ROUNDTRIP
360
11C2
  0
DICTIONARY
  5
11B1
330
1134
100
AcDbDictionary
280
     1
281
     1
  3
ACAD_XREC_ROUNDTRIP
360
11B2
  0
DICTIONARY
  5
11B7
330
1137
100
AcDbDictionary
280
     1
281
     1
  3
ACAD_XREC_ROUNDTRIP
360
11B8
  0
XRECORD
  5
1183
102
{ACAD_REACTORS
330
1182
102
}
330
1182
100
AcDbXrecord
280
     1
102
SHADEPLOT
 70
     0
102
SHADEPLOTRESLEVEL
 70
     2
102
SHADEPLOTCUSTOMDPI
 70
   300
  0
XRECORD
  5
1187
102
{ACAD_REACTORS
330
1186
102
}
330
1186
100
AcDbXrecord
280
     1
102
SHADEPLOT
 70
     0
102
SHADEPLOTRESLEVEL
 70
     2
102
SHADEPLOTCUSTOMDPI
 70
   300
  0
XRECORD
  5
1185
102
{ACAD_REACTORS
330
1184
102
}
330
1184
100
AcDbXrecord
280
     1
102
SHADEPLOT
 70
     0
102
SHADEPLOTRESLEVEL
 70
     2
102
SHADEPLOTCUSTOMDPI
 70
   300
  0
XRECORD
  5
119D
102
{ACAD_REACTORS
330
111B
102
}
330
111B
100
AcDbXrecord
280
     1
102
MATERIAL
148
0.0
149
0.0
149
0.0
 93
        0
 94
      127
282
     0
 72
     0
 77
     0
171
     0
175
     0
179
     0
273
     0
  0
XRECORD
  5
111D
102
{ACAD_REACTORS
330
111B
102
}
330
111B
100
AcDbXrecord
280
     1
270
     1
271
     1
  0
XRECORD
  5
111C
102
{ACAD_REACTORS
330
111B
102
}
330
111B
100
AcDbXrecord
280
     1
270
     1
271
     1
  0
XRECORD
  5
1120
102
{ACAD_REACTORS
330
111B
102
}
330
111B
100
AcDbXrecord
280
     1
270
     1
271
     1
  0
XRECORD
  5
111F
102
{ACAD_REACTORS
330
111B
102
}
330
111B
100
AcDbXrecord
280
     1
270
     1
271
     1
  0
XRECORD
  5
1121
102
{ACAD_REACTORS
330
111B
102
}
330
111B
100
AcDbXrecord
280
     1
270
     1
271
     1
  0
XRECORD
  5
111E
102
{ACAD_REACTORS
330
111B
102
}
330
111B
100
AcDbXrecord
280
     1
270
     1
271
     1
  0
XRECORD
  5
119C
102
{ACAD_REACTORS
330
1113
102
}
330
1113
100
AcDbXrecord
280
     1
102
MATERIAL
148
0.0
149
0.0
149
0.0
 93
        0
 94
      127
282
     0
 72
     0
 77
     0
171
     0
175
     0
179
     0
273
     0
  0
XRECORD
  5
1115
102
{ACAD_REACTORS
330
1113
102
}
330
1113
100
AcDbXrecord
280
     1
270
     1
271
     1
  0
XRECORD
  5
1114
102
{ACAD_REACTORS
330
1113
102
}
330
1113
100
AcDbXrecord
280
     1
270
     1
271
     1
  0
XRECORD
  5
1118
102
{ACAD_REACTORS
330
1113
102
}
330
1113
100
AcDbXrecord
280
     1
270
     1
271
     1
  0
XRECORD
  5
1117
102
{ACAD_REACTORS
330
1113
102
}
330
1113
100
AcDbXrecord
280
     1
270
     1
271
     1
  0
XRECORD
  5
1119
102
{ACAD_REACTORS
330
1113
102
}
330
1113
100
AcDbXrecord
280
     1
270
     1
271
     1
  0
XRECORD
  5
1116
102
{ACAD_REACTORS
330
1113
102
}
330
1113
100
AcDbXrecord
280
     1
270
     1
271
     1
  0
XRECORD
  5
119E
102
{ACAD_REACTORS
330
1123
102
}
330
1123
100
AcDbXrecord
280
     1
102
MATERIAL
148
0.0
149
0.0
149
0.0
 93
        0
 94
      127
282
     0
 72
     0
 77
     0
171
     0
175
     0
179
     0
273
     0
  0
XRECORD
  5
1125
102
{ACAD_REACTORS
330
1123
102
}
330
1123
100
AcDbXrecord
280
     1
270
     1
271
     1
  0
XRECORD
  5
1124
102
{ACAD_REACTORS
330
1123
102
}
330
1123
100
AcDbXrecord
280
     1
270
     1
271
     1
  0
XRECORD
  5
1128
102
{ACAD_REACTORS
330
1123
102
}
330
1123
100
AcDbXrecord
280
     1
270
     1
271
     1
  0
XRECORD
  5
1127
102
{ACAD_REACTORS
330
1123
102
}
330
1123
100
AcDbXrecord
280
     1
270
     1
271
     1
  0
XRECORD
  5
1129
102
{ACAD_REACTORS
330
1123
102
}
330
1123
100
AcDbXrecord
280
     1
270
     1
271
     1
  0
XRECORD
  5
1126
102
{ACAD_REACTORS
330
1123
102
}
330
1123
100
AcDbXrecord
280
     1
270
     1
271
     1
  0
CELLSTYLEMAP
  5
117F
102
{ACAD_REACTORS
330
117E
102
}
330
117E
100
AcDbCellStyleMap
 90
        3
300
CELLSTYLE
  1
TABLEFORMAT_BEGIN
 90
        5
170
     1
 91
        0
 92
    32768
 62
   257
 93
        1
300
CONTENTFORMAT
  1
CONTENTFORMAT_BEGIN
 90
        0
 91
        0
 92
      512
 93
        0
300

 40
0.0
140
1.0
 94
        5
 62
     0
340
11
144
6.0
309
CONTENTFORMAT_END
171
     1
301
MARGIN
  1
CELLMARGIN_BEGIN
 40
1.5
 40
1.5
 40
1.5
 40
1.5
 40
4.5
 40
4.5
309
CELLMARGIN_END
 94
        6
 95
        1
302
GRIDFORMAT
  1
GRIDFORMAT_BEGIN
 90
        0
 91
        1
 62
     0
 92
       -2
340
0
 93
        0
 40
1.125
309
GRIDFORMAT_END
 95
        2
302
GRIDFORMAT
  1
GRIDFORMAT_BEGIN
 90
        0
 91
        1
 62
     0
 92
       -2
340
0
 93
        0
 40
1.125
309
GRIDFORMAT_END
 95
        4
302
GRIDFORMAT
  1
GRIDFORMAT_BEGIN
 90
        0
 91
        1
 62
     0
 92
       -2
340
0
 93
        0
 40
1.125
309
GRIDFORMAT_END
 95
        8
302
GRIDFORMAT
  1
GRIDFORMAT_BEGIN
 90
        0
 91
        1
 62
     0
 92
       -2
340
0
 93
        0
 40
1.125
309
GRIDFORMAT_END
 95
       16
302
GRIDFORMAT
  1
GRIDFORMAT_BEGIN
 90
        0
 91
        1
 62
     0
 92
       -2
340
0
 93
        0
 40
1.125
309
GRIDFORMAT_END
 95
       32
302
GRIDFORMAT
  1
GRIDFORMAT_BEGIN
 90
        0
 91
        1
 62
     0
 92
       -2
340
0
 93
        0
 40
1.125
309
GRIDFORMAT_END
309
TABLEFORMAT_END
  1
CELLSTYLE_BEGIN
 90
        1
 91
        1
300
_TITLE
309
CELLSTYLE_END
300
CELLSTYLE
  1
TABLEFORMAT_BEGIN
 90
        5
170
     1
 91
        0
 92
        0
 62
   257
 93
        1
300
CONTENTFORMAT
  1
CONTENTFORMAT_BEGIN
 90
        0
 91
        0
 92
      512
 93
        0
300

 40
0.0
140
1.0
 94
        5
 62
     0
340
11
144
4.5
309
CONTENTFORMAT_END
171
     1
301
MARGIN
  1
CELLMARGIN_BEGIN
 40
1.5
 40
1.5
 40
1.5
 40
1.5
 40
4.5
 40
4.5
309
CELLMARGIN_END
 94
        6
 95
        1
302
GRIDFORMAT
  1
GRIDFORMAT_BEGIN
 90
        0
 91
        1
 62
     0
 92
       -2
340
0
 93
        0
 40
1.125
309
GRIDFORMAT_END
 95
        2
302
GRIDFORMAT
  1
GRIDFORMAT_BEGIN
 90
        0
 91
        1
 62
     0
 92
       -2
340
0
 93
        0
 40
1.125
309
GRIDFORMAT_END
 95
        4
302
GRIDFORMAT
  1
GRIDFORMAT_BEGIN
 90
        0
 91
        1
 62
     0
 92
       -2
340
0
 93
        0
 40
1.125
309
GRIDFORMAT_END
 95
        8
302
GRIDFORMAT
  1
GRIDFORMAT_BEGIN
 90
        0
 91
        1
 62
     0
 92
       -2
340
0
 93
        0
 40
1.125
309
GRIDFORMAT_END
 95
       16
302
GRIDFORMAT
  1
GRIDFORMAT_BEGIN
 90
        0
 91
        1
 62
     0
 92
       -2
340
0
 93
        0
 40
1.125
309
GRIDFORMAT_END
 95
       32
302
GRIDFORMAT
  1
GRIDFORMAT_BEGIN
 90
        0
 91
        1
 62
     0
 92
       -2
340
0
 93
        0
 40
1.125
309
GRIDFORMAT_END
309
TABLEFORMAT_END
  1
CELLSTYLE_BEGIN
 90
        2
 91
        1
300
_HEADER
309
CELLSTYLE_END
300
CELLSTYLE
  1
TABLEFORMAT_BEGIN
 90
        5
170
     1
 91
        0
 92
        0
 62
   257
 93
        1
300
CONTENTFORMAT
  1
CONTENTFORMAT_BEGIN
 90
        0
 91
        0
 92
      512
 93
        0
300

 40
0.0
140
1.0
 94
        2
 62
     0
340
11
144
4.5
309
CONTENTFORMAT_END
171
     1
301
MARGIN
  1
CELLMARGIN_BEGIN
 40
1.5
 40
1.5
 40
1.5
 40
1.5
 40
4.5
 40
4.5
309
CELLMARGIN_END
 94
        6
 95
        1
302
GRIDFORMAT
  1
GRIDFORMAT_BEGIN
 90
        0
 91
        1
 62
     0
 92
       -2
340
0
 93
        0
 40
1.125
309
GRIDFORMAT_END
 95
        2
302
GRIDFORMAT
  1
GRIDFORMAT_BEGIN
 90
        0
 91
        1
 62
     0
 92
       -2
340
0
 93
        0
 40
1.125
309
GRIDFORMAT_END
 95
        4
302
GRIDFORMAT
  1
GRIDFORMAT_BEGIN
 90
        0
 91
        1
 62
     0
 92
       -2
340
0
 93
        0
 40
1.125
309
GRIDFORMAT_END
 95
        8
302
GRIDFORMAT
  1
GRIDFORMAT_BEGIN
 90
        0
 91
        1
 62
     0
 92
       -2
340
0
 93
        0
 40
1.125
309
GRIDFORMAT_END
 95
       16
302
GRIDFORMAT
  1
GRIDFORMAT_BEGIN
 90
        0
 91
        1
 62
     0
 92
       -2
340
0
 93
        0
 40
1.125
309
GRIDFORMAT_END
 95
       32
302
GRIDFORMAT
  1
GRIDFORMAT_BEGIN
 90
        0
 91
        1
 62
     0
 92
       -2
340
0
 93
        0
 40
1.125
309
GRIDFORMAT_END
309
TABLEFORMAT_END
  1
CELLSTYLE_BEGIN
 90
        3
 91
        2
300
_DATA
309
CELLSTYLE_END
  0
XRECORD
  5
11C5
102
{ACAD_REACTORS
330
117E
102
}
330
117E
100
AcDbXrecord
280
     1
102
ACAD_ROUNDTRIP_PRE2007_TABLESTYLE
 90
      512
 91
        0
  1

 92
      512
 93
        0
  2

 94
      512
 95
        0
  3

  0
XRECORD
  5
11AA
102
{ACAD_REACTORS
330
11A9
102
}
330
11A9
100
AcDbXrecord
280
     1
102
RTVSPropertyOp0
 70
     1
102
RTVSPropertyOp1
 70
     1
102
RTVSPropertyOp2
 70
     1
102
RTVSPropertyOp3
 70
     1
102
RTVSPropertyOp4
 70
     1
102
RTVSPropertyOp5
 70
     1
102
RTVSPropertyOp6
 70
     1
102
RTVSPropertyOp7
 70
     1
102
RTVSPropertyOp8
 70
     1
102
RTVSPropertyOp9
 70
     1
102
RTVSPropertyOp10
 70
     1
102
RTVSPropertyOp11
 70
     1
102
RTVSPropertyOp12
 70
     1
102
RTVSPropertyOp13
 70
     1
102
RTVSPropertyOp14
 70
     1
102
RTVSPropertyOp15
 70
     1
102
RTVSPropertyOp16
 70
     1
102
RTVSPropertyOp17
 70
     1
102
RTVSPropertyOp18
 70
     1
102
RTVSPropertyOp19
 70
     1
102
RTVSPropertyOp20
 70
     1
102
RTVSPropertyOp21
 70
     1
102
RTVSPropertyOp22
 70
     1
102
RTVSPropertyOp23
 70
     1
102
RTVSPropertyOp24
 70
     1
102
RTVSPropertyOp25
 70
     1
102
RTVSPropertyOp26
 70
     1
102
RTVSPropertyOp27
 70
     1
  0
XRECORD
  5
11AE
102
{ACAD_REACTORS
330
11AD
102
}
330
11AD
100
AcDbXrecord
280
     1
102
RTVSPropertyOp0
 70
     1
102
RTVSPropertyOp1
 70
     1
102
RTVSPropertyOp2
 70
     1
102
RTVSPropertyOp3
 70
     1
102
RTVSPropertyOp4
 70
     1
102
RTVSPropertyOp5
 70
     1
102
RTVSPropertyOp6
 70
     1
102
RTVSPropertyOp7
 70
     1
102
RTVSPropertyOp8
 70
     1
102
RTVSPropertyOp9
 70
     1
102
RTVSPropertyOp10
 70
     1
102
RTVSPropertyOp11
 70
     1
102
RTVSPropertyOp12
 70
     1
102
RTVSPropertyOp13
 70
     1
102
RTVSPropertyOp14
 70
     1
102
RTVSPropertyOp15
 70
     1
102
RTVSPropertyOp16
 70
     1
102
RTVSPropertyOp17
 70
     1
102
RTVSPropertyOp18
 70
     1
102
RTVSPropertyOp19
 70
     1
102
RTVSPropertyOp20
 70
     1
102
RTVSPropertyOp21
 70
     1
102
RTVSPropertyOp22
 70
     1
102
RTVSPropertyOp23
 70
     1
102
RTVSPropertyOp24
 70
     1
102
RTVSPropertyOp25
 70
     1
102
RTVSPropertyOp26
 70
     1
102
RTVSPropertyOp27
 70
     1
  0
XRECORD
  5
11AC
102
{ACAD_REACTORS
330
11AB
102
}
330
11AB
100
AcDbXrecord
280
     1
102
RTVSPropertyOp0
 70
     1
102
RTVSPropertyOp1
 70
     1
102
RTVSPropertyOp2
 70
     1
102
RTVSPropertyOp3
 70
     1
102
RTVSPropertyOp4
 70
     1
102
RTVSPropertyOp5
 70
     1
102
RTVSPropertyOp6
 70
     1
102
RTVSPropertyOp7
 70
     1
102
RTVSPropertyOp8
 70
     1
102
RTVSPropertyOp9
 70
     1
102
RTVSPropertyOp10
 70
     1
102
RTVSPropertyOp11
 70
     1
102
RTVSPropertyOp12
 70
     1
102
RTVSPropertyOp13
 70
     1
102
RTVSPropertyOp14
 70
     1
102
RTVSPropertyOp15
 70
     1
102
RTVSPropertyOp16
 70
     1
102
RTVSPropertyOp17
 70
     1
102
RTVSPropertyOp18
 70
     1
102
RTVSPropertyOp19
 70
     1
102
RTVSPropertyOp20
 70
     1
102
RTVSPropertyOp21
 70
     1
102
RTVSPropertyOp22
 70
     1
102
RTVSPropertyOp23
 70
     1
102
RTVSPropertyOp24
 70
     1
102
RTVSPropertyOp25
 70
     1
102
RTVSPropertyOp26
 70
     1
102
RTVSPropertyOp27
 70
     1
  0
XRECORD
  5
11A8
102
{ACAD_REACTORS
330
11A7
102
}
330
11A7
100
AcDbXrecord
280
     1
102
RTVSPropertyOp0
 70
     1
102
RTVSPropertyOp1
 70
     1
102
RTVSPropertyOp2
 70
     1
102
RTVSPropertyOp3
 70
     1
102
RTVSPropertyOp4
 70
     1
102
RTVSPropertyOp5
 70
     1
102
RTVSPropertyOp6
 70
     1
102
RTVSPropertyOp7
 70
     1
102
RTVSPropertyOp8
 70
     1
102
RTVSPropertyOp9
 70
     1
102
RTVSPropertyOp10
 70
     1
102
RTVSPropertyOp11
 70
     1
102
RTVSPropertyOp12
 70
     1
102
RTVSPropertyOp13
 70
     1
102
RTVSPropertyOp14
 70
     1
102
RTVSPropertyOp15
 70
     1
102
RTVSPropertyOp16
 70
     1
102
RTVSPropertyOp17
 70
     1
102
RTVSPropertyOp18
 70
     1
102
RTVSPropertyOp19
 70
     1
102
RTVSPropertyOp20
 70
     1
102
RTVSPropertyOp21
 70
     1
102
RTVSPropertyOp22
 70
     1
102
RTVSPropertyOp23
 70
     1
102
RTVSPropertyOp24
 70
     1
102
RTVSPropertyOp25
 70
     1
102
RTVSPropertyOp26
 70
     1
102
RTVSPropertyOp27
 70
     1
  0
XRECORD
  5
11B6
102
{ACAD_REACTORS
330
11B5
102
}
330
11B5
100
AcDbXrecord
280
     1
102
RTVSPropertyOp0
 70
     1
102
RTVSPropertyOp1
 70
     1
102
RTVSPropertyOp2
 70
     1
102
RTVSPropertyOp3
 70
     1
102
RTVSPropertyOp4
 70
     1
102
RTVSPropertyOp5
 70
     1
102
RTVSPropertyOp6
 70
     1
102
RTVSPropertyOp7
 70
     1
102
RTVSPropertyOp8
 70
     1
102
RTVSPropertyOp9
 70
     1
102
RTVSPropertyOp10
 70
     1
102
RTVSPropertyOp11
 70
     1
102
RTVSPropertyOp12
 70
     1
102
RTVSPropertyOp13
 70
     1
102
RTVSPropertyOp14
 70
     1
102
RTVSPropertyOp15
 70
     1
102
RTVSPropertyOp16
 70
     1
102
RTVSPropertyOp17
 70
     1
102
RTVSPropertyOp18
 70
     1
102
RTVSPropertyOp19
 70
     1
102
RTVSPropertyOp20
 70
     1
102
RTVSPropertyOp21
 70
     1
102
RTVSPropertyOp22
 70
     1
102
RTVSPropertyOp23
 70
     1
102
RTVSPropertyOp24
 70
     1
102
RTVSPropertyOp25
 70
     1
102
RTVSPropertyOp26
 70
     1
102
RTVSPropertyOp27
 70
     1
  0
XRECORD
  5
11BE
102
{ACAD_REACTORS
330
11BD
102
}
330
11BD
100
AcDbXrecord
280
     1
102
RTVSPropertyOp0
 70
     1
102
RTVSPropertyOp1
 70
     1
102
RTVSPropertyOp2
 70
     1
102
RTVSPropertyOp3
 70
     1
102
RTVSPropertyOp4
 70
     1
102
RTVSPropertyOp5
 70
     1
102
RTVSPropertyOp6
 70
     1
102
RTVSPropertyOp7
 70
     1
102
RTVSPropertyOp8
 70
     1
102
RTVSPropertyOp9
 70
     1
102
RTVSPropertyOp10
 70
     1
102
RTVSPropertyOp11
 70
     1
102
RTVSPropertyOp12
 70
     1
102
RTVSPropertyOp13
 70
     1
102
RTVSPropertyOp14
 70
     1
102
RTVSPropertyOp15
 70
     1
102
RTVSPropertyOp16
 70
     1
102
RTVSPropertyOp17
 70
     1
102
RTVSPropertyOp18
 70
     1
102
RTVSPropertyOp19
 70
     1
102
RTVSPropertyOp20
 70
     1
102
RTVSPropertyOp21
 70
     1
102
RTVSPropertyOp22
 70
     1
102
RTVSPropertyOp23
 70
     1
102
RTVSPropertyOp24
 70
     1
102
RTVSPropertyOp25
 70
     1
102
RTVSPropertyOp26
 70
     1
102
RTVSPropertyOp27
 70
     1
  0
XRECORD
  5
11B0
102
{ACAD_REACTORS
330
11AF
102
}
330
11AF
100
AcDbXrecord
280
     1
102
RTVSPropertyOp0
 70
     1
102
RTVSPropertyOp1
 70
     1
102
RTVSPropertyOp2
 70
     1
102
RTVSPropertyOp3
 70
     1
102
RTVSPropertyOp4
 70
     1
102
RTVSPropertyOp5
 70
     1
102
RTVSPropertyOp6
 70
     1
102
RTVSPropertyOp7
 70
     1
102
RTVSPropertyOp8
 70
     1
102
RTVSPropertyOp9
 70
     1
102
RTVSPropertyOp10
 70
     1
102
RTVSPropertyOp11
 70
     1
102
RTVSPropertyOp12
 70
     1
102
RTVSPropertyOp13
 70
     1
102
RTVSPropertyOp14
 70
     1
102
RTVSPropertyOp15
 70
     1
102
RTVSPropertyOp16
 70
     1
102
RTVSPropertyOp17
 70
     1
102
RTVSPropertyOp18
 70
     1
102
RTVSPropertyOp19
 70
     1
102
RTVSPropertyOp20
 70
     1
102
RTVSPropertyOp21
 70
     1
102
RTVSPropertyOp22
 70
     1
102
RTVSPropertyOp23
 70
     1
102
RTVSPropertyOp24
 70
     1
102
RTVSPropertyOp25
 70
     1
102
RTVSPropertyOp26
 70
     1
102
RTVSPropertyOp27
 70
     1
  0
XRECORD
  5
11B4
102
{ACAD_REACTORS
330
11B3
102
}
330
11B3
100
AcDbXrecord
280
     1
102
RTVSPropertyOp0
 70
     1
102
RTVSPropertyOp1
 70
     1
102
RTVSPropertyOp2
 70
     1
102
RTVSPropertyOp3
 70
     1
102
RTVSPropertyOp4
 70
     1
102
RTVSPropertyOp5
 70
     1
102
RTVSPropertyOp6
 70
     1
102
RTVSPropertyOp7
 70
     1
102
RTVSPropertyOp8
 70
     1
102
RTVSPropertyOp9
 70
     1
102
RTVSPropertyOp10
 70
     1
102
RTVSPropertyOp11
 70
     1
102
RTVSPropertyOp12
 70
     1
102
RTVSPropertyOp13
 70
     1
102
RTVSPropertyOp14
 70
     1
102
RTVSPropertyOp15
 70
     1
102
RTVSPropertyOp16
 70
     1
102
RTVSPropertyOp17
 70
     1
102
RTVSPropertyOp18
 70
     1
102
RTVSPropertyOp19
 70
     1
102
RTVSPropertyOp20
 70
     1
102
RTVSPropertyOp21
 70
     1
102
RTVSPropertyOp22
 70
     1
102
RTVSPropertyOp23
 70
     1
102
RTVSPropertyOp24
 70
     1
102
RTVSPropertyOp25
 70
     1
102
RTVSPropertyOp26
 70
     1
102
RTVSPropertyOp27
 70
     1
  0
XRECORD
  5
11C4
102
{ACAD_REACTORS
330
11C3
102
}
330
11C3
100
AcDbXrecord
280
     1
102
RTVSPropertyOp0
 70
     0
102
RTVSPropertyOp1
 70
     0
102
RTVSPropertyOp2
 70
     0
102
RTVSPropertyOp3
 70
     0
102
RTVSPropertyOp4
 70
     0
102
RTVSPropertyOp5
 70
     0
102
RTVSPropertyOp6
 70
     0
102
RTVSPropertyOp7
 70
     0
102
RTVSPropertyOp8
 70
     0
102
RTVSPropertyOp9
 70
     0
102
RTVSPropertyOp10
 70
     0
102
RTVSPropertyOp11
 70
     0
102
RTVSPropertyOp12
 70
     0
102
RTVSPropertyOp13
 70
     0
102
RTVSPropertyOp14
 70
     2
102
RTVSPropertyOp15
 70
     0
102
RTVSPropertyOp16
 70
     0
102
RTVSPropertyOp17
 70
     0
102
RTVSPropertyOp18
 70
     0
102
RTVSPropertyOp19
 70
     0
102
RTVSPropertyOp20
 70
     0
102
RTVSPropertyOp21
 70
     0
102
RTVSPropertyOp22
 70
     0
102
RTVSPropertyOp23
 70
     0
102
RTVSPropertyOp24
 70
     0
102
RTVSPropertyOp25
 70
     0
102
RTVSPropertyOp26
 70
     0
102
RTVSPropertyOp27
 70
     0
  0
XRECORD
  5
11BC
102
{ACAD_REACTORS
330
11BB
102
}
330
11BB
100
AcDbXrecord
280
     1
102
RTVSPropertyOp0
 70
     1
102
RTVSPropertyOp1
 70
     1
102
RTVSPropertyOp2
 70
     1
102
RTVSPropertyOp3
 70
     1
102
RTVSPropertyOp4
 70
     1
102
RTVSPropertyOp5
 70
     1
102
RTVSPropertyOp6
 70
     1
102
RTVSPropertyOp7
 70
     1
102
RTVSPropertyOp8
 70
     1
102
RTVSPropertyOp9
 70
     1
102
RTVSPropertyOp10
 70
     1
102
RTVSPropertyOp11
 70
     1
102
RTVSPropertyOp12
 70
     1
102
RTVSPropertyOp13
 70
     1
102
RTVSPropertyOp14
 70
     1
102
RTVSPropertyOp15
 70
     1
102
RTVSPropertyOp16
 70
     1
102
RTVSPropertyOp17
 70
     1
102
RTVSPropertyOp18
 70
     1
102
RTVSPropertyOp19
 70
     1
102
RTVSPropertyOp20
 70
     1
102
RTVSPropertyOp21
 70
     1
102
RTVSPropertyOp22
 70
     1
102
RTVSPropertyOp23
 70
     1
102
RTVSPropertyOp24
 70
     1
102
RTVSPropertyOp25
 70
     1
102
RTVSPropertyOp26
 70
     1
102
RTVSPropertyOp27
 70
     1
  0
XRECORD
  5
11A0
102
{ACAD_REACTORS
330
119F
102
}
330
119F
100
AcDbXrecord
280
     1
102
RTVSPropertyOp0
 70
     1
102
RTVSPropertyOp1
 70
     1
102
RTVSPropertyOp2
 70
     1
102
RTVSPropertyOp3
 70
     1
102
RTVSPropertyOp4
 70
     1
102
RTVSPropertyOp5
 70
     1
102
RTVSPropertyOp6
 70
     1
102
RTVSPropertyOp7
 70
     1
102
RTVSPropertyOp8
 70
     1
102
RTVSPropertyOp9
 70
     1
102
RTVSPropertyOp10
 70
     1
102
RTVSPropertyOp11
 70
     1
102
RTVSPropertyOp12
 70
     1
102
RTVSPropertyOp13
 70
     1
102
RTVSPropertyOp14
 70
     1
102
RTVSPropertyOp15
 70
     1
102
RTVSPropertyOp16
 70
     1
102
RTVSPropertyOp17
 70
     1
102
RTVSPropertyOp18
 70
     1
102
RTVSPropertyOp19
 70
     1
102
RTVSPropertyOp20
 70
     1
102
RTVSPropertyOp21
 70
     1
102
RTVSPropertyOp22
 70
     1
102
RTVSPropertyOp23
 70
     1
102
RTVSPropertyOp24
 70
     1
102
RTVSPropertyOp25
 70
     1
102
RTVSPropertyOp26
 70
     1
102
RTVSPropertyOp27
 70
     1
  0
XRECORD
  5
11A2
102
{ACAD_REACTORS
330
11A1
102
}
330
11A1
100
AcDbXrecord
280
     1
102
RTVSPropertyOp0
 70
     1
102
RTVSPropertyOp1
 70
     1
102
RTVSPropertyOp2
 70
     1
102
RTVSPropertyOp3
 70
     1
102
RTVSPropertyOp4
 70
     1
102
RTVSPropertyOp5
 70
     1
102
RTVSPropertyOp6
 70
     1
102
RTVSPropertyOp7
 70
     1
102
RTVSPropertyOp8
 70
     1
102
RTVSPropertyOp9
 70
     1
102
RTVSPropertyOp10
 70
     1
102
RTVSPropertyOp11
 70
     1
102
RTVSPropertyOp12
 70
     1
102
RTVSPropertyOp13
 70
     1
102
RTVSPropertyOp14
 70
     1
102
RTVSPropertyOp15
 70
     1
102
RTVSPropertyOp16
 70
     1
102
RTVSPropertyOp17
 70
     1
102
RTVSPropertyOp18
 70
     1
102
RTVSPropertyOp19
 70
     1
102
RTVSPropertyOp20
 70
     1
102
RTVSPropertyOp21
 70
     1
102
RTVSPropertyOp22
 70
     1
102
RTVSPropertyOp23
 70
     1
102
RTVSPropertyOp24
 70
     1
102
RTVSPropertyOp25
 70
     1
102
RTVSPropertyOp26
 70
     1
102
RTVSPropertyOp27
 70
     1
  0
XRECORD
  5
11A4
102
{ACAD_REACTORS
330
11A3
102
}
330
11A3
100
AcDbXrecord
280
     1
102
RTVSPropertyOp0
 70
     1
102
RTVSPropertyOp1
 70
     1
102
RTVSPropertyOp2
 70
     1
102
RTVSPropertyOp3
 70
     1
102
RTVSPropertyOp4
 70
     1
102
RTVSPropertyOp5
 70
     1
102
RTVSPropertyOp6
 70
     1
102
RTVSPropertyOp7
 70
     1
102
RTVSPropertyOp8
 70
     1
102
RTVSPropertyOp9
 70
     1
102
RTVSPropertyOp10
 70
     1
102
RTVSPropertyOp11
 70
     1
102
RTVSPropertyOp12
 70
     1
102
RTVSPropertyOp13
 70
     1
102
RTVSPropertyOp14
 70
     1
102
RTVSPropertyOp15
 70
     1
102
RTVSPropertyOp16
 70
     1
102
RTVSPropertyOp17
 70
     1
102
RTVSPropertyOp18
 70
     1
102
RTVSPropertyOp19
 70
     1
102
RTVSPropertyOp20
 70
     1
102
RTVSPropertyOp21
 70
     1
102
RTVSPropertyOp22
 70
     1
102
RTVSPropertyOp23
 70
     1
102
RTVSPropertyOp24
 70
     1
102
RTVSPropertyOp25
 70
     1
102
RTVSPropertyOp26
 70
     1
102
RTVSPropertyOp27
 70
     1
  0
XRECORD
  5
11A6
102
{ACAD_REACTORS
330
11A5
102
}
330
11A5
100
AcDbXrecord
280
     1
102
RTVSPropertyOp0
 70
     1
102
RTVSPropertyOp1
 70
     1
102
RTVSPropertyOp2
 70
     1
102
RTVSPropertyOp3
 70
     1
102
RTVSPropertyOp4
 70
     1
102
RTVSPropertyOp5
 70
     1
102
RTVSPropertyOp6
 70
     1
102
RTVSPropertyOp7
 70
     1
102
RTVSPropertyOp8
 70
     1
102
RTVSPropertyOp9
 70
     1
102
RTVSPropertyOp10
 70
     1
102
RTVSPropertyOp11
 70
     1
102
RTVSPropertyOp12
 70
     1
102
RTVSPropertyOp13
 70
     1
102
RTVSPropertyOp14
 70
     1
102
RTVSPropertyOp15
 70
     1
102
RTVSPropertyOp16
 70
     1
102
RTVSPropertyOp17
 70
     1
102
RTVSPropertyOp18
 70
     1
102
RTVSPropertyOp19
 70
     1
102
RTVSPropertyOp20
 70
     1
102
RTVSPropertyOp21
 70
     1
102
RTVSPropertyOp22
 70
     1
102
RTVSPropertyOp23
 70
     1
102
RTVSPropertyOp24
 70
     1
102
RTVSPropertyOp25
 70
     1
102
RTVSPropertyOp26
 70
     1
102
RTVSPropertyOp27
 70
     1
  0
XRECORD
  5
11C0
102
{ACAD_REACTORS
330
11BF
102
}
330
11BF
100
AcDbXrecord
280
     1
102
RTVSPropertyOp0
 70
     0
102
RTVSPropertyOp1
 70
     0
102
RTVSPropertyOp2
 70
     0
102
RTVSPropertyOp3
 70
     0
102
RTVSPropertyOp4
 70
     0
102
RTVSPropertyOp5
 70
     0
102
RTVSPropertyOp6
 70
     0
102
RTVSPropertyOp7
 70
     0
102
RTVSPropertyOp8
 70
     0
102
RTVSPropertyOp9
 70
     0
102
RTVSPropertyOp10
 70
     0
102
RTVSPropertyOp11
 70
     0
102
RTVSPropertyOp12
 70
     0
102
RTVSPropertyOp13
 70
     0
102
RTVSPropertyOp14
 70
     2
102
RTVSPropertyOp15
 70
     0
102
RTVSPropertyOp16
 70
     0
102
RTVSPropertyOp17
 70
     0
102
RTVSPropertyOp18
 70
     0
102
RTVSPropertyOp19
 70
     0
102
RTVSPropertyOp20
 70
     0
102
RTVSPropertyOp21
 70
     0
102
RTVSPropertyOp22
 70
     0
102
RTVSPropertyOp23
 70
     0
102
RTVSPropertyOp24
 70
     0
102
RTVSPropertyOp25
 70
     0
102
RTVSPropertyOp26
 70
     0
102
RTVSPropertyOp27
 70
     0
  0
XRECORD
  5
11BA
102
{ACAD_REACTORS
330
11B9
102
}
330
11B9
100
AcDbXrecord
280
     1
102
RTVSPropertyOp0
 70
     1
102
RTVSPropertyOp1
 70
     1
102
RTVSPropertyOp2
 70
     1
102
RTVSPropertyOp3
 70
     1
102
RTVSPropertyOp4
 70
     1
102
RTVSPropertyOp5
 70
     1
102
RTVSPropertyOp6
 70
     1
102
RTVSPropertyOp7
 70
     1
102
RTVSPropertyOp8
 70
     1
102
RTVSPropertyOp9
 70
     1
102
RTVSPropertyOp10
 70
     1
102
RTVSPropertyOp11
 70
     1
102
RTVSPropertyOp12
 70
     1
102
RTVSPropertyOp13
 70
     1
102
RTVSPropertyOp14
 70
     1
102
RTVSPropertyOp15
 70
     1
102
RTVSPropertyOp16
 70
     1
102
RTVSPropertyOp17
 70
     1
102
RTVSPropertyOp18
 70
     1
102
RTVSPropertyOp19
 70
     1
102
RTVSPropertyOp20
 70
     1
102
RTVSPropertyOp21
 70
     1
102
RTVSPropertyOp22
 70
     1
102
RTVSPropertyOp23
 70
     1
102
RTVSPropertyOp24
 70
     1
102
RTVSPropertyOp25
 70
     1
102
RTVSPropertyOp26
 70
     1
102
RTVSPropertyOp27
 70
     1
  0
XRECORD
  5
11C2
102
{ACAD_REACTORS
330
11C1
102
}
330
11C1
100
AcDbXrecord
280
     1
102
RTVSPropertyOp0
 70
     0
102
RTVSPropertyOp1
 70
     0
102
RTVSPropertyOp2
 70
     0
102
RTVSPropertyOp3
 70
     0
102
RTVSPropertyOp4
 70
     0
102
RTVSPropertyOp5
 70
     0
102
RTVSPropertyOp6
 70
     0
102
RTVSPropertyOp7
 70
     0
102
RTVSPropertyOp8
 70
     0
102
RTVSPropertyOp9
 70
     0
102
RTVSPropertyOp10
 70
     0
102
RTVSPropertyOp11
 70
     0
102
RTVSPropertyOp12
 70
     0
102
RTVSPropertyOp13
 70
     0
102
RTVSPropertyOp14
 70
     2
102
RTVSPropertyOp15
 70
     0
102
RTVSPropertyOp16
 70
     0
102
RTVSPropertyOp17
 70
     0
102
RTVSPropertyOp18
 70
     0
102
RTVSPropertyOp19
 70
     0
102
RTVSPropertyOp20
 70
     0
102
RTVSPropertyOp21
 70
     0
102
RTVSPropertyOp22
 70
     0
102
RTVSPropertyOp23
 70
     0
102
RTVSPropertyOp24
 70
     0
102
RTVSPropertyOp25
 70
     0
102
RTVSPropertyOp26
 70
     0
102
RTVSPropertyOp27
 70
     0
  0
XRECORD
  5
11B2
102
{ACAD_REACTORS
330
11B1
102
}
330
11B1
100
AcDbXrecord
280
     1
102
RTVSPropertyOp0
 70
     1
102
RTVSPropertyOp1
 70
     1
102
RTVSPropertyOp2
 70
     1
102
RTVSPropertyOp3
 70
     1
102
RTVSPropertyOp4
 70
     1
102
RTVSPropertyOp5
 70
     1
102
RTVSPropertyOp6
 70
     1
102
RTVSPropertyOp7
 70
     1
102
RTVSPropertyOp8
 70
     1
102
RTVSPropertyOp9
 70
     1
102
RTVSPropertyOp10
 70
     1
102
RTVSPropertyOp11
 70
     1
102
RTVSPropertyOp12
 70
     1
102
RTVSPropertyOp13
 70
     1
102
RTVSPropertyOp14
 70
     1
102
RTVSPropertyOp15
 70
     1
102
RTVSPropertyOp16
 70
     1
102
RTVSPropertyOp17
 70
     1
102
RTVSPropertyOp18
 70
     1
102
RTVSPropertyOp19
 70
     1
102
RTVSPropertyOp20
 70
     1
102
RTVSPropertyOp21
 70
     1
102
RTVSPropertyOp22
 70
     1
102
RTVSPropertyOp23
 70
     1
102
RTVSPropertyOp24
 70
     1
102
RTVSPropertyOp25
 70
     1
102
RTVSPropertyOp26
 70
     1
102
RTVSPropertyOp27
 70
     1
  0
XRECORD
  5
11B8
102
{ACAD_REACTORS
330
11B7
102
}
330
11B7
100
AcDbXrecord
280
     1
102
RTVSPropertyOp0
 70
     1
102
RTVSPropertyOp1
 70
     1
102
RTVSPropertyOp2
 70
     1
102
RTVSPropertyOp3
 70
     1
102
RTVSPropertyOp4
 70
     1
102
RTVSPropertyOp5
 70
     1
102
RTVSPropertyOp6
 70
     1
102
RTVSPropertyOp7
 70
     1
102
RTVSPropertyOp8
 70
     1
102
RTVSPropertyOp9
 70
     1
102
RTVSPropertyOp10
 70
     1
102
RTVSPropertyOp11
 70
     1
102
RTVSPropertyOp12
 70
     1
102
RTVSPropertyOp13
 70
     1
102
RTVSPropertyOp14
 70
     1
102
RTVSPropertyOp15
 70
     1
102
RTVSPropertyOp16
 70
     1
102
RTVSPropertyOp17
 70
     1
102
RTVSPropertyOp18
 70
     1
102
RTVSPropertyOp19
 70
     1
102
RTVSPropertyOp20
 70
     1
102
RTVSPropertyOp21
 70
     1
102
RTVSPropertyOp22
 70
     1
102
RTVSPropertyOp23
 70
     1
102
RTVSPropertyOp24
 70
     1
102
RTVSPropertyOp25
 70
     1
102
RTVSPropertyOp26
 70
     1
102
RTVSPropertyOp27
 70
     1
  0
ENDSEC
  0
EOF
