  0
SECTION
  2
HEADER
  9
$ACADVER
  1
AC1015
  9
$ACADMAINTVER
 70
    20
  9
$DWGCODEPAGE
  3
ANSI_1252
  9
$INSBASE
 10
0.0
 20
0.0
 30
0.0
  9
$EXTMIN
 10
85.15869248327646
 20
150.8112496463712
 30
-0.0015258207003583
  9
$EXTMAX
 10
87.65808164567932
 20
151.3550725434384
 30
0.0000000349246037
  9
$LIMMIN
 10
0.0
 20
0.0
  9
$LIMMAX
 10
420.0
 20
297.0
  9
$ORTHOMODE
 70
     0
  9
$REGENMODE
 70
     1
  9
$FILLMODE
 70
     1
  9
$QTEXTMODE
 70
     0
  9
$MIRRTEXT
 70
     1
  9
$LTSCALE
 40
1.0
  9
$ATTMODE
 70
     1
  9
$TEXTSIZE
 40
2.5
  9
$TRACEWID
 40
1.0
  9
$TEXTSTYLE
  7
SANINDUSA
  9
$CLAYER
  8
cotas
  9
$CELTYPE
  6
ByLayer
  9
$CECOLOR
 62
   256
  9
$CELTSCALE
 40
1.0
  9
$DISPSILH
 70
     0
  9
$DIMSCALE
 40
1.0
  9
$DIMASZ
 40
2.0
  9
$DIMEXO
 40
1.0
  9
$DIMDLI
 40
1.0
  9
$DIMRND
 40
0.0
  9
$DIMDLE
 40
0.0
  9
$DIMEXE
 40
1.0
  9
$DIMTP
 40
0.0
  9
$DIMTM
 40
0.0
  9
$DIMTXT
 40
2.0
  9
$DIMCEN
 40
0.0
  9
$DIMTSZ
 40
0.0
  9
$DIMTOL
 70
     0
  9
$DIMLIM
 70
     0
  9
$DIMTIH
 70
     0
  9
$DIMTOH
 70
     0
  9
$DIMSE1
 70
     0
  9
$DIMSE2
 70
     0
  9
$DIMTAD
 70
     1
  9
$DIMZIN
 70
     8
  9
$DIMBLK
  1

  9
$DIMASO
 70
     1
  9
$DIMSHO
 70
     1
  9
$DIMPOST
  1

  9
$DIMAPOST
  1

  9
$DIMALT
 70
     0
  9
$DIMALTD
 70
     3
  9
$DIMALTF
 40
0.03937007874016
  9
$DIMLFAC
 40
1.0
  9
$DIMTOFL
 70
     1
  9
$DIMTVP
 40
0.0
  9
$DIMTIX
 70
     0
  9
$DIMSOXD
 70
     0
  9
$DIMSAH
 70
     0
  9
$DIMBLK1
  1

  9
$DIMBLK2
  1

  9
$DIMSTYLE
  2
SANINDUSA
  9
$DIMCLRD
 70
   256
  9
$DIMCLRE
 70
   256
  9
$DIMCLRT
 70
   256
  9
$DIMTFAC
 40
1.0
  9
$DIMGAP
 40
1.0
  9
$DIMJUST
 70
     0
  9
$DIMSD1
 70
     0
  9
$DIMSD2
 70
     0
  9
$DIMTOLJ
 70
     0
  9
$DIMTZIN
 70
     8
  9
$DIMALTZ
 70
     0
  9
$DIMALTTZ
 70
     0
  9
$DIMUPT
 70
     0
  9
$DIMDEC
 70
     1
  9
$DIMTDEC
 70
     1
  9
$DIMALTU
 70
     2
  9
$DIMALTTD
 70
     3
  9
$DIMTXSTY
  7
SANINDUSA
  9
$DIMAUNIT
 70
     0
  9
$DIMADEC
 70
     1
  9
$DIMALTRND
 40
0.0
  9
$DIMAZIN
 70
     0
  9
$DIMDSEP
 70
    44
  9
$DIMATFIT
 70
     3
  9
$DIMFRAC
 70
     0
  9
$DIMLDRBLK
  1

  9
$DIMLUNIT
 70
     2
  9
$DIMLWD
 70
    -1
  9
$DIMLWE
 70
    -1
  9
$DIMTMOVE
 70
     0
  9
$LUNITS
 70
     2
  9
$LUPREC
 70
     4
  9
$SKETCHINC
 40
1.0
  9
$FILLETRAD
 40
0.001
  9
$AUNITS
 70
     0
  9
$AUPREC
 70
     0
  9
$MENU
  1
.
  9
$ELEVATION
 40
0.0
  9
$PELEVATION
 40
0.0
  9
$THICKNESS
 40
0.0
  9
$LIMCHECK
 70
     0
  9
$CHAMFERA
 40
10.0
  9
$CHAMFERB
 40
10.0
  9
$CHAMFERC
 40
20.0
  9
$CHAMFERD
 40
0.0
  9
$SKPOLY
 70
     0
  9
$TDCREATE
 40
2453563.671736470
  9
$TDUCREATE
 40
2453563.630069804
  9
$TDUPDATE
 40
2454929.644137187
  9
$TDUUPDATE
 40
2454929.602470521
  9
$TDINDWG
 40
0.0049869792
  9
$TDUSRTIMER
 40
0.0049869792
  9
$USRTIMER
 70
     1
  9
$ANGBASE
 50
0.0
  9
$ANGDIR
 70
     0
  9
$PDMODE
 70
     0
  9
$PDSIZE
 40
0.0
  9
$PLINEWID
 40
0.0
  9
$SPLFRAME
 70
     0
  9
$SPLINETYPE
 70
     6
  9
$SPLINESEGS
 70
     8
  9
$HANDSEED
  5
110A
  9
$SURFTAB1
 70
     6
  9
$SURFTAB2
 70
     6
  9
$SURFTYPE
 70
     6
  9
$SURFU
 70
     6
  9
$SURFV
 70
     6
  9
$UCSBASE
  2

  9
$UCSNAME
  2

  9
$UCSORG
 10
0.0
 20
0.0
 30
0.0
  9
$UCSXDIR
 10
1.0
 20
0.0
 30
0.0
  9
$UCSYDIR
 10
0.0
 20
1.0
 30
0.0
  9
$UCSORTHOREF
  2

  9
$UCSORTHOVIEW
 70
     0
  9
$UCSORGTOP
 10
0.0
 20
0.0
 30
0.0
  9
$UCSORGBOTTOM
 10
0.0
 20
0.0
 30
0.0
  9
$UCSORGLEFT
 10
0.0
 20
0.0
 30
0.0
  9
$UCSORGRIGHT
 10
0.0
 20
0.0
 30
0.0
  9
$UCSORGFRONT
 10
0.0
 20
0.0
 30
0.0
  9
$UCSORGBACK
 10
0.0
 20
0.0
 30
0.0
  9
$PUCSBASE
  2

  9
$PUCSNAME
  2

  9
$PUCSORG
 10
0.0
 20
0.0
 30
0.0
  9
$PUCSXDIR
 10
1.0
 20
0.0
 30
0.0
  9
$PUCSYDIR
 10
0.0
 20
1.0
 30
0.0
  9
$PUCSORTHOREF
  2

  9
$PUCSORTHOVIEW
 70
     0
  9
$PUCSORGTOP
 10
0.0
 20
0.0
 30
0.0
  9
$PUCSORGBOTTOM
 10
0.0
 20
0.0
 30
0.0
  9
$PUCSORGLEFT
 10
0.0
 20
0.0
 30
0.0
  9
$PUCSORGRIGHT
 10
0.0
 20
0.0
 30
0.0
  9
$PUCSORGFRONT
 10
0.0
 20
0.0
 30
0.0
  9
$PUCSORGBACK
 10
0.0
 20
0.0
 30
0.0
  9
$USERI1
 70
     0
  9
$USERI2
 70
     0
  9
$USERI3
 70
     0
  9
$USERI4
 70
     0
  9
$USERI5
 70
     0
  9
$USERR1
 40
0.0
  9
$USERR2
 40
0.0
  9
$USERR3
 40
0.0
  9
$USERR4
 40
0.0
  9
$USERR5
 40
0.0
  9
$WORLDVIEW
 70
     1
  9
$SHADEDGE
 70
     3
  9
$SHADEDIF
 70
    70
  9
$TILEMODE
 70
     1
  9
$MAXACTVP
 70
    64
  9
$PINSBASE
 10
0.0
 20
0.0
 30
0.0
  9
$PLIMCHECK
 70
     0
  9
$PEXTMIN
 10
1.000000000000000E+20
 20
1.000000000000000E+20
 30
1.000000000000000E+20
  9
$PEXTMAX
 10
-1.000000000000000E+20
 20
-1.000000000000000E+20
 30
-1.000000000000000E+20
  9
$PLIMMIN
 10
0.0
 20
0.0
  9
$PLIMMAX
 10
420.0
 20
297.0
  9
$UNITMODE
 70
     0
  9
$VISRETAIN
 70
     1
  9
$PLINEGEN
 70
     0
  9
$PSLTSCALE
 70
     1
  9
$TREEDEPTH
 70
  3020
  9
$CMLSTYLE
  2
Standard
  9
$CMLJUST
 70
     0
  9
$CMLSCALE
 40
20.0
  9
$PROXYGRAPHICS
 70
     1
  9
$MEASUREMENT
 70
     1
  9
$CELWEIGHT
370
    -1
  9
$ENDCAPS
280
     0
  9
$JOINSTYLE
280
     0
  9
$LWDISPLAY
290
     0
  9
$INSUNITS
 70
     6
  9
$HYPERLINKBASE
  1

  9
$STYLESHEET
  1
monochrome.ctb
  9
$XEDIT
290
     1
  9
$CEPSNTYPE
380
     0
  9
$PSTYLEMODE
290
     1
  9
$FINGERPRINTGUID
  2
{0BD09235-67ED-4675-9B38-4D1FDC19BAF1}
  9
$VERSIONGUID
  2
{AC5802C4-CE91-447B-8C41-39A90F27AF8B}
  9
$EXTNAMES
290
     1
  9
$PSVPSCALE
 40
0.0
  9
$OLESTARTUP
290
     0
  0
ENDSEC
  0
SECTION
  2
CLASSES
  0
CLASS
  1
ACDBDICTIONARYWDFLT
  2
AcDbDictionaryWithDefault
  3
ObjectDBX Classes
 90
        0
280
     0
281
     0
  0
CLASS
  1
ACDBPLACEHOLDER
  2
AcDbPlaceHolder
  3
ObjectDBX Classes
 90
        0
280
     0
281
     0
  0
CLASS
  1
LAYOUT
  2
AcDbLayout
  3
ObjectDBX Classes
 90
        0
280
     0
281
     0
  0
CLASS
  1
DICTIONARYVAR
  2
AcDbDictionaryVar
  3
ObjectDBX Classes
 90
        0
280
     0
281
     0
  0
CLASS
  1
DIMASSOC
  2
AcDbDimAssoc
  3
"AcDbDimAssoc|Product Desc:     AcDim ARX App For Dimension|Company:          Autodesk, Inc.|WEB Address:      www.autodesk.com"
 90
    32768
280
     0
281
     0
  0
CLASS
  1
TABLESTYLE
  2
AcDbTableStyle
  3
ObjectDBX Classes
 90
     2047
280
     0
281
     0
  0
CLASS
  1
SORTENTSTABLE
  2
AcDbSortentsTable
  3
ObjectDBX Classes
 90
        0
280
     0
281
     0
  0
ENDSEC
  0
SECTION
  2
TABLES
  0
TABLE
  2
VPORT
  5
8
330
0
100
AcDbSymbolTable
 70
     6
  0
VPORT
  5
1102
330
8
100
AcDbSymbolTableRecord
100
AcDbViewportTableRecord
  2
*Active
 70
     0
 10
0.0
 20
0.0
 11
1.0
 21
1.0
 12
86.40838706447789
 22
151.0831610949048
 13
0.0
 23
0.0
 14
10.0
 24
10.0
 15
10.0
 25
10.0
 16
0.0
 26
0.0
 36
1.0
 17
0.0
 27
0.0
 37
0.0
 40
1.566064424180754
 41
1.602030456852791
 42
50.0
 43
0.0
 44
0.0
 50
0.0
 51
0.0
 71
     0
 72
   100
 73
     1
 74
     2
 75
     0
 76
     0
 77
     0
 78
     0
281
     0
 65
     1
110
0.0
120
0.0
130
0.0
111
1.0
121
0.0
131
0.0
112
0.0
122
1.0
132
0.0
 79
     0
146
0.0
  0
ENDTAB
  0
TABLE
  2
LTYPE
  5
5
330
0
100
AcDbSymbolTable
 70
     3
  0
LTYPE
  5
14
330
5
100
AcDbSymbolTableRecord
100
AcDbLinetypeTableRecord
  2
ByBlock
 70
     0
  3

 72
    65
 73
     0
 40
0.0
  0
LTYPE
  5
15
330
5
100
AcDbSymbolTableRecord
100
AcDbLinetypeTableRecord
  2
ByLayer
 70
     0
  3

 72
    65
 73
     0
 40
0.0
  0
LTYPE
  5
16
330
5
100
AcDbSymbolTableRecord
100
AcDbLinetypeTableRecord
  2
Continuous
 70
     0
  3
Solid line
 72
    65
 73
     0
 40
0.0
  0
LTYPE
  5
2D
330
5
100
AcDbSymbolTableRecord
100
AcDbLinetypeTableRecord
  2
DASHDOT
 70
     0
  3
Dash dot __ . __ . __ . __ . __ . __ . __ . __
 72
    65
 73
     4
 40
25.4
 49
12.7
 74
     0
 49
-6.349999999999999
 74
     0
 49
0.0
 74
     0
 49
-6.349999999999999
 74
     0
  0
LTYPE
  5
2E
330
5
100
AcDbSymbolTableRecord
100
AcDbLinetypeTableRecord
  2
HIDDEN
 70
     0
  3
Hidden __ __ __ __ __ __ __ __ __ __ __ __ __ _
 72
    65
 73
     2
 40
9.524999999999998
 49
6.349999999999999
 74
     0
 49
-3.174999999999999
 74
     0
  0
ENDTAB
  0
TABLE
  2
LAYER
  5
2
330
0
100
AcDbSymbolTable
 70
    17
  0
LAYER
  5
10
330
2
100
AcDbSymbolTableRecord
100
AcDbLayerTableRecord
  2
0
 70
     0
 62
     7
  6
Continuous
370
    -3
390
F
  0
LAYER
  5
2F
330
2
100
AcDbSymbolTableRecord
100
AcDbLayerTableRecord
  2
1
 70
     0
 62
     1
  6
Continuous
370
    -3
390
F
  0
LAYER
  5
30
330
2
100
AcDbSymbolTableRecord
100
AcDbLayerTableRecord
  2
2
 70
     0
 62
     2
  6
Continuous
370
    -3
390
F
  0
LAYER
  5
31
330
2
100
AcDbSymbolTableRecord
100
AcDbLayerTableRecord
  2
3
 70
     0
 62
     3
  6
Continuous
370
    -3
390
F
  0
LAYER
  5
32
330
2
100
AcDbSymbolTableRecord
100
AcDbLayerTableRecord
  2
4
 70
     0
 62
     4
  6
Continuous
370
    -3
390
F
  0
LAYER
  5
33
330
2
100
AcDbSymbolTableRecord
100
AcDbLayerTableRecord
  2
5
 70
     0
 62
     5
  6
Continuous
370
    -3
390
F
  0
LAYER
  5
34
330
2
100
AcDbSymbolTableRecord
100
AcDbLayerTableRecord
  2
6
 70
     0
 62
     6
  6
Continuous
370
    -3
390
F
  0
LAYER
  5
35
330
2
100
AcDbSymbolTableRecord
100
AcDbLayerTableRecord
  2
7
 70
     0
 62
     7
  6
Continuous
370
    -3
390
F
  0
LAYER
  5
36
330
2
100
AcDbSymbolTableRecord
100
AcDbLayerTableRecord
  2
cen
 70
     0
 62
     7
  6
DASHDOT
370
    -3
390
F
  0
LAYER
  5
37
330
2
100
AcDbSymbolTableRecord
100
AcDbLayerTableRecord
  2
hid
 70
     0
 62
     7
  6
HIDDEN
370
    -3
390
F
  0
LAYER
  5
5D6
330
2
100
AcDbSymbolTableRecord
100
AcDbLayerTableRecord
  2
hatch
 70
     0
 62
     9
  6
Continuous
370
    -3
390
F
  0
LAYER
  5
8AF
330
2
100
AcDbSymbolTableRecord
100
AcDbLayerTableRecord
  2
9
 70
     0
 62
     9
  6
Continuous
370
    -3
390
F
  0
LAYER
  5
8F8
330
2
100
AcDbSymbolTableRecord
100
AcDbLayerTableRecord
  2
leg fin
 70
     0
 62
     9
  6
Continuous
370
    -3
390
F
  0
LAYER
  5
91D
330
2
100
AcDbSymbolTableRecord
100
AcDbLayerTableRecord
  2
cotas
 70
     0
 62
     1
  6
Continuous
370
    -3
390
F
  0
LAYER
  5
92F
330
2
100
AcDbSymbolTableRecord
100
AcDbLayerTableRecord
  2
Defpoints
 70
     0
 62
     7
  6
Continuous
290
     0
370
    -3
390
F
  0
LAYER
  5
BA5
330
2
100
AcDbSymbolTableRecord
100
AcDbLayerTableRecord
  2
SANINDUSA
 70
     0
 62
     3
  6
Continuous
370
    -3
390
F
  0
LAYER
  5
BB0
330
2
100
AcDbSymbolTableRecord
100
AcDbLayerTableRecord
  2
BLOCKS
 70
     0
 62
     3
  6
Continuous
370
    -3
390
F
  0
ENDTAB
  0
TABLE
  2
STYLE
  5
3
330
0
100
AcDbSymbolTable
 70
     4
  0
STYLE
  5
11
330
3
100
AcDbSymbolTableRecord
100
AcDbTextStyleTableRecord
  2
Standard
 70
     0
 40
0.0
 41
1.0
 50
0.0
 71
     0
 42
2.5
  3
Avgardn.ttf
  4

1001
ACAD
1000
AvantGarde Bk BT
1071
       34
  0
STYLE
  5
2C
330
3
100
AcDbSymbolTableRecord
100
AcDbTextStyleTableRecord
  2

 70
     1
 40
0.0
 41
1.0
 50
0.0
 71
     0
 42
2.5
  3
ltypeshp.shx
  4

  0
STYLE
  5
91F
330
3
100
AcDbSymbolTableRecord
100
AcDbTextStyleTableRecord
  2
SANINDUSA
 70
     0
 40
0.0
 41
1.0
 50
0.0
 71
     0
 42
2.5
  3
verdana.TTF
  4

1001
ACAD
1000
Verdana
1071
       34
  0
STYLE
  5
BB1
330
3
100
AcDbSymbolTableRecord
100
AcDbTextStyleTableRecord
  2
LEG-ATT
 70
     0
 40
2.0
 41
0.8
 50
0.0
 71
     0
 42
2.0
  3
ARIAL.TTF
  4

1001
ACAD
1000
Arial
1071
       34
  0
ENDTAB
  0
TABLE
  2
VIEW
  5
6
330
0
100
AcDbSymbolTable
 70
     0
  0
ENDTAB
  0
TABLE
  2
UCS
  5
7
330
0
100
AcDbSymbolTable
 70
     0
  0
ENDTAB
  0
TABLE
  2
APPID
  5
9
330
0
100
AcDbSymbolTable
 70
     3
  0
APPID
  5
12
330
9
100
AcDbSymbolTableRecord
100
AcDbRegAppTableRecord
  2
ACAD
 70
     0
  0
APPID
  5
3A
330
9
100
AcDbSymbolTableRecord
100
AcDbRegAppTableRecord
  2
DCO15
 70
     0
  0
APPID
  5
D33
330
9
100
AcDbSymbolTableRecord
100
AcDbRegAppTableRecord
  2
ACAD_EXEMPT_FROM_CAD_STANDARDS
 70
     0
  0
ENDTAB
  0
TABLE
  2
DIMSTYLE
  5
A
330
0
100
AcDbSymbolTable
 70
     3
100
AcDbDimStyleTable
 71
     1
340
921
  0
DIMSTYLE
105
45
330
A
100
AcDbSymbolTableRecord
100
AcDbDimStyleTableRecord
  2
STANDARD
 70
     0
289
     0
340
11
  0
DIMSTYLE
105
921
330
A
100
AcDbSymbolTableRecord
100
AcDbDimStyleTableRecord
  2
SANINDUSA
 70
     0
 41
2.0
 42
1.0
 43
1.0
 44
1.0
 73
     0
 74
     0
 77
     1
 78
     8
140
2.0
141
0.0
143
0.03937007874016
147
1.0
171
     3
172
     1
176
   256
177
   256
178
   256
179
     1
271
     1
272
     1
274
     3
278
    44
283
     0
284
     8
340
91F
371
    -1
372
    -1
  0
DIMSTYLE
105
BB2
330
A
100
AcDbSymbolTableRecord
100
AcDbDimStyleTableRecord
  2
ISO-25
 70
     0
 41
2.5
 42
0.625
 43
3.75
 44
1.25
 73
     0
 74
     0
 77
     1
 78
     8
140
2.5
141
2.5
143
0.03937007874016
147
0.625
171
     3
172
     1
271
     2
272
     2
274
     3
278
    44
283
     0
284
     8
340
11
  0
ENDTAB
  0
TABLE
  2
BLOCK_RECORD
  5
1
330
0
100
AcDbSymbolTable
 70
    28
  0
BLOCK_RECORD
  5
1F
102
{ACAD_XDICTIONARY
360
CDE
102
}
330
1
100
AcDbSymbolTableRecord
100
AcDbBlockTableRecord
  2
*Model_Space
340
22
  0
BLOCK_RECORD
  5
1B
330
1
100
AcDbSymbolTableRecord
100
AcDbBlockTableRecord
  2
*Paper_Space
340
1E
  0
BLOCK_RECORD
  5
23
330
1
100
AcDbSymbolTableRecord
100
AcDbBlockTableRecord
  2
*Paper_Space0
340
26
  0
BLOCK_RECORD
  5
919
330
1
100
AcDbSymbolTableRecord
100
AcDbBlockTableRecord
  2
_DotSmall
340
0
102
{BLKREFS
331
D95
331
10A0
102
}
  0
BLOCK_RECORD
  5
922
330
1
100
AcDbSymbolTableRecord
100
AcDbBlockTableRecord
  2
base para cotas
340
0
310
2800000020000000200000000100080000000000000400000000000000000000000000000000000000000000000080000080000000808000800000008000800080800000C0C0C000C0DCC000F0CAA6000020400000206000002080000020A0000020C0000020E00000400000004020000040400000406000004080000040A0
310
000040C0000040E00000600000006020000060400000606000006080000060A0000060C0000060E00000800000008020000080400000806000008080000080A0000080C0000080E00000A0000000A0200000A0400000A0600000A0800000A0A00000A0C00000A0E00000C0000000C0200000C0400000C0600000C0800000C0
310
A00000C0C00000C0E00000E0000000E0200000E0400000E0600000E0800000E0A00000E0C00000E0E00040000000400020004000400040006000400080004000A0004000C0004000E00040200000402020004020400040206000402080004020A0004020C0004020E000404000004040200040404000404060004040800040
310
40A0004040C0004040E00040600000406020004060400040606000406080004060A0004060C0004060E00040800000408020004080400040806000408080004080A0004080C0004080E00040A0000040A0200040A0400040A0600040A0800040A0A00040A0C00040A0E00040C0000040C0200040C0400040C0600040C08000
310
40C0A00040C0C00040C0E00040E0000040E0200040E0400040E0600040E0800040E0A00040E0C00040E0E00080000000800020008000400080006000800080008000A0008000C0008000E00080200000802020008020400080206000802080008020A0008020C0008020E00080400000804020008040400080406000804080
310
008040A0008040C0008040E00080600000806020008060400080606000806080008060A0008060C0008060E00080800000808020008080400080806000808080008080A0008080C0008080E00080A0000080A0200080A0400080A0600080A0800080A0A00080A0C00080A0E00080C0000080C0200080C0400080C0600080C0
310
800080C0A00080C0C00080C0E00080E0000080E0200080E0400080E0600080E0800080E0A00080E0C00080E0E000C0000000C0002000C0004000C0006000C0008000C000A000C000C000C000E000C0200000C0202000C0204000C0206000C0208000C020A000C020C000C020E000C0400000C0402000C0404000C0406000C0
310
408000C040A000C040C000C040E000C0600000C0602000C0604000C0606000C0608000C060A000C060C000C060E000C0800000C0802000C0804000C0806000C0808000C080A000C080C000C080E000C0A00000C0A02000C0A04000C0A06000C0A08000C0A0A000C0A0C000C0A0E000C0C00000C0C02000C0C04000C0C06000
310
C0C08000C0C0A000F0FBFF00A4A0A000808080000000FF0000FF000000FFFF00FF000000FF00FF00FFFF0000FFFFFF00A4A4A4A4A4A4A4A4A4A4A4A4A4A4A4A4A4A4A4A4A4A4A4A4A4A4A4A4A4A4A4A4A4A4A4A4A4A4A4A4A4A4A4A4A4A4A4A4A4A4A4A4A4A4A4A4A4A4A4A4A4A4A4A4A4A4A4A4A4A4A4A4A4A4A4A4A4A4A4
310
A4A4A4A4A4A4A4A4A4A4A4A4A4A4A4A4A4A4A4A4A4A4A4A4A4A4A4A4A4A4A4A4A4A4A4A4A4A4A4A4A4A4A4A4A4A4A4A4A4A4A4A4A4A4A4A4A4A4A4A4A4A4A4A4A4A4A4A4A4A4A4A4A4A4A4A4A4A4A4A4A4A4A4A4A4A4A4A4A4A4A4A4A4A4A4A4A4A4A4A4A4A4A4A4A4A4A4A4A4A4A4A4A4A4A4A4A4A4A4A4A4A4A4A4A4A4A4
310
A4A4A4A4A4A4A4A4A4A4A4A4A4A4A4A4A4A4A4A4A4A4A4A4A4A4A4A4A4A4A4A4A4A4A4A4A4A4A4A4A4A4A4A4A4A4A4A4A4A4A4A4A4A4A4A4A4A4A4A4A4A4A4A4A4A4A4A4A4A4A4A4A4A4A4A4A4A4A4A4A4A4A4A4A4A4A4A4A4A4A4A4A4A4A4A4A4A4A4A4A4A4A4A4A4A4A4A4A4A4A4A4A4A4A4A4A4A4A4A4A4A4A4A4A4A4A4
310
A4A4A4A4A4A4A4A4A4A4A4A4A4A4A4A4A4A4A4A4A4A4A4A4A4A4A4A4A4A4A4A4A4A4A4A4A4A4A4A4A4A4A4A4A4A4A4A4A4A4A4A4A4A4A4A4A4A4A4A4A4A4A4A4A4A4A4A4A4A4A4A4A4A4A4A4A4A4A4A4A4A4A4A4A4A4A4A4A4A4A4A4A4A4A4A4A4A4A4A4A4A4A4A4A4A4A4A4A4A4A4A4A4A4A4A4F9F9F9F9F9F9F9F9F9F9F9
310
F9F9F9F9F9F9F9F9F9F9F9F9F9F9F9F9F9F9F9A4A4F9F9F9F9F9F9F9F9F9F9F9F9F9F9F9F9F9F9F9F9F9F9F9F9F9F9F9F9F9F9A4A4F9F9F9F9F9F9F9F9F9F9F9F9F9F9F9F9F9F9F9F9F9F9F9F9F9F9F9F9F9F9A4A4F9A4A4A4A4A4A4A4A4A4A4A4A4A4A4A4A4A4A4A4A4A4A4A4A4A4A4A4A4F9A4A4A4A4A4A4A4A4A4A4A4A4
310
A4A4A4A4A4A4A4A4A4A4A4A4A4A4A4A4A4A4A4A4A4A4A4A4A4A4A4A4A4A4A4A4A4A4A4A4A4A4A4A4A4A4A4A4A4A4A4A4A4A4A4A4A4A4A4A4A4A4A4A4A4A4A4A4A4A4A4A4A4A4A4A4A4A4A4A4A4A4A4A4A4A4A4A4A4A4A4A4A4A4A4A4A4A4A4A4A4A4A4A4A4A4A4A4A4A4A4A4A4A4A4A4A4A4A4A4A4A4A4A4A4A4A4A4A4A4A4
310
A4A4A4A4A4A4A4A4A4A4A4A4A4A4A4A4A4A4A4A4A4A4A4A4A4A4A4A4A4A4A4A4A4A4A4A4A4A4A4A4A4A4A4A4A4A4A4A4A4A4A4A4A4A4A4A4A4A4A4A4A4A4A4A4A4A4A4A4A4A4A4A4A4A4A4A4A4A4A4A4A4A4A4A4A4A4A4A4A4A4A4A4A4A4A4A4A4A4A4A4A4A4A4A4A4A4A4A4A4A4A4A4A4A4A4A4A4A4A4A4A4A4A4A4A4A4A4
310
A4A4A4A4A4A4A4A4A4A4A4A4A4A4A4A4A4A4A4A4A4A4A4A4A4A4A4A4A4A4A4A4A4A4A4A4A4A4A4A4A4A4A4A4A4A4A4A4A4A4A4A4A4A4A4A4A4A4A4A4A4A4A4A4A4A4A4A4A4A4A4A4A4A4A4A4A4A4A4A4A4A4A4A4A4A4A4A4A4A4A4A4A4A4A4A4A4A4A4A4A4A4A4A4A4A4A4A4A4A4A4A4A4A4A4A4A4A4A4A4A4A4A4A4A4A4A4
310
A4A4A4A4A4A4A4A4A4A4A4A4A4A4A4A4A4A4A4A4A4A4A4A4A4A4A4A4A4A4A4A4A4A4A4A4A4A4A4A4A4A4A4A4A4A4A4A4A4A4A4A4A4A4A4A4
1001
ACAD
1000
DesignCenter Data
1002
{
1070
     1
1070
     4
1002
}
  0
BLOCK_RECORD
  5
AA8
330
1
100
AcDbSymbolTableRecord
100
AcDbBlockTableRecord
  2
_CLOSED
340
0
  0
BLOCK_RECORD
  5
BB3
330
1
100
AcDbSymbolTableRecord
100
AcDbBlockTableRecord
  2
118610PL
340
0
1001
ACAD
1000
DesignCenter Data
1002
{
1070
     1
1070
     4
1002
}
  0
BLOCK_RECORD
  5
BD6
330
1
100
AcDbSymbolTableRecord
100
AcDbBlockTableRecord
  2
118610AF
340
0
1001
ACAD
1000
DesignCenter Data
1002
{
1070
     1
1070
     4
1002
}
  0
BLOCK_RECORD
  5
BF2
330
1
100
AcDbSymbolTableRecord
100
AcDbBlockTableRecord
  2
118610AL
340
0
1001
ACAD
1000
DesignCenter Data
1002
{
1070
     1
1070
     4
1002
}
  0
BLOCK_RECORD
  5
C12
330
1
100
AcDbSymbolTableRecord
100
AcDbBlockTableRecord
  2
118610CT
340
0
1001
ACAD
1000
DesignCenter Data
1002
{
1070
     1
1070
     4
1002
}
  0
ENDTAB
  0
ENDSEC
  0
SECTION
  2
BLOCKS
  0
BLOCK
  5
20
330
1F
100
AcDbEntity
  8
0
100
AcDbBlockBegin
  2
*Model_Space
 70
     0
 10
0.0
 20
0.0
 30
0.0
  3
*Model_Space
  1

  0
ENDBLK
  5
21
330
1F
100
AcDbEntity
  8
0
100
AcDbBlockEnd
  0
BLOCK
  5
1C
330
1B
100
AcDbEntity
 67
     1
  8
0
100
AcDbBlockBegin
  2
*Paper_Space
 70
     0
 10
0.0
 20
0.0
 30
0.0
  3
*Paper_Space
  1

  0
ENDBLK
  5
1D
330
1B
100
AcDbEntity
 67
     1
  8
0
100
AcDbBlockEnd
  0
BLOCK
  5
24
330
23
100
AcDbEntity
 67
     1
  8
0
100
AcDbBlockBegin
  2
*Paper_Space0
 70
     0
 10
0.0
 20
0.0
 30
0.0
  3
*Paper_Space0
  1

  0
ENDBLK
  5
25
330
23
100
AcDbEntity
 67
     1
  8
0
100
AcDbBlockEnd
  0
BLOCK
  5
91B
330
919
100
AcDbEntity
  8
0
100
AcDbBlockBegin
  2
_DotSmall
 70
     0
 10
0.0
 20
0.0
 30
0.0
  3
_DotSmall
  1

  0
LWPOLYLINE
  5
91A
330
919
100
AcDbEntity
  8
0
  6
ByBlock
 62
     0
100
AcDbPolyline
 90
        2
 70
     1
 43
0.5
 10
-0.0625
 20
0.0
 42
1.0
 10
0.0625
 20
0.0
 42
1.0
  0
ENDBLK
  5
91C
330
919
100
AcDbEntity
  8
0
100
AcDbBlockEnd
  0
BLOCK
  5
92A
330
922
100
AcDbEntity
  8
0
100
AcDbBlockBegin
  2
base para cotas
 70
     0
 10
0.0
 20
0.0
 30
0.0
  3
base para cotas
  1

  0
LINE
  5
B36
330
922
100
AcDbEntity
  8
cotas
100
AcDbLine
 10
0.0
 20
-30.0
 30
0.0
 11
327.1260136525398
 21
-30.0
 31
0.0
  0
LINE
  5
B37
330
922
100
AcDbEntity
  8
cotas
100
AcDbLine
 10
0.0
 20
-25.0
 30
0.0
 11
327.1260136525398
 21
-25.0
 31
0.0
  0
LINE
  5
B38
330
922
100
AcDbEntity
  8
cotas
100
AcDbLine
 10
0.0
 20
-20.0
 30
0.0
 11
327.1260136525398
 21
-20.0
 31
0.0
  0
LINE
  5
B39
330
922
100
AcDbEntity
  8
cotas
100
AcDbLine
 10
0.0
 20
-15.0
 30
0.0
 11
327.1260136525398
 21
-15.0
 31
0.0
  0
LINE
  5
B3A
330
922
100
AcDbEntity
  8
cotas
100
AcDbLine
 10
0.0
 20
-10.0
 30
0.0
 11
327.1260136525398
 21
-10.0
 31
0.0
  0
LINE
  5
B3B
330
922
100
AcDbEntity
  8
cotas
100
AcDbLine
 10
0.0
 20
0.0
 30
0.0
 11
0.0
 21
-30.0
 31
0.0
  0
LINE
  5
B3C
330
922
100
AcDbEntity
  8
cotas
100
AcDbLine
 10
327.1260136525398
 20
-30.0
 30
0.0
 11
327.1260136525398
 21
0.0
 31
0.0
  0
ENDBLK
  5
92B
330
922
100
AcDbEntity
  8
0
100
AcDbBlockEnd
  0
BLOCK
  5
AAD
330
AA8
100
AcDbEntity
  8
0
100
AcDbBlockBegin
  2
_CLOSED
 70
     0
 10
0.0
 20
0.0
 30
0.0
  3
_CLOSED
  1

  0
LINE
  5
AA9
330
AA8
100
AcDbEntity
  8
0
100
AcDbLine
 10
-1.0
 20
0.166667
 30
0.0
 11
0.0
 21
0.0
 31
0.0
  0
LINE
  5
AAA
330
AA8
100
AcDbEntity
  8
0
100
AcDbLine
 10
0.0
 20
0.0
 30
0.0
 11
-1.0
 21
-0.166667
 31
0.0
  0
LINE
  5
AAB
330
AA8
100
AcDbEntity
  8
0
100
AcDbLine
 10
-1.0
 20
0.166667
 30
0.0
 11
-1.0
 21
-0.166667
 31
0.0
  0
LINE
  5
AAC
330
AA8
100
AcDbEntity
  8
0
100
AcDbLine
 10
0.0
 20
0.0
 30
0.0
 11
-1.0
 21
0.0
 31
0.0
  0
ENDBLK
  5
AAE
330
AA8
100
AcDbEntity
  8
0
100
AcDbBlockEnd
  0
BLOCK
  5
BD2
330
BB3
100
AcDbEntity
  8
0
100
AcDbBlockBegin
  2
118610PL
 70
     0
 10
0.0
 20
0.0
 30
0.0
  3
118610PL
  1

  0
LINE
  5
BB4
330
BB3
100
AcDbEntity
  8
BLOCKS
100
AcDbLine
 10
0.203136317328528
 20
-0.0693636205510154
 30
0.0
 11
0.203136317328528
 21
-0.1089999751516609
 31
0.0
  0
ARC
  5
BB5
330
BB3
100
AcDbEntity
  8
BLOCKS
100
AcDbCircle
 10
0.1981817730033353
 20
-0.1089999751516609
 30
0.0
 40
0.0049545443250851
100
AcDbArc
 50
270.0
 51
0.0
  0
LINE
  5
BB6
330
BB3
100
AcDbEntity
  8
BLOCKS
100
AcDbLine
 10
0.197350199616435
 20
-0.113954519477079
 30
0.0
 11
0.1981817730033353
 21
-0.1139545194768539
 31
0.0
  0
ARC
  5
BB7
330
BB3
100
AcDbEntity
  8
BLOCKS
100
AcDbCircle
 10
0.197350199616435
 20
-0.1040454308266931
 30
0.0
 40
0.0099090886501701
100
AcDbArc
 50
189.5940683104868
 51
270.0
  0
LINE
  5
BB8
330
BB3
100
AcDbEntity
  8
BLOCKS
100
AcDbLine
 10
0.203136317328528
 20
-0.1089999751516609
 30
0.0
 11
0.2031363169236701
 21
-0.4307861481513652
 31
0.0
  0
LINE
  5
BB9
330
BB3
100
AcDbEntity
  8
BLOCKS
100
AcDbLine
 10
-0.1337726967774006
 20
-0.0000000000001137
 30
0.0
 11
0.1337726967774006
 21
0.0000000000001125
 31
0.0
  0
ARC
  5
BBA
330
BB3
100
AcDbEntity
  8
BLOCKS
100
AcDbCircle
 10
0.0941363421760798
 20
-0.1783635957027877
 30
0.0
 40
0.069363620551191
100
AcDbArc
 50
0.0000000000651378
 51
90.0
  0
LINE
  5
BBB
330
BB3
100
AcDbEntity
  8
BLOCKS
100
AcDbLine
 10
-0.1387272411023688
 20
-0.0644090762260476
 30
0.0
 11
0.1387272411021431
 21
-0.0644090762260476
 31
0.0
  0
LINE
  5
BBC
330
BB3
100
AcDbEntity
  8
BLOCKS
100
AcDbLine
 10
-0.0941363421772067
 20
-0.1089999751516609
 30
0.0
 11
0.0941363421760798
 21
-0.1089999751516609
 31
0.0
  0
ARC
  5
BBD
330
BB3
100
AcDbEntity
  8
BLOCKS
100
AcDbCircle
 10
0.0934999627276739
 20
-0.3985385370893351
 30
0.0
 40
0.07
100
AcDbArc
 50
279.9680146067609
 51
0.0000000001302755
  0
CIRCLE
  5
BBE
330
BB3
100
AcDbEntity
  8
BLOCKS
100
AcDbCircle
 10
-0.0000000000001128
 20
-0.3121362924803015
 30
0.0
 40
0.0495454432508507
  0
ARC
  5
BBF
330
BB3
100
AcDbEntity
  8
BLOCKS
100
AcDbCircle
 10
0.0047872762160685
 20
0.1062237081486341
 30
0.0
 40
0.5824986487453207
100
AcDbArc
 50
258.9432905208127
 51
279.9680146067609
  0
LINE
  5
BC0
330
BB3
100
AcDbEntity
  8
BLOCKS
100
AcDbLine
 10
0.163499962727208
 20
-0.1783635957027877
 30
0.0
 11
0.1634999627276738
 21
-0.3985385370891868
 31
0.0
  0
LINE
  5
BC1
330
BB3
100
AcDbEntity
  8
BLOCKS
100
AcDbLine
 10
-0.2031363173285291
 20
-0.108999975151886
 30
0.0
 11
-0.2031363173285291
 21
-0.0693636205512417
 31
0.0
  0
ARC
  5
BC2
330
BB3
100
AcDbEntity
  8
BLOCKS
100
AcDbCircle
 10
-0.1981817730033355
 20
-0.108999975151886
 30
0.0
 40
0.0049545443250851
100
AcDbArc
 50
180.0000000000325
 51
270.0
  0
LINE
  5
BC3
330
BB3
100
AcDbEntity
  8
BLOCKS
100
AcDbLine
 10
-0.1981817730033355
 20
-0.113954519477079
 30
0.0
 11
-0.1973501996166607
 21
-0.113954519477079
 31
0.0
  0
ARC
  5
BC4
330
BB3
100
AcDbEntity
  8
BLOCKS
100
AcDbCircle
 10
-0.1973501996166607
 20
-0.1040454308269182
 30
0.0
 40
0.0099090886501701
100
AcDbArc
 50
270.0
 51
350.4059316895133
  0
LINE
  5
BC5
330
BB3
100
AcDbEntity
  8
BLOCKS
100
AcDbLine
 10
-0.2031363173283098
 20
-0.4284071404405336
 30
0.0
 11
-0.2031363173285291
 21
-0.108999975151886
 31
0.0
  0
LINE
  5
BC6
330
BB3
100
AcDbEntity
  8
BLOCKS
100
AcDbLine
 10
-0.1634999627283351
 20
-0.1783635957027877
 30
0.0
 11
-0.163499962728105
 21
-0.396761861849738
 31
0.0
  0
ARC
  5
BC7
330
BB3
100
AcDbEntity
  8
BLOCKS
100
AcDbCircle
 10
-0.093499962728105
 20
-0.3967618618496641
 30
0.0
 40
0.07
100
AcDbArc
 50
180.0000000000651
 51
258.9432905208127
  0
ARC
  5
BC8
330
BB3
100
AcDbEntity
  8
BLOCKS
100
AcDbCircle
 10
-0.1387272411023688
 20
-0.1139545194768539
 30
0.0
 40
0.0495454432508507
100
AcDbArc
 50
90.0
 51
170.4059316903057
  0
ARC
  5
BC9
330
BB3
100
AcDbEntity
  8
BLOCKS
100
AcDbCircle
 10
-0.0941363421772067
 20
-0.1783635957027877
 30
0.0
 40
0.069363620551191
100
AcDbArc
 50
90.0
 51
180.0000000000651
  0
ARC
  5
BCA
330
BB3
100
AcDbEntity
  8
BLOCKS
100
AcDbCircle
 10
-0.0941363421772067
 20
-0.1783635957027877
 30
0.0
 40
0.069363620551191
100
AcDbArc
 50
90.0
 51
180.0
  0
ARC
  5
BCB
330
BB3
100
AcDbEntity
  8
BLOCKS
100
AcDbCircle
 10
-0.1337726967774006
 20
-0.0693636205512417
 30
0.0
 40
0.0693636205511279
100
AcDbArc
 50
90.0
 51
180.0
  0
ARC
  5
BCC
330
BB3
100
AcDbEntity
  8
BLOCKS
100
AcDbCircle
 10
0.0047872762160685
 20
0.1062237081486341
 30
0.0
 40
0.6221350033454847
100
AcDbArc
 50
255.5342935595385
 51
283.4419176469097
  0
ARC
  5
BCD
330
BB3
100
AcDbEntity
  8
BLOCKS
100
AcDbCircle
 10
-0.1331363173283099
 20
-0.4284071404404853
 30
0.0
 40
0.07
100
AcDbArc
 50
180.0000000000325
 51
255.5342935595385
  0
ARC
  5
BCE
330
BB3
100
AcDbEntity
  8
BLOCKS
100
AcDbCircle
 10
0.1331363169236692
 20
-0.4307861480632944
 30
0.0
 40
0.07
100
AcDbArc
 50
283.4419176469097
 51
359.999999927925
  0
ARC
  5
BCF
330
BB3
100
AcDbEntity
  8
BLOCKS
100
AcDbCircle
 10
0.1337726967774006
 20
-0.0693636205510154
 30
0.0
 40
0.0693636205511279
100
AcDbArc
 50
0.0
 51
90.0
  0
ARC
  5
BD0
330
BB3
100
AcDbEntity
  8
BLOCKS
100
AcDbCircle
 10
0.1387272411021431
 20
-0.1139545194768539
 30
0.0
 40
0.0495454432508507
100
AcDbArc
 50
9.594068309956652
 51
90.0
  0
ARC
  5
BD1
330
BB3
100
AcDbEntity
  8
BLOCKS
100
AcDbCircle
 10
0.0941363421763052
 20
-0.1783635957027877
 30
0.0
 40
0.069363620551191
100
AcDbArc
 50
0.0
 51
90.00000000006513
  0
ENDBLK
  5
BD3
330
BB3
100
AcDbEntity
  8
0
100
AcDbBlockEnd
  0
BLOCK
  5
BEF
330
BD6
100
AcDbEntity
  8
0
100
AcDbBlockBegin
  2
118610AF
 70
     0
 10
0.0
 20
0.0
 30
0.0
  3
118610AF
  1

  0
LINE
  5
BD7
330
BD6
100
AcDbEntity
  8
BLOCKS
100
AcDbLine
 10
0.2031363173280778
 20
0.4013180903314134
 30
0.0
 11
0.2031363173280778
 21
0.3914090016817027
 31
0.0
  0
LINE
  5
BD8
330
BD6
100
AcDbEntity
  8
BLOCKS
100
AcDbLine
 10
0.193227228677917
 20
0.4013180903314134
 30
0.0
 11
0.193227228677917
 21
0.3914090016817027
 31
0.0
  0
ARC
  5
BD9
330
BD6
100
AcDbEntity
  8
BLOCKS
100
AcDbCircle
 10
0.1535908740779951
 20
0.3150561656429955
 30
0.0
 40
0.0495454432509837
100
AcDbArc
 50
341.6333644174277
 51
359.9999999992835
  0
LINE
  5
BDA
330
BD6
100
AcDbEntity
  8
BLOCKS
100
AcDbLine
 10
0.2031363173280778
 20
0.3914090016817027
 30
0.0
 11
0.2031363173289793
 21
0.315056165642377
 31
0.0
  0
ARC
  5
BDB
330
BD6
100
AcDbEntity
  8
BLOCKS
100
AcDbCircle
 10
0.1123606571854242
 20
0.1981365606243981
 30
0.0
 40
0.012
100
AcDbArc
 50
101.1210444661208
 51
186.7889745745111
  0
LINE
  5
BDC
330
BD6
100
AcDbEntity
  8
BLOCKS
100
AcDbLine
 10
0.1004447978950856
 20
0.1967180059469621
 30
0.0
 11
0.1225445044777354
 21
0.0110804706546645
 31
0.0
  0
ARC
  5
BDD
330
BD6
100
AcDbEntity
  8
BLOCKS
100
AcDbCircle
 10
-0.1123606571858326
 20
0.1981365606241093
 30
0.0
 40
0.012
100
AcDbArc
 50
353.2110254255859
 51
78.87895553419534
  0
LINE
  5
BDE
330
BD6
100
AcDbEntity
  8
BLOCKS
100
AcDbLine
 10
-0.1225445044777352
 20
0.0110804706546645
 30
0.0
 11
-0.1004447978954914
 21
0.1967180059466972
 31
0.0
  0
ARC
  5
BDF
330
BD6
100
AcDbEntity
  8
BLOCKS
100
AcDbCircle
 10
-0.0007770708781564
 20
0.7781814911092216
 30
0.0
 40
0.579544667607069
100
AcDbArc
 50
259.8315145105102
 51
280.1684854894898
  0
ARC
  5
BE0
330
BD6
100
AcDbEntity
  8
BLOCKS
100
AcDbCircle
 10
-0.1634999627283795
 20
0.4013180903316834
 30
0.0
 40
0.0396363546005994
100
AcDbArc
 50
89.99999999993486
 51
179.9999999994137
  0
ARC
  5
BE1
330
BD6
100
AcDbEntity
  8
BLOCKS
100
AcDbCircle
 10
-0.1519393593037103
 20
0.4013180903320893
 30
0.0
 40
0.0412878693751081
100
AcDbArc
 50
106.2602047077296
 51
180.0000000000651
  0
LINE
  5
BE2
330
BD6
100
AcDbEntity
  8
BLOCKS
100
AcDbLine
 10
-0.2031363173289792
 20
0.3914090016817027
 30
0.0
 11
-0.2031363173289792
 21
0.4013180903320893
 31
0.0
  0
LINE
  5
BE3
330
BD6
100
AcDbEntity
  8
BLOCKS
100
AcDbLine
 10
-0.1932272286788183
 20
0.3914090016817027
 30
0.0
 11
-0.1932272286788183
 21
0.4013180903320893
 31
0.0
  0
ARC
  5
BE4
330
BD6
100
AcDbEntity
  8
BLOCKS
100
AcDbCircle
 10
-0.1535908740772493
 20
0.3150561656393632
 30
0.0
 40
0.0495454432508288
100
AcDbArc
 50
179.9999999991206
 51
198.3666355817843
  0
LINE
  5
BE5
330
BD6
100
AcDbEntity
  8
BLOCKS
100
AcDbLine
 10
-0.2031363173280779
 20
0.3150561656401243
 30
0.0
 11
-0.2031363173289792
 21
0.3914090016817027
 31
0.0
  0
ARC
  5
BE6
330
BD6
100
AcDbEntity
  8
BLOCKS
100
AcDbCircle
 10
-0.08782307184215
 20
0.3229629758183745
 30
0.0
 40
0.1152152782677835
100
AcDbArc
 50
191.7783248740373
 51
258.8789555341953
  0
LINE
  5
BE7
330
BD6
100
AcDbEntity
  8
BLOCKS
100
AcDbLine
 10
-0.1634999627283351
 20
0.4409544449322835
 30
0.0
 11
0.1634999627274328
 21
0.4409544449325085
 31
0.0
  0
LINE
  5
BE8
330
BD6
100
AcDbEntity
  8
BLOCKS
100
AcDbLine
 10
0.1127048956401359
 20
0.0
 30
0.0
 11
-0.1127048956401359
 21
0.0
 31
0.0
  0
ARC
  5
BE9
330
BD6
100
AcDbEntity
  8
BLOCKS
100
AcDbCircle
 10
-0.1127048956401404
 20
0.0099090886501887
 30
0.0
 40
0.0099090886501884
100
AcDbArc
 50
173.2110254255535
 51
270.0000000000326
  0
ARC
  5
BEA
330
BD6
100
AcDbEntity
  8
BLOCKS
100
AcDbCircle
 10
0.1127048956401404
 20
0.0099090886501887
 30
0.0
 40
0.0099090886501883
100
AcDbArc
 50
269.9999999999674
 51
6.788974574446491
  0
ARC
  5
BEB
330
BD6
100
AcDbEntity
  8
BLOCKS
100
AcDbCircle
 10
0.0878230718406877
 20
0.3229629758204021
 30
0.0
 40
0.1152152782696931
100
AcDbArc
 50
281.1210444661208
 51
348.2216751265983
  0
LINE
  5
BEC
330
BD6
100
AcDbEntity
  8
BLOCKS
100
AcDbLine
 10
-0.2031363173287537
 20
0.3914090016817027
 30
0.0
 11
0.2031363173283034
 21
0.3914090016817027
 31
0.0
  0
ARC
  5
BED
330
BD6
100
AcDbEntity
  8
BLOCKS
100
AcDbCircle
 10
0.1634999627274019
 20
0.4013180903318324
 30
0.0
 40
0.0396363546006762
100
AcDbArc
 50
359.9999999994138
 51
89.99999999995115
  0
ARC
  5
BEE
330
BD6
100
AcDbEntity
  8
BLOCKS
100
AcDbCircle
 10
0.1519393593034846
 20
0.4013180903320893
 30
0.0
 40
0.0412878693751081
100
AcDbArc
 50
359.9999999999349
 51
73.73979529227037
  0
ENDBLK
  5
BF0
330
BD6
100
AcDbEntity
  8
0
100
AcDbBlockEnd
  0
BLOCK
  5
C0F
330
BF2
100
AcDbEntity
  8
0
100
AcDbBlockBegin
  2
118610AL
 70
     0
 10
0.0
 20
0.0
 30
0.0
  3
118610AL
  1

  0
ARC
  5
BF3
330
BF2
100
AcDbEntity
  8
BLOCKS
100
AcDbCircle
 10
0.495887899346148
 20
0.3776731243792682
 30
0.0
 40
0.0099606117714202
100
AcDbArc
 50
1.660734077762705
 51
92.65675416547583
  0
ARC
  5
BF4
330
BF2
100
AcDbEntity
  8
BLOCKS
100
AcDbCircle
 10
0.4472938985419609
 20
0.0030000000000007
 30
0.0
 40
0.003
100
AcDbArc
 50
270.0
 51
9.91113163295345
  0
LINE
  5
BF5
330
BF2
100
AcDbEntity
  8
BLOCKS
100
AcDbLine
 10
0.4153699012208456
 20
0.2031363173281909
 30
0.0
 11
0.4502491262556124
 21
0.0035163614629948
 31
0.0
  0
ARC
  5
BF6
330
BF2
100
AcDbEntity
  8
BLOCKS
100
AcDbCircle
 10
0.295667447765851
 20
0.375907448454106
 30
0.0
 40
0.2101869194635935
100
AcDbArc
 50
304.715699152564
 51
0.560012319437334
  0
ARC
  5
BF7
330
BF2
100
AcDbEntity
  8
BLOCKS
100
AcDbCircle
 10
0.1513556604294428
 20
0.4176230299426749
 30
0.0
 40
0.03
100
AcDbArc
 50
186.1472638847557
 51
270.0
  0
CIRCLE
  5
BF8
330
BF2
100
AcDbEntity
  8
BLOCKS
100
AcDbCircle
 10
0.0936655302724268
 20
0.4232566892252618
 30
0.0
 40
0.0049545443250851
  0
LINE
  5
BF9
330
BF2
100
AcDbEntity
  8
BLOCKS
100
AcDbLine
 10
0.0047071461287396
 20
0.3567271914053509
 30
0.0
 11
0.0047071461285196
 21
0.4053092929807321
 31
0.0
  0
LINE
  5
BFA
330
BF2
100
AcDbEntity
  8
BLOCKS
100
AcDbLine
 10
-0.0000000000036994
 20
0.4062726346563813
 30
0.0
 11
-0.000000000003925
 21
0.4310453562821221
 31
0.0
  0
ARC
  5
BFB
330
BF2
100
AcDbEntity
  8
BLOCKS
100
AcDbCircle
 10
0.0099090886462363
 20
0.4310453562821221
 30
0.0
 40
0.0099090886501701
100
AcDbArc
 50
90.0
 51
180.0
  0
ARC
  5
BFC
330
BF2
100
AcDbEntity
  8
BLOCKS
100
AcDbCircle
 10
-0.019363834999283
 20
0.2996738758285295
 30
0.0
 40
0.1083432207818053
100
AcDbArc
 50
31.77587739981824
 51
79.70439286909904
  0
LINE
  5
BFD
330
BF2
100
AcDbEntity
  8
BLOCKS
100
AcDbLine
 10
0.0727403053584749
 20
0.3567271914055658
 30
0.0
 11
0.0047071461287396
 21
0.3567271914053509
 31
0.0
  0
LINE
  5
BFE
330
BF2
100
AcDbEntity
  8
BLOCKS
100
AcDbLine
 10
0.0099090886462363
 20
0.4409544449322829
 30
0.0
 11
0.0919718293942879
 21
0.4409544449325092
 31
0.0
  0
ARC
  5
BFF
330
BF2
100
AcDbEntity
  8
BLOCKS
100
AcDbCircle
 10
0.0919718293942879
 20
0.4112271789822507
 30
0.0
 40
0.0297272659505104
100
AcDbArc
 50
6.14726388475577
 51
90.0
  0
ARC
  5
C00
330
BF2
100
AcDbEntity
  8
BLOCKS
100
AcDbCircle
 10
0.2041633684095382
 20
0.0836881925014171
 30
0.0
 40
0.012694924998883
100
AcDbArc
 50
2.054349443953079
 51
177.9456505560794
  0
LINE
  5
C01
330
BF2
100
AcDbEntity
  8
BLOCKS
100
AcDbLine
 10
0.2222656489202439
 20
0.019958736745761
 30
0.0
 11
0.2167470281453262
 21
0.0853652817599726
 31
0.0
  0
LINE
  5
C02
330
BF2
100
AcDbEntity
  8
BLOCKS
100
AcDbLine
 10
0.1195201983239713
 20
0.0035140235242591
 30
0.0
 11
0.1387272410985571
 21
0.1139545194769659
 31
0.0
  0
ARC
  5
C03
330
BF2
100
AcDbEntity
  8
BLOCKS
100
AcDbCircle
 10
0.1224758335884292
 20
0.0030000000000001
 30
0.0
 40
0.003
100
AcDbArc
 50
170.1341930568263
 51
270.0
  0
LINE
  5
C04
330
BF2
100
AcDbEntity
  8
BLOCKS
100
AcDbLine
 10
0.1385903749196387
 20
0.1131675389481836
 30
0.0
 11
0.1197229850241115
 21
0.100885443034623
 31
0.0
  0
LINE
  5
C05
330
BF2
100
AcDbEntity
  8
BLOCKS
100
AcDbLine
 10
0.1860610878988319
 20
0.0199587367457605
 30
0.0
 11
0.2222656489202439
 21
0.019958736745761
 31
0.0
  0
LINE
  5
C06
330
BF2
100
AcDbEntity
  8
BLOCKS
100
AcDbLine
 10
0.1860610878988319
 20
0.0199587367457605
 30
0.0
 11
0.1915797086737496
 21
0.0853652817599726
 31
0.0
  0
ARC
  5
C07
330
BF2
100
AcDbEntity
  8
BLOCKS
100
AcDbCircle
 10
-0.1784693581850803
 20
0.1097811403373203
 30
0.0
 40
0.3170778170291757
100
AcDbArc
 50
0.6119319184671993
 51
17.12058862513333
  0
LINE
  5
C08
330
BF2
100
AcDbEntity
  8
BLOCKS
100
AcDbLine
 10
0.1197229850241115
 20
0.100885443034623
 30
0.0
 11
0.0744168326105648
 21
0.1704834048404774
 31
0.0
  0
LINE
  5
C09
330
BF2
100
AcDbEntity
  8
BLOCKS
100
AcDbLine
 10
0.0744168326105648
 20
0.1704834048404774
 30
0.0
 11
0.1245578823938672
 21
0.2031237004002424
 31
0.0
  0
ARC
  5
C0A
330
BF2
100
AcDbEntity
  8
BLOCKS
100
AcDbCircle
 10
0.2603090287513499
 20
0.3924969832761673
 30
0.0
 40
0.1909489565451961
100
AcDbArc
 50
190.7968003458865
 51
262.6048759719268
  0
LINE
  5
C0B
330
BF2
100
AcDbEntity
  8
BLOCKS
100
AcDbLine
 10
0.1245578823938763
 20
0.2031237004001917
 30
0.0
 11
0.1139545194730402
 21
0.2698517158598446
 31
0.0
  0
LINE
  5
C0C
330
BF2
100
AcDbEntity
  8
BLOCKS
100
AcDbLine
 10
0.4472938985419609
 20
0.0000000000000006
 30
0.0
 11
0.1224758335884292
 21
0.0
 31
0.0
  0
ARC
  5
C0D
330
BF2
100
AcDbEntity
  8
BLOCKS
100
AcDbCircle
 10
0.282809389617338
 20
0.606044501710814
 30
0.0
 40
0.4241547999010334
100
AcDbArc
 50
258.0461780596103
 51
288.2116827525038
  0
LINE
  5
C0E
330
BF2
100
AcDbEntity
  8
BLOCKS
100
AcDbLine
 10
0.495426200158085
 20
0.3876230299426749
 30
0.0
 11
0.1513556604294428
 21
0.3876230299426749
 31
0.0
  0
ENDBLK
  5
C10
330
BF2
100
AcDbEntity
  8
0
100
AcDbBlockEnd
  0
BLOCK
  5
C77
330
C12
100
AcDbEntity
  8
0
100
AcDbBlockBegin
  2
118610CT
 70
     0
 10
0.0
 20
0.0
 30
0.0
  3
118610CT
  1

  0
ARC
  5
C13
330
C12
100
AcDbEntity
  8
BLOCKS
100
AcDbCircle
 10
0.4959388193049347
 20
0.377695429274869
 30
0.0
 40
0.0099090886502528
100
AcDbArc
 50
1.540350879690032
 51
89.99999999986973
  0
ARC
  5
C14
330
C12
100
AcDbEntity
  8
BLOCKS
100
AcDbCircle
 10
0.495426200158085
 20
0.3805162658157224
 30
0.0
 40
0.0071067641269525
100
AcDbArc
 50
85.86359672091822
 51
164.1460746043983
  0
ARC
  5
C15
330
C12
100
AcDbEntity
  8
BLOCKS
100
AcDbCircle
 10
0.4687360763954314
 20
0.3704192223955471
 30
0.0
 40
0.003
100
AcDbArc
 50
90.0
 51
170.5645470226193
  0
ARC
  5
C16
330
C12
100
AcDbEntity
  8
BLOCKS
100
AcDbCircle
 10
0.4763638456212721
 20
0.3614192223955473
 30
0.0
 40
0.002
100
AcDbArc
 50
90.0
 51
170.5645470226193
  0
ARC
  5
C17
330
C12
100
AcDbEntity
  8
BLOCKS
100
AcDbCircle
 10
0.4946985296776621
 20
0.3680298016982602
 30
0.0
 40
0.001
100
AcDbArc
 50
357.7334171413649
 51
141.2472149851439
  0
ARC
  5
C18
330
C12
100
AcDbEntity
  8
BLOCKS
100
AcDbCircle
 10
0.4830007188153963
 20
0.377419222395547
 30
0.0
 40
0.014
100
AcDbArc
 50
270.0
 51
321.247214985144
  0
LINE
  5
C19
330
C12
100
AcDbEntity
  8
BLOCKS
100
AcDbLine
 10
0.4830007188153963
 20
0.3634192223955472
 30
0.0
 11
0.4763638456212721
 21
0.3634192223955472
 31
0.0
  0
ARC
  5
C1A
330
C12
100
AcDbEntity
  8
BLOCKS
100
AcDbCircle
 10
0.4830007188153963
 20
0.377419222395547
 30
0.0
 40
0.004
100
AcDbArc
 50
270.0
 51
344.1460746043983
  0
LINE
  5
C1B
330
C12
100
AcDbEntity
  8
BLOCKS
100
AcDbLine
 10
0.488589768072423
 20
0.3824577324505844
 30
0.0
 11
0.4868485640307649
 21
0.3763264794255093
 31
0.0
  0
LINE
  5
C1C
330
C12
100
AcDbEntity
  8
BLOCKS
100
AcDbLine
 10
0.4830007188153963
 20
0.3734192223955472
 30
0.0
 11
0.4687360763954314
 21
0.3734192223955472
 31
0.0
  0
LINE
  5
C1D
330
C12
100
AcDbEntity
  8
BLOCKS
100
AcDbLine
 10
0.4747483140959924
 20
0.336535671451698
 30
0.0
 11
0.4724663275152892
 21
0.3305356714516972
 31
0.0
  0
ARC
  5
C1E
330
C12
100
AcDbEntity
  8
BLOCKS
100
AcDbCircle
 10
0.4728789525330126
 20
0.3372466477852322
 30
0.0
 40
0.002
100
AcDbArc
 50
339.1766340463618
 51
86.20914006019827
  0
LINE
  5
C1F
330
C12
100
AcDbEntity
  8
BLOCKS
100
AcDbLine
 10
0.4859879667719509
 20
0.3379576241187675
 30
0.0
 11
0.4837059801912437
 21
0.3319576241187678
 31
0.0
  0
ARC
  5
C20
330
C12
100
AcDbEntity
  8
BLOCKS
100
AcDbCircle
 10
0.4855753417542258
 20
0.3312466477852325
 30
0.0
 40
0.002
100
AcDbArc
 50
159.1766340463617
 51
270.0
  0
ARC
  5
C21
330
C12
100
AcDbEntity
  8
BLOCKS
100
AcDbCircle
 10
0.4878573283349306
 20
0.3372466477852322
 30
0.0
 40
0.002
100
AcDbArc
 50
90.0
 51
159.1766340463197
  0
ARC
  5
C22
330
C12
100
AcDbEntity
  8
BLOCKS
100
AcDbCircle
 10
0.4705969659523089
 20
0.3312466477852325
 30
0.0
 40
0.002
100
AcDbArc
 50
270.0
 51
339.1766340463197
  0
ARC
  5
C23
330
C12
100
AcDbEntity
  8
BLOCKS
100
AcDbCircle
 10
0.4623923777268249
 20
0.3322466477852322
 30
0.0
 40
0.003
100
AcDbArc
 50
170.5645470226193
 51
270.0
  0
ARC
  5
C24
330
C12
100
AcDbEntity
  8
BLOCKS
100
AcDbCircle
 10
0.4877876745113264
 20
0.3272466477852322
 30
0.0
 40
0.002
100
AcDbArc
 50
345.786852805464
 51
90.0
  0
ARC
  5
C25
330
C12
100
AcDbEntity
  8
BLOCKS
100
AcDbCircle
 10
0.4907999256967725
 20
0.3412466477852325
 30
0.0
 40
0.002
100
AcDbArc
 50
270.0
 51
349.9277753504318
  0
ARC
  5
C26
330
C12
100
AcDbEntity
  8
BLOCKS
100
AcDbCircle
 10
0.473011471934031
 20
0.3412466477852325
 30
0.0
 40
0.002
100
AcDbArc
 50
170.5645470226193
 51
270.0
  0
LINE
  5
C27
330
C12
100
AcDbEntity
  8
BLOCKS
100
AcDbLine
 10
0.4907999256967725
 20
0.3392466477852327
 30
0.0
 11
0.473011471934031
 21
0.3392466477852327
 31
0.0
  0
LINE
  5
C28
330
C12
100
AcDbEntity
  8
BLOCKS
100
AcDbLine
 10
0.4877876745113264
 20
0.3292466477852327
 30
0.0
 11
0.4623923777268249
 21
0.3292466477852327
 31
0.0
  0
ARC
  5
C29
330
C12
100
AcDbEntity
  8
BLOCKS
100
AcDbCircle
 10
0.295667447765851
 20
0.3759074484541054
 30
0.0
 40
0.2001869194635935
100
AcDbArc
 50
349.9277753504318
 51
357.7334171413649
  0
LINE
  5
C2A
330
C12
100
AcDbEntity
  8
BLOCKS
100
AcDbLine
 10
0.4743909037985799
 20
0.3617470951822696
 30
0.0
 11
0.4710385301113388
 21
0.3415745205719549
 31
0.0
  0
LINE
  5
C2B
330
C12
100
AcDbEntity
  8
BLOCKS
100
AcDbLine
 10
0.4657766636613946
 20
0.3709110315756311
 30
0.0
 11
0.4594329649927863
 21
0.3327384569653157
 31
0.0
  0
ARC
  5
C2C
330
C12
100
AcDbEntity
  8
BLOCKS
100
AcDbCircle
 10
0.4513009368254792
 20
0.1892228231697533
 30
0.0
 40
0.033
100
AcDbArc
 50
127.3665806276994
 51
189.9111316329534
  0
ARC
  5
C2D
330
C12
100
AcDbEntity
  8
BLOCKS
100
AcDbCircle
 10
0.381499913027867
 20
0.1833181400280688
 30
0.0
 40
0.0198181773003474
100
AcDbArc
 50
90.00000000006513
 51
179.9999999999348
  0
ARC
  5
C2E
330
C12
100
AcDbEntity
  8
BLOCKS
100
AcDbCircle
 10
0.3948580862484818
 20
0.263136317328416
 30
0.0
 40
0.05
100
AcDbArc
 50
270.0
 51
311.3340426221841
  0
LINE
  5
C2F
330
C12
100
AcDbEntity
  8
BLOCKS
100
AcDbLine
 10
0.3814999130278415
 20
0.213136317328416
 30
0.0
 11
0.3948580862484818
 21
0.213136317328416
 31
0.0
  0
LINE
  5
C30
330
C12
100
AcDbEntity
  8
BLOCKS
100
AcDbLine
 10
0.3814999130278415
 20
0.203136317328416
 30
0.0
 11
0.3948580862484818
 21
0.203136317328416
 31
0.0
  0
ARC
  5
C31
330
C12
100
AcDbEntity
  8
BLOCKS
100
AcDbCircle
 10
0.381499913027867
 20
0.1833181400280688
 30
0.0
 40
0.0298181773003474
100
AcDbArc
 50
90.00000000006513
 51
179.9999999999348
  0
LINE
  5
C32
330
C12
100
AcDbEntity
  8
BLOCKS
100
AcDbLine
 10
0.2725908492259077
 20
0.1833181400281262
 30
0.0
 11
0.2725908492261334
 21
0.1139545194769988
 31
0.0
  0
LINE
  5
C33
330
C12
100
AcDbEntity
  8
BLOCKS
100
AcDbLine
 10
0.3516817357272941
 20
0.1139545194767731
 30
0.0
 11
0.3516817357275198
 21
0.1833181400281262
 31
0.0
  0
LINE
  5
C34
330
C12
100
AcDbEntity
  8
BLOCKS
100
AcDbLine
 10
0.3616817357272942
 20
0.1139545194767408
 30
0.0
 11
0.3616817357275198
 21
0.1833181400280938
 31
0.0
  0
ARC
  5
C35
330
C12
100
AcDbEntity
  8
BLOCKS
100
AcDbCircle
 10
0.3948580862484818
 20
0.263136317328416
 30
0.0
 40
0.06
100
AcDbArc
 50
270.0
 51
311.3340426221841
  0
ARC
  5
C36
330
C12
100
AcDbEntity
  8
BLOCKS
100
AcDbCircle
 10
0.295667447765851
 20
0.3759074484541054
 30
0.0
 40
0.2101869194635935
100
AcDbArc
 50
311.3340426221841
 51
0.560012319437334
  0
ARC
  5
C37
330
C12
100
AcDbEntity
  8
BLOCKS
100
AcDbCircle
 10
0.295667447765851
 20
0.3759074484541054
 30
0.0
 40
0.2001869194635935
100
AcDbArc
 50
311.3340426221841
 51
345.786852805464
  0
ARC
  5
C38
330
C12
100
AcDbEntity
  8
BLOCKS
100
AcDbCircle
 10
0.1994025838707131
 20
0.3604192223955471
 30
0.0
 40
0.003
100
AcDbArc
 50
19.09058491990844
 51
90.0
  0
ARC
  5
C39
330
C12
100
AcDbEntity
  8
BLOCKS
100
AcDbCircle
 10
0.2065235942688196
 20
0.3704192223955471
 30
0.0
 40
0.003
100
AcDbArc
 50
19.09058491990844
 51
90.0
  0
ARC
  5
C3A
330
C12
100
AcDbEntity
  8
BLOCKS
100
AcDbCircle
 10
0.1616646307629708
 20
0.4134192223955472
 30
0.0
 40
0.04
100
AcDbArc
 50
181.8015267248583
 51
270.0
  0
ARC
  5
C3B
330
C12
100
AcDbEntity
  8
BLOCKS
100
AcDbCircle
 10
0.1513556604294428
 20
0.4176230299426754
 30
0.0
 40
0.03
100
AcDbArc
 50
186.1472638847557
 51
270.0
  0
LINE
  5
C3C
330
C12
100
AcDbEntity
  8
BLOCKS
100
AcDbLine
 10
0.2065235942688196
 20
0.3734192223955472
 30
0.0
 11
0.1606249115854666
 21
0.3734192223955472
 31
0.0
  0
LINE
  5
C3D
330
C12
100
AcDbEntity
  8
BLOCKS
100
AcDbLine
 10
0.1994025838707131
 20
0.3634192223955472
 30
0.0
 11
0.1616646307629708
 21
0.3634192223955472
 31
0.0
  0
ARC
  5
C3E
330
C12
100
AcDbEntity
  8
BLOCKS
100
AcDbCircle
 10
0.2002746819220812
 20
0.3312466477852325
 30
0.0
 40
0.002
100
AcDbArc
 50
205.6199580139636
 51
270.0
  0
ARC
  5
C3F
330
C12
100
AcDbEntity
  8
BLOCKS
100
AcDbCircle
 10
0.1973973933952385
 20
0.3372466477852322
 30
0.0
 40
0.002
100
AcDbArc
 50
90.0
 51
205.6199580139636
  0
LINE
  5
C40
330
C12
100
AcDbEntity
  8
BLOCKS
100
AcDbLine
 10
0.1955940294713457
 20
0.3363818480639088
 30
0.0
 11
0.1984713179981884
 21
0.3303818480639092
 31
0.0
  0
ARC
  5
C41
330
C12
100
AcDbEntity
  8
BLOCKS
100
AcDbCircle
 10
0.2085006481583446
 20
0.3402466477852323
 30
0.0
 40
0.001
100
AcDbArc
 50
270.0
 51
19.09058491990844
  0
LINE
  5
C42
330
C12
100
AcDbEntity
  8
BLOCKS
100
AcDbLine
 10
0.2197350089481119
 20
0.3292466477852327
 30
0.0
 11
0.2002746819220812
 21
0.3292466477852327
 31
0.0
  0
LINE
  5
C43
330
C12
100
AcDbEntity
  8
BLOCKS
100
AcDbLine
 10
0.2085006481583446
 20
0.3392466477852327
 30
0.0
 11
0.1973973933952385
 21
0.3392466477852327
 31
0.0
  0
ARC
  5
C44
330
C12
100
AcDbEntity
  8
BLOCKS
100
AcDbCircle
 10
0.2197350089481119
 20
0.3322466477852322
 30
0.0
 40
0.003
100
AcDbArc
 50
270.0
 51
19.09058491990844
  0
ARC
  5
C45
330
C12
100
AcDbEntity
  8
BLOCKS
100
AcDbCircle
 10
0.1818708545591073
 20
0.3372466477852322
 30
0.0
 40
0.002
100
AcDbArc
 50
25.61995801396359
 51
90.0
  0
LINE
  5
C46
330
C12
100
AcDbEntity
  8
BLOCKS
100
AcDbLine
 10
0.1847481430859517
 20
0.3292466477852327
 30
0.0
 11
0.1139671647000961
 21
0.3292466477852327
 31
0.0
  0
LINE
  5
C47
330
C12
100
AcDbEntity
  8
BLOCKS
100
AcDbLine
 10
0.1818708545591073
 20
0.3392466477852327
 30
0.0
 11
0.1973973933952385
 21
0.3392466477852327
 31
0.0
  0
LINE
  5
C48
330
C12
100
AcDbEntity
  8
BLOCKS
100
AcDbLine
 10
0.1847481430859517
 20
0.3292466477852327
 30
0.0
 11
0.2002746819220812
 21
0.3292466477852327
 31
0.0
  0
ARC
  5
C49
330
C12
100
AcDbEntity
  8
BLOCKS
100
AcDbCircle
 10
0.1847481430859517
 20
0.3312466477852325
 30
0.0
 40
0.002
100
AcDbArc
 50
270.0
 51
25.61995801396359
  0
LINE
  5
C4A
330
C12
100
AcDbEntity
  8
BLOCKS
100
AcDbLine
 10
0.1836742184830001
 20
0.3381114475065561
 30
0.0
 11
0.1865515070098445
 21
0.3321114475065559
 31
0.0
  0
LINE
  5
C4B
330
C12
100
AcDbEntity
  8
BLOCKS
100
AcDbLine
 10
0.2022375918783183
 20
0.3614004102454612
 30
0.0
 11
0.2094456508275454
 21
0.3405737104018703
 31
0.0
  0
LINE
  5
C4C
330
C12
100
AcDbEntity
  8
BLOCKS
100
AcDbLine
 10
0.2093586022764248
 20
0.3714004102454612
 30
0.0
 11
0.2225700169557172
 21
0.3332278356351463
 31
0.0
  0
CIRCLE
  5
C4D
330
C12
100
AcDbEntity
  8
BLOCKS
100
AcDbCircle
 10
0.0936655302724268
 20
0.4232566892252618
 30
0.0
 40
0.0049545443250851
  0
ARC
  5
C4E
330
C12
100
AcDbEntity
  8
BLOCKS
100
AcDbCircle
 10
0.0694597182662733
 20
0.3527271914055552
 30
0.0
 40
0.014
100
AcDbArc
 50
11.77102773215703
 51
90.00000000019539
  0
LINE
  5
C4F
330
C12
100
AcDbEntity
  8
BLOCKS
100
AcDbLine
 10
-0.0000000000036994
 20
0.4062726346563813
 30
0.0
 11
-0.000000000003925
 21
0.4310453562821221
 31
0.0
  0
LINE
  5
C50
330
C12
100
AcDbEntity
  8
BLOCKS
100
AcDbLine
 10
0.0047071461287396
 20
0.3567271914053504
 30
0.0
 11
0.0047071461285213
 21
0.4050248832291249
 31
0.0
  0
LINE
  5
C51
330
C12
100
AcDbEntity
  8
BLOCKS
100
AcDbLine
 10
-0.0000000000036994
 20
0.4062726346563813
 30
0.0
 11
0.0047071461285213
 21
0.4050248832291249
 31
0.0
  0
ARC
  5
C52
330
C12
100
AcDbEntity
  8
BLOCKS
100
AcDbCircle
 10
0.0099090886462363
 20
0.4310453562821221
 30
0.0
 40
0.0099090886501701
100
AcDbArc
 50
90.0
 51
180.0
  0
LINE
  5
C53
330
C12
100
AcDbEntity
  8
BLOCKS
100
AcDbLine
 10
0.0694597182662295
 20
0.366727191405555
 30
0.0
 11
0.0047071461287089
 21
0.3667271914053503
 31
0.0
  0
LINE
  5
C54
330
C12
100
AcDbEntity
  8
BLOCKS
100
AcDbLine
 10
0.0694597182662602
 20
0.3567271914055556
 30
0.0
 11
0.0047071461287396
 21
0.3567271914053504
 31
0.0
  0
LINE
  5
C55
330
C12
100
AcDbEntity
  8
BLOCKS
100
AcDbLine
 10
-0.0000000000039233
 20
0.4309544449322562
 30
0.0
 11
0.0919718293943152
 21
0.4309544449325086
 31
0.0
  0
LINE
  5
C56
330
C12
100
AcDbEntity
  8
BLOCKS
100
AcDbLine
 10
0.0099090886462363
 20
0.4409544449322835
 30
0.0
 11
0.0919718293942879
 21
0.4409544449325085
 31
0.0
  0
ARC
  5
C57
330
C12
100
AcDbEntity
  8
BLOCKS
100
AcDbCircle
 10
0.0964732581162537
 20
0.3512466477852326
 30
0.0
 40
0.012
100
AcDbArc
 50
194.1321132447594
 51
270.0
  0
ARC
  5
C58
330
C12
100
AcDbEntity
  8
BLOCKS
100
AcDbCircle
 10
0.2603090287513499
 20
0.3924969832761667
 30
0.0
 40
0.1809489565451961
100
AcDbArc
 50
191.771027732157
 51
194.1321132447594
  0
ARC
  5
C59
330
C12
100
AcDbEntity
  8
BLOCKS
100
AcDbCircle
 10
0.0694597182662733
 20
0.3527271914055552
 30
0.0
 40
0.004
100
AcDbArc
 50
11.77102773212514
 51
90.00000000019539
  0
ARC
  5
C5A
330
C12
100
AcDbEntity
  8
BLOCKS
100
AcDbCircle
 10
0.1139671647000961
 20
0.3142466477852326
 30
0.0
 40
0.015
100
AcDbArc
 50
90.0
 51
208.1338240671973
  0
LINE
  5
C5B
330
C12
100
AcDbEntity
  8
BLOCKS
100
AcDbLine
 10
0.1818708545591073
 20
0.3392466477852327
 30
0.0
 11
0.0964732581162537
 21
0.3392466477852327
 31
0.0
  0
ARC
  5
C5C
330
C12
100
AcDbEntity
  8
BLOCKS
100
AcDbCircle
 10
0.0919718293942879
 20
0.4112271789822507
 30
0.0
 40
0.0197272659505104
100
AcDbArc
 50
1.801526724858358
 51
90.0
  0
ARC
  5
C5D
330
C12
100
AcDbEntity
  8
BLOCKS
100
AcDbCircle
 10
0.0919718293942879
 20
0.4112271789822507
 30
0.0
 40
0.0297272659505104
100
AcDbArc
 50
6.14726388475577
 51
90.0
  0
ARC
  5
C5E
330
C12
100
AcDbEntity
  8
BLOCKS
100
AcDbCircle
 10
0.1616646307629708
 20
0.4134192223955472
 30
0.0
 40
0.05
100
AcDbArc
 50
181.8015267248583
 51
270.0
  0
ARC
  5
C5F
330
C12
100
AcDbEntity
  8
BLOCKS
100
AcDbCircle
 10
0.2427726719255611
 20
0.1833181400280688
 30
0.0
 40
0.0198181773003474
100
AcDbArc
 50
0.0000000000651378
 51
89.28030293396615
  0
ARC
  5
C60
330
C12
100
AcDbEntity
  8
BLOCKS
100
AcDbCircle
 10
0.2444032859992314
 20
0.3131260760540602
 30
0.0
 40
0.11
100
AcDbArc
 50
258.6681622006468
 51
269.2803029339661
  0
ARC
  5
C61
330
C12
100
AcDbEntity
  8
BLOCKS
100
AcDbCircle
 10
0.2444032859992314
 20
0.3131260760540602
 30
0.0
 40
0.1
100
AcDbArc
 50
258.6681622006468
 51
269.2803029339661
  0
ARC
  5
C62
330
C12
100
AcDbEntity
  8
BLOCKS
100
AcDbCircle
 10
0.1731033569474914
 20
0.1238107683312978
 30
0.0
 40
0.0099090886501512
100
AcDbArc
 50
354.31442200902
 51
123.0629011671476
  0
LINE
  5
C63
330
C12
100
AcDbEntity
  8
BLOCKS
100
AcDbLine
 10
0.2416026767004973
 20
0.0297272659502585
 30
0.0
 11
0.1783635956989747
 21
0.0297272659502585
 31
0.0
  0
ARC
  5
C64
330
C12
100
AcDbEntity
  8
BLOCKS
100
AcDbCircle
 10
0.1731033569474914
 20
0.1238107683312978
 30
0.0
 40
0.0199090886501512
100
AcDbArc
 50
354.31442200902
 51
123.0629011671476
  0
LINE
  5
C65
330
C12
100
AcDbEntity
  8
BLOCKS
100
AcDbLine
 10
0.1783635956989747
 20
0.0297272659502585
 30
0.0
 11
0.1783635956989747
 21
0.1322083826444515
 31
0.0
  0
LINE
  5
C66
330
C12
100
AcDbEntity
  8
BLOCKS
100
AcDbLine
 10
0.1622417659633538
 20
0.1404960208667825
 30
0.0
 11
0.114267390760117
 21
0.1092661644371435
 31
0.0
  0
LINE
  5
C67
330
C12
100
AcDbEntity
  8
BLOCKS
100
AcDbLine
 10
0.1676973602273483
 20
0.132115299464262
 30
0.0
 11
0.1197229850241115
 21
0.100885443034623
 31
0.0
  0
LINE
  5
C68
330
C12
100
AcDbEntity
  8
BLOCKS
100
AcDbLine
 10
0.2625908492259077
 20
0.1833181400280938
 30
0.0
 11
0.2625908492261334
 21
0.1139545194769659
 31
0.0
  0
LINE
  5
C69
330
C12
100
AcDbEntity
  8
BLOCKS
100
AcDbLine
 10
0.0798724268744741
 20
0.1621026834379012
 30
0.0
 11
0.1684996968928976
 21
0.2197963356561615
 31
0.0
  0
LINE
  5
C6A
330
C12
100
AcDbEntity
  8
BLOCKS
100
AcDbLine
 10
0.0744168326105648
 20
0.1704834048404774
 30
0.0
 11
0.1630441026289884
 21
0.2281770570587383
 31
0.0
  0
LINE
  5
C6B
330
C12
100
AcDbEntity
  8
BLOCKS
100
AcDbLine
 10
0.1197229850241115
 20
0.100885443034623
 30
0.0
 11
0.0744168326105648
 21
0.1704834048404774
 31
0.0
  0
ARC
  5
C6C
330
C12
100
AcDbEntity
  8
BLOCKS
100
AcDbCircle
 10
0.2603090287513499
 20
0.3924969832761667
 30
0.0
 40
0.1809489565451961
100
AcDbArc
 50
208.1338240671973
 51
258.6681622006468
  0
ARC
  5
C6D
330
C12
100
AcDbEntity
  8
BLOCKS
100
AcDbCircle
 10
0.2603090287513499
 20
0.3924969832761667
 30
0.0
 40
0.1909489565451961
100
AcDbArc
 50
191.771027732157
 51
258.6681622006468
  0
LINE
  5
C6E
330
C12
100
AcDbEntity
  8
BLOCKS
100
AcDbLine
 10
0.1245578823938763
 20
0.2031237004001917
 30
0.0
 11
0.1139545194730402
 21
0.2698517158598446
 31
0.0
  0
ARC
  5
C6F
330
C12
100
AcDbEntity
  8
BLOCKS
100
AcDbCircle
 10
0.2427726719255611
 20
0.1833181400280688
 30
0.0
 40
0.0298181773003474
100
AcDbArc
 50
0.0000000000651378
 51
89.28030293396615
  0
ARC
  5
C70
330
C12
100
AcDbEntity
  8
BLOCKS
100
AcDbCircle
 10
0.2721023751471261
 20
0.1139545194767658
 30
0.0
 40
0.0895793605801689
100
AcDbArc
 50
174.3144220093472
 51
0.0
  0
ARC
  5
C71
330
C12
100
AcDbEntity
  8
BLOCKS
100
AcDbCircle
 10
0.2721023751471261
 20
0.1139545194767658
 30
0.0
 40
0.0795793605801689
100
AcDbArc
 50
174.3144220093472
 51
0.0
  0
LINE
  5
C72
330
C12
100
AcDbEntity
  8
BLOCKS
100
AcDbLine
 10
0.495426200158085
 20
0.3876230299426755
 30
0.0
 11
0.1513556604294428
 21
0.3876230299426755
 31
0.0
  0
LINE
  5
C73
330
C12
100
AcDbEntity
  8
BLOCKS
100
AcDbLine
 10
0.2065235942688196
 20
0.3734192223955472
 30
0.0
 11
0.4687360763954314
 21
0.3734192223955472
 31
0.0
  0
LINE
  5
C74
330
C12
100
AcDbEntity
  8
BLOCKS
100
AcDbLine
 10
0.45086353357897
 20
0.0000000000000006
 30
0.0
 11
0.1189090637980081
 21
0.0000000000000006
 31
0.0
  0
LINE
  5
C75
330
C12
100
AcDbEntity
  8
BLOCKS
100
AcDbLine
 10
0.1189090637980081
 20
0.0000000000000006
 30
0.0
 11
0.1387272410985571
 21
0.1139545194769659
 31
0.0
  0
LINE
  5
C76
330
C12
100
AcDbEntity
  8
BLOCKS
100
AcDbLine
 10
0.4187934319753135
 20
0.1835428470768147
 30
0.0
 11
0.45086353357897
 21
0.0000000000000006
 31
0.0
  0
ENDBLK
  5
C78
330
C12
100
AcDbEntity
  8
0
100
AcDbBlockEnd
  0
ENDSEC
  0
SECTION
  2
ENTITIES
  0
ARC
  5
CE0
330
1F
100
AcDbEntity
  8
BLOCKS
100
AcDbCircle
 10
86.87989460572643
 20
151.2649076569876
 30
0.0
 40
0.0099606117714202
100
AcDbArc
 50
1.660734077762564
 51
92.65675416547555
  0
ARC
  5
CE1
330
1F
100
AcDbEntity
  8
BLOCKS
100
AcDbCircle
 10
86.83130060492223
 20
150.8902345326084
 30
0.0
 40
0.003
100
AcDbArc
 50
270.0
 51
9.911131632953232
  0
LINE
  5
CE2
330
1F
100
AcDbEntity
  8
BLOCKS
100
AcDbLine
 10
86.79937660760112
 20
151.0903708499365
 30
0.0
 11
86.8342558326359
 21
150.8907508940714
 31
0.0
  0
ARC
  5
CE3
330
1F
100
AcDbEntity
  8
BLOCKS
100
AcDbCircle
 10
86.67967415414613
 20
151.2631419810625
 30
0.0
 40
0.2101869194635935
100
AcDbArc
 50
304.7156991525641
 51
0.5600123194373419
  0
ARC
  5
CE4
330
1F
100
AcDbEntity
  8
BLOCKS
100
AcDbCircle
 10
86.53536236680972
 20
151.304857562551
 30
0.0
 40
0.03
100
AcDbArc
 50
186.1472638847562
 51
270.0
  0
CIRCLE
  5
CE5
330
1F
100
AcDbEntity
  8
BLOCKS
100
AcDbCircle
 10
86.47767223665271
 20
151.3104912218336
 30
0.0
 40
0.0049545443250851
  0
LINE
  5
CE6
330
1F
100
AcDbEntity
  8
BLOCKS
100
AcDbLine
 10
86.38871385250901
 20
151.2439617240137
 30
0.0
 11
86.3887138525088
 21
151.2925438255891
 31
0.0
  0
LINE
  5
CE7
330
1F
100
AcDbEntity
  8
BLOCKS
100
AcDbLine
 10
86.38400670637658
 20
151.2935071672647
 30
0.0
 11
86.38400670637635
 21
151.3182798888905
 31
0.0
  0
ARC
  5
CE8
330
1F
100
AcDbEntity
  8
BLOCKS
100
AcDbCircle
 10
86.39391579502651
 20
151.3182798888905
 30
0.0
 40
0.0099090886501701
100
AcDbArc
 50
90.0
 51
180.0
  0
ARC
  5
CE9
330
1F
100
AcDbEntity
  8
BLOCKS
100
AcDbCircle
 10
86.364642871381
 20
151.1869084084369
 30
0.0
 40
0.1083432207818053
100
AcDbArc
 50
31.77587739981824
 51
79.7043928690989
  0
LINE
  5
CEA
330
1F
100
AcDbEntity
  8
BLOCKS
100
AcDbLine
 10
86.45674701173875
 20
151.2439617240139
 30
0.0
 11
86.38871385250901
 21
151.2439617240137
 31
0.0
  0
LINE
  5
CEB
330
1F
100
AcDbEntity
  8
BLOCKS
100
AcDbLine
 10
86.39391579502651
 20
151.3281889775406
 30
0.0
 11
86.47597853577456
 21
151.3281889775409
 31
0.0
  0
ARC
  5
CEC
330
1F
100
AcDbEntity
  8
BLOCKS
100
AcDbCircle
 10
86.47597853577456
 20
151.2984617115906
 30
0.0
 40
0.0297272659505104
100
AcDbArc
 50
6.14726388475617
 51
90.0
  0
ARC
  5
CED
330
1F
100
AcDbEntity
  8
BLOCKS
100
AcDbCircle
 10
86.58817007478981
 20
150.9709227251098
 30
0.0
 40
0.012694924998883
100
AcDbArc
 50
2.054349443953079
 51
177.9456505560795
  0
LINE
  5
CEE
330
1F
100
AcDbEntity
  8
BLOCKS
100
AcDbLine
 10
86.60627235530052
 20
150.9071932693541
 30
0.0
 11
86.6007537345256
 21
150.9725998143683
 31
0.0
  0
LINE
  5
CEF
330
1F
100
AcDbEntity
  8
BLOCKS
100
AcDbLine
 10
86.50352690470425
 20
150.8907485561326
 30
0.0
 11
86.52259708129991
 21
151.0004020715565
 31
0.0
  0
ARC
  5
CF0
330
1F
100
AcDbEntity
  8
BLOCKS
100
AcDbCircle
 10
86.5064825399687
 20
150.8902345326083
 30
0.0
 40
0.003
100
AcDbArc
 50
170.1341930568255
 51
270.0
  0
LINE
  5
CF2
330
1F
100
AcDbEntity
  8
BLOCKS
100
AcDbLine
 10
86.57006779427911
 20
150.9071932693541
 30
0.0
 11
86.60627235530052
 21
150.9071932693541
 31
0.0
  0
LINE
  5
CF3
330
1F
100
AcDbEntity
  8
BLOCKS
100
AcDbLine
 10
86.57006779427911
 20
150.9071932693541
 30
0.0
 11
86.57558641505401
 21
150.9725998143683
 31
0.0
  0
ARC
  5
CF4
330
1F
100
AcDbEntity
  8
BLOCKS
100
AcDbCircle
 10
86.2055373481952
 20
150.9970156729457
 30
0.0
 40
0.3170778170291757
100
AcDbArc
 50
0.6119319184670427
 51
17.12058862513358
  0
ARC
  5
CF7
330
1F
100
AcDbEntity
  8
BLOCKS
100
AcDbCircle
 10
86.64431573513162
 20
151.2797315158845
 30
0.0
 40
0.1909489565451961
100
AcDbArc
 50
190.7968003458864
 51
262.6048759719266
  0
LINE
  5
CF8
330
1F
100
AcDbEntity
  8
BLOCKS
100
AcDbLine
 10
86.50856458877415
 20
151.0903582330086
 30
0.0
 11
86.49796122585332
 21
151.1570862484682
 31
0.0
  0
LINE
  5
CF9
330
1F
100
AcDbEntity
  8
BLOCKS
100
AcDbLine
 10
86.83130060492223
 20
150.8872345326083
 30
0.0
 11
86.5064825399687
 21
150.8872345326083
 31
0.0
  0
ARC
  5
CFA
330
1F
100
AcDbEntity
  8
BLOCKS
100
AcDbCircle
 10
86.66681609599761
 20
151.4932790343192
 30
0.0
 40
0.4241547999010334
100
AcDbArc
 50
258.0461780596106
 51
288.2116827525039
  0
LINE
  5
CFB
330
1F
100
AcDbEntity
  8
BLOCKS
100
AcDbLine
 10
86.87943290653835
 20
151.274857562551
 30
0.0
 11
86.53536236680972
 21
151.274857562551
 31
0.0
  0
LINE
  5
CFC
330
1F
100
AcDbEntity
  8
BLOCKS
100
AcDbLine
 10
86.17635966940405
 20
151.2885526229398
 30
0.0
 11
86.17635966940405
 21
151.2786435342901
 31
0.0
  0
LINE
  5
CFD
330
1F
100
AcDbEntity
  8
BLOCKS
100
AcDbLine
 10
86.16645058075389
 20
151.2885526229398
 30
0.0
 11
86.16645058075389
 21
151.2786435342901
 31
0.0
  0
ARC
  5
CFE
330
1F
100
AcDbEntity
  8
BLOCKS
100
AcDbCircle
 10
86.12681422615397
 20
151.2022906982513
 30
0.0
 40
0.0495454432509837
100
AcDbArc
 50
341.6333644174277
 51
359.9999999992835
  0
LINE
  5
CFF
330
1F
100
AcDbEntity
  8
BLOCKS
100
AcDbLine
 10
86.17635966940405
 20
151.2786435342901
 30
0.0
 11
86.17635966940495
 21
151.2022906982507
 31
0.0
  0
ARC
  5
D00
330
1F
100
AcDbEntity
  8
BLOCKS
100
AcDbCircle
 10
86.0855840092614
 20
151.0853710932327
 30
0.0
 40
0.012
100
AcDbArc
 50
101.1210444661208
 51
186.7889745745118
  0
LINE
  5
D01
330
1F
100
AcDbEntity
  8
BLOCKS
100
AcDbLine
 10
86.07366814997105
 20
151.0839525385553
 30
0.0
 11
86.0957678565537
 21
150.898315003263
 31
0.0
  0
ARC
  5
D02
330
1F
100
AcDbEntity
  8
BLOCKS
100
AcDbCircle
 10
85.86086269489014
 20
151.0853710932325
 30
0.0
 40
0.012
100
AcDbArc
 50
353.2110254255866
 51
78.87895553419548
  0
LINE
  5
D03
330
1F
100
AcDbEntity
  8
BLOCKS
100
AcDbLine
 10
85.85067884759824
 20
150.898315003263
 30
0.0
 11
85.87277855418049
 21
151.0839525385551
 31
0.0
  0
ARC
  5
D04
330
1F
100
AcDbEntity
  8
BLOCKS
100
AcDbCircle
 10
85.97244628119781
 20
151.6654160237176
 30
0.0
 40
0.579544667607069
100
AcDbArc
 50
259.8315145105103
 51
280.1684854894896
  0
ARC
  5
D05
330
1F
100
AcDbEntity
  8
BLOCKS
100
AcDbCircle
 10
85.8097233893476
 20
151.28855262294
 30
0.0
 40
0.0396363546005994
100
AcDbArc
 50
89.99999999993486
 51
179.9999999994137
  0
ARC
  5
D06
330
1F
100
AcDbEntity
  8
BLOCKS
100
AcDbCircle
 10
85.82128399277227
 20
151.2885526229404
 30
0.0
 40
0.0412878693751081
100
AcDbArc
 50
106.2602047077292
 51
180.0000000000651
  0
LINE
  5
D07
330
1F
100
AcDbEntity
  8
BLOCKS
100
AcDbLine
 10
85.770087034747
 20
151.2786435342901
 30
0.0
 11
85.770087034747
 21
151.2885526229404
 31
0.0
  0
LINE
  5
D08
330
1F
100
AcDbEntity
  8
BLOCKS
100
AcDbLine
 10
85.77999612339715
 20
151.2786435342901
 30
0.0
 11
85.77999612339715
 21
151.2885526229404
 31
0.0
  0
ARC
  5
D09
330
1F
100
AcDbEntity
  8
BLOCKS
100
AcDbCircle
 10
85.81963247799873
 20
151.2022906982477
 30
0.0
 40
0.0495454432508288
100
AcDbArc
 50
179.9999999991206
 51
198.3666355817846
  0
LINE
  5
D0A
330
1F
100
AcDbEntity
  8
BLOCKS
100
AcDbLine
 10
85.7700870347479
 20
151.2022906982485
 30
0.0
 11
85.770087034747
 21
151.2786435342901
 31
0.0
  0
ARC
  5
D0B
330
1F
100
AcDbEntity
  8
BLOCKS
100
AcDbCircle
 10
85.88540028023382
 20
151.2101975084267
 30
0.0
 40
0.1152152782677835
100
AcDbArc
 50
191.7783248740371
 51
258.8789555341955
  0
LINE
  5
D0C
330
1F
100
AcDbEntity
  8
BLOCKS
100
AcDbLine
 10
85.80972338934763
 20
151.3281889775406
 30
0.0
 11
86.13672331480341
 21
151.3281889775409
 31
0.0
  0
LINE
  5
D0D
330
1F
100
AcDbEntity
  8
BLOCKS
100
AcDbLine
 10
86.0859282477161
 20
150.8872345326083
 30
0.0
 11
85.86051845643584
 21
150.8872345326083
 31
0.0
  0
ARC
  5
D0E
330
1F
100
AcDbEntity
  8
BLOCKS
100
AcDbCircle
 10
85.86051845643584
 20
150.8971436212585
 30
0.0
 40
0.0099090886501884
100
AcDbArc
 50
173.2110254255537
 51
270.0000000000326
  0
ARC
  5
D0F
330
1F
100
AcDbEntity
  8
BLOCKS
100
AcDbCircle
 10
86.0859282477161
 20
150.8971436212585
 30
0.0
 40
0.0099090886501883
100
AcDbArc
 50
269.9999999999674
 51
6.788974574446202
  0
ARC
  5
D10
330
1F
100
AcDbEntity
  8
BLOCKS
100
AcDbCircle
 10
86.06104642391667
 20
151.2101975084287
 30
0.0
 40
0.1152152782696931
100
AcDbArc
 50
281.1210444661209
 51
348.2216751265982
  0
LINE
  5
D11
330
1F
100
AcDbEntity
  8
BLOCKS
100
AcDbLine
 10
85.77008703474723
 20
151.2786435342901
 30
0.0
 11
86.17635966940428
 21
151.2786435342901
 31
0.0
  0
ARC
  5
D12
330
1F
100
AcDbEntity
  8
BLOCKS
100
AcDbCircle
 10
86.13672331480337
 20
151.2885526229402
 30
0.0
 40
0.0396363546006762
100
AcDbArc
 50
359.9999999994138
 51
89.99999999995115
  0
ARC
  5
D13
330
1F
100
AcDbEntity
  8
BLOCKS
100
AcDbCircle
 10
86.12516271137947
 20
151.2885526229404
 30
0.0
 40
0.0412878693751081
100
AcDbArc
 50
359.9999999999349
 51
73.73979529227071
  0
LINE
  5
D14
330
1F
100
AcDbEntity
  8
BLOCKS
100
AcDbLine
 10
85.56530997279759
 20
151.2768725465932
 30
0.0
 11
85.56530997279759
 21
151.2372361919925
 31
0.0
  0
ARC
  5
D15
330
1F
100
AcDbEntity
  8
BLOCKS
100
AcDbCircle
 10
85.5603554284724
 20
151.2372361919925
 30
0.0
 40
0.0049545443250851
100
AcDbArc
 50
270.0
 51
0.0
  0
LINE
  5
D16
330
1F
100
AcDbEntity
  8
BLOCKS
100
AcDbLine
 10
85.5595238550855
 20
151.2322816476671
 30
0.0
 11
85.5603554284724
 21
151.2322816476673
 31
0.0
  0
ARC
  5
D17
330
1F
100
AcDbEntity
  8
BLOCKS
100
AcDbCircle
 10
85.5595238550855
 20
151.2421907363175
 30
0.0
 40
0.0099090886501701
100
AcDbArc
 50
189.5940683104874
 51
270.0
  0
LINE
  5
D18
330
1F
100
AcDbEntity
  8
BLOCKS
100
AcDbLine
 10
85.56530997279759
 20
151.2372361919925
 30
0.0
 11
85.56530997239274
 21
150.9154500189928
 31
0.0
  0
LINE
  5
D19
330
1F
100
AcDbEntity
  8
BLOCKS
100
AcDbLine
 10
85.22840095869167
 20
151.346236167144
 30
0.0
 11
85.49594635224647
 21
151.3462361671443
 31
0.0
  0
ARC
  5
D1A
330
1F
100
AcDbEntity
  8
BLOCKS
100
AcDbCircle
 10
85.45630999764515
 20
151.1678725714414
 30
0.0
 40
0.069363620551191
100
AcDbArc
 50
0.0000000000651378
 51
90.0
  0
LINE
  5
D1B
330
1F
100
AcDbEntity
  8
BLOCKS
100
AcDbLine
 10
85.22344641436669
 20
151.2818270909181
 30
0.0
 11
85.50090089657121
 21
151.2818270909181
 31
0.0
  0
LINE
  5
D1C
330
1F
100
AcDbEntity
  8
BLOCKS
100
AcDbLine
 10
85.26803731329186
 20
151.2372361919925
 30
0.0
 11
85.45630999764515
 21
151.2372361919925
 31
0.0
  0
ARC
  5
D1D
330
1F
100
AcDbEntity
  8
BLOCKS
100
AcDbCircle
 10
85.45567361819674
 20
150.9476976300548
 30
0.0
 40
0.07
100
AcDbArc
 50
279.9680146067609
 51
0.0000000001302755
  0
CIRCLE
  5
D1E
330
1F
100
AcDbEntity
  8
BLOCKS
100
AcDbCircle
 10
85.36217365546894
 20
151.0340998746639
 30
0.0
 40
0.0495454432508507
  0
ARC
  5
D1F
330
1F
100
AcDbEntity
  8
BLOCKS
100
AcDbCircle
 10
85.36696093168513
 20
151.4524598752928
 30
0.0
 40
0.5824986487453207
100
AcDbArc
 50
258.9432905208125
 51
279.9680146067609
  0
LINE
  5
D20
330
1F
100
AcDbEntity
  8
BLOCKS
100
AcDbLine
 10
85.52567361819626
 20
151.1678725714414
 30
0.0
 11
85.52567361819674
 21
150.947697630055
 31
0.0
  0
LINE
  5
D21
330
1F
100
AcDbEntity
  8
BLOCKS
100
AcDbLine
 10
85.15903733814054
 20
151.2372361919923
 30
0.0
 11
85.15903733814054
 21
151.2768725465929
 31
0.0
  0
ARC
  5
D22
330
1F
100
AcDbEntity
  8
BLOCKS
100
AcDbCircle
 10
85.16399188246571
 20
151.2372361919923
 30
0.0
 40
0.0049545443250851
100
AcDbArc
 50
180.0000000000325
 51
270.0
  0
LINE
  5
D23
330
1F
100
AcDbEntity
  8
BLOCKS
100
AcDbLine
 10
85.16399188246571
 20
151.2322816476671
 30
0.0
 11
85.1648234558524
 21
151.2322816476671
 31
0.0
  0
ARC
  5
D24
330
1F
100
AcDbEntity
  8
BLOCKS
100
AcDbCircle
 10
85.1648234558524
 20
151.2421907363173
 30
0.0
 40
0.0099090886501701
100
AcDbArc
 50
270.0
 51
350.4059316895126
  0
LINE
  5
D25
330
1F
100
AcDbEntity
  8
BLOCKS
100
AcDbLine
 10
85.15903733814075
 20
150.9178290267036
 30
0.0
 11
85.15903733814054
 21
151.2372361919923
 31
0.0
  0
LINE
  5
D26
330
1F
100
AcDbEntity
  8
BLOCKS
100
AcDbLine
 10
85.19867369274072
 20
151.1678725714414
 30
0.0
 11
85.19867369274095
 21
150.9494743052944
 31
0.0
  0
ARC
  5
D27
330
1F
100
AcDbEntity
  8
BLOCKS
100
AcDbCircle
 10
85.26867369274096
 20
150.9494743052945
 30
0.0
 40
0.07
100
AcDbArc
 50
180.0000000000651
 51
258.9432905208125
  0
ARC
  5
D28
330
1F
100
AcDbEntity
  8
BLOCKS
100
AcDbCircle
 10
85.22344641436669
 20
151.2322816476673
 30
0.0
 40
0.0495454432508507
100
AcDbArc
 50
90.0
 51
170.4059316903053
  0
ARC
  5
D29
330
1F
100
AcDbEntity
  8
BLOCKS
100
AcDbCircle
 10
85.26803731329186
 20
151.1678725714414
 30
0.0
 40
0.069363620551191
100
AcDbArc
 50
90.0
 51
180.0000000000651
  0
ARC
  5
D2A
330
1F
100
AcDbEntity
  8
BLOCKS
100
AcDbCircle
 10
85.26803731329186
 20
151.1678725714414
 30
0.0
 40
0.069363620551191
100
AcDbArc
 50
90.0
 51
180.0
  0
ARC
  5
D2B
330
1F
100
AcDbEntity
  8
BLOCKS
100
AcDbCircle
 10
85.22840095869167
 20
151.2768725465929
 30
0.0
 40
0.0693636205511279
100
AcDbArc
 50
90.0
 51
180.0
  0
ARC
  5
D2C
330
1F
100
AcDbEntity
  8
BLOCKS
100
AcDbCircle
 10
85.36696093168513
 20
151.4524598752928
 30
0.0
 40
0.6221350033454847
100
AcDbArc
 50
255.5342935595384
 51
283.4419176469097
  0
ARC
  5
D2D
330
1F
100
AcDbEntity
  8
BLOCKS
100
AcDbCircle
 10
85.22903733814075
 20
150.9178290267037
 30
0.0
 40
0.07
100
AcDbArc
 50
180.0000000000325
 51
255.5342935595384
  0
ARC
  5
D2E
330
1F
100
AcDbEntity
  8
BLOCKS
100
AcDbCircle
 10
85.49530997239273
 20
150.9154500190809
 30
0.0
 40
0.07
100
AcDbArc
 50
283.4419176469097
 51
359.999999927925
  0
ARC
  5
D2F
330
1F
100
AcDbEntity
  8
BLOCKS
100
AcDbCircle
 10
85.49594635224647
 20
151.2768725465932
 30
0.0
 40
0.0693636205511279
100
AcDbArc
 50
0.0
 51
90.0
  0
ARC
  5
D30
330
1F
100
AcDbEntity
  8
BLOCKS
100
AcDbCircle
 10
85.50090089657121
 20
151.2322816476673
 30
0.0
 40
0.0495454432508507
100
AcDbArc
 50
9.59406830995733
 51
90.0
  0
ARC
  5
D31
330
1F
100
AcDbEntity
  8
BLOCKS
100
AcDbCircle
 10
85.45630999764536
 20
151.1678725714414
 30
0.0
 40
0.069363620551191
100
AcDbArc
 50
0.0
 51
90.00000000006513
  0
ARC
  5
F0E
330
1F
100
AcDbEntity
  8
SANINDUSA
100
AcDbCircle
 10
87.62102796611108
 20
151.2720834463508
 30
0.0
 40
0.0101498633951032
100
AcDbArc
 50
1.660734077316375
 51
92.65675416508914
  0
ARC
  5
F0F
330
1F
100
AcDbEntity
  8
SANINDUSA
100
AcDbCircle
 10
87.59336025852432
 20
151.27916540012
 30
0.0
 40
0.003057
100
AcDbArc
 50
90.0
 51
170.5645470224642
  0
ARC
  5
F10
330
1F
100
AcDbEntity
  8
SANINDUSA
100
AcDbCircle
 10
87.60113295536546
 20
151.2699944001199
 30
0.0
 40
0.002038
100
AcDbArc
 50
90.0
 51
170.5645470224642
  0
LINE
  5
F11
330
1F
100
AcDbEntity
  8
SANINDUSA
100
AcDbLine
 10
87.62055749463845
 20
151.2822224001199
 30
0.0
 11
87.59336025852432
 21
151.2822224001199
 31
0.0
  0
LINE
  5
F12
330
1F
100
AcDbEntity
  8
SANINDUSA
100
AcDbLine
 10
87.5994867287412
 20
151.2446380617082
 30
0.0
 11
87.59716138441545
 21
151.2385240617082
 31
0.0
  0
ARC
  5
F13
330
1F
100
AcDbEntity
  8
SANINDUSA
100
AcDbCircle
 10
87.59758184930852
 20
151.245362546592
 30
0.0
 40
0.002038
100
AcDbArc
 50
339.1766340460744
 51
86.20914005986657
  0
LINE
  5
F14
330
1F
100
AcDbEntity
  8
SANINDUSA
100
AcDbLine
 10
87.61093993481798
 20
151.2460870314759
 30
0.0
 11
87.60861459049227
 21
151.2399730314759
 31
0.0
  0
ARC
  5
F15
330
1F
100
AcDbEntity
  8
SANINDUSA
100
AcDbCircle
 10
87.61051946992493
 20
151.239248546592
 30
0.0
 40
0.002038
100
AcDbArc
 50
159.1766340460744
 51
270.0
  0
ARC
  5
F16
330
1F
100
AcDbEntity
  8
SANINDUSA
100
AcDbCircle
 10
87.61284481425068
 20
151.245362546592
 30
0.0
 40
0.002038
100
AcDbArc
 50
90.0
 51
159.176634045785
  0
ARC
  5
F17
330
1F
100
AcDbEntity
  8
SANINDUSA
100
AcDbCircle
 10
87.59525650498277
 20
151.239248546592
 30
0.0
 40
0.002038
100
AcDbArc
 50
270.0
 51
339.1766340457851
  0
ARC
  5
F18
330
1F
100
AcDbEntity
  8
SANINDUSA
100
AcDbCircle
 10
87.58689602958099
 20
151.2402675465921
 30
0.0
 40
0.003057
100
AcDbArc
 50
170.5645470224642
 51
270.0
  0
ARC
  5
F19
330
1F
100
AcDbEntity
  8
SANINDUSA
100
AcDbCircle
 10
87.61584332096239
 20
151.249438546592
 30
0.0
 40
0.002038
100
AcDbArc
 50
270.0
 51
349.9277753498845
  0
ARC
  5
F1A
330
1F
100
AcDbEntity
  8
SANINDUSA
100
AcDbCircle
 10
87.59771688657815
 20
151.249438546592
 30
0.0
 40
0.002038
100
AcDbArc
 50
170.5645470224642
 51
270.0
  0
LINE
  5
F1B
330
1F
100
AcDbEntity
  8
SANINDUSA
100
AcDbLine
 10
87.61584332096239
 20
151.247400546592
 30
0.0
 11
87.59771688657815
 21
151.247400546592
 31
0.0
  0
LINE
  5
F1C
330
1F
100
AcDbEntity
  8
SANINDUSA
100
AcDbLine
 10
87.59525650498277
 20
151.237210546592
 30
0.0
 11
87.58689602958099
 21
151.237210546592
 31
0.0
  0
ARC
  5
F1D
330
1F
100
AcDbEntity
  8
SANINDUSA
100
AcDbCircle
 10
87.41700332595078
 20
151.2847579024736
 30
0.0
 40
0.2039904709334018
100
AcDbArc
 50
349.9277753498845
 51
356.4234049185085
  0
LINE
  5
F1E
330
1F
100
AcDbEntity
  8
SANINDUSA
100
AcDbLine
 10
87.59912252764815
 20
151.2703285024896
 30
0.0
 11
87.59570645886084
 21
151.2497726489617
 31
0.0
  0
LINE
  5
F1F
330
1F
100
AcDbEntity
  8
SANINDUSA
100
AcDbLine
 10
87.59034461694833
 20
151.2796665536745
 30
0.0
 11
87.58388038800504
 21
151.2407687001465
 31
0.0
  0
ARC
  5
F20
330
1F
100
AcDbEntity
  8
SANINDUSA
100
AcDbCircle
 10
87.57559385130255
 20
151.0800525894183
 30
0.0
 40
0.033627
100
AcDbArc
 50
127.3665806277739
 51
189.9111316327441
  0
ARC
  5
F21
330
1F
100
AcDbEntity
  8
SANINDUSA
100
AcDbCircle
 10
87.50446660805279
 20
151.0740357172969
 30
0.0
 40
0.020194722669054
100
AcDbArc
 50
90.0
 51
180.0
  0
ARC
  5
F22
330
1F
100
AcDbEntity
  8
SANINDUSA
100
AcDbCircle
 10
87.51807858656459
 20
151.155370439966
 30
0.0
 40
0.05095
100
AcDbArc
 50
270.0
 51
311.334042622632
  0
LINE
  5
F23
330
1F
100
AcDbEntity
  8
SANINDUSA
100
AcDbLine
 10
87.50446660805277
 20
151.104420439966
 30
0.0
 11
87.51807858656459
 21
151.104420439966
 31
0.0
  0
LINE
  5
F24
330
1F
100
AcDbEntity
  8
SANINDUSA
100
AcDbLine
 10
87.50446660805277
 20
151.094230439966
 30
0.0
 11
87.51807858656459
 21
151.094230439966
 31
0.0
  0
ARC
  5
F25
330
1F
100
AcDbEntity
  8
SANINDUSA
100
AcDbCircle
 10
87.50446660805279
 20
151.0740357172969
 30
0.0
 40
0.030384722669054
100
AcDbArc
 50
90.0
 51
180.0
  0
LINE
  5
F26
330
1F
100
AcDbEntity
  8
SANINDUSA
100
AcDbLine
 10
87.39348827203858
 20
151.074035717297
 30
0.0
 11
87.39348827203885
 21
150.992262819524
 31
0.0
  0
LINE
  5
F27
330
1F
100
AcDbEntity
  8
SANINDUSA
100
AcDbLine
 10
87.47408188538349
 20
151.0033541879552
 30
0.0
 11
87.4740818853837
 21
151.074035717297
 31
0.0
  0
LINE
  5
F28
330
1F
100
AcDbEntity
  8
SANINDUSA
100
AcDbLine
 10
87.4842718853835
 20
151.0033541879552
 30
0.0
 11
87.48427188538373
 21
151.074035717297
 31
0.0
  0
ARC
  5
F29
330
1F
100
AcDbEntity
  8
SANINDUSA
100
AcDbCircle
 10
87.51807858656459
 20
151.155370439966
 30
0.0
 40
0.06114
100
AcDbArc
 50
270.0
 51
282.8199031143175
  0
ARC
  5
F2A
330
1F
100
AcDbEntity
  8
SANINDUSA
100
AcDbCircle
 10
87.41700332595078
 20
151.2702842225831
 30
0.0
 40
0.2141804709334018
100
AcDbArc
 50
311.334042622632
 51
0.5600123193073771
  0
ARC
  5
F2B
330
1F
100
AcDbEntity
  8
SANINDUSA
100
AcDbCircle
 10
87.41700332595078
 20
151.2702842225831
 30
0.0
 40
0.2039904709334018
100
AcDbArc
 50
311.334042622632
 51
350.0004611932723
  0
ARC
  5
F2C
330
1F
100
AcDbEntity
  8
SANINDUSA
100
AcDbCircle
 10
87.22514834840939
 20
151.2689754001199
 30
0.0
 40
0.003057
100
AcDbArc
 50
19.0905849197569
 51
90.0
  0
ARC
  5
F2D
330
1F
100
AcDbEntity
  8
SANINDUSA
100
AcDbCircle
 10
87.23240465800506
 20
151.27916540012
 30
0.0
 40
0.003057
100
AcDbArc
 50
19.0905849197569
 51
90.0
  0
LINE
  5
F2E
330
1F
100
AcDbEntity
  8
SANINDUSA
100
AcDbLine
 10
87.3261657392373
 20
151.2822224001199
 30
0.0
 11
87.18764386014397
 21
151.28222240012
 31
0.0
  0
LINE
  5
F2F
330
1F
100
AcDbEntity
  8
SANINDUSA
100
AcDbLine
 10
87.22514834840939
 20
151.2720324001199
 30
0.0
 11
87.18764386014397
 21
151.2720324001199
 31
0.0
  0
ARC
  5
F30
330
1F
100
AcDbEntity
  8
SANINDUSA
100
AcDbCircle
 10
87.22603701632372
 20
151.239248546592
 30
0.0
 40
0.002038
100
AcDbArc
 50
205.6199580143772
 51
270.0
  0
ARC
  5
F31
330
1F
100
AcDbEntity
  8
SANINDUSA
100
AcDbCircle
 10
87.22310505931488
 20
151.245362546592
 30
0.0
 40
0.002038
100
AcDbArc
 50
90.0
 51
205.6199580143772
  0
LINE
  5
F32
330
1F
100
AcDbEntity
  8
SANINDUSA
100
AcDbLine
 10
87.22126743147644
 20
151.244481315676
 30
0.0
 11
87.22419938848528
 21
151.238367315676
 31
0.0
  0
ARC
  5
F33
330
1F
100
AcDbEntity
  8
SANINDUSA
100
AcDbCircle
 10
87.23441927591847
 20
151.248419546592
 30
0.0
 40
0.001019
100
AcDbArc
 50
270.0
 51
19.0905849197569
  0
LINE
  5
F34
330
1F
100
AcDbEntity
  8
SANINDUSA
100
AcDbLine
 10
87.24586708956325
 20
151.237210546592
 30
0.0
 11
87.22603701632372
 21
151.237210546592
 31
0.0
  0
LINE
  5
F35
330
1F
100
AcDbEntity
  8
SANINDUSA
100
AcDbLine
 10
87.23441927591847
 20
151.247400546592
 30
0.0
 11
87.22310505931488
 21
151.247400546592
 31
0.0
  0
ARC
  5
F36
330
1F
100
AcDbEntity
  8
SANINDUSA
100
AcDbCircle
 10
87.24586708956325
 20
151.2402675465921
 30
0.0
 40
0.003057
100
AcDbArc
 50
270.0
 51
19.0905849197569
  0
ARC
  5
F37
330
1F
100
AcDbEntity
  8
SANINDUSA
100
AcDbCircle
 10
87.20728351624085
 20
151.245362546592
 30
0.0
 40
0.002038
100
AcDbArc
 50
25.6199580143772
 51
90.0
  0
LINE
  5
F38
330
1F
100
AcDbEntity
  8
SANINDUSA
100
AcDbLine
 10
87.21021547324971
 20
151.237210546592
 30
0.0
 11
87.20614959279657
 21
151.237210546592
 31
0.0
  0
LINE
  5
F39
330
1F
100
AcDbEntity
  8
SANINDUSA
100
AcDbLine
 10
87.20728351624085
 20
151.247400546592
 30
0.0
 11
87.22310505931488
 21
151.247400546592
 31
0.0
  0
LINE
  5
F3A
330
1F
100
AcDbEntity
  8
SANINDUSA
100
AcDbLine
 10
87.21021547324971
 20
151.237210546592
 30
0.0
 11
87.22603701632372
 21
151.237210546592
 31
0.0
  0
ARC
  5
F3B
330
1F
100
AcDbEntity
  8
SANINDUSA
100
AcDbCircle
 10
87.21021547324971
 20
151.239248546592
 30
0.0
 40
0.002038
100
AcDbArc
 50
270.0
 51
25.6199580143772
  0
LINE
  5
F3C
330
1F
100
AcDbEntity
  8
SANINDUSA
100
AcDbLine
 10
87.2091211440793
 20
151.2462437775081
 30
0.0
 11
87.21205310108818
 21
151.2401297775081
 31
0.0
  0
LINE
  5
F3D
330
1F
100
AcDbEntity
  8
SANINDUSA
100
AcDbLine
 10
87.22803722156914
 20
151.269975230539
 30
0.0
 11
87.2353822336384
 21
151.2487528233984
 31
0.0
  0
LINE
  5
F3E
330
1F
100
AcDbEntity
  8
SANINDUSA
100
AcDbLine
 10
87.23529353116481
 20
151.280165230539
 30
0.0
 11
87.24875596272303
 21
151.2412673770111
 31
0.0
  0
CIRCLE
  5
F3F
330
1F
100
AcDbEntity
  8
SANINDUSA
100
AcDbCircle
 10
87.21076337202498
 20
151.2972005195428
 30
0.0
 40
0.0050486806672617
  0
LINE
  5
F40
330
1F
100
AcDbEntity
  8
SANINDUSA
100
AcDbLine
 10
87.11571819667343
 20
151.2907345326084
 30
0.0
 11
87.11571819667335
 21
151.3121371712737
 31
0.0
  0
ARC
  5
F41
330
1F
100
AcDbEntity
  8
SANINDUSA
100
AcDbCircle
 10
87.12581555800788
 20
151.3121371712737
 30
0.0
 40
0.0100973613345234
100
AcDbArc
 50
90.0
 51
180.0
  0
LINE
  5
F42
330
1F
100
AcDbEntity
  8
SANINDUSA
100
AcDbLine
 10
87.18712473521602
 20
151.2347345326086
 30
0.0
 11
87.11671819667364
 21
151.2347345326084
 31
0.0
  0
LINE
  5
F43
330
1F
100
AcDbEntity
  8
SANINDUSA
100
AcDbLine
 10
87.12571819667337
 20
151.3120445326082
 30
0.0
 11
87.16583841515131
 21
151.3120445326083
 31
0.0
  0
LINE
  5
F44
330
1F
100
AcDbEntity
  8
SANINDUSA
100
AcDbLine
 10
87.12581555800788
 20
151.3222345326082
 30
0.0
 11
87.16601410680155
 21
151.3222345326084
 31
0.0
  0
ARC
  5
F45
330
1F
100
AcDbEntity
  8
SANINDUSA
100
AcDbCircle
 10
87.36310354936952
 20
151.0740357172969
 30
0.0
 40
0.020194722669054
100
AcDbArc
 50
0.0
 51
89.28030293393677
  0
ARC
  5
F46
330
1F
100
AcDbEntity
  8
SANINDUSA
100
AcDbCircle
 10
87.36476514511059
 20
151.2063100041075
 30
0.0
 40
0.11209
100
AcDbArc
 50
258.668162200596
 51
269.2803029339367
  0
ARC
  5
F47
330
1F
100
AcDbEntity
  8
SANINDUSA
100
AcDbCircle
 10
87.36476514511059
 20
151.2063100041075
 30
0.0
 40
0.1019
100
AcDbArc
 50
258.668162200596
 51
269.2803029339367
  0
LINE
  5
F48
330
1F
100
AcDbEntity
  8
SANINDUSA
100
AcDbLine
 10
87.36191132423519
 20
150.9175266166117
 30
0.0
 11
87.30747070069464
 21
150.9175266166117
 31
0.0
  0
LINE
  5
F49
330
1F
100
AcDbEntity
  8
SANINDUSA
100
AcDbLine
 10
87.29747070069464
 20
150.9275266166117
 30
0.0
 11
87.29747070069464
 21
151.0071553870694
 31
0.0
  0
LINE
  5
F4A
330
1F
100
AcDbEntity
  8
SANINDUSA
100
AcDbLine
 10
87.38329827203859
 20
151.074035717297
 30
0.0
 11
87.38329827203886
 21
150.992262819524
 31
0.0
  0
ARC
  5
F4B
330
1F
100
AcDbEntity
  8
SANINDUSA
100
AcDbCircle
 10
87.38097309697501
 20
151.2871889585668
 30
0.0
 40
0.1843869867195548
100
AcDbArc
 50
196.5582326925628
 51
258.668162200596
  0
ARC
  5
F4C
330
1F
100
AcDbEntity
  8
SANINDUSA
100
AcDbCircle
 10
87.36310354936952
 20
151.0740357172969
 30
0.0
 40
0.030384722669054
100
AcDbArc
 50
0.0
 51
89.28030293393677
  0
LINE
  5
F4D
330
1F
100
AcDbEntity
  8
SANINDUSA
100
AcDbLine
 10
87.59336025852432
 20
151.2822224001199
 30
0.0
 11
87.269547898366
 21
151.2822224001199
 31
0.0
  0
LINE
  5
F4E
330
1F
100
AcDbEntity
  8
SANINDUSA
100
AcDbLine
 10
87.57514813739435
 20
150.8872345326083
 30
0.0
 11
87.23688653268755
 21
150.8872345326083
 31
0.0
  0
LINE
  5
F4F
330
1F
100
AcDbEntity
  8
SANINDUSA
100
AcDbLine
 10
87.23688653268755
 20
150.8872345326083
 30
0.0
 11
87.25912076660423
 21
151.0150813776279
 31
0.0
  0
LINE
  5
F50
330
1F
100
AcDbEntity
  8
SANINDUSA
100
AcDbLine
 10
87.54246870386021
 20
151.0742646937796
 30
0.0
 11
87.57514813739435
 21
150.8872345326083
 31
0.0
  0
LINE
  5
F51
330
1F
100
AcDbEntity
  8
SANINDUSA
100
AcDbLine
 10
87.38329827203886
 20
150.992262819524
 30
0.0
 11
87.39348827203885
 21
150.992262819524
 31
0.0
  0
LINE
  5
F52
330
1F
100
AcDbEntity
  8
SANINDUSA
  6
Continuous
100
AcDbLine
 10
87.46455692580733
 20
151.0723912916803
 30
0.0
 11
87.43937222412181
 21
151.0723912916803
 31
0.0
  0
ARC
  5
F56
330
1F
100
AcDbEntity
  8
SANINDUSA
  6
Continuous
100
AcDbCircle
 10
87.43395692580733
 20
150.9641100416803
 30
0.0
 40
0.16228125
100
AcDbArc
 50
74.91014192268344
 51
105.0898580773166
  0
LINE
  5
F57
330
1F
100
AcDbEntity
  8
SANINDUSA
  6
Continuous
100
AcDbLine
 10
87.43931406016058
 20
151.1087893075258
 30
0.0
 11
87.48444164447475
 21
151.1087893075258
 31
0.0
  0
LINE
  5
F58
330
1F
100
AcDbEntity
  8
SANINDUSA
  6
Continuous
100
AcDbLine
 10
87.39120692580732
 20
151.0867912916803
 30
0.0
 11
87.39120692580732
 21
151.0939912916803
 31
0.0
  0
LINE
  5
F5C
330
1F
100
AcDbEntity
  8
SANINDUSA
  6
Continuous
100
AcDbLine
 10
87.43883368104018
 20
151.0939755845145
 30
0.0
 11
87.43870800457271
 21
151.0867755845145
 31
0.0
  0
LINE
  5
F5D
330
1F
100
AcDbEntity
  8
SANINDUSA
  6
Continuous
100
AcDbLine
 10
87.42920584704195
 20
151.0867755845145
 30
0.0
 11
87.42908017057448
 21
151.0939755845145
 31
0.0
  0
LINE
  5
F60
330
1F
100
AcDbEntity
  8
SANINDUSA
  6
Continuous
100
AcDbLine
 10
87.42854162749285
 20
151.0723912916803
 30
0.0
 11
87.40335692580734
 21
151.0723912916803
 31
0.0
  0
ARC
  5
F62
330
1F
100
AcDbEntity
  8
SANINDUSA
  6
Continuous
100
AcDbCircle
 10
87.39210692580732
 20
151.0867912916803
 30
0.0
 40
0.0009
100
AcDbArc
 50
180.0
 51
270.0
  0
LINE
  5
F64
330
1F
100
AcDbEntity
  8
SANINDUSA
  6
Continuous
100
AcDbLine
 10
87.40245692580733
 20
151.0732912916803
 30
0.0
 11
87.40245692580733
 21
151.0849912916803
 31
0.0
  0
ARC
  5
F66
330
1F
100
AcDbEntity
  8
SANINDUSA
  6
Continuous
100
AcDbCircle
 10
87.40335692580734
 20
151.0732912916803
 30
0.0
 40
0.0009
100
AcDbArc
 50
180.0
 51
270.0
  0
LINE
  5
F69
330
1F
100
AcDbEntity
  8
SANINDUSA
  6
Continuous
100
AcDbLine
 10
87.40155692580733
 20
151.0858912916803
 30
0.0
 11
87.39210692580732
 21
151.0858912916803
 31
0.0
  0
ARC
  5
F6D
330
1F
100
AcDbEntity
  8
SANINDUSA
  6
Continuous
100
AcDbCircle
 10
87.40155692580733
 20
151.0849912916803
 30
0.0
 40
0.0009
100
AcDbArc
 50
0.0
 51
90.0
  0
LINE
  5
F71
330
1F
100
AcDbEntity
  8
SANINDUSA
  6
Continuous
100
AcDbLine
 10
87.43757249827053
 20
151.0723912916803
 30
0.0
 11
87.43034135334413
 21
151.0723912916803
 31
0.0
  0
LINE
  5
F74
330
1F
100
AcDbEntity
  8
SANINDUSA
  6
Continuous
100
AcDbLine
 10
87.43780814164706
 20
151.0858912916803
 30
0.0
 11
87.4301057099676
 21
151.0858912916803
 31
0.0
  0
LINE
  5
F75
330
1F
100
AcDbEntity
  8
SANINDUSA
  6
Continuous
100
AcDbLine
 10
87.4294414904185
 20
151.0732755845145
 30
0.0
 11
87.42923726615883
 21
151.0849755845145
 31
0.0
  0
LINE
  5
F77
330
1F
100
AcDbEntity
  8
SANINDUSA
  6
Continuous
100
AcDbLine
 10
87.43034135334413
 20
151.0723912916803
 30
0.0
 11
87.42854162749285
 21
151.0723912916803
 31
0.0
  0
ARC
  5
F7A
330
1F
100
AcDbEntity
  8
SANINDUSA
  6
Continuous
100
AcDbCircle
 10
87.43034135334413
 20
151.0732912916803
 30
0.0
 40
0.0009
100
AcDbArc
 50
181.0000000001072
 51
270.0
  0
LINE
  5
F7D
330
1F
100
AcDbEntity
  8
SANINDUSA
  6
Continuous
100
AcDbLine
 10
87.42923726615883
 20
151.0849755845145
 30
0.0
 11
87.42920584704195
 21
151.0867755845145
 31
0.0
  0
ARC
  5
F80
330
1F
100
AcDbEntity
  8
SANINDUSA
  6
Continuous
100
AcDbCircle
 10
87.4301057099676
 20
151.0867912916803
 30
0.0
 40
0.0009
100
AcDbArc
 50
181.0000000001072
 51
270.0
  0
LINE
  5
F83
330
1F
100
AcDbEntity
  8
SANINDUSA
  6
Continuous
100
AcDbLine
 10
87.43867658545582
 20
151.0849755845145
 30
0.0
 11
87.43847236119616
 21
151.0732755845145
 31
0.0
  0
LINE
  5
F85
330
1F
100
AcDbEntity
  8
SANINDUSA
  6
Continuous
100
AcDbLine
 10
87.43937222412181
 20
151.0723912916803
 30
0.0
 11
87.43757249827053
 21
151.0723912916803
 31
0.0
  0
ARC
  5
F88
330
1F
100
AcDbEntity
  8
SANINDUSA
  6
Continuous
100
AcDbCircle
 10
87.43757249827053
 20
151.0732912916803
 30
0.0
 40
0.0009
100
AcDbArc
 50
270.0
 51
358.9999999998928
  0
LINE
  5
F8B
330
1F
100
AcDbEntity
  8
SANINDUSA
  6
Continuous
100
AcDbLine
 10
87.43870800457271
 20
151.0867755845145
 30
0.0
 11
87.43867658545582
 21
151.0849755845145
 31
0.0
  0
ARC
  5
F8E
330
1F
100
AcDbEntity
  8
SANINDUSA
  6
Continuous
100
AcDbCircle
 10
87.43780814164706
 20
151.0867912916803
 30
0.0
 40
0.0009
100
AcDbArc
 50
270.0
 51
358.9999999998928
  0
LINE
  5
F91
330
1F
100
AcDbEntity
  8
SANINDUSA
  6
Continuous
100
AcDbLine
 10
87.38345470545333
 20
151.1087893075258
 30
0.0
 11
87.42854238380092
 21
151.1087893075258
 31
0.0
  0
ARC
  5
F92
330
1F
100
AcDbEntity
  8
SANINDUSA
  6
Continuous
100
AcDbCircle
 10
87.39505425405161
 20
151.1083912916802
 30
0.0
 40
0.0128473282442748
100
AcDbArc
 50
105.0898580773166
 51
173.762796217532
  0
LINE
  5
F95
330
1F
100
AcDbEntity
  8
SANINDUSA
  6
Continuous
100
AcDbLine
 10
87.38400692580732
 20
151.0957912916803
 30
0.0
 11
87.38400692580732
 21
151.1079061290816
 31
0.0
  0
LINE
  5
F97
330
1F
100
AcDbEntity
  8
SANINDUSA
  6
Continuous
100
AcDbLine
 10
87.39030692580731
 20
151.0948912916802
 30
0.0
 11
87.38490692580732
 21
151.0948912916802
 31
0.0
  0
ARC
  5
F99
330
1F
100
AcDbEntity
  8
SANINDUSA
  6
Continuous
100
AcDbCircle
 10
87.38490692580732
 20
151.0957912916803
 30
0.0
 40
0.0009
100
AcDbArc
 50
180.0
 51
270.0
  0
ARC
  5
F9D
330
1F
100
AcDbEntity
  8
SANINDUSA
  6
Continuous
100
AcDbCircle
 10
87.39030692580731
 20
151.0939912916803
 30
0.0
 40
0.0009000000000001
100
AcDbArc
 50
0.0
 51
90.0
  0
LWPOLYLINE
  5
F9E
330
1F
100
AcDbEntity
  8
SANINDUSA
  6
Continuous
100
AcDbPolyline
 90
        9
 70
   128
 43
0.0
 10
87.38322925977135
 20
151.1087977183037
 10
87.38338632077693
 20
151.1087616076435
 10
87.38353442310067
 20
151.108698066424
 10
87.38366881790403
 20
151.1086091320677
 10
87.38378519587433
 20
151.1084976562172
 10
87.38387982540107
 20
151.1083672132987
 10
87.38394967222836
 20
151.1082219859092
 10
87.38399249674715
 20
151.1080666307038
 10
87.38400692580732
 20
151.1079061290816
  0
LWPOLYLINE
  5
FA4
330
1F
100
AcDbEntity
  8
SANINDUSA
  6
Continuous
100
AcDbPolyline
 90
        3
 70
   128
 43
0.0
 10
87.38314228654601
 20
151.1087900024649
 10
87.38320567615975
 20
151.1087947688227
 10
87.38322925977135
 20
151.1087977183037
  0
LWPOLYLINE
  5
FA5
330
1F
100
AcDbEntity
  8
SANINDUSA
  6
Continuous
100
AcDbPolyline
 90
        4
 70
   128
 43
0.0
 10
87.38322925977135
 20
151.1087977183037
 10
87.38326148436589
 20
151.1087974414187
 10
87.38338911102994
 20
151.1087904728806
 10
87.38347129212689
 20
151.1087922454518
  0
ARC
  5
FA6
330
1F
100
AcDbEntity
  8
SANINDUSA
  6
Continuous
100
AcDbCircle
 10
87.38317764649552
 20
151.1096893075258
 30
0.0
 40
0.0009
100
AcDbArc
 50
173.762796217532
 51
270.0
  0
LINE
  5
FA8
330
1F
100
AcDbEntity
  8
SANINDUSA
  6
Continuous
100
AcDbLine
 10
87.4379652372314
 20
151.0948912916802
 30
0.0
 11
87.42994861438324
 21
151.0948912916802
 31
0.0
  0
LWPOLYLINE
  5
FAB
330
1F
100
AcDbEntity
  8
SANINDUSA
  6
Continuous
100
AcDbPolyline
 90
        5
 70
   128
 43
0.0
 10
87.42974730096843
 20
151.1087977183037
 10
87.43095872184026
 20
151.1087928394222
 10
87.43395692580733
 20
151.1087900024352
 10
87.43754993463193
 20
151.1087947688227
 10
87.43816655064623
 20
151.1087977183037
  0
LINE
  5
FAD
330
1F
100
AcDbEntity
  8
SANINDUSA
  6
Continuous
100
AcDbLine
 10
87.42904875145761
 20
151.0957755845145
 30
0.0
 11
87.42883064468212
 21
151.1082709133138
 31
0.0
  0
LINE
  5
FAE
330
1F
100
AcDbEntity
  8
SANINDUSA
  6
Continuous
100
AcDbLine
 10
87.42908017057448
 20
151.0939755845145
 30
0.0
 11
87.42904875145761
 21
151.0957755845145
 31
0.0
  0
ARC
  5
FB1
330
1F
100
AcDbEntity
  8
SANINDUSA
  6
Continuous
100
AcDbCircle
 10
87.42994861438324
 20
151.0957912916803
 30
0.0
 40
0.0009
100
AcDbArc
 50
181.0000000001072
 51
270.0
  0
LWPOLYLINE
  5
FB8
330
1F
100
AcDbEntity
  8
SANINDUSA
  6
Continuous
100
AcDbPolyline
 90
        4
 70
   128
 43
0.0
 10
87.42854679013404
 20
151.1087937666925
 10
87.42861354509448
 20
151.1087895248081
 10
87.42915232941832
 20
151.1087947489663
 10
87.42974730096843
 20
151.1087977183037
  0
LWPOLYLINE
  5
FB9
330
1F
100
AcDbEntity
  8
SANINDUSA
  6
Continuous
100
AcDbPolyline
 90
        5
 70
   128
 43
0.0
 10
87.42861569985802
 20
151.108741272205
 10
87.42865460715036
 20
151.1087088452084
 10
87.42875542348263
 20
151.1085707716336
 10
87.42883047427515
 20
151.1082783777009
 10
87.42883064468212
 20
151.1082709133138
  0
LWPOLYLINE
  5
FBA
330
1F
100
AcDbEntity
  8
SANINDUSA
  6
Continuous
100
AcDbPolyline
 90
        3
 70
   128
 43
0.0
 10
87.4285195683492
 20
151.1087897821454
 10
87.42857548641994
 20
151.1087655539112
 10
87.42862120503742
 20
151.1087309068667
  0
LINE
  5
FBB
330
1F
100
AcDbEntity
  8
SANINDUSA
  6
Continuous
100
AcDbLine
 10
87.43908320693254
 20
151.1082709133138
 30
0.0
 11
87.43886510015704
 21
151.0957755845145
 31
0.0
  0
LINE
  5
FBD
330
1F
100
AcDbEntity
  8
SANINDUSA
  6
Continuous
100
AcDbLine
 10
87.43886510015704
 20
151.0957755845145
 30
0.0
 11
87.43883368104018
 21
151.0939755845145
 31
0.0
  0
ARC
  5
FC0
330
1F
100
AcDbEntity
  8
SANINDUSA
  6
Continuous
100
AcDbCircle
 10
87.4379652372314
 20
151.0957912916803
 30
0.0
 40
0.0009
100
AcDbArc
 50
270.0
 51
358.9999999998928
  0
LWPOLYLINE
  5
FC7
330
1F
100
AcDbEntity
  8
SANINDUSA
  6
Continuous
100
AcDbPolyline
 90
        4
 70
   128
 43
0.0
 10
87.43816655064623
 20
151.1087977183037
 10
87.43851574050458
 20
151.1087974414187
 10
87.43906410572785
 20
151.1087904728806
 10
87.4393094029067
 20
151.1087927748487
  0
LWPOLYLINE
  5
FC8
330
1F
100
AcDbEntity
  8
SANINDUSA
  6
Continuous
100
AcDbPolyline
 90
        5
 70
   128
 43
0.0
 10
87.43908320693254
 20
151.1082709133138
 10
87.43910253545182
 20
151.1084218103512
 10
87.43920248398501
 20
151.1086425381391
 10
87.43928857023869
 20
151.1087345579851
 10
87.43929071539975
 20
151.1087366109524
  0
LWPOLYLINE
  5
FC9
330
1F
100
AcDbEntity
  8
SANINDUSA
  6
Continuous
100
AcDbPolyline
 90
        3
 70
   128
 43
0.0
 10
87.4392971134503
 20
151.1087386899141
 10
87.43938609992955
 20
151.1087876163151
 10
87.43939140983956
 20
151.1087893075258
  0
LINE
  5
FCA
330
1F
100
AcDbEntity
  8
SANINDUSA
  6
Continuous
100
AcDbLine
 10
87.47670692580733
 20
151.0939912916803
 30
0.0
 11
87.47670692580733
 21
151.0867912916803
 31
0.0
  0
LINE
  5
FCC
330
1F
100
AcDbEntity
  8
SANINDUSA
  6
Continuous
100
AcDbLine
 10
87.47580692580733
 20
151.0858912916803
 30
0.0
 11
87.46635692580733
 21
151.0858912916803
 31
0.0
  0
LINE
  5
FCE
330
1F
100
AcDbEntity
  8
SANINDUSA
  6
Continuous
100
AcDbLine
 10
87.46545692580733
 20
151.0849912916803
 30
0.0
 11
87.46545692580733
 21
151.0732912916803
 31
0.0
  0
ARC
  5
FD0
330
1F
100
AcDbEntity
  8
SANINDUSA
  6
Continuous
100
AcDbCircle
 10
87.46455692580733
 20
151.0732912916803
 30
0.0
 40
0.0009
100
AcDbArc
 50
270.0
 51
0.0
  0
ARC
  5
FD6
330
1F
100
AcDbEntity
  8
SANINDUSA
  6
Continuous
100
AcDbCircle
 10
87.46635692580733
 20
151.0849912916803
 30
0.0
 40
0.0009
100
AcDbArc
 50
90.0
 51
180.0
  0
ARC
  5
FD7
330
1F
100
AcDbEntity
  8
SANINDUSA
  6
Continuous
100
AcDbCircle
 10
87.47580692580733
 20
151.0867912916803
 30
0.0
 40
0.0009
100
AcDbArc
 50
270.0
 51
0.0
  0
ARC
  5
FDA
330
1F
100
AcDbEntity
  8
SANINDUSA
  6
Continuous
100
AcDbCircle
 10
87.47285959756306
 20
151.1083912916802
 30
0.0
 40
0.0128473282442748
100
AcDbArc
 50
6.23720378246797
 51
74.91014192268344
  0
LINE
  5
FDB
330
1F
100
AcDbEntity
  8
SANINDUSA
  6
Continuous
100
AcDbLine
 10
87.48390692580732
 20
151.1079061290816
 30
0.0
 11
87.48390692580732
 21
151.0957912916803
 31
0.0
  0
LINE
  5
FDD
330
1F
100
AcDbEntity
  8
SANINDUSA
  6
Continuous
100
AcDbLine
 10
87.48300692580732
 20
151.0948912916802
 30
0.0
 11
87.47760692580733
 21
151.0948912916802
 31
0.0
  0
ARC
  5
FE1
330
1F
100
AcDbEntity
  8
SANINDUSA
  6
Continuous
100
AcDbCircle
 10
87.47760692580733
 20
151.0939912916803
 30
0.0
 40
0.0009000000000001
100
AcDbArc
 50
90.0
 51
180.0
  0
ARC
  5
FE3
330
1F
100
AcDbEntity
  8
SANINDUSA
  6
Continuous
100
AcDbCircle
 10
87.48300692580732
 20
151.0957912916803
 30
0.0
 40
0.0009
100
AcDbArc
 50
270.0
 51
0.0
  0
ARC
  5
FE6
330
1F
100
AcDbEntity
  8
SANINDUSA
  6
Continuous
100
AcDbCircle
 10
87.48473620511914
 20
151.1096893075258
 30
0.0
 40
0.0009
100
AcDbArc
 50
270.0
 51
6.23720378246797
  0
LWPOLYLINE
  5
FE7
330
1F
100
AcDbEntity
  8
SANINDUSA
  6
Continuous
100
AcDbPolyline
 90
        9
 70
   128
 43
0.0
 10
87.48390692580732
 20
151.1079061290816
 10
87.48392135486751
 20
151.1080666307038
 10
87.4839641793863
 20
151.1082219859092
 10
87.48403402621359
 20
151.1083672132987
 10
87.48412865574032
 20
151.1084976562172
 10
87.48424503371062
 20
151.1086091320677
 10
87.48437942851399
 20
151.108698066424
 10
87.48452753083773
 20
151.1087616076435
 10
87.48468459184332
 20
151.1087977183037
  0
LWPOLYLINE
  5
FED
330
1F
100
AcDbEntity
  8
SANINDUSA
  6
Continuous
100
AcDbPolyline
 90
        3
 70
   128
 43
0.0
 10
87.48444387490124
 20
151.1087898104628
 10
87.48460765761507
 20
151.1087947489663
 10
87.48468459184332
 20
151.1087977183037
  0
LWPOLYLINE
  5
FEE
330
1F
100
AcDbEntity
  8
SANINDUSA
  6
Continuous
100
AcDbPolyline
 90
        4
 70
   128
 43
0.0
 10
87.48468459184332
 20
151.1087977183037
 10
87.48472740921245
 20
151.1087928394222
 10
87.48477156546323
 20
151.1087900024352
 10
87.48477156492381
 20
151.1087900024758
  0
LINE
  5
FF7
330
1F
100
AcDbEntity
  8
SANINDUSA
100
AcDbLine
 10
87.11571819667364
 20
151.2337345326084
 30
0.0
 11
87.11571819667364
 21
151.2257345326084
 31
0.0
  0
LINE
  5
FF8
330
1F
100
AcDbEntity
  8
SANINDUSA
100
AcDbLine
 10
87.16601410680155
 20
151.3222345326084
 30
0.0
 11
87.2129750678518
 21
151.3222345326088
 31
0.0
  0
ARC
  5
FF9
330
1F
100
AcDbEntity
  8
SANINDUSA
100
AcDbCircle
 10
87.2129750678521
 20
151.2922345326088
 30
0.0
 40
0.03
100
AcDbArc
 50
19.45893263812147
 51
90.00000000081424
  0
ARC
  5
FFA
330
1F
100
AcDbEntity
  8
SANINDUSA
100
AcDbCircle
 10
87.269547898366
 20
151.3122224001199
 30
0.0
 40
0.03
100
AcDbArc
 50
199.4589326381214
 51
270.0
  0
LINE
  5
FFB
330
1F
100
AcDbEntity
  8
SANINDUSA
100
AcDbLine
 10
87.17767443149593
 20
151.2914410599689
 30
0.0
 11
87.17598353544959
 21
151.3130158727595
 31
0.0
  0
ARC
  5
FFC
330
1F
100
AcDbEntity
  8
SANINDUSA
100
AcDbCircle
 10
87.16601410680155
 20
151.3122345326084
 30
0.0
 40
0.01
100
AcDbArc
 50
4.481316896808617
 51
90.0
  0
ARC
  5
FFD
330
1F
100
AcDbEntity
  8
SANINDUSA
100
AcDbCircle
 10
87.18764386014397
 20
151.29222240012
 30
0.0
 40
0.01
100
AcDbArc
 50
184.4813168968086
 51
270.0
  0
ARC
  5
FFE
330
1F
100
AcDbEntity
  8
SANINDUSA
100
AcDbCircle
 10
87.18764386014397
 20
151.29222240012
 30
0.0
 40
0.0201899999999936
100
AcDbArc
 50
187.0781339370859
 51
270.0
  0
LINE
  5
FFF
330
1F
100
AcDbEntity
  8
SANINDUSA
100
AcDbLine
 10
87.16680319433768
 20
151.2997345326083
 30
0.0
 11
87.16583841515131
 21
151.3120445326083
 31
0.0
  0
LINE
  5
1000
330
1F
100
AcDbEntity
  8
SANINDUSA
100
AcDbLine
 10
87.62059648355062
 20
151.2720324001199
 30
0.0
 11
87.60113295536546
 21
151.2720324001199
 31
0.0
  0
LINE
  5
1001
330
1F
100
AcDbEntity
  8
SANINDUSA
100
AcDbLine
 10
87.59525650498277
 20
151.237210546592
 30
0.0
 11
87.61051946992493
 21
151.237210546592
 31
0.0
  0
LINE
  5
1002
330
1F
100
AcDbEntity
  8
SANINDUSA
100
AcDbLine
 10
87.61051946992493
 20
151.237210546592
 30
0.0
 11
87.6159253900874
 21
151.237210546592
 31
0.0
  0
ARC
  5
1003
330
1F
100
AcDbEntity
  8
SANINDUSA
100
AcDbCircle
 10
87.6159253900874
 20
151.2352105465921
 30
0.0
 40
0.002
100
AcDbArc
 50
350.0004611932723
 51
90.0
  0
LINE
  5
1007
330
1F
100
AcDbEntity
  8
SANINDUSA
100
AcDbLine
 10
87.24586708956325
 20
151.237210546592
 30
0.0
 11
87.58689602958099
 21
151.237210546592
 31
0.0
  0
ARC
  5
1008
330
1F
100
AcDbEntity
  8
SANINDUSA
100
AcDbCircle
 10
87.20614959279657
 20
151.235210546592
 30
0.0
 40
0.002
100
AcDbArc
 50
90.0
 51
196.5582326925628
  0
LINE
  5
1009
330
1F
100
AcDbEntity
  8
SANINDUSA
100
AcDbLine
 10
87.53261794481471
 20
151.072543488903
 30
0.0
 11
87.56499663540976
 21
150.8872345326083
 31
0.0
  0
ARC
  5
100A
330
1F
100
AcDbEntity
  8
SANINDUSA
100
AcDbCircle
 10
87.57559385130255
 20
151.0800525894183
 30
0.0
 40
0.043627
100
AcDbArc
 50
162.4585463577386
 51
189.9111316327441
  0
ARC
  5
100B
330
1F
100
AcDbEntity
  8
SANINDUSA
100
AcDbCircle
 10
87.51807858656459
 20
151.155370439966
 30
0.0
 40
0.06114
100
AcDbArc
 50
307.3665806277739
 51
311.334042622632
  0
ARC
  5
100C
330
1F
100
AcDbEntity
  8
SANINDUSA
100
AcDbCircle
 10
87.5320885460537
 20
151.0938043727283
 30
0.0
 40
0.002
100
AcDbArc
 50
342.4585463577386
 51
102.8199031143174
  0
LINE
  5
100D
330
1F
100
AcDbEntity
  8
SANINDUSA
100
AcDbLine
 10
87.2470366348875
 20
150.8872345326083
 30
0.0
 11
87.26950930446347
 21
151.0164523826688
 31
0.0
  0
ARC
  5
100E
330
1F
100
AcDbEntity
  8
SANINDUSA
100
AcDbCircle
 10
87.36334367343973
 20
151.2368401828524
 30
0.0
 40
0.1419383548296292
100
AcDbArc
 50
239.7513153598552
 51
261.6536860626468
  0
LINE
  5
1010
330
1F
100
AcDbEntity
  8
SANINDUSA
100
AcDbLine
 10
87.30307070069464
 20
150.9281266166117
 30
0.0
 11
87.30307070069464
 21
150.986255902547
 31
0.0
  0
LINE
  5
1011
330
1F
100
AcDbEntity
  8
SANINDUSA
100
AcDbLine
 10
87.34944944417046
 20
150.9231266166117
 30
0.0
 11
87.30807070069465
 21
150.9231266166117
 31
0.0
  0
ARC
  5
1012
330
1F
100
AcDbEntity
  8
SANINDUSA
100
AcDbCircle
 10
87.30807070069465
 20
150.9281266166117
 30
0.0
 40
0.005
100
AcDbArc
 50
180.0
 51
270.0
  0
ARC
  5
1013
330
1F
100
AcDbEntity
  8
SANINDUSA
100
AcDbCircle
 10
87.30747070069464
 20
150.9275266166117
 30
0.0
 40
0.01
100
AcDbArc
 50
180.0
 51
270.0
  0
LINE
  5
1015
330
1F
100
AcDbEntity
  8
SANINDUSA
100
AcDbLine
 10
87.20728351624085
 20
151.247400546592
 30
0.0
 11
87.1967628039769
 21
151.247400546592
 31
0.0
  0
LINE
  5
1016
330
1F
100
AcDbEntity
  8
SANINDUSA
100
AcDbLine
 10
87.11671819667342
 20
151.2897345326084
 30
0.0
 11
87.16760772740222
 21
151.2897345326084
 31
0.0
  0
LINE
  5
1017
330
1F
100
AcDbEntity
  8
SANINDUSA
100
AcDbLine
 10
87.1257181966734
 20
151.2997345326083
 30
0.0
 11
87.16680319433768
 21
151.2997345326083
 31
0.0
  0
LINE
  5
1018
330
1F
100
AcDbEntity
  8
SANINDUSA
100
AcDbLine
 10
87.1257181966734
 20
151.2997345326083
 30
0.0
 11
87.12571819667337
 21
151.3121371712738
 31
0.0
  0
LINE
  5
101F
330
1F
100
AcDbEntity
  8
SANINDUSA
100
AcDbLine
 10
87.19314106017959
 20
151.2247345326086
 30
0.0
 11
87.11671819667364
 21
151.2247345326084
 31
0.0
  0
ARC
  5
1020
330
1F
100
AcDbEntity
  8
SANINDUSA
100
AcDbCircle
 10
87.19314106017961
 20
151.2197345326086
 30
0.0
 40
0.005
100
AcDbArc
 50
19.75427827948344
 51
90.0
  0
ARC
  5
1021
330
1F
100
AcDbEntity
  8
SANINDUSA
100
AcDbCircle
 10
87.1967628039769
 20
151.242400546592
 30
0.0
 40
0.005
100
AcDbArc
 50
90.0
 51
195.4621298877379
  0
ARC
  5
1022
330
1F
100
AcDbEntity
  8
SANINDUSA
100
AcDbCircle
 10
87.38097309697501
 20
151.2871889585668
 30
0.0
 40
0.1945769867195548
100
AcDbArc
 50
199.7542782794834
 51
219.9630509620429
  0
ARC
  5
1023
330
1F
100
AcDbEntity
  8
SANINDUSA
100
AcDbCircle
 10
87.187124735216
 20
151.2397345326086
 30
0.0
 40
0.005
100
AcDbArc
 50
270.0
 51
15.46212988773794
  0
ARC
  5
1024
330
1F
100
AcDbEntity
  8
SANINDUSA
100
AcDbCircle
 10
87.11671819667364
 20
151.2257345326084
 30
0.0
 40
0.001
100
AcDbArc
 50
180.0
 51
270.0
  0
ARC
  5
1025
330
1F
100
AcDbEntity
  8
SANINDUSA
100
AcDbCircle
 10
87.11671819667364
 20
151.2337345326084
 30
0.0
 40
0.001
100
AcDbArc
 50
90.0
 51
180.0
  0
ARC
  5
1026
330
1F
100
AcDbEntity
  8
SANINDUSA
100
AcDbCircle
 10
87.11671819667342
 20
151.2907345326084
 30
0.0
 40
0.001
100
AcDbArc
 50
180.0
 51
270.0
  0
LINE
  5
1027
330
1F
100
AcDbEntity
  8
SANINDUSA
100
AcDbLine
 10
87.11571819667343
 20
151.2907345326084
 30
0.0
 11
87.11571819667364
 21
151.2337345326084
 31
0.0
  0
LINE
  5
102C
330
1F
100
AcDbEntity
  8
SANINDUSA
100
AcDbLine
 10
87.23711993681115
 20
151.1289727471273
 30
0.0
 11
87.23205349412493
 21
151.1608563738987
 31
0.0
  0
ARC
  5
102D
330
1F
100
AcDbEntity
  8
SANINDUSA
100
AcDbCircle
 10
87.23218189231538
 20
151.1281880710426
 30
0.0
 40
0.005
100
AcDbArc
 50
271.0000000000929
 51
9.02904977357574
  0
LINE
  5
102E
330
1F
100
AcDbEntity
  8
SANINDUSA
100
AcDbLine
 10
87.2481205241994
 20
151.1234655192568
 30
0.0
 11
87.24407638285347
 21
151.1489157022097
 31
0.0
  0
ARC
  5
102F
330
1F
100
AcDbEntity
  8
SANINDUSA
100
AcDbCircle
 10
87.38097309697499
 20
151.2871889585668
 30
0.0
 40
0.1945769867195358
100
AcDbArc
 50
225.2866206748246
 51
237.0359686761891
  0
ARC
  5
1030
330
1F
100
AcDbEntity
  8
SANINDUSA
100
AcDbCircle
 10
87.22711544962917
 20
151.1600716978141
 30
0.0
 40
0.005
100
AcDbArc
 50
9.02904977357574
 51
39.56353356588902
  0
LINE
  5
1032
330
1F
100
AcDbEntity
  8
SANINDUSA
100
AcDbLine
 10
87.1776846150183
 20
151.0322345326084
 30
0.0
 11
87.1776846150183
 21
151.0222330093279
 31
0.0
  0
LINE
  5
1033
330
1F
100
AcDbEntity
  8
SANINDUSA
100
AcDbLine
 10
87.1776846150183
 20
151.0322345326084
 30
0.0
 11
87.28681233579303
 21
151.0303297011567
 31
0.0
  0
ARC
  5
1034
330
1F
100
AcDbEntity
  8
SANINDUSA
100
AcDbCircle
 10
87.28646328766428
 20
151.0103327472537
 30
0.0
 40
0.02
100
AcDbArc
 50
15.00000000063094
 51
88.99999999990702
  0
LINE
  5
1035
330
1F
100
AcDbEntity
  8
SANINDUSA
100
AcDbLine
 10
87.1776846150183
 20
151.0222331032716
 30
0.0
 11
87.25427927962774
 21
151.0209373682116
 31
0.0
  0
ARC
  5
1036
330
1F
100
AcDbEntity
  8
SANINDUSA
100
AcDbCircle
 10
87.25419470783013
 20
151.0159380835017
 30
0.0
 40
0.005
100
AcDbArc
 50
350.1341930562879
 51
89.03083237017176
  0
LINE
  5
1037
330
1F
100
AcDbEntity
  8
SANINDUSA
100
AcDbLine
 10
87.27451993503519
 20
151.020594961505
 30
0.0
 11
87.28641900451822
 21
151.0203936675691
 31
0.0
  0
ARC
  5
1038
330
1F
100
AcDbEntity
  8
SANINDUSA
100
AcDbCircle
 10
87.27443536323757
 20
151.0155956767951
 30
0.0
 40
0.005
100
AcDbArc
 50
89.03083237017176
 51
170.1341930562878
  0
ARC
  5
1039
330
1F
100
AcDbEntity
  8
SANINDUSA
100
AcDbCircle
 10
87.28624986092299
 20
151.0103950981492
 30
0.0
 40
0.01
100
AcDbArc
 50
15.00000000063094
 51
89.03083237017176
  0
LINE
  5
103A
330
1F
100
AcDbEntity
  8
SANINDUSA
100
AcDbLine
 10
87.1776846150183
 20
151.1122345326084
 30
0.0
 11
87.29184163878434
 21
151.1142271508702
 31
0.0
  0
LINE
  5
103B
330
1F
100
AcDbEntity
  8
SANINDUSA
100
AcDbLine
 10
87.1776846150183
 20
151.1222360558888
 30
0.0
 11
87.23226915434757
 21
151.1231888325669
 31
0.0
  0
LINE
  5
103C
330
1F
100
AcDbEntity
  8
SANINDUSA
100
AcDbLine
 10
87.2481205241994
 20
151.1234655192568
 30
0.0
 11
87.27510133913717
 21
151.1239364711334
 31
0.0
  0
LINE
  5
103D
330
1F
100
AcDbEntity
  8
SANINDUSA
100
AcDbLine
 10
87.1776846150183
 20
151.0322345326084
 30
0.0
 11
87.1776846150183
 21
151.1122345326084
 31
0.0
  0
LINE
  5
103E
330
1F
100
AcDbEntity
  8
SANINDUSA
100
AcDbLine
 10
87.1776846150183
 20
151.1122345326084
 30
0.0
 11
87.1776846150183
 21
151.1222360558888
 31
0.0
  0
ARC
  5
103F
330
1F
100
AcDbEntity
  8
SANINDUSA
100
AcDbCircle
 10
87.3929905169523
 20
151.0033541879552
 30
0.0
 40
0.0912813684311921
100
AcDbArc
 50
194.9019315310351
 51
0.0
  0
ARC
  5
1040
330
1F
100
AcDbEntity
  8
SANINDUSA
100
AcDbCircle
 10
87.3929905169523
 20
151.0033541879552
 30
0.0
 40
0.0810913684311921
100
AcDbArc
 50
194.8896081623503
 51
0.0
  0
LINE
  5
1041
330
1F
100
AcDbEntity
  8
SANINDUSA
100
AcDbLine
 10
87.31462197772158
 20
150.9825171513883
 30
0.0
 11
87.30578180419007
 21
151.0155091281557
 31
0.0
  0
LINE
  5
1042
330
1F
100
AcDbEntity
  8
SANINDUSA
100
AcDbLine
 10
87.30477917732203
 20
150.97987978097
 30
0.0
 11
87.29590911918588
 21
151.0129832886002
 31
0.0
  0
LINE
  5
10E9
330
1F
100
AcDbEntity
  8
SANINDUSA
100
AcDbLine
 10
86.44578485203695
 20
151.0381889775407
 30
0.0
 11
86.44578485203695
 21
151.0281874542603
 31
0.0
  0
LINE
  5
10EB
330
1F
100
AcDbEntity
  8
SANINDUSA
100
AcDbLine
 10
86.44578485203695
 20
151.0281875482041
 30
0.0
 11
86.52120262706421
 21
151.0269117223257
 31
0.0
  0
LINE
  5
10ED
330
1F
100
AcDbEntity
  8
SANINDUSA
100
AcDbLine
 10
86.44578485203695
 20
151.1281905008212
 30
0.0
 11
86.5023958609373
 21
151.1291786496572
 31
0.0
  0
LINE
  5
10EE
330
1F
100
AcDbEntity
  8
SANINDUSA
100
AcDbLine
 10
86.44578485203695
 20
151.0381889775407
 30
0.0
 11
86.44578485203695
 21
151.1181889775407
 31
0.0
  0
LINE
  5
10EF
330
1F
100
AcDbEntity
  8
SANINDUSA
100
AcDbLine
 10
86.44578485203695
 20
151.1181889775407
 30
0.0
 11
86.44578485203695
 21
151.1281905008212
 31
0.0
  0
ENDSEC
  0
SECTION
  2
OBJECTS
  0
DICTIONARY
  5
C
330
0
100
AcDbDictionary
281
     1
  3
ACAD_COLOR
350
BA9
  3
ACAD_GROUP
350
D
  3
ACAD_LAYOUT
350
1A
  3
ACAD_MATERIAL
350
BA8
  3
ACAD_MLINESTYLE
350
17
  3
ACAD_PLOTSETTINGS
350
19
  3
ACAD_PLOTSTYLENAME
350
E
  3
ACAD_TABLESTYLE
350
BAA
  3
ACDBHEADERROUNDTRIPXREC
350
1103
  3
AcDbVariableDictionary
350
3D
  3
ASE_INDEX_DICTIONARY
350
D40
  0
DICTIONARY
  5
CDE
330
1F
100
AcDbDictionary
280
     1
281
     1
  3
ACAD_SORTENTS
360
CDF
  0
DICTIONARY
  5
BA9
102
{ACAD_REACTORS
330
C
102
}
330
C
100
AcDbDictionary
281
     1
  0
DICTIONARY
  5
D
102
{ACAD_REACTORS
330
C
102
}
330
C
100
AcDbDictionary
281
     1
  0
DICTIONARY
  5
1A
102
{ACAD_REACTORS
330
C
102
}
330
C
100
AcDbDictionary
281
     1
  3
Layout1
350
1E
  3
Layout2
350
26
  3
Model
350
22
  0
DICTIONARY
  5
BA8
102
{ACAD_REACTORS
330
C
102
}
330
C
100
AcDbDictionary
281
     1
  0
DICTIONARY
  5
17
102
{ACAD_REACTORS
330
C
102
}
330
C
100
AcDbDictionary
281
     1
  3
Standard
350
18
  0
DICTIONARY
  5
19
102
{ACAD_REACTORS
330
C
102
}
330
C
100
AcDbDictionary
281
     1
  0
ACDBDICTIONARYWDFLT
  5
E
102
{ACAD_REACTORS
330
C
102
}
330
C
100
AcDbDictionary
281
     1
  3
Normal
350
F
100
AcDbDictionaryWithDefault
340
F
  0
DICTIONARY
  5
BAA
102
{ACAD_REACTORS
330
C
102
}
330
C
100
AcDbDictionary
281
     1
  3
Standard
350
BAB
  0
DICTIONARY
  5
1103
102
{ACAD_REACTORS
330
C
102
}
330
C
100
AcDbDictionary
281
     1
  0
DICTIONARY
  5
3D
102
{ACAD_REACTORS
330
C
102
}
330
C
100
AcDbDictionary
281
     1
  3
CTABLESTYLE
350
D4A
  3
DIMASSOC
350
3F
  3
HIDETEXT
350
3E
  3
PROJECTNAME
350
D4B
  0
DICTIONARY
  5
D40
102
{ACAD_REACTORS
330
C
102
}
330
C
100
AcDbDictionary
281
     1
  3
ASEBlockHierarchyIndexRecord
350
D41
1001
DCO15
1040
1534503877.5
  0
SORTENTSTABLE
  5
CDF
102
{ACAD_REACTORS
330
CDE
102
}
330
CDE
100
AcDbSortentsTable
330
1F
331
D16
  5
C7C
331
D1E
  5
C84
331
D26
  5
C8C
331
CE7
  5
CB7
331
CEF
  5
CBF
331
D2E
  5
C94
331
CF7
  5
CC7
331
CFF
  5
C9B
331
D07
  5
CA3
331
D0F
  5
CAB
331
D17
  5
C7D
331
D1F
  5
C85
331
CE0
  5
CB0
331
D27
  5
C8D
331
CE8
  5
CB8
331
D2F
  5
C95
331
CF0
  5
CC0
331
CF8
  5
CC8
331
D00
  5
C9C
331
D08
  5
CA4
331
D10
  5
CAC
331
D18
  5
C7E
331
D20
  5
C86
331
CE1
  5
CB1
331
D28
  5
C8E
331
CE9
  5
CB9
331
D30
  5
C96
331
CF9
  5
CC9
331
D01
  5
C9D
331
D09
  5
CA5
331
D11
  5
CAD
331
D19
  5
C7F
331
D21
  5
C87
331
CE2
  5
CB2
331
D29
  5
C8F
331
CEA
  5
CBA
331
D31
  5
C97
331
CF2
  5
CC2
331
CFA
  5
CCA
331
D02
  5
C9E
331
D0A
  5
CA6
331
D12
  5
CAE
331
D1A
  5
C80
331
D22
  5
C88
331
CE3
  5
CB3
331
D2A
  5
C90
331
CEB
  5
CBB
331
CF3
  5
CC3
331
CFB
  5
CCB
331
D03
  5
C9F
331
D0B
  5
CA7
331
D13
  5
CAF
331
D1B
  5
C81
331
D23
  5
C89
331
CE4
  5
CB4
331
D2B
  5
C91
331
CEC
  5
CBC
331
CF4
  5
CC4
331
CFC
  5
C98
331
D04
  5
CA0
331
D0C
  5
CA8
331
D14
  5
C7A
331
D1C
  5
C82
331
D24
  5
C8A
331
CE5
  5
CB5
331
D2C
  5
C92
331
CED
  5
CBD
331
CFD
  5
C99
331
D05
  5
CA1
331
D0D
  5
CA9
331
D15
  5
C7B
331
D1D
  5
C83
331
D25
  5
C8B
331
CE6
  5
CB6
331
D2D
  5
C93
331
CEE
  5
CBE
331
CFE
  5
C9A
331
D06
  5
CA2
331
D0E
  5
CAA
  0
LAYOUT
  5
1E
102
{ACAD_XDICTIONARY
360
1104
102
}
102
{ACAD_REACTORS
330
1A
102
}
330
1A
100
AcDbPlotSettings
  1

  2
Ploter HP500
  4

  6

 40
0.0
 41
0.0
 42
0.0
 43
0.0
 44
0.0
 45
0.0
 46
0.0
 47
0.0
 48
0.0
 49
0.0
140
0.0
141
0.0
142
1.0
143
1.0
 70
   688
 72
     0
 73
     0
 74
     5
  7
monochrome.ctb
 75
    16
147
1.0
148
0.0
149
0.0
100
AcDbLayout
  1
Layout1
 70
     1
 71
     1
 10
0.0
 20
0.0
 11
420.0
 21
297.0
 12
0.0
 22
0.0
 32
0.0
 14
1.000000000000000E+20
 24
1.000000000000000E+20
 34
1.000000000000000E+20
 15
-1.000000000000000E+20
 25
-1.000000000000000E+20
 35
-1.000000000000000E+20
146
0.0
 13
0.0
 23
0.0
 33
0.0
 16
1.0
 26
0.0
 36
0.0
 17
0.0
 27
1.0
 37
0.0
 76
     0
330
1B
  0
LAYOUT
  5
26
102
{ACAD_XDICTIONARY
360
1108
102
}
102
{ACAD_REACTORS
330
1A
102
}
330
1A
100
AcDbPlotSettings
  1

  2
Ploter HP500
  4

  6

 40
0.0
 41
0.0
 42
0.0
 43
0.0
 44
0.0
 45
0.0
 46
0.0
 47
0.0
 48
0.0
 49
0.0
140
0.0
141
0.0
142
1.0
143
1.0
 70
   688
 72
     0
 73
     0
 74
     5
  7
monochrome.ctb
 75
    16
147
1.0
148
0.0
149
0.0
100
AcDbLayout
  1
Layout2
 70
     1
 71
     2
 10
0.0
 20
0.0
 11
12.0
 21
9.0
 12
0.0
 22
0.0
 32
0.0
 14
0.0
 24
0.0
 34
0.0
 15
0.0
 25
0.0
 35
0.0
146
0.0
 13
0.0
 23
0.0
 33
0.0
 16
1.0
 26
0.0
 36
0.0
 17
0.0
 27
1.0
 37
0.0
 76
     0
330
23
  0
LAYOUT
  5
22
102
{ACAD_XDICTIONARY
360
1106
102
}
102
{ACAD_REACTORS
330
1A
102
}
330
1A
100
AcDbPlotSettings
  1

  2
Ploter HP500
  4
User268
  6

 40
4.995333194732666
 41
16.97565841674804
 42
4.995330810546875
 43
16.97567749023437
 44
209.9733276367187
 45
296.9259948730469
 46
0.0
 47
0.0
 48
0.0
 49
0.0
140
0.0
141
0.0
142
1.0
143
1.0
 70
 11952
 72
     1
 73
     1
 74
     0
  7

 75
     0
147
1.0
148
-427.5957866592534
149
7.362384574453926
100
AcDbLayout
  1
Model
 70
     1
 71
     0
 10
0.0
 20
0.0
 11
12.0
 21
9.0
 12
0.0
 22
0.0
 32
0.0
 14
0.0
 24
0.0
 34
0.0
 15
0.0
 25
0.0
 35
0.0
146
0.0
 13
0.0
 23
0.0
 33
0.0
 16
1.0
 26
0.0
 36
0.0
 17
0.0
 27
1.0
 37
0.0
 76
     0
330
1F
  0
MLINESTYLE
  5
18
102
{ACAD_REACTORS
330
17
102
}
330
17
100
AcDbMlineStyle
  2
STANDARD
 70
     0
  3

 62
   256
 51
90.0
 52
90.0
 71
     2
 49
0.5
 62
   256
  6
BYLAYER
 49
-0.5
 62
   256
  6
BYLAYER
  0
ACDBPLACEHOLDER
  5
F
102
{ACAD_REACTORS
330
E
102
}
330
E
  0
TABLESTYLE
  5
BAB
102
{ACAD_REACTORS
330
BAA
102
}
330
BAA
100
AcDbTableStyle
  3
Standard
 70
     0
 71
     0
 40
1.5
 41
1.5
280
     0
281
     0
  7
Standard
140
4.5
170
     2
 62
     0
 63
     7
283
     0
274
    -2
284
     1
 64
     0
275
    -2
285
     1
 65
     0
276
    -2
286
     1
 66
     0
277
    -2
287
     1
 67
     0
278
    -2
288
     1
 68
     0
279
    -2
289
     1
 69
     0
  7
Standard
140
6.0
170
     5
 62
     0
 63
     7
283
     0
274
    -2
284
     1
 64
     0
275
    -2
285
     1
 65
     0
276
    -2
286
     1
 66
     0
277
    -2
287
     1
 67
     0
278
    -2
288
     1
 68
     0
279
    -2
289
     1
 69
     0
  7
Standard
140
4.5
170
     5
 62
     0
 63
     7
283
     0
274
    -2
284
     1
 64
     0
275
    -2
285
     1
 65
     0
276
    -2
286
     1
 66
     0
277
    -2
287
     1
 67
     0
278
    -2
288
     1
 68
     0
279
    -2
289
     1
 69
     0
  0
DICTIONARYVAR
  5
D4A
102
{ACAD_REACTORS
330
3D
102
}
330
3D
100
DictionaryVariables
280
     0
  1
STANDARD
  0
DICTIONARYVAR
  5
3F
102
{ACAD_REACTORS
330
3D
102
}
330
3D
100
DictionaryVariables
280
     0
  1
2
  0
DICTIONARYVAR
  5
3E
102
{ACAD_REACTORS
330
3D
102
}
330
3D
100
DictionaryVariables
280
     0
  1
1
  0
DICTIONARYVAR
  5
D4B
102
{ACAD_REACTORS
330
3D
102
}
330
3D
100
DictionaryVariables
280
     0
  1

  0
XRECORD
  5
D41
102
{ACAD_REACTORS
330
D40
102
}
330
D40
100
AcDbXrecord
280
     1
  0
DICTIONARY
  5
1104
330
1E
100
AcDbDictionary
280
     1
281
     1
  3
ACAD_XREC_ROUNDTRIP
360
1105
  0
DICTIONARY
  5
1108
330
26
100
AcDbDictionary
280
     1
281
     1
  3
ACAD_XREC_ROUNDTRIP
360
1109
  0
DICTIONARY
  5
1106
330
22
100
AcDbDictionary
280
     1
281
     1
  3
ACAD_XREC_ROUNDTRIP
360
1107
  0
XRECORD
  5
1105
102
{ACAD_REACTORS
330
1104
102
}
330
1104
100
AcDbXrecord
280
     1
102
SHADEPLOT
 70
     0
102
SHADEPLOTRESLEVEL
 70
     2
102
SHADEPLOTCUSTOMDPI
 70
   300
  0
XRECORD
  5
1109
102
{ACAD_REACTORS
330
1108
102
}
330
1108
100
AcDbXrecord
280
     1
102
SHADEPLOT
 70
     0
102
SHADEPLOTRESLEVEL
 70
     2
102
SHADEPLOTCUSTOMDPI
 70
   300
  0
XRECORD
  5
1107
102
{ACAD_REACTORS
330
1106
102
}
330
1106
100
AcDbXrecord
280
     1
102
SHADEPLOT
 70
     0
102
SHADEPLOTRESLEVEL
 70
     2
102
SHADEPLOTCUSTOMDPI
 70
   300
  0
ENDSEC
  0
EOF
