  0
SECTION
  2
HEADER
  9
$ACADVER
  1
AC1015
  9
$ACADMAINTVER
 70
    20
  9
$DWGCODEPAGE
  3
ANSI_1252
  9
$INSBASE
 10
0.0
 20
0.0
 30
0.0
  9
$EXTMIN
 10
527.6026321489139
 20
911.4448328171068
 30
0.0
  9
$EXTMAX
 10
529.9376654919515
 20
911.7848328171067
 30
0.0
  9
$LIMMIN
 10
0.0
 20
0.0
  9
$LIMMAX
 10
420.0
 20
297.0
  9
$ORTHOMODE
 70
     1
  9
$REGENMODE
 70
     1
  9
$FILLMODE
 70
     1
  9
$QTEXTMODE
 70
     0
  9
$MIRRTEXT
 70
     1
  9
$LTSCALE
 40
1.0
  9
$ATTMODE
 70
     1
  9
$TEXTSIZE
 40
2.5
  9
$TRACEWID
 40
1.0
  9
$TEXTSTYLE
  7
SANINDUSA
  9
$CLAYER
  8
0
  9
$CELTYPE
  6
ByLayer
  9
$CECOLOR
 62
   256
  9
$CELTSCALE
 40
1.0
  9
$DISPSILH
 70
     0
  9
$DIMSCALE
 40
1.0
  9
$DIMASZ
 40
2.0
  9
$DIMEXO
 40
1.0
  9
$DIMDLI
 40
1.0
  9
$DIMRND
 40
0.0
  9
$DIMDLE
 40
0.0
  9
$DIMEXE
 40
1.0
  9
$DIMTP
 40
0.0
  9
$DIMTM
 40
0.0
  9
$DIMTXT
 40
2.0
  9
$DIMCEN
 40
0.0
  9
$DIMTSZ
 40
0.0
  9
$DIMTOL
 70
     0
  9
$DIMLIM
 70
     0
  9
$DIMTIH
 70
     0
  9
$DIMTOH
 70
     0
  9
$DIMSE1
 70
     0
  9
$DIMSE2
 70
     0
  9
$DIMTAD
 70
     1
  9
$DIMZIN
 70
     8
  9
$DIMBLK
  1

  9
$DIMASO
 70
     1
  9
$DIMSHO
 70
     1
  9
$DIMPOST
  1

  9
$DIMAPOST
  1

  9
$DIMALT
 70
     0
  9
$DIMALTD
 70
     3
  9
$DIMALTF
 40
0.03937007874016
  9
$DIMLFAC
 40
1.0
  9
$DIMTOFL
 70
     1
  9
$DIMTVP
 40
0.0
  9
$DIMTIX
 70
     0
  9
$DIMSOXD
 70
     0
  9
$DIMSAH
 70
     0
  9
$DIMBLK1
  1

  9
$DIMBLK2
  1

  9
$DIMSTYLE
  2
SANINDUSA
  9
$DIMCLRD
 70
   256
  9
$DIMCLRE
 70
   256
  9
$DIMCLRT
 70
   256
  9
$DIMTFAC
 40
1.0
  9
$DIMGAP
 40
1.0
  9
$DIMJUST
 70
     0
  9
$DIMSD1
 70
     0
  9
$DIMSD2
 70
     0
  9
$DIMTOLJ
 70
     0
  9
$DIMTZIN
 70
     8
  9
$DIMALTZ
 70
     0
  9
$DIMALTTZ
 70
     0
  9
$DIMUPT
 70
     0
  9
$DIMDEC
 70
     1
  9
$DIMTDEC
 70
     1
  9
$DIMALTU
 70
     2
  9
$DIMALTTD
 70
     3
  9
$DIMTXSTY
  7
SANINDUSA
  9
$DIMAUNIT
 70
     0
  9
$DIMADEC
 70
     1
  9
$DIMALTRND
 40
0.0
  9
$DIMAZIN
 70
     0
  9
$DIMDSEP
 70
    44
  9
$DIMATFIT
 70
     3
  9
$DIMFRAC
 70
     0
  9
$DIMLDRBLK
  1

  9
$DIMLUNIT
 70
     2
  9
$DIMLWD
 70
    -1
  9
$DIMLWE
 70
    -1
  9
$DIMTMOVE
 70
     0
  9
$LUNITS
 70
     2
  9
$LUPREC
 70
     4
  9
$SKETCHINC
 40
1.0
  9
$FILLETRAD
 40
0.0
  9
$AUNITS
 70
     0
  9
$AUPREC
 70
     0
  9
$MENU
  1
.
  9
$ELEVATION
 40
0.0
  9
$PELEVATION
 40
0.0
  9
$THICKNESS
 40
0.0
  9
$LIMCHECK
 70
     0
  9
$CHAMFERA
 40
10.0
  9
$CHAMFERB
 40
10.0
  9
$CHAMFERC
 40
20.0
  9
$CHAMFERD
 40
0.0
  9
$SKPOLY
 70
     0
  9
$TDCREATE
 40
2453496.581347292
  9
$TDUCREATE
 40
2453496.539680625
  9
$TDUPDATE
 40
2456140.448346169
  9
$TDUUPDATE
 40
2456140.406679502
  9
$TDINDWG
 40
0.0048310995
  9
$TDUSRTIMER
 40
0.0048310995
  9
$USRTIMER
 70
     1
  9
$ANGBASE
 50
0.0
  9
$ANGDIR
 70
     0
  9
$PDMODE
 70
     0
  9
$PDSIZE
 40
0.0
  9
$PLINEWID
 40
0.0
  9
$SPLFRAME
 70
     0
  9
$SPLINETYPE
 70
     6
  9
$SPLINESEGS
 70
     8
  9
$HANDSEED
  5
12E6
  9
$SURFTAB1
 70
     6
  9
$SURFTAB2
 70
     6
  9
$SURFTYPE
 70
     6
  9
$SURFU
 70
     6
  9
$SURFV
 70
     6
  9
$UCSBASE
  2

  9
$UCSNAME
  2

  9
$UCSORG
 10
0.0
 20
0.0
 30
0.0
  9
$UCSXDIR
 10
1.0
 20
0.0
 30
0.0
  9
$UCSYDIR
 10
0.0
 20
1.0
 30
0.0
  9
$UCSORTHOREF
  2

  9
$UCSORTHOVIEW
 70
     0
  9
$UCSORGTOP
 10
0.0
 20
0.0
 30
0.0
  9
$UCSORGBOTTOM
 10
0.0
 20
0.0
 30
0.0
  9
$UCSORGLEFT
 10
0.0
 20
0.0
 30
0.0
  9
$UCSORGRIGHT
 10
0.0
 20
0.0
 30
0.0
  9
$UCSORGFRONT
 10
0.0
 20
0.0
 30
0.0
  9
$UCSORGBACK
 10
0.0
 20
0.0
 30
0.0
  9
$PUCSBASE
  2

  9
$PUCSNAME
  2

  9
$PUCSORG
 10
0.0
 20
0.0
 30
0.0
  9
$PUCSXDIR
 10
1.0
 20
0.0
 30
0.0
  9
$PUCSYDIR
 10
0.0
 20
1.0
 30
0.0
  9
$PUCSORTHOREF
  2

  9
$PUCSORTHOVIEW
 70
     0
  9
$PUCSORGTOP
 10
0.0
 20
0.0
 30
0.0
  9
$PUCSORGBOTTOM
 10
0.0
 20
0.0
 30
0.0
  9
$PUCSORGLEFT
 10
0.0
 20
0.0
 30
0.0
  9
$PUCSORGRIGHT
 10
0.0
 20
0.0
 30
0.0
  9
$PUCSORGFRONT
 10
0.0
 20
0.0
 30
0.0
  9
$PUCSORGBACK
 10
0.0
 20
0.0
 30
0.0
  9
$USERI1
 70
     0
  9
$USERI2
 70
     0
  9
$USERI3
 70
     0
  9
$USERI4
 70
     0
  9
$USERI5
 70
     0
  9
$USERR1
 40
0.0
  9
$USERR2
 40
0.0
  9
$USERR3
 40
0.0
  9
$USERR4
 40
0.0
  9
$USERR5
 40
0.0
  9
$WORLDVIEW
 70
     1
  9
$SHADEDGE
 70
     3
  9
$SHADEDIF
 70
    70
  9
$TILEMODE
 70
     1
  9
$MAXACTVP
 70
    64
  9
$PINSBASE
 10
0.0
 20
0.0
 30
0.0
  9
$PLIMCHECK
 70
     0
  9
$PEXTMIN
 10
1.000000000000000E+20
 20
1.000000000000000E+20
 30
1.000000000000000E+20
  9
$PEXTMAX
 10
-1.000000000000000E+20
 20
-1.000000000000000E+20
 30
-1.000000000000000E+20
  9
$PLIMMIN
 10
0.0
 20
0.0
  9
$PLIMMAX
 10
420.0
 20
297.0
  9
$UNITMODE
 70
     0
  9
$VISRETAIN
 70
     1
  9
$PLINEGEN
 70
     0
  9
$PSLTSCALE
 70
     1
  9
$TREEDEPTH
 70
  3020
  9
$CMLSTYLE
  2
Standard
  9
$CMLJUST
 70
     0
  9
$CMLSCALE
 40
20.0
  9
$PROXYGRAPHICS
 70
     1
  9
$MEASUREMENT
 70
     1
  9
$CELWEIGHT
370
    -1
  9
$ENDCAPS
280
     0
  9
$JOINSTYLE
280
     0
  9
$LWDISPLAY
290
     0
  9
$INSUNITS
 70
     4
  9
$HYPERLINKBASE
  1

  9
$STYLESHEET
  1
monochrome.ctb
  9
$XEDIT
290
     1
  9
$CEPSNTYPE
380
     0
  9
$PSTYLEMODE
290
     1
  9
$FINGERPRINTGUID
  2
{B98A73AA-52AA-4C10-B469-C0E7150AC31F}
  9
$VERSIONGUID
  2
{943892AE-25A5-4A67-80E6-AC16DBA60186}
  9
$EXTNAMES
290
     1
  9
$PSVPSCALE
 40
0.0
  9
$OLESTARTUP
290
     0
  0
ENDSEC
  0
SECTION
  2
CLASSES
  0
CLASS
  1
ACDBDICTIONARYWDFLT
  2
AcDbDictionaryWithDefault
  3
ObjectDBX Classes
 90
        0
280
     0
281
     0
  0
CLASS
  1
ACDBPLACEHOLDER
  2
AcDbPlaceHolder
  3
ObjectDBX Classes
 90
        0
280
     0
281
     0
  0
CLASS
  1
LAYOUT
  2
AcDbLayout
  3
ObjectDBX Classes
 90
        0
280
     0
281
     0
  0
CLASS
  1
DICTIONARYVAR
  2
AcDbDictionaryVar
  3
ObjectDBX Classes
 90
        0
280
     0
281
     0
  0
CLASS
  1
DIMASSOC
  2
AcDbDimAssoc
  3
"AcDbDimAssoc|Product Desc:     AcDim ARX App For Dimension|Company:          Autodesk, Inc.|WEB Address:      www.autodesk.com"
 90
    32768
280
     0
281
     0
  0
CLASS
  1
MATERIAL
  2
AcDbMaterial
  3
ObjectDBX Classes
 90
     1153
280
     0
281
     0
  0
CLASS
  1
VISUALSTYLE
  2
AcDbVisualStyle
  3
ObjectDBX Classes
 90
     4095
280
     0
281
     0
  0
CLASS
  1
TABLESTYLE
  2
AcDbTableStyle
  3
ObjectDBX Classes
 90
     4095
280
     0
281
     0
  0
CLASS
  1
SCALE
  2
AcDbScale
  3
ObjectDBX Classes
 90
     1153
280
     0
281
     0
  0
CLASS
  1
MLEADERSTYLE
  2
AcDbMLeaderStyle
  3
ACDB_MLEADERSTYLE_CLASS
 90
     4095
280
     0
281
     0
  0
CLASS
  1
CELLSTYLEMAP
  2
AcDbCellStyleMap
  3
ObjectDBX Classes
 90
     1152
280
     0
281
     0
  0
ENDSEC
  0
SECTION
  2
TABLES
  0
TABLE
  2
VPORT
  5
8
330
0
100
AcDbSymbolTable
 70
     1
  0
VPORT
  5
122E
330
8
100
AcDbSymbolTableRecord
100
AcDbViewportTableRecord
  2
*Active
 70
     0
 10
0.0
 20
0.0
 11
1.0
 21
1.0
 12
528.7701488204326
 22
911.6148328171068
 13
0.0
 23
0.0
 14
10.0
 24
10.0
 15
10.0
 25
10.0
 16
0.0
 26
0.0
 36
1.0
 17
0.0
 27
0.0
 37
0.0
 40
1.424462955601158
 41
1.645464025026068
 42
50.0
 43
0.0
 44
0.0
 50
0.0
 51
0.0
 71
     0
 72
   100
 73
     1
 74
     2
 75
     0
 76
     0
 77
     0
 78
     0
281
     0
 65
     1
110
0.0
120
0.0
130
0.0
111
1.0
121
0.0
131
0.0
112
0.0
122
1.0
132
0.0
 79
     0
146
0.0
  0
ENDTAB
  0
TABLE
  2
LTYPE
  5
5
330
0
100
AcDbSymbolTable
 70
     3
  0
LTYPE
  5
14
330
5
100
AcDbSymbolTableRecord
100
AcDbLinetypeTableRecord
  2
ByBlock
 70
     0
  3

 72
    65
 73
     0
 40
0.0
  0
LTYPE
  5
15
330
5
100
AcDbSymbolTableRecord
100
AcDbLinetypeTableRecord
  2
ByLayer
 70
     0
  3

 72
    65
 73
     0
 40
0.0
  0
LTYPE
  5
16
330
5
100
AcDbSymbolTableRecord
100
AcDbLinetypeTableRecord
  2
Continuous
 70
     0
  3
Solid line
 72
    65
 73
     0
 40
0.0
  0
LTYPE
  5
2D
330
5
100
AcDbSymbolTableRecord
100
AcDbLinetypeTableRecord
  2
DASHDOT
 70
     0
  3
Dash dot __ . __ . __ . __ . __ . __ . __ . __
 72
    65
 73
     4
 40
25.4
 49
12.7
 74
     0
 49
-6.349999999999999
 74
     0
 49
0.0
 74
     0
 49
-6.349999999999999
 74
     0
  0
LTYPE
  5
2E
330
5
100
AcDbSymbolTableRecord
100
AcDbLinetypeTableRecord
  2
HIDDEN
 70
     0
  3
Hidden __ __ __ __ __ __ __ __ __ __ __ __ __ _
 72
    65
 73
     2
 40
9.524999999999998
 49
6.349999999999999
 74
     0
 49
-3.174999999999999
 74
     0
  0
ENDTAB
  0
TABLE
  2
LAYER
  5
2
330
0
100
AcDbSymbolTable
 70
    16
  0
LAYER
  5
10
102
{ACAD_XDICTIONARY
360
1279
102
}
330
2
100
AcDbSymbolTableRecord
100
AcDbLayerTableRecord
  2
0
 70
     0
 62
     7
  6
Continuous
370
    -3
390
F
  0
LAYER
  5
2F
102
{ACAD_XDICTIONARY
360
127B
102
}
330
2
100
AcDbSymbolTableRecord
100
AcDbLayerTableRecord
  2
1
 70
     0
 62
     1
  6
Continuous
370
    -3
390
F
  0
LAYER
  5
30
102
{ACAD_XDICTIONARY
360
127D
102
}
330
2
100
AcDbSymbolTableRecord
100
AcDbLayerTableRecord
  2
2
 70
     0
 62
     2
  6
Continuous
370
    -3
390
F
  0
LAYER
  5
31
102
{ACAD_XDICTIONARY
360
127F
102
}
330
2
100
AcDbSymbolTableRecord
100
AcDbLayerTableRecord
  2
3
 70
     0
 62
     3
  6
Continuous
370
    -3
390
F
  0
LAYER
  5
32
102
{ACAD_XDICTIONARY
360
1281
102
}
330
2
100
AcDbSymbolTableRecord
100
AcDbLayerTableRecord
  2
4
 70
     0
 62
     4
  6
Continuous
370
    -3
390
F
  0
LAYER
  5
33
102
{ACAD_XDICTIONARY
360
1283
102
}
330
2
100
AcDbSymbolTableRecord
100
AcDbLayerTableRecord
  2
5
 70
     0
 62
     5
  6
Continuous
370
    -3
390
F
  0
LAYER
  5
34
102
{ACAD_XDICTIONARY
360
1285
102
}
330
2
100
AcDbSymbolTableRecord
100
AcDbLayerTableRecord
  2
6
 70
     0
 62
     6
  6
Continuous
370
    -3
390
F
  0
LAYER
  5
35
102
{ACAD_XDICTIONARY
360
1287
102
}
330
2
100
AcDbSymbolTableRecord
100
AcDbLayerTableRecord
  2
7
 70
     0
 62
     7
  6
Continuous
370
    -3
390
F
  0
LAYER
  5
36
102
{ACAD_XDICTIONARY
360
1289
102
}
330
2
100
AcDbSymbolTableRecord
100
AcDbLayerTableRecord
  2
cen
 70
     0
 62
     7
  6
DASHDOT
370
    -3
390
F
  0
LAYER
  5
37
102
{ACAD_XDICTIONARY
360
128B
102
}
330
2
100
AcDbSymbolTableRecord
100
AcDbLayerTableRecord
  2
hid
 70
     0
 62
     7
  6
HIDDEN
370
    -3
390
F
  0
LAYER
  5
5D6
102
{ACAD_XDICTIONARY
360
128D
102
}
330
2
100
AcDbSymbolTableRecord
100
AcDbLayerTableRecord
  2
hatch
 70
     0
 62
     9
  6
Continuous
370
    -3
390
F
  0
LAYER
  5
8AF
102
{ACAD_XDICTIONARY
360
128F
102
}
330
2
100
AcDbSymbolTableRecord
100
AcDbLayerTableRecord
  2
9
 70
     0
 62
     9
  6
Continuous
370
    -3
390
F
  0
LAYER
  5
8F8
102
{ACAD_XDICTIONARY
360
1291
102
}
330
2
100
AcDbSymbolTableRecord
100
AcDbLayerTableRecord
  2
leg fin
 70
     0
 62
     9
  6
Continuous
370
    -3
390
F
  0
LAYER
  5
91D
102
{ACAD_XDICTIONARY
360
1293
102
}
330
2
100
AcDbSymbolTableRecord
100
AcDbLayerTableRecord
  2
cotas
 70
     0
 62
     1
  6
Continuous
370
    -3
390
F
  0
LAYER
  5
92F
330
2
100
AcDbSymbolTableRecord
100
AcDbLayerTableRecord
  2
Defpoints
 70
     0
 62
     7
  6
Continuous
290
     0
370
    -3
390
F
  0
LAYER
  5
BA5
102
{ACAD_XDICTIONARY
360
1295
102
}
330
2
100
AcDbSymbolTableRecord
100
AcDbLayerTableRecord
  2
SANINDUSA
 70
     0
 62
     3
  6
Continuous
370
    -3
390
F
  0
ENDTAB
  0
TABLE
  2
STYLE
  5
3
330
0
100
AcDbSymbolTable
 70
     3
  0
STYLE
  5
11
330
3
100
AcDbSymbolTableRecord
100
AcDbTextStyleTableRecord
  2
Standard
 70
     0
 40
0.0
 41
1.0
 50
0.0
 71
     0
 42
2.5
  3
Avgardn.ttf
  4

1001
ACAD
1000
AvantGarde Bk BT
1071
       34
  0
STYLE
  5
2C
330
3
100
AcDbSymbolTableRecord
100
AcDbTextStyleTableRecord
  2

 70
     1
 40
0.0
 41
1.0
 50
0.0
 71
     0
 42
2.5
  3
ltypeshp.shx
  4

  0
STYLE
  5
91F
330
3
100
AcDbSymbolTableRecord
100
AcDbTextStyleTableRecord
  2
SANINDUSA
 70
     0
 40
0.0
 41
1.0
 50
0.0
 71
     0
 42
2.5
  3
verdana.TTF
  4

1001
ACAD
1000
Verdana
1071
       34
  0
ENDTAB
  0
TABLE
  2
VIEW
  5
6
330
0
100
AcDbSymbolTable
 70
     0
  0
ENDTAB
  0
TABLE
  2
UCS
  5
7
330
0
100
AcDbSymbolTable
 70
     0
  0
ENDTAB
  0
TABLE
  2
APPID
  5
9
330
0
100
AcDbSymbolTable
 70
     3
  0
APPID
  5
12
330
9
100
AcDbSymbolTableRecord
100
AcDbRegAppTableRecord
  2
ACAD
 70
     0
  0
APPID
  5
3A
330
9
100
AcDbSymbolTableRecord
100
AcDbRegAppTableRecord
  2
DCO15
 70
     0
  0
APPID
  5
12E5
330
9
100
AcDbSymbolTableRecord
100
AcDbRegAppTableRecord
  2
ACAD_MLEADERVER
 70
     0
  0
ENDTAB
  0
TABLE
  2
DIMSTYLE
  5
A
330
0
100
AcDbSymbolTable
 70
     2
100
AcDbDimStyleTable
 71
     1
340
921
  0
DIMSTYLE
105
45
330
A
100
AcDbSymbolTableRecord
100
AcDbDimStyleTableRecord
  2
STANDARD
 70
     0
289
     0
340
11
  0
DIMSTYLE
105
921
330
A
100
AcDbSymbolTableRecord
100
AcDbDimStyleTableRecord
  2
SANINDUSA
 70
     0
 41
2.0
 42
1.0
 43
1.0
 44
1.0
 73
     0
 74
     0
 77
     1
 78
     8
140
2.0
141
0.0
143
0.03937007874016
147
1.0
171
     3
172
     1
176
   256
177
   256
178
   256
179
     1
271
     1
272
     1
274
     3
278
    44
283
     0
284
     8
340
91F
371
    -1
372
    -1
  0
ENDTAB
  0
TABLE
  2
BLOCK_RECORD
  5
1
330
0
100
AcDbSymbolTable
 70
    50
  0
BLOCK_RECORD
  5
1F
330
1
100
AcDbSymbolTableRecord
100
AcDbBlockTableRecord
  2
*Model_Space
340
22
  0
BLOCK_RECORD
  5
1B
330
1
100
AcDbSymbolTableRecord
100
AcDbBlockTableRecord
  2
*Paper_Space
340
1E
  0
BLOCK_RECORD
  5
23
330
1
100
AcDbSymbolTableRecord
100
AcDbBlockTableRecord
  2
*Paper_Space0
340
26
  0
BLOCK_RECORD
  5
919
330
1
100
AcDbSymbolTableRecord
100
AcDbBlockTableRecord
  2
_DotSmall
340
0
  0
BLOCK_RECORD
  5
922
330
1
100
AcDbSymbolTableRecord
100
AcDbBlockTableRecord
  2
base para cotas
340
0
310
2800000020000000200000000100080000000000000400000000000000000000000000000000000000000000000080000080000000808000800000008000800080800000C0C0C000C0DCC000F0CAA6000020400000206000002080000020A0000020C0000020E00000400000004020000040400000406000004080000040A0
310
000040C0000040E00000600000006020000060400000606000006080000060A0000060C0000060E00000800000008020000080400000806000008080000080A0000080C0000080E00000A0000000A0200000A0400000A0600000A0800000A0A00000A0C00000A0E00000C0000000C0200000C0400000C0600000C0800000C0
310
A00000C0C00000C0E00000E0000000E0200000E0400000E0600000E0800000E0A00000E0C00000E0E00040000000400020004000400040006000400080004000A0004000C0004000E00040200000402020004020400040206000402080004020A0004020C0004020E000404000004040200040404000404060004040800040
310
40A0004040C0004040E00040600000406020004060400040606000406080004060A0004060C0004060E00040800000408020004080400040806000408080004080A0004080C0004080E00040A0000040A0200040A0400040A0600040A0800040A0A00040A0C00040A0E00040C0000040C0200040C0400040C0600040C08000
310
40C0A00040C0C00040C0E00040E0000040E0200040E0400040E0600040E0800040E0A00040E0C00040E0E00080000000800020008000400080006000800080008000A0008000C0008000E00080200000802020008020400080206000802080008020A0008020C0008020E00080400000804020008040400080406000804080
310
008040A0008040C0008040E00080600000806020008060400080606000806080008060A0008060C0008060E00080800000808020008080400080806000808080008080A0008080C0008080E00080A0000080A0200080A0400080A0600080A0800080A0A00080A0C00080A0E00080C0000080C0200080C0400080C0600080C0
310
800080C0A00080C0C00080C0E00080E0000080E0200080E0400080E0600080E0800080E0A00080E0C00080E0E000C0000000C0002000C0004000C0006000C0008000C000A000C000C000C000E000C0200000C0202000C0204000C0206000C0208000C020A000C020C000C020E000C0400000C0402000C0404000C0406000C0
310
408000C040A000C040C000C040E000C0600000C0602000C0604000C0606000C0608000C060A000C060C000C060E000C0800000C0802000C0804000C0806000C0808000C080A000C080C000C080E000C0A00000C0A02000C0A04000C0A06000C0A08000C0A0A000C0A0C000C0A0E000C0C00000C0C02000C0C04000C0C06000
310
C0C08000C0C0A000F0FBFF00A4A0A000808080000000FF0000FF000000FFFF00FF000000FF00FF00FFFF0000FFFFFF00A4A4A4A4A4A4A4A4A4A4A4A4A4A4A4A4A4A4A4A4A4A4A4A4A4A4A4A4A4A4A4A4A4A4A4A4A4A4A4A4A4A4A4A4A4A4A4A4A4A4A4A4A4A4A4A4A4A4A4A4A4A4A4A4A4A4A4A4A4A4A4A4A4A4A4A4A4A4A4
310
A4A4A4A4A4A4A4A4A4A4A4A4A4A4A4A4A4A4A4A4A4A4A4A4A4A4A4A4A4A4A4A4A4A4A4A4A4A4A4A4A4A4A4A4A4A4A4A4A4A4A4A4A4A4A4A4A4A4A4A4A4A4A4A4A4A4A4A4A4A4A4A4A4A4A4A4A4A4A4A4A4A4A4A4A4A4A4A4A4A4A4A4A4A4A4A4A4A4A4A4A4A4A4A4A4A4A4A4A4A4A4A4A4A4A4A4A4A4A4A4A4A4A4A4A4A4A4
310
A4A4A4A4A4A4A4A4A4A4A4A4A4A4A4A4A4A4A4A4A4A4A4A4A4A4A4A4A4A4A4A4A4A4A4A4A4A4A4A4A4A4A4A4A4A4A4A4A4A4A4A4A4A4A4A4A4A4A4A4A4A4A4A4A4A4A4A4A4A4A4A4A4A4A4A4A4A4A4A4A4A4A4A4A4A4A4A4A4A4A4A4A4A4A4A4A4A4A4A4A4A4A4A4A4A4A4A4A4A4A4A4A4A4A4A4A4A4A4A4A4A4A4A4A4A4A4
310
A4A4A4A4A4A4A4A4A4A4A4A4A4A4A4A4A4A4A4A4A4A4A4A4A4A4A4A4A4A4A4A4A4A4A4A4A4A4A4A4A4A4A4A4A4A4A4A4A4A4A4A4A4A4A4A4A4A4A4A4A4A4A4A4A4A4A4A4A4A4A4A4A4A4A4A4A4A4A4A4A4A4A4A4A4A4A4A4A4A4A4A4A4A4A4A4A4A4A4A4A4A4A4A4A4A4A4A4A4A4A4A4A4A4A4A4F9F9F9F9F9F9F9F9F9F9F9
310
F9F9F9F9F9F9F9F9F9F9F9F9F9F9F9F9F9F9F9A4A4F9F9F9F9F9F9F9F9F9F9F9F9F9F9F9F9F9F9F9F9F9F9F9F9F9F9F9F9F9F9A4A4F9F9F9F9F9F9F9F9F9F9F9F9F9F9F9F9F9F9F9F9F9F9F9F9F9F9F9F9F9F9A4A4F9A4A4A4A4A4A4A4A4A4A4A4A4A4A4A4A4A4A4A4A4A4A4A4A4A4A4A4A4F9A4A4A4A4A4A4A4A4A4A4A4A4
310
A4A4A4A4A4A4A4A4A4A4A4A4A4A4A4A4A4A4A4A4A4A4A4A4A4A4A4A4A4A4A4A4A4A4A4A4A4A4A4A4A4A4A4A4A4A4A4A4A4A4A4A4A4A4A4A4A4A4A4A4A4A4A4A4A4A4A4A4A4A4A4A4A4A4A4A4A4A4A4A4A4A4A4A4A4A4A4A4A4A4A4A4A4A4A4A4A4A4A4A4A4A4A4A4A4A4A4A4A4A4A4A4A4A4A4A4A4A4A4A4A4A4A4A4A4A4A4
310
A4A4A4A4A4A4A4A4A4A4A4A4A4A4A4A4A4A4A4A4A4A4A4A4A4A4A4A4A4A4A4A4A4A4A4A4A4A4A4A4A4A4A4A4A4A4A4A4A4A4A4A4A4A4A4A4A4A4A4A4A4A4A4A4A4A4A4A4A4A4A4A4A4A4A4A4A4A4A4A4A4A4A4A4A4A4A4A4A4A4A4A4A4A4A4A4A4A4A4A4A4A4A4A4A4A4A4A4A4A4A4A4A4A4A4A4A4A4A4A4A4A4A4A4A4A4A4
310
A4A4A4A4A4A4A4A4A4A4A4A4A4A4A4A4A4A4A4A4A4A4A4A4A4A4A4A4A4A4A4A4A4A4A4A4A4A4A4A4A4A4A4A4A4A4A4A4A4A4A4A4A4A4A4A4A4A4A4A4A4A4A4A4A4A4A4A4A4A4A4A4A4A4A4A4A4A4A4A4A4A4A4A4A4A4A4A4A4A4A4A4A4A4A4A4A4A4A4A4A4A4A4A4A4A4A4A4A4A4A4A4A4A4A4A4A4A4A4A4A4A4A4A4A4A4A4
310
A4A4A4A4A4A4A4A4A4A4A4A4A4A4A4A4A4A4A4A4A4A4A4A4A4A4A4A4A4A4A4A4A4A4A4A4A4A4A4A4A4A4A4A4A4A4A4A4A4A4A4A4A4A4A4A4
1001
ACAD
1000
DesignCenter Data
1002
{
1070
     1
1070
     4
1002
}
  0
BLOCK_RECORD
  5
AA8
330
1
100
AcDbSymbolTableRecord
100
AcDbBlockTableRecord
  2
_CLOSED
340
0
  0
ENDTAB
  0
ENDSEC
  0
SECTION
  2
BLOCKS
  0
BLOCK
  5
20
330
1F
100
AcDbEntity
  8
0
100
AcDbBlockBegin
  2
*Model_Space
 70
     0
 10
0.0
 20
0.0
 30
0.0
  3
*Model_Space
  1

  0
ENDBLK
  5
21
330
1F
100
AcDbEntity
  8
0
100
AcDbBlockEnd
  0
BLOCK
  5
1C
330
1B
100
AcDbEntity
 67
     1
  8
0
100
AcDbBlockBegin
  2
*Paper_Space
 70
     0
 10
0.0
 20
0.0
 30
0.0
  3
*Paper_Space
  1

  0
ENDBLK
  5
1D
330
1B
100
AcDbEntity
 67
     1
  8
0
100
AcDbBlockEnd
  0
BLOCK
  5
24
330
23
100
AcDbEntity
 67
     1
  8
0
100
AcDbBlockBegin
  2
*Paper_Space0
 70
     0
 10
0.0
 20
0.0
 30
0.0
  3
*Paper_Space0
  1

  0
ENDBLK
  5
25
330
23
100
AcDbEntity
 67
     1
  8
0
100
AcDbBlockEnd
  0
BLOCK
  5
91B
330
919
100
AcDbEntity
  8
0
100
AcDbBlockBegin
  2
_DotSmall
 70
     0
 10
0.0
 20
0.0
 30
0.0
  3
_DotSmall
  1

  0
LWPOLYLINE
  5
91A
330
919
100
AcDbEntity
  8
0
  6
ByBlock
 62
     0
100
AcDbPolyline
 90
        2
 70
     1
 43
0.5
 10
-0.0625
 20
0.0
 42
1.0
 10
0.0625
 20
0.0
 42
1.0
  0
ENDBLK
  5
91C
330
919
100
AcDbEntity
  8
0
100
AcDbBlockEnd
  0
BLOCK
  5
92A
330
922
100
AcDbEntity
  8
0
100
AcDbBlockBegin
  2
base para cotas
 70
     0
 10
0.0
 20
0.0
 30
0.0
  3
base para cotas
  1

  0
LINE
  5
B36
330
922
100
AcDbEntity
  8
cotas
100
AcDbLine
 10
0.0
 20
-30.0
 30
0.0
 11
327.1260136525398
 21
-30.0
 31
0.0
  0
LINE
  5
B37
330
922
100
AcDbEntity
  8
cotas
100
AcDbLine
 10
0.0
 20
-25.0
 30
0.0
 11
327.1260136525398
 21
-25.0
 31
0.0
  0
LINE
  5
B38
330
922
100
AcDbEntity
  8
cotas
100
AcDbLine
 10
0.0
 20
-20.0
 30
0.0
 11
327.1260136525398
 21
-20.0
 31
0.0
  0
LINE
  5
B39
330
922
100
AcDbEntity
  8
cotas
100
AcDbLine
 10
0.0
 20
-15.0
 30
0.0
 11
327.1260136525398
 21
-15.0
 31
0.0
  0
LINE
  5
B3A
330
922
100
AcDbEntity
  8
cotas
100
AcDbLine
 10
0.0
 20
-10.0
 30
0.0
 11
327.1260136525398
 21
-10.0
 31
0.0
  0
LINE
  5
B3B
330
922
100
AcDbEntity
  8
cotas
100
AcDbLine
 10
0.0
 20
0.0
 30
0.0
 11
0.0
 21
-30.0
 31
0.0
  0
LINE
  5
B3C
330
922
100
AcDbEntity
  8
cotas
100
AcDbLine
 10
327.1260136525398
 20
-30.0
 30
0.0
 11
327.1260136525398
 21
0.0
 31
0.0
  0
ENDBLK
  5
92B
330
922
100
AcDbEntity
  8
0
100
AcDbBlockEnd
  0
BLOCK
  5
AAD
330
AA8
100
AcDbEntity
  8
0
100
AcDbBlockBegin
  2
_CLOSED
 70
     0
 10
0.0
 20
0.0
 30
0.0
  3
_CLOSED
  1

  0
LINE
  5
AA9
330
AA8
100
AcDbEntity
  8
0
100
AcDbLine
 10
-1.0
 20
0.166667
 30
0.0
 11
0.0
 21
0.0
 31
0.0
  0
LINE
  5
AAA
330
AA8
100
AcDbEntity
  8
0
100
AcDbLine
 10
0.0
 20
0.0
 30
0.0
 11
-1.0
 21
-0.166667
 31
0.0
  0
LINE
  5
AAB
330
AA8
100
AcDbEntity
  8
0
100
AcDbLine
 10
-1.0
 20
0.166667
 30
0.0
 11
-1.0
 21
-0.166667
 31
0.0
  0
LINE
  5
AAC
330
AA8
100
AcDbEntity
  8
0
100
AcDbLine
 10
0.0
 20
0.0
 30
0.0
 11
-1.0
 21
0.0
 31
0.0
  0
ENDBLK
  5
AAE
330
AA8
100
AcDbEntity
  8
0
100
AcDbBlockEnd
  0
ENDSEC
  0
SECTION
  2
ENTITIES
  0
ARC
  5
EDB
330
1F
100
AcDbEntity
  8
SANINDUSA
100
AcDbCircle
 10
529.1108208080905
 20
910.9695983780127
 30
0.0
 40
0.5522707857625325
100
AcDbArc
 50
88.15121243017573
 51
91.84878756982426
  0
LINE
  5
EDD
330
1F
100
AcDbEntity
  8
SANINDUSA
100
AcDbLine
 10
529.1108208080905
 20
911.5119759486466
 30
0.0
 11
529.0767864968653
 21
911.5119759486466
 31
0.0
  0
LINE
  5
EE0
330
1F
100
AcDbEntity
  8
SANINDUSA
100
AcDbLine
 10
528.8630169631508
 20
911.6819759486467
 30
0.0
 11
529.3586246530303
 21
911.6819759486467
 31
0.0
  0
LINE
  5
EE1
330
1F
100
AcDbEntity
  8
SANINDUSA
100
AcDbLine
 10
529.3568001455055
 20
911.6699759486467
 30
0.0
 11
528.8648414706756
 21
911.6699759486467
 31
0.0
  0
LWPOLYLINE
  5
EE3
330
1F
100
AcDbEntity
  8
SANINDUSA
100
AcDbPolyline
 90
       13
 70
   128
 43
0.0
 10
528.8998310480264
 20
911.5642558698439
 10
528.8965637459104
 20
911.5646909073342
 10
528.8933638906634
 20
911.5654817594268
 10
528.8902701099458
 20
911.5666188792003
 10
528.8873197509188
 20
911.5680885396979
 10
528.8845484294014
 20
911.5698729996337
 10
528.8819895999276
 20
911.5719507175606
 10
528.8796741518931
 20
911.5742966119125
 10
528.8776300366684
 20
911.57688236378
 10
528.8758819301786
 20
911.579676758769
 10
528.874450935023
 20
911.5826460638094
 10
528.8733543257315
 20
911.5857544343722
 10
528.8725886734937
 20
911.5890588629806
  0
LWPOLYLINE
  5
EE5
330
1F
100
AcDbEntity
  8
SANINDUSA
100
AcDbPolyline
 90
       12
 70
   128
 43
0.0
 10
528.872199058724
 20
911.5912684874761
 10
528.8730658096501
 20
911.5876735691227
 10
528.8743594533895
 20
911.5842215843301
 10
528.8764573129888
 20
911.5803216271697
 10
528.8790795293922
 20
911.5767883188151
 10
528.8829407471633
 20
911.5730434724962
 10
528.8873574252091
 20
911.5700545144205
 10
528.8905055165789
 20
911.5685386509651
 10
528.8937919966834
 20
911.5673977129015
 10
528.897358615584
 20
911.5666148583608
 10
528.9009848417118
 20
911.5662667875934
 10
528.9010183815235
 20
911.5662656281436
  0
LWPOLYLINE
  5
EE6
330
1F
100
AcDbEntity
  8
SANINDUSA
100
AcDbPolyline
 90
        6
 70
   128
 43
0.0
 10
528.8918940707669
 20
911.591274960514
 10
528.9420798411348
 20
911.5897970088193
 10
528.9922570952946
 20
911.5879519225149
 10
529.0397222634266
 20
911.586363505402
 10
529.0872114190845
 20
911.585406673711
 10
529.0922008237918
 20
911.5853594988269
  0
LWPOLYLINE
  5
EE7
330
1F
100
AcDbEntity
  8
SANINDUSA
100
AcDbPolyline
 90
       26
 70
   128
 43
0.0
 10
528.8998293473065
 20
911.5642489361535
 10
528.9047103144051
 20
911.5638655545934
 10
528.9187145814941
 20
911.5627118080087
 10
528.9316766632722
 20
911.561605055455
 10
528.9435962597749
 20
911.5605615913834
 10
528.9544727475719
 20
911.5595946640379
 10
528.9643051602355
 20
911.5587142977791
 10
528.9730922534304
 20
911.5579273134972
 10
528.9808326173815
 20
911.5572375909907
 10
528.9875247963835
 20
911.5566465375444
 10
528.9931673915683
 20
911.5561536858081
 10
528.9977591385917
 20
911.5557573386043
 10
529.0014450829874
 20
911.5554427890099
 10
529.0039930439046
 20
911.5552274573634
 10
529.0063946186852
 20
911.555026208018
 10
529.008649726895
 20
911.5548388446175
 10
529.010758292021
 20
911.5546651524017
 10
529.0127224488749
 20
911.5545047241763
 10
529.0151681865274
 20
911.554306900504
 10
529.0185879514115
 20
911.5540341123178
 10
529.0229825549312
 20
911.5536905854808
 10
529.0291996756947
 20
911.5532192780332
 10
529.036693253246
 20
911.5526764073187
 10
529.0454669162319
 20
911.5520807090218
 10
529.0555253402955
 20
911.5514597002938
 10
529.0654047936111
 20
911.5509314391072
  0
LWPOLYLINE
  5
EE8
330
1F
100
AcDbEntity
  8
SANINDUSA
100
AcDbPolyline
 90
        5
 70
   128
 43
0.0
 10
529.0826642329293
 20
911.5610742389645
 10
529.0369172130531
 20
911.561935068266
 10
528.991178266191
 20
911.5633358786592
 10
528.946102719889
 20
911.5649027651397
 10
528.9010183815235
 20
911.5662656281436
  0
LINE
  5
EEC
330
1F
100
AcDbEntity
  8
SANINDUSA
100
AcDbLine
 10
529.0879121641173
 20
911.5333281975214
 30
0.0
 11
529.0875313302732
 21
911.5616312825997
 31
0.0
  0
LWPOLYLINE
  5
EED
330
1F
100
AcDbEntity
  8
SANINDUSA
100
AcDbPolyline
 90
        9
 70
   128
 43
0.0
 10
529.0877392594788
 20
911.5461782494978
 10
529.0876361323565
 20
911.5471220316864
 10
529.0873559118573
 20
911.5480292461503
 10
529.0869087329759
 20
911.5488670808225
 10
529.0863107692458
 20
911.5496052329588
 10
529.0855836477763
 20
911.5502170051257
 10
529.0847536670441
 20
911.5506802707919
 10
529.0838508457328
 20
911.5509782745977
 10
529.0829078370184
 20
911.5511002383634
  0
LWPOLYLINE
  5
EEF
330
1F
100
AcDbEntity
  8
SANINDUSA
100
AcDbPolyline
 90
       13
 70
   128
 43
0.0
 10
529.0653474806654
 20
911.550925667217
 10
529.0655525983522
 20
911.550914535211
 10
529.0663488463435
 20
911.5508230662264
 10
529.0672852401927
 20
911.550631029206
 10
529.0684480623054
 20
911.5502570015788
 10
529.070115779091
 20
911.5494186909572
 10
529.0713873430509
 20
911.5484749066448
 10
529.0724540269056
 20
911.5473898949939
 10
529.0733871777116
 20
911.5460838622608
 10
529.0741146336578
 20
911.5446067740959
 10
529.0745946595363
 20
911.5430076906005
 10
529.0747950329127
 20
911.5413392539727
 10
529.074797111888
 20
911.5412907723825
  0
ARC
  5
EF2
330
1F
100
AcDbEntity
  8
SANINDUSA
100
AcDbCircle
 10
529.0767864968653
 20
911.5129759486467
 30
0.0
 40
0.001
100
AcDbArc
 50
182.0000000000036
 51
270.0
  0
LINE
  5
EF3
330
1F
100
AcDbEntity
  8
SANINDUSA
100
AcDbLine
 10
529.0747971118881
 20
911.5412907723825
 30
0.0
 11
529.0757871060383
 21
911.5129410491499
 31
0.0
  0
LWPOLYLINE
  5
EF6
330
1F
100
AcDbEntity
  8
SANINDUSA
100
AcDbPolyline
 90
        8
 70
   128
 43
0.0
 10
529.0880088687917
 20
911.5261412295783
 10
529.0880837737106
 20
911.5253435221191
 10
529.0881452931915
 20
911.5250497017859
 10
529.0885640992167
 20
911.5239518152279
 10
529.0886183529916
 20
911.5238538702739
 10
529.0895774513248
 20
911.5226891755593
 10
529.0911581201719
 20
911.5218062213411
 10
529.0930035412514
 20
911.5215816801237
  0
LINE
  5
EFB
330
1F
100
AcDbEntity
  8
SANINDUSA
100
AcDbLine
 10
529.0880088687917
 20
911.5261412295783
 30
0.0
 11
529.0879121641173
 21
911.5333281975214
 31
0.0
  0
LWPOLYLINE
  5
EFD
330
1F
100
AcDbEntity
  8
SANINDUSA
100
AcDbPolyline
 90
        9
 70
   128
 43
0.0
 10
529.0653477311582
 20
911.5509303971441
 10
529.0653053900439
 20
911.5509300211614
 10
529.0656118540986
 20
911.550933484043
 10
529.0664213098202
 20
911.5509418436687
 10
529.0687443791905
 20
911.5509647410238
 10
529.0722567932204
 20
911.5509981948882
 10
529.0768670217969
 20
911.5510419856679
 10
529.0824326820562
 20
911.5510956361465
 10
529.0829078370184
 20
911.5511002383634
  0
LWPOLYLINE
  5
F02
330
1F
100
AcDbEntity
  8
SANINDUSA
100
AcDbPolyline
 90
        4
 70
   128
 43
0.0
 10
529.0883380695017
 20
911.5694440170244
 10
529.0879600762816
 20
911.567318742024
 10
529.0876255470666
 20
911.5644073264556
 10
529.0875313302732
 20
911.5616312825999
  0
LWPOLYLINE
  5
F04
330
1F
100
AcDbEntity
  8
SANINDUSA
100
AcDbPolyline
 90
        9
 70
   128
 43
0.0
 10
529.0876042789713
 20
911.5562098284923
 10
529.087498518096
 20
911.5571554508616
 10
529.0872106524226
 20
911.5580633819931
 10
529.0867513938446
 20
911.558899836471
 10
529.0861378320305
 20
911.5596336886277
 10
529.0853927984934
 20
911.5602376307744
 10
529.0845440169967
 20
911.5606891893602
 10
529.0836230719139
 20
911.5609715612441
 10
529.0826642329293
 20
911.5610742389645
  0
LWPOLYLINE
  5
F08
330
1F
100
AcDbEntity
  8
SANINDUSA
100
AcDbPolyline
 90
        4
 70
   128
 43
0.0
 10
529.0922008237918
 20
911.5853594988269
 10
529.0921914883884
 20
911.5853236113919
 10
529.089889800525
 20
911.5763652836795
 10
529.0883380695017
 20
911.5694440170244
  0
LWPOLYLINE
  5
F0B
330
1F
100
AcDbEntity
  8
SANINDUSA
100
AcDbPolyline
 90
       12
 70
   128
 43
0.0
 10
528.8918940707851
 20
911.5912749604106
 10
528.8891434931754
 20
911.5908376883547
 10
528.8864467789839
 20
911.5904769888047
 10
528.8838567368339
 20
911.5901999251887
 10
528.8814240864345
 20
911.5900119231275
 10
528.8791964653587
 20
911.5899166641863
 10
528.8772174961756
 20
911.5899160137811
 10
528.8755259322089
 20
911.5900099846484
 10
528.8741548986464
 20
911.5901967365966
 10
528.8731312438634
 20
911.59047261254
 10
528.8724750136624
 20
911.590832210116
 10
528.872199058724
 20
911.5912684874761
  0
ARC
  5
F10
330
1F
100
AcDbEntity
  8
SANINDUSA
100
AcDbCircle
 10
528.8471149311213
 20
911.6719759486468
 30
0.0
 40
0.0020000000000001
100
AcDbArc
 50
189.9999999999977
 51
270.0
  0
LINE
  5
F11
330
1F
100
AcDbEntity
  8
SANINDUSA
100
AcDbLine
 10
528.8721973424007
 20
911.5912782118938
 30
0.0
 11
528.8586122243343
 21
911.668323245002
 31
0.0
  0
LINE
  5
F13
330
1F
100
AcDbEntity
  8
SANINDUSA
100
AcDbLine
 10
528.8725886734937
 20
911.5890588629806
 30
0.0
 11
528.8721973424007
 21
911.5912782118938
 31
0.0
  0
LINE
  5
F14
330
1F
100
AcDbEntity
  8
SANINDUSA
100
AcDbLine
 10
528.8648414706756
 20
911.6699759486467
 30
0.0
 11
528.8471149311213
 21
911.6699759486467
 31
0.0
  0
ARC
  5
F15
330
1F
100
AcDbEntity
  8
SANINDUSA
100
AcDbCircle
 10
528.8566426088282
 20
911.6679759486467
 30
0.0
 40
0.0020000000000002
100
AcDbArc
 50
10.0000000000316
 51
90.0
  0
LINE
  5
F17
330
1F
100
AcDbEntity
  8
SANINDUSA
100
AcDbLine
 10
528.8433208080905
 20
911.6819759486467
 30
0.0
 11
528.8630169631508
 21
911.6819759486467
 31
0.0
  0
LINE
  5
F18
330
1F
100
AcDbEntity
  8
SANINDUSA
100
AcDbLine
 10
528.8451453156153
 20
911.6716286522914
 30
0.0
 11
528.8433208080905
 21
911.6819759486467
 31
0.0
  0
LWPOLYLINE
  5
F22
330
1F
100
AcDbEntity
  8
SANINDUSA
100
AcDbPolyline
 90
       13
 70
   128
 43
0.0
 10
529.3490317111467
 20
911.5889384529308
 10
529.3482703603802
 20
911.5856579163008
 10
529.3471752935105
 20
911.5825530273568
 10
529.3457465893693
 20
911.5795868326058
 10
529.3440014551221
 20
911.5767950565912
 10
529.3419609089861
 20
911.5742113231759
 10
529.3396495270886
 20
911.571866750579
 10
529.3370951474748
 20
911.569789576591
 10
529.3343285348296
 20
911.5680048184815
 10
529.3313830099507
 20
911.5665339716931
 10
529.3282940484361
 20
911.5653947509532
 10
529.32509885342
 20
911.5646008769187
 10
529.3218359075019
 20
911.5641619109267
  0
LWPOLYLINE
  5
F24
330
1F
100
AcDbEntity
  8
SANINDUSA
100
AcDbPolyline
 90
       12
 70
   128
 43
0.0
 10
529.3206400872056
 20
911.5662041309208
 10
529.3206736219175
 20
911.5662053411664
 10
529.3242977996037
 20
911.5665586692196
 10
529.3278621385333
 20
911.5673463400755
 10
529.3311465014561
 20
911.5684914622299
 10
529.3342924499183
 20
911.5700110918096
 10
529.3387087135082
 20
911.5730071775123
 10
529.3425688726435
 20
911.5767590369204
 10
529.3451886845181
 20
911.5802963166867
 10
529.3472838881416
 20
911.5841995301058
 10
529.3485664697636
 20
911.5876252371609
 10
529.349428935891
 20
911.591191431636
  0
LWPOLYLINE
  5
F26
330
1F
100
AcDbEntity
  8
SANINDUSA
100
AcDbPolyline
 90
        6
 70
   128
 43
0.0
 10
529.12944091744
 20
911.5853687924495
 10
529.1344303454989
 20
911.5854177027896
 10
529.1685880134649
 20
911.5860187722953
 10
529.2027415323404
 20
911.5869898911903
 10
529.2662351621876
 20
911.5892460195333
 10
529.3297381556422
 20
911.5912217768835
  0
LWPOLYLINE
  5
F28
330
1F
100
AcDbEntity
  8
SANINDUSA
100
AcDbPolyline
 90
       23
 70
   128
 43
0.0
 10
529.1563464196086
 20
911.5509125231675
 10
529.1653574750328
 20
911.5513742311112
 10
529.1752360435838
 20
911.5519605602099
 10
529.1838740953358
 20
911.5525276114839
 10
529.1912748256887
 20
911.5530489860695
 10
529.1974409088197
 20
911.5535055871298
 10
529.2023745075446
 20
911.5538839326404
 10
529.2063589710166
 20
911.5541971421754
 10
529.2113129262741
 20
911.5545952074947
 10
529.2150464967516
 20
911.5549009604904
 10
529.2167955294165
 20
911.5550457538114
 10
529.2192697045603
 20
911.5552521637724
 10
529.2224887403699
 20
911.5555233122824
 10
529.2264520801308
 20
911.555860826783
 10
529.2328931946072
 20
911.5564168092834
 10
529.2406545844711
 20
911.5570965361683
 10
529.2497343638299
 20
911.5579010868968
 10
529.2601306644201
 20
911.558828638577
 10
529.2718418045511
 20
911.5598735838615
 10
529.284866452472
 20
911.5610259368144
 10
529.2992037100622
 20
911.562271101914
 10
529.3148530634429
 20
911.5635899435288
 10
529.3218452496354
 20
911.5641543128164
  0
LWPOLYLINE
  5
F29
330
1F
100
AcDbEntity
  8
SANINDUSA
100
AcDbPolyline
 90
        5
 70
   128
 43
0.0
 10
529.3206400872056
 20
911.5662041309208
 10
529.2621602395207
 20
911.56437280691
 10
529.2036837462822
 20
911.5624491524226
 10
529.1713360612749
 20
911.5616161720774
 10
529.1389765154607
 20
911.5610831101948
  0
LWPOLYLINE
  5
F2A
330
1F
100
AcDbEntity
  8
SANINDUSA
100
AcDbPolyline
 90
       14
 70
   128
 43
0.0
 10
529.1468734025678
 20
911.5412625194796
 10
529.1469456170502
 20
911.5424293075548
 10
529.147342291724
 20
911.5440745545617
 10
529.1479669482464
 20
911.5455464873882
 10
529.1487685479219
 20
911.5468329355021
 10
529.1496991980483
 20
911.5479267623534
 10
529.1507130337237
 20
911.5488269888437
 10
529.1517658375122
 20
911.549539052805
 10
529.152814824489
 20
911.5500747520295
 10
529.1538183649132
 20
911.5504520276656
 10
529.1547356348003
 20
911.5506945778408
 10
529.1555265654389
 20
911.5508310874062
 10
529.1561533180888
 20
911.5508935102209
 10
529.1563212293794
 20
911.5509012732202
  0
LINE
  5
F2B
330
1F
100
AcDbEntity
  8
SANINDUSA
100
AcDbLine
 10
529.1341104793039
 20
911.5616456555434
 30
0.0
 11
529.1337294520637
 21
911.5333281975214
 31
0.0
  0
LWPOLYLINE
  5
F2C
330
1F
100
AcDbEntity
  8
SANINDUSA
100
AcDbPolyline
 90
        9
 70
   128
 43
0.0
 10
529.1339022964678
 20
911.5461737729669
 10
529.1340055349892
 20
911.5471180485702
 10
529.1342860680145
 20
911.5480256962195
 10
529.1347337374912
 20
911.548863850149
 10
529.1353323333846
 20
911.5496021609491
 10
529.1360601806402
 20
911.5502138945128
 10
529.136890924034
 20
911.5506769000726
 10
529.1377944824904
 20
911.5509744122769
 10
529.138738138313
 20
911.5510956582602
  0
LINE
  5
F30
330
1F
100
AcDbEntity
  8
SANINDUSA
100
AcDbLine
 10
529.1448551193156
 20
911.5119759486466
 30
0.0
 11
529.1108208080905
 21
911.5119759486466
 31
0.0
  0
LINE
  5
F33
330
1F
100
AcDbEntity
  8
SANINDUSA
100
AcDbLine
 10
529.1337294520637
 20
911.5333281975214
 30
0.0
 11
529.1336327473893
 21
911.5261412295783
 31
0.0
  0
LWPOLYLINE
  5
F38
330
1F
100
AcDbEntity
  8
SANINDUSA
100
AcDbPolyline
 90
        7
 70
   128
 43
0.0
 10
529.1286380749296
 20
911.5215816801237
 10
529.1305124116767
 20
911.5218156625598
 10
529.1318790670894
 20
911.5225382432068
 10
529.1329310283469
 20
911.5236994467698
 10
529.1334388902042
 20
911.5248349386355
 10
529.1335988578203
 20
911.5256219922496
 10
529.1336327473892
 20
911.5261412295783
  0
ARC
  5
F3A
330
1F
100
AcDbEntity
  8
SANINDUSA
100
AcDbCircle
 10
529.1448551193156
 20
911.5129759486467
 30
0.0
 40
0.0009999999999999
100
AcDbArc
 50
270.0
 51
357.99999999984
  0
LINE
  5
F3B
330
1F
100
AcDbEntity
  8
SANINDUSA
100
AcDbLine
 10
529.1458545101427
 20
911.5129410491499
 30
0.0
 11
529.1468435977588
 21
911.5412648126397
 31
0.0
  0
LWPOLYLINE
  5
F3E
330
1F
100
AcDbEntity
  8
SANINDUSA
100
AcDbPolyline
 90
        9
 70
   128
 43
0.0
 10
529.1340374495643
 20
911.5562181785392
 10
529.1341431865141
 20
911.5571637840222
 10
529.1344309827665
 20
911.5580717084966
 10
529.1348901317393
 20
911.5589081753997
 10
529.1355035521942
 20
911.5596420665298
 10
529.1362484236931
 20
911.5602460797044
 10
529.1370970355622
 20
911.5606977444542
 10
529.1380178177834
 20
911.560980257969
 10
529.1389765154607
 20
911.5610831101948
  0
LWPOLYLINE
  5
F41
330
1F
100
AcDbEntity
  8
SANINDUSA
100
AcDbPolyline
 90
        4
 70
   128
 43
0.0
 10
529.1341104793038
 20
911.5616456555436
 10
529.1340191776158
 20
911.5643823313273
 10
529.1336816599607
 20
911.5673312556779
 10
529.1333058572546
 20
911.5694445544072
  0
LWPOLYLINE
  5
F44
330
1F
100
AcDbEntity
  8
SANINDUSA
100
AcDbPolyline
 90
        5
 70
   128
 43
0.0
 10
529.1333058572546
 20
911.5694445544072
 10
529.1317521528931
 20
911.5763754371455
 10
529.1297506381104
 20
911.5841798109858
 10
529.1294502548383
 20
911.5853329051621
 10
529.12944091744
 20
911.5853687924495
  0
LWPOLYLINE
  5
F49
330
1F
100
AcDbEntity
  8
SANINDUSA
100
AcDbPolyline
 90
        8
 70
   128
 43
0.0
 10
529.138738138313
 20
911.5510956582602
 10
529.1392241223214
 20
911.5510902035
 10
529.1447897499493
 20
911.5510265589339
 10
529.1494009272555
 20
911.5509745733131
 10
529.152914003598
 20
911.5509381668847
 10
529.1552361510978
 20
911.5509156463041
 10
529.1560453728131
 20
911.5509078032712
 10
529.1563468140586
 20
911.5509048381911
  0
LWPOLYLINE
  5
F4C
330
1F
100
AcDbEntity
  8
SANINDUSA
100
AcDbPolyline
 90
       12
 70
   128
 43
0.0
 10
529.349428935891
 20
911.591191431636
 10
529.3491524546327
 20
911.5907556642618
 10
529.3484959091824
 20
911.5903970102463
 10
529.3474721524075
 20
911.5901224907833
 10
529.3461012258918
 20
911.5899374800051
 10
529.3444099675897
 20
911.5898455997768
 10
529.3424314864341
 20
911.5898486487926
 10
529.3402045141787
 20
911.5899465673635
 10
529.3377726471646
 20
911.5901374385854
 10
529.3351834928579
 20
911.5904175258668
 10
529.3324877378601
 20
911.590781346076
 10
529.3297381556422
 20
911.5912217768835
  0
ARC
  5
F51
330
1F
100
AcDbEntity
  8
SANINDUSA
100
AcDbCircle
 10
529.3745266850597
 20
911.6719759486468
 30
0.0
 40
0.0020000000000001
100
AcDbArc
 50
270.0
 51
350.0000000000023
  0
LINE
  5
F52
330
1F
100
AcDbEntity
  8
SANINDUSA
100
AcDbLine
 10
529.3630293918469
 20
911.668323245002
 30
0.0
 11
529.3494370120483
 21
911.5912370285656
 31
0.0
  0
LINE
  5
F54
330
1F
100
AcDbEntity
  8
SANINDUSA
100
AcDbLine
 10
529.3494370120483
 20
911.5912370285656
 30
0.0
 11
529.3490317111468
 21
911.5889384529308
 31
0.0
  0
LINE
  5
F55
330
1F
100
AcDbEntity
  8
SANINDUSA
100
AcDbLine
 10
529.3745266850597
 20
911.6699759486467
 30
0.0
 11
529.3568001455055
 21
911.6699759486467
 31
0.0
  0
ARC
  5
F56
330
1F
100
AcDbEntity
  8
SANINDUSA
100
AcDbCircle
 10
529.3649990073529
 20
911.6679759486467
 30
0.0
 40
0.0020000000000002
100
AcDbArc
 50
90.0
 51
169.9999999999874
  0
LINE
  5
F5A
330
1F
100
AcDbEntity
  8
SANINDUSA
100
AcDbLine
 10
529.3586246530303
 20
911.6819759486467
 30
0.0
 11
529.3783208080904
 21
911.6819759486467
 31
0.0
  0
LINE
  5
F5C
330
1F
100
AcDbEntity
  8
SANINDUSA
100
AcDbLine
 10
529.3783208080904
 20
911.6819759486467
 30
0.0
 11
529.3764963005656
 21
911.6716286522914
 31
0.0
  0
LINE
  5
F61
330
1F
100
AcDbEntity
  8
SANINDUSA
100
AcDbLine
 10
529.895861421409
 20
911.5866753288836
 30
0.0
 11
529.9126654919515
 21
911.6819759486467
 31
0.0
  0
LINE
  5
F73
330
1F
100
AcDbEntity
  8
SANINDUSA
100
AcDbLine
 10
529.9223740757079
 20
911.668323245002
 30
0.0
 11
529.9048837288577
 21
911.5691305588919
 31
0.0
  0
LINE
  5
F76
330
1F
100
AcDbEntity
  8
SANINDUSA
100
AcDbLine
 10
529.6079048286151
 20
911.6699759486467
 30
0.0
 11
529.6256880053643
 21
911.5691225416535
 31
0.0
  0
LINE
  5
F77
330
1F
100
AcDbEntity
  8
SANINDUSA
100
AcDbLine
 10
529.5976654919514
 20
911.6819759486467
 30
0.0
 11
529.6175631788138
 21
911.5691305588919
 31
0.0
  0
LINE
  5
F78
330
1F
100
AcDbEntity
  8
SANINDUSA
100
AcDbLine
 10
529.6290904745252
 20
911.6455380617852
 30
0.0
 11
529.6394564300518
 21
911.5867498066638
 31
0.0
  0
LINE
  5
F79
330
1F
100
AcDbEntity
  8
SANINDUSA
100
AcDbLine
 10
529.627586027349
 20
911.5853573875076
 30
0.0
 11
529.6173398905613
 21
911.6434661167932
 31
0.0
  0
ARC
  5
F7A
330
1F
100
AcDbEntity
  8
SANINDUSA
100
AcDbCircle
 10
529.855643341207
 20
911.5778129677751
 30
0.0
 40
0.05
100
AcDbArc
 50
279.2288900544865
 51
350.0000000000023
  0
LWPOLYLINE
  5
F7B
330
1F
100
AcDbEntity
  8
SANINDUSA
100
AcDbPolyline
 90
        6
 70
   128
 43
0.0
 10
529.7287534389372
 20
911.5608477424288
 10
529.7249926500783
 20
911.5611203179959
 10
529.7076430323894
 20
911.5627865685187
 10
529.6903364870151
 20
911.5650127857195
 10
529.6730533681039
 20
911.5676423213706
 10
529.6558033902937
 20
911.5705051918562
  0
LWPOLYLINE
  5
F7C
330
1F
100
AcDbEntity
  8
SANINDUSA
100
AcDbPolyline
 90
        5
 70
   128
 43
0.0
 10
529.7224417026678
 20
911.5512906232996
 10
529.7047999946531
 20
911.5530481480909
 10
529.6872031292649
 20
911.5553594370457
 10
529.6696311637474
 20
911.5580651191972
 10
529.6520912699789
 20
911.5609930506842
  0
ARC
  5
F7D
330
1F
100
AcDbEntity
  8
SANINDUSA
100
AcDbCircle
 10
529.7612234538357
 20
912.1589222463059
 30
0.0
 40
0.6387300813834111
100
AcDbArc
 50
260.7711099455136
 51
266.9987588096454
  0
ARC
  5
F7E
330
1F
100
AcDbEntity
  8
SANINDUSA
100
AcDbCircle
 10
529.7612234538357
 20
912.1589222463059
 30
0.0
 40
0.6307300813834114
100
AcDbArc
 50
260.633269069325
 51
268.3619808743787
  0
ARC
  5
F80
330
1F
100
AcDbEntity
  8
SANINDUSA
100
AcDbCircle
 10
529.6650803154848
 20
911.5760684687602
 30
0.0
 40
0.0400000000000003
100
AcDbArc
 50
189.9999999999994
 51
260.633269069325
  0
ARC
  5
F81
330
1F
100
AcDbEntity
  8
SANINDUSA
100
AcDbCircle
 10
529.6668035664644
 20
911.5778129677751
 30
0.0
 40
0.0500000000000003
100
AcDbArc
 50
190.0000000000059
 51
260.7711099455136
  0
LWPOLYLINE
  5
F82
330
1F
100
AcDbEntity
  8
SANINDUSA
100
AcDbPolyline
 90
        9
 70
   128
 43
0.0
 10
529.627586027349
 20
911.5853573875078
 10
529.6288828012165
 20
911.5804722910199
 10
529.630975826971
 20
911.5758717439494
 10
529.6338164943802
 20
911.5716912656472
 10
529.6373143405511
 20
911.5680428601969
 10
529.6413786377919
 20
911.5650383173123
 10
529.6458869487444
 20
911.5627533835363
 10
529.6489418061741
 20
911.5617064962705
 10
529.6520912699789
 20
911.5609930506842
  0
LWPOLYLINE
  5
F86
330
1F
100
AcDbEntity
  8
SANINDUSA
100
AcDbPolyline
 90
        8
 70
   128
 43
0.0
 10
529.6394564300518
 20
911.5867498066638
 10
529.6403209459586
 20
911.5834930756912
 10
529.6417162964539
 20
911.5804260443294
 10
529.6436100747157
 20
911.5776390588113
 10
529.6459419721487
 20
911.5752067885253
 10
529.6486515036295
 20
911.5732037599427
 10
529.6516570442495
 20
911.5716804707618
 10
529.6558033902937
 20
911.5705051918562
  0
LWPOLYLINE
  5
F8D
330
1F
100
AcDbEntity
  8
SANINDUSA
100
AcDbPolyline
 90
       21
 70
   128
 43
0.0
 10
529.7292815498253
 20
911.5608364658154
 10
529.7293050050746
 20
911.5608359650373
 10
529.7309365351488
 20
911.5608088604332
 10
529.733615306229
 20
911.560771528895
 10
529.7372609221757
 20
911.5607313228652
 10
529.7417785861763
 20
911.5606955921547
 10
529.747038329315
 20
911.5606671632411
 10
529.7528828333033
 20
911.5606463709713
 10
529.7591472881619
 20
911.5606327053741
 10
529.76567373645
 20
911.560626529574
 10
529.7722570953511
 20
911.5606278448806
 10
529.7787026348453
 20
911.5606362180527
 10
529.7848334620335
 20
911.5606515767542
 10
529.7904574403106
 20
911.5606751006779
 10
529.7954324485159
 20
911.5607068728701
 10
529.799608523886
 20
911.560744679147
 10
529.8028806304898
 20
911.5607823878898
 10
529.8051530282967
 20
911.5608132108866
 10
529.8063793414906
 20
911.560831390375
 10
529.8065941212378
 20
911.5608342894597
 10
529.8065941212378
 20
911.5608342894597
  0
LWPOLYLINE
  5
F8F
330
1F
100
AcDbEntity
  8
SANINDUSA
100
AcDbPolyline
 90
       22
 70
   128
 43
0.0
 10
529.7424206846248
 20
911.5517407711562
 10
529.7424206845943
 20
911.5517407708875
 10
529.7427636676068
 20
911.5517321091928
 10
529.7437749681928
 20
911.5517127715355
 10
529.7454848860161
 20
911.5516857705513
 10
529.7478203521785
 20
911.5516566062252
 10
529.7507206655638
 20
911.5516308206286
 10
529.7540988263834
 20
911.551610428128
 10
529.7578662816007
 20
911.5515953188692
 10
529.761910123917
 20
911.5515851334622
 10
529.7661186410664
 20
911.5515802451131
 10
529.7703707861131
 20
911.5515806838214
 10
529.7745454777017
 20
911.5515863317751
 10
529.7785261362841
 20
911.5515970885473
 10
529.7821952269183
 20
911.5516137299106
 10
529.7854545844278
 20
911.5516356234403
 10
529.7882066580857
 20
911.5516623774134
 10
529.7903795059893
 20
911.5516904300697
 10
529.7919059625524
 20
911.5517137656452
 10
529.7927478291952
 20
911.5517278000018
 10
529.7929120523706
 20
911.5517303726161
 10
529.792912052371
 20
911.5517303726139
  0
LINE
  5
F92
330
1F
100
AcDbEntity
  8
SANINDUSA
100
AcDbLine
 10
529.7921654919515
 20
911.5119759486466
 30
0.0
 11
529.7431654919515
 21
911.5119759486466
 31
0.0
  0
LWPOLYLINE
  5
F94
330
1F
100
AcDbEntity
  8
SANINDUSA
100
AcDbPolyline
 90
        6
 70
   128
 43
0.0
 10
529.7316284744783
 20
911.5416722436661
 10
529.7309495863685
 20
911.5449606107841
 10
529.7292205000642
 20
911.5478388929115
 10
529.7266361571288
 20
911.5499825852156
 10
529.7234879230706
 20
911.5511500026755
 10
529.7224417026678
 20
911.5512906232996
  0
LINE
  5
F95
330
1F
100
AcDbEntity
  8
SANINDUSA
100
AcDbLine
 10
529.7441654919516
 20
911.5479455472481
 30
0.0
 11
529.7441654919516
 21
911.5374544642692
 31
0.0
  0
ARC
  5
F98
330
1F
100
AcDbEntity
  8
SANINDUSA
100
AcDbCircle
 10
529.7431654919515
 20
911.5374544642692
 30
0.0
 40
0.001
100
AcDbArc
 50
268.3356273744185
 51
0.0
  0
ARC
  5
F99
330
1F
100
AcDbEntity
  8
SANINDUSA
100
AcDbCircle
 10
529.7612234538357
 20
912.1589222463059
 30
0.0
 40
0.6227300813834111
100
AcDbArc
 50
267.2914059707762
 51
268.3356273744185
  0
LINE
  5
F9A
330
1F
100
AcDbEntity
  8
SANINDUSA
100
AcDbLine
 10
529.7317955481323
 20
911.5368878801929
 30
0.0
 11
529.7316284744783
 21
911.5416722436659
 31
0.0
  0
LWPOLYLINE
  5
F9D
330
1F
100
AcDbEntity
  8
SANINDUSA
100
AcDbPolyline
 90
        5
 70
   128
 43
0.0
 10
529.7474923340441
 20
911.5363435680578
 10
529.7454612468803
 20
911.5363916791112
 10
529.7440105231194
 20
911.5364301023587
 10
529.7433599403698
 20
911.5364484322812
 10
529.7431364472544
 20
911.5364548861554
  0
LWPOLYLINE
  5
FA0
330
1F
100
AcDbEntity
  8
SANINDUSA
100
AcDbPolyline
 90
        7
 70
   128
 43
0.0
 10
529.7490550850008
 20
911.5352974184132
 10
529.7490334559115
 20
911.535458595941
 10
529.7489326971509
 20
911.5356751906562
 10
529.7488994584183
 20
911.5357218707154
 10
529.7486194690133
 20
911.5359849100242
 10
529.7480791947005
 20
911.5362453597608
 10
529.7474923340441
 20
911.5363435680578
  0
LINE
  5
FA1
330
1F
100
AcDbEntity
  8
SANINDUSA
100
AcDbLine
 10
529.7441654919516
 20
911.5274503104787
 30
0.0
 11
529.7441654919516
 21
911.5129759486467
 31
0.0
  0
ARC
  5
FA4
330
1F
100
AcDbEntity
  8
SANINDUSA
100
AcDbCircle
 10
529.7431654919515
 20
911.5274503104787
 30
0.0
 40
0.0010000000000001
100
AcDbArc
 50
0.0
 51
88.36198087437871
  0
ARC
  5
FA5
330
1F
100
AcDbEntity
  8
SANINDUSA
100
AcDbCircle
 10
529.7431654919515
 20
911.5129759486467
 30
0.0
 40
0.0010000000000001
100
AcDbArc
 50
270.0
 51
0.0
  0
LINE
  5
FA6
330
1F
100
AcDbEntity
  8
SANINDUSA
100
AcDbLine
 10
529.7431654919515
 20
911.5119759486466
 30
0.0
 11
529.7336311807263
 21
911.5119759486466
 31
0.0
  0
ARC
  5
FA7
330
1F
100
AcDbEntity
  8
SANINDUSA
100
AcDbCircle
 10
529.7336311807263
 20
911.5129759486467
 30
0.0
 40
0.0010000000000001
100
AcDbArc
 50
182.0000000000036
 51
270.0
  0
LINE
  5
FA8
330
1F
100
AcDbEntity
  8
SANINDUSA
100
AcDbLine
 10
529.7326317898993
 20
911.5129410491499
 30
0.0
 11
529.7325162526848
 21
911.5162496020873
 31
0.0
  0
LWPOLYLINE
  5
FAA
330
1F
100
AcDbEntity
  8
SANINDUSA
100
AcDbPolyline
 90
        5
 70
   128
 43
0.0
 10
529.7431940768842
 20
911.5284499018461
 10
529.7432603531013
 20
911.5284480100568
 10
529.7438942140032
 20
911.5284302693478
 10
529.7452298871572
 20
911.5283949737897
 10
529.7474805624406
 20
911.5283419036865
  0
LWPOLYLINE
  5
FAB
330
1F
100
AcDbEntity
  8
SANINDUSA
100
AcDbPolyline
 90
        7
 70
   128
 43
0.0
 10
529.7474805624406
 20
911.5283419036865
 10
529.7479768612397
 20
911.5283946522534
 10
529.7483944780362
 20
911.5285439966742
 10
529.7487429667835
 20
911.528785798821
 10
529.7489199945577
 20
911.5290238637829
 10
529.748977695263
 20
911.5291993964619
 10
529.7489862653653
 20
911.5292976209886
  0
ARC
  5
FAD
330
1F
100
AcDbEntity
  8
SANINDUSA
100
AcDbCircle
 10
529.7275192985497
 20
911.5160751046039
 30
0.0
 40
0.0050000000000002
100
AcDbArc
 50
2.00000000004928
 51
86.99875880964542
  0
LINE
  5
FAF
330
1F
100
AcDbEntity
  8
SANINDUSA
100
AcDbLine
 10
529.7489862653653
 20
911.5292976209886
 30
0.0
 11
529.7490550850008
 21
911.5352974184132
 31
0.0
  0
LWPOLYLINE
  5
FB0
330
1F
100
AcDbEntity
  8
SANINDUSA
100
AcDbPolyline
 90
        3
 70
   128
 43
0.0
 10
529.7345853088553
 20
911.5584612347786
 10
529.7317856582355
 20
911.5601568232252
 10
529.7287534389372
 20
911.5608477424288
  0
LINE
  5
FB1
330
1F
100
AcDbEntity
  8
SANINDUSA
100
AcDbLine
 10
529.7424206846248
 20
911.5517407711562
 30
0.0
 11
529.7345853088554
 21
911.5584612347786
 31
0.0
  0
LWPOLYLINE
  5
FB2
330
1F
100
AcDbEntity
  8
SANINDUSA
100
AcDbPolyline
 90
        4
 70
   128
 43
0.0
 10
529.7441654919514
 20
911.5479455472481
 10
529.7438836358518
 20
911.5496005756208
 10
529.7430698446545
 20
911.5510690120951
 10
529.7424206846248
 20
911.5517407711562
  0
ARC
  5
FB3
330
1F
100
AcDbEntity
  8
SANINDUSA
100
AcDbCircle
 10
529.7612234538357
 20
912.1589222463059
 30
0.0
 40
0.638730081383411
100
AcDbArc
 50
274.152771581372
 51
279.2288900544865
  0
ARC
  5
FB4
330
1F
100
AcDbEntity
  8
SANINDUSA
100
AcDbCircle
 10
529.7612234538357
 20
912.1589222463059
 30
0.0
 40
0.6307300813834111
100
AcDbArc
 50
273.8233430030252
 51
279.4184869108952
  0
LWPOLYLINE
  5
FB5
330
1F
100
AcDbEntity
  8
SANINDUSA
100
AcDbPolyline
 90
        6
 70
   128
 43
0.0
 10
529.8795258026723
 20
911.5704326430956
 10
529.8624361143175
 20
911.5675932020401
 10
529.8453055466509
 20
911.5649935923533
 10
529.8280995370895
 20
911.5627897261767
 10
529.8108154842269
 20
911.5611374459337
 10
529.8065941212378
 20
911.5608342894597
  0
LWPOLYLINE
  5
FB6
330
1F
100
AcDbEntity
  8
SANINDUSA
100
AcDbPolyline
 90
        5
 70
   128
 43
0.0
 10
529.8956912324661
 20
911.5630674850949
 10
529.8750934361217
 20
911.5595403962208
 10
529.8544585906491
 20
911.5562275973756
 10
529.8337349337657
 20
911.5533823386799
 10
529.8129005005319
 20
911.5512700839181
  0
LWPOLYLINE
  5
FB7
330
1F
100
AcDbEntity
  8
SANINDUSA
100
AcDbPolyline
 90
        6
 70
   128
 43
0.0
 10
529.8129005005319
 20
911.5512700839181
 10
529.8096457503478
 20
911.5504449523349
 10
529.8068475975271
 20
911.5485889939103
 10
529.8048215125308
 20
911.5459114538595
 10
529.8037959210446
 20
911.5427142044181
 10
529.8037017586124
 20
911.5416507432186
  0
LINE
  5
FB8
330
1F
100
AcDbEntity
  8
SANINDUSA
100
AcDbLine
 10
529.7911654919515
 20
911.5129759486467
 30
0.0
 11
529.7911654919515
 21
911.5479336462296
 31
0.0
  0
LINE
  5
FB9
330
1F
100
AcDbEntity
  8
SANINDUSA
100
AcDbLine
 10
529.8028429181628
 20
911.517056770573
 30
0.0
 11
529.8026991940036
 21
911.5129410491499
 31
0.0
  0
ARC
  5
FBA
330
1F
100
AcDbEntity
  8
SANINDUSA
100
AcDbCircle
 10
529.8016998031767
 20
911.5129759486467
 30
0.0
 40
0.0010000000000001
100
AcDbArc
 50
270.0
 51
357.9999999996118
  0
LINE
  5
FBB
330
1F
100
AcDbEntity
  8
SANINDUSA
100
AcDbLine
 10
529.8016998031767
 20
911.5119759486466
 30
0.0
 11
529.7921654919515
 21
911.5119759486466
 31
0.0
  0
ARC
  5
FBC
330
1F
100
AcDbEntity
  8
SANINDUSA
100
AcDbCircle
 10
529.7921654919515
 20
911.5129759486467
 30
0.0
 40
0.0010000000000001
100
AcDbArc
 50
180.0
 51
270.0
  0
ARC
  5
FBD
330
1F
100
AcDbEntity
  8
SANINDUSA
100
AcDbCircle
 10
529.8078398722979
 20
911.5168822730895
 30
0.0
 40
0.0050000000000001
100
AcDbArc
 50
94.152771581372
 51
178.0000000000028
  0
LINE
  5
FBE
330
1F
100
AcDbEntity
  8
SANINDUSA
100
AcDbLine
 10
529.8037017586125
 20
911.5416507432184
 30
0.0
 11
529.8032807951698
 21
911.5295959274522
 31
0.0
  0
LWPOLYLINE
  5
FBF
330
1F
100
AcDbEntity
  8
SANINDUSA
100
AcDbPolyline
 90
        3
 70
   128
 43
0.0
 10
529.8065941212378
 20
911.5608342894597
 10
529.8034838021289
 20
911.5601158749557
 10
529.8007537549317
 20
911.5584499788083
  0
LINE
  5
FC0
330
1F
100
AcDbEntity
  8
SANINDUSA
100
AcDbLine
 10
529.8007537549317
 20
911.5584499788083
 30
0.0
 11
529.7929120523711
 21
911.5517303726138
 31
0.0
  0
LWPOLYLINE
  5
FC1
330
1F
100
AcDbEntity
  8
SANINDUSA
100
AcDbPolyline
 90
        4
 70
   128
 43
0.0
 10
529.792912052371
 20
911.5517303726139
 10
529.7918387150407
 20
911.5504394398604
 10
529.7912531889878
 20
911.5488659978886
 10
529.7911654919515
 20
911.5479336462296
  0
LWPOLYLINE
  5
FC2
330
1F
100
AcDbEntity
  8
SANINDUSA
100
AcDbPolyline
 90
        8
 70
   128
 43
0.0
 10
529.8644321298799
 20
911.5366936671236
 10
529.870962461238
 20
911.5383563117822
 10
529.8771241934177
 20
911.541084286169
 10
529.8827359914212
 20
911.544814581471
 10
529.8876473612772
 20
911.5494280971955
 10
529.8917082669706
 20
911.5548056589071
 10
529.8948158538921
 20
911.5607848584684
 10
529.8956976576095
 20
911.5631039238936
  0
LWPOLYLINE
  5
FC5
330
1F
100
AcDbEntity
  8
SANINDUSA
100
AcDbPolyline
 90
        8
 70
   128
 43
0.0
 10
529.8795258026723
 20
911.5704326430956
 10
529.8827874128449
 20
911.5712785646724
 10
529.8858623550033
 20
911.5726563944734
 10
529.8886600994968
 20
911.5745342416303
 10
529.8911056340995
 20
911.5768522245266
 10
529.8931240885507
 20
911.579550284304
 10
529.8946645002097
 20
911.5825470854085
 10
529.895861421409
 20
911.5866753288836
  0
LINE
  5
FCD
330
1F
100
AcDbEntity
  8
SANINDUSA
100
AcDbLine
 10
529.9028174144214
 20
911.6819759486467
 30
0.0
 11
529.6325135694815
 21
911.6819759486467
 31
0.0
  0
LINE
  5
FD2
330
1F
100
AcDbEntity
  8
SANINDUSA
100
AcDbLine
 10
529.6226654919515
 20
911.6819759486467
 30
0.0
 11
529.6249229182611
 21
911.6691734478575
 31
0.0
  0
ARC
  5
FD7
330
1F
100
AcDbEntity
  8
SANINDUSA
100
AcDbCircle
 10
529.6239381105082
 20
911.6689997996799
 30
0.0
 40
0.0010000000000001
100
AcDbArc
 50
280.000000000018
 51
10.00000000001259
  0
ARC
  5
FD8
330
1F
100
AcDbEntity
  8
SANINDUSA
100
AcDbCircle
 10
529.6141571420503
 20
911.6672751510433
 30
0.0
 40
0.0010000000000001
100
AcDbArc
 50
190.000000000111
 51
280.000000000018
  0
LINE
  5
FD9
330
1F
100
AcDbEntity
  8
SANINDUSA
100
AcDbLine
 10
529.6131723342973
 20
911.6671015028655
 30
0.0
 11
529.6126654919516
 21
911.6699759486467
 31
0.0
  0
LINE
  5
FDA
330
1F
100
AcDbEntity
  8
SANINDUSA
100
AcDbLine
 10
529.6126654919516
 20
911.6699759486467
 30
0.0
 11
529.6079048286151
 21
911.6699759486467
 31
0.0
  0
LINE
  5
FDB
330
1F
100
AcDbEntity
  8
SANINDUSA
100
AcDbLine
 10
529.6241117586858
 20
911.6680149919268
 30
0.0
 11
529.614330790228
 21
911.6662903432903
 31
0.0
  0
ARC
  5
FDC
330
1F
100
AcDbEntity
  8
SANINDUSA
100
AcDbCircle
 10
529.6281056667721
 20
911.6453644136075
 30
0.0
 40
0.0010000000000001
100
AcDbArc
 50
10.00000000001259
 51
100.000000000018
  0
ARC
  5
FDD
330
1F
100
AcDbEntity
  8
SANINDUSA
100
AcDbCircle
 10
529.6183246983144
 20
911.643639764971
 30
0.0
 40
0.0010000000000001
100
AcDbArc
 50
99.9999999999923
 51
189.9999999999977
  0
LINE
  5
FDE
330
1F
100
AcDbEntity
  8
SANINDUSA
100
AcDbLine
 10
529.6181510501367
 20
911.6446245727239
 30
0.0
 11
529.6279320185944
 21
911.6463492213606
 31
0.0
  0
LINE
  5
FDF
330
1F
100
AcDbEntity
  8
SANINDUSA
100
AcDbLine
 10
529.6173398905613
 20
911.6434661167932
 30
0.0
 11
529.6131723342973
 21
911.6671015028655
 31
0.0
  0
LINE
  5
FE0
330
1F
100
AcDbEntity
  8
SANINDUSA
100
AcDbLine
 10
529.6249229182611
 20
911.6691734478575
 30
0.0
 11
529.6290904745252
 21
911.6455380617852
 31
0.0
  0
LINE
  5
FE1
330
1F
100
AcDbEntity
  8
SANINDUSA
100
AcDbLine
 10
529.6076654919516
 20
911.6819759486467
 30
0.0
 11
529.5976654919514
 21
911.6819759486467
 31
0.0
  0
LINE
  5
FE2
330
1F
100
AcDbEntity
  8
SANINDUSA
100
AcDbLine
 10
529.6226654919515
 20
911.6819759486467
 30
0.0
 11
529.6325135694817
 21
911.6819759486467
 31
0.0
  0
ARC
  5
FE3
330
1F
100
AcDbEntity
  8
SANINDUSA
100
AcDbCircle
 10
529.6101654919515
 20
911.6846009486467
 30
0.0
 40
0.0036250000000001
100
AcDbArc
 50
226.3971810273016
 51
313.6028189726985
  0
LINE
  5
FE4
330
1F
100
AcDbEntity
  8
SANINDUSA
100
AcDbLine
 10
529.6126654919516
 20
911.6819759486467
 30
0.0
 11
529.6076654919516
 21
911.6819759486467
 31
0.0
  0
LINE
  5
FE5
330
1F
100
AcDbEntity
  8
SANINDUSA
100
AcDbLine
 10
529.6226654919515
 20
911.6819759486467
 30
0.0
 11
529.6126654919516
 21
911.6819759486467
 31
0.0
  0
ARC
  5
FE9
330
1F
100
AcDbEntity
  8
SANINDUSA
100
AcDbCircle
 10
529.9338713689206
 20
911.6719759486468
 30
0.0
 40
0.0019999999999999
100
AcDbArc
 50
270.0
 51
349.9999999999874
  0
LINE
  5
FEA
330
1F
100
AcDbEntity
  8
SANINDUSA
100
AcDbLine
 10
529.9338713689206
 20
911.6699759486467
 30
0.0
 11
529.9243436912139
 21
911.6699759486467
 31
0.0
  0
ARC
  5
FEB
330
1F
100
AcDbEntity
  8
SANINDUSA
100
AcDbCircle
 10
529.9243436912139
 20
911.6679759486467
 30
0.0
 40
0.0020000000000002
100
AcDbArc
 50
90.0
 51
169.9999999999874
  0
ARC
  5
FEC
330
1F
100
AcDbEntity
  8
SANINDUSA
100
AcDbCircle
 10
529.9251654919515
 20
911.6846009486467
 30
0.0
 40
0.0036250000000001
100
AcDbArc
 50
226.3971810273016
 51
313.6028189726985
  0
LINE
  5
FED
330
1F
100
AcDbEntity
  8
SANINDUSA
100
AcDbLine
 10
529.9276654919515
 20
911.6819759486467
 30
0.0
 11
529.9226654919515
 21
911.6819759486467
 31
0.0
  0
LINE
  5
FEE
330
1F
100
AcDbEntity
  8
SANINDUSA
100
AcDbLine
 10
529.9028174144214
 20
911.6819759486467
 30
0.0
 11
529.9126654919515
 21
911.6819759486467
 31
0.0
  0
LINE
  5
FEF
330
1F
100
AcDbEntity
  8
SANINDUSA
100
AcDbLine
 10
529.9226654919515
 20
911.6819759486467
 30
0.0
 11
529.9126654919515
 21
911.6819759486467
 31
0.0
  0
LINE
  5
FF0
330
1F
100
AcDbEntity
  8
SANINDUSA
100
AcDbLine
 10
529.9376654919515
 20
911.6819759486467
 30
0.0
 11
529.9276654919515
 21
911.6819759486467
 31
0.0
  0
LINE
  5
FF1
330
1F
100
AcDbEntity
  8
SANINDUSA
100
AcDbLine
 10
529.9358409844266
 20
911.6716286522914
 30
0.0
 11
529.9376654919515
 21
911.6819759486467
 31
0.0
  0
LINE
  5
FF2
330
1F
100
AcDbEntity
  8
SANINDUSA
100
AcDbLine
 10
528.6358769766995
 20
911.5910407264946
 30
0.0
 11
528.6349080727697
 21
911.5855457992525
 31
0.0
  0
LWPOLYLINE
  5
FF4
330
1F
100
AcDbEntity
  8
SANINDUSA
100
AcDbPolyline
 90
       12
 70
   128
 43
0.0
 10
528.6071656163183
 20
911.5662105421202
 10
528.6071991583384
 20
911.5662117762967
 10
528.6108234909907
 20
911.5665677917801
 10
528.6143870105992
 20
911.5673582842791
 10
528.6176696059603
 20
911.5685061103262
 10
528.6208129047033
 20
911.5700284018084
 10
528.6252240575059
 20
911.5730287026083
 10
528.6290773484137
 20
911.5767845466486
 10
528.6316904382292
 20
911.5803247067724
 10
528.6337781346367
 20
911.5842304674327
 10
528.635052234543
 20
911.587651911682
 10
528.6359073761131
 20
911.591213130136
  0
LINE
  5
FF7
330
1F
100
AcDbEntity
  8
SANINDUSA
100
AcDbLine
 10
528.6623880460811
 20
911.668323245002
 30
0.0
 11
528.6448976992309
 21
911.5691305588919
 31
0.0
  0
LINE
  5
FF8
330
1F
100
AcDbEntity
  8
SANINDUSA
100
AcDbLine
 10
528.3547139104918
 20
911.5853687924495
 30
0.0
 11
528.3537122619133
 21
911.5910494238223
 31
0.0
  0
LWPOLYLINE
  5
FFA
330
1F
100
AcDbEntity
  8
SANINDUSA
100
AcDbPolyline
 90
       12
 70
   128
 43
0.0
 10
528.3824478748539
 20
911.5662041309208
 10
528.3824143221734
 20
911.5662053618402
 10
528.378787909412
 20
911.5665611901624
 10
528.3752220648327
 20
911.5673517665271
 10
528.3719372364084
 20
911.5684998723621
 10
528.3687916405323
 20
911.5700226345083
 10
528.3643774836143
 20
911.5730235916855
 10
528.3605212714413
 20
911.5767801900702
 10
528.3579060868317
 20
911.5803207439123
 10
528.3558163587111
 20
911.5842268521285
 10
528.3545389095976
 20
911.5876542550106
 10
528.3536818714183
 20
911.5912217768835
  0
LWPOLYLINE
  5
FFC
330
1F
100
AcDbEntity
  8
SANINDUSA
100
AcDbPolyline
 90
        7
 70
   128
 43
0.0
 10
528.4689928927276
 20
911.5262484553541
 10
528.4687931814674
 20
911.5236308829274
 10
528.4680984922273
 20
911.5213219273362
 10
528.4667064195232
 20
911.51891478454
 10
528.4651047322737
 20
911.517364508961
 10
528.464166816931
 20
911.5168903372142
 10
528.4632777418259
 20
911.5167670547775
  0
LWPOLYLINE
  5
FFE
330
1F
100
AcDbEntity
  8
SANINDUSA
100
AcDbPolyline
 90
        6
 70
   128
 43
0.0
 10
528.6071656163183
 20
911.5662105421202
 10
528.5649305973175
 20
911.5650457137002
 10
528.5226793123767
 20
911.5642990640887
 10
528.4765766620876
 20
911.5642422529244
 10
528.430462928573
 20
911.5649497818136
 10
528.3824478748539
 20
911.5662041309208
  0
LWPOLYLINE
  5
FFF
330
1F
100
AcDbEntity
  8
SANINDUSA
100
AcDbPolyline
 90
       14
 70
   128
 43
0.0
 10
528.4590288279835
 20
911.5510956582602
 10
528.4594077718917
 20
911.5510902035
 10
528.4646367282407
 20
911.5510265589339
 10
528.4707238265731
 20
911.5509745733131
 10
528.4775197819197
 20
911.5509381668847
 10
528.4848092949285
 20
911.5509156463041
 10
528.4895317404438
 20
911.5509078032712
 10
528.494313246562
 20
911.5509047936695
 10
528.501946742431
 20
911.5509106127337
 10
528.509376098773
 20
911.5509296196565
 10
528.5163757567109
 20
911.5509616737091
 10
528.5227589186773
 20
911.5510073730016
 10
528.5269032350108
 20
911.5510498862375
 10
528.5305611111628
 20
911.5510983391947
  0
LWPOLYLINE
  5
1000
330
1F
100
AcDbEntity
  8
SANINDUSA
100
AcDbPolyline
 90
        8
 70
   128
 43
0.0
 10
528.4590288279835
 20
911.5510956582602
 10
528.4610538559721
 20
911.5507564419663
 10
528.46297316921
 20
911.5500278376092
 10
528.4645587376537
 20
911.5490406745569
 10
528.4659439979018
 20
911.5477696788166
 10
528.4675906523512
 20
911.5452600954066
 10
528.4683505151454
 20
911.5427566662111
 10
528.4684756900403
 20
911.5414284569023
  0
LINE
  5
1002
330
1F
100
AcDbEntity
  8
SANINDUSA
100
AcDbLine
 10
528.5288296973178
 20
911.5119759486466
 30
0.0
 11
528.460761074868
 21
911.5119759486466
 31
0.0
  0
ARC
  5
1006
330
1F
100
AcDbEntity
  8
SANINDUSA
100
AcDbCircle
 10
528.4068175368377
 20
911.5778129677751
 30
0.0
 40
0.0500000000000002
100
AcDbArc
 50
189.9999999999994
 51
260.7711099455136
  0
LWPOLYLINE
  5
1007
330
1F
100
AcDbEntity
  8
SANINDUSA
100
AcDbPolyline
 90
        4
 70
   128
 43
0.0
 10
528.3793306908245
 20
911.5610831101948
 10
528.3891986160396
 20
911.5594635736943
 10
528.4096155403672
 20
911.5563124019599
 10
528.4301077720598
 20
911.5536262636172
  0
LWPOLYLINE
  5
1009
330
1F
100
AcDbEntity
  8
SANINDUSA
100
AcDbPolyline
 90
        4
 70
   128
 43
0.0
 10
528.4591289979451
 20
911.5215816801237
 10
528.4389495352585
 20
911.5232365254074
 10
528.4188326617062
 20
911.5255301308033
 10
528.3987985914535
 20
911.5284601916128
  0
LWPOLYLINE
  5
100E
330
1F
100
AcDbEntity
  8
SANINDUSA
100
AcDbPolyline
 90
        4
 70
   128
 43
0.0
 10
528.3675739936835
 20
911.5657355415237
 10
528.3698126559186
 20
911.5643768584449
 10
528.3743639106488
 20
911.5623514506646
 10
528.3793306908245
 20
911.5610831101948
  0
LWPOLYLINE
  5
100F
330
1F
100
AcDbEntity
  8
SANINDUSA
100
AcDbPolyline
 90
        4
 70
   128
 43
0.0
 10
528.360752999421
 20
911.5720000811162
 10
528.3623112427843
 20
911.57019868612
 10
528.3647488109409
 20
911.5678725107855
 10
528.3675739936835
 20
911.5657355415237
  0
LWPOLYLINE
  5
1015
330
1F
100
AcDbEntity
  8
SANINDUSA
100
AcDbPolyline
 90
        7
 70
   128
 43
0.0
 10
528.3547139104917
 20
911.5853687924495
 10
528.3547190646166
 20
911.5853396469399
 10
528.3549123215423
 20
911.5843483932026
 10
528.3558329899125
 20
911.5809976532657
 10
528.3571606332023
 20
911.5777335285052
 10
528.3587655239549
 20
911.5748092084672
 10
528.360752999421
 20
911.5720000811162
  0
LINE
  5
1017
330
1F
100
AcDbEntity
  8
SANINDUSA
100
AcDbLine
 10
528.357577149187
 20
911.5691305588919
 30
0.0
 11
528.3547139104918
 21
911.5853687924495
 31
0.0
  0
LINE
  5
101B
330
1F
100
AcDbEntity
  8
SANINDUSA
100
AcDbLine
 10
528.4596183774897
 20
911.5170448118504
 30
0.0
 11
528.459761684041
 21
911.5129410491499
 31
0.0
  0
ARC
  5
101C
330
1F
100
AcDbEntity
  8
SANINDUSA
100
AcDbCircle
 10
528.460761074868
 20
911.5129759486467
 30
0.0
 40
0.0010000000000001
100
AcDbArc
 50
182.0000000000036
 51
270.0
  0
LWPOLYLINE
  5
101D
330
1F
100
AcDbEntity
  8
SANINDUSA
100
AcDbPolyline
 90
        8
 70
   128
 43
0.0
 10
528.4552102167676
 20
911.5218431001746
 10
528.4558771588262
 20
911.5217219093842
 10
528.4569781760461
 20
911.5212917796894
 10
528.4578500795369
 20
911.5206997438415
 10
528.4586635905372
 20
911.5198246375985
 10
528.4591990054206
 20
911.5188927257333
 10
528.4595386070026
 20
911.5177862636079
 10
528.4595855683408
 20
911.5170399121513
  0
LWPOLYLINE
  5
101E
330
1F
100
AcDbEntity
  8
SANINDUSA
100
AcDbPolyline
 90
        5
 70
   128
 43
0.0
 10
528.4632777418259
 20
911.5167670547775
 10
528.461601143408
 20
911.5168963907654
 10
528.4604100573558
 20
911.516991752474
 10
528.4596564827301
 20
911.5170535789014
 10
528.4597197724528
 20
911.5170483526407
  0
LWPOLYLINE
  5
1021
330
1F
100
AcDbEntity
  8
SANINDUSA
100
AcDbPolyline
 90
        9
 70
   128
 43
0.0
 10
528.4591289979451
 20
911.5215816801237
 10
528.4599433512554
 20
911.5214427417088
 10
528.460718832265
 20
911.52113899454
 10
528.4614290902108
 20
911.5206807599143
 10
528.4620499906033
 20
911.5200836085957
 10
528.4625604353125
 20
911.5193678317227
 10
528.4629430794812
 20
911.518557751318
 10
528.4631849209009
 20
911.5176808938279
 10
528.4632777418259
 20
911.5167670547775
  0
LWPOLYLINE
  5
1022
330
1F
100
AcDbEntity
  8
SANINDUSA
100
AcDbPolyline
 90
        3
 70
   128
 43
0.0
 10
528.4301077720598
 20
911.5536262636172
 10
528.4400519800209
 20
911.5525680214457
 10
528.4590288279835
 20
911.5510956582602
  0
LWPOLYLINE
  5
1024
330
1F
100
AcDbEntity
  8
SANINDUSA
100
AcDbPolyline
 90
        5
 70
   128
 43
0.0
 10
528.5305611111628
 20
911.5510983391947
 10
528.5405384503092
 20
911.5517796414314
 10
528.5604445263981
 20
911.5537559577997
 10
528.5802977919614
 20
911.5563994452925
 10
528.6102765413968
 20
911.5611525482616
  0
ARC
  5
1027
330
1F
100
AcDbEntity
  8
SANINDUSA
100
AcDbCircle
 10
528.5012374242089
 20
912.1589222463059
 30
0.0
 40
0.6387300813833905
100
AcDbArc
 50
272.6293166044513
 51
279.2288900544865
  0
LWPOLYLINE
  5
102B
330
1F
100
AcDbEntity
  8
SANINDUSA
100
AcDbPolyline
 90
        7
 70
   128
 43
0.0
 10
528.5211151548788
 20
911.5414305935225
 10
528.5215680796816
 20
911.544137242326
 10
528.52266065621
 20
911.5464769701425
 10
528.5249510970181
 20
911.5489828411561
 10
528.5266998952176
 20
911.5500692401147
 10
528.528623108343
 20
911.5507836258178
 10
528.5305611111628
 20
911.5510983391947
  0
LWPOLYLINE
  5
102D
330
1F
100
AcDbEntity
  8
SANINDUSA
100
AcDbPolyline
 90
        8
 70
   128
 43
0.0
 10
528.5262897094762
 20
911.5160443633566
 10
528.5254156210482
 20
911.5161828049709
 10
528.5244953515088
 20
911.5166613408597
 10
528.5235444631729
 20
911.5174756879456
 10
528.5226338982647
 20
911.5185817445807
 10
528.5213371540571
 20
911.521043992168
 10
528.5206979369304
 20
911.5234982183938
 10
528.5205774219474
 20
911.5256485873176
  0
LWPOLYLINE
  5
102F
330
1F
100
AcDbEntity
  8
SANINDUSA
100
AcDbPolyline
 90
       12
 70
   128
 43
0.0
 10
528.5211151548788
 20
911.5414305935225
 10
528.5170068254674
 20
911.5413730259767
 10
528.5119256832756
 20
911.5413249733597
 10
528.5063617710989
 20
911.5412913847691
 10
528.5004673608425
 20
911.5412715447789
 10
528.4944130845736
 20
911.5412654907675
 10
528.490621674258
 20
911.5412686350589
 10
528.4868765240113
 20
911.5412768255888
 10
528.4810877163559
 20
911.5413004167352
 10
528.4756853262526
 20
911.5413386369608
 10
528.4718882443325
 20
911.5413793482696
 10
528.4684756900403
 20
911.5414284569023
  0
LWPOLYLINE
  5
1030
330
1F
100
AcDbEntity
  8
SANINDUSA
100
AcDbPolyline
 90
        3
 70
   128
 43
0.0
 10
528.4684756900403
 20
911.5414284569023
 10
528.4688160643676
 20
911.5314353356811
 10
528.4689928927276
 20
911.5262484553541
  0
LWPOLYLINE
  5
1033
330
1F
100
AcDbEntity
  8
SANINDUSA
100
AcDbPolyline
 90
        3
 70
   128
 43
0.0
 10
528.5205774219474
 20
911.5256485873176
 10
528.520918028706
 20
911.5356416987474
 10
528.5211151548788
 20
911.5414305935225
  0
LINE
  5
1036
330
1F
100
AcDbEntity
  8
SANINDUSA
100
AcDbLine
 10
528.5298290881454
 20
911.5129410491499
 30
0.0
 11
528.5299443203266
 21
911.5162408670771
 31
0.0
  0
ARC
  5
1037
330
1F
100
AcDbEntity
  8
SANINDUSA
100
AcDbCircle
 10
528.5288296973184
 20
911.5129759486467
 30
0.0
 40
0.0010000000000001
100
AcDbArc
 50
270.0
 51
357.9999999999964
  0
LWPOLYLINE
  5
1038
330
1F
100
AcDbEntity
  8
SANINDUSA
100
AcDbPolyline
 90
       10
 70
   128
 43
0.0
 10
528.5299682658983
 20
911.5162317691028
 10
528.5300720287278
 20
911.5172097747255
 10
528.5304367480184
 20
911.5182445502025
 10
528.5309555912316
 20
911.5190936967026
 10
528.5315656119633
 20
911.5197633079285
 10
528.5322123359609
 20
911.5202645234315
 10
528.5328475229593
 20
911.5206154710495
 10
528.533428245195
 20
911.5208405866781
 10
528.5339168564919
 20
911.5209689724771
 10
528.5342154212435
 20
911.5210199915553
  0
LWPOLYLINE
  5
1039
330
1F
100
AcDbEntity
  8
SANINDUSA
100
AcDbPolyline
 90
        5
 70
   128
 43
0.0
 10
528.5298521556638
 20
911.5162440855382
 10
528.5299125200755
 20
911.5162476810716
 10
528.5291458228195
 20
911.5162024281705
 10
528.527980169086
 20
911.5161359161669
 10
528.5262897094762
 20
911.5160443633566
  0
LWPOLYLINE
  5
103A
330
1F
100
AcDbEntity
  8
SANINDUSA
100
AcDbPolyline
 90
        9
 70
   128
 43
0.0
 10
528.5305386088971
 20
911.5208646020136
 10
528.5297115473883
 20
911.5207395040608
 10
528.5289212605058
 20
911.5204448929727
 10
528.5281952583032
 20
911.5199910242235
 10
528.5275588130706
 20
911.5193936970806
 10
528.5270340796013
 20
911.5186737046281
 10
528.5266393239782
 20
911.5178561099554
 10
528.5263882877282
 20
911.5169693737062
 10
528.5262897094762
 20
911.5160443633566
  0
ARC
  5
1040
330
1F
100
AcDbEntity
  8
SANINDUSA
100
AcDbCircle
 10
528.5956573115802
 20
911.5778129677751
 30
0.0
 40
0.0500000000000004
100
AcDbArc
 50
279.2288900544865
 51
350.0000000000023
  0
LWPOLYLINE
  5
1042
330
1F
100
AcDbEntity
  8
SANINDUSA
100
AcDbPolyline
 90
        9
 70
   128
 43
0.0
 10
528.6102765413968
 20
911.5611525482616
 10
528.6134861476029
 20
911.5618690094708
 10
528.6165983501048
 20
911.5629315000562
 10
528.6211086338644
 20
911.5652167425958
 10
528.6251745781007
 20
911.5682220660152
 10
528.6286744623531
 20
911.5718724136556
 10
528.631516610489
 20
911.5760551413524
 10
528.6336106738586
 20
911.5806581679313
 10
528.6349080727696
 20
911.5855457992525
  0
LINE
  5
104B
330
1F
100
AcDbEntity
  8
SANINDUSA
100
AcDbLine
 10
528.3444915411535
 20
911.6819759486467
 30
0.0
 11
528.645099231033
 21
911.6819759486467
 31
0.0
  0
LINE
  5
104C
330
1F
100
AcDbEntity
  8
SANINDUSA
100
AcDbLine
 10
528.6432747235081
 20
911.6699759486467
 30
0.0
 11
528.3463160486783
 21
911.6699759486467
 31
0.0
  0
LINE
  5
1050
330
1F
100
AcDbEntity
  8
SANINDUSA
100
AcDbLine
 10
528.3536791821354
 20
911.5912370285656
 30
0.0
 11
528.3400868023369
 21
911.668323245002
 31
0.0
  0
ARC
  5
1052
330
1F
100
AcDbEntity
  8
SANINDUSA
100
AcDbCircle
 10
528.328589509124
 20
911.6719759486468
 30
0.0
 40
0.002
100
AcDbArc
 50
189.9999999999977
 51
270.0
  0
LINE
  5
1056
330
1F
100
AcDbEntity
  8
SANINDUSA
100
AcDbLine
 10
528.3463160486783
 20
911.6699759486467
 30
0.0
 11
528.328589509124
 21
911.6699759486467
 31
0.0
  0
ARC
  5
1057
330
1F
100
AcDbEntity
  8
SANINDUSA
100
AcDbCircle
 10
528.3381171868309
 20
911.6679759486467
 30
0.0
 40
0.0020000000000002
100
AcDbArc
 50
10.0000000000316
 51
90.0
  0
LINE
  5
105A
330
1F
100
AcDbEntity
  8
SANINDUSA
100
AcDbLine
 10
528.326619893618
 20
911.6716286522914
 30
0.0
 11
528.3247953860932
 21
911.6819759486467
 31
0.0
  0
LINE
  5
105B
330
1F
100
AcDbEntity
  8
SANINDUSA
100
AcDbLine
 10
528.3247953860932
 20
911.6819759486467
 30
0.0
 11
528.3444915411535
 21
911.6819759486467
 31
0.0
  0
ARC
  5
1061
330
1F
100
AcDbEntity
  8
SANINDUSA
100
AcDbCircle
 10
528.6610012630624
 20
911.6719759486468
 30
0.0
 40
0.002
100
AcDbArc
 50
270.0
 51
350.0000000000023
  0
LINE
  5
1062
330
1F
100
AcDbEntity
  8
SANINDUSA
100
AcDbLine
 10
528.6629708785684
 20
911.6716286522914
 30
0.0
 11
528.6623880460811
 21
911.668323245002
 31
0.0
  0
LINE
  5
1065
330
1F
100
AcDbEntity
  8
SANINDUSA
100
AcDbLine
 10
528.6495039698495
 20
911.668323245002
 30
0.0
 11
528.6359135788126
 21
911.5912483073925
 31
0.0
  0
LWPOLYLINE
  5
106E
330
1F
100
AcDbEntity
  8
SANINDUSA
100
AcDbPolyline
 90
        6
 70
   128
 43
0.0
 10
528.6610012630623
 20
911.6699759486467
 10
528.6614889343145
 20
911.6697978978999
 10
528.6621170848008
 20
911.6691940563889
 10
528.6623953951073
 20
911.6685653127849
 10
528.6623888584272
 20
911.6683279279795
 10
528.6623880460809
 20
911.668323245002
  0
ARC
  5
1071
330
1F
100
AcDbEntity
  8
SANINDUSA
100
AcDbCircle
 10
528.6514735853556
 20
911.6679759486467
 30
0.0
 40
0.0020000000000002
100
AcDbArc
 50
90.0
 51
169.9999999999684
  0
LINE
  5
1072
330
1F
100
AcDbEntity
  8
SANINDUSA
100
AcDbLine
 10
528.6610012630624
 20
911.6699759486467
 30
0.0
 11
528.6432747235081
 21
911.6699759486467
 31
0.0
  0
LINE
  5
1074
330
1F
100
AcDbEntity
  8
SANINDUSA
100
AcDbLine
 10
528.6647953860932
 20
911.6819759486467
 30
0.0
 11
528.6629708785684
 21
911.6716286522914
 31
0.0
  0
LINE
  5
1077
330
1F
100
AcDbEntity
  8
SANINDUSA
100
AcDbLine
 10
528.645099231033
 20
911.6819759486467
 30
0.0
 11
528.6647953860932
 21
911.6819759486467
 31
0.0
  0
LWPOLYLINE
  5
107E
330
1F
100
AcDbEntity
  8
SANINDUSA
100
AcDbPolyline
 90
       37
 70
   128
 43
0.0
 10
527.8701321489138
 20
911.7534078345331
 10
527.8680483707818
 20
911.7534394918051
 10
527.8660279071939
 20
911.7535335017311
 10
527.8641321489138
 20
911.7536870078669
 10
527.8624186975975
 20
911.7538953460064
 10
527.8609396155964
 20
911.7541521859006
 10
527.8597398440685
 20
911.7544497235991
 10
527.8588558374645
 20
911.7547789185698
 10
527.8583144558776
 20
911.7551297683897
 10
527.8581321489139
 20
911.755491612665
 10
527.8583144558776
 20
911.7558534569404
 10
527.8588558374645
 20
911.7562043067605
 10
527.8597398440685
 20
911.7565335017312
 10
527.8609396155964
 20
911.7568310394297
 10
527.8624186975975
 20
911.7570878793239
 10
527.8641321489138
 20
911.7572962174632
 10
527.8660279071939
 20
911.7574497235992
 10
527.8680483707818
 20
911.7575437335251
 10
527.8701321489138
 20
911.7575753907971
 10
527.8722159270459
 20
911.7575437335251
 10
527.8742363906338
 20
911.7574497235992
 10
527.8761321489138
 20
911.7572962174632
 10
527.87784560023
 20
911.7570878793239
 10
527.8793246822313
 20
911.7568310394297
 10
527.8805244537593
 20
911.7565335017312
 10
527.8814084603633
 20
911.7562043067605
 10
527.88194984195
 20
911.7558534569404
 10
527.8821321489139
 20
911.755491612665
 10
527.88194984195
 20
911.7551297683897
 10
527.8814084603633
 20
911.7547789185698
 10
527.8805244537593
 20
911.7544497235991
 10
527.8793246822313
 20
911.7541521859006
 10
527.87784560023
 20
911.7538953460064
 10
527.8761321489138
 20
911.7536870078669
 10
527.8742363906338
 20
911.7535335017311
 10
527.8722159270459
 20
911.7534394918051
 10
527.8701321489138
 20
911.7534078345331
  0
LWPOLYLINE
  5
1080
330
1F
100
AcDbEntity
  8
SANINDUSA
100
AcDbPolyline
 90
       40
 70
   128
 43
0.0
 10
527.87013185129
 20
911.5759041877515
 10
527.8655850836494
 20
911.5761644084827
 10
527.8610978101558
 20
911.5769417748211
 10
527.8548169369688
 20
911.5789776144108
 10
527.8489617456921
 20
911.5820279556947
 10
527.8437171035108
 20
911.5860212518077
 10
527.8392174070058
 20
911.5908383671504
 10
527.8356124651898
 20
911.5963372192705
 10
527.8329793631512
 20
911.6023622472321
 10
527.8314062767083
 20
911.6087519168784
 10
527.8309255397874
 20
911.615314803107
 10
527.8315682747128
 20
911.6218676901024
 10
527.8333007401671
 20
911.6282201165178
 10
527.8360822338615
 20
911.6341735254628
 10
527.8398239849183
 20
911.6395750907763
 10
527.8444257730761
 20
911.6442549345128
 10
527.8497449402008
 20
911.6481004972653
 10
527.8556425622785
 20
911.6509998646439
 10
527.8619376089265
 20
911.6528885191453
 10
527.866014230609
 20
911.653529121572
 10
527.8701352805084
 20
911.6537448712868
 10
527.8767278199961
 20
911.6531933039835
 10
527.883138765613
 20
911.6515617739095
 10
527.8891727482013
 20
911.6488830028293
 10
527.8946761659378
 20
911.6452373868824
 10
527.899468638016
 20
911.6407197228818
 10
527.9034321480123
 20
911.6354599797432
 10
527.9064337064449
 20
911.6296154757549
 10
527.9084148633914
 20
911.6233510208962
 10
527.909304846165
 20
911.6168245726083
 10
527.9090877863872
 20
911.610241213707
 10
527.9077564746622
 20
911.6037956742129
 10
527.9053630836535
 20
911.5976648470248
 10
527.901966100116
 20
911.5920408687475
 10
527.8976742821789
 20
911.5870658605423
 10
527.8925968048581
 20
911.5828897851722
 10
527.8868940401816
 20
911.5796176785682
 10
527.8807179710895
 20
911.5773452807614
 10
527.8742520070102
 20
911.5761189675676
 10
527.87013185129
 20
911.5759041877515
  0
LWPOLYLINE
  5
1083
330
1F
100
AcDbEntity
  8
SANINDUSA
100
AcDbPolyline
 90
       38
 70
   128
 43
0.0
 10
527.8701326736966
 20
911.5913328171126
 10
527.8728051421199
 20
911.5914853310041
 10
527.8766862418063
 20
911.5922677423029
 10
527.8803825452301
 20
911.5936862009387
 10
527.8837857839989
 20
911.5957090858959
 10
527.8868041794563
 20
911.5982710117224
 10
527.8893461756754
 20
911.6013065496803
 10
527.8913465365654
 20
911.604723427582
 10
527.8927403027365
 20
911.6084289008908
 10
527.8934968658451
 20
911.6123148809032
 10
527.8935856042298
 20
911.6162730160217
 10
527.8930132477078
 20
911.6201905515145
 10
527.8917868158347
 20
911.6239549954709
 10
527.8899499846837
 20
911.6274622820755
 10
527.8875465713581
 20
911.630608641119
 10
527.8846522814091
 20
911.6333102561155
 10
527.8813434849203
 20
911.6354833577586
 10
527.8777187313863
 20
911.6370745294146
 10
527.8739763360236
 20
911.6380140985706
 10
527.8701309379273
 20
911.6383328170755
 10
527.8650181188886
 20
911.6377696149848
 10
527.861240823609
 20
911.6365832910792
 10
527.8577142088644
 20
911.63478387635
 10
527.8545426683599
 20
911.6324142534153
 10
527.8518105089837
 20
911.6295490499899
 10
527.8496020572567
 20
911.6262632182955
 10
527.8479722613768
 20
911.6226551814774
 10
527.846975870591
 20
911.6188234960523
 10
527.8466321949182
 20
911.6148793165795
 10
527.8469602676032
 20
911.6109337588598
 10
527.847941511138
 20
911.6070981163948
 10
527.8495571178217
 20
911.6034835074392
 10
527.8517527053812
 20
911.600188840344
 10
527.8544736398035
 20
911.5973128325872
 10
527.857635934516
 20
911.594930690946
 10
527.8611548844148
 20
911.5931176707256
 10
527.8649268380544
 20
911.591916562202
 10
527.8701326736966
 20
911.5913328171126
  0
LINE
  5
1084
330
1F
100
AcDbEntity
  8
SANINDUSA
100
AcDbLine
 10
527.6376321489139
 20
911.7698328171067
 30
0.0
 11
527.870132148914
 21
911.7698328171067
 31
0.0
  0
LINE
  5
1085
330
1F
100
AcDbEntity
  8
SANINDUSA
100
AcDbLine
 10
527.6376321489139
 20
911.4598328171068
 30
0.0
 11
528.1026321489139
 21
911.4598328171068
 31
0.0
  0
LINE
  5
1086
330
1F
100
AcDbEntity
  8
SANINDUSA
100
AcDbLine
 10
528.1027840713838
 20
911.7598328171068
 30
0.0
 11
527.6376321489139
 21
911.7598328171068
 31
0.0
  0
LINE
  5
1087
330
1F
100
AcDbEntity
  8
SANINDUSA
100
AcDbLine
 10
527.637480226444
 20
911.4698328171067
 30
0.0
 11
528.1027840713838
 21
911.4698328171067
 31
0.0
  0
LINE
  5
1088
330
1F
100
AcDbEntity
  8
SANINDUSA
100
AcDbLine
 10
527.6376321489139
 20
911.7748328171067
 30
0.0
 11
528.1026321489139
 21
911.7748328171067
 31
0.0
  0
LINE
  5
1089
330
1F
100
AcDbEntity
  8
SANINDUSA
100
AcDbLine
 10
527.6376321489139
 20
911.4548328171068
 30
0.0
 11
528.1026321489139
 21
911.4548328171068
 31
0.0
  0
LINE
  5
108A
330
1F
100
AcDbEntity
  8
SANINDUSA
100
AcDbLine
 10
527.6223283039741
 20
911.4448328171068
 30
0.0
 11
528.1179359938537
 21
911.4448328171068
 31
0.0
  0
LINE
  5
108B
330
1F
100
AcDbEntity
  8
SANINDUSA
100
AcDbLine
 10
528.1176321489139
 20
911.7848328171067
 30
0.0
 11
527.6223283039741
 21
911.7848328171067
 31
0.0
  0
LWPOLYLINE
  5
108C
330
1F
100
AcDbEntity
  8
SANINDUSA
100
AcDbPolyline
 90
       11
 70
   128
 43
0.0
 10
527.6531899813529
 20
911.7441230621977
 10
527.6877512770766
 20
911.7439406068575
 10
527.7333362392652
 20
911.7436469177432
 10
527.7789242819487
 20
911.7433548033591
 10
527.8245190635904
 20
911.743130908734
 10
527.8701242426533
 20
911.7430418788966
 10
527.9157200130428
 20
911.7431348082384
 10
527.9613049122702
 20
911.7433644253416
 10
528.006883676541
 20
911.7436588261652
 10
528.0524610420605
 20
911.7439461066679
 10
528.0870706210121
 20
911.7441194308499
  0
LWPOLYLINE
  5
108D
330
1F
100
AcDbEntity
  8
SANINDUSA
100
AcDbPolyline
 90
       11
 70
   128
 43
0.0
 10
528.0870719706863
 20
911.4855449178042
 10
528.0525059468506
 20
911.4857300509902
 10
528.0069217009485
 20
911.4860261319611
 10
527.9613342476146
 20
911.4863198859339
 10
527.9157399053042
 20
911.4865454315618
 10
527.8701349924725
 20
911.4866368874968
 10
527.8245369734844
 20
911.486545599879
 10
527.7789500217411
 20
911.4863142234344
 10
527.7333698750347
 20
911.4860138386561
 10
527.6877922711572
 20
911.4857155260368
 10
527.6531821083225
 20
911.4855346989854
  0
LINE
  5
1095
330
1F
100
AcDbEntity
  8
SANINDUSA
100
AcDbLine
 10
527.6176321489138
 20
911.7498328171066
 30
0.0
 11
527.6176321489138
 21
911.4798328171067
 31
0.0
  0
LINE
  5
1096
330
1F
100
AcDbEntity
  8
SANINDUSA
100
AcDbLine
 10
527.6276321489139
 20
911.7498328171066
 30
0.0
 11
527.6276321489139
 21
911.4796808946369
 31
0.0
  0
LINE
  5
1097
330
1F
100
AcDbEntity
  8
SANINDUSA
100
AcDbLine
 10
527.6126321489138
 20
911.7498328171066
 30
0.0
 11
527.6126321489138
 21
911.4798328171067
 31
0.0
  0
LINE
  5
1098
330
1F
100
AcDbEntity
  8
SANINDUSA
100
AcDbLine
 10
527.6026321489139
 20
911.7651366620465
 30
0.0
 11
527.6026321489139
 21
911.464528972167
 31
0.0
  0
LWPOLYLINE
  5
1099
330
1F
100
AcDbEntity
  8
SANINDUSA
100
AcDbPolyline
 90
        7
 70
   128
 43
0.0
 10
527.6433335202527
 20
911.4953822659758
 10
527.643473830145
 20
911.523645874
 10
527.643678589504
 20
911.5692279614483
 10
527.6437557209902
 20
911.6148321998352
 10
527.6437220228822
 20
911.6446953034245
 10
527.6436282340729
 20
911.6745543869479
 10
527.6433403400729
 20
911.7342765484176
  0
LWPOLYLINE
  5
109B
330
1F
100
AcDbEntity
  8
SANINDUSA
100
AcDbPolyline
 90
        9
 70
   128
 43
0.0
 10
527.637480226444
 20
911.4698328171067
 10
527.6355433292422
 20
911.4700205313308
 10
527.6336893644955
 20
911.4705767337419
 10
527.6319868778869
 20
911.4714808601545
 10
527.6304988145763
 20
911.4726994827693
 10
527.6292801919616
 20
911.4741875460799
 10
527.6283760655489
 20
911.4758900326885
 10
527.6278198631379
 20
911.4777439974352
 10
527.6276321489139
 20
911.4796808946369
  0
LINE
  5
109C
330
1F
100
AcDbEntity
  8
SANINDUSA
100
AcDbLine
 10
527.6276321489139
 20
911.4796808946369
 30
0.0
 11
527.6433335202528
 21
911.4953822659757
 31
0.0
  0
ARC
  5
109D
330
1F
100
AcDbEntity
  8
SANINDUSA
100
AcDbCircle
 10
527.6376321489139
 20
911.4798328171067
 30
0.0
 40
0.0199999999999999
100
AcDbArc
 50
180.0
 51
270.0
  0
ARC
  5
109E
330
1F
100
AcDbEntity
  8
SANINDUSA
100
AcDbCircle
 10
527.6376321489139
 20
911.4798328171067
 30
0.0
 40
0.0250000000000001
100
AcDbArc
 50
180.0
 51
270.0
  0
LWPOLYLINE
  5
109F
330
1F
100
AcDbEntity
  8
SANINDUSA
100
AcDbPolyline
 90
       12
 70
   128
 43
0.0
 10
527.6026321489139
 20
911.464528972167
 10
527.6028310120881
 20
911.4617011754827
 10
527.6034237070347
 20
911.4589407518497
 10
527.6043986262975
 20
911.4563017619556
 10
527.6057366768632
 20
911.453835888305
 10
527.6074116540824
 20
911.4515914230599
 10
527.609390754867
 20
911.4496123222753
 10
527.6116352201122
 20
911.4479373450562
 10
527.6141010937626
 20
911.4465992944905
 10
527.6167400836567
 20
911.4456243752277
 10
527.6195005072897
 20
911.4450316802809
 10
527.622328303974
 20
911.4448328171068
  0
LWPOLYLINE
  5
10A2
330
1F
100
AcDbEntity
  8
SANINDUSA
100
AcDbPolyline
 90
        9
 70
   128
 43
0.0
 10
527.6531815977829
 20
911.4855341884457
 10
527.6512959010196
 20
911.4857731031083
 10
527.649479923151
 20
911.4863672923972
 10
527.6478008053909
 20
911.4872947876586
 10
527.6463206288948
 20
911.4885212970877
 10
527.6450941194657
 20
911.4900014735839
 10
527.6441666242044
 20
911.491680591344
 10
527.6435724349153
 20
911.4934965692127
 10
527.6433335202527
 20
911.4953822659758
  0
LINE
  5
10A3
330
1F
100
AcDbEntity
  8
SANINDUSA
100
AcDbLine
 10
527.653181597783
 20
911.4855341884457
 30
0.0
 11
527.637480226444
 21
911.4698328171067
 31
0.0
  0
ARC
  5
10AC
330
1F
100
AcDbEntity
  8
SANINDUSA
100
AcDbCircle
 10
527.6376321489139
 20
911.7498328171066
 30
0.0
 40
0.01
100
AcDbArc
 50
90.0
 51
180.0
  0
LINE
  5
10AD
330
1F
100
AcDbEntity
  8
SANINDUSA
100
AcDbLine
 10
527.6433403400729
 20
911.7342765484174
 30
0.0
 11
527.6276321489139
 21
911.7499847395766
 31
0.0
  0
ARC
  5
10AE
330
1F
100
AcDbEntity
  8
SANINDUSA
100
AcDbCircle
 10
527.6376321489139
 20
911.7498328171066
 30
0.0
 40
0.0200000000000003
100
AcDbArc
 50
90.0
 51
180.0
  0
ARC
  5
10AF
330
1F
100
AcDbEntity
  8
SANINDUSA
100
AcDbCircle
 10
527.6376321489139
 20
911.7498328171066
 30
0.0
 40
0.025
100
AcDbArc
 50
90.0
 51
180.0
  0
LWPOLYLINE
  5
10B5
330
1F
100
AcDbEntity
  8
SANINDUSA
100
AcDbPolyline
 90
       12
 70
   128
 43
0.0
 10
527.622328303974
 20
911.7848328171067
 10
527.6195005072897
 20
911.7846339539326
 10
527.6167400836567
 20
911.784041258986
 10
527.6141010937626
 20
911.783066339723
 10
527.6116352201122
 20
911.7817282891573
 10
527.609390754867
 20
911.7800533119382
 10
527.6074116540824
 20
911.7780742111536
 10
527.6057366768632
 20
911.7758297459085
 10
527.6043986262975
 20
911.773363872258
 10
527.6034237070347
 20
911.7707248823638
 10
527.6028310120881
 20
911.767964458731
 10
527.6026321489139
 20
911.7651366620465
  0
LWPOLYLINE
  5
10BD
330
1F
100
AcDbEntity
  8
SANINDUSA
100
AcDbPolyline
 90
        9
 70
   128
 43
0.0
 10
527.6433403400729
 20
911.7342765484176
 10
527.6435792547355
 20
911.7361622451808
 10
527.6441734440245
 20
911.7379782230493
 10
527.6451009392858
 20
911.7396573408095
 10
527.646327448715
 20
911.7411375173055
 10
527.6478076252111
 20
911.7423640267347
 10
527.6494867429712
 20
911.7432915219961
 10
527.6513027208399
 20
911.7438857112851
 10
527.6531884176031
 20
911.7441246259476
  0
LINE
  5
10BE
330
1F
100
AcDbEntity
  8
SANINDUSA
100
AcDbLine
 10
527.637480226444
 20
911.7598328171068
 30
0.0
 11
527.6531884176031
 21
911.7441246259476
 31
0.0
  0
LINE
  5
10C4
330
1F
100
AcDbEntity
  8
SANINDUSA
100
AcDbLine
 10
528.1226321489139
 20
911.4798328171067
 30
0.0
 11
528.1226321489139
 21
911.7498328171066
 31
0.0
  0
LINE
  5
10C5
330
1F
100
AcDbEntity
  8
SANINDUSA
100
AcDbLine
 10
528.1126321489138
 20
911.4796808946369
 30
0.0
 11
528.1126321489138
 21
911.7499847395766
 31
0.0
  0
LINE
  5
10C6
330
1F
100
AcDbEntity
  8
SANINDUSA
100
AcDbLine
 10
528.1276321489139
 20
911.4798328171067
 30
0.0
 11
528.1276321489139
 21
911.7498328171066
 31
0.0
  0
LINE
  5
10C7
330
1F
100
AcDbEntity
  8
SANINDUSA
100
AcDbLine
 10
528.1376321489139
 20
911.464528972167
 30
0.0
 11
528.1376321489139
 21
911.7648328171068
 31
0.0
  0
LWPOLYLINE
  5
10C8
330
1F
100
AcDbEntity
  8
SANINDUSA
100
AcDbPolyline
 90
        7
 70
   128
 43
0.0
 10
528.0969249642772
 20
911.7342775549401
 10
528.0967743251966
 20
911.7060296728045
 10
528.0965653603406
 20
911.6604480508646
 10
528.0964909326203
 20
911.6148421236211
 10
528.0965281785283
 20
911.5849769403673
 10
528.0966257063351
 20
911.5551160571135
 10
528.0969223435375
 20
911.4953907000131
  0
LINE
  5
10CA
330
1F
100
AcDbEntity
  8
SANINDUSA
100
AcDbLine
 10
528.1027840713838
 20
911.4698328171067
 30
0.0
 11
528.0870742660075
 21
911.485542622483
 31
0.0
  0
LINE
  5
10CB
330
1F
100
AcDbEntity
  8
SANINDUSA
100
AcDbLine
 10
528.0969223435376
 20
911.4953907000131
 30
0.0
 11
528.1126321489138
 21
911.4796808946369
 31
0.0
  0
LWPOLYLINE
  5
10CD
330
1F
100
AcDbEntity
  8
SANINDUSA
100
AcDbPolyline
 90
        9
 70
   128
 43
0.0
 10
528.0969223435375
 20
911.4953907000131
 10
528.0966834288752
 20
911.4935050032498
 10
528.096089239586
 20
911.4916890253812
 10
528.0951617443247
 20
911.490009907621
 10
528.0939352348955
 20
911.4885297311252
 10
528.0924550583995
 20
911.4873032216959
 10
528.0907759406393
 20
911.4863757264346
 10
528.0889599627707
 20
911.4857815371454
 10
528.0870742660075
 20
911.4855426224831
  0
ARC
  5
10D2
330
1F
100
AcDbEntity
  8
SANINDUSA
100
AcDbCircle
 10
528.1026321489139
 20
911.4798328171067
 30
0.0
 40
0.0250000000000001
100
AcDbArc
 50
270.0
 51
0.0
  0
LWPOLYLINE
  5
10D3
330
1F
100
AcDbEntity
  8
SANINDUSA
100
AcDbPolyline
 90
       12
 70
   128
 43
0.0
 10
528.1179359938536
 20
911.4448328171068
 10
528.120763790538
 20
911.4450316802809
 10
528.1235242141709
 20
911.4456243752277
 10
528.126163204065
 20
911.4465992944905
 10
528.1286290777155
 20
911.4479373450562
 10
528.1308735429607
 20
911.4496123222753
 10
528.1328526437452
 20
911.4515914230599
 10
528.1345276209645
 20
911.453835888305
 10
528.1358656715301
 20
911.4563017619556
 10
528.1368405907929
 20
911.4589407518497
 10
528.1374332857397
 20
911.4617011754827
 10
528.1376321489139
 20
911.464528972167
  0
LWPOLYLINE
  5
10D5
330
1F
100
AcDbEntity
  8
SANINDUSA
100
AcDbPolyline
 90
        9
 70
   128
 43
0.0
 10
528.1126321489138
 20
911.4796808946369
 10
528.1124444346898
 20
911.4777439974352
 10
528.1118882322788
 20
911.4758900326885
 10
528.1109841058661
 20
911.4741875460799
 10
528.1097654832514
 20
911.4726994827693
 10
528.1082774199408
 20
911.4714808601545
 10
528.1065749333321
 20
911.4705767337419
 10
528.1047209685854
 20
911.4700205313308
 10
528.1027840713838
 20
911.4698328171067
  0
ARC
  5
10D7
330
1F
100
AcDbEntity
  8
SANINDUSA
100
AcDbCircle
 10
528.1026321489139
 20
911.4798328171067
 30
0.0
 40
0.0200000000000001
100
AcDbArc
 50
270.0
 51
0.0
  0
LINE
  5
10D8
330
1F
100
AcDbEntity
  8
SANINDUSA
100
AcDbLine
 10
528.0870768867472
 20
911.7441256324701
 30
0.0
 11
528.1027840713838
 21
911.7598328171068
 31
0.0
  0
LINE
  5
10D9
330
1F
100
AcDbEntity
  8
SANINDUSA
100
AcDbLine
 10
528.1126321489138
 20
911.7499847395766
 30
0.0
 11
528.0969249642773
 21
911.7342775549401
 31
0.0
  0
LINE
  5
10DA
330
1F
100
AcDbEntity
  8
SANINDUSA
100
AcDbLine
 10
528.1026321489139
 20
911.7698328171067
 30
0.0
 11
527.870132148914
 21
911.7698328171067
 31
0.0
  0
LWPOLYLINE
  5
10E1
330
1F
100
AcDbEntity
  8
SANINDUSA
100
AcDbPolyline
 90
        9
 70
   128
 43
0.0
 10
528.0870768867471
 20
911.7441256324701
 10
528.0889625835104
 20
911.7438867178076
 10
528.090778561379
 20
911.7432925285186
 10
528.0924576791392
 20
911.7423650332574
 10
528.0939378556352
 20
911.741138523828
 10
528.0951643650644
 20
911.739658347332
 10
528.0960918603256
 20
911.737979229572
 10
528.0966860496147
 20
911.7361632517033
 10
528.0969249642772
 20
911.7342775549401
  0
ARC
  5
10EC
330
1F
100
AcDbEntity
  8
SANINDUSA
100
AcDbCircle
 10
528.1176321489139
 20
911.7648328171068
 30
0.0
 40
0.02
100
AcDbArc
 50
0.0
 51
90.0
  0
ARC
  5
10EE
330
1F
100
AcDbEntity
  8
SANINDUSA
100
AcDbCircle
 10
528.1026321489139
 20
911.7498328171066
 30
0.0
 40
0.0199999999999999
100
AcDbArc
 50
0.0
 51
90.0
  0
ARC
  5
10EF
330
1F
100
AcDbEntity
  8
SANINDUSA
100
AcDbCircle
 10
528.1026321489139
 20
911.7498328171066
 30
0.0
 40
0.025
100
AcDbArc
 50
0.0
 51
90.0
  0
LWPOLYLINE
  5
10F1
330
1F
100
AcDbEntity
  8
SANINDUSA
100
AcDbPolyline
 90
        9
 70
   128
 43
0.0
 10
528.1027840713838
 20
911.7598328171068
 10
528.1047209685854
 20
911.7596451028827
 10
528.1065749333321
 20
911.7590889004716
 10
528.1082774199408
 20
911.758184774059
 10
528.1097654832514
 20
911.7569661514442
 10
528.1109841058661
 20
911.7554780881336
 10
528.1118882322788
 20
911.753775601525
 10
528.1124444346898
 20
911.7519216367783
 10
528.1126321489138
 20
911.7499847395766
  0
ENDSEC
  0
SECTION
  2
OBJECTS
  0
DICTIONARY
  5
C
330
0
100
AcDbDictionary
281
     1
  3
ACAD_COLOR
350
125D
  3
ACAD_GROUP
350
D
  3
ACAD_LAYOUT
350
1A
  3
ACAD_MATERIAL
350
1230
  3
ACAD_MLEADERSTYLE
350
1272
  3
ACAD_MLINESTYLE
350
17
  3
ACAD_PLOTSETTINGS
350
19
  3
ACAD_PLOTSTYLENAME
350
E
  3
ACAD_SCALELIST
350
1260
  3
ACAD_TABLESTYLE
350
125E
  3
ACAD_VISUALSTYLE
350
1249
  3
ACDB_RECOMPOSE_DATA
350
129F
  3
AcDbVariableDictionary
350
3D
  3
ASE_INDEX_DICTIONARY
350
122B
  3
DWGPROPS
350
12A0
  0
DICTIONARY
  5
1279
330
10
100
AcDbDictionary
280
     1
281
     1
  3
ADSK_XREC_LAYER_RECONCILED
360
127A
  0
DICTIONARY
  5
127B
330
2F
100
AcDbDictionary
280
     1
281
     1
  3
ADSK_XREC_LAYER_RECONCILED
360
127C
  0
DICTIONARY
  5
127D
330
30
100
AcDbDictionary
280
     1
281
     1
  3
ADSK_XREC_LAYER_RECONCILED
360
127E
  0
DICTIONARY
  5
127F
330
31
100
AcDbDictionary
280
     1
281
     1
  3
ADSK_XREC_LAYER_RECONCILED
360
1280
  0
DICTIONARY
  5
1281
330
32
100
AcDbDictionary
280
     1
281
     1
  3
ADSK_XREC_LAYER_RECONCILED
360
1282
  0
DICTIONARY
  5
1283
330
33
100
AcDbDictionary
280
     1
281
     1
  3
ADSK_XREC_LAYER_RECONCILED
360
1284
  0
DICTIONARY
  5
1285
330
34
100
AcDbDictionary
280
     1
281
     1
  3
ADSK_XREC_LAYER_RECONCILED
360
1286
  0
DICTIONARY
  5
1287
330
35
100
AcDbDictionary
280
     1
281
     1
  3
ADSK_XREC_LAYER_RECONCILED
360
1288
  0
DICTIONARY
  5
1289
330
36
100
AcDbDictionary
280
     1
281
     1
  3
ADSK_XREC_LAYER_RECONCILED
360
128A
  0
DICTIONARY
  5
128B
330
37
100
AcDbDictionary
280
     1
281
     1
  3
ADSK_XREC_LAYER_RECONCILED
360
128C
  0
DICTIONARY
  5
128D
330
5D6
100
AcDbDictionary
280
     1
281
     1
  3
ADSK_XREC_LAYER_RECONCILED
360
128E
  0
DICTIONARY
  5
128F
330
8AF
100
AcDbDictionary
280
     1
281
     1
  3
ADSK_XREC_LAYER_RECONCILED
360
1290
  0
DICTIONARY
  5
1291
330
8F8
100
AcDbDictionary
280
     1
281
     1
  3
ADSK_XREC_LAYER_RECONCILED
360
1292
  0
DICTIONARY
  5
1293
330
91D
100
AcDbDictionary
280
     1
281
     1
  3
ADSK_XREC_LAYER_RECONCILED
360
1294
  0
DICTIONARY
  5
1295
330
BA5
100
AcDbDictionary
280
     1
281
     1
  3
ADSK_XREC_LAYER_RECONCILED
360
1296
  0
DICTIONARY
  5
125D
102
{ACAD_REACTORS
330
C
102
}
330
C
100
AcDbDictionary
281
     1
  0
DICTIONARY
  5
D
102
{ACAD_REACTORS
330
C
102
}
330
C
100
AcDbDictionary
281
     1
  0
DICTIONARY
  5
1A
102
{ACAD_REACTORS
330
C
102
}
330
C
100
AcDbDictionary
281
     1
  3
Layout1
350
1E
  3
Layout2
350
26
  3
Model
350
22
  0
DICTIONARY
  5
1230
102
{ACAD_REACTORS
330
C
102
}
330
C
100
AcDbDictionary
281
     1
  3
ByBlock
350
1239
  3
ByLayer
350
1231
  3
Global
350
1241
  0
DICTIONARY
  5
1272
102
{ACAD_REACTORS
330
C
102
}
330
C
100
AcDbDictionary
281
     1
  3
Standard
350
1273
  0
DICTIONARY
  5
17
102
{ACAD_REACTORS
330
C
102
}
330
C
100
AcDbDictionary
281
     1
  3
Standard
350
18
  0
DICTIONARY
  5
19
102
{ACAD_REACTORS
330
C
102
}
330
C
100
AcDbDictionary
281
     1
  0
ACDBDICTIONARYWDFLT
  5
E
102
{ACAD_REACTORS
330
C
102
}
330
C
100
AcDbDictionary
281
     1
  3
Normal
350
F
100
AcDbDictionaryWithDefault
340
F
  0
DICTIONARY
  5
1260
102
{ACAD_REACTORS
330
C
102
}
330
C
100
AcDbDictionary
281
     1
  3
A0
350
1261
  3
A1
350
1262
  3
A2
350
1263
  3
A3
350
1264
  3
A4
350
1265
  3
A5
350
1266
  3
A6
350
1267
  3
A7
350
1268
  3
A8
350
1269
  3
A9
350
126A
  3
B0
350
126B
  3
B1
350
126C
  3
B2
350
126D
  3
B3
350
126E
  3
B4
350
126F
  3
B5
350
1270
  3
B6
350
1271
  0
DICTIONARY
  5
125E
102
{ACAD_REACTORS
330
C
102
}
330
C
100
AcDbDictionary
281
     1
  3
Standard
350
125F
  0
DICTIONARY
  5
1249
102
{ACAD_REACTORS
330
C
102
}
330
C
100
AcDbDictionary
281
     1
  3
2dWireframe
350
124F
  3
3D Hidden
350
1251
  3
3dWireframe
350
1250
  3
Basic
350
124E
  3
Brighten
350
1255
  3
ColorChange
350
1259
  3
Conceptual
350
1252
  3
Dim
350
1254
  3
EdgeColorOff
350
125C
  3
Facepattern
350
1258
  3
Flat
350
124A
  3
FlatWithEdges
350
124B
  3
Gouraud
350
124C
  3
GouraudWithEdges
350
124D
  3
JitterOff
350
125A
  3
Linepattern
350
1257
  3
OverhangOff
350
125B
  3
Realistic
350
1253
  3
Thicken
350
1256
  0
XRECORD
  5
129F
102
{ACAD_REACTORS
330
C
102
}
330
C
100
AcDbXrecord
280
     1
 90
        1
330
125F
  0
DICTIONARY
  5
3D
102
{ACAD_REACTORS
330
C
102
}
330
C
100
AcDbDictionary
281
     1
  3
CANNOSCALE
350
1299
  3
CMLEADERSTYLE
350
1298
  3
CTABLESTYLE
350
1297
  3
DIMASSOC
350
3F
  3
HIDETEXT
350
3E
  3
INDEXCTL
350
129B
  3
SORTENTS
350
129A
  3
XCLIPFRAME
350
129C
  0
DICTIONARY
  5
122B
102
{ACAD_REACTORS
330
C
102
}
330
C
100
AcDbDictionary
281
     1
  3
ASEBlockHierarchyIndexRecord
350
122C
1001
DCO15
1040
1528707515.0
  0
XRECORD
  5
12A0
102
{ACAD_REACTORS
330
C
102
}
330
C
100
AcDbXrecord
280
     1
  1
DWGPROPS COOKIE
  2

  3

  4

  6

  7

  8
Julio
  9

300
=
301
=
302
=
303
=
304
=
305
=
306
=
307
=
308
=
309
=
 40
0.0048291087962963
 41
2453496.581347292
 42
2456140.448346169
  1

 90
        0
  0
XRECORD
  5
127A
102
{ACAD_REACTORS
330
1279
102
}
330
1279
100
AcDbXrecord
280
     1
290
     1
  0
XRECORD
  5
127C
102
{ACAD_REACTORS
330
127B
102
}
330
127B
100
AcDbXrecord
280
     1
290
     1
  0
XRECORD
  5
127E
102
{ACAD_REACTORS
330
127D
102
}
330
127D
100
AcDbXrecord
280
     1
290
     1
  0
XRECORD
  5
1280
102
{ACAD_REACTORS
330
127F
102
}
330
127F
100
AcDbXrecord
280
     1
290
     1
  0
XRECORD
  5
1282
102
{ACAD_REACTORS
330
1281
102
}
330
1281
100
AcDbXrecord
280
     1
290
     1
  0
XRECORD
  5
1284
102
{ACAD_REACTORS
330
1283
102
}
330
1283
100
AcDbXrecord
280
     1
290
     1
  0
XRECORD
  5
1286
102
{ACAD_REACTORS
330
1285
102
}
330
1285
100
AcDbXrecord
280
     1
290
     1
  0
XRECORD
  5
1288
102
{ACAD_REACTORS
330
1287
102
}
330
1287
100
AcDbXrecord
280
     1
290
     1
  0
XRECORD
  5
128A
102
{ACAD_REACTORS
330
1289
102
}
330
1289
100
AcDbXrecord
280
     1
290
     1
  0
XRECORD
  5
128C
102
{ACAD_REACTORS
330
128B
102
}
330
128B
100
AcDbXrecord
280
     1
290
     1
  0
XRECORD
  5
128E
102
{ACAD_REACTORS
330
128D
102
}
330
128D
100
AcDbXrecord
280
     1
290
     1
  0
XRECORD
  5
1290
102
{ACAD_REACTORS
330
128F
102
}
330
128F
100
AcDbXrecord
280
     1
290
     1
  0
XRECORD
  5
1292
102
{ACAD_REACTORS
330
1291
102
}
330
1291
100
AcDbXrecord
280
     1
290
     1
  0
XRECORD
  5
1294
102
{ACAD_REACTORS
330
1293
102
}
330
1293
100
AcDbXrecord
280
     1
290
     1
  0
XRECORD
  5
1296
102
{ACAD_REACTORS
330
1295
102
}
330
1295
100
AcDbXrecord
280
     1
290
     1
  0
LAYOUT
  5
1E
102
{ACAD_XDICTIONARY
360
12A1
102
}
102
{ACAD_REACTORS
330
1A
102
}
330
1A
100
AcDbPlotSettings
  1

  2
Ploter HP500
  4

  6

 40
0.0
 41
0.0
 42
0.0
 43
0.0
 44
0.0
 45
0.0
 46
0.0
 47
0.0
 48
0.0
 49
0.0
140
0.0
141
0.0
142
1.0
143
1.0
 70
   688
 72
     0
 73
     0
 74
     5
  7
monochrome.ctb
 75
    16
147
1.0
148
0.0
149
0.0
100
AcDbLayout
  1
Layout1
 70
     1
 71
     1
 10
0.0
 20
0.0
 11
420.0
 21
297.0
 12
0.0
 22
0.0
 32
0.0
 14
1.000000000000000E+20
 24
1.000000000000000E+20
 34
1.000000000000000E+20
 15
-1.000000000000000E+20
 25
-1.000000000000000E+20
 35
-1.000000000000000E+20
146
0.0
 13
0.0
 23
0.0
 33
0.0
 16
1.0
 26
0.0
 36
0.0
 17
0.0
 27
1.0
 37
0.0
 76
     0
330
1B
  0
LAYOUT
  5
26
102
{ACAD_XDICTIONARY
360
12A5
102
}
102
{ACAD_REACTORS
330
1A
102
}
330
1A
100
AcDbPlotSettings
  1

  2
Ploter HP500
  4

  6

 40
0.0
 41
0.0
 42
0.0
 43
0.0
 44
0.0
 45
0.0
 46
0.0
 47
0.0
 48
0.0
 49
0.0
140
0.0
141
0.0
142
1.0
143
1.0
 70
   688
 72
     0
 73
     0
 74
     5
  7
monochrome.ctb
 75
    16
147
1.0
148
0.0
149
0.0
100
AcDbLayout
  1
Layout2
 70
     1
 71
     2
 10
0.0
 20
0.0
 11
12.0
 21
9.0
 12
0.0
 22
0.0
 32
0.0
 14
0.0
 24
0.0
 34
0.0
 15
0.0
 25
0.0
 35
0.0
146
0.0
 13
0.0
 23
0.0
 33
0.0
 16
1.0
 26
0.0
 36
0.0
 17
0.0
 27
1.0
 37
0.0
 76
     0
330
23
  0
LAYOUT
  5
22
102
{ACAD_XDICTIONARY
360
12A3
102
}
102
{ACAD_REACTORS
330
1A
102
}
330
1A
100
AcDbPlotSettings
  1

  2
Ploter HP500
  4
User268
  6

 40
4.995333194732666
 41
16.97565841674804
 42
4.995330810546875
 43
16.97567749023437
 44
209.9733276367187
 45
296.9259948730469
 46
0.0
 47
0.0
 48
0.0
 49
0.0
140
0.0
141
0.0
142
1.0
143
1.0
 70
 11952
 72
     1
 73
     1
 74
     0
  7

 75
     0
147
1.0
148
-427.5957866592534
149
7.362384574453926
100
AcDbLayout
  1
Model
 70
     1
 71
     0
 10
0.0
 20
0.0
 11
12.0
 21
9.0
 12
0.0
 22
0.0
 32
0.0
 14
0.0
 24
0.0
 34
0.0
 15
0.0
 25
0.0
 35
0.0
146
0.0
 13
0.0
 23
0.0
 33
0.0
 16
1.0
 26
0.0
 36
0.0
 17
0.0
 27
1.0
 37
0.0
 76
     0
330
1F
331
122E
  0
MATERIAL
  5
1239
102
{ACAD_XDICTIONARY
360
123A
102
}
102
{ACAD_REACTORS
330
1230
102
}
330
1230
100
AcDbMaterial
  1
ByBlock
 72
     0
 43
0.0008202099737533
 43
0.0
 43
0.0
 43
0.0
 43
0.0
 43
0.0008202099737533
 43
0.0
 43
0.0
 43
0.0
 43
0.0
 43
1.0
 43
0.0
 43
0.0
 43
0.0
 43
0.0
 43
1.0
 77
     0
 47
0.0008202099737533
 47
0.0
 47
0.0
 47
0.0
 47
0.0
 47
0.0008202099737533
 47
0.0
 47
0.0
 47
0.0
 47
0.0
 47
1.0
 47
0.0
 47
0.0
 47
0.0
 47
0.0
 47
1.0
171
     0
 49
0.0008202099737533
 49
0.0
 49
0.0
 49
0.0
 49
0.0
 49
0.0008202099737533
 49
0.0
 49
0.0
 49
0.0
 49
0.0
 49
1.0
 49
0.0
 49
0.0
 49
0.0
 49
0.0
 49
1.0
175
     0
142
0.0008202099737533
142
0.0
142
0.0
142
0.0
142
0.0
142
0.0008202099737533
142
0.0
142
0.0
142
0.0
142
0.0
142
1.0
142
0.0
142
0.0
142
0.0
142
0.0
142
1.0
179
     0
144
0.0008202099737533
144
0.0
144
0.0
144
0.0
144
0.0
144
0.0008202099737533
144
0.0
144
0.0
144
0.0
144
0.0
144
1.0
144
0.0
144
0.0
144
0.0
144
0.0
144
1.0
147
0.0008202099737533
147
0.0
147
0.0
147
0.0
147
0.0
147
0.0008202099737533
147
0.0
147
0.0
147
0.0
147
0.0
147
1.0
147
0.0
147
0.0
147
0.0
147
0.0
147
1.0
  0
MATERIAL
  5
1231
102
{ACAD_XDICTIONARY
360
1232
102
}
102
{ACAD_REACTORS
330
1230
102
}
330
1230
100
AcDbMaterial
  1
ByLayer
 72
     0
 43
0.0008202099737533
 43
0.0
 43
0.0
 43
0.0
 43
0.0
 43
0.0008202099737533
 43
0.0
 43
0.0
 43
0.0
 43
0.0
 43
1.0
 43
0.0
 43
0.0
 43
0.0
 43
0.0
 43
1.0
 77
     0
 47
0.0008202099737533
 47
0.0
 47
0.0
 47
0.0
 47
0.0
 47
0.0008202099737533
 47
0.0
 47
0.0
 47
0.0
 47
0.0
 47
1.0
 47
0.0
 47
0.0
 47
0.0
 47
0.0
 47
1.0
171
     0
 49
0.0008202099737533
 49
0.0
 49
0.0
 49
0.0
 49
0.0
 49
0.0008202099737533
 49
0.0
 49
0.0
 49
0.0
 49
0.0
 49
1.0
 49
0.0
 49
0.0
 49
0.0
 49
0.0
 49
1.0
175
     0
142
0.0008202099737533
142
0.0
142
0.0
142
0.0
142
0.0
142
0.0008202099737533
142
0.0
142
0.0
142
0.0
142
0.0
142
1.0
142
0.0
142
0.0
142
0.0
142
0.0
142
1.0
179
     0
144
0.0008202099737533
144
0.0
144
0.0
144
0.0
144
0.0
144
0.0008202099737533
144
0.0
144
0.0
144
0.0
144
0.0
144
1.0
144
0.0
144
0.0
144
0.0
144
0.0
144
1.0
147
0.0008202099737533
147
0.0
147
0.0
147
0.0
147
0.0
147
0.0008202099737533
147
0.0
147
0.0
147
0.0
147
0.0
147
1.0
147
0.0
147
0.0
147
0.0
147
0.0
147
1.0
  0
MATERIAL
  5
1241
102
{ACAD_XDICTIONARY
360
1242
102
}
102
{ACAD_REACTORS
330
1230
102
}
330
1230
100
AcDbMaterial
  1
Global
 72
     0
 43
0.0008202099737533
 43
0.0
 43
0.0
 43
0.0
 43
0.0
 43
0.0008202099737533
 43
0.0
 43
0.0
 43
0.0
 43
0.0
 43
1.0
 43
0.0
 43
0.0
 43
0.0
 43
0.0
 43
1.0
 77
     0
 47
0.0008202099737533
 47
0.0
 47
0.0
 47
0.0
 47
0.0
 47
0.0008202099737533
 47
0.0
 47
0.0
 47
0.0
 47
0.0
 47
1.0
 47
0.0
 47
0.0
 47
0.0
 47
0.0
 47
1.0
171
     0
 49
0.0008202099737533
 49
0.0
 49
0.0
 49
0.0
 49
0.0
 49
0.0008202099737533
 49
0.0
 49
0.0
 49
0.0
 49
0.0
 49
1.0
 49
0.0
 49
0.0
 49
0.0
 49
0.0
 49
1.0
175
     0
142
0.0008202099737533
142
0.0
142
0.0
142
0.0
142
0.0
142
0.0008202099737533
142
0.0
142
0.0
142
0.0
142
0.0
142
1.0
142
0.0
142
0.0
142
0.0
142
0.0
142
1.0
179
     0
144
0.0008202099737533
144
0.0
144
0.0
144
0.0
144
0.0
144
0.0008202099737533
144
0.0
144
0.0
144
0.0
144
0.0
144
1.0
144
0.0
144
0.0
144
0.0
144
0.0
144
1.0
147
0.0008202099737533
147
0.0
147
0.0
147
0.0
147
0.0
147
0.0008202099737533
147
0.0
147
0.0
147
0.0
147
0.0
147
1.0
147
0.0
147
0.0
147
0.0
147
0.0
147
1.0
  0
MLEADERSTYLE
  5
1273
102
{ACAD_REACTORS
330
1272
102
}
330
1272
100
AcDbMLeaderStyle
170
     2
171
     1
172
     0
 90
        2
 40
0.0
 41
0.0
173
     1
 91
-1056964608
340
14
 92
       -2
290
     1
 42
2.0
291
     1
 43
0.36
  3
Standard
 44
4.0
300

342
11
174
     1
178
     6
175
     1
176
     0
 93
-1056964608
 45
4.0
292
     0
297
     0
 46
4.0
 94
-1056964608
 47
1.0
 49
1.0
140
1.0
293
     1
141
0.0
294
     1
177
     0
142
1.0
295
     0
296
     0
143
0.125
1001
ACAD_MLEADERVER
1070
     2
  0
MLINESTYLE
  5
18
102
{ACAD_REACTORS
330
17
102
}
330
17
100
AcDbMlineStyle
  2
STANDARD
 70
     0
  3

 62
   256
 51
90.0
 52
90.0
 71
     2
 49
0.5
 62
   256
  6
BYLAYER
 49
-0.5
 62
   256
  6
BYLAYER
  0
ACDBPLACEHOLDER
  5
F
102
{ACAD_REACTORS
330
E
102
}
330
E
  0
SCALE
  5
1261
102
{ACAD_REACTORS
330
1260
102
}
330
1260
100
AcDbScale
 70
     0
300
1:1
140
1.0
141
1.0
290
     1
  0
SCALE
  5
1262
102
{ACAD_REACTORS
330
1260
102
}
330
1260
100
AcDbScale
 70
     0
300
1:2
140
1.0
141
2.0
290
     0
  0
SCALE
  5
1263
102
{ACAD_REACTORS
330
1260
102
}
330
1260
100
AcDbScale
 70
     0
300
1:4
140
1.0
141
4.0
290
     0
  0
SCALE
  5
1264
102
{ACAD_REACTORS
330
1260
102
}
330
1260
100
AcDbScale
 70
     0
300
1:5
140
1.0
141
5.0
290
     0
  0
SCALE
  5
1265
102
{ACAD_REACTORS
330
1260
102
}
330
1260
100
AcDbScale
 70
     0
300
1:8
140
1.0
141
8.0
290
     0
  0
SCALE
  5
1266
102
{ACAD_REACTORS
330
1260
102
}
330
1260
100
AcDbScale
 70
     0
300
1:10
140
1.0
141
10.0
290
     0
  0
SCALE
  5
1267
102
{ACAD_REACTORS
330
1260
102
}
330
1260
100
AcDbScale
 70
     0
300
1:16
140
1.0
141
16.0
290
     0
  0
SCALE
  5
1268
102
{ACAD_REACTORS
330
1260
102
}
330
1260
100
AcDbScale
 70
     0
300
1:20
140
1.0
141
20.0
290
     0
  0
SCALE
  5
1269
102
{ACAD_REACTORS
330
1260
102
}
330
1260
100
AcDbScale
 70
     0
300
1:30
140
1.0
141
30.0
290
     0
  0
SCALE
  5
126A
102
{ACAD_REACTORS
330
1260
102
}
330
1260
100
AcDbScale
 70
     0
300
1:40
140
1.0
141
40.0
290
     0
  0
SCALE
  5
126B
102
{ACAD_REACTORS
330
1260
102
}
330
1260
100
AcDbScale
 70
     0
300
1:50
140
1.0
141
50.0
290
     0
  0
SCALE
  5
126C
102
{ACAD_REACTORS
330
1260
102
}
330
1260
100
AcDbScale
 70
     0
300
1:100
140
1.0
141
100.0
290
     0
  0
SCALE
  5
126D
102
{ACAD_REACTORS
330
1260
102
}
330
1260
100
AcDbScale
 70
     0
300
2:1
140
2.0
141
1.0
290
     0
  0
SCALE
  5
126E
102
{ACAD_REACTORS
330
1260
102
}
330
1260
100
AcDbScale
 70
     0
300
4:1
140
4.0
141
1.0
290
     0
  0
SCALE
  5
126F
102
{ACAD_REACTORS
330
1260
102
}
330
1260
100
AcDbScale
 70
     0
300
8:1
140
8.0
141
1.0
290
     0
  0
SCALE
  5
1270
102
{ACAD_REACTORS
330
1260
102
}
330
1260
100
AcDbScale
 70
     0
300
10:1
140
10.0
141
1.0
290
     0
  0
SCALE
  5
1271
102
{ACAD_REACTORS
330
1260
102
}
330
1260
100
AcDbScale
 70
     0
300
100:1
140
100.0
141
1.0
290
     0
  0
TABLESTYLE
  5
125F
102
{ACAD_XDICTIONARY
360
129D
102
}
102
{ACAD_REACTORS
330
125E
102
}
330
125E
100
AcDbTableStyle
  3
Standard
 70
     0
 71
     0
 40
1.5
 41
1.5
280
     0
281
     0
  7
Standard
140
4.5
170
     2
 62
     0
 63
     7
283
     0
274
    -2
284
     1
 64
     0
275
    -2
285
     1
 65
     0
276
    -2
286
     1
 66
     0
277
    -2
287
     1
 67
     0
278
    -2
288
     1
 68
     0
279
    -2
289
     1
 69
     0
  7
Standard
140
6.0
170
     5
 62
     0
 63
     7
283
     0
274
    -2
284
     1
 64
     0
275
    -2
285
     1
 65
     0
276
    -2
286
     1
 66
     0
277
    -2
287
     1
 67
     0
278
    -2
288
     1
 68
     0
279
    -2
289
     1
 69
     0
  7
Standard
140
4.5
170
     5
 62
     0
 63
     7
283
     0
274
    -2
284
     1
 64
     0
275
    -2
285
     1
 65
     0
276
    -2
286
     1
 66
     0
277
    -2
287
     1
 67
     0
278
    -2
288
     1
 68
     0
279
    -2
289
     1
 69
     0
  0
VISUALSTYLE
  5
124F
102
{ACAD_XDICTIONARY
360
12C8
102
}
102
{ACAD_REACTORS
330
1249
102
}
330
1249
100
AcDbVisualStyle
  2
2dWireframe
 70
     4
 71
     0
 72
     2
 73
     0
 90
        0
 40
-0.6
 41
-30.0
 62
     5
 63
     7
 74
     1
 91
        4
 64
     7
 65
   257
 75
     1
175
     1
 42
1.0
 92
        0
 66
   257
 43
1.0
 76
     1
 77
     6
 78
     2
 67
     7
 79
     5
170
     0
171
     0
290
     0
174
     0
 93
        1
 44
0.0
173
     0
291
     0
 45
0.0
1001
ACAD
1000
AcDbSavedByObjectVersion
1070
     0
  0
VISUALSTYLE
  5
1251
102
{ACAD_XDICTIONARY
360
12CC
102
}
102
{ACAD_REACTORS
330
1249
102
}
330
1249
100
AcDbVisualStyle
  2
3D Hidden
 70
     6
 71
     1
 72
     2
 73
     2
 90
        0
 40
-0.6
 41
-30.0
 62
     5
 63
     7
 74
     2
 91
        2
 64
     7
 65
   257
 75
     2
175
     1
 42
179.0
 92
        0
 66
   257
 43
1.0
 76
     1
 77
     6
 78
     2
 67
     7
 79
     3
170
     0
171
     0
290
     0
174
     0
 93
        1
 44
0.0
173
     0
291
     0
 45
0.0
1001
ACAD
1000
AcDbSavedByObjectVersion
1070
     0
  0
VISUALSTYLE
  5
1250
102
{ACAD_XDICTIONARY
360
12CA
102
}
102
{ACAD_REACTORS
330
1249
102
}
330
1249
100
AcDbVisualStyle
  2
3dWireframe
 70
     5
 71
     0
 72
     2
 73
     0
 90
        0
 40
-0.6
 41
-30.0
 62
     5
 63
     7
 74
     1
 91
        4
 64
     7
 65
   257
 75
     1
175
     1
 42
1.0
 92
        0
 66
   257
 43
1.0
 76
     1
 77
     6
 78
     2
 67
     7
 79
     5
170
     0
171
     0
290
     0
174
     0
 93
        1
 44
0.0
173
     0
291
     0
 45
0.0
1001
ACAD
1000
AcDbSavedByObjectVersion
1070
     0
  0
VISUALSTYLE
  5
124E
102
{ACAD_XDICTIONARY
360
12C6
102
}
102
{ACAD_REACTORS
330
1249
102
}
330
1249
100
AcDbVisualStyle
  2
Basic
 70
     7
 71
     1
 72
     0
 73
     1
 90
        0
 40
-0.6
 41
-30.0
 62
     5
 63
     7
 74
     0
 91
        4
 64
     7
 65
   257
 75
     1
175
     1
 42
1.0
 92
        8
 66
     7
 43
1.0
 76
     1
 77
     6
 78
     2
 67
     7
 79
     5
170
     0
171
     0
290
     0
174
     0
 93
        1
 44
0.0
173
     0
291
     1
 45
0.0
1001
ACAD
1000
AcDbSavedByObjectVersion
1070
     0
  0
VISUALSTYLE
  5
1255
102
{ACAD_XDICTIONARY
360
12D4
102
}
102
{ACAD_REACTORS
330
1249
102
}
330
1249
100
AcDbVisualStyle
  2
Brighten
 70
    12
 71
     2
 72
     2
 73
     0
 90
        0
 40
-0.6
 41
-30.0
 62
     5
 63
     7
 74
     1
 91
        4
 64
     7
 65
   257
 75
     1
175
     1
 42
1.0
 92
        8
 66
     7
 43
1.0
 76
     1
 77
     6
 78
     2
 67
     7
 79
     5
170
     0
171
     0
290
     0
174
     0
 93
        1
 44
50.0
173
     0
291
     1
 45
0.0
1001
ACAD
1000
AcDbSavedByObjectVersion
1070
     0
  0
VISUALSTYLE
  5
1259
102
{ACAD_XDICTIONARY
360
12DC
102
}
102
{ACAD_REACTORS
330
1249
102
}
330
1249
100
AcDbVisualStyle
  2
ColorChange
 70
    16
 71
     2
 72
     2
 73
     3
 90
        0
 40
-0.6
 41
-30.0
 62
     5
 63
     8
 74
     1
 91
        4
 64
     7
 65
   257
 75
     1
175
     1
 42
1.0
 92
        8
 66
     8
 43
1.0
 76
     1
 77
     6
 78
     2
 67
     7
 79
     5
170
     0
171
     0
290
     0
174
     0
 93
        1
 44
0.0
173
     0
291
     1
 45
0.0
1001
ACAD
1000
AcDbSavedByObjectVersion
1070
     0
  0
VISUALSTYLE
  5
1252
102
{ACAD_XDICTIONARY
360
12CE
102
}
102
{ACAD_REACTORS
330
1249
102
}
330
1249
100
AcDbVisualStyle
  2
Conceptual
 70
     9
 71
     3
 72
     2
 73
     0
 90
        0
 40
-0.6
 41
-30.0
 62
     5
 63
     7
 74
     2
 91
        2
 64
     7
 65
   257
 75
     1
175
     1
 42
179.0
 92
        8
 66
     7
 43
1.0
 76
     1
 77
     6
 78
     2
 67
     7
 79
     3
170
     0
171
     0
290
     0
174
     0
 93
        1
 44
0.0
173
     0
291
     0
 45
0.0
1001
ACAD
1000
AcDbSavedByObjectVersion
1070
     0
  0
VISUALSTYLE
  5
1254
102
{ACAD_XDICTIONARY
360
12D2
102
}
102
{ACAD_REACTORS
330
1249
102
}
330
1249
100
AcDbVisualStyle
  2
Dim
 70
    11
 71
     2
 72
     2
 73
     0
 90
        0
 40
-0.6
 41
-30.0
 62
     5
 63
     7
 74
     1
 91
        4
 64
     7
 65
   257
 75
     1
175
     1
 42
1.0
 92
        8
 66
     7
 43
1.0
 76
     1
 77
     6
 78
     2
 67
     7
 79
     5
170
     0
171
     0
290
     0
174
     0
 93
        1
 44
-50.0
173
     0
291
     1
 45
0.0
1001
ACAD
1000
AcDbSavedByObjectVersion
1070
     0
  0
VISUALSTYLE
  5
125C
102
{ACAD_XDICTIONARY
360
12E2
102
}
102
{ACAD_REACTORS
330
1249
102
}
330
1249
100
AcDbVisualStyle
  2
EdgeColorOff
 70
    22
 71
     2
 72
     2
 73
     0
 90
        0
 40
-0.6
 41
-30.0
 62
     5
 63
     7
 74
     1
 91
        4
 64
     7
 65
   257
 75
     1
175
     1
 42
1.0
 92
        8
 66
     7
 43
1.0
 76
     1
 77
     6
 78
     2
 67
     7
 79
     5
170
     0
171
     0
290
     0
174
     0
 93
        1
 44
0.0
173
     0
291
     1
 45
0.0
1001
ACAD
1000
AcDbSavedByObjectVersion
1070
     0
  0
VISUALSTYLE
  5
1258
102
{ACAD_XDICTIONARY
360
12DA
102
}
102
{ACAD_REACTORS
330
1249
102
}
330
1249
100
AcDbVisualStyle
  2
Facepattern
 70
    15
 71
     2
 72
     2
 73
     0
 90
        0
 40
-0.6
 41
-30.0
 62
     5
 63
     7
 74
     1
 91
        4
 64
     7
 65
   257
 75
     1
175
     1
 42
1.0
 92
        8
 66
     7
 43
1.0
 76
     1
 77
     6
 78
     2
 67
     7
 79
     5
170
     0
171
     0
290
     0
174
     0
 93
        1
 44
0.0
173
     0
291
     1
 45
0.0
1001
ACAD
1000
AcDbSavedByObjectVersion
1070
     0
  0
VISUALSTYLE
  5
124A
102
{ACAD_XDICTIONARY
360
12BE
102
}
102
{ACAD_REACTORS
330
1249
102
}
330
1249
100
AcDbVisualStyle
  2
Flat
 70
     0
 71
     2
 72
     1
 73
     1
 90
        2
 40
-0.6
 41
30.0
 62
     5
 63
     7
 74
     0
 91
        4
 64
     7
 65
   257
 75
     1
175
     1
 42
1.0
 92
        8
 66
     7
 43
1.0
 76
     1
 77
     6
 78
     2
 67
     7
 79
     5
170
     0
171
     0
290
     0
174
     0
 93
       13
 44
0.0
173
     0
291
     1
 45
0.0
1001
ACAD
1000
AcDbSavedByObjectVersion
1070
     0
  0
VISUALSTYLE
  5
124B
102
{ACAD_XDICTIONARY
360
12C0
102
}
102
{ACAD_REACTORS
330
1249
102
}
330
1249
100
AcDbVisualStyle
  2
FlatWithEdges
 70
     1
 71
     2
 72
     1
 73
     1
 90
        2
 40
-0.6
 41
30.0
 62
     5
 63
     7
 74
     1
 91
        4
 64
     7
 65
   257
 75
     1
175
     1
 42
1.0
 92
        0
 66
   257
 43
1.0
 76
     1
 77
     6
 78
     2
 67
     7
 79
     5
170
     0
171
     0
290
     0
174
     0
 93
       13
 44
0.0
173
     0
291
     1
 45
0.0
1001
ACAD
1000
AcDbSavedByObjectVersion
1070
     0
  0
VISUALSTYLE
  5
124C
102
{ACAD_XDICTIONARY
360
12C2
102
}
102
{ACAD_REACTORS
330
1249
102
}
330
1249
100
AcDbVisualStyle
  2
Gouraud
 70
     2
 71
     2
 72
     2
 73
     1
 90
        2
 40
-0.6
 41
30.0
 62
     5
 63
     7
 74
     0
 91
        4
 64
     7
 65
   257
 75
     1
175
     1
 42
1.0
 92
        0
 66
     7
 43
1.0
 76
     1
 77
     6
 78
     2
 67
     7
 79
     5
170
     0
171
     0
290
     0
174
     0
 93
       13
 44
0.0
173
     0
291
     1
 45
0.0
1001
ACAD
1000
AcDbSavedByObjectVersion
1070
     0
  0
VISUALSTYLE
  5
124D
102
{ACAD_XDICTIONARY
360
12C4
102
}
102
{ACAD_REACTORS
330
1249
102
}
330
1249
100
AcDbVisualStyle
  2
GouraudWithEdges
 70
     3
 71
     2
 72
     2
 73
     1
 90
        2
 40
-0.6
 41
30.0
 62
     5
 63
     7
 74
     1
 91
        4
 64
     7
 65
   257
 75
     1
175
     1
 42
1.0
 92
        0
 66
   257
 43
1.0
 76
     1
 77
     6
 78
     2
 67
     7
 79
     5
170
     0
171
     0
290
     0
174
     0
 93
       13
 44
0.0
173
     0
291
     1
 45
0.0
1001
ACAD
1000
AcDbSavedByObjectVersion
1070
     0
  0
VISUALSTYLE
  5
125A
102
{ACAD_XDICTIONARY
360
12DE
102
}
102
{ACAD_REACTORS
330
1249
102
}
330
1249
100
AcDbVisualStyle
  2
JitterOff
 70
    20
 71
     2
 72
     2
 73
     0
 90
        0
 40
-0.6
 41
-30.0
 62
     5
 63
     7
 74
     1
 91
        4
 64
     7
 65
   257
 75
     1
175
     1
 42
1.0
 92
       10
 66
     7
 43
1.0
 76
     1
 77
     6
 78
     2
 67
     7
 79
     5
170
     0
171
     0
290
     0
174
     0
 93
        1
 44
0.0
173
     0
291
     1
 45
0.0
1001
ACAD
1000
AcDbSavedByObjectVersion
1070
     0
  0
VISUALSTYLE
  5
1257
102
{ACAD_XDICTIONARY
360
12D8
102
}
102
{ACAD_REACTORS
330
1249
102
}
330
1249
100
AcDbVisualStyle
  2
Linepattern
 70
    14
 71
     2
 72
     2
 73
     0
 90
        0
 40
-0.6
 41
-30.0
 62
     5
 63
     7
 74
     1
 91
        4
 64
     7
 65
   257
 75
     7
175
     7
 42
1.0
 92
        8
 66
     7
 43
1.0
 76
     1
 77
     6
 78
     2
 67
     7
 79
     5
170
     0
171
     0
290
     0
174
     0
 93
        1
 44
0.0
173
     0
291
     1
 45
0.0
1001
ACAD
1000
AcDbSavedByObjectVersion
1070
     0
  0
VISUALSTYLE
  5
125B
102
{ACAD_XDICTIONARY
360
12E0
102
}
102
{ACAD_REACTORS
330
1249
102
}
330
1249
100
AcDbVisualStyle
  2
OverhangOff
 70
    21
 71
     2
 72
     2
 73
     0
 90
        0
 40
-0.6
 41
-30.0
 62
     5
 63
     7
 74
     1
 91
        4
 64
     7
 65
   257
 75
     1
175
     1
 42
1.0
 92
        9
 66
     7
 43
1.0
 76
     1
 77
     6
 78
     2
 67
     7
 79
     5
170
     0
171
     0
290
     0
174
     0
 93
        1
 44
0.0
173
     0
291
     1
 45
0.0
1001
ACAD
1000
AcDbSavedByObjectVersion
1070
     0
  0
VISUALSTYLE
  5
1253
102
{ACAD_XDICTIONARY
360
12D0
102
}
102
{ACAD_REACTORS
330
1249
102
}
330
1249
100
AcDbVisualStyle
  2
Realistic
 70
     8
 71
     2
 72
     2
 73
     0
 90
        0
 40
-0.6
 41
-30.0
 62
     5
 63
     7
 74
     1
 91
        0
 64
     7
 65
   257
 75
     1
175
     1
 42
1.0
 92
        8
 66
     8
 43
1.0
 76
     1
 77
     6
 78
     2
 67
     7
 79
     5
170
     0
171
     0
290
     0
174
     0
 93
       13
 44
0.0
173
     0
291
     0
 45
0.0
1001
ACAD
1000
AcDbSavedByObjectVersion
1070
     0
  0
VISUALSTYLE
  5
1256
102
{ACAD_XDICTIONARY
360
12D6
102
}
102
{ACAD_REACTORS
330
1249
102
}
330
1249
100
AcDbVisualStyle
  2
Thicken
 70
    13
 71
     2
 72
     2
 73
     0
 90
        0
 40
-0.6
 41
-30.0
 62
     5
 63
     7
 74
     1
 91
        4
 64
     7
 65
   257
 75
     1
175
     1
 42
1.0
 92
       12
 66
     7
 43
1.0
 76
     1
 77
     6
 78
     2
 67
     7
 79
     5
170
     0
171
     0
290
     0
174
     0
 93
        1
 44
0.0
173
     0
291
     1
 45
0.0
1001
ACAD
1000
AcDbSavedByObjectVersion
1070
     0
  0
DICTIONARYVAR
  5
1299
102
{ACAD_REACTORS
330
3D
102
}
330
3D
100
DictionaryVariables
280
     0
  1
1:1
  0
DICTIONARYVAR
  5
1298
102
{ACAD_REACTORS
330
3D
102
}
330
3D
100
DictionaryVariables
280
     0
  1
STANDARD
  0
DICTIONARYVAR
  5
1297
102
{ACAD_REACTORS
330
3D
102
}
330
3D
100
DictionaryVariables
280
     0
  1
STANDARD
  0
DICTIONARYVAR
  5
3F
102
{ACAD_REACTORS
330
3D
102
}
330
3D
100
DictionaryVariables
280
     0
  1
2
  0
DICTIONARYVAR
  5
3E
102
{ACAD_REACTORS
330
3D
102
}
330
3D
100
DictionaryVariables
280
     0
  1
1
  0
DICTIONARYVAR
  5
129B
102
{ACAD_REACTORS
330
3D
102
}
330
3D
100
DictionaryVariables
280
     0
  1
0
  0
DICTIONARYVAR
  5
129A
102
{ACAD_REACTORS
330
3D
102
}
330
3D
100
DictionaryVariables
280
     0
  1
127
  0
DICTIONARYVAR
  5
129C
102
{ACAD_REACTORS
330
3D
102
}
330
3D
100
DictionaryVariables
280
     0
  1
2
  0
XRECORD
  5
122C
102
{ACAD_REACTORS
330
122B
102
}
330
122B
100
AcDbXrecord
280
     1
  0
DICTIONARY
  5
12A1
330
1E
100
AcDbDictionary
280
     1
281
     1
  3
ACAD_XREC_ROUNDTRIP
360
12A2
  0
DICTIONARY
  5
12A5
330
26
100
AcDbDictionary
280
     1
281
     1
  3
ACAD_XREC_ROUNDTRIP
360
12A6
  0
DICTIONARY
  5
12A3
330
22
100
AcDbDictionary
280
     1
281
     1
  3
ACAD_XREC_ROUNDTRIP
360
12A4
  0
DICTIONARY
  5
123A
330
1239
100
AcDbDictionary
280
     1
281
     1
  3
ACAD_XREC_ROUNDTRIP
360
12BC
  3
BUMPTILE
360
123C
  3
DIFFUSETILE
360
123B
  3
OPACITYTILE
360
123F
  3
REFLECTIONTILE
360
123E
  3
REFRACTIONTILE
360
1240
  3
SPECULARTILE
360
123D
  0
DICTIONARY
  5
1232
330
1231
100
AcDbDictionary
280
     1
281
     1
  3
ACAD_XREC_ROUNDTRIP
360
12BB
  3
BUMPTILE
360
1234
  3
DIFFUSETILE
360
1233
  3
OPACITYTILE
360
1237
  3
REFLECTIONTILE
360
1236
  3
REFRACTIONTILE
360
1238
  3
SPECULARTILE
360
1235
  0
DICTIONARY
  5
1242
330
1241
100
AcDbDictionary
280
     1
281
     1
  3
ACAD_XREC_ROUNDTRIP
360
12BD
  3
BUMPTILE
360
1244
  3
DIFFUSETILE
360
1243
  3
OPACITYTILE
360
1247
  3
REFLECTIONTILE
360
1246
  3
REFRACTIONTILE
360
1248
  3
SPECULARTILE
360
1245
  0
DICTIONARY
  5
129D
330
125F
100
AcDbDictionary
280
     1
281
     1
  3
ACAD_ROUNDTRIP_2008_TABLESTYLE_CELLSTYLEMAP
360
129E
  3
ACAD_XREC_ROUNDTRIP
360
12E4
  0
DICTIONARY
  5
12C8
330
124F
100
AcDbDictionary
280
     1
281
     1
  3
ACAD_XREC_ROUNDTRIP
360
12C9
  0
DICTIONARY
  5
12CC
330
1251
100
AcDbDictionary
280
     1
281
     1
  3
ACAD_XREC_ROUNDTRIP
360
12CD
  0
DICTIONARY
  5
12CA
330
1250
100
AcDbDictionary
280
     1
281
     1
  3
ACAD_XREC_ROUNDTRIP
360
12CB
  0
DICTIONARY
  5
12C6
330
124E
100
AcDbDictionary
280
     1
281
     1
  3
ACAD_XREC_ROUNDTRIP
360
12C7
  0
DICTIONARY
  5
12D4
330
1255
100
AcDbDictionary
280
     1
281
     1
  3
ACAD_XREC_ROUNDTRIP
360
12D5
  0
DICTIONARY
  5
12DC
330
1259
100
AcDbDictionary
280
     1
281
     1
  3
ACAD_XREC_ROUNDTRIP
360
12DD
  0
DICTIONARY
  5
12CE
330
1252
100
AcDbDictionary
280
     1
281
     1
  3
ACAD_XREC_ROUNDTRIP
360
12CF
  0
DICTIONARY
  5
12D2
330
1254
100
AcDbDictionary
280
     1
281
     1
  3
ACAD_XREC_ROUNDTRIP
360
12D3
  0
DICTIONARY
  5
12E2
330
125C
100
AcDbDictionary
280
     1
281
     1
  3
ACAD_XREC_ROUNDTRIP
360
12E3
  0
DICTIONARY
  5
12DA
330
1258
100
AcDbDictionary
280
     1
281
     1
  3
ACAD_XREC_ROUNDTRIP
360
12DB
  0
DICTIONARY
  5
12BE
330
124A
100
AcDbDictionary
280
     1
281
     1
  3
ACAD_XREC_ROUNDTRIP
360
12BF
  0
DICTIONARY
  5
12C0
330
124B
100
AcDbDictionary
280
     1
281
     1
  3
ACAD_XREC_ROUNDTRIP
360
12C1
  0
DICTIONARY
  5
12C2
330
124C
100
AcDbDictionary
280
     1
281
     1
  3
ACAD_XREC_ROUNDTRIP
360
12C3
  0
DICTIONARY
  5
12C4
330
124D
100
AcDbDictionary
280
     1
281
     1
  3
ACAD_XREC_ROUNDTRIP
360
12C5
  0
DICTIONARY
  5
12DE
330
125A
100
AcDbDictionary
280
     1
281
     1
  3
ACAD_XREC_ROUNDTRIP
360
12DF
  0
DICTIONARY
  5
12D8
330
1257
100
AcDbDictionary
280
     1
281
     1
  3
ACAD_XREC_ROUNDTRIP
360
12D9
  0
DICTIONARY
  5
12E0
330
125B
100
AcDbDictionary
280
     1
281
     1
  3
ACAD_XREC_ROUNDTRIP
360
12E1
  0
DICTIONARY
  5
12D0
330
1253
100
AcDbDictionary
280
     1
281
     1
  3
ACAD_XREC_ROUNDTRIP
360
12D1
  0
DICTIONARY
  5
12D6
330
1256
100
AcDbDictionary
280
     1
281
     1
  3
ACAD_XREC_ROUNDTRIP
360
12D7
  0
XRECORD
  5
12A2
102
{ACAD_REACTORS
330
12A1
102
}
330
12A1
100
AcDbXrecord
280
     1
102
SHADEPLOT
 70
     0
102
SHADEPLOTRESLEVEL
 70
     2
102
SHADEPLOTCUSTOMDPI
 70
   300
  0
XRECORD
  5
12A6
102
{ACAD_REACTORS
330
12A5
102
}
330
12A5
100
AcDbXrecord
280
     1
102
SHADEPLOT
 70
     0
102
SHADEPLOTRESLEVEL
 70
     2
102
SHADEPLOTCUSTOMDPI
 70
   300
  0
XRECORD
  5
12A4
102
{ACAD_REACTORS
330
12A3
102
}
330
12A3
100
AcDbXrecord
280
     1
102
SHADEPLOT
 70
     0
102
SHADEPLOTRESLEVEL
 70
     2
102
SHADEPLOTCUSTOMDPI
 70
   300
  0
XRECORD
  5
12BC
102
{ACAD_REACTORS
330
123A
102
}
330
123A
100
AcDbXrecord
280
     1
102
MATERIAL
148
0.0
149
0.0
149
0.0
 93
        0
 94
      127
282
     0
 72
     0
 77
     0
171
     0
175
     0
179
     0
273
     0
  0
XRECORD
  5
123C
102
{ACAD_REACTORS
330
123A
102
}
330
123A
100
AcDbXrecord
280
     1
270
     1
271
     1
  0
XRECORD
  5
123B
102
{ACAD_REACTORS
330
123A
102
}
330
123A
100
AcDbXrecord
280
     1
270
     1
271
     1
  0
XRECORD
  5
123F
102
{ACAD_REACTORS
330
123A
102
}
330
123A
100
AcDbXrecord
280
     1
270
     1
271
     1
  0
XRECORD
  5
123E
102
{ACAD_REACTORS
330
123A
102
}
330
123A
100
AcDbXrecord
280
     1
270
     1
271
     1
  0
XRECORD
  5
1240
102
{ACAD_REACTORS
330
123A
102
}
330
123A
100
AcDbXrecord
280
     1
270
     1
271
     1
  0
XRECORD
  5
123D
102
{ACAD_REACTORS
330
123A
102
}
330
123A
100
AcDbXrecord
280
     1
270
     1
271
     1
  0
XRECORD
  5
12BB
102
{ACAD_REACTORS
330
1232
102
}
330
1232
100
AcDbXrecord
280
     1
102
MATERIAL
148
0.0
149
0.0
149
0.0
 93
        0
 94
      127
282
     0
 72
     0
 77
     0
171
     0
175
     0
179
     0
273
     0
  0
XRECORD
  5
1234
102
{ACAD_REACTORS
330
1232
102
}
330
1232
100
AcDbXrecord
280
     1
270
     1
271
     1
  0
XRECORD
  5
1233
102
{ACAD_REACTORS
330
1232
102
}
330
1232
100
AcDbXrecord
280
     1
270
     1
271
     1
  0
XRECORD
  5
1237
102
{ACAD_REACTORS
330
1232
102
}
330
1232
100
AcDbXrecord
280
     1
270
     1
271
     1
  0
XRECORD
  5
1236
102
{ACAD_REACTORS
330
1232
102
}
330
1232
100
AcDbXrecord
280
     1
270
     1
271
     1
  0
XRECORD
  5
1238
102
{ACAD_REACTORS
330
1232
102
}
330
1232
100
AcDbXrecord
280
     1
270
     1
271
     1
  0
XRECORD
  5
1235
102
{ACAD_REACTORS
330
1232
102
}
330
1232
100
AcDbXrecord
280
     1
270
     1
271
     1
  0
XRECORD
  5
12BD
102
{ACAD_REACTORS
330
1242
102
}
330
1242
100
AcDbXrecord
280
     1
102
MATERIAL
148
0.0
149
0.0
149
0.0
 93
        0
 94
      127
282
     0
 72
     0
 77
     0
171
     0
175
     0
179
     0
273
     0
  0
XRECORD
  5
1244
102
{ACAD_REACTORS
330
1242
102
}
330
1242
100
AcDbXrecord
280
     1
270
     1
271
     1
  0
XRECORD
  5
1243
102
{ACAD_REACTORS
330
1242
102
}
330
1242
100
AcDbXrecord
280
     1
270
     1
271
     1
  0
XRECORD
  5
1247
102
{ACAD_REACTORS
330
1242
102
}
330
1242
100
AcDbXrecord
280
     1
270
     1
271
     1
  0
XRECORD
  5
1246
102
{ACAD_REACTORS
330
1242
102
}
330
1242
100
AcDbXrecord
280
     1
270
     1
271
     1
  0
XRECORD
  5
1248
102
{ACAD_REACTORS
330
1242
102
}
330
1242
100
AcDbXrecord
280
     1
270
     1
271
     1
  0
XRECORD
  5
1245
102
{ACAD_REACTORS
330
1242
102
}
330
1242
100
AcDbXrecord
280
     1
270
     1
271
     1
  0
CELLSTYLEMAP
  5
129E
102
{ACAD_REACTORS
330
129D
102
}
330
129D
100
AcDbCellStyleMap
 90
        3
300
CELLSTYLE
  1
TABLEFORMAT_BEGIN
 90
        5
170
     1
 91
        0
 92
    32768
 62
   257
 93
        1
300
CONTENTFORMAT
  1
CONTENTFORMAT_BEGIN
 90
        0
 91
        0
 92
      512
 93
        0
300

 40
0.0
140
1.0
 94
        5
 62
     0
340
11
144
6.0
309
CONTENTFORMAT_END
171
     1
301
MARGIN
  1
CELLMARGIN_BEGIN
 40
1.5
 40
1.5
 40
1.5
 40
1.5
 40
4.5
 40
4.5
309
CELLMARGIN_END
 94
        6
 95
        1
302
GRIDFORMAT
  1
GRIDFORMAT_BEGIN
 90
        0
 91
        1
 62
     0
 92
       -2
340
0
 93
        0
 40
1.125
309
GRIDFORMAT_END
 95
        2
302
GRIDFORMAT
  1
GRIDFORMAT_BEGIN
 90
        0
 91
        1
 62
     0
 92
       -2
340
0
 93
        0
 40
1.125
309
GRIDFORMAT_END
 95
        4
302
GRIDFORMAT
  1
GRIDFORMAT_BEGIN
 90
        0
 91
        1
 62
     0
 92
       -2
340
0
 93
        0
 40
1.125
309
GRIDFORMAT_END
 95
        8
302
GRIDFORMAT
  1
GRIDFORMAT_BEGIN
 90
        0
 91
        1
 62
     0
 92
       -2
340
0
 93
        0
 40
1.125
309
GRIDFORMAT_END
 95
       16
302
GRIDFORMAT
  1
GRIDFORMAT_BEGIN
 90
        0
 91
        1
 62
     0
 92
       -2
340
0
 93
        0
 40
1.125
309
GRIDFORMAT_END
 95
       32
302
GRIDFORMAT
  1
GRIDFORMAT_BEGIN
 90
        0
 91
        1
 62
     0
 92
       -2
340
0
 93
        0
 40
1.125
309
GRIDFORMAT_END
309
TABLEFORMAT_END
  1
CELLSTYLE_BEGIN
 90
        1
 91
        1
300
_TITLE
309
CELLSTYLE_END
300
CELLSTYLE
  1
TABLEFORMAT_BEGIN
 90
        5
170
     1
 91
        0
 92
        0
 62
   257
 93
        1
300
CONTENTFORMAT
  1
CONTENTFORMAT_BEGIN
 90
        0
 91
        0
 92
      512
 93
        0
300

 40
0.0
140
1.0
 94
        5
 62
     0
340
11
144
4.5
309
CONTENTFORMAT_END
171
     1
301
MARGIN
  1
CELLMARGIN_BEGIN
 40
1.5
 40
1.5
 40
1.5
 40
1.5
 40
4.5
 40
4.5
309
CELLMARGIN_END
 94
        6
 95
        1
302
GRIDFORMAT
  1
GRIDFORMAT_BEGIN
 90
        0
 91
        1
 62
     0
 92
       -2
340
0
 93
        0
 40
1.125
309
GRIDFORMAT_END
 95
        2
302
GRIDFORMAT
  1
GRIDFORMAT_BEGIN
 90
        0
 91
        1
 62
     0
 92
       -2
340
0
 93
        0
 40
1.125
309
GRIDFORMAT_END
 95
        4
302
GRIDFORMAT
  1
GRIDFORMAT_BEGIN
 90
        0
 91
        1
 62
     0
 92
       -2
340
0
 93
        0
 40
1.125
309
GRIDFORMAT_END
 95
        8
302
GRIDFORMAT
  1
GRIDFORMAT_BEGIN
 90
        0
 91
        1
 62
     0
 92
       -2
340
0
 93
        0
 40
1.125
309
GRIDFORMAT_END
 95
       16
302
GRIDFORMAT
  1
GRIDFORMAT_BEGIN
 90
        0
 91
        1
 62
     0
 92
       -2
340
0
 93
        0
 40
1.125
309
GRIDFORMAT_END
 95
       32
302
GRIDFORMAT
  1
GRIDFORMAT_BEGIN
 90
        0
 91
        1
 62
     0
 92
       -2
340
0
 93
        0
 40
1.125
309
GRIDFORMAT_END
309
TABLEFORMAT_END
  1
CELLSTYLE_BEGIN
 90
        2
 91
        1
300
_HEADER
309
CELLSTYLE_END
300
CELLSTYLE
  1
TABLEFORMAT_BEGIN
 90
        5
170
     1
 91
        0
 92
        0
 62
   257
 93
        1
300
CONTENTFORMAT
  1
CONTENTFORMAT_BEGIN
 90
        0
 91
        0
 92
      512
 93
        0
300

 40
0.0
140
1.0
 94
        2
 62
     0
340
11
144
4.5
309
CONTENTFORMAT_END
171
     1
301
MARGIN
  1
CELLMARGIN_BEGIN
 40
1.5
 40
1.5
 40
1.5
 40
1.5
 40
4.5
 40
4.5
309
CELLMARGIN_END
 94
        6
 95
        1
302
GRIDFORMAT
  1
GRIDFORMAT_BEGIN
 90
        0
 91
        1
 62
     0
 92
       -2
340
0
 93
        0
 40
1.125
309
GRIDFORMAT_END
 95
        2
302
GRIDFORMAT
  1
GRIDFORMAT_BEGIN
 90
        0
 91
        1
 62
     0
 92
       -2
340
0
 93
        0
 40
1.125
309
GRIDFORMAT_END
 95
        4
302
GRIDFORMAT
  1
GRIDFORMAT_BEGIN
 90
        0
 91
        1
 62
     0
 92
       -2
340
0
 93
        0
 40
1.125
309
GRIDFORMAT_END
 95
        8
302
GRIDFORMAT
  1
GRIDFORMAT_BEGIN
 90
        0
 91
        1
 62
     0
 92
       -2
340
0
 93
        0
 40
1.125
309
GRIDFORMAT_END
 95
       16
302
GRIDFORMAT
  1
GRIDFORMAT_BEGIN
 90
        0
 91
        1
 62
     0
 92
       -2
340
0
 93
        0
 40
1.125
309
GRIDFORMAT_END
 95
       32
302
GRIDFORMAT
  1
GRIDFORMAT_BEGIN
 90
        0
 91
        1
 62
     0
 92
       -2
340
0
 93
        0
 40
1.125
309
GRIDFORMAT_END
309
TABLEFORMAT_END
  1
CELLSTYLE_BEGIN
 90
        3
 91
        2
300
_DATA
309
CELLSTYLE_END
  0
XRECORD
  5
12E4
102
{ACAD_REACTORS
330
129D
102
}
330
129D
100
AcDbXrecord
280
     1
102
ACAD_ROUNDTRIP_PRE2007_TABLESTYLE
 90
      512
 91
        0
  1

 92
      512
 93
        0
  2

 94
      512
 95
        0
  3

  0
XRECORD
  5
12C9
102
{ACAD_REACTORS
330
12C8
102
}
330
12C8
100
AcDbXrecord
280
     1
102
RTVSPropertyOp0
 70
     1
102
RTVSPropertyOp1
 70
     1
102
RTVSPropertyOp2
 70
     1
102
RTVSPropertyOp3
 70
     1
102
RTVSPropertyOp4
 70
     1
102
RTVSPropertyOp5
 70
     1
102
RTVSPropertyOp6
 70
     1
102
RTVSPropertyOp7
 70
     1
102
RTVSPropertyOp8
 70
     1
102
RTVSPropertyOp9
 70
     1
102
RTVSPropertyOp10
 70
     1
102
RTVSPropertyOp11
 70
     1
102
RTVSPropertyOp12
 70
     1
102
RTVSPropertyOp13
 70
     1
102
RTVSPropertyOp14
 70
     1
102
RTVSPropertyOp15
 70
     1
102
RTVSPropertyOp16
 70
     1
102
RTVSPropertyOp17
 70
     1
102
RTVSPropertyOp18
 70
     1
102
RTVSPropertyOp19
 70
     1
102
RTVSPropertyOp20
 70
     1
102
RTVSPropertyOp21
 70
     1
102
RTVSPropertyOp22
 70
     1
102
RTVSPropertyOp23
 70
     1
102
RTVSPropertyOp24
 70
     1
102
RTVSPropertyOp25
 70
     1
102
RTVSPropertyOp26
 70
     1
102
RTVSPropertyOp27
 70
     1
  0
XRECORD
  5
12CD
102
{ACAD_REACTORS
330
12CC
102
}
330
12CC
100
AcDbXrecord
280
     1
102
RTVSPropertyOp0
 70
     1
102
RTVSPropertyOp1
 70
     1
102
RTVSPropertyOp2
 70
     1
102
RTVSPropertyOp3
 70
     1
102
RTVSPropertyOp4
 70
     1
102
RTVSPropertyOp5
 70
     1
102
RTVSPropertyOp6
 70
     1
102
RTVSPropertyOp7
 70
     1
102
RTVSPropertyOp8
 70
     1
102
RTVSPropertyOp9
 70
     1
102
RTVSPropertyOp10
 70
     1
102
RTVSPropertyOp11
 70
     1
102
RTVSPropertyOp12
 70
     1
102
RTVSPropertyOp13
 70
     1
102
RTVSPropertyOp14
 70
     1
102
RTVSPropertyOp15
 70
     1
102
RTVSPropertyOp16
 70
     1
102
RTVSPropertyOp17
 70
     1
102
RTVSPropertyOp18
 70
     1
102
RTVSPropertyOp19
 70
     1
102
RTVSPropertyOp20
 70
     1
102
RTVSPropertyOp21
 70
     1
102
RTVSPropertyOp22
 70
     1
102
RTVSPropertyOp23
 70
     1
102
RTVSPropertyOp24
 70
     1
102
RTVSPropertyOp25
 70
     1
102
RTVSPropertyOp26
 70
     1
102
RTVSPropertyOp27
 70
     1
  0
XRECORD
  5
12CB
102
{ACAD_REACTORS
330
12CA
102
}
330
12CA
100
AcDbXrecord
280
     1
102
RTVSPropertyOp0
 70
     1
102
RTVSPropertyOp1
 70
     1
102
RTVSPropertyOp2
 70
     1
102
RTVSPropertyOp3
 70
     1
102
RTVSPropertyOp4
 70
     1
102
RTVSPropertyOp5
 70
     1
102
RTVSPropertyOp6
 70
     1
102
RTVSPropertyOp7
 70
     1
102
RTVSPropertyOp8
 70
     1
102
RTVSPropertyOp9
 70
     1
102
RTVSPropertyOp10
 70
     1
102
RTVSPropertyOp11
 70
     1
102
RTVSPropertyOp12
 70
     1
102
RTVSPropertyOp13
 70
     1
102
RTVSPropertyOp14
 70
     1
102
RTVSPropertyOp15
 70
     1
102
RTVSPropertyOp16
 70
     1
102
RTVSPropertyOp17
 70
     1
102
RTVSPropertyOp18
 70
     1
102
RTVSPropertyOp19
 70
     1
102
RTVSPropertyOp20
 70
     1
102
RTVSPropertyOp21
 70
     1
102
RTVSPropertyOp22
 70
     1
102
RTVSPropertyOp23
 70
     1
102
RTVSPropertyOp24
 70
     1
102
RTVSPropertyOp25
 70
     1
102
RTVSPropertyOp26
 70
     1
102
RTVSPropertyOp27
 70
     1
  0
XRECORD
  5
12C7
102
{ACAD_REACTORS
330
12C6
102
}
330
12C6
100
AcDbXrecord
280
     1
102
RTVSPropertyOp0
 70
     1
102
RTVSPropertyOp1
 70
     1
102
RTVSPropertyOp2
 70
     1
102
RTVSPropertyOp3
 70
     1
102
RTVSPropertyOp4
 70
     1
102
RTVSPropertyOp5
 70
     1
102
RTVSPropertyOp6
 70
     1
102
RTVSPropertyOp7
 70
     1
102
RTVSPropertyOp8
 70
     1
102
RTVSPropertyOp9
 70
     1
102
RTVSPropertyOp10
 70
     1
102
RTVSPropertyOp11
 70
     1
102
RTVSPropertyOp12
 70
     1
102
RTVSPropertyOp13
 70
     1
102
RTVSPropertyOp14
 70
     1
102
RTVSPropertyOp15
 70
     1
102
RTVSPropertyOp16
 70
     1
102
RTVSPropertyOp17
 70
     1
102
RTVSPropertyOp18
 70
     1
102
RTVSPropertyOp19
 70
     1
102
RTVSPropertyOp20
 70
     1
102
RTVSPropertyOp21
 70
     1
102
RTVSPropertyOp22
 70
     1
102
RTVSPropertyOp23
 70
     1
102
RTVSPropertyOp24
 70
     1
102
RTVSPropertyOp25
 70
     1
102
RTVSPropertyOp26
 70
     1
102
RTVSPropertyOp27
 70
     1
  0
XRECORD
  5
12D5
102
{ACAD_REACTORS
330
12D4
102
}
330
12D4
100
AcDbXrecord
280
     1
102
RTVSPropertyOp0
 70
     1
102
RTVSPropertyOp1
 70
     1
102
RTVSPropertyOp2
 70
     1
102
RTVSPropertyOp3
 70
     1
102
RTVSPropertyOp4
 70
     1
102
RTVSPropertyOp5
 70
     1
102
RTVSPropertyOp6
 70
     1
102
RTVSPropertyOp7
 70
     1
102
RTVSPropertyOp8
 70
     1
102
RTVSPropertyOp9
 70
     1
102
RTVSPropertyOp10
 70
     1
102
RTVSPropertyOp11
 70
     1
102
RTVSPropertyOp12
 70
     1
102
RTVSPropertyOp13
 70
     1
102
RTVSPropertyOp14
 70
     1
102
RTVSPropertyOp15
 70
     1
102
RTVSPropertyOp16
 70
     1
102
RTVSPropertyOp17
 70
     1
102
RTVSPropertyOp18
 70
     1
102
RTVSPropertyOp19
 70
     1
102
RTVSPropertyOp20
 70
     1
102
RTVSPropertyOp21
 70
     1
102
RTVSPropertyOp22
 70
     1
102
RTVSPropertyOp23
 70
     1
102
RTVSPropertyOp24
 70
     1
102
RTVSPropertyOp25
 70
     1
102
RTVSPropertyOp26
 70
     1
102
RTVSPropertyOp27
 70
     1
  0
XRECORD
  5
12DD
102
{ACAD_REACTORS
330
12DC
102
}
330
12DC
100
AcDbXrecord
280
     1
102
RTVSPropertyOp0
 70
     1
102
RTVSPropertyOp1
 70
     1
102
RTVSPropertyOp2
 70
     1
102
RTVSPropertyOp3
 70
     1
102
RTVSPropertyOp4
 70
     1
102
RTVSPropertyOp5
 70
     1
102
RTVSPropertyOp6
 70
     1
102
RTVSPropertyOp7
 70
     1
102
RTVSPropertyOp8
 70
     1
102
RTVSPropertyOp9
 70
     1
102
RTVSPropertyOp10
 70
     1
102
RTVSPropertyOp11
 70
     1
102
RTVSPropertyOp12
 70
     1
102
RTVSPropertyOp13
 70
     1
102
RTVSPropertyOp14
 70
     1
102
RTVSPropertyOp15
 70
     1
102
RTVSPropertyOp16
 70
     1
102
RTVSPropertyOp17
 70
     1
102
RTVSPropertyOp18
 70
     1
102
RTVSPropertyOp19
 70
     1
102
RTVSPropertyOp20
 70
     1
102
RTVSPropertyOp21
 70
     1
102
RTVSPropertyOp22
 70
     1
102
RTVSPropertyOp23
 70
     1
102
RTVSPropertyOp24
 70
     1
102
RTVSPropertyOp25
 70
     1
102
RTVSPropertyOp26
 70
     1
102
RTVSPropertyOp27
 70
     1
  0
XRECORD
  5
12CF
102
{ACAD_REACTORS
330
12CE
102
}
330
12CE
100
AcDbXrecord
280
     1
102
RTVSPropertyOp0
 70
     1
102
RTVSPropertyOp1
 70
     1
102
RTVSPropertyOp2
 70
     1
102
RTVSPropertyOp3
 70
     1
102
RTVSPropertyOp4
 70
     1
102
RTVSPropertyOp5
 70
     1
102
RTVSPropertyOp6
 70
     1
102
RTVSPropertyOp7
 70
     1
102
RTVSPropertyOp8
 70
     1
102
RTVSPropertyOp9
 70
     1
102
RTVSPropertyOp10
 70
     1
102
RTVSPropertyOp11
 70
     1
102
RTVSPropertyOp12
 70
     1
102
RTVSPropertyOp13
 70
     1
102
RTVSPropertyOp14
 70
     1
102
RTVSPropertyOp15
 70
     1
102
RTVSPropertyOp16
 70
     1
102
RTVSPropertyOp17
 70
     1
102
RTVSPropertyOp18
 70
     1
102
RTVSPropertyOp19
 70
     1
102
RTVSPropertyOp20
 70
     1
102
RTVSPropertyOp21
 70
     1
102
RTVSPropertyOp22
 70
     1
102
RTVSPropertyOp23
 70
     1
102
RTVSPropertyOp24
 70
     1
102
RTVSPropertyOp25
 70
     1
102
RTVSPropertyOp26
 70
     1
102
RTVSPropertyOp27
 70
     1
  0
XRECORD
  5
12D3
102
{ACAD_REACTORS
330
12D2
102
}
330
12D2
100
AcDbXrecord
280
     1
102
RTVSPropertyOp0
 70
     1
102
RTVSPropertyOp1
 70
     1
102
RTVSPropertyOp2
 70
     1
102
RTVSPropertyOp3
 70
     1
102
RTVSPropertyOp4
 70
     1
102
RTVSPropertyOp5
 70
     1
102
RTVSPropertyOp6
 70
     1
102
RTVSPropertyOp7
 70
     1
102
RTVSPropertyOp8
 70
     1
102
RTVSPropertyOp9
 70
     1
102
RTVSPropertyOp10
 70
     1
102
RTVSPropertyOp11
 70
     1
102
RTVSPropertyOp12
 70
     1
102
RTVSPropertyOp13
 70
     1
102
RTVSPropertyOp14
 70
     1
102
RTVSPropertyOp15
 70
     1
102
RTVSPropertyOp16
 70
     1
102
RTVSPropertyOp17
 70
     1
102
RTVSPropertyOp18
 70
     1
102
RTVSPropertyOp19
 70
     1
102
RTVSPropertyOp20
 70
     1
102
RTVSPropertyOp21
 70
     1
102
RTVSPropertyOp22
 70
     1
102
RTVSPropertyOp23
 70
     1
102
RTVSPropertyOp24
 70
     1
102
RTVSPropertyOp25
 70
     1
102
RTVSPropertyOp26
 70
     1
102
RTVSPropertyOp27
 70
     1
  0
XRECORD
  5
12E3
102
{ACAD_REACTORS
330
12E2
102
}
330
12E2
100
AcDbXrecord
280
     1
102
RTVSPropertyOp0
 70
     0
102
RTVSPropertyOp1
 70
     0
102
RTVSPropertyOp2
 70
     0
102
RTVSPropertyOp3
 70
     0
102
RTVSPropertyOp4
 70
     0
102
RTVSPropertyOp5
 70
     0
102
RTVSPropertyOp6
 70
     0
102
RTVSPropertyOp7
 70
     0
102
RTVSPropertyOp8
 70
     0
102
RTVSPropertyOp9
 70
     0
102
RTVSPropertyOp10
 70
     0
102
RTVSPropertyOp11
 70
     0
102
RTVSPropertyOp12
 70
     0
102
RTVSPropertyOp13
 70
     0
102
RTVSPropertyOp14
 70
     2
102
RTVSPropertyOp15
 70
     0
102
RTVSPropertyOp16
 70
     0
102
RTVSPropertyOp17
 70
     0
102
RTVSPropertyOp18
 70
     0
102
RTVSPropertyOp19
 70
     0
102
RTVSPropertyOp20
 70
     0
102
RTVSPropertyOp21
 70
     0
102
RTVSPropertyOp22
 70
     0
102
RTVSPropertyOp23
 70
     0
102
RTVSPropertyOp24
 70
     0
102
RTVSPropertyOp25
 70
     0
102
RTVSPropertyOp26
 70
     0
102
RTVSPropertyOp27
 70
     0
  0
XRECORD
  5
12DB
102
{ACAD_REACTORS
330
12DA
102
}
330
12DA
100
AcDbXrecord
280
     1
102
RTVSPropertyOp0
 70
     1
102
RTVSPropertyOp1
 70
     1
102
RTVSPropertyOp2
 70
     1
102
RTVSPropertyOp3
 70
     1
102
RTVSPropertyOp4
 70
     1
102
RTVSPropertyOp5
 70
     1
102
RTVSPropertyOp6
 70
     1
102
RTVSPropertyOp7
 70
     1
102
RTVSPropertyOp8
 70
     1
102
RTVSPropertyOp9
 70
     1
102
RTVSPropertyOp10
 70
     1
102
RTVSPropertyOp11
 70
     1
102
RTVSPropertyOp12
 70
     1
102
RTVSPropertyOp13
 70
     1
102
RTVSPropertyOp14
 70
     1
102
RTVSPropertyOp15
 70
     1
102
RTVSPropertyOp16
 70
     1
102
RTVSPropertyOp17
 70
     1
102
RTVSPropertyOp18
 70
     1
102
RTVSPropertyOp19
 70
     1
102
RTVSPropertyOp20
 70
     1
102
RTVSPropertyOp21
 70
     1
102
RTVSPropertyOp22
 70
     1
102
RTVSPropertyOp23
 70
     1
102
RTVSPropertyOp24
 70
     1
102
RTVSPropertyOp25
 70
     1
102
RTVSPropertyOp26
 70
     1
102
RTVSPropertyOp27
 70
     1
  0
XRECORD
  5
12BF
102
{ACAD_REACTORS
330
12BE
102
}
330
12BE
100
AcDbXrecord
280
     1
102
RTVSPropertyOp0
 70
     1
102
RTVSPropertyOp1
 70
     1
102
RTVSPropertyOp2
 70
     1
102
RTVSPropertyOp3
 70
     1
102
RTVSPropertyOp4
 70
     1
102
RTVSPropertyOp5
 70
     1
102
RTVSPropertyOp6
 70
     1
102
RTVSPropertyOp7
 70
     1
102
RTVSPropertyOp8
 70
     1
102
RTVSPropertyOp9
 70
     1
102
RTVSPropertyOp10
 70
     1
102
RTVSPropertyOp11
 70
     1
102
RTVSPropertyOp12
 70
     1
102
RTVSPropertyOp13
 70
     1
102
RTVSPropertyOp14
 70
     1
102
RTVSPropertyOp15
 70
     1
102
RTVSPropertyOp16
 70
     1
102
RTVSPropertyOp17
 70
     1
102
RTVSPropertyOp18
 70
     1
102
RTVSPropertyOp19
 70
     1
102
RTVSPropertyOp20
 70
     1
102
RTVSPropertyOp21
 70
     1
102
RTVSPropertyOp22
 70
     1
102
RTVSPropertyOp23
 70
     1
102
RTVSPropertyOp24
 70
     1
102
RTVSPropertyOp25
 70
     1
102
RTVSPropertyOp26
 70
     1
102
RTVSPropertyOp27
 70
     1
  0
XRECORD
  5
12C1
102
{ACAD_REACTORS
330
12C0
102
}
330
12C0
100
AcDbXrecord
280
     1
102
RTVSPropertyOp0
 70
     1
102
RTVSPropertyOp1
 70
     1
102
RTVSPropertyOp2
 70
     1
102
RTVSPropertyOp3
 70
     1
102
RTVSPropertyOp4
 70
     1
102
RTVSPropertyOp5
 70
     1
102
RTVSPropertyOp6
 70
     1
102
RTVSPropertyOp7
 70
     1
102
RTVSPropertyOp8
 70
     1
102
RTVSPropertyOp9
 70
     1
102
RTVSPropertyOp10
 70
     1
102
RTVSPropertyOp11
 70
     1
102
RTVSPropertyOp12
 70
     1
102
RTVSPropertyOp13
 70
     1
102
RTVSPropertyOp14
 70
     1
102
RTVSPropertyOp15
 70
     1
102
RTVSPropertyOp16
 70
     1
102
RTVSPropertyOp17
 70
     1
102
RTVSPropertyOp18
 70
     1
102
RTVSPropertyOp19
 70
     1
102
RTVSPropertyOp20
 70
     1
102
RTVSPropertyOp21
 70
     1
102
RTVSPropertyOp22
 70
     1
102
RTVSPropertyOp23
 70
     1
102
RTVSPropertyOp24
 70
     1
102
RTVSPropertyOp25
 70
     1
102
RTVSPropertyOp26
 70
     1
102
RTVSPropertyOp27
 70
     1
  0
XRECORD
  5
12C3
102
{ACAD_REACTORS
330
12C2
102
}
330
12C2
100
AcDbXrecord
280
     1
102
RTVSPropertyOp0
 70
     1
102
RTVSPropertyOp1
 70
     1
102
RTVSPropertyOp2
 70
     1
102
RTVSPropertyOp3
 70
     1
102
RTVSPropertyOp4
 70
     1
102
RTVSPropertyOp5
 70
     1
102
RTVSPropertyOp6
 70
     1
102
RTVSPropertyOp7
 70
     1
102
RTVSPropertyOp8
 70
     1
102
RTVSPropertyOp9
 70
     1
102
RTVSPropertyOp10
 70
     1
102
RTVSPropertyOp11
 70
     1
102
RTVSPropertyOp12
 70
     1
102
RTVSPropertyOp13
 70
     1
102
RTVSPropertyOp14
 70
     1
102
RTVSPropertyOp15
 70
     1
102
RTVSPropertyOp16
 70
     1
102
RTVSPropertyOp17
 70
     1
102
RTVSPropertyOp18
 70
     1
102
RTVSPropertyOp19
 70
     1
102
RTVSPropertyOp20
 70
     1
102
RTVSPropertyOp21
 70
     1
102
RTVSPropertyOp22
 70
     1
102
RTVSPropertyOp23
 70
     1
102
RTVSPropertyOp24
 70
     1
102
RTVSPropertyOp25
 70
     1
102
RTVSPropertyOp26
 70
     1
102
RTVSPropertyOp27
 70
     1
  0
XRECORD
  5
12C5
102
{ACAD_REACTORS
330
12C4
102
}
330
12C4
100
AcDbXrecord
280
     1
102
RTVSPropertyOp0
 70
     1
102
RTVSPropertyOp1
 70
     1
102
RTVSPropertyOp2
 70
     1
102
RTVSPropertyOp3
 70
     1
102
RTVSPropertyOp4
 70
     1
102
RTVSPropertyOp5
 70
     1
102
RTVSPropertyOp6
 70
     1
102
RTVSPropertyOp7
 70
     1
102
RTVSPropertyOp8
 70
     1
102
RTVSPropertyOp9
 70
     1
102
RTVSPropertyOp10
 70
     1
102
RTVSPropertyOp11
 70
     1
102
RTVSPropertyOp12
 70
     1
102
RTVSPropertyOp13
 70
     1
102
RTVSPropertyOp14
 70
     1
102
RTVSPropertyOp15
 70
     1
102
RTVSPropertyOp16
 70
     1
102
RTVSPropertyOp17
 70
     1
102
RTVSPropertyOp18
 70
     1
102
RTVSPropertyOp19
 70
     1
102
RTVSPropertyOp20
 70
     1
102
RTVSPropertyOp21
 70
     1
102
RTVSPropertyOp22
 70
     1
102
RTVSPropertyOp23
 70
     1
102
RTVSPropertyOp24
 70
     1
102
RTVSPropertyOp25
 70
     1
102
RTVSPropertyOp26
 70
     1
102
RTVSPropertyOp27
 70
     1
  0
XRECORD
  5
12DF
102
{ACAD_REACTORS
330
12DE
102
}
330
12DE
100
AcDbXrecord
280
     1
102
RTVSPropertyOp0
 70
     0
102
RTVSPropertyOp1
 70
     0
102
RTVSPropertyOp2
 70
     0
102
RTVSPropertyOp3
 70
     0
102
RTVSPropertyOp4
 70
     0
102
RTVSPropertyOp5
 70
     0
102
RTVSPropertyOp6
 70
     0
102
RTVSPropertyOp7
 70
     0
102
RTVSPropertyOp8
 70
     0
102
RTVSPropertyOp9
 70
     0
102
RTVSPropertyOp10
 70
     0
102
RTVSPropertyOp11
 70
     0
102
RTVSPropertyOp12
 70
     0
102
RTVSPropertyOp13
 70
     0
102
RTVSPropertyOp14
 70
     2
102
RTVSPropertyOp15
 70
     0
102
RTVSPropertyOp16
 70
     0
102
RTVSPropertyOp17
 70
     0
102
RTVSPropertyOp18
 70
     0
102
RTVSPropertyOp19
 70
     0
102
RTVSPropertyOp20
 70
     0
102
RTVSPropertyOp21
 70
     0
102
RTVSPropertyOp22
 70
     0
102
RTVSPropertyOp23
 70
     0
102
RTVSPropertyOp24
 70
     0
102
RTVSPropertyOp25
 70
     0
102
RTVSPropertyOp26
 70
     0
102
RTVSPropertyOp27
 70
     0
  0
XRECORD
  5
12D9
102
{ACAD_REACTORS
330
12D8
102
}
330
12D8
100
AcDbXrecord
280
     1
102
RTVSPropertyOp0
 70
     1
102
RTVSPropertyOp1
 70
     1
102
RTVSPropertyOp2
 70
     1
102
RTVSPropertyOp3
 70
     1
102
RTVSPropertyOp4
 70
     1
102
RTVSPropertyOp5
 70
     1
102
RTVSPropertyOp6
 70
     1
102
RTVSPropertyOp7
 70
     1
102
RTVSPropertyOp8
 70
     1
102
RTVSPropertyOp9
 70
     1
102
RTVSPropertyOp10
 70
     1
102
RTVSPropertyOp11
 70
     1
102
RTVSPropertyOp12
 70
     1
102
RTVSPropertyOp13
 70
     1
102
RTVSPropertyOp14
 70
     1
102
RTVSPropertyOp15
 70
     1
102
RTVSPropertyOp16
 70
     1
102
RTVSPropertyOp17
 70
     1
102
RTVSPropertyOp18
 70
     1
102
RTVSPropertyOp19
 70
     1
102
RTVSPropertyOp20
 70
     1
102
RTVSPropertyOp21
 70
     1
102
RTVSPropertyOp22
 70
     1
102
RTVSPropertyOp23
 70
     1
102
RTVSPropertyOp24
 70
     1
102
RTVSPropertyOp25
 70
     1
102
RTVSPropertyOp26
 70
     1
102
RTVSPropertyOp27
 70
     1
  0
XRECORD
  5
12E1
102
{ACAD_REACTORS
330
12E0
102
}
330
12E0
100
AcDbXrecord
280
     1
102
RTVSPropertyOp0
 70
     0
102
RTVSPropertyOp1
 70
     0
102
RTVSPropertyOp2
 70
     0
102
RTVSPropertyOp3
 70
     0
102
RTVSPropertyOp4
 70
     0
102
RTVSPropertyOp5
 70
     0
102
RTVSPropertyOp6
 70
     0
102
RTVSPropertyOp7
 70
     0
102
RTVSPropertyOp8
 70
     0
102
RTVSPropertyOp9
 70
     0
102
RTVSPropertyOp10
 70
     0
102
RTVSPropertyOp11
 70
     0
102
RTVSPropertyOp12
 70
     0
102
RTVSPropertyOp13
 70
     0
102
RTVSPropertyOp14
 70
     2
102
RTVSPropertyOp15
 70
     0
102
RTVSPropertyOp16
 70
     0
102
RTVSPropertyOp17
 70
     0
102
RTVSPropertyOp18
 70
     0
102
RTVSPropertyOp19
 70
     0
102
RTVSPropertyOp20
 70
     0
102
RTVSPropertyOp21
 70
     0
102
RTVSPropertyOp22
 70
     0
102
RTVSPropertyOp23
 70
     0
102
RTVSPropertyOp24
 70
     0
102
RTVSPropertyOp25
 70
     0
102
RTVSPropertyOp26
 70
     0
102
RTVSPropertyOp27
 70
     0
  0
XRECORD
  5
12D1
102
{ACAD_REACTORS
330
12D0
102
}
330
12D0
100
AcDbXrecord
280
     1
102
RTVSPropertyOp0
 70
     1
102
RTVSPropertyOp1
 70
     1
102
RTVSPropertyOp2
 70
     1
102
RTVSPropertyOp3
 70
     1
102
RTVSPropertyOp4
 70
     1
102
RTVSPropertyOp5
 70
     1
102
RTVSPropertyOp6
 70
     1
102
RTVSPropertyOp7
 70
     1
102
RTVSPropertyOp8
 70
     1
102
RTVSPropertyOp9
 70
     1
102
RTVSPropertyOp10
 70
     1
102
RTVSPropertyOp11
 70
     1
102
RTVSPropertyOp12
 70
     1
102
RTVSPropertyOp13
 70
     1
102
RTVSPropertyOp14
 70
     1
102
RTVSPropertyOp15
 70
     1
102
RTVSPropertyOp16
 70
     1
102
RTVSPropertyOp17
 70
     1
102
RTVSPropertyOp18
 70
     1
102
RTVSPropertyOp19
 70
     1
102
RTVSPropertyOp20
 70
     1
102
RTVSPropertyOp21
 70
     1
102
RTVSPropertyOp22
 70
     1
102
RTVSPropertyOp23
 70
     1
102
RTVSPropertyOp24
 70
     1
102
RTVSPropertyOp25
 70
     1
102
RTVSPropertyOp26
 70
     1
102
RTVSPropertyOp27
 70
     1
  0
XRECORD
  5
12D7
102
{ACAD_REACTORS
330
12D6
102
}
330
12D6
100
AcDbXrecord
280
     1
102
RTVSPropertyOp0
 70
     1
102
RTVSPropertyOp1
 70
     1
102
RTVSPropertyOp2
 70
     1
102
RTVSPropertyOp3
 70
     1
102
RTVSPropertyOp4
 70
     1
102
RTVSPropertyOp5
 70
     1
102
RTVSPropertyOp6
 70
     1
102
RTVSPropertyOp7
 70
     1
102
RTVSPropertyOp8
 70
     1
102
RTVSPropertyOp9
 70
     1
102
RTVSPropertyOp10
 70
     1
102
RTVSPropertyOp11
 70
     1
102
RTVSPropertyOp12
 70
     1
102
RTVSPropertyOp13
 70
     1
102
RTVSPropertyOp14
 70
     1
102
RTVSPropertyOp15
 70
     1
102
RTVSPropertyOp16
 70
     1
102
RTVSPropertyOp17
 70
     1
102
RTVSPropertyOp18
 70
     1
102
RTVSPropertyOp19
 70
     1
102
RTVSPropertyOp20
 70
     1
102
RTVSPropertyOp21
 70
     1
102
RTVSPropertyOp22
 70
     1
102
RTVSPropertyOp23
 70
     1
102
RTVSPropertyOp24
 70
     1
102
RTVSPropertyOp25
 70
     1
102
RTVSPropertyOp26
 70
     1
102
RTVSPropertyOp27
 70
     1
  0
ENDSEC
  0
EOF
