  0
SECTION
  2
HEADER
  9
$ACADVER
  1
AC1015
  9
$ACADMAINTVER
 70
    20
  9
$DWGCODEPAGE
  3
ANSI_1252
  9
$INSBASE
 10
0.0
 20
0.0
 30
0.0
  9
$EXTMIN
 10
750.3779679673098
 20
1043.063444654863
 30
0.0
  9
$EXTMAX
 10
752.843152153664
 20
1043.628444654863
 30
0.0
  9
$LIMMIN
 10
0.0
 20
0.0
  9
$LIMMAX
 10
420.0
 20
297.0
  9
$ORTHOMODE
 70
     1
  9
$REGENMODE
 70
     1
  9
$FILLMODE
 70
     1
  9
$QTEXTMODE
 70
     0
  9
$MIRRTEXT
 70
     0
  9
$LTSCALE
 40
1.0
  9
$ATTMODE
 70
     1
  9
$TEXTSIZE
 40
2.5
  9
$TRACEWID
 40
1.0
  9
$TEXTSTYLE
  7
Standard
  9
$CLAYER
  8
0
  9
$CELTYPE
  6
ByLayer
  9
$CECOLOR
 62
   256
  9
$CELTSCALE
 40
1.0
  9
$DISPSILH
 70
     0
  9
$DIMSCALE
 40
1.0
  9
$DIMASZ
 40
2.5
  9
$DIMEXO
 40
0.625
  9
$DIMDLI
 40
3.75
  9
$DIMRND
 40
0.0
  9
$DIMDLE
 40
0.0
  9
$DIMEXE
 40
1.25
  9
$DIMTP
 40
0.0
  9
$DIMTM
 40
0.0
  9
$DIMTXT
 40
2.5
  9
$DIMCEN
 40
2.5
  9
$DIMTSZ
 40
0.0
  9
$DIMTOL
 70
     0
  9
$DIMLIM
 70
     0
  9
$DIMTIH
 70
     0
  9
$DIMTOH
 70
     0
  9
$DIMSE1
 70
     0
  9
$DIMSE2
 70
     0
  9
$DIMTAD
 70
     1
  9
$DIMZIN
 70
     8
  9
$DIMBLK
  1

  9
$DIMASO
 70
     1
  9
$DIMSHO
 70
     1
  9
$DIMPOST
  1

  9
$DIMAPOST
  1

  9
$DIMALT
 70
     0
  9
$DIMALTD
 70
     3
  9
$DIMALTF
 40
0.03937007874016
  9
$DIMLFAC
 40
1.0
  9
$DIMTOFL
 70
     1
  9
$DIMTVP
 40
0.0
  9
$DIMTIX
 70
     0
  9
$DIMSOXD
 70
     0
  9
$DIMSAH
 70
     0
  9
$DIMBLK1
  1

  9
$DIMBLK2
  1

  9
$DIMSTYLE
  2
ISO-25
  9
$DIMCLRD
 70
     0
  9
$DIMCLRE
 70
     0
  9
$DIMCLRT
 70
     0
  9
$DIMTFAC
 40
1.0
  9
$DIMGAP
 40
0.625
  9
$DIMJUST
 70
     0
  9
$DIMSD1
 70
     0
  9
$DIMSD2
 70
     0
  9
$DIMTOLJ
 70
     0
  9
$DIMTZIN
 70
     8
  9
$DIMALTZ
 70
     0
  9
$DIMALTTZ
 70
     0
  9
$DIMUPT
 70
     0
  9
$DIMDEC
 70
     2
  9
$DIMTDEC
 70
     2
  9
$DIMALTU
 70
     2
  9
$DIMALTTD
 70
     3
  9
$DIMTXSTY
  7
Standard
  9
$DIMAUNIT
 70
     0
  9
$DIMADEC
 70
     0
  9
$DIMALTRND
 40
0.0
  9
$DIMAZIN
 70
     0
  9
$DIMDSEP
 70
    44
  9
$DIMATFIT
 70
     3
  9
$DIMFRAC
 70
     0
  9
$DIMLDRBLK
  1

  9
$DIMLUNIT
 70
     2
  9
$DIMLWD
 70
    -2
  9
$DIMLWE
 70
    -2
  9
$DIMTMOVE
 70
     0
  9
$LUNITS
 70
     2
  9
$LUPREC
 70
     4
  9
$SKETCHINC
 40
1.0
  9
$FILLETRAD
 40
0.0
  9
$AUNITS
 70
     0
  9
$AUPREC
 70
     0
  9
$MENU
  1
.
  9
$ELEVATION
 40
0.0
  9
$PELEVATION
 40
0.0
  9
$THICKNESS
 40
0.0
  9
$LIMCHECK
 70
     0
  9
$CHAMFERA
 40
0.0
  9
$CHAMFERB
 40
0.0
  9
$CHAMFERC
 40
0.0
  9
$CHAMFERD
 40
0.0
  9
$SKPOLY
 70
     0
  9
$TDCREATE
 40
2453797.553047408
  9
$TDUCREATE
 40
2453797.511380741
  9
$TDUPDATE
 40
2456149.584330868
  9
$TDUUPDATE
 40
2456149.542664202
  9
$TDINDWG
 40
0.0094232870
  9
$TDUSRTIMER
 40
0.0094232870
  9
$USRTIMER
 70
     1
  9
$ANGBASE
 50
0.0
  9
$ANGDIR
 70
     0
  9
$PDMODE
 70
     0
  9
$PDSIZE
 40
0.0
  9
$PLINEWID
 40
0.0
  9
$SPLFRAME
 70
     0
  9
$SPLINETYPE
 70
     6
  9
$SPLINESEGS
 70
     8
  9
$HANDSEED
  5
6F8
  9
$SURFTAB1
 70
     6
  9
$SURFTAB2
 70
     6
  9
$SURFTYPE
 70
     6
  9
$SURFU
 70
     6
  9
$SURFV
 70
     6
  9
$UCSBASE
  2

  9
$UCSNAME
  2

  9
$UCSORG
 10
0.0
 20
0.0
 30
0.0
  9
$UCSXDIR
 10
1.0
 20
0.0
 30
0.0
  9
$UCSYDIR
 10
0.0
 20
1.0
 30
0.0
  9
$UCSORTHOREF
  2

  9
$UCSORTHOVIEW
 70
     0
  9
$UCSORGTOP
 10
0.0
 20
0.0
 30
0.0
  9
$UCSORGBOTTOM
 10
0.0
 20
0.0
 30
0.0
  9
$UCSORGLEFT
 10
0.0
 20
0.0
 30
0.0
  9
$UCSORGRIGHT
 10
0.0
 20
0.0
 30
0.0
  9
$UCSORGFRONT
 10
0.0
 20
0.0
 30
0.0
  9
$UCSORGBACK
 10
0.0
 20
0.0
 30
0.0
  9
$PUCSBASE
  2

  9
$PUCSNAME
  2

  9
$PUCSORG
 10
0.0
 20
0.0
 30
0.0
  9
$PUCSXDIR
 10
1.0
 20
0.0
 30
0.0
  9
$PUCSYDIR
 10
0.0
 20
1.0
 30
0.0
  9
$PUCSORTHOREF
  2

  9
$PUCSORTHOVIEW
 70
     0
  9
$PUCSORGTOP
 10
0.0
 20
0.0
 30
0.0
  9
$PUCSORGBOTTOM
 10
0.0
 20
0.0
 30
0.0
  9
$PUCSORGLEFT
 10
0.0
 20
0.0
 30
0.0
  9
$PUCSORGRIGHT
 10
0.0
 20
0.0
 30
0.0
  9
$PUCSORGFRONT
 10
0.0
 20
0.0
 30
0.0
  9
$PUCSORGBACK
 10
0.0
 20
0.0
 30
0.0
  9
$USERI1
 70
     0
  9
$USERI2
 70
     0
  9
$USERI3
 70
     0
  9
$USERI4
 70
     0
  9
$USERI5
 70
     0
  9
$USERR1
 40
0.0
  9
$USERR2
 40
0.0
  9
$USERR3
 40
0.0
  9
$USERR4
 40
0.0
  9
$USERR5
 40
0.0
  9
$WORLDVIEW
 70
     1
  9
$SHADEDGE
 70
     3
  9
$SHADEDIF
 70
    70
  9
$TILEMODE
 70
     1
  9
$MAXACTVP
 70
    64
  9
$PINSBASE
 10
0.0
 20
0.0
 30
0.0
  9
$PLIMCHECK
 70
     0
  9
$PEXTMIN
 10
1.000000000000000E+20
 20
1.000000000000000E+20
 30
1.000000000000000E+20
  9
$PEXTMAX
 10
-1.000000000000000E+20
 20
-1.000000000000000E+20
 30
-1.000000000000000E+20
  9
$PLIMMIN
 10
0.0
 20
0.0
  9
$PLIMMAX
 10
420.0
 20
297.0
  9
$UNITMODE
 70
     0
  9
$VISRETAIN
 70
     1
  9
$PLINEGEN
 70
     0
  9
$PSLTSCALE
 70
     1
  9
$TREEDEPTH
 70
  3020
  9
$CMLSTYLE
  2
Standard
  9
$CMLJUST
 70
     0
  9
$CMLSCALE
 40
20.0
  9
$PROXYGRAPHICS
 70
     1
  9
$MEASUREMENT
 70
     1
  9
$CELWEIGHT
370
    -1
  9
$ENDCAPS
280
     0
  9
$JOINSTYLE
280
     0
  9
$LWDISPLAY
290
     0
  9
$INSUNITS
 70
     4
  9
$HYPERLINKBASE
  1

  9
$STYLESHEET
  1

  9
$XEDIT
290
     1
  9
$CEPSNTYPE
380
     0
  9
$PSTYLEMODE
290
     1
  9
$FINGERPRINTGUID
  2
{415159D6-8983-48E6-BBAD-D6F1FB62ECC0}
  9
$VERSIONGUID
  2
{6EC0CD51-CACE-41B1-B4B7-AD1AFDD45807}
  9
$EXTNAMES
290
     1
  9
$PSVPSCALE
 40
0.0
  9
$OLESTARTUP
290
     0
  0
ENDSEC
  0
SECTION
  2
CLASSES
  0
CLASS
  1
ACDBDICTIONARYWDFLT
  2
AcDbDictionaryWithDefault
  3
ObjectDBX Classes
 90
        0
280
     0
281
     0
  0
CLASS
  1
TABLESTYLE
  2
AcDbTableStyle
  3
ObjectDBX Classes
 90
     4095
280
     0
281
     0
  0
CLASS
  1
DICTIONARYVAR
  2
AcDbDictionaryVar
  3
ObjectDBX Classes
 90
        0
280
     0
281
     0
  0
CLASS
  1
ACDBPLACEHOLDER
  2
AcDbPlaceHolder
  3
ObjectDBX Classes
 90
        0
280
     0
281
     0
  0
CLASS
  1
LAYOUT
  2
AcDbLayout
  3
ObjectDBX Classes
 90
        0
280
     0
281
     0
  0
CLASS
  1
MATERIAL
  2
AcDbMaterial
  3
ObjectDBX Classes
 90
     1153
280
     0
281
     0
  0
CLASS
  1
VISUALSTYLE
  2
AcDbVisualStyle
  3
ObjectDBX Classes
 90
     4095
280
     0
281
     0
  0
CLASS
  1
SCALE
  2
AcDbScale
  3
ObjectDBX Classes
 90
     1153
280
     0
281
     0
  0
CLASS
  1
MLEADERSTYLE
  2
AcDbMLeaderStyle
  3
ACDB_MLEADERSTYLE_CLASS
 90
     4095
280
     0
281
     0
  0
CLASS
  1
CELLSTYLEMAP
  2
AcDbCellStyleMap
  3
ObjectDBX Classes
 90
     1152
280
     0
281
     0
  0
ENDSEC
  0
SECTION
  2
TABLES
  0
TABLE
  2
VPORT
  5
8
330
0
100
AcDbSymbolTable
 70
     1
  0
VPORT
  5
65B
330
8
100
AcDbSymbolTableRecord
100
AcDbViewportTableRecord
  2
*Active
 70
     0
 10
0.0
 20
0.0
 11
1.0
 21
1.0
 12
751.6105600604869
 22
1043.345944654863
 13
0.0
 23
0.0
 14
10.0
 24
10.0
 15
10.0
 25
10.0
 16
0.0
 26
0.0
 36
1.0
 17
0.0
 27
0.0
 37
0.0
 40
1.503860132304358
 41
1.645464025026068
 42
50.0
 43
0.0
 44
0.0
 50
0.0
 51
0.0
 71
     0
 72
  1000
 73
     1
 74
     3
 75
     0
 76
     0
 77
     0
 78
     0
281
     0
 65
     1
110
0.0
120
0.0
130
0.0
111
1.0
121
0.0
131
0.0
112
0.0
122
1.0
132
0.0
 79
     0
146
0.0
  0
ENDTAB
  0
TABLE
  2
LTYPE
  5
5
330
0
100
AcDbSymbolTable
 70
     3
  0
LTYPE
  5
14
330
5
100
AcDbSymbolTableRecord
100
AcDbLinetypeTableRecord
  2
ByBlock
 70
     0
  3

 72
    65
 73
     0
 40
0.0
  0
LTYPE
  5
15
330
5
100
AcDbSymbolTableRecord
100
AcDbLinetypeTableRecord
  2
ByLayer
 70
     0
  3

 72
    65
 73
     0
 40
0.0
  0
LTYPE
  5
16
330
5
100
AcDbSymbolTableRecord
100
AcDbLinetypeTableRecord
  2
Continuous
 70
     0
  3
Solid line
 72
    65
 73
     0
 40
0.0
  0
LTYPE
  5
2F
330
5
100
AcDbSymbolTableRecord
100
AcDbLinetypeTableRecord
  2
DASHDOT
 70
     0
  3
Dash dot __ . __ . __ . __ . __ . __ . __ . __
 72
    65
 73
     4
 40
25.4
 49
12.7
 74
     0
 49
-6.349999999999999
 74
     0
 49
0.0
 74
     0
 49
-6.349999999999999
 74
     0
  0
LTYPE
  5
30
330
5
100
AcDbSymbolTableRecord
100
AcDbLinetypeTableRecord
  2
HIDDEN
 70
     0
  3
Hidden __ __ __ __ __ __ __ __ __ __ __ __ __ _
 72
    65
 73
     2
 40
9.524999999999998
 49
6.349999999999999
 74
     0
 49
-3.174999999999999
 74
     0
  0
ENDTAB
  0
TABLE
  2
LAYER
  5
2
330
0
100
AcDbSymbolTable
 70
    10
  0
LAYER
  5
10
102
{ACAD_XDICTIONARY
360
6AA
102
}
330
2
100
AcDbSymbolTableRecord
100
AcDbLayerTableRecord
  2
0
 70
     0
 62
     7
  6
Continuous
370
    -3
390
F
  0
LAYER
  5
31
102
{ACAD_XDICTIONARY
360
6AC
102
}
330
2
100
AcDbSymbolTableRecord
100
AcDbLayerTableRecord
  2
2
 70
     0
 62
     2
  6
Continuous
370
    -3
390
F
  0
LAYER
  5
32
102
{ACAD_XDICTIONARY
360
6AE
102
}
330
2
100
AcDbSymbolTableRecord
100
AcDbLayerTableRecord
  2
4
 70
     0
 62
     4
  6
Continuous
370
    -3
390
F
  0
LAYER
  5
33
102
{ACAD_XDICTIONARY
360
6B0
102
}
330
2
100
AcDbSymbolTableRecord
100
AcDbLayerTableRecord
  2
cen
 70
     0
 62
     7
  6
DASHDOT
370
    -3
390
F
  0
LAYER
  5
34
102
{ACAD_XDICTIONARY
360
6B2
102
}
330
2
100
AcDbSymbolTableRecord
100
AcDbLayerTableRecord
  2
hid
 70
     0
 62
     7
  6
HIDDEN
370
    -3
390
F
  0
LAYER
  5
35
102
{ACAD_XDICTIONARY
360
6B4
102
}
330
2
100
AcDbSymbolTableRecord
100
AcDbLayerTableRecord
  2
hatch
 70
     0
 62
     9
  6
Continuous
370
    -3
390
F
  0
LAYER
  5
36
102
{ACAD_XDICTIONARY
360
6B6
102
}
330
2
100
AcDbSymbolTableRecord
100
AcDbLayerTableRecord
  2
9
 70
     0
 62
     9
  6
Continuous
370
    -3
390
F
  0
LAYER
  5
37
102
{ACAD_XDICTIONARY
360
6B8
102
}
330
2
100
AcDbSymbolTableRecord
100
AcDbLayerTableRecord
  2
cotas
 70
     0
 62
     1
  6
Continuous
370
    -3
390
F
  0
LAYER
  5
38
102
{ACAD_XDICTIONARY
360
6BA
102
}
330
2
100
AcDbSymbolTableRecord
100
AcDbLayerTableRecord
  2
indusa
 70
     0
 62
     3
  6
Continuous
370
    -3
390
F
  0
LAYER
  5
39
102
{ACAD_XDICTIONARY
360
6BC
102
}
330
2
100
AcDbSymbolTableRecord
100
AcDbLayerTableRecord
  2
SANINDUSA
 70
     0
 62
     3
  6
Continuous
370
    -3
390
F
  0
ENDTAB
  0
TABLE
  2
STYLE
  5
3
330
0
100
AcDbSymbolTable
 70
     2
  0
STYLE
  5
11
330
3
100
AcDbSymbolTableRecord
100
AcDbTextStyleTableRecord
  2
Standard
 70
     0
 40
0.0
 41
1.0
 50
0.0
 71
     0
 42
2.5
  3
txt
  4

  0
STYLE
  5
3A
330
3
100
AcDbSymbolTableRecord
100
AcDbTextStyleTableRecord
  2
SANINDUSA
 70
     0
 40
0.0
 41
1.0
 50
0.0
 71
     0
 42
2.5
  3
verdana.TTF
  4

1001
ACAD
1000
Verdana
1071
       34
  0
ENDTAB
  0
TABLE
  2
VIEW
  5
6
330
0
100
AcDbSymbolTable
 70
     0
  0
ENDTAB
  0
TABLE
  2
UCS
  5
7
330
0
100
AcDbSymbolTable
 70
     0
  0
ENDTAB
  0
TABLE
  2
APPID
  5
9
330
0
100
AcDbSymbolTable
 70
     3
  0
APPID
  5
12
330
9
100
AcDbSymbolTableRecord
100
AcDbRegAppTableRecord
  2
ACAD
 70
     0
  0
APPID
  5
3C
330
9
100
AcDbSymbolTableRecord
100
AcDbRegAppTableRecord
  2
DCO15
 70
     0
  0
APPID
  5
6F7
330
9
100
AcDbSymbolTableRecord
100
AcDbRegAppTableRecord
  2
ACAD_MLEADERVER
 70
     0
  0
ENDTAB
  0
TABLE
  2
DIMSTYLE
  5
A
330
0
100
AcDbSymbolTable
 70
     2
100
AcDbDimStyleTable
 71
     1
340
2B
  0
DIMSTYLE
105
2B
330
A
100
AcDbSymbolTableRecord
100
AcDbDimStyleTableRecord
  2
ISO-25
 70
     0
 41
2.5
 42
0.625
 43
3.75
 44
1.25
 73
     0
 74
     0
 77
     1
 78
     8
140
2.5
141
2.5
143
0.03937007874016
147
0.625
171
     3
172
     1
271
     2
272
     2
274
     3
278
    44
283
     0
284
     8
340
11
  0
DIMSTYLE
105
3B
330
A
100
AcDbSymbolTableRecord
100
AcDbDimStyleTableRecord
  2
SANINDUSA
 70
     0
 41
10.0
 42
4.0
 43
4.0
 44
4.0
 73
     0
 74
     0
 77
     1
 78
     8
140
10.0
141
0.0
143
0.03937007874016
147
5.0
171
     3
172
     1
176
   256
177
   256
178
   256
179
     1
271
     1
272
     1
274
     3
278
    44
283
     0
284
     8
340
3A
371
    -1
372
    -1
  0
ENDTAB
  0
TABLE
  2
BLOCK_RECORD
  5
1
330
0
100
AcDbSymbolTable
 70
     1
  0
BLOCK_RECORD
  5
23
330
1
100
AcDbSymbolTableRecord
100
AcDbBlockTableRecord
  2
*Model_Space
340
26
  0
BLOCK_RECORD
  5
1F
330
1
100
AcDbSymbolTableRecord
100
AcDbBlockTableRecord
  2
*Paper_Space
340
22
  0
BLOCK_RECORD
  5
27
330
1
100
AcDbSymbolTableRecord
100
AcDbBlockTableRecord
  2
*Paper_Space0
340
2A
  0
ENDTAB
  0
ENDSEC
  0
SECTION
  2
BLOCKS
  0
BLOCK
  5
24
330
23
100
AcDbEntity
  8
0
100
AcDbBlockBegin
  2
*Model_Space
 70
     0
 10
0.0
 20
0.0
 30
0.0
  3
*Model_Space
  1

  0
ENDBLK
  5
25
330
23
100
AcDbEntity
  8
0
100
AcDbBlockEnd
  0
BLOCK
  5
20
330
1F
100
AcDbEntity
 67
     1
  8
0
100
AcDbBlockBegin
  2
*Paper_Space
 70
     0
 10
0.0
 20
0.0
 30
0.0
  3
*Paper_Space
  1

  0
ENDBLK
  5
21
330
1F
100
AcDbEntity
 67
     1
  8
0
100
AcDbBlockEnd
  0
BLOCK
  5
28
330
27
100
AcDbEntity
 67
     1
  8
0
100
AcDbBlockBegin
  2
*Paper_Space0
 70
     0
 10
0.0
 20
0.0
 30
0.0
  3
*Paper_Space0
  1

  0
ENDBLK
  5
29
330
27
100
AcDbEntity
 67
     1
  8
0
100
AcDbBlockEnd
  0
ENDSEC
  0
SECTION
  2
ENTITIES
  0
LWPOLYLINE
  5
397
330
23
100
AcDbEntity
  8
SANINDUSA
100
AcDbPolyline
 90
        7
 70
   128
 43
0.0
 10
752.0311166899037
 20
1043.385438919431
 10
752.0270554048051
 20
1043.379035531404
 10
752.0205809341419
 20
1043.37043025967
 10
752.0135437139398
 20
1043.362562737034
 10
752.0059759506781
 20
1043.355459706205
 10
751.9979581435823
 20
1043.34919394739
 10
751.9895707918777
 20
1043.343838240798
  0
LWPOLYLINE
  5
398
330
23
100
AcDbEntity
  8
SANINDUSA
100
AcDbPolyline
 90
        7
 70
   128
 43
0.0
 10
751.7488331824267
 20
1043.385375802257
 10
751.7528544360858
 20
1043.379035531404
 10
751.759328906749
 20
1043.37043025967
 10
751.766366126951
 20
1043.362562737034
 10
751.7739338902126
 20
1043.355459706205
 10
751.7819516973085
 20
1043.34919394739
 10
751.790339049013
 20
1043.343838240798
  0
LWPOLYLINE
  5
39A
330
23
100
AcDbEntity
  8
SANINDUSA
100
AcDbPolyline
 90
        9
 70
   128
 43
0.0
 10
751.7636777608117
 20
1043.161553582234
 10
751.763761453526
 20
1043.162464737963
 10
751.7640097289202
 20
1043.163345380397
 10
751.7644142726084
 20
1043.164166018088
 10
751.7649615370047
 20
1043.16489916906
 10
751.7656331950116
 20
1043.165520281143
 10
751.7664067537688
 20
1043.166008554186
 10
751.7672563079063
 20
1043.166347636627
 10
751.7681534070781
 20
1043.166526173084
  0
LINE
  5
39B
330
23
100
AcDbEntity
  8
SANINDUSA
100
AcDbLine
 10
751.7636777608117
 20
1043.121055441144
 30
0.0
 11
751.7709164314258
 21
1043.121055441144
 31
0.0
  0
LINE
  5
39C
330
23
100
AcDbEntity
  8
SANINDUSA
100
AcDbLine
 10
751.7636777608117
 20
1043.161553582234
 30
0.0
 11
751.7636777608117
 21
1043.121055441144
 31
0.0
  0
LINE
  5
3A0
330
23
100
AcDbEntity
  8
SANINDUSA
100
AcDbLine
 10
751.9844678457574
 20
1043.334933144185
 30
0.0
 11
751.9886186887364
 21
1043.173390718302
 31
0.0
  0
LINE
  5
3A2
330
23
100
AcDbEntity
  8
SANINDUSA
100
AcDbLine
 10
751.7954419951333
 20
1043.334933144185
 30
0.0
 11
751.7912911521545
 21
1043.173390718302
 31
0.0
  0
LINE
  5
3A3
330
23
100
AcDbEntity
  8
SANINDUSA
100
AcDbLine
 10
751.8899549204454
 20
1043.168549235868
 30
0.0
 11
751.985284817947
 21
1043.168549235868
 31
0.0
  0
LINE
  5
3A4
330
23
100
AcDbEntity
  8
SANINDUSA
100
AcDbLine
 10
752.0045207863614
 20
1043.166526177904
 30
0.0
 11
751.8899549204454
 21
1043.166526177904
 31
0.0
  0
LINE
  5
3A7
330
23
100
AcDbEntity
  8
SANINDUSA
100
AcDbLine
 10
751.7709164314258
 20
1043.121055441144
 30
0.0
 11
752.008993409465
 21
1043.121055441144
 31
0.0
  0
LINE
  5
3A9
330
23
100
AcDbEntity
  8
SANINDUSA
100
AcDbLine
 10
751.7753890545293
 20
1043.166526177904
 30
0.0
 11
751.8899549204454
 21
1043.166526177904
 31
0.0
  0
LINE
  5
3AA
330
23
100
AcDbEntity
  8
SANINDUSA
100
AcDbLine
 10
751.8899549204454
 20
1043.168549235868
 30
0.0
 11
751.7946250229437
 21
1043.168549235868
 31
0.0
  0
LINE
  5
3B1
330
23
100
AcDbEntity
  8
SANINDUSA
100
AcDbLine
 10
751.7681534070781
 20
1043.166526173084
 30
0.0
 11
751.7753890545293
 21
1043.166526177904
 31
0.0
  0
LWPOLYLINE
  5
3B2
330
23
100
AcDbEntity
  8
SANINDUSA
100
AcDbPolyline
 90
       12
 70
   128
 43
0.0
 10
751.786817218676
 20
1043.168549012194
 10
751.7840001149351
 20
1043.168251239001
 10
751.7812877677576
 20
1043.167963472367
 10
751.7787271745223
 20
1043.167690698481
 10
751.7763627031379
 20
1043.167437643752
 10
751.7742353232701
 20
1043.167208692908
 10
751.7723818964527
 20
1043.167007813027
 10
751.7708345373812
 20
1043.166838484794
 10
751.7696200574537
 20
1043.166703642193
 10
751.7687595002055
 20
1043.166605621669
 10
751.7682677766832
 20
1043.166546121643
 10
751.7681534070781
 20
1043.166526173084
  0
LINE
  5
3B5
330
23
100
AcDbEntity
  8
SANINDUSA
100
AcDbLine
 10
751.7946250229437
 20
1043.168549235868
 30
0.0
 11
751.786817218676
 21
1043.168549012194
 31
0.0
  0
LWPOLYLINE
  5
3B6
330
23
100
AcDbEntity
  8
SANINDUSA
100
AcDbPolyline
 90
        9
 70
   128
 43
0.0
 10
751.786817218676
 20
1043.168549012194
 10
751.7876986271435
 20
1043.16872292665
 10
751.7885346758575
 20
1043.169051869032
 10
751.789298355099
 20
1043.1695252124
 10
751.7899649931464
 20
1043.170127664736
 10
751.7905130533286
 20
1043.170839762977
 10
751.7909248297979
 20
1043.171638501799
 10
751.7911870195414
 20
1043.17249807683
 10
751.7912911521545
 20
1043.173390718302
  0
LINE
  5
3BA
330
23
100
AcDbEntity
  8
SANINDUSA
100
AcDbLine
 10
752.016232080079
 20
1043.161553582234
 30
0.0
 11
752.016232080079
 21
1043.121055441144
 31
0.0
  0
LINE
  5
3BB
330
23
100
AcDbEntity
  8
SANINDUSA
100
AcDbLine
 10
752.016232080079
 20
1043.121055441144
 30
0.0
 11
752.008993409465
 21
1043.121055441144
 31
0.0
  0
LINE
  5
3BF
330
23
100
AcDbEntity
  8
SANINDUSA
100
AcDbLine
 10
751.985284817947
 20
1043.168549235868
 30
0.0
 11
751.9930926222148
 21
1043.168549012194
 31
0.0
  0
LWPOLYLINE
  5
3C7
330
23
100
AcDbEntity
  8
SANINDUSA
100
AcDbPolyline
 90
        9
 70
   128
 43
0.0
 10
752.016232080079
 20
1043.161553582234
 10
752.0161483873647
 20
1043.162464737963
 10
752.0159001119706
 20
1043.163345380397
 10
752.0154955682824
 20
1043.164166018088
 10
752.0149483038862
 20
1043.16489916906
 10
752.0142766458792
 20
1043.165520281143
 10
752.013503087122
 20
1043.166008554186
 10
752.0126535329845
 20
1043.166347636627
 10
752.0117564338127
 20
1043.166526173084
  0
LWPOLYLINE
  5
3CA
330
23
100
AcDbEntity
  8
SANINDUSA
100
AcDbPolyline
 90
        9
 70
   128
 43
0.0
 10
751.9930926222148
 20
1043.168549012194
 10
751.9922112137472
 20
1043.16872292665
 10
751.9913751650334
 20
1043.169051869032
 10
751.9906114857918
 20
1043.1695252124
 10
751.9899448477445
 20
1043.170127664736
 10
751.9893967875622
 20
1043.170839762977
 10
751.9889850110931
 20
1043.171638501799
 10
751.9887228213494
 20
1043.17249807683
 10
751.9886186887364
 20
1043.173390718302
  0
LINE
  5
3CC
330
23
100
AcDbEntity
  8
SANINDUSA
100
AcDbLine
 10
752.0117564338127
 20
1043.166526173084
 30
0.0
 11
752.0045207863614
 21
1043.166526177904
 31
0.0
  0
LWPOLYLINE
  5
3CD
330
23
100
AcDbEntity
  8
SANINDUSA
100
AcDbPolyline
 90
       12
 70
   128
 43
0.0
 10
751.9930926222148
 20
1043.168549012194
 10
751.9959097259558
 20
1043.168251239001
 10
751.9986220731333
 20
1043.167963472367
 10
752.0011826663684
 20
1043.167690698481
 10
752.0035471377529
 20
1043.167437643752
 10
752.0056745176208
 20
1043.167208692908
 10
752.007527944438
 20
1043.167007813027
 10
752.0090753035097
 20
1043.166838484794
 10
752.010289783437
 20
1043.166703642193
 10
752.0111503406853
 20
1043.166605621669
 10
752.0116420642075
 20
1043.166546121643
 10
752.0117564338127
 20
1043.166526173084
  0
LWPOLYLINE
  5
3CE
330
23
100
AcDbEntity
  8
SANINDUSA
100
AcDbPolyline
 90
       16
 70
   128
 43
0.0
 10
751.9819728159234
 20
1043.343777990872
 10
751.9819728142555
 20
1043.343777990812
 10
751.9814520957754
 20
1043.34377252753
 10
751.9797602548134
 20
1043.343770478305
 10
751.9769736916305
 20
1043.343771309007
 10
751.9731592549443
 20
1043.343771231215
 10
751.967913409699
 20
1043.343765863558
 10
751.9615825735569
 20
1043.343752289393
 10
751.9542981020362
 20
1043.343728475386
 10
751.9465178752791
 20
1043.34369444531
 10
751.9380043179652
 20
1043.343651109661
 10
751.9289072475418
 20
1043.343601838677
 10
751.9192855355316
 20
1043.343550674636
 10
751.9092438018313
 20
1043.343505077807
 10
751.8989748468848
 20
1043.343473405079
 10
751.8899549204454
 20
1043.34346346967
  0
LWPOLYLINE
  5
3CF
330
23
100
AcDbEntity
  8
SANINDUSA
100
AcDbPolyline
 90
       15
 70
   128
 43
0.0
 10
751.8899549204454
 20
1043.33388306889
 10
751.8983970375905
 20
1043.333903916683
 10
751.9080139990303
 20
1043.333970725507
 10
751.9174332287183
 20
1043.334068825442
 10
751.9264775156142
 20
1043.334182506556
 10
751.9350548641206
 20
1043.334297034704
 10
751.943091246535
 20
1043.334401686684
 10
751.9504357246542
 20
1043.33448676001
 10
751.9573199939253
 20
1043.334547933053
 10
751.963291908876
 20
1043.334583040553
 10
751.9682273876669
 20
1043.334596529747
 10
751.9718160685148
 20
1043.334596139179
 10
751.9744380128959
 20
1043.33459551896
 10
751.9760461142513
 20
1043.334607071783
 10
751.9765901594833
 20
1043.334632955622
  0
LWPOLYLINE
  5
3D0
330
23
100
AcDbEntity
  8
SANINDUSA
100
AcDbPolyline
 90
        3
 70
   128
 43
0.0
 10
751.7935715111822
 20
1043.34102176729
 10
751.7949651620543
 20
1043.338255969453
 10
751.7954419951333
 20
1043.334933144185
  0
LWPOLYLINE
  5
3D2
330
23
100
AcDbEntity
  8
SANINDUSA
100
AcDbPolyline
 90
       15
 70
   128
 43
0.0
 10
751.8899549204454
 20
1043.33388306889
 10
751.8815128033003
 20
1043.333903916683
 10
751.8718958418604
 20
1043.333970725507
 10
751.8624766121725
 20
1043.334068825442
 10
751.8534323252765
 20
1043.334182506556
 10
751.8448549767701
 20
1043.334297034704
 10
751.8368185943558
 20
1043.334401686684
 10
751.8294741162366
 20
1043.33448676001
 10
751.8225898469654
 20
1043.334547933053
 10
751.8166179320148
 20
1043.334583040553
 10
751.8116824532239
 20
1043.334596529747
 10
751.8080937723759
 20
1043.334596139179
 10
751.805471827995
 20
1043.33459551896
 10
751.8038637266396
 20
1043.334607071783
 10
751.8033196814075
 20
1043.334632955622
  0
LWPOLYLINE
  5
3D3
330
23
100
AcDbEntity
  8
SANINDUSA
100
AcDbPolyline
 90
        5
 70
   128
 43
0.0
 10
751.8033196857102
 20
1043.334633119993
 10
751.8015822841568
 20
1043.334677020748
 10
751.7993536756714
 20
1043.334771028146
 10
751.7963659374933
 20
1043.334905946281
 10
751.7954419951333
 20
1043.334933144185
  0
LWPOLYLINE
  5
3D7
330
23
100
AcDbEntity
  8
SANINDUSA
100
AcDbPolyline
 90
       16
 70
   128
 43
0.0
 10
751.7979370249674
 20
1043.343777990872
 10
751.7979370266353
 20
1043.343777990812
 10
751.7984577451153
 20
1043.34377252753
 10
751.8001495860775
 20
1043.343770478305
 10
751.8029361492604
 20
1043.343771309007
 10
751.8067505859464
 20
1043.343771231215
 10
751.8119964311917
 20
1043.343765863558
 10
751.8183272673338
 20
1043.343752289393
 10
751.8256117388546
 20
1043.343728475386
 10
751.8333919656117
 20
1043.34369444531
 10
751.8419055229257
 20
1043.343651109661
 10
751.851002593349
 20
1043.343601838677
 10
751.8606243053592
 20
1043.343550674636
 10
751.8706660390595
 20
1043.343505077807
 10
751.880934994006
 20
1043.343473405079
 10
751.8899549204454
 20
1043.34346346967
  0
LWPOLYLINE
  5
3DA
330
23
100
AcDbEntity
  8
SANINDUSA
100
AcDbPolyline
 90
        3
 70
   128
 43
0.0
 10
751.790339049013
 20
1043.343838240798
 10
751.7923143643765
 20
1043.342395443361
 10
751.7935715111822
 20
1043.34102176729
  0
LWPOLYLINE
  5
3DB
330
23
100
AcDbEntity
  8
SANINDUSA
100
AcDbPolyline
 90
        6
 70
   128
 43
0.0
 10
751.790339049013
 20
1043.343838240798
 10
751.7913594063928
 20
1043.343834819044
 10
751.7941496268879
 20
1043.343810693869
 10
751.7962417966053
 20
1043.343789768171
 10
751.7979344137217
 20
1043.343779344373
 10
751.7979344152576
 20
1043.343779344368
  0
LWPOLYLINE
  5
3DD
330
23
100
AcDbEntity
  8
SANINDUSA
100
AcDbPolyline
 90
        3
 70
   128
 43
0.0
 10
751.9863383297085
 20
1043.34102176729
 10
751.9849446788365
 20
1043.338255969453
 10
751.9844678457574
 20
1043.334933144185
  0
LWPOLYLINE
  5
3E0
330
23
100
AcDbEntity
  8
SANINDUSA
100
AcDbPolyline
 90
        5
 70
   128
 43
0.0
 10
751.9765901551807
 20
1043.334633119993
 10
751.9783275567341
 20
1043.334677020748
 10
751.9805561652193
 20
1043.334771028146
 10
751.9835439033975
 20
1043.334905946281
 10
751.9844678457574
 20
1043.334933144185
  0
LWPOLYLINE
  5
3E1
330
23
100
AcDbEntity
  8
SANINDUSA
100
AcDbPolyline
 90
        6
 70
   128
 43
0.0
 10
751.9895707918777
 20
1043.343838240798
 10
751.988550434498
 20
1043.343834819044
 10
751.985760214003
 20
1043.343810693869
 10
751.9836680442854
 20
1043.343789768171
 10
751.981975427169
 20
1043.343779344373
 10
751.9819754256332
 20
1043.343779344368
  0
LWPOLYLINE
  5
3E4
330
23
100
AcDbEntity
  8
SANINDUSA
100
AcDbPolyline
 90
        3
 70
   128
 43
0.0
 10
751.9895707918777
 20
1043.343838240798
 10
751.9875954765142
 20
1043.342395443361
 10
751.9863383297085
 20
1043.34102176729
  0
LWPOLYLINE
  5
3E6
330
23
100
AcDbEntity
  8
SANINDUSA
100
AcDbPolyline
 90
       20
 70
   128
 43
0.0
 10
752.057511766048
 20
1043.469222091741
 10
752.0568647154434
 20
1043.469214489046
 10
752.055051187466
 20
1043.469203447386
 10
752.0521063466868
 20
1043.469190191636
 10
752.0480653576769
 20
1043.469175946673
 10
752.0429219624718
 20
1043.469161828484
 10
752.0367236618549
 20
1043.469148629022
 10
752.0295411593249
 20
1043.469136945909
 10
752.0214451583804
 20
1043.469127376763
 10
752.0121788324145
 20
1043.469120201563
 10
752.0020087653977
 20
1043.469115716972
 10
751.9910445880256
 20
1043.469113818369
 10
751.9793959309937
 20
1043.469114401132
 10
751.9670114381001
 20
1043.469117316637
 10
751.9540160362522
 20
1043.469121949468
 10
751.9405509490824
 20
1043.469127529654
 10
751.9267574002226
 20
1043.469133287226
 10
751.9146121779296
 20
1043.469137699527
 10
751.9023100409977
 20
1043.469140828819
 10
751.8899549204454
 20
1043.46914201795
  0
LINE
  5
3E9
330
23
100
AcDbEntity
  8
SANINDUSA
100
AcDbLine
 10
752.0704775627617
 20
1043.470584851889
 30
0.0
 11
751.709432278129
 21
1043.470584851889
 31
0.0
  0
LINE
  5
3EB
330
23
100
AcDbEntity
  8
SANINDUSA
100
AcDbLine
 10
751.7099549204454
 20
1043.521055441144
 30
0.0
 11
752.0699549204453
 21
1043.521055441144
 31
0.0
  0
LINE
  5
3ED
330
23
100
AcDbEntity
  8
SANINDUSA
100
AcDbLine
 10
751.7349549204454
 20
1043.554055441144
 30
0.0
 11
752.0449549204454
 21
1043.554055441144
 31
0.0
  0
LWPOLYLINE
  5
3EF
330
23
100
AcDbEntity
  8
SANINDUSA
100
AcDbPolyline
 90
       20
 70
   128
 43
0.0
 10
751.7223980748427
 20
1043.469222091741
 10
751.7230451254475
 20
1043.469214489046
 10
751.7248586534248
 20
1043.469203447386
 10
751.7278034942039
 20
1043.469190191636
 10
751.731844483214
 20
1043.469175946673
 10
751.736987878419
 20
1043.469161828484
 10
751.7431861790359
 20
1043.469148629022
 10
751.7503686815659
 20
1043.469136945909
 10
751.7584646825105
 20
1043.469127376763
 10
751.7677310084763
 20
1043.469120201563
 10
751.7779010754931
 20
1043.469115716972
 10
751.7888652528652
 20
1043.469113818369
 10
751.8005139098971
 20
1043.469114401132
 10
751.8128984027907
 20
1043.469117316637
 10
751.8258938046385
 20
1043.469121949468
 10
751.8393588918085
 20
1043.469127529654
 10
751.8531524406682
 20
1043.469133287226
 10
751.8652976629612
 20
1043.469137699527
 10
751.8775997998931
 20
1043.469140828819
 10
751.8899549204454
 20
1043.46914201795
  0
ARC
  5
3F2
330
23
100
AcDbEntity
  8
SANINDUSA
100
AcDbCircle
 10
751.7349549204454
 20
1043.524055441144
 30
0.0
 40
0.0300000000000006
100
AcDbArc
 50
90.0
 51
180.0
  0
ARC
  5
3F3
330
23
100
AcDbEntity
  8
SANINDUSA
100
AcDbCircle
 10
751.7099549204454
 20
1043.516055441144
 30
0.0
 40
0.005
100
AcDbArc
 50
90.0
 51
180.0
  0
ARC
  5
3F4
330
23
100
AcDbEntity
  8
SANINDUSA
100
AcDbCircle
 10
751.7099549204454
 20
1043.475557461366
 30
0.0
 40
0.005
100
AcDbArc
 50
180.0
 51
264.0000000022097
  0
LINE
  5
3F5
330
23
100
AcDbEntity
  8
SANINDUSA
100
AcDbLine
 10
751.7049549204454
 20
1043.516055441144
 30
0.0
 11
751.7049549204454
 21
1043.475557461366
 31
0.0
  0
ARC
  5
3FA
330
23
100
AcDbEntity
  8
SANINDUSA
100
AcDbCircle
 10
751.7220198389866
 20
1043.466200494197
 30
0.0
 40
0.0030446270841518
100
AcDbArc
 50
2.666617982095763
 51
83.68588380899051
  0
LINE
  5
403
330
23
100
AcDbEntity
  8
SANINDUSA
100
AcDbLine
 10
751.7049549204454
 20
1043.516055441144
 30
0.0
 11
751.7049549204454
 21
1043.524055441144
 31
0.0
  0
ARC
  5
409
330
23
100
AcDbEntity
  8
SANINDUSA
100
AcDbCircle
 10
752.0449549204454
 20
1043.524055441144
 30
0.0
 40
0.0299999999999992
100
AcDbArc
 50
0.0
 51
90.0
  0
LINE
  5
40A
330
23
100
AcDbEntity
  8
SANINDUSA
100
AcDbLine
 10
752.0749549204453
 20
1043.516055441144
 30
0.0
 11
752.0749549204453
 21
1043.475557461366
 31
0.0
  0
ARC
  5
40D
330
23
100
AcDbEntity
  8
SANINDUSA
100
AcDbCircle
 10
752.0578905479094
 20
1043.466199372065
 30
0.0
 40
0.0030458024866007
100
AcDbArc
 50
96.32200347056368
 51
177.3128865296628
  0
ARC
  5
40F
330
23
100
AcDbEntity
  8
SANINDUSA
100
AcDbCircle
 10
752.0699549204453
 20
1043.475557461366
 30
0.0
 40
0.005
100
AcDbArc
 50
275.9999999977903
 51
0.0
  0
LINE
  5
410
330
23
100
AcDbEntity
  8
SANINDUSA
100
AcDbLine
 10
752.0749549204453
 20
1043.516055441144
 30
0.0
 11
752.0749549204453
 21
1043.524055441144
 31
0.0
  0
ARC
  5
415
330
23
100
AcDbEntity
  8
SANINDUSA
100
AcDbCircle
 10
752.0699549204453
 20
1043.516055441144
 30
0.0
 40
0.005
100
AcDbArc
 50
0.0
 51
90.0
  0
LWPOLYLINE
  5
421
330
23
100
AcDbEntity
  8
SANINDUSA
100
AcDbPolyline
 90
       18
 70
   128
 43
0.0
 10
752.0311166899037
 20
1043.385438919431
 10
752.031125410772
 20
1043.385451406107
 10
752.0314164846601
 20
1043.385873914845
 10
752.0319238962114
 20
1043.386621090808
 10
752.0327980565777
 20
1043.387935871036
 10
752.0340193501158
 20
1043.389831881248
 10
752.0355584020855
 20
1043.392327944509
 10
752.0373754913251
 20
1043.395447440145
 10
752.0394198216315
 20
1043.399217477681
 10
752.0416286496255
 20
1043.403667885178
 10
752.0439262678993
 20
1043.408830011625
 10
752.0462228432519
 20
1043.414735343398
 10
752.0484144585978
 20
1043.421414137658
 10
752.0504041017585
 20
1043.428897041064
 10
752.0521109839847
 20
1043.437214790419
 10
752.0534640050644
 20
1043.446395365944
 10
752.0544057384967
 20
1043.456462563653
 10
752.0548480944516
 20
1043.466342164728
  0
LINE
  5
426
330
23
100
AcDbEntity
  8
SANINDUSA
100
AcDbLine
 10
752.057511766048
 20
1043.469222091741
 30
0.0
 11
752.0704775627617
 21
1043.470584851889
 31
0.0
  0
LWPOLYLINE
  5
429
330
23
100
AcDbEntity
  8
SANINDUSA
100
AcDbPolyline
 90
       22
 70
   128
 43
0.0
 10
751.725061169199
 20
1043.466342143839
 10
751.7254882087987
 20
1043.456690524457
 10
751.7263890428697
 20
1043.446855971323
 10
751.727672305502
 20
1043.437911630609
 10
751.7292784972361
 20
1043.429832866413
 10
751.7311361371403
 20
1043.422591153306
 10
751.7331658626616
 20
1043.416155501398
 10
751.7357012613049
 20
1043.40945291113
 10
751.7381872441454
 20
1043.403814234751
 10
751.7404819284676
 20
1043.399187211348
 10
751.7424713492445
 20
1043.395522132312
 10
751.7440668610588
 20
1043.392774931952
 10
751.7448340354341
 20
1043.391507678459
 10
751.7454097092967
 20
1043.390577904138
 10
751.745785411346
 20
1043.389980453566
 10
751.745972640222
 20
1043.389685404508
 10
751.7465588947767
 20
1043.388772451771
 10
751.747116279897
 20
1043.387919068856
 10
751.7476435829625
 20
1043.387124288404
 10
751.7482081528786
 20
1043.38628650447
 10
751.748731094908
 20
1043.385522635674
 10
751.7488331824267
 20
1043.385375802257
  0
LINE
  5
42A
330
23
100
AcDbEntity
  8
SANINDUSA
100
AcDbLine
 10
751.7223980748427
 20
1043.469222091741
 30
0.0
 11
751.709432278129
 21
1043.470584851889
 31
0.0
  0
LWPOLYLINE
  5
438
330
23
100
AcDbEntity
  8
SANINDUSA
100
AcDbPolyline
 90
       15
 70
   128
 43
0.0
 10
752.725298230855
 20
1043.351419274764
 10
752.7359677332981
 20
1043.355312883214
 10
752.7462837608965
 20
1043.360176250012
 10
752.7561215600713
 20
1043.365945474975
 10
752.7653563772441
 20
1043.372556657919
 10
752.774655326079
 20
1043.380679082335
 10
752.7831526618663
 20
1043.389719771556
 10
752.7907333713288
 20
1043.399542031848
 10
752.79728244119
 20
1043.410009169477
 10
752.802035922454
 20
1043.419458010697
 10
752.8059899558581
 20
1043.429309352913
 10
752.8091054355853
 20
1043.439456881222
 10
752.8113432558191
 20
1043.449794280725
 10
752.8125771512115
 20
1043.459031648502
 10
752.8131228983733
 20
1043.468335155661
  0
LWPOLYLINE
  5
439
330
23
100
AcDbEntity
  8
SANINDUSA
100
AcDbPolyline
 90
       13
 70
   128
 43
0.0
 10
752.7250741066328
 20
1043.361978233504
 10
752.733192509482
 20
1043.364772257446
 10
752.7410567283332
 20
1043.368256922904
 10
752.7485801004441
 20
1043.372393820388
 10
752.7578288388938
 20
1043.378760314269
 10
752.7663365452924
 20
1043.386142429266
 10
752.7739432539248
 20
1043.394401331346
 10
752.7805637328859
 20
1043.403470618921
 10
752.7861487529983
 20
1043.413253031763
 10
752.7905933087655
 20
1043.423564612414
 10
752.7937631682791
 20
1043.43400032962
 10
752.7957891361321
 20
1043.444750393372
 10
752.7966352641239
 20
1043.455624043976
  0
LWPOLYLINE
  5
43A
330
23
100
AcDbEntity
  8
SANINDUSA
100
AcDbPolyline
 90
       17
 70
   128
 43
0.0
 10
752.7299600670876
 20
1043.173390931547
 10
752.7257623138183
 20
1043.333696661414
 42
-0.3283762887972434
 10
752.732538843297
 20
1043.343425812695
 10
752.737131827151
 20
1043.344987977332
 10
752.7481503621206
 20
1043.349874525081
 10
752.7585838473383
 20
1043.355659964438
 10
752.7683909078429
 20
1043.36228917545
 10
752.7775301686745
 20
1043.369707038164
 10
752.7859602548722
 20
1043.377858432624
 10
752.7936397914755
 20
1043.386688238878
 10
752.8005274035241
 20
1043.396141336973
 10
752.8068485270051
 20
1043.406653043969
 10
752.8122075279451
 20
1043.417724947682
 10
752.8165568347447
 20
1043.429293672961
 10
752.8198488758051
 20
1043.441295844657
 10
752.8220360795269
 20
1043.453668087618
 10
752.8230708743111
 20
1043.466347026696
  0
LINE
  5
43D
330
23
100
AcDbEntity
  8
SANINDUSA
100
AcDbLine
 10
752.4255684801644
 20
1043.352444480638
 30
0.0
 11
752.4184211352069
 21
1043.46730253773
 31
0.0
  0
LINE
  5
43E
330
23
100
AcDbEntity
  8
SANINDUSA
100
AcDbLine
 10
752.4146676747615
 20
1043.350486582916
 30
0.0
 11
752.4054722766202
 21
1043.498830013571
 31
0.0
  0
LINE
  5
43F
330
23
100
AcDbEntity
  8
SANINDUSA
100
AcDbLine
 10
752.404794810079
 20
1043.348102411215
 30
0.0
 11
752.3958475018147
 21
1043.492389608236
 31
0.0
  0
LWPOLYLINE
  5
441
330
23
100
AcDbEntity
  8
SANINDUSA
100
AcDbPolyline
 90
       14
 70
   128
 43
0.0
 10
752.2781532281132
 20
1043.471022603975
 10
752.2790625424377
 20
1043.456818726149
 10
752.28084285121
 20
1043.44283839436
 10
752.2835705159641
 20
1043.428791717281
 10
752.2871938496789
 20
1043.415172320525
 10
752.2916131898153
 20
1043.402314694027
 10
752.2968979769347
 20
1043.390030723621
 10
752.3010328405787
 20
1043.381981199703
 10
752.3056073902845
 20
1043.374261133071
 10
752.3106378839356
 20
1043.366916670988
 10
752.315093709943
 20
1043.361236537487
 10
752.3199003697259
 20
1043.355854649748
 10
752.3251720804305
 20
1043.350729205258
 10
752.3308746292441
 20
1043.34599883905
  0
LINE
  5
444
330
23
100
AcDbEntity
  8
SANINDUSA
100
AcDbLine
 10
752.4584054649079
 20
1043.306055441145
 30
0.0
 11
752.506405464907
 21
1043.306055441145
 31
0.0
  0
LINE
  5
446
330
23
100
AcDbEntity
  8
SANINDUSA
100
AcDbLine
 10
752.3552829935546
 20
1043.121055441144
 30
0.0
 11
752.6411736521081
 21
1043.121055441144
 31
0.0
  0
LINE
  5
448
330
23
100
AcDbEntity
  8
SANINDUSA
100
AcDbLine
 10
752.3795813678455
 20
1043.221900677668
 30
0.0
 11
752.3646595227845
 21
1043.189900677668
 31
0.0
  0
LINE
  5
44A
330
23
100
AcDbEntity
  8
SANINDUSA
100
AcDbLine
 10
752.3749050214465
 20
1043.188210204621
 30
0.0
 11
752.3898268665074
 21
1043.220210204621
 31
0.0
  0
LINE
  5
44E
330
23
100
AcDbEntity
  8
SANINDUSA
100
AcDbLine
 10
752.3381521536641
 20
1043.33561864948
 30
0.0
 11
752.3381521536641
 21
1043.148965879668
 31
0.0
  0
ARC
  5
44F
330
23
100
AcDbEntity
  8
SANINDUSA
100
AcDbCircle
 10
752.3551521536639
 20
1043.134019035046
 30
0.0
 40
0.0049999999999998
100
AcDbArc
 50
154.999999996317
 51
180.0
  0
LINE
  5
452
330
23
100
AcDbEntity
  8
SANINDUSA
100
AcDbLine
 10
752.3646595227845
 20
1043.189900677668
 30
0.0
 11
752.3386206147288
 21
1043.13406005914
 31
0.0
  0
LINE
  5
453
330
23
100
AcDbEntity
  8
SANINDUSA
100
AcDbLine
 10
752.3381521536641
 20
1043.148965879668
 30
0.0
 11
752.3381521536641
 21
1043.131946967831
 31
0.0
  0
LINE
  5
456
330
23
100
AcDbEntity
  8
SANINDUSA
100
AcDbLine
 10
752.350152153664
 20
1043.121055441144
 30
0.0
 11
752.3552829935546
 21
1043.121055441144
 31
0.0
  0
LINE
  5
457
330
23
100
AcDbEntity
  8
SANINDUSA
100
AcDbLine
 10
752.3381521536641
 20
1043.121055441144
 30
0.0
 11
752.3381521536641
 21
1043.131946967831
 31
0.0
  0
LINE
  5
458
330
23
100
AcDbEntity
  8
SANINDUSA
100
AcDbLine
 10
752.3381521536641
 20
1043.121055441144
 30
0.0
 11
752.350152153664
 21
1043.121055441144
 31
0.0
  0
LINE
  5
459
330
23
100
AcDbEntity
  8
SANINDUSA
100
AcDbLine
 10
752.350152153664
 20
1043.121055441144
 30
0.0
 11
752.350152153664
 21
1043.134019035046
 31
0.0
  0
ARC
  5
45A
330
23
100
AcDbEntity
  8
SANINDUSA
100
AcDbCircle
 10
752.343152153664
 20
1043.131946967831
 30
0.0
 40
0.0050000000000001
100
AcDbArc
 50
154.999999996317
 51
180.0
  0
ARC
  5
45E
330
23
100
AcDbEntity
  8
SANINDUSA
100
AcDbCircle
 10
752.3664721383586
 20
1043.189055441144
 30
0.0
 40
0.0020000000000001
100
AcDbArc
 50
90.0
 51
154.999999996317
  0
LINE
  5
45F
330
23
100
AcDbEntity
  8
SANINDUSA
100
AcDbLine
 10
752.3664721383586
 20
1043.191055441144
 30
0.0
 11
752.3730924058724
 21
1043.191055441144
 31
0.0
  0
ARC
  5
460
330
23
100
AcDbEntity
  8
SANINDUSA
100
AcDbCircle
 10
752.3730924058724
 20
1043.189055441144
 30
0.0
 40
0.002
100
AcDbArc
 50
334.999999996317
 51
90.0
  0
LINE
  5
462
330
23
100
AcDbEntity
  8
SANINDUSA
100
AcDbLine
 10
752.3749050214465
 20
1043.188210204621
 30
0.0
 11
752.3506206147288
 21
1043.136132126354
 31
0.0
  0
LWPOLYLINE
  5
463
330
23
100
AcDbEntity
  8
SANINDUSA
100
AcDbPolyline
 90
        4
 70
   128
 43
0.0
 10
752.3489709803397
 20
1043.345741388929
 10
752.3490352005644
 20
1043.345741523442
 10
752.3812607384042
 20
1043.345820668227
 10
752.4048303566539
 20
1043.34587800112
  0
LINE
  5
466
330
23
100
AcDbEntity
  8
SANINDUSA
100
AcDbLine
 10
752.3982336741717
 20
1043.261900677668
 30
0.0
 11
752.3795813678455
 21
1043.221900677668
 31
0.0
  0
LWPOLYLINE
  5
469
330
23
100
AcDbEntity
  8
SANINDUSA
100
AcDbPolyline
 90
        3
 70
   128
 43
0.0
 10
752.3308746292441
 20
1043.34599883905
 10
752.3318283190852
 20
1043.345283798633
 10
752.3327454838255
 20
1043.3446158221
  0
LWPOLYLINE
  5
46C
330
23
100
AcDbEntity
  8
SANINDUSA
100
AcDbPolyline
 90
        9
 70
   128
 43
0.0
 10
752.3338595050105
 20
1043.346188156179
 10
752.3336383620993
 20
1043.345879593235
 10
752.3334272471304
 20
1043.345584264416
 10
752.3332339012823
 20
1043.345312998858
 10
752.3330654141741
 20
1043.345075743347
 10
752.3329279639029
 20
1043.344881197583
 10
752.3328265905051
 20
1043.344736495186
 10
752.3327650111472
 20
1043.344646942112
 10
752.3327454838255
 20
1043.3446158221
  0
LWPOLYLINE
  5
46D
330
23
100
AcDbEntity
  8
SANINDUSA
100
AcDbPolyline
 90
        3
 70
   128
 43
0.0
 10
752.3338595050105
 20
1043.346188156179
 10
752.3489055480364
 20
1043.34574329766
 10
752.3489709803397
 20
1043.345741388929
  0
LWPOLYLINE
  5
470
330
23
100
AcDbEntity
  8
SANINDUSA
100
AcDbPolyline
 90
        4
 70
   128
 43
0.0
 10
752.3338491436
 20
1043.343837183758
 10
752.336247100378
 20
1043.341489921719
 10
752.3377335067484
 20
1043.338481807365
 10
752.3381521536641
 20
1043.33561864948
  0
LINE
  5
471
330
23
100
AcDbEntity
  8
SANINDUSA
100
AcDbLine
 10
752.3327454838255
 20
1043.3446158221
 30
0.0
 11
752.3338491436
 21
1043.343837183758
 31
0.0
  0
LINE
  5
473
330
23
100
AcDbEntity
  8
SANINDUSA
100
AcDbLine
 10
752.4222232538699
 20
1043.313346497351
 30
0.0
 11
752.4131555192326
 21
1043.293900677668
 31
0.0
  0
LINE
  5
474
330
23
100
AcDbEntity
  8
SANINDUSA
100
AcDbLine
 10
752.4317090867164
 20
1043.310026915705
 30
0.0
 11
752.4234010178946
 21
1043.292210204621
 31
0.0
  0
ARC
  5
475
330
23
100
AcDbEntity
  8
SANINDUSA
100
AcDbCircle
 10
752.4215884023204
 20
1043.293055441144
 30
0.0
 40
0.0020000000000001
100
AcDbArc
 50
270.0
 51
334.999999996317
  0
LINE
  5
476
330
23
100
AcDbEntity
  8
SANINDUSA
100
AcDbLine
 10
752.4215884023204
 20
1043.291055441144
 30
0.0
 11
752.4149681348067
 21
1043.291055441144
 31
0.0
  0
ARC
  5
477
330
23
100
AcDbEntity
  8
SANINDUSA
100
AcDbCircle
 10
752.4149681348067
 20
1043.293055441144
 30
0.0
 40
0.0020000000000001
100
AcDbArc
 50
154.999999996317
 51
270.0
  0
LINE
  5
47A
330
23
100
AcDbEntity
  8
SANINDUSA
100
AcDbLine
 10
752.4084791728336
 20
1043.260210204621
 30
0.0
 11
752.4234010178946
 21
1043.292210204621
 31
0.0
  0
LINE
  5
47D
330
23
100
AcDbEntity
  8
SANINDUSA
100
AcDbLine
 10
752.4131555192326
 20
1043.293900677668
 30
0.0
 11
752.3982336741717
 21
1043.261900677668
 31
0.0
  0
LINE
  5
483
330
23
100
AcDbEntity
  8
SANINDUSA
100
AcDbLine
 10
752.3898268665074
 20
1043.220210204621
 30
0.0
 11
752.4084791728336
 21
1043.260210204621
 31
0.0
  0
LINE
  5
486
330
23
100
AcDbEntity
  8
SANINDUSA
100
AcDbLine
 10
752.4355489707594
 20
1043.343054966064
 30
0.0
 11
752.4426197094972
 21
1043.343059940039
 31
0.0
  0
ARC
  5
487
330
23
100
AcDbEntity
  8
SANINDUSA
100
AcDbCircle
 10
752.442723932419
 20
1043.350422255718
 30
0.0
 40
0.038
100
AcDbArc
 50
261.3281829712391
 51
266.74220450646
  0
ARC
  5
488
330
23
100
AcDbEntity
  8
SANINDUSA
100
AcDbCircle
 10
752.4446117187141
 20
1043.352318039102
 30
0.0
 40
0.0300000000000002
100
AcDbArc
 50
183.4999999958279
 51
266.74220450646
  0
ARC
  5
489
330
23
100
AcDbEntity
  8
SANINDUSA
100
AcDbCircle
 10
752.442723932419
 20
1043.350422255718
 30
0.0
 40
0.038
100
AcDbArc
 50
183.4999999958279
 51
234.3984763427959
  0
LWPOLYLINE
  5
48A
330
23
100
AcDbEntity
  8
SANINDUSA
100
AcDbPolyline
 90
        6
 70
   128
 43
0.0
 10
752.4355489707594
 20
1043.343054966064
 10
752.4322389631954
 20
1043.343618961934
 10
752.4293022305396
 20
1043.345246795685
 10
752.4270698671204
 20
1043.347754941412
 10
752.4257935549789
 20
1043.350860624711
 10
752.4255684801644
 20
1043.352444480638
  0
LINE
  5
48D
330
23
100
AcDbEntity
  8
SANINDUSA
100
AcDbLine
 10
752.4594054649078
 20
1043.32048271192
 30
0.0
 11
752.4594054649078
 21
1043.307055441144
 31
0.0
  0
LINE
  5
493
330
23
100
AcDbEntity
  8
SANINDUSA
100
AcDbLine
 10
752.4594054649078
 20
1043.340001702683
 30
0.0
 11
752.4594054649078
 21
1043.332502135936
 31
0.0
  0
ARC
  5
494
330
23
100
AcDbEntity
  8
SANINDUSA
100
AcDbCircle
 10
752.4584054649078
 20
1043.332502135936
 30
0.0
 40
0.0010000000000001
100
AcDbArc
 50
266.74220450646
 51
0.0
  0
ARC
  5
495
330
23
100
AcDbEntity
  8
SANINDUSA
100
AcDbCircle
 10
752.4584054649078
 20
1043.307055441144
 30
0.0
 40
0.0009999999999999
100
AcDbArc
 50
270.0
 51
0.0
  0
ARC
  5
496
330
23
100
AcDbEntity
  8
SANINDUSA
100
AcDbCircle
 10
752.4584054649078
 20
1043.32048271192
 30
0.0
 40
0.001
100
AcDbArc
 50
0.0
 51
86.74220450645998
  0
LINE
  5
4A0
330
23
100
AcDbEntity
  8
SANINDUSA
100
AcDbLine
 10
752.4470650503359
 20
1043.31038081839
 30
0.0
 11
752.4473329380657
 21
1043.306976982049
 31
0.0
  0
LINE
  5
4A1
330
23
100
AcDbEntity
  8
SANINDUSA
100
AcDbLine
 10
752.4446196630194
 20
1043.341452410292
 30
0.0
 11
752.4453443836166
 21
1043.332243962008
 31
0.0
  0
ARC
  5
4A2
330
23
100
AcDbEntity
  8
SANINDUSA
100
AcDbCircle
 10
752.4483298553994
 20
1043.307055441144
 30
0.0
 40
0.0009999999999999
100
AcDbArc
 50
184.4999999969937
 51
270.0
  0
ARC
  5
4A3
330
23
100
AcDbEntity
  8
SANINDUSA
100
AcDbCircle
 10
752.4450712156684
 20
1043.310223900199
 30
0.0
 40
0.002
100
AcDbArc
 50
4.499999996993734
 51
86.74220450645998
  0
LINE
  5
4A4
330
23
100
AcDbEntity
  8
SANINDUSA
100
AcDbLine
 10
752.445184872919
 20
1043.312220668095
 30
0.0
 11
752.4405644446582
 21
1043.312483665699
 31
0.0
  0
ARC
  5
4A5
330
23
100
AcDbEntity
  8
SANINDUSA
100
AcDbCircle
 10
752.4544054647661
 20
1043.340001702697
 30
0.0
 40
0.0050000001417433
100
AcDbArc
 50
0.0
 51
51.2082514633834
  0
LINE
  5
4A6
330
23
100
AcDbEntity
  8
SANINDUSA
100
AcDbLine
 10
752.4583486362826
 20
1043.331503751988
 30
0.0
 11
752.4453443836166
 21
1043.332243962008
 31
0.0
  0
LINE
  5
4A7
330
23
100
AcDbEntity
  8
SANINDUSA
100
AcDbLine
 10
752.4483298553994
 20
1043.306055441145
 30
0.0
 11
752.4584054649079
 21
1043.306055441145
 31
0.0
  0
LINE
  5
4A8
330
23
100
AcDbEntity
  8
SANINDUSA
100
AcDbLine
 10
752.458462293533
 20
1043.321481095868
 30
0.0
 11
752.4429068599556
 21
1043.322366520667
 31
0.0
  0
LINE
  5
4A9
330
23
100
AcDbEntity
  8
SANINDUSA
100
AcDbLine
 10
752.4461384476013
 20
1043.353061554382
 30
0.0
 11
752.4575379226913
 21
1043.343898843799
 31
0.0
  0
LWPOLYLINE
  5
4AA
330
23
100
AcDbEntity
  8
SANINDUSA
100
AcDbPolyline
 90
        9
 70
   128
 43
0.0
 10
752.5072325648446
 20
1043.344858603077
 10
752.5183668729182
 20
1043.354000796729
 10
752.5592423725308
 20
1043.355252238388
 10
752.616635097871
 20
1043.357821300433
 10
752.6357791685417
 20
1043.358968236435
 10
752.6548958031896
 20
1043.360512899678
 10
752.6739451725681
 20
1043.36267380895
 10
752.6946707906918
 20
1043.365845825023
 10
752.7152911633158
 20
1043.36980463269
  0
LINE
  5
4AB
330
23
100
AcDbEntity
  8
SANINDUSA
100
AcDbLine
 10
752.7193264066247
 20
1043.121055441144
 30
0.0
 11
752.6411736521081
 21
1043.121055441144
 31
0.0
  0
LWPOLYLINE
  5
4AD
330
23
100
AcDbEntity
  8
SANINDUSA
100
AcDbPolyline
 90
       10
 70
   128
 43
0.0
 10
752.5256941444321
 20
1043.344202375824
 10
752.5469592144013
 20
1043.344824872646
 10
752.587114750806
 20
1043.346367160606
 10
752.6272547350884
 20
1043.348388940499
 10
752.6473474349345
 20
1043.349761825699
 10
752.6673849264469
 20
1043.351763532839
 10
752.6874253513702
 20
1043.354522776581
 10
752.7073901921968
 20
1043.358003580145
 42
-0.4577825501743312
 10
752.713247257839
 20
1043.353208767109
 10
752.7193264066247
 20
1043.121055441144
  0
LINE
  5
4AF
330
23
100
AcDbEntity
  8
SANINDUSA
100
AcDbLine
 10
752.5256941432519
 20
1043.34420242103
 30
0.0
 11
752.5199859012535
 21
1043.338844581254
 31
0.0
  0
LINE
  5
4B0
330
23
100
AcDbEntity
  8
SANINDUSA
100
AcDbLine
 10
752.5174779917499
 20
1043.306976982049
 30
0.0
 11
752.5199860254306
 21
1043.338844571481
 31
0.0
  0
ARC
  5
4B1
330
23
100
AcDbEntity
  8
SANINDUSA
100
AcDbCircle
 10
752.5164810744162
 20
1043.307055441144
 30
0.0
 40
0.001
100
AcDbArc
 50
270.0
 51
355.5000000030063
  0
ARC
  5
4B2
330
23
100
AcDbEntity
  8
SANINDUSA
100
AcDbCircle
 10
752.5104054650904
 20
1043.340994317133
 30
0.0
 40
0.0050000001826559
100
AcDbArc
 50
129.3888436494894
 51
180.0
  0
LINE
  5
4B3
330
23
100
AcDbEntity
  8
SANINDUSA
100
AcDbLine
 10
752.5054054649078
 20
1043.307055441144
 30
0.0
 11
752.5054054649078
 21
1043.340994317106
 31
0.0
  0
ARC
  5
4B4
330
23
100
AcDbEntity
  8
SANINDUSA
100
AcDbCircle
 10
752.5064054649078
 20
1043.307055441144
 30
0.0
 40
0.0009999999999999
100
AcDbArc
 50
180.0
 51
270.0
  0
LINE
  5
4B5
330
23
100
AcDbEntity
  8
SANINDUSA
100
AcDbLine
 10
752.506405464907
 20
1043.306055441145
 30
0.0
 11
752.5164810744155
 21
1043.306055441145
 31
0.0
  0
LINE
  5
4B8
330
23
100
AcDbEntity
  8
SANINDUSA
100
AcDbLine
 10
752.758152153664
 20
1043.161553588539
 30
0.0
 11
752.758152153664
 21
1043.121055441144
 31
0.0
  0
LINE
  5
4B9
330
23
100
AcDbEntity
  8
SANINDUSA
100
AcDbLine
 10
752.7303302650408
 20
1043.159253642081
 30
0.0
 11
752.7310686609189
 21
1043.131055441144
 31
0.0
  0
LINE
  5
4BA
330
23
100
AcDbEntity
  8
SANINDUSA
100
AcDbLine
 10
752.746152153662
 20
1043.157262043861
 30
0.0
 11
752.7461521536641
 21
1043.131055441144
 31
0.0
  0
LINE
  5
4BB
330
23
100
AcDbEntity
  8
SANINDUSA
100
AcDbLine
 10
752.7310686609189
 20
1043.131055441144
 30
0.0
 11
752.7461521536641
 21
1043.131055441144
 31
0.0
  0
LINE
  5
4BC
330
23
100
AcDbEntity
  8
SANINDUSA
100
AcDbLine
 10
752.7193264066247
 20
1043.121055441144
 30
0.0
 11
752.758152153664
 21
1043.121055441144
 31
0.0
  0
LWPOLYLINE
  5
4BD
330
23
100
AcDbEntity
  8
SANINDUSA
100
AcDbPolyline
 90
        6
 70
   128
 43
0.0
 10
752.734435435019
 20
1043.168549235868
 10
752.7354426749143
 20
1043.16844331468
 10
752.740810510082
 20
1043.167878852701
 10
752.7461783481683
 20
1043.167314418475
 10
752.7515461887547
 20
1043.166750008027
 10
752.7536749873032
 20
1043.166526177904
  0
LWPOLYLINE
  5
4BE
330
23
100
AcDbEntity
  8
SANINDUSA
100
AcDbPolyline
 90
        3
 70
   128
 43
0.0
 10
752.7333895976319
 20
1043.158604075027
 10
752.7397708735816
 20
1043.157933039813
 10
752.746152153662
 20
1043.157262043861
  0
ARC
  5
4BF
330
23
100
AcDbEntity
  8
SANINDUSA
100
AcDbCircle
 10
752.7349583537125
 20
1043.173521816289
 30
0.0
 40
0.0050000000000002
100
AcDbArc
 50
181.4999999976663
 51
263.9968154980376
  0
ARC
  5
4C0
330
23
100
AcDbEntity
  8
SANINDUSA
100
AcDbCircle
 10
752.7349583537125
 20
1043.173521816289
 30
0.0
 40
0.0150000000000001
100
AcDbArc
 50
252.0287793665667
 51
263.9968154980376
  0
ARC
  5
4C3
330
23
100
AcDbEntity
  8
SANINDUSA
100
AcDbCircle
 10
752.753152153664
 20
1043.161553588539
 30
0.0
 40
0.005
100
AcDbArc
 50
0.0
 51
83.9977955214797
  0
LINE
  5
4C4
330
23
100
AcDbEntity
  8
SANINDUSA
100
AcDbLine
 10
752.7250741066328
 20
1043.361978233504
 30
0.0
 11
752.725298230855
 21
1043.351419274764
 31
0.0
  0
LINE
  5
4C6
330
23
100
AcDbEntity
  8
SANINDUSA
100
AcDbLine
 10
752.7930411198219
 20
1043.521055441144
 30
0.0
 11
752.4254431923647
 21
1043.521055441144
 31
0.0
  0
LINE
  5
4C7
330
23
100
AcDbEntity
  8
SANINDUSA
100
AcDbLine
 10
752.3121869175795
 20
1043.514937878561
 30
0.0
 11
752.309163891929
 21
1043.549491219858
 31
0.0
  0
LINE
  5
4C8
330
23
100
AcDbEntity
  8
SANINDUSA
100
AcDbLine
 10
752.2781521536639
 20
1043.50301778911
 30
0.0
 11
752.2781521536639
 21
1043.552055441145
 31
0.0
  0
ARC
  5
4C9
330
23
100
AcDbEntity
  8
SANINDUSA
100
AcDbCircle
 10
752.380903471443
 20
1043.508260234613
 30
0.0
 40
0.0010000000000002
100
AcDbArc
 50
89.00000000307812
 51
179.0000000031918
  0
LINE
  5
4CA
330
23
100
AcDbEntity
  8
SANINDUSA
100
AcDbLine
 10
752.3909440898549
 20
1043.497083604014
 30
0.0
 11
752.3807115002884
 21
1043.497262214529
 31
0.0
  0
LINE
  5
4CB
330
23
100
AcDbEntity
  8
SANINDUSA
100
AcDbLine
 10
752.3439265591287
 20
1043.509905821346
 30
0.0
 11
752.3809209238494
 21
1043.509260082308
 31
0.0
  0
LINE
  5
4CE
330
23
100
AcDbEntity
  8
SANINDUSA
100
AcDbLine
 10
752.4254431923647
 20
1043.521055441144
 30
0.0
 11
752.3419902316263
 21
1043.521055441144
 31
0.0
  0
LINE
  5
4D0
330
23
100
AcDbEntity
  8
SANINDUSA
100
AcDbLine
 10
752.3439265591287
 20
1043.509905821346
 30
0.0
 11
752.3170806290378
 21
1043.510374418799
 31
0.0
  0
LINE
  5
4D1
330
23
100
AcDbEntity
  8
SANINDUSA
100
AcDbLine
 10
752.3437171355675
 20
1043.497907953567
 30
0.0
 11
752.2801172488511
 21
1043.49901809372
 31
0.0
  0
LINE
  5
4D4
330
23
100
AcDbEntity
  8
SANINDUSA
100
AcDbLine
 10
752.3419902316263
 20
1043.521055441144
 30
0.0
 11
752.3162333560751
 21
1043.521055441144
 31
0.0
  0
ARC
  5
4D6
330
23
100
AcDbEntity
  8
SANINDUSA
100
AcDbCircle
 10
752.3162333560751
 20
1043.526055441144
 30
0.0
 40
0.0050000000000001
100
AcDbArc
 50
184.9999999957234
 51
270.0
  0
LINE
  5
4D7
330
23
100
AcDbEntity
  8
SANINDUSA
100
AcDbLine
 10
752.2996012625685
 20
1043.544055441144
 30
0.0
 11
752.290152153664
 21
1043.544055441144
 31
0.0
  0
ARC
  5
4D9
330
23
100
AcDbEntity
  8
SANINDUSA
100
AcDbCircle
 10
752.280152153664
 20
1043.50101778911
 30
0.0
 40
0.0020000000000002
100
AcDbArc
 50
180.0
 51
269.0000000030781
  0
LINE
  5
4DF
330
23
100
AcDbEntity
  8
SANINDUSA
100
AcDbLine
 10
752.2781521536639
 20
1043.50301778911
 30
0.0
 11
752.2781521536639
 21
1043.471088152752
 31
0.0
  0
LINE
  5
4E1
330
23
100
AcDbEntity
  8
SANINDUSA
100
AcDbLine
 10
752.290152153664
 20
1043.510844457085
 30
0.0
 11
752.3025257431379
 21
1043.510628475277
 31
0.0
  0
ARC
  5
4E3
330
23
100
AcDbEntity
  8
SANINDUSA
100
AcDbCircle
 10
752.3171678910699
 20
1043.515373657275
 30
0.0
 40
0.0050000000000001
100
AcDbArc
 50
184.9999999957234
 51
269.0000000030781
  0
LINE
  5
4E4
330
23
100
AcDbEntity
  8
SANINDUSA
100
AcDbLine
 10
752.3025257431379
 20
1043.510628475277
 30
0.0
 11
752.2996012625685
 21
1043.544055441144
 31
0.0
  0
LINE
  5
4E5
330
23
100
AcDbEntity
  8
SANINDUSA
100
AcDbLine
 10
752.290152153664
 20
1043.510844457085
 30
0.0
 11
752.290152153664
 21
1043.544055441144
 31
0.0
  0
ARC
  5
4E6
330
23
100
AcDbEntity
  8
SANINDUSA
100
AcDbCircle
 10
752.3807289526947
 20
1043.498262062224
 30
0.0
 40
0.0009999999999999
100
AcDbArc
 50
179.0000000031918
 51
269.0000000030781
  0
LINE
  5
4E7
330
23
100
AcDbEntity
  8
SANINDUSA
100
AcDbLine
 10
752.3797291049996
 20
1043.498278905458
 30
0.0
 11
752.3799036237478
 21
1043.508277687019
 31
0.0
  0
ARC
  5
4EA
330
23
100
AcDbEntity
  8
SANINDUSA
100
AcDbCircle
 10
752.3439091067221
 20
1043.508905973651
 30
0.0
 40
0.0010000000000002
100
AcDbArc
 50
359.0000000031918
 51
89.00000000307812
  0
LINE
  5
4EB
330
23
100
AcDbEntity
  8
SANINDUSA
100
AcDbLine
 10
752.3449089544174
 20
1043.508888521245
 30
0.0
 11
752.3447344356692
 21
1043.498890348856
 31
0.0
  0
ARC
  5
4EC
330
23
100
AcDbEntity
  8
SANINDUSA
100
AcDbCircle
 10
752.343734587974
 20
1043.498907801263
 30
0.0
 40
0.0009999999999999
100
AcDbArc
 50
269.0000000030781
 51
359.0000000031918
  0
LINE
  5
4EE
330
23
100
AcDbEntity
  8
SANINDUSA
100
AcDbLine
 10
752.3807115002884
 20
1043.497262214529
 30
0.0
 11
752.3437171355675
 21
1043.497907953567
 31
0.0
  0
ARC
  5
4F0
330
23
100
AcDbEntity
  8
SANINDUSA
100
AcDbCircle
 10
752.4212131208145
 20
1043.503556017753
 30
0.0
 40
0.0049999999999999
100
AcDbArc
 50
3.499999995827975
 51
89.00000000307812
  0
ARC
  5
4F1
330
23
100
AcDbEntity
  8
SANINDUSA
100
AcDbCircle
 10
752.4266717659184
 20
1043.479829592167
 30
0.0
 40
0.0010000000000001
100
AcDbArc
 50
273.5000000023295
 51
3.499999995827975
  0
LINE
  5
4F2
330
23
100
AcDbEntity
  8
SANINDUSA
100
AcDbLine
 10
752.4267328144579
 20
1043.478831457369
 30
0.0
 11
752.4187477360705
 21
1043.478343069053
 31
0.0
  0
ARC
  5
4F3
330
23
100
AcDbEntity
  8
SANINDUSA
100
AcDbCircle
 10
752.418686687531
 20
1043.479341203851
 30
0.0
 40
0.0010000000000001
100
AcDbArc
 50
183.4999999958279
 51
273.5000000023295
  0
LINE
  5
4F4
330
23
100
AcDbEntity
  8
SANINDUSA
100
AcDbLine
 10
752.4176885527325
 20
1043.479280155311
 30
0.0
 11
752.4165046102697
 21
1043.49863744347
 31
0.0
  0
LINE
  5
4F5
330
23
100
AcDbEntity
  8
SANINDUSA
100
AcDbLine
 10
752.4165046102697
 20
1043.49863744347
 30
0.0
 11
752.4054722766202
 21
1043.498830013571
 31
0.0
  0
LINE
  5
4F6
330
23
100
AcDbEntity
  8
SANINDUSA
100
AcDbLine
 10
752.4276699007167
 20
1043.479890640707
 30
0.0
 11
752.4262037948066
 21
1043.503861260451
 31
0.0
  0
LINE
  5
4F7
330
23
100
AcDbEntity
  8
SANINDUSA
100
AcDbLine
 10
752.4176885527325
 20
1043.479280155311
 30
0.0
 11
752.4179495333769
 21
1043.475013159493
 31
0.0
  0
LINE
  5
4F8
330
23
100
AcDbEntity
  8
SANINDUSA
100
AcDbLine
 10
752.4181814011877
 20
1043.471222154298
 30
0.0
 11
752.4179495333769
 21
1043.475013159493
 31
0.0
  0
LINE
  5
4FA
330
23
100
AcDbEntity
  8
SANINDUSA
100
AcDbLine
 10
752.4213003828466
 20
1043.508555256229
 30
0.0
 11
752.3809209238494
 21
1043.509260082308
 31
0.0
  0
ARC
  5
4FE
330
23
100
AcDbEntity
  8
SANINDUSA
100
AcDbCircle
 10
752.4194192700053
 20
1043.46736358627
 30
0.0
 40
0.0010000000000001
100
AcDbArc
 50
93.50000000232959
 51
183.4999999958279
  0
LINE
  5
4FF
330
23
100
AcDbEntity
  8
SANINDUSA
100
AcDbLine
 10
752.4193582214658
 20
1043.468361721068
 30
0.0
 11
752.4273432998532
 21
1043.468850109384
 31
0.0
  0
ARC
  5
500
330
23
100
AcDbEntity
  8
SANINDUSA
100
AcDbCircle
 10
752.4274043483927
 20
1043.467851974586
 30
0.0
 40
0.0010000000000001
100
AcDbArc
 50
3.499999995827975
 51
93.50000000232959
  0
LINE
  5
501
330
23
100
AcDbEntity
  8
SANINDUSA
100
AcDbLine
 10
752.4181814011877
 20
1043.471222154298
 30
0.0
 11
752.4184211352069
 21
1043.46730253773
 31
0.0
  0
LINE
  5
503
330
23
100
AcDbEntity
  8
SANINDUSA
100
AcDbLine
 10
752.4284024831912
 20
1043.467913023126
 30
0.0
 11
752.4276699007167
 21
1043.479890640707
 31
0.0
  0
ARC
  5
506
330
23
100
AcDbEntity
  8
SANINDUSA
100
AcDbCircle
 10
752.3041829184386
 20
1043.549055441144
 30
0.0
 40
0.005
100
AcDbArc
 50
4.999999995723404
 51
90.0
  0
ARC
  5
507
330
23
100
AcDbEntity
  8
SANINDUSA
100
AcDbCircle
 10
752.280152153664
 20
1043.552055441145
 30
0.0
 40
0.0020000000000002
100
AcDbArc
 50
90.0
 51
180.0
  0
LINE
  5
508
330
23
100
AcDbEntity
  8
SANINDUSA
100
AcDbLine
 10
752.3041829184386
 20
1043.554055441144
 30
0.0
 11
752.280152153664
 21
1043.554055441144
 31
0.0
  0
LINE
  5
50A
330
23
100
AcDbEntity
  8
SANINDUSA
100
AcDbLine
 10
752.7930411198219
 20
1043.521055441144
 30
0.0
 11
752.838152153664
 21
1043.521055441144
 31
0.0
  0
LINE
  5
50B
330
23
100
AcDbEntity
  8
SANINDUSA
100
AcDbLine
 10
752.797930116284
 20
1043.511055441144
 30
0.0
 11
752.8331521536641
 21
1043.511055441144
 31
0.0
  0
ARC
  5
50C
330
23
100
AcDbEntity
  8
SANINDUSA
100
AcDbCircle
 10
752.8260690844908
 20
1043.466243413384
 30
0.0
 40
0.0030000000000003
100
AcDbArc
 50
95.99999999779033
 51
178.0207378748841
  0
ARC
  5
50D
330
23
100
AcDbEntity
  8
SANINDUSA
100
AcDbCircle
 10
752.8261198887861
 20
1043.468055441144
 30
0.0
 40
0.0129999999999998
100
AcDbArc
 50
90.0
 51
178.7671001358184
  0
LINE
  5
50E
330
23
100
AcDbEntity
  8
SANINDUSA
100
AcDbLine
 10
752.7966406320522
 20
1043.455624043976
 30
0.0
 11
752.7979301162829
 21
1043.511055441144
 31
0.0
  0
LWPOLYLINE
  5
50F
330
23
100
AcDbEntity
  8
SANINDUSA
100
AcDbPolyline
 90
        3
 70
   128
 43
0.0
 10
752.7866377908544
 20
1043.455848659866
 10
752.7873003553473
 20
1043.48311924702
 10
752.7880423796593
 20
1043.516167676663
  0
ARC
  5
510
330
23
100
AcDbEntity
  8
SANINDUSA
100
AcDbCircle
 10
752.7930411198205
 20
1043.516055441143
 30
0.0
 40
0.0050000000011497
100
AcDbArc
 50
89.99999998697246
 51
178.7137676524673
  0
ARC
  5
512
330
23
100
AcDbEntity
  8
SANINDUSA
100
AcDbCircle
 10
752.838152153664
 20
1043.516055441144
 30
0.0
 40
0.005
100
AcDbArc
 50
0.0
 51
90.0
  0
LINE
  5
513
330
23
100
AcDbEntity
  8
SANINDUSA
100
AcDbLine
 10
752.8331521536641
 20
1043.511055441144
 30
0.0
 11
752.8331521536641
 21
1043.481055441144
 31
0.0
  0
LINE
  5
514
330
23
100
AcDbEntity
  8
SANINDUSA
100
AcDbLine
 10
752.8331521536641
 20
1043.481055441144
 30
0.0
 11
752.8261198887861
 21
1043.481055441144
 31
0.0
  0
LINE
  5
515
330
23
100
AcDbEntity
  8
SANINDUSA
100
AcDbLine
 10
752.843152153664
 20
1043.516055441144
 30
0.0
 11
752.843152153664
 21
1043.475557461366
 31
0.0
  0
LINE
  5
516
330
23
100
AcDbEntity
  8
SANINDUSA
100
AcDbLine
 10
752.8386747959804
 20
1043.470584851889
 30
0.0
 11
752.8257554991011
 21
1043.46922697907
 31
0.0
  0
ARC
  5
517
330
23
100
AcDbEntity
  8
SANINDUSA
100
AcDbCircle
 10
752.838152153664
 20
1043.475557461366
 30
0.0
 40
0.005
100
AcDbArc
 50
275.9999999977903
 51
0.0
  0
LINE
  5
518
330
23
100
AcDbEntity
  8
SANINDUSA
100
AcDbLine
 10
752.4402582297332
 20
1043.353055768061
 30
0.0
 11
752.4461384476013
 21
1043.353061554382
 31
0.0
  0
LINE
  5
519
330
23
100
AcDbEntity
  8
SANINDUSA
100
AcDbLine
 10
752.435262635604
 20
1043.357750522633
 30
0.0
 11
752.4284024831912
 21
1043.467913023126
 31
0.0
  0
ARC
  5
51A
330
23
100
AcDbEntity
  8
SANINDUSA
100
AcDbCircle
 10
752.4402533095771
 20
1043.358055765641
 30
0.0
 40
0.005
100
AcDbArc
 50
183.4999999958279
 51
270.0563808439477
  0
LINE
  5
51B
330
23
100
AcDbEntity
  8
SANINDUSA
100
AcDbLine
 10
752.4426197094972
 20
1043.343059940039
 30
0.0
 11
752.4446196630194
 21
1043.341452410292
 31
0.0
  0
ARC
  5
51C
330
23
100
AcDbEntity
  8
SANINDUSA
100
AcDbCircle
 10
752.6966387663435
 20
1043.457882617412
 30
0.0
 40
0.0900273700786296
100
AcDbArc
 50
281.9449953589605
 51
358.7077186403832
  0
CIRCLE
  5
51D
330
23
100
AcDbEntity
  8
SANINDUSA
100
AcDbCircle
 10
752.531152153664
 20
1043.181055441144
 30
0.0
 40
0.005
  0
ARC
  5
520
330
23
100
AcDbEntity
  8
SANINDUSA
100
AcDbCircle
 10
750.5629679673098
 20
1043.248444654863
 30
0.0
 40
0.1850000000000001
100
AcDbArc
 50
180.0
 51
0.0
  0
LWPOLYLINE
  5
521
330
23
100
AcDbEntity
  8
SANINDUSA
100
AcDbPolyline
 90
       22
 70
   128
 43
0.0
 10
750.6929425549355
 20
1043.481142027114
 10
750.6931997937217
 20
1043.369030807434
 10
750.6933224858317
 20
1043.256919295834
 10
750.6930695651247
 20
1043.245100655345
 10
750.6921666236971
 20
1043.233283237841
 10
750.6903936478773
 20
1043.221597420767
 10
750.687530623993
 20
1043.210173581571
 10
750.6835045692016
 20
1043.199036695859
 10
750.6784554516229
 20
1043.188269592468
 10
750.6724553956156
 20
1043.178001251724
 10
750.6655765255385
 20
1043.168360653957
 10
750.6584650610091
 20
1043.160067573388
 10
750.6506537059628
 20
1043.152374695954
 10
750.6422303473327
 20
1043.145356270702
 10
750.6332828720511
 20
1043.139086546679
 10
750.623796912215
 20
1043.133578175222
 10
750.6138449927393
 20
1043.128871798993
 10
750.6035347953017
 20
1043.125012962499
 10
750.5929740015793
 20
1043.122047210247
 10
750.5830757809246
 20
1043.120117451104
 10
750.5730443861931
 20
1043.118947960208
 10
750.5629679673098
 20
1043.118554428868
  0
LWPOLYLINE
  5
524
330
23
100
AcDbEntity
  8
SANINDUSA
100
AcDbPolyline
 90
       30
 70
   128
 43
0.0
 10
750.6447931961348
 20
1043.466304692207
 10
750.6466179860928
 20
1043.440647060088
 10
750.6476287970127
 20
1043.414951837276
 10
750.6479292452316
 20
1043.389201183951
 10
750.6476081659222
 20
1043.363383397796
 10
750.6467367978435
 20
1043.337468175181
 10
750.6453643574777
 20
1043.311392735073
 10
750.6434680666955
 20
1043.285065283984
 10
750.6409263633806
 20
1043.258214454174
 10
750.6399565346496
 20
1043.249380458888
 10
750.6396890974781
 20
1043.247065333984
 10
750.6394153234141
 20
1043.244764119591
 10
750.6391344335053
 20
1043.242508481823
 10
750.6387308471121
 20
1043.240744777259
 10
750.6383148476436
 20
1043.239024200142
 10
750.6378560648035
 20
1043.237331359105
 10
750.6373528566015
 20
1043.235662738809
 10
750.6345453507279
 20
1043.228421951301
 10
750.6309626172714
 20
1043.221765871969
 10
750.6267028644275
 20
1043.215735534616
 10
750.6218968672214
 20
1043.21044150929
 10
750.6166938631339
 20
1043.205941441114
 10
750.6110867723225
 20
1043.202067406628
 10
750.605278007087
 20
1043.198941037168
 10
750.5993749393497
 20
1043.196505271767
 10
750.593380894244
 20
1043.1946377504
 10
750.5873109233703
 20
1043.193259836155
 10
750.5791898832597
 20
1043.192071887722
 10
750.5711277565653
 20
1043.191474757331
 10
750.5629679673098
 20
1043.191305786031
  0
LWPOLYLINE
  5
526
330
23
100
AcDbEntity
  8
SANINDUSA
100
AcDbPolyline
 90
       22
 70
   128
 43
0.0
 10
750.432993379684
 20
1043.481142027114
 10
750.4327361408977
 20
1043.369030807434
 10
750.4326134487877
 20
1043.256919295834
 10
750.4328663694948
 20
1043.245100655345
 10
750.4337693109223
 20
1043.233283237841
 10
750.4355422867422
 20
1043.221597420767
 10
750.4384053106265
 20
1043.210173581571
 10
750.4424313654178
 20
1043.199036695859
 10
750.4474804829965
 20
1043.188269592468
 10
750.4534805390038
 20
1043.178001251724
 10
750.4603594090809
 20
1043.168360653957
 10
750.4674708736104
 20
1043.160067573388
 10
750.4752822286566
 20
1043.152374695954
 10
750.4837055872867
 20
1043.145356270702
 10
750.4926530625684
 20
1043.139086546679
 10
750.5021390224045
 20
1043.133578175222
 10
750.5120909418801
 20
1043.128871798993
 10
750.5224011393178
 20
1043.125012962499
 10
750.5329619330401
 20
1043.122047210247
 10
750.5428601536948
 20
1043.120117451104
 10
750.5528915484263
 20
1043.118947960208
 10
750.5629679673098
 20
1043.118554428868
  0
LWPOLYLINE
  5
528
330
23
100
AcDbEntity
  8
SANINDUSA
100
AcDbPolyline
 90
       30
 70
   128
 43
0.0
 10
750.4811427384846
 20
1043.466304692207
 10
750.4793179485267
 20
1043.440647060088
 10
750.4783071376068
 20
1043.414951837276
 10
750.478006689388
 20
1043.389201183951
 10
750.4783277686972
 20
1043.363383397796
 10
750.479199136776
 20
1043.337468175181
 10
750.4805715771418
 20
1043.311392735073
 10
750.4824678679241
 20
1043.285065283984
 10
750.4850095712389
 20
1043.258214454174
 10
750.4859793999699
 20
1043.249380458888
 10
750.4862468371413
 20
1043.247065333984
 10
750.4865206112054
 20
1043.244764119591
 10
750.4868015011141
 20
1043.242508481823
 10
750.4872050875073
 20
1043.240744777259
 10
750.4876210869759
 20
1043.239024200142
 10
750.488079869816
 20
1043.237331359105
 10
750.488583078018
 20
1043.235662738809
 10
750.4913905838916
 20
1043.228421951301
 10
750.4949733173481
 20
1043.221765871969
 10
750.4992330701919
 20
1043.215735534616
 10
750.5040390673981
 20
1043.21044150929
 10
750.5092420714856
 20
1043.205941441114
 10
750.514849162297
 20
1043.202067406628
 10
750.5206579275324
 20
1043.198941037168
 10
750.5265609952697
 20
1043.196505271767
 10
750.5325550403754
 20
1043.1946377504
 10
750.5386250112492
 20
1043.193259836155
 10
750.5467460513598
 20
1043.192071887722
 10
750.5548081780541
 20
1043.191474757331
 10
750.5629679673098
 20
1043.191305786031
  0
LINE
  5
52B
330
23
100
AcDbEntity
  8
SANINDUSA
100
AcDbLine
 10
750.7429424866717
 20
1043.595344425942
 30
0.0
 11
750.6864235684993
 21
1043.595344425942
 31
0.0
  0
LINE
  5
52E
330
23
100
AcDbEntity
  8
SANINDUSA
100
AcDbLine
 10
750.4079679673098
 20
1043.628444654863
 30
0.0
 11
750.7179679673097
 21
1043.628444654863
 31
0.0
  0
LINE
  5
531
330
23
100
AcDbEntity
  8
SANINDUSA
100
AcDbLine
 10
750.7179679673097
 20
1043.597432916598
 30
0.0
 11
750.4079679673098
 21
1043.597432916598
 31
0.0
  0
LINE
  5
534
330
23
100
AcDbEntity
  8
SANINDUSA
100
AcDbLine
 10
750.7479679673098
 20
1043.248444654863
 30
0.0
 11
750.7479679673098
 21
1043.599526764192
 31
0.0
  0
ARC
  5
539
330
23
100
AcDbEntity
  8
SANINDUSA
100
AcDbCircle
 10
750.7459679673097
 20
1043.626444654863
 30
0.0
 40
0.002
100
AcDbArc
 50
0.0
 51
90.0
  0
LINE
  5
53A
330
23
100
AcDbEntity
  8
SANINDUSA
100
AcDbLine
 10
750.7479679673098
 20
1043.599526764192
 30
0.0
 11
750.7479679673098
 21
1043.6002266735
 31
0.0
  0
LINE
  5
53B
330
23
100
AcDbEntity
  8
SANINDUSA
100
AcDbLine
 10
750.7479679673098
 20
1043.6002266735
 30
0.0
 11
750.7479679673098
 21
1043.626444654863
 31
0.0
  0
LWPOLYLINE
  5
53C
330
23
100
AcDbEntity
  8
SANINDUSA
100
AcDbPolyline
 90
        4
 70
   128
 43
0.0
 10
750.7453760532704
 20
1043.595861439496
 10
750.7441661916392
 20
1043.595465970384
 10
750.7432512430598
 20
1043.595351294687
 10
750.7429552526486
 20
1043.595344392497
  0
LWPOLYLINE
  5
545
330
23
100
AcDbEntity
  8
SANINDUSA
100
AcDbPolyline
 90
        7
 70
   128
 43
0.0
 10
750.7479679673098
 20
1043.599526764192
 10
750.7478889223652
 20
1043.598786029065
 10
750.7476542867731
 20
1043.598068714485
 10
750.7472714792362
 20
1043.597397500489
 10
750.7467526033549
 20
1043.596793609505
 10
750.746114064935
 20
1043.596276135345
 10
750.7453760532704
 20
1043.595861439496
  0
LWPOLYLINE
  5
548
330
23
100
AcDbEntity
  8
SANINDUSA
100
AcDbPolyline
 90
       13
 70
   128
 43
0.0
 10
750.7179679673097
 20
1043.597432916598
 10
750.7211378351646
 20
1043.597415263528
 10
750.7242565348828
 20
1043.597362589275
 10
750.727273724286
 20
1043.597275744109
 10
750.7301406997793
 20
1043.597156129888
 10
750.7328111825269
 20
1043.59700567743
 10
750.7352420654872
 20
1043.596826815344
 10
750.7373941092478
 20
1043.59662243083
 10
750.7392325754303
 20
1043.59639582307
 10
750.7407277874385
 20
1043.596150649977
 10
750.7418556094989
 20
1043.595890869145
 10
750.7425978362615
 20
1043.595620673966
 10
750.7429424866717
 20
1043.595344425942
  0
LINE
  5
549
330
23
100
AcDbEntity
  8
SANINDUSA
100
AcDbLine
 10
750.7459679673097
 20
1043.628444654863
 30
0.0
 11
750.7179679673097
 21
1043.628444654863
 31
0.0
  0
LINE
  5
54B
330
23
100
AcDbEntity
  8
SANINDUSA
100
AcDbLine
 10
750.3779679673098
 20
1043.248444654863
 30
0.0
 11
750.3779679673098
 21
1043.599526764192
 31
0.0
  0
LWPOLYLINE
  5
54D
330
23
100
AcDbEntity
  8
SANINDUSA
100
AcDbPolyline
 90
        4
 70
   128
 43
0.0
 10
750.433169085225
 20
1043.564596463159
 10
750.4331495997433
 20
1043.554596503688
 10
750.4330675084402
 20
1043.514596679146
 10
750.432993379684
 20
1043.481142027114
  0
LWPOLYLINE
  5
54E
330
23
100
AcDbEntity
  8
SANINDUSA
100
AcDbPolyline
 90
        4
 70
   128
 43
0.0
 10
750.4330427135918
 20
1043.485226689132
 10
750.4330741415527
 20
1043.495225456427
 10
750.4331828211827
 20
1043.535220544619
 10
750.4332457446078
 20
1043.564484268608
  0
LWPOLYLINE
  5
550
330
23
100
AcDbEntity
  8
SANINDUSA
100
AcDbPolyline
 90
        4
 70
   128
 43
0.0
 10
750.6927668493944
 20
1043.564596463159
 10
750.6927863348762
 20
1043.554596503688
 10
750.6928684261793
 20
1043.514596679146
 10
750.6929425549355
 20
1043.481142027114
  0
LWPOLYLINE
  5
551
330
23
100
AcDbEntity
  8
SANINDUSA
100
AcDbPolyline
 90
        4
 70
   128
 43
0.0
 10
750.6928932210277
 20
1043.485226689132
 10
750.6928617930667
 20
1043.495225456427
 10
750.6927531134367
 20
1043.535220544619
 10
750.6926901900117
 20
1043.564484268608
  0
LINE
  5
555
330
23
100
AcDbEntity
  8
SANINDUSA
100
AcDbLine
 10
750.6877064206031
 20
1043.48039301372
 30
0.0
 11
750.4382295140163
 21
1043.48039301372
 31
0.0
  0
LWPOLYLINE
  5
557
330
23
100
AcDbEntity
  8
SANINDUSA
100
AcDbPolyline
 90
        4
 70
   128
 43
0.0
 10
750.5629679673098
 20
1043.466340358029
 10
750.5430583471612
 20
1043.466329384667
 10
750.5120886255065
 20
1043.466301262216
 10
750.4811484860158
 20
1043.466304504715
  0
ARC
  5
559
330
23
100
AcDbEntity
  8
SANINDUSA
100
AcDbCircle
 10
750.5629679673098
 20
1043.423491343619
 30
0.0
 40
0.0230000000000001
100
AcDbArc
 50
270.0
 51
90.0
  0
LWPOLYLINE
  5
55B
330
23
100
AcDbEntity
  8
SANINDUSA
100
AcDbPolyline
 90
       19
 70
   128
 43
0.0
 10
750.5629679673098
 20
1043.446491343619
 10
750.5582184962646
 20
1043.445995621541
 10
750.5545039739655
 20
1043.444874807669
 10
750.5510303266468
 20
1043.44315076211
 10
750.5478938139782
 20
1043.440859803471
 10
750.5451856466315
 20
1043.43807863505
 10
750.5429946147732
 20
1043.434891434177
 10
750.5413645594582
 20
1043.43138392046
 10
750.5403161175207
 20
1043.427461924015
 10
750.5399680969482
 20
1043.423414120895
 10
750.5403893945742
 20
1043.41912785822
 10
750.541596103501
 20
1043.414991729667
 10
750.543331473403
 20
1043.411520574517
 10
750.5456208037903
 20
1043.408389161067
 10
750.5483977888908
 20
1043.405697910301
 10
750.5515833629795
 20
1043.403506579816
 10
750.5550778139296
 20
1043.401889454355
 10
750.5587937416372
 20
1043.400873301263
 10
750.5629679673098
 20
1043.400491343619
  0
LWPOLYLINE
  5
55D
330
23
100
AcDbEntity
  8
SANINDUSA
100
AcDbPolyline
 90
        4
 70
   128
 43
0.0
 10
750.5629679673098
 20
1043.466340358029
 10
750.5828775874582
 20
1043.466329384667
 10
750.6138473091129
 20
1043.466301262216
 10
750.6447874486037
 20
1043.466304504715
  0
LWPOLYLINE
  5
55E
330
23
100
AcDbEntity
  8
SANINDUSA
100
AcDbPolyline
 90
        3
 70
   128
 43
0.0
 10
750.6928901880923
 20
1043.480915328667
 10
750.6928961384507
 20
1043.483135890973
 10
750.6928932210277
 20
1043.485226689132
  0
LWPOLYLINE
  5
562
330
23
100
AcDbEntity
  8
SANINDUSA
100
AcDbPolyline
 90
       10
 70
   128
 43
0.0
 10
750.6447932280624
 20
1043.46630432862
 10
750.6447932877781
 20
1043.466304329531
 10
750.649305928246
 20
1043.466395195445
 10
750.6540902422718
 20
1043.466543560817
 10
750.6585308097564
 20
1043.466737799152
 10
750.6624920126142
 20
1043.466972939841
 10
750.6658736477973
 20
1043.467242149268
 10
750.6685711666766
 20
1043.467538424079
 10
750.6705169127508
 20
1043.467853048201
 10
750.6705169310354
 20
1043.467853052003
  0
LWPOLYLINE
  5
564
330
23
100
AcDbEntity
  8
SANINDUSA
100
AcDbPolyline
 90
        5
 70
   128
 43
0.0
 10
750.6927034054149
 20
1043.475440572281
 10
750.6927988468454
 20
1043.476197975785
 10
750.6928585346095
 20
1043.477995413845
 10
750.692877872274
 20
1043.47932513659
 10
750.6928901880923
 20
1043.480915328667
  0
LWPOLYLINE
  5
568
330
23
100
AcDbEntity
  8
SANINDUSA
100
AcDbPolyline
 90
        9
 70
   128
 43
0.0
 10
750.6927034054149
 20
1043.475440572281
 10
750.6925991692047
 20
1043.476407516741
 10
750.6923092151255
 20
1043.477336306914
 10
750.6918445491901
 20
1043.478191687989
 10
750.6912228090852
 20
1043.478941191599
 10
750.6904675946842
 20
1043.479556368253
 10
750.6896075722484
 20
1043.480013867212
 10
750.6886753863189
 20
1043.48029632283
 10
750.6877064206031
 20
1043.48039301372
  0
LWPOLYLINE
  5
569
330
23
100
AcDbEntity
  8
SANINDUSA
100
AcDbPolyline
 90
       10
 70
   128
 43
0.0
 10
750.6705183664433
 20
1043.467853365794
 10
750.6746382638186
 20
1043.468664137148
 10
750.6783470500301
 20
1043.469480533033
 10
750.6816526217235
 20
1043.47030456444
 10
750.6845381657054
 20
1043.471132215785
 10
750.6869929818251
 20
1043.471959368138
 10
750.6890272591649
 20
1043.472788073329
 10
750.6906448968571
 20
1043.473620332999
 10
750.6918375762211
 20
1043.474452163406
 10
750.6927034054149
 20
1043.475440572281
  0
LWPOLYLINE
  5
56D
330
23
100
AcDbEntity
  8
SANINDUSA
100
AcDbPolyline
 90
       13
 70
   128
 43
0.0
 10
750.5479679673097
 20
1043.478194325336
 10
750.5464150530391
 20
1043.478206806407
 10
750.5449679673097
 20
1043.478243399056
 10
750.5437253266226
 20
1043.478301609555
 10
750.542771814887
 20
1043.478377470954
 10
750.542172412352
 20
1043.478465813425
 10
750.5419679673098
 20
1043.478560616573
 10
750.542172412352
 20
1043.478655419721
 10
750.542771814887
 20
1043.478743762191
 10
750.5437253266226
 20
1043.478819623591
 10
750.5449679673097
 20
1043.478877834089
 10
750.5464150530391
 20
1043.478914426739
 10
750.5479679673097
 20
1043.47892690781
  0
LWPOLYLINE
  5
572
330
23
100
AcDbEntity
  8
SANINDUSA
100
AcDbPolyline
 90
       13
 70
   128
 43
0.0
 10
750.5779679673097
 20
1043.478194325336
 10
750.5795208815803
 20
1043.478206806407
 10
750.5809679673098
 20
1043.478243399056
 10
750.5822106079969
 20
1043.478301609555
 10
750.5831641197325
 20
1043.478377470954
 10
750.5837635222675
 20
1043.478465813425
 10
750.5839679673097
 20
1043.478560616573
 10
750.5837635222675
 20
1043.478655419721
 10
750.5831641197325
 20
1043.478743762191
 10
750.5822106079969
 20
1043.478819623591
 10
750.5809679673098
 20
1043.478877834089
 10
750.5795208815803
 20
1043.478914426739
 10
750.5779679673097
 20
1043.47892690781
  0
LINE
  5
576
330
23
100
AcDbEntity
  8
SANINDUSA
100
AcDbLine
 10
750.5779679673097
 20
1043.478194325336
 30
0.0
 11
750.5479679673097
 21
1043.478194325336
 31
0.0
  0
LINE
  5
577
330
23
100
AcDbEntity
  8
SANINDUSA
100
AcDbLine
 10
750.5479679673097
 20
1043.47892690781
 30
0.0
 11
750.5779679673097
 21
1043.47892690781
 31
0.0
  0
LWPOLYLINE
  5
57C
330
23
100
AcDbEntity
  8
SANINDUSA
100
AcDbPolyline
 90
       45
 70
   128
 43
0.0
 10
750.5629679673098
 20
1043.526693184779
 10
750.5654584769795
 20
1043.526871282417
 10
750.5678982870545
 20
1043.527401949776
 10
750.5702377300373
 20
1043.528274383999
 10
750.5724291816152
 20
1043.529470824842
 10
750.5744280301538
 20
1043.530966916219
 10
750.576193584861
 20
1043.532732202023
 10
750.5776899041343
 20
1043.534730746128
 10
750.5788865272285
 20
1043.536921863937
 10
750.579759094348
 20
1043.539260950611
 10
750.5802898425427
 20
1043.541700389091
 10
750.5804679673097
 20
1043.544190519444
 10
750.5802898425427
 20
1043.546680649797
 10
750.579759094348
 20
1043.549120088277
 10
750.5788865272285
 20
1043.551459174952
 10
750.5776899041343
 20
1043.553650292761
 10
750.576193584861
 20
1043.555648836865
 10
750.5744280301538
 20
1043.55741412267
 10
750.5724291816152
 20
1043.558910214047
 10
750.5702377300373
 20
1043.560106654889
 10
750.5678982870545
 20
1043.560979089113
 10
750.5654584769795
 20
1043.561509756472
 10
750.5629679673098
 20
1043.56168785411
 10
750.56047745764
 20
1043.561509756472
 10
750.5580376475649
 20
1043.560979089113
 10
750.5556982045821
 20
1043.560106654889
 10
750.5535067530042
 20
1043.558910214047
 10
750.5515079044657
 20
1043.55741412267
 10
750.5497423497586
 20
1043.555648836865
 10
750.5482460304851
 20
1043.553650292761
 10
750.5470494073911
 20
1043.551459174952
 10
750.5461768402715
 20
1043.549120088277
 10
750.5456460920768
 20
1043.546680649797
 10
750.5454679673097
 20
1043.544190519444
 10
750.5456460920768
 20
1043.541700389091
 10
750.5461768402715
 20
1043.539260950611
 10
750.5470494073911
 20
1043.536921863937
 10
750.5482460304851
 20
1043.534730746128
 10
750.5497423497586
 20
1043.532732202023
 10
750.5515079044657
 20
1043.530966916219
 10
750.5535067530042
 20
1043.529470824842
 10
750.5556982045821
 20
1043.528274383999
 10
750.5580376475649
 20
1043.527401949776
 10
750.56047745764
 20
1043.526871282417
 10
750.5629679673098
 20
1043.526693184779
  0
LWPOLYLINE
  5
57F
330
23
100
AcDbEntity
  8
SANINDUSA
100
AcDbPolyline
 90
       10
 70
   128
 43
0.0
 10
750.4554175681762
 20
1043.467853365794
 10
750.4512976708008
 20
1043.468664137148
 10
750.4475888845894
 20
1043.469480533033
 10
750.444283312896
 20
1043.47030456444
 10
750.441397768914
 20
1043.471132215785
 10
750.4389429527943
 20
1043.471959368138
 10
750.4369086754545
 20
1043.472788073329
 10
750.4352910377624
 20
1043.473620332999
 10
750.4340983583984
 20
1043.474452163406
 10
750.4332325292046
 20
1043.475440572281
  0
LWPOLYLINE
  5
584
330
23
100
AcDbEntity
  8
SANINDUSA
100
AcDbPolyline
 90
       10
 70
   128
 43
0.0
 10
750.4811427065572
 20
1043.46630432862
 10
750.4811426468414
 20
1043.466304329531
 10
750.4766300063735
 20
1043.466395195445
 10
750.4718456923477
 20
1043.466543560817
 10
750.467405124863
 20
1043.466737799152
 10
750.4634439220052
 20
1043.466972939841
 10
750.4600622868222
 20
1043.467242149268
 10
750.4573647679428
 20
1043.467538424079
 10
750.4554190218686
 20
1043.467853048201
 10
750.4554190035841
 20
1043.467853052003
  0
LWPOLYLINE
  5
585
330
23
100
AcDbEntity
  8
SANINDUSA
100
AcDbPolyline
 90
        3
 70
   128
 43
0.0
 10
750.4330457465272
 20
1043.480915328667
 10
750.4330397961689
 20
1043.483135890973
 10
750.4330427135918
 20
1043.485226689132
  0
LWPOLYLINE
  5
589
330
23
100
AcDbEntity
  8
SANINDUSA
100
AcDbPolyline
 90
        5
 70
   128
 43
0.0
 10
750.4332325292046
 20
1043.475440572281
 10
750.433137087774
 20
1043.476197975785
 10
750.4330774000099
 20
1043.477995413845
 10
750.4330580623454
 20
1043.47932513659
 10
750.4330457465272
 20
1043.480915328667
  0
LWPOLYLINE
  5
58C
330
23
100
AcDbEntity
  8
SANINDUSA
100
AcDbPolyline
 90
        9
 70
   128
 43
0.0
 10
750.4332325292046
 20
1043.475440572281
 10
750.4333367654147
 20
1043.476407516741
 10
750.433626719494
 20
1043.477336306914
 10
750.4340913854293
 20
1043.478191687989
 10
750.4347131255342
 20
1043.478941191599
 10
750.4354683399352
 20
1043.479556368253
 10
750.436328362371
 20
1043.480013867212
 10
750.4372605483005
 20
1043.48029632283
 10
750.4382295140163
 20
1043.48039301372
  0
LINE
  5
58E
330
23
100
AcDbEntity
  8
SANINDUSA
100
AcDbLine
 10
750.4631426742496
 20
1043.594409890947
 30
0.0
 11
750.6627932603699
 21
1043.594409890947
 31
0.0
  0
LWPOLYLINE
  5
595
330
23
100
AcDbEntity
  8
SANINDUSA
100
AcDbPolyline
 90
        7
 70
   128
 43
0.0
 10
750.6864235684993
 20
1043.595344425942
 10
750.6822785899459
 20
1043.59531238226
 10
750.6781336113926
 20
1043.595223372592
 10
750.6741656500922
 20
1043.595092595762
 10
750.6703450379504
 20
1043.594931195243
 10
750.6628903202003
 20
1043.594547264355
 10
750.6628635476189
 20
1043.594545790702
  0
LWPOLYLINE
  5
597
330
23
100
AcDbEntity
  8
SANINDUSA
100
AcDbPolyline
 90
       10
 70
   128
 43
0.0
 10
750.666157475702
 20
1043.594362534128
 10
750.6693081766053
 20
1043.59384695413
 10
750.6741164071025
 20
1043.592349689414
 10
750.6786068398185
 20
1043.590070027822
 10
750.6826590942816
 20
1043.587050680045
 10
750.6861484722237
 20
1043.583395311236
 10
750.6889762585572
 20
1043.579185512583
 10
750.6910597251692
 20
1043.574561834499
 10
750.692330904251
 20
1043.569650711798
 10
750.6927668493944
 20
1043.564596463159
  0
LWPOLYLINE
  5
599
330
23
100
AcDbEntity
  8
SANINDUSA
100
AcDbPolyline
 90
        7
 70
   128
 43
0.0
 10
750.4395123661201
 20
1043.595344425942
 10
750.4436573446736
 20
1043.59531238226
 10
750.4478023232269
 20
1043.595223372592
 10
750.4517702845272
 20
1043.595092595762
 10
750.4555908966692
 20
1043.594931195243
 10
750.4630456144191
 20
1043.594547264355
 10
750.4630723870006
 20
1043.594545790702
  0
LWPOLYLINE
  5
59B
330
23
100
AcDbEntity
  8
SANINDUSA
100
AcDbPolyline
 90
       10
 70
   128
 43
0.0
 10
750.4597784589176
 20
1043.594362534128
 10
750.4566277580143
 20
1043.59384695413
 10
750.451819527517
 20
1043.592349689414
 10
750.447329094801
 20
1043.590070027822
 10
750.4432768403378
 20
1043.587050680045
 10
750.4397874623958
 20
1043.583395311236
 10
750.4369596760623
 20
1043.579185512583
 10
750.4348762094503
 20
1043.574561834499
 10
750.4336050303686
 20
1043.569650711798
 10
750.433169085225
 20
1043.564596463159
  0
ARC
  5
59F
330
23
100
AcDbEntity
  8
SANINDUSA
100
AcDbCircle
 10
750.3799679673098
 20
1043.626444654863
 30
0.0
 40
0.0020000000000001
100
AcDbArc
 50
90.0
 51
180.0
  0
LINE
  5
5A0
330
23
100
AcDbEntity
  8
SANINDUSA
100
AcDbLine
 10
750.3779679673098
 20
1043.599526764192
 30
0.0
 11
750.3779679673098
 21
1043.6002266735
 31
0.0
  0
LINE
  5
5A1
330
23
100
AcDbEntity
  8
SANINDUSA
100
AcDbLine
 10
750.3779679673098
 20
1043.6002266735
 30
0.0
 11
750.3779679673098
 21
1043.626444654863
 31
0.0
  0
LWPOLYLINE
  5
5A3
330
23
100
AcDbEntity
  8
SANINDUSA
100
AcDbPolyline
 90
        7
 70
   128
 43
0.0
 10
750.3779679673098
 20
1043.599526764192
 10
750.3780470122542
 20
1043.598786029065
 10
750.3782816478463
 20
1043.598068714485
 10
750.3786644553833
 20
1043.597397500489
 10
750.3791833312646
 20
1043.596793609505
 10
750.3798218696844
 20
1043.596276135345
 10
750.3805598813491
 20
1043.595861439496
  0
LINE
  5
5B1
330
23
100
AcDbEntity
  8
SANINDUSA
100
AcDbLine
 10
750.3829934479478
 20
1043.595344425942
 30
0.0
 11
750.4395123661201
 21
1043.595344425942
 31
0.0
  0
LWPOLYLINE
  5
5B3
330
23
100
AcDbEntity
  8
SANINDUSA
100
AcDbPolyline
 90
       13
 70
   128
 43
0.0
 10
750.4079679673098
 20
1043.597432916598
 10
750.4047980994548
 20
1043.597415263528
 10
750.4016793997366
 20
1043.597362589275
 10
750.3986622103334
 20
1043.597275744109
 10
750.3957952348401
 20
1043.597156129888
 10
750.3931247520926
 20
1043.59700567743
 10
750.3906938691322
 20
1043.596826815344
 10
750.3885418253717
 20
1043.59662243083
 10
750.3867033591891
 20
1043.59639582307
 10
750.3852081471809
 20
1043.596150649977
 10
750.3840803251206
 20
1043.595890869145
 10
750.3833380983579
 20
1043.595620673966
 10
750.3829934479478
 20
1043.595344425942
  0
LWPOLYLINE
  5
5B5
330
23
100
AcDbEntity
  8
SANINDUSA
100
AcDbPolyline
 90
        4
 70
   128
 43
0.0
 10
750.3805598813491
 20
1043.595861439496
 10
750.3817697429802
 20
1043.595465970384
 10
750.3826846915598
 20
1043.595351294687
 10
750.3829806819708
 20
1043.595344392497
  0
LINE
  5
5B7
330
23
100
AcDbEntity
  8
SANINDUSA
100
AcDbLine
 10
750.3799679673098
 20
1043.628444654863
 30
0.0
 11
750.4079679673098
 21
1043.628444654863
 31
0.0
  0
ARC
  5
5BE
330
23
100
AcDbEntity
  8
SANINDUSA
100
AcDbCircle
 10
752.4867192556765
 20
1043.010046712357
 30
0.0
 40
0.34540698289658
100
AcDbArc
 50
84.74295051994655
 51
96.74708859355551
  0
CIRCLE
  5
5BF
330
23
100
AcDbEntity
  8
SANINDUSA
100
AcDbCircle
 10
750.5629679673098
 20
1043.423491343619
 30
0.0
 40
0.0355850463966885
  0
ARC
  5
5C0
330
23
100
AcDbEntity
  8
SANINDUSA
100
AcDbCircle
 10
752.3908568278226
 20
1043.492084365538
 30
0.0
 40
0.005
100
AcDbArc
 50
3.499999995827975
 51
89.00000000307812
  0
ARC
  5
5C4
330
23
100
AcDbEntity
  8
SANINDUSA
100
AcDbCircle
 10
752.4176917149347
 20
1043.31545958866
 30
0.0
 40
0.005
100
AcDbArc
 50
334.999999996317
 51
54.39847634279588
  0
ARC
  5
5C5
330
23
100
AcDbEntity
  8
SANINDUSA
100
AcDbCircle
 10
752.4362406256516
 20
1043.307913824397
 30
0.0
 40
0.005
100
AcDbArc
 50
81.32818297123913
 51
154.999999996317
  0
LINE
  5
5CA
330
23
100
AcDbEntity
  8
SANINDUSA
100
AcDbLine
 10
751.0195674768704
 20
1043.121055441144
 30
0.0
 11
751.0195675069432
 21
1043.15987729484
 31
0.0
  0
LINE
  5
5CB
330
23
100
AcDbEntity
  8
SANINDUSA
100
AcDbLine
 10
751.0466847676043
 20
1043.121055441144
 30
0.0
 11
751.0195674768704
 21
1043.121055441144
 31
0.0
  0
CIRCLE
  5
5CC
330
23
100
AcDbEntity
  8
SANINDUSA
100
AcDbCircle
 10
751.2125667153461
 20
1043.181055441144
 30
0.0
 40
0.005
  0
LWPOLYLINE
  5
5D0
330
23
100
AcDbEntity
  8
SANINDUSA
100
AcDbPolyline
 90
       31
 70
   128
 43
0.0
 10
751.0151383961128
 20
1043.343924750931
 10
751.011587597592
 20
1043.346538973329
 10
751.0078043930165
 20
1043.349652408091
 10
751.0038210163489
 20
1043.353323583863
 10
750.9983197647062
 20
1043.359124158882
 10
750.9975833604548
 20
1043.359970550186
 10
750.996844006629
 20
1043.360838012967
 10
750.9961019525491
 20
1043.361726846066
 10
750.9953574529601
 20
1043.362637346454
 10
750.9946107681188
 20
1043.363569809038
 10
750.9938621638822
 20
1043.364524526474
 10
750.991936480012
 20
1043.367075293415
 10
750.9897929527554
 20
1043.370084664493
 10
750.9874557919158
 20
1043.373587209559
 10
750.9849531772523
 20
1043.377619759657
 10
750.9823175926194
 20
1043.382220683049
 10
750.9795861971869
 20
1043.387429080909
 10
750.9768012337407
 20
1043.39328390267
 10
750.9733715348827
 20
1043.401432090576
 10
750.9706218667933
 20
1043.408938656912
 10
750.9684548476935
 20
1043.415682098421
 10
750.9678403033213
 20
1043.417763682128
 10
750.9672784042695
 20
1043.419744660344
 10
750.9667661001172
 20
1043.421622233602
 10
750.966300481819
 20
1043.42339384811
 10
750.9658787885206
 20
1043.425057180983
 10
750.9654984139492
 20
1043.426610126397
 10
750.9651569123789
 20
1043.428050782665
 10
750.9626868784177
 20
1043.440256845004
 10
750.960870980707
 20
1043.453032949507
 10
750.9597704478732
 20
1043.466330647649
  0
LWPOLYLINE
  5
5D2
330
23
100
AcDbEntity
  8
SANINDUSA
100
AcDbPolyline
 90
       16
 70
   128
 43
0.0
 10
751.4135412288657
 20
1043.34346346967
 10
751.4238200074506
 20
1043.347822658249
 10
751.4338307869171
 20
1043.35281953821
 10
751.4434860508599
 20
1043.358461287719
 10
751.452698282873
 20
1043.364755084942
 10
751.4603721812992
 20
1043.370872614895
 10
751.4675882061882
 20
1043.377568406566
 10
751.4742510580535
 20
1043.384806454564
 10
751.4802654374084
 20
1043.392550753498
 10
751.4855626755403
 20
1043.400886623207
 10
751.4900534382515
 20
1043.409732433415
 10
751.4937214819099
 20
1043.418957068133
 10
751.496550562883
 20
1043.428429411375
 10
751.4992905060911
 20
1043.441112850124
 10
751.5015128527342
 20
1043.453909830019
 10
751.503726887742
 20
1043.466708363931
  0
LWPOLYLINE
  5
5D4
330
23
100
AcDbEntity
  8
SANINDUSA
100
AcDbPolyline
 90
       16
 70
   128
 43
0.0
 10
751.3236697394096
 20
1043.343777990872
 10
751.3236697993865
 20
1043.343777990812
 10
751.3310941627707
 20
1043.34377252753
 10
751.3410179777739
 20
1043.343770478305
 10
751.3507249970126
 20
1043.343771309007
 10
751.3600437419976
 20
1043.343771231215
 10
751.369595152794
 20
1043.343765863558
 10
751.3785103780908
 20
1043.343752289393
 10
751.3866162114808
 20
1043.343728475386
 10
751.3935110288546
 20
1043.34369444531
 10
751.3995314242801
 20
1043.343651109661
 10
751.4045600672164
 20
1043.343601838677
 10
751.4085293707121
 20
1043.343550674636
 10
751.411392296594
 20
1043.343505077807
 10
751.4130746746542
 20
1043.343473405079
 10
751.4135412288658
 20
1043.34346346967
  0
LWPOLYLINE
  5
5D5
330
23
100
AcDbEntity
  8
SANINDUSA
100
AcDbPolyline
 90
       15
 70
   128
 43
0.0
 10
751.407172755773
 20
1043.33388306889
 10
751.4067601435105
 20
1043.333903916683
 10
751.4052613563623
 20
1043.333970725507
 10
751.402689875147
 20
1043.334068825442
 10
751.3990945178249
 20
1043.334182506556
 10
751.3944958666513
 20
1043.334297034704
 10
751.3889512960638
 20
1043.334401686684
 10
751.3825651280391
 20
1043.33448676001
 10
751.3750013524315
 20
1043.334547933053
 10
751.3666538160866
 20
1043.334583040553
 10
751.3576956749012
 20
1043.334596529747
 10
751.3489250512268
 20
1043.334596139179
 10
751.3397887834569
 20
1043.33459551896
 10
751.3304498653041
 20
1043.334607071783
 10
751.3227568059252
 20
1043.334632955622
  0
LINE
  5
5D6
330
23
100
AcDbEntity
  8
SANINDUSA
100
AcDbLine
 10
751.3233709146434
 20
1043.166526177904
 30
0.0
 11
751.4350903105096
 21
1043.166526177904
 31
0.0
  0
LINE
  5
5D8
330
23
100
AcDbEntity
  8
SANINDUSA
100
AcDbLine
 10
751.4158507582253
 20
1043.168549235868
 30
0.0
 11
751.3229844835698
 21
1043.168549235868
 31
0.0
  0
LINE
  5
5DA
330
23
100
AcDbEntity
  8
SANINDUSA
100
AcDbLine
 10
751.4395674768703
 20
1043.121055441144
 30
0.0
 11
751.3236053148878
 21
1043.121055441144
 31
0.0
  0
LINE
  5
5DB
330
23
100
AcDbEntity
  8
SANINDUSA
100
AcDbLine
 10
751.4395674768703
 20
1043.161553588539
 30
0.0
 11
751.4395674768703
 21
1043.121055441144
 31
0.0
  0
ARC
  5
5DC
330
23
100
AcDbEntity
  8
SANINDUSA
100
AcDbCircle
 10
751.4163736769189
 20
1043.173521816289
 30
0.0
 40
0.005
100
AcDbArc
 50
181.4999999976663
 51
263.9968154980376
  0
ARC
  5
5DD
330
23
100
AcDbEntity
  8
SANINDUSA
100
AcDbCircle
 10
751.4345674768703
 20
1043.161553588539
 30
0.0
 40
0.005
100
AcDbArc
 50
0.0
 51
83.9977955214797
  0
LWPOLYLINE
  5
5DE
330
23
100
AcDbEntity
  8
SANINDUSA
100
AcDbPolyline
 90
        6
 70
   128
 43
0.0
 10
751.4158507582253
 20
1043.168549235868
 10
751.4168579981206
 20
1043.16844331468
 10
751.4222258332884
 20
1043.167878852701
 10
751.4275936713747
 20
1043.167314418475
 10
751.432961511961
 20
1043.166750008027
 10
751.4350903141328
 20
1043.166526177523
  0
ARC
  5
5DF
330
23
100
AcDbEntity
  8
SANINDUSA
100
AcDbCircle
 10
751.4171693290228
 20
1043.334144838373
 30
0.0
 40
0.0100000000000002
100
AcDbArc
 50
111.2728693301009
 51
181.4999999976663
  0
LWPOLYLINE
  5
5E0
330
23
100
AcDbEntity
  8
SANINDUSA
100
AcDbPolyline
 90
        6
 70
   128
 43
0.0
 10
751.016306339987
 20
1043.343838240798
 10
751.0570702590362
 20
1043.343834819044
 10
751.1713103956434
 20
1043.343810693869
 10
751.2565121127224
 20
1043.343789768171
 10
751.3236701340579
 20
1043.343779344373
 10
751.3236701940383
 20
1043.343779344368
  0
LINE
  5
5E1
330
23
100
AcDbEntity
  8
SANINDUSA
100
AcDbLine
 10
751.0470544378578
 20
1043.166526173084
 30
0.0
 11
751.3233709146434
 21
1043.166526177904
 31
0.0
  0
LINE
  5
5E3
330
23
100
AcDbEntity
  8
SANINDUSA
100
AcDbLine
 10
751.3223636577365
 20
1043.168549012194
 30
0.0
 11
751.0248204701618
 21
1043.168549012194
 31
0.0
  0
LWPOLYLINE
  5
5E5
330
23
100
AcDbEntity
  8
SANINDUSA
100
AcDbPolyline
 90
        5
 70
   128
 43
0.0
 10
751.3227568058125
 20
1043.334633119993
 10
751.2563642015019
 20
1043.334677020748
 10
751.1711630374494
 20
1043.334771028146
 10
751.0569309552566
 20
1043.334905946281
 10
751.0216198128266
 20
1043.334933144185
  0
LINE
  5
5E6
330
23
100
AcDbEntity
  8
SANINDUSA
100
AcDbLine
 10
751.0471716367799
 20
1043.121055441144
 30
0.0
 11
751.3236053148878
 21
1043.121055441144
 31
0.0
  0
LINE
  5
5F7
330
23
100
AcDbEntity
  8
SANINDUSA
100
AcDbLine
 10
751.0195674768704
 20
1043.172850843538
 30
0.0
 11
751.0195674768704
 21
1043.334880790289
 31
0.0
  0
LWPOLYLINE
  5
5F9
330
23
100
AcDbEntity
  8
SANINDUSA
100
AcDbPolyline
 90
       12
 70
   128
 43
0.0
 10
751.0248204701618
 20
1043.168549012194
 10
751.0254322089681
 20
1043.168251239001
 10
751.0264086671818
 20
1043.167963472367
 10
751.0277329255172
 20
1043.167690698481
 10
751.0293820382868
 20
1043.167437643752
 10
751.0313274309855
 20
1043.167208692908
 10
751.0335353954072
 20
1043.167007813027
 10
751.0359676737133
 20
1043.166838484794
 10
751.0385821213339
 20
1043.166703642193
 10
751.0413334372149
 20
1043.166605621669
 10
751.044173948759
 20
1043.166546121643
 10
751.0470544378578
 20
1043.166526173084
  0
LWPOLYLINE
  5
5FD
330
23
100
AcDbEntity
  8
SANINDUSA
100
AcDbPolyline
 90
        3
 70
   128
 43
0.0
 10
751.0198729768667
 20
1043.163569826543
 10
751.0198715722944
 20
1043.163559001505
 10
751.0197421927391
 20
1043.162381264135
  0
LWPOLYLINE
  5
5FE
330
23
100
AcDbEntity
  8
SANINDUSA
100
AcDbPolyline
 90
        6
 70
   128
 43
0.0
 10
751.0197421927393
 20
1043.162381264135
 10
751.0196314065987
 20
1043.161230220742
 10
751.0195708311887
 20
1043.160204850186
 10
751.0195675915002
 20
1043.159910998775
 10
751.0195675069432
 20
1043.15987729484
 10
751.0195674768704
 20
1043.159841621556
  0
LINE
  5
600
330
23
100
AcDbEntity
  8
SANINDUSA
100
AcDbLine
 10
751.0195674768704
 20
1043.159841621556
 30
0.0
 11
751.0195674768704
 21
1043.172850843538
 31
0.0
  0
LWPOLYLINE
  5
602
330
23
100
AcDbEntity
  8
SANINDUSA
100
AcDbPolyline
 90
        7
 70
   128
 43
0.0
 10
751.0248204701618
 20
1043.168549012194
 10
751.024401061197
 20
1043.168536787341
 10
751.0227790055369
 20
1043.168138770089
 10
751.0213957462097
 20
1043.167222860144
 10
751.0207314116124
 20
1043.166445391923
 10
751.0200332362495
 20
1043.164914185289
 10
751.0198729768667
 20
1043.163569826543
  0
ARC
  5
607
330
23
100
AcDbEntity
  8
SANINDUSA
100
AcDbCircle
 10
751.0145674768704
 20
1043.338284372047
 30
0.0
 40
0.0050000000000003
100
AcDbArc
 50
0.0
 51
57.01865272404837
  0
LINE
  5
60A
330
23
100
AcDbEntity
  8
SANINDUSA
100
AcDbLine
 10
751.0195674768704
 20
1043.334880790289
 30
0.0
 11
751.0195674768704
 21
1043.338284372047
 31
0.0
  0
LINE
  5
60C
330
23
100
AcDbEntity
  8
SANINDUSA
100
AcDbLine
 10
751.017289306749
 20
1043.342478611205
 30
0.0
 11
751.0151383961128
 21
1043.343924750931
 31
0.0
  0
LINE
  5
610
330
23
100
AcDbEntity
  8
SANINDUSA
100
AcDbLine
 10
751.5195674768704
 20
1043.521055441144
 30
0.0
 11
751.3395674768704
 21
1043.521055441144
 31
0.0
  0
LINE
  5
612
330
23
100
AcDbEntity
  8
SANINDUSA
100
AcDbLine
 10
751.3395674768704
 20
1043.470584851889
 30
0.0
 11
751.5200901191867
 21
1043.470584851889
 31
0.0
  0
LWPOLYLINE
  5
613
330
23
100
AcDbEntity
  8
SANINDUSA
100
AcDbPolyline
 90
       20
 70
   128
 43
0.0
 10
751.3395674768704
 20
1043.469222091741
 10
751.353322437408
 20
1043.469214489046
 10
751.3670221930297
 20
1043.469203447386
 10
751.3805256896017
 20
1043.469190191636
 10
751.393691872991
 20
1043.469175946673
 10
751.4065129845745
 20
1043.469161828484
 10
751.4189108913667
 20
1043.469148629022
 10
751.4307665752244
 20
1043.469136945909
 10
751.4419610180048
 20
1043.469127376763
 10
751.4527465082775
 20
1043.469120201563
 10
751.4627559946286
 20
1043.469115716972
 10
751.4718884163535
 20
1043.469113818369
 10
751.4800427127479
 20
1043.469114401132
 10
751.4872195962517
 20
1043.469117316637
 10
751.4933436254648
 20
1043.469121949468
 10
751.4983481465097
 20
1043.469127529654
 10
751.5021665055087
 20
1043.469133287226
 10
751.5044856817471
 20
1043.469137699527
 10
751.5058902949113
 20
1043.469140828819
 10
751.5063624712452
 20
1043.46914201795
  0
ARC
  5
615
330
23
100
AcDbEntity
  8
SANINDUSA
100
AcDbCircle
 10
751.506676056635
 20
1043.466158452264
 30
0.0
 40
0.0030000000000001
100
AcDbArc
 50
95.99999999779033
 51
169.4377385354799
  0
LINE
  5
616
330
23
100
AcDbEntity
  8
SANINDUSA
100
AcDbLine
 10
751.5245674768704
 20
1043.516055441144
 30
0.0
 11
751.5245674768704
 21
1043.475557461366
 31
0.0
  0
ARC
  5
617
330
23
100
AcDbEntity
  8
SANINDUSA
100
AcDbCircle
 10
751.5195674768704
 20
1043.475557461366
 30
0.0
 40
0.005
100
AcDbArc
 50
275.9999999977903
 51
0.0
  0
LINE
  5
618
330
23
100
AcDbEntity
  8
SANINDUSA
100
AcDbLine
 10
751.5200901191867
 20
1043.470584851889
 30
0.0
 11
751.5063624712452
 21
1043.46914201795
 31
0.0
  0
ARC
  5
619
330
23
100
AcDbEntity
  8
SANINDUSA
100
AcDbCircle
 10
751.5195674768704
 20
1043.516055441144
 30
0.0
 40
0.005
100
AcDbArc
 50
0.0
 51
90.0
  0
LINE
  5
61B
330
23
100
AcDbEntity
  8
SANINDUSA
100
AcDbLine
 10
750.9976486467597
 20
1043.521055441144
 30
0.0
 11
751.3395674768704
 21
1043.521055441144
 31
0.0
  0
LINE
  5
61D
330
23
100
AcDbEntity
  8
SANINDUSA
100
AcDbLine
 10
751.3395674768704
 20
1043.470584851889
 30
0.0
 11
750.9615674768704
 21
1043.470584851889
 31
0.0
  0
LWPOLYLINE
  5
61E
330
23
100
AcDbEntity
  8
SANINDUSA
100
AcDbPolyline
 90
        4
 70
   128
 43
0.0
 10
750.9615674768704
 20
1043.469222073087
 10
751.0540737098258
 20
1043.469218342817
 10
751.1501059462033
 20
1043.469222489527
 10
751.3391745112094
 20
1043.469222197754
  0
LINE
  5
629
330
23
100
AcDbEntity
  8
SANINDUSA
100
AcDbLine
 10
750.9905792151354
 20
1043.549491219858
 30
0.0
 11
750.9926677057911
 21
1043.525619662431
 31
0.0
  0
LINE
  5
62A
330
23
100
AcDbEntity
  8
SANINDUSA
100
AcDbLine
 10
750.9595674768704
 20
1043.524055441144
 30
0.0
 11
750.9595674768704
 21
1043.552055441145
 31
0.0
  0
LINE
  5
62E
330
23
100
AcDbEntity
  8
SANINDUSA
100
AcDbLine
 10
750.9595674768704
 20
1043.475557461366
 30
0.0
 11
750.9595674768704
 21
1043.524055441144
 31
0.0
  0
LINE
  5
62F
330
23
100
AcDbEntity
  8
SANINDUSA
100
AcDbLine
 10
750.9595674768704
 20
1043.47257389568
 30
0.0
 11
750.9595674768704
 21
1043.475557461366
 31
0.0
  0
LWPOLYLINE
  5
632
330
23
100
AcDbEntity
  8
SANINDUSA
100
AcDbPolyline
 90
        4
 70
   128
 43
0.0
 10
750.9596517854268
 20
1043.468809783204
 10
750.9596016604781
 20
1043.470072845271
 10
750.9595728733167
 20
1043.470891937249
 10
750.9595674768704
 20
1043.471088152752
  0
LWPOLYLINE
  5
636
330
23
100
AcDbEntity
  8
SANINDUSA
100
AcDbPolyline
 90
        9
 70
   128
 43
0.0
 10
750.9615674768704
 20
1043.469222073087
 10
750.9611772962264
 20
1043.469260292006
 10
750.9608021100056
 20
1043.46937348003
 10
750.9604563364043
 20
1043.469557287408
 10
750.960153263308
 20
1043.469804650525
 10
750.9599045376457
 20
1043.470106063355
 10
750.9597197178053
 20
1043.470449942772
 10
750.9596059063096
 20
1043.470823073684
 10
750.9595674768704
 20
1043.471211116878
  0
LWPOLYLINE
  5
638
330
23
100
AcDbEntity
  8
SANINDUSA
100
AcDbPolyline
 90
        9
 70
   128
 43
0.0
 10
750.9615674768704
 20
1043.470584851889
 10
750.9611772962264
 20
1043.470623070808
 10
750.9608021100056
 20
1043.470736258832
 10
750.9604563364043
 20
1043.47092006621
 10
750.960153263308
 20
1043.471167429327
 10
750.9599045376457
 20
1043.471468842158
 10
750.9597197178053
 20
1043.471812721575
 10
750.9596059063096
 20
1043.472185852486
 10
750.9595674768704
 20
1043.47257389568
  0
LINE
  5
639
330
23
100
AcDbEntity
  8
SANINDUSA
100
AcDbLine
 10
750.9595674768704
 20
1043.471211116878
 30
0.0
 11
750.9595674768704
 21
1043.47257389568
 31
0.0
  0
LWPOLYLINE
  5
63C
330
23
100
AcDbEntity
  8
SANINDUSA
100
AcDbPolyline
 90
        3
 70
   128
 43
0.0
 10
750.9597704478732
 20
1043.466330647649
 10
750.9597056176805
 20
1043.467614934213
 10
750.9596517854268
 20
1043.468809783204
  0
ARC
  5
642
330
23
100
AcDbEntity
  8
SANINDUSA
100
AcDbCircle
 10
750.9976486792814
 20
1043.526055441144
 30
0.0
 40
0.0050000000000001
100
AcDbArc
 50
184.9999999957234
 51
270.0
  0
LINE
  5
648
330
23
100
AcDbEntity
  8
SANINDUSA
100
AcDbLine
 10
750.9615674768704
 20
1043.554055441144
 30
0.0
 11
750.985598241645
 21
1043.554055441144
 31
0.0
  0
ARC
  5
649
330
23
100
AcDbEntity
  8
SANINDUSA
100
AcDbCircle
 10
750.985598241645
 20
1043.549055441144
 30
0.0
 40
0.0050000000000001
100
AcDbArc
 50
4.999999995723404
 51
90.0
  0
ARC
  5
64A
330
23
100
AcDbEntity
  8
SANINDUSA
100
AcDbCircle
 10
750.9615674768704
 20
1043.552055441145
 30
0.0
 40
0.0020000000000002
100
AcDbArc
 50
90.0
 51
180.0
  0
LINE
  5
64C
330
23
100
AcDbEntity
  8
SANINDUSA
100
AcDbLine
 10
751.407172755773
 20
1043.33388306889
 30
0.0
 11
751.4113753902941
 21
1043.173390931547
 31
0.0
  0
ENDSEC
  0
SECTION
  2
OBJECTS
  0
DICTIONARY
  5
C
330
0
100
AcDbDictionary
281
     1
  3
ACAD_COLOR
350
1C
  3
ACAD_GROUP
350
D
  3
ACAD_LAYOUT
350
1A
  3
ACAD_MATERIAL
350
1B
  3
ACAD_MLEADERSTYLE
350
6A5
  3
ACAD_MLINESTYLE
350
17
  3
ACAD_PLOTSETTINGS
350
19
  3
ACAD_PLOTSTYLENAME
350
E
  3
ACAD_SCALELIST
350
693
  3
ACAD_TABLESTYLE
350
1D
  3
ACAD_VISUALSTYLE
350
67F
  3
ACDB_RECOMPOSE_DATA
350
6C5
  3
AcDbVariableDictionary
350
657
  3
ASE_INDEX_DICTIONARY
350
654
  3
DWGPROPS
350
6C6
  0
DICTIONARY
  5
6AA
330
10
100
AcDbDictionary
280
     1
281
     1
  3
ADSK_XREC_LAYER_RECONCILED
360
6AB
  0
DICTIONARY
  5
6AC
330
31
100
AcDbDictionary
280
     1
281
     1
  3
ADSK_XREC_LAYER_RECONCILED
360
6AD
  0
DICTIONARY
  5
6AE
330
32
100
AcDbDictionary
280
     1
281
     1
  3
ADSK_XREC_LAYER_RECONCILED
360
6AF
  0
DICTIONARY
  5
6B0
330
33
100
AcDbDictionary
280
     1
281
     1
  3
ADSK_XREC_LAYER_RECONCILED
360
6B1
  0
DICTIONARY
  5
6B2
330
34
100
AcDbDictionary
280
     1
281
     1
  3
ADSK_XREC_LAYER_RECONCILED
360
6B3
  0
DICTIONARY
  5
6B4
330
35
100
AcDbDictionary
280
     1
281
     1
  3
ADSK_XREC_LAYER_RECONCILED
360
6B5
  0
DICTIONARY
  5
6B6
330
36
100
AcDbDictionary
280
     1
281
     1
  3
ADSK_XREC_LAYER_RECONCILED
360
6B7
  0
DICTIONARY
  5
6B8
330
37
100
AcDbDictionary
280
     1
281
     1
  3
ADSK_XREC_LAYER_RECONCILED
360
6B9
  0
DICTIONARY
  5
6BA
330
38
100
AcDbDictionary
280
     1
281
     1
  3
ADSK_XREC_LAYER_RECONCILED
360
6BB
  0
DICTIONARY
  5
6BC
330
39
100
AcDbDictionary
280
     1
281
     1
  3
ADSK_XREC_LAYER_RECONCILED
360
6BD
  0
DICTIONARY
  5
1C
102
{ACAD_REACTORS
330
C
102
}
330
C
100
AcDbDictionary
281
     1
  0
DICTIONARY
  5
D
102
{ACAD_REACTORS
330
C
102
}
330
C
100
AcDbDictionary
281
     1
  0
DICTIONARY
  5
1A
102
{ACAD_REACTORS
330
C
102
}
330
C
100
AcDbDictionary
281
     1
  3
Layout1
350
22
  3
Layout2
350
2A
  3
Model
350
26
  0
DICTIONARY
  5
1B
102
{ACAD_REACTORS
330
C
102
}
330
C
100
AcDbDictionary
281
     1
  3
ByBlock
350
66F
  3
ByLayer
350
667
  3
Global
350
677
  0
DICTIONARY
  5
6A5
102
{ACAD_REACTORS
330
C
102
}
330
C
100
AcDbDictionary
281
     1
  3
Standard
350
6A6
  0
DICTIONARY
  5
17
102
{ACAD_REACTORS
330
C
102
}
330
C
100
AcDbDictionary
281
     1
  3
Standard
350
18
  0
DICTIONARY
  5
19
102
{ACAD_REACTORS
330
C
102
}
330
C
100
AcDbDictionary
281
     1
  0
ACDBDICTIONARYWDFLT
  5
E
102
{ACAD_REACTORS
330
C
102
}
330
C
100
AcDbDictionary
281
     1
  3
Normal
350
F
100
AcDbDictionaryWithDefault
340
F
  0
DICTIONARY
  5
693
102
{ACAD_REACTORS
330
C
102
}
330
C
100
AcDbDictionary
281
     1
  3
A0
350
694
  3
A1
350
695
  3
A2
350
696
  3
A3
350
697
  3
A4
350
698
  3
A5
350
699
  3
A6
350
69A
  3
A7
350
69B
  3
A8
350
69C
  3
A9
350
69D
  3
B0
350
69E
  3
B1
350
69F
  3
B2
350
6A0
  3
B3
350
6A1
  3
B4
350
6A2
  3
B5
350
6A3
  3
B6
350
6A4
  0
DICTIONARY
  5
1D
102
{ACAD_REACTORS
330
C
102
}
330
C
100
AcDbDictionary
281
     1
  3
Standard
350
1E
  0
DICTIONARY
  5
67F
102
{ACAD_REACTORS
330
C
102
}
330
C
100
AcDbDictionary
281
     1
  3
2dWireframe
350
685
  3
3D Hidden
350
687
  3
3dWireframe
350
686
  3
Basic
350
684
  3
Brighten
350
68B
  3
ColorChange
350
68F
  3
Conceptual
350
688
  3
Dim
350
68A
  3
EdgeColorOff
350
692
  3
Facepattern
350
68E
  3
Flat
350
680
  3
FlatWithEdges
350
681
  3
Gouraud
350
682
  3
GouraudWithEdges
350
683
  3
JitterOff
350
690
  3
Linepattern
350
68D
  3
OverhangOff
350
691
  3
Realistic
350
689
  3
Thicken
350
68C
  0
XRECORD
  5
6C5
102
{ACAD_REACTORS
330
C
102
}
330
C
100
AcDbXrecord
280
     1
 90
        1
330
1E
  0
DICTIONARY
  5
657
102
{ACAD_REACTORS
330
C
102
}
330
C
100
AcDbDictionary
281
     1
  3
CANNOSCALE
350
6BF
  3
CMLEADERSTYLE
350
6BE
  3
CTABLESTYLE
350
658
  3
DIMASSOC
350
664
  3
HIDETEXT
350
663
  3
INDEXCTL
350
6C1
  3
PROJECTNAME
350
665
  3
SORTENTS
350
6C0
  3
XCLIPFRAME
350
6C2
  0
DICTIONARY
  5
654
102
{ACAD_REACTORS
330
C
102
}
330
C
100
AcDbDictionary
281
     1
  3
ASEBlockHierarchyIndexRecord
350
655
1001
DCO15
1040
1554708277.765
  0
XRECORD
  5
6C6
102
{ACAD_REACTORS
330
C
102
}
330
C
100
AcDbXrecord
280
     1
  1
DWGPROPS COOKIE
  2

  3

  4

  6

  7

  8
Julio
  9

300
=
301
=
302
=
303
=
304
=
305
=
306
=
307
=
308
=
309
=
 40
0.0094231134259259
 41
2453797.553047408
 42
2456149.584330868
  1

 90
        0
  0
XRECORD
  5
6AB
102
{ACAD_REACTORS
330
6AA
102
}
330
6AA
100
AcDbXrecord
280
     1
290
     1
  0
XRECORD
  5
6AD
102
{ACAD_REACTORS
330
6AC
102
}
330
6AC
100
AcDbXrecord
280
     1
290
     1
  0
XRECORD
  5
6AF
102
{ACAD_REACTORS
330
6AE
102
}
330
6AE
100
AcDbXrecord
280
     1
290
     1
  0
XRECORD
  5
6B1
102
{ACAD_REACTORS
330
6B0
102
}
330
6B0
100
AcDbXrecord
280
     1
290
     1
  0
XRECORD
  5
6B3
102
{ACAD_REACTORS
330
6B2
102
}
330
6B2
100
AcDbXrecord
280
     1
290
     1
  0
XRECORD
  5
6B5
102
{ACAD_REACTORS
330
6B4
102
}
330
6B4
100
AcDbXrecord
280
     1
290
     1
  0
XRECORD
  5
6B7
102
{ACAD_REACTORS
330
6B6
102
}
330
6B6
100
AcDbXrecord
280
     1
290
     1
  0
XRECORD
  5
6B9
102
{ACAD_REACTORS
330
6B8
102
}
330
6B8
100
AcDbXrecord
280
     1
290
     1
  0
XRECORD
  5
6BB
102
{ACAD_REACTORS
330
6BA
102
}
330
6BA
100
AcDbXrecord
280
     1
290
     1
  0
XRECORD
  5
6BD
102
{ACAD_REACTORS
330
6BC
102
}
330
6BC
100
AcDbXrecord
280
     1
290
     1
  0
LAYOUT
  5
22
102
{ACAD_XDICTIONARY
360
6C8
102
}
102
{ACAD_REACTORS
330
1A
102
}
330
1A
100
AcDbPlotSettings
  1

  2
HP DesignJet 500PS42+HPGL2 Card
  4

  6

 40
0.0
 41
0.0
 42
0.0
 43
0.0
 44
0.0
 45
0.0
 46
0.0
 47
0.0
 48
0.0
 49
0.0
140
0.0
141
0.0
142
1.0
143
1.0
 70
   688
 72
     0
 73
     0
 74
     5
  7
C:\Documents and Settings\Julio\Application Data\Autodesk\AutoCAD 2006\R16.2\enu\Plot Styles\sanindusa.ctb
 75
    16
147
1.0
148
0.0
149
0.0
100
AcDbLayout
  1
Layout1
 70
     1
 71
     1
 10
0.0
 20
0.0
 11
420.0
 21
297.0
 12
0.0
 22
0.0
 32
0.0
 14
1.000000000000000E+20
 24
1.000000000000000E+20
 34
1.000000000000000E+20
 15
-1.000000000000000E+20
 25
-1.000000000000000E+20
 35
-1.000000000000000E+20
146
0.0
 13
0.0
 23
0.0
 33
0.0
 16
1.0
 26
0.0
 36
0.0
 17
0.0
 27
1.0
 37
0.0
 76
     0
330
1F
  0
LAYOUT
  5
2A
102
{ACAD_XDICTIONARY
360
6CC
102
}
102
{ACAD_REACTORS
330
1A
102
}
330
1A
100
AcDbPlotSettings
  1

  2
HP DesignJet 500PS42+HPGL2 Card
  4

  6

 40
0.0
 41
0.0
 42
0.0
 43
0.0
 44
0.0
 45
0.0
 46
0.0
 47
0.0
 48
0.0
 49
0.0
140
0.0
141
0.0
142
1.0
143
1.0
 70
   688
 72
     0
 73
     0
 74
     5
  7
C:\Documents and Settings\Julio\Application Data\Autodesk\AutoCAD 2006\R16.2\enu\Plot Styles\sanindusa.ctb
 75
    16
147
1.0
148
0.0
149
0.0
100
AcDbLayout
  1
Layout2
 70
     1
 71
     2
 10
0.0
 20
0.0
 11
12.0
 21
9.0
 12
0.0
 22
0.0
 32
0.0
 14
0.0
 24
0.0
 34
0.0
 15
0.0
 25
0.0
 35
0.0
146
0.0
 13
0.0
 23
0.0
 33
0.0
 16
1.0
 26
0.0
 36
0.0
 17
0.0
 27
1.0
 37
0.0
 76
     0
330
27
  0
LAYOUT
  5
26
102
{ACAD_XDICTIONARY
360
6CA
102
}
102
{ACAD_REACTORS
330
1A
102
}
330
1A
100
AcDbPlotSettings
  1

  2
HP DesignJet 500PS42+HPGL2 Card
  4

  6

 40
0.0
 41
0.0
 42
0.0
 43
0.0
 44
0.0
 45
0.0
 46
0.0
 47
0.0
 48
0.0
 49
0.0
140
0.0
141
0.0
142
1.0
143
1.0
 70
  1712
 72
     0
 73
     0
 74
     0
  7
C:\Documents and Settings\Julio\Application Data\Autodesk\AutoCAD 2006\R16.2\enu\Plot Styles\sanindusa.ctb
 75
     0
147
1.0
148
0.0
149
0.0
100
AcDbLayout
  1
Model
 70
     1
 71
     0
 10
0.0
 20
0.0
 11
12.0
 21
9.0
 12
0.0
 22
0.0
 32
0.0
 14
0.0
 24
0.0
 34
0.0
 15
0.0
 25
0.0
 35
0.0
146
0.0
 13
0.0
 23
0.0
 33
0.0
 16
1.0
 26
0.0
 36
0.0
 17
0.0
 27
1.0
 37
0.0
 76
     0
330
23
331
65B
  0
MATERIAL
  5
66F
102
{ACAD_XDICTIONARY
360
670
102
}
102
{ACAD_REACTORS
330
1B
102
}
330
1B
100
AcDbMaterial
  1
ByBlock
 72
     0
 43
0.0008202099737533
 43
0.0
 43
0.0
 43
0.0
 43
0.0
 43
0.0008202099737533
 43
0.0
 43
0.0
 43
0.0
 43
0.0
 43
1.0
 43
0.0
 43
0.0
 43
0.0
 43
0.0
 43
1.0
 77
     0
 47
0.0008202099737533
 47
0.0
 47
0.0
 47
0.0
 47
0.0
 47
0.0008202099737533
 47
0.0
 47
0.0
 47
0.0
 47
0.0
 47
1.0
 47
0.0
 47
0.0
 47
0.0
 47
0.0
 47
1.0
171
     0
 49
0.0008202099737533
 49
0.0
 49
0.0
 49
0.0
 49
0.0
 49
0.0008202099737533
 49
0.0
 49
0.0
 49
0.0
 49
0.0
 49
1.0
 49
0.0
 49
0.0
 49
0.0
 49
0.0
 49
1.0
175
     0
142
0.0008202099737533
142
0.0
142
0.0
142
0.0
142
0.0
142
0.0008202099737533
142
0.0
142
0.0
142
0.0
142
0.0
142
1.0
142
0.0
142
0.0
142
0.0
142
0.0
142
1.0
179
     0
144
0.0008202099737533
144
0.0
144
0.0
144
0.0
144
0.0
144
0.0008202099737533
144
0.0
144
0.0
144
0.0
144
0.0
144
1.0
144
0.0
144
0.0
144
0.0
144
0.0
144
1.0
147
0.0008202099737533
147
0.0
147
0.0
147
0.0
147
0.0
147
0.0008202099737533
147
0.0
147
0.0
147
0.0
147
0.0
147
1.0
147
0.0
147
0.0
147
0.0
147
0.0
147
1.0
  0
MATERIAL
  5
667
102
{ACAD_XDICTIONARY
360
668
102
}
102
{ACAD_REACTORS
330
1B
102
}
330
1B
100
AcDbMaterial
  1
ByLayer
 72
     0
 43
0.0008202099737533
 43
0.0
 43
0.0
 43
0.0
 43
0.0
 43
0.0008202099737533
 43
0.0
 43
0.0
 43
0.0
 43
0.0
 43
1.0
 43
0.0
 43
0.0
 43
0.0
 43
0.0
 43
1.0
 77
     0
 47
0.0008202099737533
 47
0.0
 47
0.0
 47
0.0
 47
0.0
 47
0.0008202099737533
 47
0.0
 47
0.0
 47
0.0
 47
0.0
 47
1.0
 47
0.0
 47
0.0
 47
0.0
 47
0.0
 47
1.0
171
     0
 49
0.0008202099737533
 49
0.0
 49
0.0
 49
0.0
 49
0.0
 49
0.0008202099737533
 49
0.0
 49
0.0
 49
0.0
 49
0.0
 49
1.0
 49
0.0
 49
0.0
 49
0.0
 49
0.0
 49
1.0
175
     0
142
0.0008202099737533
142
0.0
142
0.0
142
0.0
142
0.0
142
0.0008202099737533
142
0.0
142
0.0
142
0.0
142
0.0
142
1.0
142
0.0
142
0.0
142
0.0
142
0.0
142
1.0
179
     0
144
0.0008202099737533
144
0.0
144
0.0
144
0.0
144
0.0
144
0.0008202099737533
144
0.0
144
0.0
144
0.0
144
0.0
144
1.0
144
0.0
144
0.0
144
0.0
144
0.0
144
1.0
147
0.0008202099737533
147
0.0
147
0.0
147
0.0
147
0.0
147
0.0008202099737533
147
0.0
147
0.0
147
0.0
147
0.0
147
1.0
147
0.0
147
0.0
147
0.0
147
0.0
147
1.0
  0
MATERIAL
  5
677
102
{ACAD_XDICTIONARY
360
678
102
}
102
{ACAD_REACTORS
330
1B
102
}
330
1B
100
AcDbMaterial
  1
Global
 72
     0
 43
0.0008202099737533
 43
0.0
 43
0.0
 43
0.0
 43
0.0
 43
0.0008202099737533
 43
0.0
 43
0.0
 43
0.0
 43
0.0
 43
1.0
 43
0.0
 43
0.0
 43
0.0
 43
0.0
 43
1.0
 77
     0
 47
0.0008202099737533
 47
0.0
 47
0.0
 47
0.0
 47
0.0
 47
0.0008202099737533
 47
0.0
 47
0.0
 47
0.0
 47
0.0
 47
1.0
 47
0.0
 47
0.0
 47
0.0
 47
0.0
 47
1.0
171
     0
 49
0.0008202099737533
 49
0.0
 49
0.0
 49
0.0
 49
0.0
 49
0.0008202099737533
 49
0.0
 49
0.0
 49
0.0
 49
0.0
 49
1.0
 49
0.0
 49
0.0
 49
0.0
 49
0.0
 49
1.0
175
     0
142
0.0008202099737533
142
0.0
142
0.0
142
0.0
142
0.0
142
0.0008202099737533
142
0.0
142
0.0
142
0.0
142
0.0
142
1.0
142
0.0
142
0.0
142
0.0
142
0.0
142
1.0
179
     0
144
0.0008202099737533
144
0.0
144
0.0
144
0.0
144
0.0
144
0.0008202099737533
144
0.0
144
0.0
144
0.0
144
0.0
144
1.0
144
0.0
144
0.0
144
0.0
144
0.0
144
1.0
147
0.0008202099737533
147
0.0
147
0.0
147
0.0
147
0.0
147
0.0008202099737533
147
0.0
147
0.0
147
0.0
147
0.0
147
1.0
147
0.0
147
0.0
147
0.0
147
0.0
147
1.0
  0
MLEADERSTYLE
  5
6A6
102
{ACAD_REACTORS
330
6A5
102
}
330
6A5
100
AcDbMLeaderStyle
170
     2
171
     1
172
     0
 90
        2
 40
0.0
 41
0.0
173
     1
 91
-1056964608
340
14
 92
       -2
290
     1
 42
2.0
291
     1
 43
0.36
  3
Standard
 44
4.0
300

342
11
174
     1
178
     6
175
     1
176
     0
 93
-1056964608
 45
4.0
292
     0
297
     0
 46
4.0
 94
-1056964608
 47
1.0
 49
1.0
140
1.0
293
     1
141
0.0
294
     1
177
     0
142
1.0
295
     0
296
     0
143
0.125
1001
ACAD_MLEADERVER
1070
     2
  0
MLINESTYLE
  5
18
102
{ACAD_REACTORS
330
17
102
}
330
17
100
AcDbMlineStyle
  2
STANDARD
 70
     0
  3

 62
   256
 51
90.0
 52
90.0
 71
     2
 49
0.5
 62
   256
  6
BYLAYER
 49
-0.5
 62
   256
  6
BYLAYER
  0
ACDBPLACEHOLDER
  5
F
102
{ACAD_REACTORS
330
E
102
}
330
E
  0
SCALE
  5
694
102
{ACAD_REACTORS
330
693
102
}
330
693
100
AcDbScale
 70
     0
300
1:1
140
1.0
141
1.0
290
     1
  0
SCALE
  5
695
102
{ACAD_REACTORS
330
693
102
}
330
693
100
AcDbScale
 70
     0
300
1:2
140
1.0
141
2.0
290
     0
  0
SCALE
  5
696
102
{ACAD_REACTORS
330
693
102
}
330
693
100
AcDbScale
 70
     0
300
1:4
140
1.0
141
4.0
290
     0
  0
SCALE
  5
697
102
{ACAD_REACTORS
330
693
102
}
330
693
100
AcDbScale
 70
     0
300
1:5
140
1.0
141
5.0
290
     0
  0
SCALE
  5
698
102
{ACAD_REACTORS
330
693
102
}
330
693
100
AcDbScale
 70
     0
300
1:8
140
1.0
141
8.0
290
     0
  0
SCALE
  5
699
102
{ACAD_REACTORS
330
693
102
}
330
693
100
AcDbScale
 70
     0
300
1:10
140
1.0
141
10.0
290
     0
  0
SCALE
  5
69A
102
{ACAD_REACTORS
330
693
102
}
330
693
100
AcDbScale
 70
     0
300
1:16
140
1.0
141
16.0
290
     0
  0
SCALE
  5
69B
102
{ACAD_REACTORS
330
693
102
}
330
693
100
AcDbScale
 70
     0
300
1:20
140
1.0
141
20.0
290
     0
  0
SCALE
  5
69C
102
{ACAD_REACTORS
330
693
102
}
330
693
100
AcDbScale
 70
     0
300
1:30
140
1.0
141
30.0
290
     0
  0
SCALE
  5
69D
102
{ACAD_REACTORS
330
693
102
}
330
693
100
AcDbScale
 70
     0
300
1:40
140
1.0
141
40.0
290
     0
  0
SCALE
  5
69E
102
{ACAD_REACTORS
330
693
102
}
330
693
100
AcDbScale
 70
     0
300
1:50
140
1.0
141
50.0
290
     0
  0
SCALE
  5
69F
102
{ACAD_REACTORS
330
693
102
}
330
693
100
AcDbScale
 70
     0
300
1:100
140
1.0
141
100.0
290
     0
  0
SCALE
  5
6A0
102
{ACAD_REACTORS
330
693
102
}
330
693
100
AcDbScale
 70
     0
300
2:1
140
2.0
141
1.0
290
     0
  0
SCALE
  5
6A1
102
{ACAD_REACTORS
330
693
102
}
330
693
100
AcDbScale
 70
     0
300
4:1
140
4.0
141
1.0
290
     0
  0
SCALE
  5
6A2
102
{ACAD_REACTORS
330
693
102
}
330
693
100
AcDbScale
 70
     0
300
8:1
140
8.0
141
1.0
290
     0
  0
SCALE
  5
6A3
102
{ACAD_REACTORS
330
693
102
}
330
693
100
AcDbScale
 70
     0
300
10:1
140
10.0
141
1.0
290
     0
  0
SCALE
  5
6A4
102
{ACAD_REACTORS
330
693
102
}
330
693
100
AcDbScale
 70
     0
300
100:1
140
100.0
141
1.0
290
     0
  0
TABLESTYLE
  5
1E
102
{ACAD_XDICTIONARY
360
6C3
102
}
102
{ACAD_REACTORS
330
1D
102
}
330
1D
100
AcDbTableStyle
  3
Standard
 70
     0
 71
     0
 40
1.5
 41
1.5
280
     0
281
     0
  7
Standard
140
4.5
170
     2
 62
     0
 63
     7
283
     0
274
    -2
284
     1
 64
     0
275
    -2
285
     1
 65
     0
276
    -2
286
     1
 66
     0
277
    -2
287
     1
 67
     0
278
    -2
288
     1
 68
     0
279
    -2
289
     1
 69
     0
  7
Standard
140
6.0
170
     5
 62
     0
 63
     7
283
     0
274
    -2
284
     1
 64
     0
275
    -2
285
     1
 65
     0
276
    -2
286
     1
 66
     0
277
    -2
287
     1
 67
     0
278
    -2
288
     1
 68
     0
279
    -2
289
     1
 69
     0
  7
Standard
140
4.5
170
     5
 62
     0
 63
     7
283
     0
274
    -2
284
     1
 64
     0
275
    -2
285
     1
 65
     0
276
    -2
286
     1
 66
     0
277
    -2
287
     1
 67
     0
278
    -2
288
     1
 68
     0
279
    -2
289
     1
 69
     0
  0
VISUALSTYLE
  5
685
102
{ACAD_XDICTIONARY
360
6DB
102
}
102
{ACAD_REACTORS
330
67F
102
}
330
67F
100
AcDbVisualStyle
  2
2dWireframe
 70
     4
 71
     0
 72
     2
 73
     0
 90
        0
 40
-0.6
 41
-30.0
 62
     5
 63
     7
 74
     1
 91
        4
 64
     7
 65
   257
 75
     1
175
     1
 42
1.0
 92
        0
 66
   257
 43
1.0
 76
     1
 77
     6
 78
     2
 67
     7
 79
     5
170
     0
171
     0
290
     0
174
     0
 93
        1
 44
0.0
173
     0
291
     0
 45
0.0
1001
ACAD
1000
AcDbSavedByObjectVersion
1070
     0
  0
VISUALSTYLE
  5
687
102
{ACAD_XDICTIONARY
360
6DF
102
}
102
{ACAD_REACTORS
330
67F
102
}
330
67F
100
AcDbVisualStyle
  2
3D Hidden
 70
     6
 71
     1
 72
     2
 73
     2
 90
        0
 40
-0.6
 41
-30.0
 62
     5
 63
     7
 74
     2
 91
        2
 64
     7
 65
   257
 75
     2
175
     1
 42
179.0
 92
        0
 66
   257
 43
1.0
 76
     1
 77
     6
 78
     2
 67
     7
 79
     3
170
     0
171
     0
290
     0
174
     0
 93
        1
 44
0.0
173
     0
291
     0
 45
0.0
1001
ACAD
1000
AcDbSavedByObjectVersion
1070
     0
  0
VISUALSTYLE
  5
686
102
{ACAD_XDICTIONARY
360
6DD
102
}
102
{ACAD_REACTORS
330
67F
102
}
330
67F
100
AcDbVisualStyle
  2
3dWireframe
 70
     5
 71
     0
 72
     2
 73
     0
 90
        0
 40
-0.6
 41
-30.0
 62
     5
 63
     7
 74
     1
 91
        4
 64
     7
 65
   257
 75
     1
175
     1
 42
1.0
 92
        0
 66
   257
 43
1.0
 76
     1
 77
     6
 78
     2
 67
     7
 79
     5
170
     0
171
     0
290
     0
174
     0
 93
        1
 44
0.0
173
     0
291
     0
 45
0.0
1001
ACAD
1000
AcDbSavedByObjectVersion
1070
     0
  0
VISUALSTYLE
  5
684
102
{ACAD_XDICTIONARY
360
6D9
102
}
102
{ACAD_REACTORS
330
67F
102
}
330
67F
100
AcDbVisualStyle
  2
Basic
 70
     7
 71
     1
 72
     0
 73
     1
 90
        0
 40
-0.6
 41
-30.0
 62
     5
 63
     7
 74
     0
 91
        4
 64
     7
 65
   257
 75
     1
175
     1
 42
1.0
 92
        8
 66
     7
 43
1.0
 76
     1
 77
     6
 78
     2
 67
     7
 79
     5
170
     0
171
     0
290
     0
174
     0
 93
        1
 44
0.0
173
     0
291
     1
 45
0.0
1001
ACAD
1000
AcDbSavedByObjectVersion
1070
     0
  0
VISUALSTYLE
  5
68B
102
{ACAD_XDICTIONARY
360
6E7
102
}
102
{ACAD_REACTORS
330
67F
102
}
330
67F
100
AcDbVisualStyle
  2
Brighten
 70
    12
 71
     2
 72
     2
 73
     0
 90
        0
 40
-0.6
 41
-30.0
 62
     5
 63
     7
 74
     1
 91
        4
 64
     7
 65
   257
 75
     1
175
     1
 42
1.0
 92
        8
 66
     7
 43
1.0
 76
     1
 77
     6
 78
     2
 67
     7
 79
     5
170
     0
171
     0
290
     0
174
     0
 93
        1
 44
50.0
173
     0
291
     1
 45
0.0
1001
ACAD
1000
AcDbSavedByObjectVersion
1070
     0
  0
VISUALSTYLE
  5
68F
102
{ACAD_XDICTIONARY
360
6EF
102
}
102
{ACAD_REACTORS
330
67F
102
}
330
67F
100
AcDbVisualStyle
  2
ColorChange
 70
    16
 71
     2
 72
     2
 73
     3
 90
        0
 40
-0.6
 41
-30.0
 62
     5
 63
     8
 74
     1
 91
        4
 64
     7
 65
   257
 75
     1
175
     1
 42
1.0
 92
        8
 66
     8
 43
1.0
 76
     1
 77
     6
 78
     2
 67
     7
 79
     5
170
     0
171
     0
290
     0
174
     0
 93
        1
 44
0.0
173
     0
291
     1
 45
0.0
1001
ACAD
1000
AcDbSavedByObjectVersion
1070
     0
  0
VISUALSTYLE
  5
688
102
{ACAD_XDICTIONARY
360
6E1
102
}
102
{ACAD_REACTORS
330
67F
102
}
330
67F
100
AcDbVisualStyle
  2
Conceptual
 70
     9
 71
     3
 72
     2
 73
     0
 90
        0
 40
-0.6
 41
-30.0
 62
     5
 63
     7
 74
     2
 91
        2
 64
     7
 65
   257
 75
     1
175
     1
 42
179.0
 92
        8
 66
     7
 43
1.0
 76
     1
 77
     6
 78
     2
 67
     7
 79
     3
170
     0
171
     0
290
     0
174
     0
 93
        1
 44
0.0
173
     0
291
     0
 45
0.0
1001
ACAD
1000
AcDbSavedByObjectVersion
1070
     0
  0
VISUALSTYLE
  5
68A
102
{ACAD_XDICTIONARY
360
6E5
102
}
102
{ACAD_REACTORS
330
67F
102
}
330
67F
100
AcDbVisualStyle
  2
Dim
 70
    11
 71
     2
 72
     2
 73
     0
 90
        0
 40
-0.6
 41
-30.0
 62
     5
 63
     7
 74
     1
 91
        4
 64
     7
 65
   257
 75
     1
175
     1
 42
1.0
 92
        8
 66
     7
 43
1.0
 76
     1
 77
     6
 78
     2
 67
     7
 79
     5
170
     0
171
     0
290
     0
174
     0
 93
        1
 44
-50.0
173
     0
291
     1
 45
0.0
1001
ACAD
1000
AcDbSavedByObjectVersion
1070
     0
  0
VISUALSTYLE
  5
692
102
{ACAD_XDICTIONARY
360
6F5
102
}
102
{ACAD_REACTORS
330
67F
102
}
330
67F
100
AcDbVisualStyle
  2
EdgeColorOff
 70
    22
 71
     2
 72
     2
 73
     0
 90
        0
 40
-0.6
 41
-30.0
 62
     5
 63
     7
 74
     1
 91
        4
 64
     7
 65
   257
 75
     1
175
     1
 42
1.0
 92
        8
 66
     7
 43
1.0
 76
     1
 77
     6
 78
     2
 67
     7
 79
     5
170
     0
171
     0
290
     0
174
     0
 93
        1
 44
0.0
173
     0
291
     1
 45
0.0
1001
ACAD
1000
AcDbSavedByObjectVersion
1070
     0
  0
VISUALSTYLE
  5
68E
102
{ACAD_XDICTIONARY
360
6ED
102
}
102
{ACAD_REACTORS
330
67F
102
}
330
67F
100
AcDbVisualStyle
  2
Facepattern
 70
    15
 71
     2
 72
     2
 73
     0
 90
        0
 40
-0.6
 41
-30.0
 62
     5
 63
     7
 74
     1
 91
        4
 64
     7
 65
   257
 75
     1
175
     1
 42
1.0
 92
        8
 66
     7
 43
1.0
 76
     1
 77
     6
 78
     2
 67
     7
 79
     5
170
     0
171
     0
290
     0
174
     0
 93
        1
 44
0.0
173
     0
291
     1
 45
0.0
1001
ACAD
1000
AcDbSavedByObjectVersion
1070
     0
  0
VISUALSTYLE
  5
680
102
{ACAD_XDICTIONARY
360
6D1
102
}
102
{ACAD_REACTORS
330
67F
102
}
330
67F
100
AcDbVisualStyle
  2
Flat
 70
     0
 71
     2
 72
     1
 73
     1
 90
        2
 40
-0.6
 41
30.0
 62
     5
 63
     7
 74
     0
 91
        4
 64
     7
 65
   257
 75
     1
175
     1
 42
1.0
 92
        8
 66
     7
 43
1.0
 76
     1
 77
     6
 78
     2
 67
     7
 79
     5
170
     0
171
     0
290
     0
174
     0
 93
       13
 44
0.0
173
     0
291
     1
 45
0.0
1001
ACAD
1000
AcDbSavedByObjectVersion
1070
     0
  0
VISUALSTYLE
  5
681
102
{ACAD_XDICTIONARY
360
6D3
102
}
102
{ACAD_REACTORS
330
67F
102
}
330
67F
100
AcDbVisualStyle
  2
FlatWithEdges
 70
     1
 71
     2
 72
     1
 73
     1
 90
        2
 40
-0.6
 41
30.0
 62
     5
 63
     7
 74
     1
 91
        4
 64
     7
 65
   257
 75
     1
175
     1
 42
1.0
 92
        0
 66
   257
 43
1.0
 76
     1
 77
     6
 78
     2
 67
     7
 79
     5
170
     0
171
     0
290
     0
174
     0
 93
       13
 44
0.0
173
     0
291
     1
 45
0.0
1001
ACAD
1000
AcDbSavedByObjectVersion
1070
     0
  0
VISUALSTYLE
  5
682
102
{ACAD_XDICTIONARY
360
6D5
102
}
102
{ACAD_REACTORS
330
67F
102
}
330
67F
100
AcDbVisualStyle
  2
Gouraud
 70
     2
 71
     2
 72
     2
 73
     1
 90
        2
 40
-0.6
 41
30.0
 62
     5
 63
     7
 74
     0
 91
        4
 64
     7
 65
   257
 75
     1
175
     1
 42
1.0
 92
        0
 66
     7
 43
1.0
 76
     1
 77
     6
 78
     2
 67
     7
 79
     5
170
     0
171
     0
290
     0
174
     0
 93
       13
 44
0.0
173
     0
291
     1
 45
0.0
1001
ACAD
1000
AcDbSavedByObjectVersion
1070
     0
  0
VISUALSTYLE
  5
683
102
{ACAD_XDICTIONARY
360
6D7
102
}
102
{ACAD_REACTORS
330
67F
102
}
330
67F
100
AcDbVisualStyle
  2
GouraudWithEdges
 70
     3
 71
     2
 72
     2
 73
     1
 90
        2
 40
-0.6
 41
30.0
 62
     5
 63
     7
 74
     1
 91
        4
 64
     7
 65
   257
 75
     1
175
     1
 42
1.0
 92
        0
 66
   257
 43
1.0
 76
     1
 77
     6
 78
     2
 67
     7
 79
     5
170
     0
171
     0
290
     0
174
     0
 93
       13
 44
0.0
173
     0
291
     1
 45
0.0
1001
ACAD
1000
AcDbSavedByObjectVersion
1070
     0
  0
VISUALSTYLE
  5
690
102
{ACAD_XDICTIONARY
360
6F1
102
}
102
{ACAD_REACTORS
330
67F
102
}
330
67F
100
AcDbVisualStyle
  2
JitterOff
 70
    20
 71
     2
 72
     2
 73
     0
 90
        0
 40
-0.6
 41
-30.0
 62
     5
 63
     7
 74
     1
 91
        4
 64
     7
 65
   257
 75
     1
175
     1
 42
1.0
 92
       10
 66
     7
 43
1.0
 76
     1
 77
     6
 78
     2
 67
     7
 79
     5
170
     0
171
     0
290
     0
174
     0
 93
        1
 44
0.0
173
     0
291
     1
 45
0.0
1001
ACAD
1000
AcDbSavedByObjectVersion
1070
     0
  0
VISUALSTYLE
  5
68D
102
{ACAD_XDICTIONARY
360
6EB
102
}
102
{ACAD_REACTORS
330
67F
102
}
330
67F
100
AcDbVisualStyle
  2
Linepattern
 70
    14
 71
     2
 72
     2
 73
     0
 90
        0
 40
-0.6
 41
-30.0
 62
     5
 63
     7
 74
     1
 91
        4
 64
     7
 65
   257
 75
     7
175
     7
 42
1.0
 92
        8
 66
     7
 43
1.0
 76
     1
 77
     6
 78
     2
 67
     7
 79
     5
170
     0
171
     0
290
     0
174
     0
 93
        1
 44
0.0
173
     0
291
     1
 45
0.0
1001
ACAD
1000
AcDbSavedByObjectVersion
1070
     0
  0
VISUALSTYLE
  5
691
102
{ACAD_XDICTIONARY
360
6F3
102
}
102
{ACAD_REACTORS
330
67F
102
}
330
67F
100
AcDbVisualStyle
  2
OverhangOff
 70
    21
 71
     2
 72
     2
 73
     0
 90
        0
 40
-0.6
 41
-30.0
 62
     5
 63
     7
 74
     1
 91
        4
 64
     7
 65
   257
 75
     1
175
     1
 42
1.0
 92
        9
 66
     7
 43
1.0
 76
     1
 77
     6
 78
     2
 67
     7
 79
     5
170
     0
171
     0
290
     0
174
     0
 93
        1
 44
0.0
173
     0
291
     1
 45
0.0
1001
ACAD
1000
AcDbSavedByObjectVersion
1070
     0
  0
VISUALSTYLE
  5
689
102
{ACAD_XDICTIONARY
360
6E3
102
}
102
{ACAD_REACTORS
330
67F
102
}
330
67F
100
AcDbVisualStyle
  2
Realistic
 70
     8
 71
     2
 72
     2
 73
     0
 90
        0
 40
-0.6
 41
-30.0
 62
     5
 63
     7
 74
     1
 91
        0
 64
     7
 65
   257
 75
     1
175
     1
 42
1.0
 92
        8
 66
     8
 43
1.0
 76
     1
 77
     6
 78
     2
 67
     7
 79
     5
170
     0
171
     0
290
     0
174
     0
 93
       13
 44
0.0
173
     0
291
     0
 45
0.0
1001
ACAD
1000
AcDbSavedByObjectVersion
1070
     0
  0
VISUALSTYLE
  5
68C
102
{ACAD_XDICTIONARY
360
6E9
102
}
102
{ACAD_REACTORS
330
67F
102
}
330
67F
100
AcDbVisualStyle
  2
Thicken
 70
    13
 71
     2
 72
     2
 73
     0
 90
        0
 40
-0.6
 41
-30.0
 62
     5
 63
     7
 74
     1
 91
        4
 64
     7
 65
   257
 75
     1
175
     1
 42
1.0
 92
       12
 66
     7
 43
1.0
 76
     1
 77
     6
 78
     2
 67
     7
 79
     5
170
     0
171
     0
290
     0
174
     0
 93
        1
 44
0.0
173
     0
291
     1
 45
0.0
1001
ACAD
1000
AcDbSavedByObjectVersion
1070
     0
  0
DICTIONARYVAR
  5
6BF
102
{ACAD_REACTORS
330
657
102
}
330
657
100
DictionaryVariables
280
     0
  1
1:1
  0
DICTIONARYVAR
  5
6BE
102
{ACAD_REACTORS
330
657
102
}
330
657
100
DictionaryVariables
280
     0
  1
STANDARD
  0
DICTIONARYVAR
  5
658
102
{ACAD_REACTORS
330
657
102
}
330
657
100
DictionaryVariables
280
     0
  1
STANDARD
  0
DICTIONARYVAR
  5
664
102
{ACAD_REACTORS
330
657
102
}
330
657
100
DictionaryVariables
280
     0
  1
2
  0
DICTIONARYVAR
  5
663
102
{ACAD_REACTORS
330
657
102
}
330
657
100
DictionaryVariables
280
     0
  1
1
  0
DICTIONARYVAR
  5
6C1
102
{ACAD_REACTORS
330
657
102
}
330
657
100
DictionaryVariables
280
     0
  1
0
  0
DICTIONARYVAR
  5
665
102
{ACAD_REACTORS
330
657
102
}
330
657
100
DictionaryVariables
280
     0
  1

  0
DICTIONARYVAR
  5
6C0
102
{ACAD_REACTORS
330
657
102
}
330
657
100
DictionaryVariables
280
     0
  1
127
  0
DICTIONARYVAR
  5
6C2
102
{ACAD_REACTORS
330
657
102
}
330
657
100
DictionaryVariables
280
     0
  1
2
  0
XRECORD
  5
655
102
{ACAD_REACTORS
330
654
102
}
330
654
100
AcDbXrecord
280
     1
  0
DICTIONARY
  5
6C8
330
22
100
AcDbDictionary
280
     1
281
     1
  3
ACAD_XREC_ROUNDTRIP
360
6C9
  0
DICTIONARY
  5
6CC
330
2A
100
AcDbDictionary
280
     1
281
     1
  3
ACAD_XREC_ROUNDTRIP
360
6CD
  0
DICTIONARY
  5
6CA
330
26
100
AcDbDictionary
280
     1
281
     1
  3
ACAD_XREC_ROUNDTRIP
360
6CB
  0
DICTIONARY
  5
670
330
66F
100
AcDbDictionary
280
     1
281
     1
  3
ACAD_XREC_ROUNDTRIP
360
6CF
  3
BUMPTILE
360
672
  3
DIFFUSETILE
360
671
  3
OPACITYTILE
360
675
  3
REFLECTIONTILE
360
674
  3
REFRACTIONTILE
360
676
  3
SPECULARTILE
360
673
  0
DICTIONARY
  5
668
330
667
100
AcDbDictionary
280
     1
281
     1
  3
ACAD_XREC_ROUNDTRIP
360
6CE
  3
BUMPTILE
360
66A
  3
DIFFUSETILE
360
669
  3
OPACITYTILE
360
66D
  3
REFLECTIONTILE
360
66C
  3
REFRACTIONTILE
360
66E
  3
SPECULARTILE
360
66B
  0
DICTIONARY
  5
678
330
677
100
AcDbDictionary
280
     1
281
     1
  3
ACAD_XREC_ROUNDTRIP
360
6D0
  3
BUMPTILE
360
67A
  3
DIFFUSETILE
360
679
  3
OPACITYTILE
360
67D
  3
REFLECTIONTILE
360
67C
  3
REFRACTIONTILE
360
67E
  3
SPECULARTILE
360
67B
  0
DICTIONARY
  5
6C3
330
1E
100
AcDbDictionary
280
     1
281
     1
  3
ACAD_ROUNDTRIP_2008_TABLESTYLE_CELLSTYLEMAP
360
6C4
  3
ACAD_XREC_ROUNDTRIP
360
6C7
  0
DICTIONARY
  5
6DB
330
685
100
AcDbDictionary
280
     1
281
     1
  3
ACAD_XREC_ROUNDTRIP
360
6DC
  0
DICTIONARY
  5
6DF
330
687
100
AcDbDictionary
280
     1
281
     1
  3
ACAD_XREC_ROUNDTRIP
360
6E0
  0
DICTIONARY
  5
6DD
330
686
100
AcDbDictionary
280
     1
281
     1
  3
ACAD_XREC_ROUNDTRIP
360
6DE
  0
DICTIONARY
  5
6D9
330
684
100
AcDbDictionary
280
     1
281
     1
  3
ACAD_XREC_ROUNDTRIP
360
6DA
  0
DICTIONARY
  5
6E7
330
68B
100
AcDbDictionary
280
     1
281
     1
  3
ACAD_XREC_ROUNDTRIP
360
6E8
  0
DICTIONARY
  5
6EF
330
68F
100
AcDbDictionary
280
     1
281
     1
  3
ACAD_XREC_ROUNDTRIP
360
6F0
  0
DICTIONARY
  5
6E1
330
688
100
AcDbDictionary
280
     1
281
     1
  3
ACAD_XREC_ROUNDTRIP
360
6E2
  0
DICTIONARY
  5
6E5
330
68A
100
AcDbDictionary
280
     1
281
     1
  3
ACAD_XREC_ROUNDTRIP
360
6E6
  0
DICTIONARY
  5
6F5
330
692
100
AcDbDictionary
280
     1
281
     1
  3
ACAD_XREC_ROUNDTRIP
360
6F6
  0
DICTIONARY
  5
6ED
330
68E
100
AcDbDictionary
280
     1
281
     1
  3
ACAD_XREC_ROUNDTRIP
360
6EE
  0
DICTIONARY
  5
6D1
330
680
100
AcDbDictionary
280
     1
281
     1
  3
ACAD_XREC_ROUNDTRIP
360
6D2
  0
DICTIONARY
  5
6D3
330
681
100
AcDbDictionary
280
     1
281
     1
  3
ACAD_XREC_ROUNDTRIP
360
6D4
  0
DICTIONARY
  5
6D5
330
682
100
AcDbDictionary
280
     1
281
     1
  3
ACAD_XREC_ROUNDTRIP
360
6D6
  0
DICTIONARY
  5
6D7
330
683
100
AcDbDictionary
280
     1
281
     1
  3
ACAD_XREC_ROUNDTRIP
360
6D8
  0
DICTIONARY
  5
6F1
330
690
100
AcDbDictionary
280
     1
281
     1
  3
ACAD_XREC_ROUNDTRIP
360
6F2
  0
DICTIONARY
  5
6EB
330
68D
100
AcDbDictionary
280
     1
281
     1
  3
ACAD_XREC_ROUNDTRIP
360
6EC
  0
DICTIONARY
  5
6F3
330
691
100
AcDbDictionary
280
     1
281
     1
  3
ACAD_XREC_ROUNDTRIP
360
6F4
  0
DICTIONARY
  5
6E3
330
689
100
AcDbDictionary
280
     1
281
     1
  3
ACAD_XREC_ROUNDTRIP
360
6E4
  0
DICTIONARY
  5
6E9
330
68C
100
AcDbDictionary
280
     1
281
     1
  3
ACAD_XREC_ROUNDTRIP
360
6EA
  0
XRECORD
  5
6C9
102
{ACAD_REACTORS
330
6C8
102
}
330
6C8
100
AcDbXrecord
280
     1
102
SHADEPLOT
 70
     0
102
SHADEPLOTRESLEVEL
 70
     2
102
SHADEPLOTCUSTOMDPI
 70
   300
  0
XRECORD
  5
6CD
102
{ACAD_REACTORS
330
6CC
102
}
330
6CC
100
AcDbXrecord
280
     1
102
SHADEPLOT
 70
     0
102
SHADEPLOTRESLEVEL
 70
     2
102
SHADEPLOTCUSTOMDPI
 70
   300
  0
XRECORD
  5
6CB
102
{ACAD_REACTORS
330
6CA
102
}
330
6CA
100
AcDbXrecord
280
     1
102
SHADEPLOT
 70
     0
102
SHADEPLOTRESLEVEL
 70
     2
102
SHADEPLOTCUSTOMDPI
 70
   300
  0
XRECORD
  5
6CF
102
{ACAD_REACTORS
330
670
102
}
330
670
100
AcDbXrecord
280
     1
102
MATERIAL
148
0.0
149
0.0
149
0.0
 93
        0
 94
      127
282
     0
 72
     0
 77
     0
171
     0
175
     0
179
     0
273
     0
  0
XRECORD
  5
672
102
{ACAD_REACTORS
330
670
102
}
330
670
100
AcDbXrecord
280
     1
270
     1
271
     1
  0
XRECORD
  5
671
102
{ACAD_REACTORS
330
670
102
}
330
670
100
AcDbXrecord
280
     1
270
     1
271
     1
  0
XRECORD
  5
675
102
{ACAD_REACTORS
330
670
102
}
330
670
100
AcDbXrecord
280
     1
270
     1
271
     1
  0
XRECORD
  5
674
102
{ACAD_REACTORS
330
670
102
}
330
670
100
AcDbXrecord
280
     1
270
     1
271
     1
  0
XRECORD
  5
676
102
{ACAD_REACTORS
330
670
102
}
330
670
100
AcDbXrecord
280
     1
270
     1
271
     1
  0
XRECORD
  5
673
102
{ACAD_REACTORS
330
670
102
}
330
670
100
AcDbXrecord
280
     1
270
     1
271
     1
  0
XRECORD
  5
6CE
102
{ACAD_REACTORS
330
668
102
}
330
668
100
AcDbXrecord
280
     1
102
MATERIAL
148
0.0
149
0.0
149
0.0
 93
        0
 94
      127
282
     0
 72
     0
 77
     0
171
     0
175
     0
179
     0
273
     0
  0
XRECORD
  5
66A
102
{ACAD_REACTORS
330
668
102
}
330
668
100
AcDbXrecord
280
     1
270
     1
271
     1
  0
XRECORD
  5
669
102
{ACAD_REACTORS
330
668
102
}
330
668
100
AcDbXrecord
280
     1
270
     1
271
     1
  0
XRECORD
  5
66D
102
{ACAD_REACTORS
330
668
102
}
330
668
100
AcDbXrecord
280
     1
270
     1
271
     1
  0
XRECORD
  5
66C
102
{ACAD_REACTORS
330
668
102
}
330
668
100
AcDbXrecord
280
     1
270
     1
271
     1
  0
XRECORD
  5
66E
102
{ACAD_REACTORS
330
668
102
}
330
668
100
AcDbXrecord
280
     1
270
     1
271
     1
  0
XRECORD
  5
66B
102
{ACAD_REACTORS
330
668
102
}
330
668
100
AcDbXrecord
280
     1
270
     1
271
     1
  0
XRECORD
  5
6D0
102
{ACAD_REACTORS
330
678
102
}
330
678
100
AcDbXrecord
280
     1
102
MATERIAL
148
0.0
149
0.0
149
0.0
 93
        0
 94
      127
282
     0
 72
     0
 77
     0
171
     0
175
     0
179
     0
273
     0
  0
XRECORD
  5
67A
102
{ACAD_REACTORS
330
678
102
}
330
678
100
AcDbXrecord
280
     1
270
     1
271
     1
  0
XRECORD
  5
679
102
{ACAD_REACTORS
330
678
102
}
330
678
100
AcDbXrecord
280
     1
270
     1
271
     1
  0
XRECORD
  5
67D
102
{ACAD_REACTORS
330
678
102
}
330
678
100
AcDbXrecord
280
     1
270
     1
271
     1
  0
XRECORD
  5
67C
102
{ACAD_REACTORS
330
678
102
}
330
678
100
AcDbXrecord
280
     1
270
     1
271
     1
  0
XRECORD
  5
67E
102
{ACAD_REACTORS
330
678
102
}
330
678
100
AcDbXrecord
280
     1
270
     1
271
     1
  0
XRECORD
  5
67B
102
{ACAD_REACTORS
330
678
102
}
330
678
100
AcDbXrecord
280
     1
270
     1
271
     1
  0
CELLSTYLEMAP
  5
6C4
102
{ACAD_REACTORS
330
6C3
102
}
330
6C3
100
AcDbCellStyleMap
 90
        3
300
CELLSTYLE
  1
TABLEFORMAT_BEGIN
 90
        5
170
     1
 91
        0
 92
    32768
 62
   257
 93
        1
300
CONTENTFORMAT
  1
CONTENTFORMAT_BEGIN
 90
        0
 91
        0
 92
        4
 93
        0
300

 40
0.0
140
1.0
 94
        5
 62
     0
340
11
144
6.0
309
CONTENTFORMAT_END
171
     1
301
MARGIN
  1
CELLMARGIN_BEGIN
 40
1.5
 40
1.5
 40
1.5
 40
1.5
 40
0.18
 40
0.18
309
CELLMARGIN_END
 94
        6
 95
        1
302
GRIDFORMAT
  1
GRIDFORMAT_BEGIN
 90
        0
 91
        1
 62
     0
 92
       -2
340
0
 93
        0
 40
0.045
309
GRIDFORMAT_END
 95
        2
302
GRIDFORMAT
  1
GRIDFORMAT_BEGIN
 90
        0
 91
        1
 62
     0
 92
       -2
340
0
 93
        0
 40
0.045
309
GRIDFORMAT_END
 95
        4
302
GRIDFORMAT
  1
GRIDFORMAT_BEGIN
 90
        0
 91
        1
 62
     0
 92
       -2
340
0
 93
        0
 40
0.045
309
GRIDFORMAT_END
 95
        8
302
GRIDFORMAT
  1
GRIDFORMAT_BEGIN
 90
        0
 91
        1
 62
     0
 92
       -2
340
0
 93
        0
 40
0.045
309
GRIDFORMAT_END
 95
       16
302
GRIDFORMAT
  1
GRIDFORMAT_BEGIN
 90
        0
 91
        1
 62
     0
 92
       -2
340
0
 93
        0
 40
0.045
309
GRIDFORMAT_END
 95
       32
302
GRIDFORMAT
  1
GRIDFORMAT_BEGIN
 90
        0
 91
        1
 62
     0
 92
       -2
340
0
 93
        0
 40
0.045
309
GRIDFORMAT_END
309
TABLEFORMAT_END
  1
CELLSTYLE_BEGIN
 90
        1
 91
        1
300
_TITLE
309
CELLSTYLE_END
300
CELLSTYLE
  1
TABLEFORMAT_BEGIN
 90
        5
170
     1
 91
        0
 92
        0
 62
   257
 93
        1
300
CONTENTFORMAT
  1
CONTENTFORMAT_BEGIN
 90
        0
 91
        0
 92
        4
 93
        0
300

 40
0.0
140
1.0
 94
        5
 62
     0
340
11
144
4.5
309
CONTENTFORMAT_END
171
     1
301
MARGIN
  1
CELLMARGIN_BEGIN
 40
1.5
 40
1.5
 40
1.5
 40
1.5
 40
0.18
 40
0.18
309
CELLMARGIN_END
 94
        6
 95
        1
302
GRIDFORMAT
  1
GRIDFORMAT_BEGIN
 90
        0
 91
        1
 62
     0
 92
       -2
340
0
 93
        0
 40
0.045
309
GRIDFORMAT_END
 95
        2
302
GRIDFORMAT
  1
GRIDFORMAT_BEGIN
 90
        0
 91
        1
 62
     0
 92
       -2
340
0
 93
        0
 40
0.045
309
GRIDFORMAT_END
 95
        4
302
GRIDFORMAT
  1
GRIDFORMAT_BEGIN
 90
        0
 91
        1
 62
     0
 92
       -2
340
0
 93
        0
 40
0.045
309
GRIDFORMAT_END
 95
        8
302
GRIDFORMAT
  1
GRIDFORMAT_BEGIN
 90
        0
 91
        1
 62
     0
 92
       -2
340
0
 93
        0
 40
0.045
309
GRIDFORMAT_END
 95
       16
302
GRIDFORMAT
  1
GRIDFORMAT_BEGIN
 90
        0
 91
        1
 62
     0
 92
       -2
340
0
 93
        0
 40
0.045
309
GRIDFORMAT_END
 95
       32
302
GRIDFORMAT
  1
GRIDFORMAT_BEGIN
 90
        0
 91
        1
 62
     0
 92
       -2
340
0
 93
        0
 40
0.045
309
GRIDFORMAT_END
309
TABLEFORMAT_END
  1
CELLSTYLE_BEGIN
 90
        2
 91
        1
300
_HEADER
309
CELLSTYLE_END
300
CELLSTYLE
  1
TABLEFORMAT_BEGIN
 90
        5
170
     1
 91
        0
 92
        0
 62
   257
 93
        1
300
CONTENTFORMAT
  1
CONTENTFORMAT_BEGIN
 90
        0
 91
        0
 92
        4
 93
        0
300

 40
0.0
140
1.0
 94
        2
 62
     0
340
11
144
4.5
309
CONTENTFORMAT_END
171
     1
301
MARGIN
  1
CELLMARGIN_BEGIN
 40
1.5
 40
1.5
 40
1.5
 40
1.5
 40
0.18
 40
0.18
309
CELLMARGIN_END
 94
        6
 95
        1
302
GRIDFORMAT
  1
GRIDFORMAT_BEGIN
 90
        0
 91
        1
 62
     0
 92
       -2
340
0
 93
        0
 40
0.045
309
GRIDFORMAT_END
 95
        2
302
GRIDFORMAT
  1
GRIDFORMAT_BEGIN
 90
        0
 91
        1
 62
     0
 92
       -2
340
0
 93
        0
 40
0.045
309
GRIDFORMAT_END
 95
        4
302
GRIDFORMAT
  1
GRIDFORMAT_BEGIN
 90
        0
 91
        1
 62
     0
 92
       -2
340
0
 93
        0
 40
0.045
309
GRIDFORMAT_END
 95
        8
302
GRIDFORMAT
  1
GRIDFORMAT_BEGIN
 90
        0
 91
        1
 62
     0
 92
       -2
340
0
 93
        0
 40
0.045
309
GRIDFORMAT_END
 95
       16
302
GRIDFORMAT
  1
GRIDFORMAT_BEGIN
 90
        0
 91
        1
 62
     0
 92
       -2
340
0
 93
        0
 40
0.045
309
GRIDFORMAT_END
 95
       32
302
GRIDFORMAT
  1
GRIDFORMAT_BEGIN
 90
        0
 91
        1
 62
     0
 92
       -2
340
0
 93
        0
 40
0.045
309
GRIDFORMAT_END
309
TABLEFORMAT_END
  1
CELLSTYLE_BEGIN
 90
        3
 91
        2
300
_DATA
309
CELLSTYLE_END
  0
XRECORD
  5
6C7
102
{ACAD_REACTORS
330
6C3
102
}
330
6C3
100
AcDbXrecord
280
     1
102
ACAD_ROUNDTRIP_PRE2007_TABLESTYLE
 90
        4
 91
        0
  1

 92
        4
 93
        0
  2

 94
        4
 95
        0
  3

  0
XRECORD
  5
6DC
102
{ACAD_REACTORS
330
6DB
102
}
330
6DB
100
AcDbXrecord
280
     1
102
RTVSPropertyOp0
 70
     1
102
RTVSPropertyOp1
 70
     1
102
RTVSPropertyOp2
 70
     1
102
RTVSPropertyOp3
 70
     1
102
RTVSPropertyOp4
 70
     1
102
RTVSPropertyOp5
 70
     1
102
RTVSPropertyOp6
 70
     1
102
RTVSPropertyOp7
 70
     1
102
RTVSPropertyOp8
 70
     1
102
RTVSPropertyOp9
 70
     1
102
RTVSPropertyOp10
 70
     1
102
RTVSPropertyOp11
 70
     1
102
RTVSPropertyOp12
 70
     1
102
RTVSPropertyOp13
 70
     1
102
RTVSPropertyOp14
 70
     1
102
RTVSPropertyOp15
 70
     1
102
RTVSPropertyOp16
 70
     1
102
RTVSPropertyOp17
 70
     1
102
RTVSPropertyOp18
 70
     1
102
RTVSPropertyOp19
 70
     1
102
RTVSPropertyOp20
 70
     1
102
RTVSPropertyOp21
 70
     1
102
RTVSPropertyOp22
 70
     1
102
RTVSPropertyOp23
 70
     1
102
RTVSPropertyOp24
 70
     1
102
RTVSPropertyOp25
 70
     1
102
RTVSPropertyOp26
 70
     1
102
RTVSPropertyOp27
 70
     1
  0
XRECORD
  5
6E0
102
{ACAD_REACTORS
330
6DF
102
}
330
6DF
100
AcDbXrecord
280
     1
102
RTVSPropertyOp0
 70
     1
102
RTVSPropertyOp1
 70
     1
102
RTVSPropertyOp2
 70
     1
102
RTVSPropertyOp3
 70
     1
102
RTVSPropertyOp4
 70
     1
102
RTVSPropertyOp5
 70
     1
102
RTVSPropertyOp6
 70
     1
102
RTVSPropertyOp7
 70
     1
102
RTVSPropertyOp8
 70
     1
102
RTVSPropertyOp9
 70
     1
102
RTVSPropertyOp10
 70
     1
102
RTVSPropertyOp11
 70
     1
102
RTVSPropertyOp12
 70
     1
102
RTVSPropertyOp13
 70
     1
102
RTVSPropertyOp14
 70
     1
102
RTVSPropertyOp15
 70
     1
102
RTVSPropertyOp16
 70
     1
102
RTVSPropertyOp17
 70
     1
102
RTVSPropertyOp18
 70
     1
102
RTVSPropertyOp19
 70
     1
102
RTVSPropertyOp20
 70
     1
102
RTVSPropertyOp21
 70
     1
102
RTVSPropertyOp22
 70
     1
102
RTVSPropertyOp23
 70
     1
102
RTVSPropertyOp24
 70
     1
102
RTVSPropertyOp25
 70
     1
102
RTVSPropertyOp26
 70
     1
102
RTVSPropertyOp27
 70
     1
  0
XRECORD
  5
6DE
102
{ACAD_REACTORS
330
6DD
102
}
330
6DD
100
AcDbXrecord
280
     1
102
RTVSPropertyOp0
 70
     1
102
RTVSPropertyOp1
 70
     1
102
RTVSPropertyOp2
 70
     1
102
RTVSPropertyOp3
 70
     1
102
RTVSPropertyOp4
 70
     1
102
RTVSPropertyOp5
 70
     1
102
RTVSPropertyOp6
 70
     1
102
RTVSPropertyOp7
 70
     1
102
RTVSPropertyOp8
 70
     1
102
RTVSPropertyOp9
 70
     1
102
RTVSPropertyOp10
 70
     1
102
RTVSPropertyOp11
 70
     1
102
RTVSPropertyOp12
 70
     1
102
RTVSPropertyOp13
 70
     1
102
RTVSPropertyOp14
 70
     1
102
RTVSPropertyOp15
 70
     1
102
RTVSPropertyOp16
 70
     1
102
RTVSPropertyOp17
 70
     1
102
RTVSPropertyOp18
 70
     1
102
RTVSPropertyOp19
 70
     1
102
RTVSPropertyOp20
 70
     1
102
RTVSPropertyOp21
 70
     1
102
RTVSPropertyOp22
 70
     1
102
RTVSPropertyOp23
 70
     1
102
RTVSPropertyOp24
 70
     1
102
RTVSPropertyOp25
 70
     1
102
RTVSPropertyOp26
 70
     1
102
RTVSPropertyOp27
 70
     1
  0
XRECORD
  5
6DA
102
{ACAD_REACTORS
330
6D9
102
}
330
6D9
100
AcDbXrecord
280
     1
102
RTVSPropertyOp0
 70
     1
102
RTVSPropertyOp1
 70
     1
102
RTVSPropertyOp2
 70
     1
102
RTVSPropertyOp3
 70
     1
102
RTVSPropertyOp4
 70
     1
102
RTVSPropertyOp5
 70
     1
102
RTVSPropertyOp6
 70
     1
102
RTVSPropertyOp7
 70
     1
102
RTVSPropertyOp8
 70
     1
102
RTVSPropertyOp9
 70
     1
102
RTVSPropertyOp10
 70
     1
102
RTVSPropertyOp11
 70
     1
102
RTVSPropertyOp12
 70
     1
102
RTVSPropertyOp13
 70
     1
102
RTVSPropertyOp14
 70
     1
102
RTVSPropertyOp15
 70
     1
102
RTVSPropertyOp16
 70
     1
102
RTVSPropertyOp17
 70
     1
102
RTVSPropertyOp18
 70
     1
102
RTVSPropertyOp19
 70
     1
102
RTVSPropertyOp20
 70
     1
102
RTVSPropertyOp21
 70
     1
102
RTVSPropertyOp22
 70
     1
102
RTVSPropertyOp23
 70
     1
102
RTVSPropertyOp24
 70
     1
102
RTVSPropertyOp25
 70
     1
102
RTVSPropertyOp26
 70
     1
102
RTVSPropertyOp27
 70
     1
  0
XRECORD
  5
6E8
102
{ACAD_REACTORS
330
6E7
102
}
330
6E7
100
AcDbXrecord
280
     1
102
RTVSPropertyOp0
 70
     1
102
RTVSPropertyOp1
 70
     1
102
RTVSPropertyOp2
 70
     1
102
RTVSPropertyOp3
 70
     1
102
RTVSPropertyOp4
 70
     1
102
RTVSPropertyOp5
 70
     1
102
RTVSPropertyOp6
 70
     1
102
RTVSPropertyOp7
 70
     1
102
RTVSPropertyOp8
 70
     1
102
RTVSPropertyOp9
 70
     1
102
RTVSPropertyOp10
 70
     1
102
RTVSPropertyOp11
 70
     1
102
RTVSPropertyOp12
 70
     1
102
RTVSPropertyOp13
 70
     1
102
RTVSPropertyOp14
 70
     1
102
RTVSPropertyOp15
 70
     1
102
RTVSPropertyOp16
 70
     1
102
RTVSPropertyOp17
 70
     1
102
RTVSPropertyOp18
 70
     1
102
RTVSPropertyOp19
 70
     1
102
RTVSPropertyOp20
 70
     1
102
RTVSPropertyOp21
 70
     1
102
RTVSPropertyOp22
 70
     1
102
RTVSPropertyOp23
 70
     1
102
RTVSPropertyOp24
 70
     1
102
RTVSPropertyOp25
 70
     1
102
RTVSPropertyOp26
 70
     1
102
RTVSPropertyOp27
 70
     1
  0
XRECORD
  5
6F0
102
{ACAD_REACTORS
330
6EF
102
}
330
6EF
100
AcDbXrecord
280
     1
102
RTVSPropertyOp0
 70
     1
102
RTVSPropertyOp1
 70
     1
102
RTVSPropertyOp2
 70
     1
102
RTVSPropertyOp3
 70
     1
102
RTVSPropertyOp4
 70
     1
102
RTVSPropertyOp5
 70
     1
102
RTVSPropertyOp6
 70
     1
102
RTVSPropertyOp7
 70
     1
102
RTVSPropertyOp8
 70
     1
102
RTVSPropertyOp9
 70
     1
102
RTVSPropertyOp10
 70
     1
102
RTVSPropertyOp11
 70
     1
102
RTVSPropertyOp12
 70
     1
102
RTVSPropertyOp13
 70
     1
102
RTVSPropertyOp14
 70
     1
102
RTVSPropertyOp15
 70
     1
102
RTVSPropertyOp16
 70
     1
102
RTVSPropertyOp17
 70
     1
102
RTVSPropertyOp18
 70
     1
102
RTVSPropertyOp19
 70
     1
102
RTVSPropertyOp20
 70
     1
102
RTVSPropertyOp21
 70
     1
102
RTVSPropertyOp22
 70
     1
102
RTVSPropertyOp23
 70
     1
102
RTVSPropertyOp24
 70
     1
102
RTVSPropertyOp25
 70
     1
102
RTVSPropertyOp26
 70
     1
102
RTVSPropertyOp27
 70
     1
  0
XRECORD
  5
6E2
102
{ACAD_REACTORS
330
6E1
102
}
330
6E1
100
AcDbXrecord
280
     1
102
RTVSPropertyOp0
 70
     1
102
RTVSPropertyOp1
 70
     1
102
RTVSPropertyOp2
 70
     1
102
RTVSPropertyOp3
 70
     1
102
RTVSPropertyOp4
 70
     1
102
RTVSPropertyOp5
 70
     1
102
RTVSPropertyOp6
 70
     1
102
RTVSPropertyOp7
 70
     1
102
RTVSPropertyOp8
 70
     1
102
RTVSPropertyOp9
 70
     1
102
RTVSPropertyOp10
 70
     1
102
RTVSPropertyOp11
 70
     1
102
RTVSPropertyOp12
 70
     1
102
RTVSPropertyOp13
 70
     1
102
RTVSPropertyOp14
 70
     1
102
RTVSPropertyOp15
 70
     1
102
RTVSPropertyOp16
 70
     1
102
RTVSPropertyOp17
 70
     1
102
RTVSPropertyOp18
 70
     1
102
RTVSPropertyOp19
 70
     1
102
RTVSPropertyOp20
 70
     1
102
RTVSPropertyOp21
 70
     1
102
RTVSPropertyOp22
 70
     1
102
RTVSPropertyOp23
 70
     1
102
RTVSPropertyOp24
 70
     1
102
RTVSPropertyOp25
 70
     1
102
RTVSPropertyOp26
 70
     1
102
RTVSPropertyOp27
 70
     1
  0
XRECORD
  5
6E6
102
{ACAD_REACTORS
330
6E5
102
}
330
6E5
100
AcDbXrecord
280
     1
102
RTVSPropertyOp0
 70
     1
102
RTVSPropertyOp1
 70
     1
102
RTVSPropertyOp2
 70
     1
102
RTVSPropertyOp3
 70
     1
102
RTVSPropertyOp4
 70
     1
102
RTVSPropertyOp5
 70
     1
102
RTVSPropertyOp6
 70
     1
102
RTVSPropertyOp7
 70
     1
102
RTVSPropertyOp8
 70
     1
102
RTVSPropertyOp9
 70
     1
102
RTVSPropertyOp10
 70
     1
102
RTVSPropertyOp11
 70
     1
102
RTVSPropertyOp12
 70
     1
102
RTVSPropertyOp13
 70
     1
102
RTVSPropertyOp14
 70
     1
102
RTVSPropertyOp15
 70
     1
102
RTVSPropertyOp16
 70
     1
102
RTVSPropertyOp17
 70
     1
102
RTVSPropertyOp18
 70
     1
102
RTVSPropertyOp19
 70
     1
102
RTVSPropertyOp20
 70
     1
102
RTVSPropertyOp21
 70
     1
102
RTVSPropertyOp22
 70
     1
102
RTVSPropertyOp23
 70
     1
102
RTVSPropertyOp24
 70
     1
102
RTVSPropertyOp25
 70
     1
102
RTVSPropertyOp26
 70
     1
102
RTVSPropertyOp27
 70
     1
  0
XRECORD
  5
6F6
102
{ACAD_REACTORS
330
6F5
102
}
330
6F5
100
AcDbXrecord
280
     1
102
RTVSPropertyOp0
 70
     0
102
RTVSPropertyOp1
 70
     0
102
RTVSPropertyOp2
 70
     0
102
RTVSPropertyOp3
 70
     0
102
RTVSPropertyOp4
 70
     0
102
RTVSPropertyOp5
 70
     0
102
RTVSPropertyOp6
 70
     0
102
RTVSPropertyOp7
 70
     0
102
RTVSPropertyOp8
 70
     0
102
RTVSPropertyOp9
 70
     0
102
RTVSPropertyOp10
 70
     0
102
RTVSPropertyOp11
 70
     0
102
RTVSPropertyOp12
 70
     0
102
RTVSPropertyOp13
 70
     0
102
RTVSPropertyOp14
 70
     2
102
RTVSPropertyOp15
 70
     0
102
RTVSPropertyOp16
 70
     0
102
RTVSPropertyOp17
 70
     0
102
RTVSPropertyOp18
 70
     0
102
RTVSPropertyOp19
 70
     0
102
RTVSPropertyOp20
 70
     0
102
RTVSPropertyOp21
 70
     0
102
RTVSPropertyOp22
 70
     0
102
RTVSPropertyOp23
 70
     0
102
RTVSPropertyOp24
 70
     0
102
RTVSPropertyOp25
 70
     0
102
RTVSPropertyOp26
 70
     0
102
RTVSPropertyOp27
 70
     0
  0
XRECORD
  5
6EE
102
{ACAD_REACTORS
330
6ED
102
}
330
6ED
100
AcDbXrecord
280
     1
102
RTVSPropertyOp0
 70
     1
102
RTVSPropertyOp1
 70
     1
102
RTVSPropertyOp2
 70
     1
102
RTVSPropertyOp3
 70
     1
102
RTVSPropertyOp4
 70
     1
102
RTVSPropertyOp5
 70
     1
102
RTVSPropertyOp6
 70
     1
102
RTVSPropertyOp7
 70
     1
102
RTVSPropertyOp8
 70
     1
102
RTVSPropertyOp9
 70
     1
102
RTVSPropertyOp10
 70
     1
102
RTVSPropertyOp11
 70
     1
102
RTVSPropertyOp12
 70
     1
102
RTVSPropertyOp13
 70
     1
102
RTVSPropertyOp14
 70
     1
102
RTVSPropertyOp15
 70
     1
102
RTVSPropertyOp16
 70
     1
102
RTVSPropertyOp17
 70
     1
102
RTVSPropertyOp18
 70
     1
102
RTVSPropertyOp19
 70
     1
102
RTVSPropertyOp20
 70
     1
102
RTVSPropertyOp21
 70
     1
102
RTVSPropertyOp22
 70
     1
102
RTVSPropertyOp23
 70
     1
102
RTVSPropertyOp24
 70
     1
102
RTVSPropertyOp25
 70
     1
102
RTVSPropertyOp26
 70
     1
102
RTVSPropertyOp27
 70
     1
  0
XRECORD
  5
6D2
102
{ACAD_REACTORS
330
6D1
102
}
330
6D1
100
AcDbXrecord
280
     1
102
RTVSPropertyOp0
 70
     1
102
RTVSPropertyOp1
 70
     1
102
RTVSPropertyOp2
 70
     1
102
RTVSPropertyOp3
 70
     1
102
RTVSPropertyOp4
 70
     1
102
RTVSPropertyOp5
 70
     1
102
RTVSPropertyOp6
 70
     1
102
RTVSPropertyOp7
 70
     1
102
RTVSPropertyOp8
 70
     1
102
RTVSPropertyOp9
 70
     1
102
RTVSPropertyOp10
 70
     1
102
RTVSPropertyOp11
 70
     1
102
RTVSPropertyOp12
 70
     1
102
RTVSPropertyOp13
 70
     1
102
RTVSPropertyOp14
 70
     1
102
RTVSPropertyOp15
 70
     1
102
RTVSPropertyOp16
 70
     1
102
RTVSPropertyOp17
 70
     1
102
RTVSPropertyOp18
 70
     1
102
RTVSPropertyOp19
 70
     1
102
RTVSPropertyOp20
 70
     1
102
RTVSPropertyOp21
 70
     1
102
RTVSPropertyOp22
 70
     1
102
RTVSPropertyOp23
 70
     1
102
RTVSPropertyOp24
 70
     1
102
RTVSPropertyOp25
 70
     1
102
RTVSPropertyOp26
 70
     1
102
RTVSPropertyOp27
 70
     1
  0
XRECORD
  5
6D4
102
{ACAD_REACTORS
330
6D3
102
}
330
6D3
100
AcDbXrecord
280
     1
102
RTVSPropertyOp0
 70
     1
102
RTVSPropertyOp1
 70
     1
102
RTVSPropertyOp2
 70
     1
102
RTVSPropertyOp3
 70
     1
102
RTVSPropertyOp4
 70
     1
102
RTVSPropertyOp5
 70
     1
102
RTVSPropertyOp6
 70
     1
102
RTVSPropertyOp7
 70
     1
102
RTVSPropertyOp8
 70
     1
102
RTVSPropertyOp9
 70
     1
102
RTVSPropertyOp10
 70
     1
102
RTVSPropertyOp11
 70
     1
102
RTVSPropertyOp12
 70
     1
102
RTVSPropertyOp13
 70
     1
102
RTVSPropertyOp14
 70
     1
102
RTVSPropertyOp15
 70
     1
102
RTVSPropertyOp16
 70
     1
102
RTVSPropertyOp17
 70
     1
102
RTVSPropertyOp18
 70
     1
102
RTVSPropertyOp19
 70
     1
102
RTVSPropertyOp20
 70
     1
102
RTVSPropertyOp21
 70
     1
102
RTVSPropertyOp22
 70
     1
102
RTVSPropertyOp23
 70
     1
102
RTVSPropertyOp24
 70
     1
102
RTVSPropertyOp25
 70
     1
102
RTVSPropertyOp26
 70
     1
102
RTVSPropertyOp27
 70
     1
  0
XRECORD
  5
6D6
102
{ACAD_REACTORS
330
6D5
102
}
330
6D5
100
AcDbXrecord
280
     1
102
RTVSPropertyOp0
 70
     1
102
RTVSPropertyOp1
 70
     1
102
RTVSPropertyOp2
 70
     1
102
RTVSPropertyOp3
 70
     1
102
RTVSPropertyOp4
 70
     1
102
RTVSPropertyOp5
 70
     1
102
RTVSPropertyOp6
 70
     1
102
RTVSPropertyOp7
 70
     1
102
RTVSPropertyOp8
 70
     1
102
RTVSPropertyOp9
 70
     1
102
RTVSPropertyOp10
 70
     1
102
RTVSPropertyOp11
 70
     1
102
RTVSPropertyOp12
 70
     1
102
RTVSPropertyOp13
 70
     1
102
RTVSPropertyOp14
 70
     1
102
RTVSPropertyOp15
 70
     1
102
RTVSPropertyOp16
 70
     1
102
RTVSPropertyOp17
 70
     1
102
RTVSPropertyOp18
 70
     1
102
RTVSPropertyOp19
 70
     1
102
RTVSPropertyOp20
 70
     1
102
RTVSPropertyOp21
 70
     1
102
RTVSPropertyOp22
 70
     1
102
RTVSPropertyOp23
 70
     1
102
RTVSPropertyOp24
 70
     1
102
RTVSPropertyOp25
 70
     1
102
RTVSPropertyOp26
 70
     1
102
RTVSPropertyOp27
 70
     1
  0
XRECORD
  5
6D8
102
{ACAD_REACTORS
330
6D7
102
}
330
6D7
100
AcDbXrecord
280
     1
102
RTVSPropertyOp0
 70
     1
102
RTVSPropertyOp1
 70
     1
102
RTVSPropertyOp2
 70
     1
102
RTVSPropertyOp3
 70
     1
102
RTVSPropertyOp4
 70
     1
102
RTVSPropertyOp5
 70
     1
102
RTVSPropertyOp6
 70
     1
102
RTVSPropertyOp7
 70
     1
102
RTVSPropertyOp8
 70
     1
102
RTVSPropertyOp9
 70
     1
102
RTVSPropertyOp10
 70
     1
102
RTVSPropertyOp11
 70
     1
102
RTVSPropertyOp12
 70
     1
102
RTVSPropertyOp13
 70
     1
102
RTVSPropertyOp14
 70
     1
102
RTVSPropertyOp15
 70
     1
102
RTVSPropertyOp16
 70
     1
102
RTVSPropertyOp17
 70
     1
102
RTVSPropertyOp18
 70
     1
102
RTVSPropertyOp19
 70
     1
102
RTVSPropertyOp20
 70
     1
102
RTVSPropertyOp21
 70
     1
102
RTVSPropertyOp22
 70
     1
102
RTVSPropertyOp23
 70
     1
102
RTVSPropertyOp24
 70
     1
102
RTVSPropertyOp25
 70
     1
102
RTVSPropertyOp26
 70
     1
102
RTVSPropertyOp27
 70
     1
  0
XRECORD
  5
6F2
102
{ACAD_REACTORS
330
6F1
102
}
330
6F1
100
AcDbXrecord
280
     1
102
RTVSPropertyOp0
 70
     0
102
RTVSPropertyOp1
 70
     0
102
RTVSPropertyOp2
 70
     0
102
RTVSPropertyOp3
 70
     0
102
RTVSPropertyOp4
 70
     0
102
RTVSPropertyOp5
 70
     0
102
RTVSPropertyOp6
 70
     0
102
RTVSPropertyOp7
 70
     0
102
RTVSPropertyOp8
 70
     0
102
RTVSPropertyOp9
 70
     0
102
RTVSPropertyOp10
 70
     0
102
RTVSPropertyOp11
 70
     0
102
RTVSPropertyOp12
 70
     0
102
RTVSPropertyOp13
 70
     0
102
RTVSPropertyOp14
 70
     2
102
RTVSPropertyOp15
 70
     0
102
RTVSPropertyOp16
 70
     0
102
RTVSPropertyOp17
 70
     0
102
RTVSPropertyOp18
 70
     0
102
RTVSPropertyOp19
 70
     0
102
RTVSPropertyOp20
 70
     0
102
RTVSPropertyOp21
 70
     0
102
RTVSPropertyOp22
 70
     0
102
RTVSPropertyOp23
 70
     0
102
RTVSPropertyOp24
 70
     0
102
RTVSPropertyOp25
 70
     0
102
RTVSPropertyOp26
 70
     0
102
RTVSPropertyOp27
 70
     0
  0
XRECORD
  5
6EC
102
{ACAD_REACTORS
330
6EB
102
}
330
6EB
100
AcDbXrecord
280
     1
102
RTVSPropertyOp0
 70
     1
102
RTVSPropertyOp1
 70
     1
102
RTVSPropertyOp2
 70
     1
102
RTVSPropertyOp3
 70
     1
102
RTVSPropertyOp4
 70
     1
102
RTVSPropertyOp5
 70
     1
102
RTVSPropertyOp6
 70
     1
102
RTVSPropertyOp7
 70
     1
102
RTVSPropertyOp8
 70
     1
102
RTVSPropertyOp9
 70
     1
102
RTVSPropertyOp10
 70
     1
102
RTVSPropertyOp11
 70
     1
102
RTVSPropertyOp12
 70
     1
102
RTVSPropertyOp13
 70
     1
102
RTVSPropertyOp14
 70
     1
102
RTVSPropertyOp15
 70
     1
102
RTVSPropertyOp16
 70
     1
102
RTVSPropertyOp17
 70
     1
102
RTVSPropertyOp18
 70
     1
102
RTVSPropertyOp19
 70
     1
102
RTVSPropertyOp20
 70
     1
102
RTVSPropertyOp21
 70
     1
102
RTVSPropertyOp22
 70
     1
102
RTVSPropertyOp23
 70
     1
102
RTVSPropertyOp24
 70
     1
102
RTVSPropertyOp25
 70
     1
102
RTVSPropertyOp26
 70
     1
102
RTVSPropertyOp27
 70
     1
  0
XRECORD
  5
6F4
102
{ACAD_REACTORS
330
6F3
102
}
330
6F3
100
AcDbXrecord
280
     1
102
RTVSPropertyOp0
 70
     0
102
RTVSPropertyOp1
 70
     0
102
RTVSPropertyOp2
 70
     0
102
RTVSPropertyOp3
 70
     0
102
RTVSPropertyOp4
 70
     0
102
RTVSPropertyOp5
 70
     0
102
RTVSPropertyOp6
 70
     0
102
RTVSPropertyOp7
 70
     0
102
RTVSPropertyOp8
 70
     0
102
RTVSPropertyOp9
 70
     0
102
RTVSPropertyOp10
 70
     0
102
RTVSPropertyOp11
 70
     0
102
RTVSPropertyOp12
 70
     0
102
RTVSPropertyOp13
 70
     0
102
RTVSPropertyOp14
 70
     2
102
RTVSPropertyOp15
 70
     0
102
RTVSPropertyOp16
 70
     0
102
RTVSPropertyOp17
 70
     0
102
RTVSPropertyOp18
 70
     0
102
RTVSPropertyOp19
 70
     0
102
RTVSPropertyOp20
 70
     0
102
RTVSPropertyOp21
 70
     0
102
RTVSPropertyOp22
 70
     0
102
RTVSPropertyOp23
 70
     0
102
RTVSPropertyOp24
 70
     0
102
RTVSPropertyOp25
 70
     0
102
RTVSPropertyOp26
 70
     0
102
RTVSPropertyOp27
 70
     0
  0
XRECORD
  5
6E4
102
{ACAD_REACTORS
330
6E3
102
}
330
6E3
100
AcDbXrecord
280
     1
102
RTVSPropertyOp0
 70
     1
102
RTVSPropertyOp1
 70
     1
102
RTVSPropertyOp2
 70
     1
102
RTVSPropertyOp3
 70
     1
102
RTVSPropertyOp4
 70
     1
102
RTVSPropertyOp5
 70
     1
102
RTVSPropertyOp6
 70
     1
102
RTVSPropertyOp7
 70
     1
102
RTVSPropertyOp8
 70
     1
102
RTVSPropertyOp9
 70
     1
102
RTVSPropertyOp10
 70
     1
102
RTVSPropertyOp11
 70
     1
102
RTVSPropertyOp12
 70
     1
102
RTVSPropertyOp13
 70
     1
102
RTVSPropertyOp14
 70
     1
102
RTVSPropertyOp15
 70
     1
102
RTVSPropertyOp16
 70
     1
102
RTVSPropertyOp17
 70
     1
102
RTVSPropertyOp18
 70
     1
102
RTVSPropertyOp19
 70
     1
102
RTVSPropertyOp20
 70
     1
102
RTVSPropertyOp21
 70
     1
102
RTVSPropertyOp22
 70
     1
102
RTVSPropertyOp23
 70
     1
102
RTVSPropertyOp24
 70
     1
102
RTVSPropertyOp25
 70
     1
102
RTVSPropertyOp26
 70
     1
102
RTVSPropertyOp27
 70
     1
  0
XRECORD
  5
6EA
102
{ACAD_REACTORS
330
6E9
102
}
330
6E9
100
AcDbXrecord
280
     1
102
RTVSPropertyOp0
 70
     1
102
RTVSPropertyOp1
 70
     1
102
RTVSPropertyOp2
 70
     1
102
RTVSPropertyOp3
 70
     1
102
RTVSPropertyOp4
 70
     1
102
RTVSPropertyOp5
 70
     1
102
RTVSPropertyOp6
 70
     1
102
RTVSPropertyOp7
 70
     1
102
RTVSPropertyOp8
 70
     1
102
RTVSPropertyOp9
 70
     1
102
RTVSPropertyOp10
 70
     1
102
RTVSPropertyOp11
 70
     1
102
RTVSPropertyOp12
 70
     1
102
RTVSPropertyOp13
 70
     1
102
RTVSPropertyOp14
 70
     1
102
RTVSPropertyOp15
 70
     1
102
RTVSPropertyOp16
 70
     1
102
RTVSPropertyOp17
 70
     1
102
RTVSPropertyOp18
 70
     1
102
RTVSPropertyOp19
 70
     1
102
RTVSPropertyOp20
 70
     1
102
RTVSPropertyOp21
 70
     1
102
RTVSPropertyOp22
 70
     1
102
RTVSPropertyOp23
 70
     1
102
RTVSPropertyOp24
 70
     1
102
RTVSPropertyOp25
 70
     1
102
RTVSPropertyOp26
 70
     1
102
RTVSPropertyOp27
 70
     1
  0
ENDSEC
  0
EOF
