  0
SECTION
  2
HEADER
  9
$ACADVER
  1
AC1015
  9
$ACADMAINTVER
 70
    20
  9
$DWGCODEPAGE
  3
ANSI_1252
  9
$INSBASE
 10
0.0
 20
0.0
 30
0.0
  9
$EXTMIN
 10
254.0232194082318
 20
177.8038651746788
 30
0.0
  9
$EXTMAX
 10
257.2272687871713
 20
178.7068651746789
 30
0.0
  9
$LIMMIN
 10
0.0
 20
0.0
  9
$LIMMAX
 10
420.0
 20
297.0
  9
$ORTHOMODE
 70
     0
  9
$REGENMODE
 70
     1
  9
$FILLMODE
 70
     1
  9
$QTEXTMODE
 70
     0
  9
$MIRRTEXT
 70
     0
  9
$LTSCALE
 40
1.0
  9
$ATTMODE
 70
     1
  9
$TEXTSIZE
 40
2.5
  9
$TRACEWID
 40
1.0
  9
$TEXTSTYLE
  7
Standard
  9
$CLAYER
  8
0
  9
$CELTYPE
  6
ByLayer
  9
$CECOLOR
 62
   256
  9
$CELTSCALE
 40
1.0
  9
$DISPSILH
 70
     0
  9
$DIMSCALE
 40
1.0
  9
$DIMASZ
 40
2.5
  9
$DIMEXO
 40
0.625
  9
$DIMDLI
 40
3.75
  9
$DIMRND
 40
0.0
  9
$DIMDLE
 40
0.0
  9
$DIMEXE
 40
1.25
  9
$DIMTP
 40
0.0
  9
$DIMTM
 40
0.0
  9
$DIMTXT
 40
2.5
  9
$DIMCEN
 40
2.5
  9
$DIMTSZ
 40
0.0
  9
$DIMTOL
 70
     0
  9
$DIMLIM
 70
     0
  9
$DIMTIH
 70
     0
  9
$DIMTOH
 70
     0
  9
$DIMSE1
 70
     0
  9
$DIMSE2
 70
     0
  9
$DIMTAD
 70
     1
  9
$DIMZIN
 70
     8
  9
$DIMBLK
  1

  9
$DIMASO
 70
     1
  9
$DIMSHO
 70
     1
  9
$DIMPOST
  1

  9
$DIMAPOST
  1

  9
$DIMALT
 70
     0
  9
$DIMALTD
 70
     3
  9
$DIMALTF
 40
0.03937007874016
  9
$DIMLFAC
 40
1.0
  9
$DIMTOFL
 70
     1
  9
$DIMTVP
 40
0.0
  9
$DIMTIX
 70
     0
  9
$DIMSOXD
 70
     0
  9
$DIMSAH
 70
     0
  9
$DIMBLK1
  1

  9
$DIMBLK2
  1

  9
$DIMSTYLE
  2
ISO-25
  9
$DIMCLRD
 70
     0
  9
$DIMCLRE
 70
     0
  9
$DIMCLRT
 70
     0
  9
$DIMTFAC
 40
1.0
  9
$DIMGAP
 40
0.625
  9
$DIMJUST
 70
     0
  9
$DIMSD1
 70
     0
  9
$DIMSD2
 70
     0
  9
$DIMTOLJ
 70
     0
  9
$DIMTZIN
 70
     8
  9
$DIMALTZ
 70
     0
  9
$DIMALTTZ
 70
     0
  9
$DIMUPT
 70
     0
  9
$DIMDEC
 70
     2
  9
$DIMTDEC
 70
     2
  9
$DIMALTU
 70
     2
  9
$DIMALTTD
 70
     3
  9
$DIMTXSTY
  7
Standard
  9
$DIMAUNIT
 70
     0
  9
$DIMADEC
 70
     0
  9
$DIMALTRND
 40
0.0
  9
$DIMAZIN
 70
     0
  9
$DIMDSEP
 70
    44
  9
$DIMATFIT
 70
     3
  9
$DIMFRAC
 70
     0
  9
$DIMLDRBLK
  1

  9
$DIMLUNIT
 70
     2
  9
$DIMLWD
 70
    -2
  9
$DIMLWE
 70
    -2
  9
$DIMTMOVE
 70
     0
  9
$LUNITS
 70
     2
  9
$LUPREC
 70
     4
  9
$SKETCHINC
 40
1.0
  9
$FILLETRAD
 40
0.0
  9
$AUNITS
 70
     0
  9
$AUPREC
 70
     0
  9
$MENU
  1
.
  9
$ELEVATION
 40
0.0
  9
$PELEVATION
 40
0.0
  9
$THICKNESS
 40
0.0
  9
$LIMCHECK
 70
     0
  9
$CHAMFERA
 40
0.0
  9
$CHAMFERB
 40
0.0
  9
$CHAMFERC
 40
0.0
  9
$CHAMFERD
 40
0.0
  9
$SKPOLY
 70
     0
  9
$TDCREATE
 40
2453797.530085718
  9
$TDUCREATE
 40
2453797.488419051
  9
$TDUPDATE
 40
2456149.581286343
  9
$TDUUPDATE
 40
2456149.539619676
  9
$TDINDWG
 40
0.0079734491
  9
$TDUSRTIMER
 40
0.0079734491
  9
$USRTIMER
 70
     1
  9
$ANGBASE
 50
0.0
  9
$ANGDIR
 70
     0
  9
$PDMODE
 70
     0
  9
$PDSIZE
 40
0.0
  9
$PLINEWID
 40
0.0
  9
$SPLFRAME
 70
     0
  9
$SPLINETYPE
 70
     6
  9
$SPLINESEGS
 70
     8
  9
$HANDSEED
  5
713
  9
$SURFTAB1
 70
     6
  9
$SURFTAB2
 70
     6
  9
$SURFTYPE
 70
     6
  9
$SURFU
 70
     6
  9
$SURFV
 70
     6
  9
$UCSBASE
  2

  9
$UCSNAME
  2

  9
$UCSORG
 10
0.0
 20
0.0
 30
0.0
  9
$UCSXDIR
 10
1.0
 20
0.0
 30
0.0
  9
$UCSYDIR
 10
0.0
 20
1.0
 30
0.0
  9
$UCSORTHOREF
  2

  9
$UCSORTHOVIEW
 70
     0
  9
$UCSORGTOP
 10
0.0
 20
0.0
 30
0.0
  9
$UCSORGBOTTOM
 10
0.0
 20
0.0
 30
0.0
  9
$UCSORGLEFT
 10
0.0
 20
0.0
 30
0.0
  9
$UCSORGRIGHT
 10
0.0
 20
0.0
 30
0.0
  9
$UCSORGFRONT
 10
0.0
 20
0.0
 30
0.0
  9
$UCSORGBACK
 10
0.0
 20
0.0
 30
0.0
  9
$PUCSBASE
  2

  9
$PUCSNAME
  2

  9
$PUCSORG
 10
0.0
 20
0.0
 30
0.0
  9
$PUCSXDIR
 10
1.0
 20
0.0
 30
0.0
  9
$PUCSYDIR
 10
0.0
 20
1.0
 30
0.0
  9
$PUCSORTHOREF
  2

  9
$PUCSORTHOVIEW
 70
     0
  9
$PUCSORGTOP
 10
0.0
 20
0.0
 30
0.0
  9
$PUCSORGBOTTOM
 10
0.0
 20
0.0
 30
0.0
  9
$PUCSORGLEFT
 10
0.0
 20
0.0
 30
0.0
  9
$PUCSORGRIGHT
 10
0.0
 20
0.0
 30
0.0
  9
$PUCSORGFRONT
 10
0.0
 20
0.0
 30
0.0
  9
$PUCSORGBACK
 10
0.0
 20
0.0
 30
0.0
  9
$USERI1
 70
     0
  9
$USERI2
 70
     0
  9
$USERI3
 70
     0
  9
$USERI4
 70
     0
  9
$USERI5
 70
     0
  9
$USERR1
 40
0.0
  9
$USERR2
 40
0.0
  9
$USERR3
 40
0.0
  9
$USERR4
 40
0.0
  9
$USERR5
 40
0.0
  9
$WORLDVIEW
 70
     1
  9
$SHADEDGE
 70
     3
  9
$SHADEDIF
 70
    70
  9
$TILEMODE
 70
     1
  9
$MAXACTVP
 70
    64
  9
$PINSBASE
 10
0.0
 20
0.0
 30
0.0
  9
$PLIMCHECK
 70
     0
  9
$PEXTMIN
 10
1.000000000000000E+20
 20
1.000000000000000E+20
 30
1.000000000000000E+20
  9
$PEXTMAX
 10
-1.000000000000000E+20
 20
-1.000000000000000E+20
 30
-1.000000000000000E+20
  9
$PLIMMIN
 10
0.0
 20
0.0
  9
$PLIMMAX
 10
420.0
 20
297.0
  9
$UNITMODE
 70
     0
  9
$VISRETAIN
 70
     1
  9
$PLINEGEN
 70
     0
  9
$PSLTSCALE
 70
     1
  9
$TREEDEPTH
 70
  3020
  9
$CMLSTYLE
  2
Standard
  9
$CMLJUST
 70
     0
  9
$CMLSCALE
 40
20.0
  9
$PROXYGRAPHICS
 70
     1
  9
$MEASUREMENT
 70
     1
  9
$CELWEIGHT
370
    -1
  9
$ENDCAPS
280
     0
  9
$JOINSTYLE
280
     0
  9
$LWDISPLAY
290
     0
  9
$INSUNITS
 70
     4
  9
$HYPERLINKBASE
  1

  9
$STYLESHEET
  1

  9
$XEDIT
290
     1
  9
$CEPSNTYPE
380
     0
  9
$PSTYLEMODE
290
     1
  9
$FINGERPRINTGUID
  2
{B7B973A9-A6D1-45B0-BCD8-F3A90C001AEB}
  9
$VERSIONGUID
  2
{7A110B91-025F-4210-A731-CD9B150ACF8B}
  9
$EXTNAMES
290
     1
  9
$PSVPSCALE
 40
0.0
  9
$OLESTARTUP
290
     0
  0
ENDSEC
  0
SECTION
  2
CLASSES
  0
CLASS
  1
ACDBDICTIONARYWDFLT
  2
AcDbDictionaryWithDefault
  3
ObjectDBX Classes
 90
        0
280
     0
281
     0
  0
CLASS
  1
TABLESTYLE
  2
AcDbTableStyle
  3
ObjectDBX Classes
 90
     4095
280
     0
281
     0
  0
CLASS
  1
DICTIONARYVAR
  2
AcDbDictionaryVar
  3
ObjectDBX Classes
 90
        0
280
     0
281
     0
  0
CLASS
  1
SORTENTSTABLE
  2
AcDbSortentsTable
  3
ObjectDBX Classes
 90
        0
280
     0
281
     0
  0
CLASS
  1
ACDBPLACEHOLDER
  2
AcDbPlaceHolder
  3
ObjectDBX Classes
 90
        0
280
     0
281
     0
  0
CLASS
  1
LAYOUT
  2
AcDbLayout
  3
ObjectDBX Classes
 90
        0
280
     0
281
     0
  0
CLASS
  1
MATERIAL
  2
AcDbMaterial
  3
ObjectDBX Classes
 90
     1153
280
     0
281
     0
  0
CLASS
  1
VISUALSTYLE
  2
AcDbVisualStyle
  3
ObjectDBX Classes
 90
     4095
280
     0
281
     0
  0
CLASS
  1
SCALE
  2
AcDbScale
  3
ObjectDBX Classes
 90
     1153
280
     0
281
     0
  0
CLASS
  1
MLEADERSTYLE
  2
AcDbMLeaderStyle
  3
ACDB_MLEADERSTYLE_CLASS
 90
     4095
280
     0
281
     0
  0
CLASS
  1
CELLSTYLEMAP
  2
AcDbCellStyleMap
  3
ObjectDBX Classes
 90
     1152
280
     0
281
     0
  0
ENDSEC
  0
SECTION
  2
TABLES
  0
TABLE
  2
VPORT
  5
8
330
0
100
AcDbSymbolTable
 70
     1
  0
VPORT
  5
685
330
8
100
AcDbSymbolTableRecord
100
AcDbViewportTableRecord
  2
*Active
 70
     0
 10
0.0
 20
0.0
 11
1.0
 21
1.0
 12
255.6856107069738
 22
178.2553651746789
 13
0.0
 23
0.0
 14
10.0
 24
10.0
 15
10.0
 25
10.0
 16
0.0
 26
0.0
 36
1.0
 17
0.0
 27
0.0
 37
0.0
 40
2.027970839516196
 41
1.645464025026068
 42
50.0
 43
0.0
 44
0.0
 50
0.0
 51
0.0
 71
     0
 72
  1000
 73
     1
 74
     3
 75
     0
 76
     0
 77
     0
 78
     0
281
     0
 65
     1
110
0.0
120
0.0
130
0.0
111
1.0
121
0.0
131
0.0
112
0.0
122
1.0
132
0.0
 79
     0
146
0.0
  0
ENDTAB
  0
TABLE
  2
LTYPE
  5
5
330
0
100
AcDbSymbolTable
 70
     2
  0
LTYPE
  5
14
330
5
100
AcDbSymbolTableRecord
100
AcDbLinetypeTableRecord
  2
ByBlock
 70
     0
  3

 72
    65
 73
     0
 40
0.0
  0
LTYPE
  5
15
330
5
100
AcDbSymbolTableRecord
100
AcDbLinetypeTableRecord
  2
ByLayer
 70
     0
  3

 72
    65
 73
     0
 40
0.0
  0
LTYPE
  5
16
330
5
100
AcDbSymbolTableRecord
100
AcDbLinetypeTableRecord
  2
Continuous
 70
     0
  3
Solid line
 72
    65
 73
     0
 40
0.0
  0
LTYPE
  5
2F
330
5
100
AcDbSymbolTableRecord
100
AcDbLinetypeTableRecord
  2
HIDDEN
 70
     0
  3
Hidden __ __ __ __ __ __ __ __ __ __ __ __ __ __
 72
    65
 73
     2
 40
1.905
 49
1.27
 74
     0
 49
-0.635
 74
     0
  0
ENDTAB
  0
TABLE
  2
LAYER
  5
2
330
0
100
AcDbSymbolTable
 70
     3
  0
LAYER
  5
10
102
{ACAD_XDICTIONARY
360
6D3
102
}
330
2
100
AcDbSymbolTableRecord
100
AcDbLayerTableRecord
  2
0
 70
     0
 62
     7
  6
Continuous
370
    -3
390
F
  0
LAYER
  5
30
102
{ACAD_XDICTIONARY
360
6D5
102
}
330
2
100
AcDbSymbolTableRecord
100
AcDbLayerTableRecord
  2
FORMAT
 70
     0
 62
     7
  6
Continuous
370
    -3
390
F
  0
LAYER
  5
65E
102
{ACAD_XDICTIONARY
360
6D7
102
}
330
2
100
AcDbSymbolTableRecord
100
AcDbLayerTableRecord
  2
sanindusa
 70
     0
 62
     3
  6
Continuous
370
    -3
390
F
  0
ENDTAB
  0
TABLE
  2
STYLE
  5
3
330
0
100
AcDbSymbolTable
 70
     2
  0
STYLE
  5
11
330
3
100
AcDbSymbolTableRecord
100
AcDbTextStyleTableRecord
  2
Standard
 70
     0
 40
0.0
 41
1.0
 50
0.0
 71
     0
 42
2.5
  3
txt
  4

  0
STYLE
  5
31
330
3
100
AcDbSymbolTableRecord
100
AcDbTextStyleTableRecord
  2
SLDTEXTSTYLE0
 70
     0
 40
0.0
 41
0.75
 50
0.0
 71
     0
 42
0.0
  3
TXT
  4

  0
ENDTAB
  0
TABLE
  2
VIEW
  5
6
330
0
100
AcDbSymbolTable
 70
     0
  0
ENDTAB
  0
TABLE
  2
UCS
  5
7
330
0
100
AcDbSymbolTable
 70
     0
  0
ENDTAB
  0
TABLE
  2
APPID
  5
9
330
0
100
AcDbSymbolTable
 70
     3
  0
APPID
  5
12
330
9
100
AcDbSymbolTableRecord
100
AcDbRegAppTableRecord
  2
ACAD
 70
     0
  0
APPID
  5
33
330
9
100
AcDbSymbolTableRecord
100
AcDbRegAppTableRecord
  2
DCO15
 70
     0
  0
APPID
  5
712
330
9
100
AcDbSymbolTableRecord
100
AcDbRegAppTableRecord
  2
ACAD_MLEADERVER
 70
     0
  0
ENDTAB
  0
TABLE
  2
DIMSTYLE
  5
A
330
0
100
AcDbSymbolTable
 70
     2
100
AcDbDimStyleTable
 71
     1
340
2B
  0
DIMSTYLE
105
2B
330
A
100
AcDbSymbolTableRecord
100
AcDbDimStyleTableRecord
  2
ISO-25
 70
     0
 41
2.5
 42
0.625
 43
3.75
 44
1.25
 73
     0
 74
     0
 77
     1
 78
     8
140
2.5
141
2.5
143
0.03937007874016
147
0.625
171
     3
172
     1
271
     2
272
     2
274
     3
278
    44
283
     0
284
     8
340
11
  0
DIMSTYLE
105
32
330
A
100
AcDbSymbolTableRecord
100
AcDbDimStyleTableRecord
  2
STANDARD
 70
     0
340
11
  0
ENDTAB
  0
TABLE
  2
BLOCK_RECORD
  5
1
330
0
100
AcDbSymbolTable
 70
     1
  0
BLOCK_RECORD
  5
23
102
{ACAD_XDICTIONARY
360
66E
102
}
330
1
100
AcDbSymbolTableRecord
100
AcDbBlockTableRecord
  2
*Model_Space
340
26
  0
BLOCK_RECORD
  5
1F
330
1
100
AcDbSymbolTableRecord
100
AcDbBlockTableRecord
  2
*Paper_Space
340
22
  0
BLOCK_RECORD
  5
27
330
1
100
AcDbSymbolTableRecord
100
AcDbBlockTableRecord
  2
*Paper_Space0
340
2A
  0
ENDTAB
  0
ENDSEC
  0
SECTION
  2
BLOCKS
  0
BLOCK
  5
24
330
23
100
AcDbEntity
  8
0
100
AcDbBlockBegin
  2
*Model_Space
 70
     0
 10
0.0
 20
0.0
 30
0.0
  3
*Model_Space
  1

  0
ENDBLK
  5
25
330
23
100
AcDbEntity
  8
0
100
AcDbBlockEnd
  0
BLOCK
  5
20
330
1F
100
AcDbEntity
 67
     1
  8
0
100
AcDbBlockBegin
  2
*Paper_Space
 70
     0
 10
0.0
 20
0.0
 30
0.0
  3
*Paper_Space
  1

  0
ENDBLK
  5
21
330
1F
100
AcDbEntity
 67
     1
  8
0
100
AcDbBlockEnd
  0
BLOCK
  5
28
330
27
100
AcDbEntity
 67
     1
  8
0
100
AcDbBlockBegin
  2
*Paper_Space0
 70
     0
 10
0.0
 20
0.0
 30
0.0
  3
*Paper_Space0
  1

  0
ENDBLK
  5
29
330
27
100
AcDbEntity
 67
     1
  8
0
100
AcDbBlockEnd
  0
ENDSEC
  0
SECTION
  2
ENTITIES
  0
LINE
  5
353
330
23
100
AcDbEntity
  8
sanindusa
100
AcDbLine
 10
254.8823124879837
 20
178.6068651746788
 30
0.0
 11
254.8273208647501
 21
178.6068651746788
 31
0.0
  0
ARC
  5
354
330
23
100
AcDbEntity
  8
sanindusa
100
AcDbCircle
 10
254.8273208647501
 20
178.6118651746789
 30
0.0
 40
0.0050000000000001
100
AcDbArc
 50
178.999999999907
 51
270.0
  0
LINE
  5
357
330
23
100
AcDbEntity
  8
sanindusa
100
AcDbLine
 10
255.4442477753781
 20
178.6068651746788
 30
0.0
 11
254.8823124879837
 21
178.6068651746788
 31
0.0
  0
LINE
  5
35A
330
23
100
AcDbEntity
  8
sanindusa
100
AcDbLine
 10
255.4992393986117
 20
178.6068651746788
 30
0.0
 11
255.4442477753781
 21
178.6068651746788
 31
0.0
  0
ARC
  5
35C
330
23
100
AcDbEntity
  8
sanindusa
100
AcDbCircle
 10
255.4992393986117
 20
178.6118651746789
 30
0.0
 40
0.005
100
AcDbArc
 50
270.0
 51
1.000000000093006
  0
LINE
  5
360
330
23
100
AcDbEntity
  8
sanindusa
100
AcDbLine
 10
254.8223216262742
 20
178.611952436711
 30
0.0
 11
254.8231943795207
 21
178.661952436711
 31
0.0
  0
LINE
  5
363
330
23
100
AcDbEntity
  8
sanindusa
100
AcDbLine
 10
255.5033658838411
 20
178.661952436711
 30
0.0
 11
255.5042386370875
 21
178.611952436711
 31
0.0
  0
LINE
  5
364
330
23
100
AcDbEntity
  8
sanindusa
100
AcDbLine
 10
255.4433750221317
 20
178.6668651746788
 30
0.0
 11
255.4983666453653
 21
178.6668651746788
 31
0.0
  0
ARC
  5
365
330
23
100
AcDbEntity
  8
sanindusa
100
AcDbCircle
 10
255.4983666453653
 20
178.6618651746788
 30
0.0
 40
0.005
100
AcDbArc
 50
1.000000000093006
 51
90.0
  0
LINE
  5
367
330
23
100
AcDbEntity
  8
sanindusa
100
AcDbLine
 10
254.8281936179964
 20
178.6668651746788
 30
0.0
 11
254.8831852412301
 21
178.6668651746788
 31
0.0
  0
ARC
  5
369
330
23
100
AcDbEntity
  8
sanindusa
100
AcDbCircle
 10
254.8281936179964
 20
178.6618651746788
 30
0.0
 40
0.005
100
AcDbArc
 50
90.0
 51
178.999999999907
  0
LINE
  5
36A
330
23
100
AcDbEntity
  8
sanindusa
100
AcDbLine
 10
254.8831852412301
 20
178.6668651746788
 30
0.0
 11
255.4433750221317
 21
178.6668651746788
 31
0.0
  0
LINE
  5
36C
330
23
100
AcDbEntity
  8
sanindusa
100
AcDbLine
 10
254.8933646027084
 20
178.5737938875655
 30
0.0
 11
254.8779432082624
 21
178.6068651746788
 31
0.0
  0
LINE
  5
36E
330
23
100
AcDbEntity
  8
sanindusa
100
AcDbLine
 10
255.4486170550994
 20
178.6068651746788
 30
0.0
 11
255.4331956606533
 21
178.5737938875655
 31
0.0
  0
ARC
  5
372
330
23
100
AcDbEntity
  8
sanindusa
100
AcDbCircle
 10
255.056500004375
 20
178.6498651746789
 30
0.0
 40
0.1800000000000217
100
AcDbArc
 50
205.0000000006317
 51
242.1636159367079
  0
ARC
  5
374
330
23
100
AcDbEntity
  8
sanindusa
100
AcDbCircle
 10
255.2700602589867
 20
178.6498651746789
 30
0.0
 40
0.1800000000000373
100
AcDbArc
 50
297.8363840632921
 51
334.9999999993682
  0
ARC
  5
376
330
23
100
AcDbEntity
  8
sanindusa
100
AcDbCircle
 10
255.2700602589866
 20
178.6498651746793
 30
0.0
 40
0.180000000000426
100
AcDbArc
 50
270.0
 51
297.8363840632921
  0
ARC
  5
379
330
23
100
AcDbEntity
  8
sanindusa
100
AcDbCircle
 10
255.0565000043751
 20
178.6498651746794
 30
0.0
 40
0.1800000000005363
100
AcDbArc
 50
242.1636159367079
 51
270.0
  0
LINE
  5
37A
330
23
100
AcDbEntity
  8
sanindusa
100
AcDbLine
 10
255.2700602589867
 20
178.4698651746788
 30
0.0
 11
255.2119773496717
 21
178.4698651746788
 31
0.0
  0
ARC
  5
37B
330
23
100
AcDbEntity
  8
sanindusa
100
AcDbCircle
 10
255.1632801316809
 20
175.5210013584312
 30
0.0
 40
2.949265879132422
100
AcDbArc
 50
89.0539096923643
 51
90.94609030763569
  0
LINE
  5
37C
330
23
100
AcDbEntity
  8
sanindusa
100
AcDbLine
 10
255.1145829136901
 20
178.4698651746788
 30
0.0
 11
255.056500004375
 21
178.4698651746788
 31
0.0
  0
LINE
  5
394
330
23
100
AcDbEntity
  8
sanindusa
100
AcDbLine
 10
255.503096442045
 20
178.677388746872
 30
0.0
 11
255.5033658838411
 21
178.661952436711
 31
0.0
  0
LINE
  5
396
330
23
100
AcDbEntity
  8
sanindusa
100
AcDbLine
 10
254.8231943795207
 20
178.661952436711
 30
0.0
 11
254.8234638213168
 21
178.677388746872
 31
0.0
  0
ARC
  5
397
330
23
100
AcDbEntity
  8
sanindusa
100
AcDbCircle
 10
254.8534592521715
 20
178.6768651746789
 30
0.0
 40
0.0299999999999923
100
AcDbArc
 50
90.0
 51
178.999999999907
  0
ARC
  5
399
330
23
100
AcDbEntity
  8
sanindusa
100
AcDbCircle
 10
255.4731010111903
 20
178.6768651746789
 30
0.0
 40
0.029999999999996
100
AcDbArc
 50
1.000000000093006
 51
90.0
  0
LINE
  5
39B
330
23
100
AcDbEntity
  8
sanindusa
100
AcDbLine
 10
254.8534592521715
 20
178.7068651746789
 30
0.0
 11
255.4731010111903
 21
178.7068651746789
 31
0.0
  0
LINE
  5
39E
330
23
100
AcDbEntity
  8
sanindusa
100
AcDbLine
 10
255.040202552161
 20
177.8492571474177
 30
0.0
 11
255.2863591301679
 21
177.8492571474177
 31
0.0
  0
LINE
  5
3A3
330
23
100
AcDbEntity
  8
sanindusa
100
AcDbLine
 10
255.0356288402761
 20
177.8038651746788
 30
0.0
 11
255.2909314230856
 21
177.8038651746788
 31
0.0
  0
LINE
  5
3A5
330
23
100
AcDbEntity
  8
sanindusa
100
AcDbLine
 10
255.2605090048259
 20
177.8514733320738
 30
0.0
 11
255.0660619783317
 21
177.8514733320738
 31
0.0
  0
LWPOLYLINE
  5
3AB
330
23
100
AcDbEntity
  8
sanindusa
100
AcDbPolyline
 90
       56
 70
   128
 43
0.0
 10
255.2736096357778
 20
178.4232754767171
 10
255.2733250546487
 20
178.4232754767171
 10
255.2726896144781
 20
178.4232754767171
 10
255.2717053412563
 20
178.4232754767171
 10
255.2703753731667
 20
178.4232754767171
 10
255.2687039505805
 20
178.4232754767171
 10
255.2666964025371
 20
178.4232754767171
 10
255.2643591297533
 20
178.4232754767171
 10
255.2616995842157
 20
178.4232754767171
 10
255.2587262454212
 20
178.4232754767171
 10
255.255448593342
 20
178.4232754767171
 10
255.2518770782
 20
178.4232754767171
 10
255.2480230871482
 20
178.4232754767171
 10
255.243898907965
 20
178.4232754767171
 10
255.2395176898761
 20
178.4232754767171
 10
255.2348934016312
 20
178.4232754767171
 10
255.2300407869668
 20
178.4232754767171
 10
255.2249753175983
 20
178.4232754767171
 10
255.2197131438911
 20
178.4232754767171
 10
255.2142710433683
 20
178.4232754767171
 10
255.2086663672181
 20
178.4232754767171
 10
255.2029169849726
 20
178.4232754767171
 10
255.1970412275345
 20
178.4232754767171
 10
255.1910578287313
 20
178.4232754767171
 10
255.1849858655863
 20
178.4232754767171
 10
255.178844697495
 20
178.4232754767171
 10
255.1726539045006
 20
178.4232754767171
 10
255.1664332248666
 20
178.4232754767171
 10
255.160202492145
 20
178.4232754767171
 10
255.1539815719403
 20
178.4232754767171
 10
255.1477902985713
 20
178.4232754767171
 10
255.1416484118332
 20
178.4232754767171
 10
255.1355754940606
 20
178.4232754767171
 10
255.1295909076924
 20
178.4232754767171
 10
255.1237137335384
 20
178.4232754767171
 10
255.1179627099432
 20
178.4232754767171
 10
255.1123561730424
 20
178.4232754767171
 10
255.1069119983008
 20
178.4232754767171
 10
255.1016475435201
 20
178.4232754767171
 10
255.096579593496
 20
178.4232754767171
 10
255.0917243065032
 20
178.4232754767171
 10
255.0870971627772
 20
178.4232754767171
 10
255.0827129151588
 20
178.4232754767171
 10
255.0785855420566
 20
178.4232754767171
 10
255.07472820288
 20
178.4232754767171
 10
255.071153196082
 20
178.4232754767171
 10
255.0678719199481
 20
178.4232754767171
 10
255.0648948362551
 20
178.4232754767171
 10
255.0622314369149
 20
178.4232754767171
 10
255.0598902137117
 20
178.4232754767171
 10
255.0578786312274
 20
178.4232754767171
 10
255.0562031030418
 20
178.4232754767171
 10
255.0548689712842
 20
178.4232754767171
 10
255.0538804896011
 20
178.4232754767171
 10
255.0532408095939
 20
178.4232754767171
 10
255.0529519790002
 20
178.4232754755947
  0
LINE
  5
3B3
330
23
100
AcDbEntity
  8
sanindusa
100
AcDbLine
 10
255.0663056498087
 20
178.4214547978247
 30
0.0
 11
255.2602604889223
 21
178.4214547978247
 31
0.0
  0
LINE
  5
3C7
330
23
100
AcDbEntity
  8
sanindusa
100
AcDbLine
 10
255.0383852204194
 20
177.8492571456182
 30
0.0
 11
255.0402011380802
 21
177.8492571456182
 31
0.0
  0
LWPOLYLINE
  5
3C9
330
23
100
AcDbEntity
  8
sanindusa
100
AcDbPolyline
 90
        9
 70
   128
 43
0.0
 10
255.0383852204194
 20
177.8492571456182
 10
255.0374730867686
 20
177.8490927076341
 10
255.0366069787701
 20
177.848762693212
 10
255.0358166656344
 20
177.8482784453586
 10
255.0351293114085
 20
177.8476566082759
 10
255.034568541313
 20
177.8469185552787
 10
255.0341536297146
 20
177.8460896541679
 10
255.0338988376418
 20
177.845198395307
 10
255.0338129226153
 20
177.8442754123731
  0
ARC
  5
3CA
330
23
100
AcDbEntity
  8
sanindusa
100
AcDbCircle
 10
255.3713313871855
 20
174.1764737840554
 30
0.0
 40
3.687843647843174
100
AcDbArc
 50
94.79000886866172
 51
95.17983470437656
  0
LINE
  5
3CB
330
23
100
AcDbEntity
  8
sanindusa
100
AcDbLine
 10
255.0637991776785
 20
177.8514732037394
 30
0.0
 11
255.0633814127984
 21
177.8514374007749
 31
0.0
  0
LINE
  5
3CC
330
23
100
AcDbEntity
  8
sanindusa
100
AcDbLine
 10
255.0660512118025
 20
177.8514732037394
 30
0.0
 11
255.0637991776785
 21
177.8514732037394
 31
0.0
  0
LINE
  5
3CD
330
23
100
AcDbEntity
  8
sanindusa
100
AcDbLine
 10
255.0338129226153
 20
177.8442754123731
 30
0.0
 11
255.0338129226153
 21
177.8038651746788
 31
0.0
  0
LINE
  5
3CE
330
23
100
AcDbEntity
  8
sanindusa
100
AcDbLine
 10
255.0338129226153
 20
177.8038651746788
 30
0.0
 11
255.0356288402761
 21
177.8038651746788
 31
0.0
  0
LINE
  5
3D2
330
23
100
AcDbEntity
  8
sanindusa
100
AcDbLine
 10
255.2927473407464
 20
177.8038651746788
 30
0.0
 11
255.2927473407464
 21
177.8442754123731
 31
0.0
  0
LINE
  5
3D3
330
23
100
AcDbEntity
  8
sanindusa
100
AcDbLine
 10
255.2909314230856
 20
177.8038651746788
 30
0.0
 11
255.2927473407464
 21
177.8038651746788
 31
0.0
  0
LINE
  5
3D4
330
23
100
AcDbEntity
  8
sanindusa
100
AcDbLine
 10
255.2863605231596
 20
177.8492571452072
 30
0.0
 11
255.2881750429423
 21
177.8492571456182
 31
0.0
  0
LWPOLYLINE
  5
3D5
330
23
100
AcDbEntity
  8
sanindusa
100
AcDbPolyline
 90
        9
 70
   128
 43
0.0
 10
255.2927473407464
 20
177.8442754123731
 10
255.29266142572
 20
177.845198395307
 10
255.2924066336471
 20
177.8460896541679
 10
255.2919917220488
 20
177.8469185552787
 10
255.2914309519533
 20
177.8476566082759
 10
255.2907435977273
 20
177.8482784453586
 10
255.2899532845917
 20
177.848762693212
 10
255.2890871765931
 20
177.8490927076341
 10
255.2881750429423
 20
177.8492571456182
  0
LINE
  5
3D8
330
23
100
AcDbEntity
  8
sanindusa
100
AcDbLine
 10
255.2627610856832
 20
177.8514732037394
 30
0.0
 11
255.2605090048259
 21
177.8514733320738
 31
0.0
  0
ARC
  5
3DA
330
23
100
AcDbEntity
  8
sanindusa
100
AcDbCircle
 10
254.9552288761764
 20
174.1764737840572
 30
0.0
 40
3.687843647841359
100
AcDbArc
 50
84.82016529562345
 51
85.20999113133829
  0
LINE
  5
3DF
330
23
100
AcDbEntity
  8
sanindusa
100
AcDbLine
 10
255.0529506356573
 20
178.4232754791366
 30
0.0
 11
255.0509788409437
 21
178.4232754791366
 31
0.0
  0
LWPOLYLINE
  5
3E0
330
23
100
AcDbEntity
  8
sanindusa
100
AcDbPolyline
 90
        9
 70
   128
 43
0.0
 10
255.0509788409437
 20
178.4232754791366
 10
255.0501057604824
 20
178.4234755494008
 10
255.0492823901194
 20
178.4238282313279
 10
255.0485351610265
 20
178.4243222034069
 10
255.0478880601497
 20
178.4249416085443
 10
255.0473618601999
 20
178.4256665630956
 10
255.0469734528237
 20
178.4264737951542
 10
255.0467353063617
 20
178.427337391607
 10
255.0466550655996
 20
178.4282296299768
  0
LINE
  5
3E1
330
23
100
AcDbEntity
  8
sanindusa
100
AcDbLine
 10
255.064052554346
 20
178.4214548702211
 30
0.0
 11
255.0662997342625
 21
178.4214548702211
 31
0.0
  0
ARC
  5
3E2
330
23
100
AcDbEntity
  8
sanindusa
100
AcDbCircle
 10
255.2048062110273
 20
179.4800519422195
 30
0.0
 40
1.067913551141999
100
AcDbArc
 50
261.7180316994536
 51
262.42623670409
  0
LINE
  5
3E3
330
23
100
AcDbEntity
  8
sanindusa
100
AcDbLine
 10
255.2755814224181
 20
178.4232754791366
 30
0.0
 11
255.2736109529797
 21
178.4232754802158
 31
0.0
  0
LWPOLYLINE
  5
3E4
330
23
100
AcDbEntity
  8
sanindusa
100
AcDbPolyline
 90
        9
 70
   128
 43
0.0
 10
255.2799051977622
 20
178.4282296299768
 10
255.2798249570001
 20
178.427337391607
 10
255.2795868105381
 20
178.4264737951542
 10
255.2791984031618
 20
178.4256665630956
 10
255.278672203212
 20
178.4249416085443
 10
255.2780251023353
 20
178.4243222034069
 10
255.2772778732423
 20
178.4238282313279
 10
255.2764545028794
 20
178.4234755494008
 10
255.2755814224181
 20
178.4232754791366
  0
LINE
  5
3E5
330
23
100
AcDbEntity
  8
sanindusa
100
AcDbLine
 10
255.2602604889223
 20
178.4214547978247
 30
0.0
 11
255.2625077090158
 21
178.4214548702211
 31
0.0
  0
ARC
  5
3E6
330
23
100
AcDbEntity
  8
sanindusa
100
AcDbCircle
 10
255.1217540523318
 20
179.4800519422384
 30
0.0
 40
1.067913551161107
100
AcDbArc
 50
277.57376329591
 51
278.2819683005464
  0
ARC
  5
3E7
330
23
100
AcDbEntity
  8
sanindusa
100
AcDbCircle
 10
255.0633733602407
 20
177.8564559434922
 30
0.0
 40
0.0050009015121247
100
AcDbArc
 50
274.884543271181
 51
359.9884680988495
  0
ARC
  5
3EC
330
23
100
AcDbEntity
  8
sanindusa
100
AcDbCircle
 10
255.0633744336881
 20
178.4165002096549
 30
0.0
 40
0.0049998279894032
100
AcDbArc
 50
0.0
 51
64.68194484674862
  0
LWPOLYLINE
  5
3ED
330
23
100
AcDbEntity
  8
sanindusa
100
AcDbPolyline
 90
        3
 70
   128
 43
0.0
 10
255.064052554346
 20
178.4214548702211
 10
255.0651207132561
 20
178.4211853629637
 10
255.0655125738207
 20
178.4210197933411
  0
LWPOLYLINE
  5
3F1
330
23
100
AcDbEntity
  8
sanindusa
100
AcDbPolyline
 90
        3
 70
   128
 43
0.0
 10
255.261047689541
 20
178.4210197933411
 10
255.262106257924
 20
178.4213828906205
 10
255.2625077090158
 20
178.4214548702211
  0
ARC
  5
3F2
330
23
100
AcDbEntity
  8
sanindusa
100
AcDbCircle
 10
255.2631858296734
 20
178.416500209655
 30
0.0
 40
0.0049998279892223
100
AcDbArc
 50
115.3180551510829
 51
180.0
  0
LINE
  5
3F3
330
23
100
AcDbEntity
  8
sanindusa
100
AcDbLine
 10
255.2581860017103
 20
177.8564549369846
 30
0.0
 11
255.2581860017103
 21
178.4165007193809
 31
0.0
  0
LINE
  5
3F5
330
23
100
AcDbEntity
  8
sanindusa
100
AcDbLine
 10
255.0683742616515
 20
178.4165007193809
 30
0.0
 11
255.0683742616515
 21
177.8564549369846
 31
0.0
  0
ARC
  5
3F6
330
23
100
AcDbEntity
  8
sanindusa
100
AcDbCircle
 10
255.2631869031211
 20
177.8564559434921
 30
0.0
 40
0.0050009015120958
100
AcDbArc
 50
180.0115317692465
 51
265.115456728819
  0
LINE
  5
400
330
23
100
AcDbEntity
  8
sanindusa
100
AcDbLine
 10
255.2799051977622
 20
178.4282296299768
 30
0.0
 11
255.2799051977622
 21
178.4701496643281
 31
0.0
  0
LINE
  5
401
330
23
100
AcDbEntity
  8
sanindusa
100
AcDbLine
 10
255.0466550655996
 20
178.4701496643281
 30
0.0
 11
255.0466550655996
 21
178.4282296299768
 31
0.0
  0
LINE
  5
410
330
23
100
AcDbEntity
  8
sanindusa
100
AcDbLine
 10
254.0543570341512
 20
178.5630335112808
 30
0.0
 11
254.67399879317
 21
178.5630335112808
 31
0.0
  0
LINE
  5
414
330
23
100
AcDbEntity
  8
sanindusa
100
AcDbLine
 10
254.67399879317
 20
178.5630335112808
 30
0.0
 11
254.7019945286344
 21
178.5630335112808
 31
0.0
  0
LWPOLYLINE
  5
415
330
23
100
AcDbEntity
  8
sanindusa
100
AcDbPolyline
 90
        9
 70
   128
 43
0.0
 10
254.7039942240246
 20
178.5610335112808
 10
254.7039558004385
 20
178.5614236919248
 10
254.7038420062767
 20
178.5617988781455
 10
254.7036572145853
 20
178.5621446517468
 10
254.7034085268051
 20
178.5624477248432
 10
254.7031054998683
 20
178.5626964505054
 10
254.70275977893
 20
178.5628812703458
 10
254.702384649852
 20
178.5629950818416
 10
254.7019945286344
 20
178.5630335112808
  0
LINE
  5
41B
330
23
100
AcDbEntity
  8
sanindusa
100
AcDbLine
 10
254.7039942240246
 20
178.5610335112808
 30
0.0
 11
254.7039942240246
 21
178.5363410093908
 31
0.0
  0
LINE
  5
41D
330
23
100
AcDbEntity
  8
sanindusa
100
AcDbLine
 10
254.67399879317
 20
178.5335090802957
 30
0.0
 11
254.0543570341512
 21
178.5335090802957
 31
0.0
  0
LWPOLYLINE
  5
420
330
23
100
AcDbEntity
  8
sanindusa
100
AcDbPolyline
 90
       14
 70
   128
 43
0.0
 10
254.6989949855489
 20
178.5313600359004
 10
254.6987647480495
 20
178.5316204485441
 10
254.6981813384852
 20
178.5318766032529
 10
254.6972530765012
 20
178.5321248471619
 10
254.6959931994713
 20
178.5323616402172
 10
254.6944196737277
 20
178.5325836056587
 10
254.6925549383542
 20
178.5327875781734
 10
254.6904255851961
 20
178.5329706490348
 10
254.6880619796504
 20
178.5331302075817
 10
254.6854978276435
 20
178.5332639784478
 10
254.6827696949716
 20
178.5333700540089
 10
254.6799164858585
 20
178.5334469215867
 10
254.676978888166
 20
178.5334934850198
 10
254.67399879317
 20
178.5335090802957
  0
LINE
  5
421
330
23
100
AcDbEntity
  8
sanindusa
100
AcDbLine
 10
254.0263612986868
 20
178.5630335112808
 30
0.0
 11
254.0543570341512
 21
178.5630335112808
 31
0.0
  0
LWPOLYLINE
  5
423
330
23
100
AcDbEntity
  8
sanindusa
100
AcDbPolyline
 90
        9
 70
   128
 43
0.0
 10
254.0263612986868
 20
178.5630335112808
 10
254.0259711774691
 20
178.5629950818416
 10
254.0255960483912
 20
178.5628812703458
 10
254.0252503274528
 20
178.5626964505054
 10
254.024947300516
 20
178.5624477248432
 10
254.0246986127359
 20
178.5621446517468
 10
254.0245138210444
 20
178.5617988781455
 10
254.0244000268827
 20
178.5614236919248
 10
254.0243616032965
 20
178.5610335112808
  0
LINE
  5
425
330
23
100
AcDbEntity
  8
sanindusa
100
AcDbLine
 10
254.0243616032965
 20
178.5363410093908
 30
0.0
 11
254.0243616032965
 21
178.5610335112808
 31
0.0
  0
LWPOLYLINE
  5
426
330
23
100
AcDbEntity
  8
sanindusa
100
AcDbPolyline
 90
       14
 70
   128
 43
0.0
 10
254.0543570341512
 20
178.5335090802957
 10
254.0513769391551
 20
178.5334934850198
 10
254.0484393414627
 20
178.5334469215867
 10
254.0455861323495
 20
178.5333700540089
 10
254.0428579996776
 20
178.5332639784478
 10
254.0402938476708
 20
178.5331302075817
 10
254.0379302421251
 20
178.5329706490348
 10
254.035800888967
 20
178.5327875781734
 10
254.0339361535934
 20
178.5325836056587
 10
254.0323626278498
 20
178.5323616402172
 10
254.0311027508199
 20
178.5321248471619
 10
254.0301744888359
 20
178.5318766032529
 10
254.0295910792716
 20
178.5316204485441
 10
254.0293608417723
 20
178.5313600359004
  0
LINE
  5
428
330
23
100
AcDbEntity
  8
sanindusa
100
AcDbLine
 10
254.1548192722081
 20
178.5298749721011
 30
0.0
 11
254.573536555113
 21
178.5298749721011
 31
0.0
  0
ARC
  5
42A
330
23
100
AcDbEntity
  8
sanindusa
100
AcDbCircle
 10
254.128284023648
 20
178.1006607017441
 30
0.0
 40
0.4301558432347947
100
AcDbArc
 50
86.48979544229927
 51
89.64244460971539
  0
LINE
  5
42B
330
23
100
AcDbEntity
  8
sanindusa
100
AcDbLine
 10
254.0292507375339
 20
178.5308081689954
 30
0.0
 11
254.1309684018553
 21
178.5308081689954
 31
0.0
  0
LINE
  5
42C
330
23
100
AcDbEntity
  8
sanindusa
100
AcDbLine
 10
254.0293608417723
 20
178.5313600359004
 30
0.0
 11
254.0292507375339
 21
178.5308081689954
 31
0.0
  0
LINE
  5
42D
330
23
100
AcDbEntity
  8
sanindusa
100
AcDbLine
 10
254.6991050897872
 20
178.5308081689954
 30
0.0
 11
254.6989949855489
 21
178.5313600359004
 31
0.0
  0
LINE
  5
42E
330
23
100
AcDbEntity
  8
sanindusa
100
AcDbLine
 10
254.5973874254658
 20
178.5308081689954
 30
0.0
 11
254.6991050897872
 21
178.5308081689954
 31
0.0
  0
ARC
  5
42F
330
23
100
AcDbEntity
  8
sanindusa
100
AcDbCircle
 10
254.6000887806228
 20
178.1001579103797
 30
0.0
 40
0.4306587309755629
100
AcDbArc
 50
90.35939655487599
 51
93.50836339162237
  0
ARC
  5
432
330
23
100
AcDbEntity
  8
sanindusa
100
AcDbCircle
 10
254.0289044248681
 20
178.5356599767047
 30
0.0
 40
0.0048586076274978
100
AcDbArc
 50
187.9200059802945
 51
273.1457412323313
  0
LINE
  5
433
330
23
100
AcDbEntity
  8
sanindusa
100
AcDbLine
 10
254.0240921615004
 20
178.5349905072451
 30
0.0
 11
254.0243616032965
 21
178.5363410093908
 31
0.0
  0
LINE
  5
434
330
23
100
AcDbEntity
  8
sanindusa
100
AcDbLine
 10
254.7039942240246
 20
178.5363410093908
 30
0.0
 11
254.7042636658208
 21
178.5349905072451
 31
0.0
  0
ARC
  5
435
330
23
100
AcDbEntity
  8
sanindusa
100
AcDbCircle
 10
254.699451402453
 20
178.5356599767047
 30
0.0
 40
0.0048586076274943
100
AcDbArc
 50
266.8542587676687
 51
352.0799940197054
  0
LWPOLYLINE
  5
438
330
23
100
AcDbEntity
  8
sanindusa
100
AcDbPolyline
 90
        9
 70
   128
 43
0.0
 10
254.7051364190672
 20
178.5610335112808
 10
254.705097995481
 20
178.5614236919248
 10
254.7049842013192
 20
178.5617988781455
 10
254.7047994096278
 20
178.5621446517468
 10
254.7045507218477
 20
178.5624477248432
 10
254.7042476949108
 20
178.5626964505054
 10
254.7039019739725
 20
178.5628812703458
 10
254.7035268448945
 20
178.5629950818416
 10
254.7031367236769
 20
178.5630335112808
  0
LINE
  5
439
330
23
100
AcDbEntity
  8
sanindusa
100
AcDbLine
 10
254.7019945286344
 20
178.5630335112808
 30
0.0
 11
254.7031367236769
 21
178.5630335112808
 31
0.0
  0
LINE
  5
43B
330
23
100
AcDbEntity
  8
sanindusa
100
AcDbLine
 10
254.7042636658208
 20
178.5349905072451
 30
0.0
 11
254.7042636658208
 21
178.10293862083
 31
0.0
  0
LINE
  5
43C
330
23
100
AcDbEntity
  8
sanindusa
100
AcDbLine
 10
254.7051364190672
 20
178.1020658675835
 30
0.0
 11
254.7051364190672
 21
178.5610335112808
 31
0.0
  0
LWPOLYLINE
  5
43E
330
23
100
AcDbEntity
  8
sanindusa
100
AcDbPolyline
 90
        9
 70
   128
 43
0.0
 10
254.0252191036443
 20
178.5630335112808
 10
254.0248289824266
 20
178.5629950818416
 10
254.0244538533486
 20
178.5628812703458
 10
254.0241081324103
 20
178.5626964505054
 10
254.0238051054735
 20
178.5624477248432
 10
254.0235564176934
 20
178.5621446517468
 10
254.0233716260019
 20
178.5617988781455
 10
254.0232578318402
 20
178.5614236919248
 10
254.023219408254
 20
178.5610335112808
  0
LINE
  5
43F
330
23
100
AcDbEntity
  8
sanindusa
100
AcDbLine
 10
254.0252191036443
 20
178.5630335112808
 30
0.0
 11
254.0263612986868
 21
178.5630335112808
 31
0.0
  0
LINE
  5
440
330
23
100
AcDbEntity
  8
sanindusa
100
AcDbLine
 10
254.0240921615004
 20
178.10293862083
 30
0.0
 11
254.0240921615004
 21
178.5349905072451
 31
0.0
  0
LINE
  5
442
330
23
100
AcDbEntity
  8
sanindusa
100
AcDbLine
 10
254.023219408254
 20
178.5610335112808
 30
0.0
 11
254.023219408254
 21
178.1020658675835
 31
0.0
  0
ARC
  5
453
330
23
100
AcDbEntity
  8
sanindusa
100
AcDbCircle
 10
254.1544206499729
 20
178.5002819708978
 30
0.0
 40
0.0297282371634705
100
AcDbArc
 50
89.61409306979636
 51
180.0981181027481
  0
ARC
  5
455
330
23
100
AcDbEntity
  8
sanindusa
100
AcDbCircle
 10
254.5739317920514
 20
178.5002785685542
 30
0.0
 40
0.0297316168242026
100
AcDbArc
 50
359.9084497140125
 51
90.37933911277592
  0
LINE
  5
461
330
23
100
AcDbEntity
  8
sanindusa
100
AcDbLine
 10
254.1246924564
 20
178.500231061794
 30
0.0
 11
254.1246924564
 21
178.1436424373491
 31
0.0
  0
ARC
  5
463
330
23
100
AcDbEntity
  8
sanindusa
100
AcDbCircle
 10
254.154394073818
 20
178.1433080359083
 30
0.0
 40
0.0297034087467428
100
AcDbArc
 50
179.3683422859714
 51
270.5205960885216
  0
LINE
  5
465
330
23
100
AcDbEntity
  8
sanindusa
100
AcDbLine
 10
254.1546743552446
 20
178.1136058532727
 30
0.0
 11
254.5736711806498
 21
178.1136058532727
 31
0.0
  0
LINE
  5
468
330
23
100
AcDbEntity
  8
sanindusa
100
AcDbLine
 10
254.6036633709211
 20
178.1436424215945
 30
0.0
 11
254.6036633709211
 21
178.500231061794
 31
0.0
  0
ARC
  5
469
330
23
100
AcDbEntity
  8
sanindusa
100
AcDbCircle
 10
254.573951795715
 20
178.1433179744131
 30
0.0
 40
0.0297132580637295
100
AcDbArc
 50
269.4987787506928
 51
0.6122828748261039
  0
ARC
  5
46C
330
23
100
AcDbEntity
  8
sanindusa
100
AcDbCircle
 10
254.6442744349103
 20
178.1029369900311
 30
0.0
 40
0.0599892309326862
100
AcDbArc
 50
269.9984424226288
 51
0.0
  0
ARC
  5
46F
330
23
100
AcDbEntity
  8
sanindusa
100
AcDbCircle
 10
254.0840813924109
 20
178.1029369900311
 30
0.0
 40
0.0599892309326828
100
AcDbArc
 50
180.0
 51
270.0015575773713
  0
LINE
  5
470
330
23
100
AcDbEntity
  8
sanindusa
100
AcDbLine
 10
254.6442728041114
 20
178.0429477591206
 30
0.0
 11
254.0840830232097
 21
178.0429477591206
 31
0.0
  0
LWPOLYLINE
  5
472
330
23
100
AcDbEntity
  8
sanindusa
100
AcDbPolyline
 90
        8
 70
   128
 43
0.0
 10
254.1644791202696
 20
178.1186200323078
 10
254.163250777766
 20
178.1179782777927
 10
254.1616669613879
 20
178.1172159980335
 10
254.1601588614365
 20
178.1165141470823
 10
254.1586261741915
 20
178.1158071516414
 10
254.1570231804003
 20
178.1150249887567
 10
254.1557058554225
 20
178.1142911839509
 10
254.1546741992582
 20
178.1136057372241
  0
ARC
  5
473
330
23
100
AcDbEntity
  8
sanindusa
100
AcDbCircle
 10
254.145276549409
 20
178.1317914109555
 30
0.0
 40
0.023751889549445
100
AcDbArc
 50
123.5848182704918
 51
150.0696532744674
  0
LWPOLYLINE
  5
475
330
23
100
AcDbEntity
  8
sanindusa
100
AcDbPolyline
 90
       17
 70
   128
 43
0.0
 10
254.5962181303617
 20
178.1515783463729
 10
254.5967323717108
 20
178.1512926228223
 10
254.597276609048
 20
178.1509388988939
 10
254.5978471233695
 20
178.1505172004956
 10
254.5984398886805
 20
178.1500275540456
 10
254.5990505703712
 20
178.149469986108
 10
254.5996745236603
 20
178.1488445229998
 10
254.6003067921474
 20
178.1481511903693
 10
254.6009510525719
 20
178.1473788761628
 10
254.601507826506
 20
178.1466655387054
 10
254.6019519451919
 20
178.146070144334
 10
254.60229527764
 20
178.1455926210116
 10
254.6025474167166
 20
178.1452329143486
 10
254.6027197445476
 20
178.1449851581041
 10
254.6030610491204
 20
178.144497280417
 10
254.6033750701699
 20
178.1440496730899
 10
254.6036634396197
 20
178.1436423252374
  0
ARC
  5
476
330
23
100
AcDbEntity
  8
sanindusa
100
AcDbCircle
 10
254.516935677011
 20
178.0148553748886
 30
0.0
 40
0.1138883858488402
100
AcDbArc
 50
60.12096804638382
 51
65.65896712913605
  0
ARC
  5
477
330
23
100
AcDbEntity
  8
sanindusa
100
AcDbCircle
 10
254.1547871869771
 20
178.5000775215191
 30
0.0
 40
0.0297974678563223
100
AcDbArc
 50
89.93830520500548
 51
180.0693927414173
  0
ARC
  5
479
330
23
100
AcDbEntity
  8
sanindusa
100
AcDbCircle
 10
254.5735640359243
 20
178.500072917718
 30
0.0
 40
0.0298020670532726
100
AcDbArc
 50
359.9394689829401
 51
90.05283307190849
  0
LWPOLYLINE
  5
47C
330
23
100
AcDbEntity
  8
sanindusa
100
AcDbPolyline
 90
        4
 70
   128
 43
0.0
 10
254.1251917265326
 20
178.4132469484391
 10
254.1251681337421
 20
178.4232453566388
 10
254.1250746084857
 20
178.4632389914292
 10
254.1249897409748
 20
178.5000414328666
  0
LWPOLYLINE
  5
47D
330
23
100
AcDbEntity
  8
sanindusa
100
AcDbPolyline
 90
        6
 70
   128
 43
0.0
 10
254.1266283473253
 20
178.4034275642333
 10
254.1261060642682
 20
178.4041153388531
 10
254.1256734425139
 20
178.4058762103972
 10
254.1253695096123
 20
178.4084961493715
 10
254.1252128543622
 20
178.4116548581131
 10
254.1251917265326
 20
178.4132469484391
  0
LWPOLYLINE
  5
47E
330
23
100
AcDbEntity
  8
sanindusa
100
AcDbPolyline
 90
        8
 70
   128
 43
0.0
 10
254.1666115810367
 20
178.3993346486271
 10
254.162018849114
 20
178.3996406151
 10
254.1535397804591
 20
178.4002647217351
 10
254.1460066758255
 20
178.4009051306999
 10
254.1398251074596
 20
178.4015193415705
 10
254.1345361957132
 20
178.4021433604523
 10
254.1301147236007
 20
178.4027820475481
 10
254.1266283473253
 20
178.4034275642333
  0
LWPOLYLINE
  5
47F
330
23
100
AcDbEntity
  8
sanindusa
100
AcDbPolyline
 90
       16
 70
   128
 43
0.0
 10
254.1716250466729
 20
178.2671368148793
 10
254.1716935156263
 20
178.2770207392393
 10
254.1716212349236
 20
178.2873843714702
 10
254.171408489513
 20
178.2982277172308
 10
254.171109278382
 20
178.308062262592
 10
254.1708125680274
 20
178.3158489039458
 10
254.1704494122999
 20
178.32417706243
 10
254.1700205133772
 20
178.3330467517075
 10
254.1696202897441
 20
178.3407331515253
 10
254.1691565129733
 20
178.349281924254
 10
254.1685104493093
 20
178.3609864599337
 10
254.1680836686953
 20
178.3687634216035
 10
254.1677782194673
 20
178.3745054780575
 10
254.1673733883735
 20
178.3825705426278
 10
254.1669845578019
 20
178.3908471254413
 10
254.1666115566266
 20
178.399335223134
  0
LWPOLYLINE
  5
480
330
23
100
AcDbEntity
  8
sanindusa
100
AcDbPolyline
 90
       12
 70
   128
 43
0.0
 10
254.1537119448954
 20
178.1851915039468
 10
254.1555746322266
 20
178.1889287334314
 10
254.1573976599129
 20
178.1930056584149
 10
254.1591741037648
 20
178.1974221902786
 10
254.1608974270104
 20
178.2021782404988
 10
254.1629278163045
 20
178.2084859511073
 10
254.1647983168983
 20
178.2151688878033
 10
254.1664957591335
 20
178.2222268333782
 10
254.1685815160996
 20
178.2329291532238
 10
254.1701473604795
 20
178.2439818882154
 10
254.1711673897903
 20
178.2553845492271
 10
254.171625047194
 20
178.2671368148487
  0
LWPOLYLINE
  5
481
330
23
100
AcDbEntity
  8
sanindusa
100
AcDbPolyline
 90
       15
 70
   128
 43
0.0
 10
254.1321376969257
 20
178.1515783476392
 10
254.133095534959
 20
178.1521728044787
 10
254.134116180701
 20
178.1530211077747
 10
254.1352021326952
 20
178.1541232973864
 10
254.1363559213361
 20
178.1554794156275
 10
254.1375801070173
 20
178.1570895073554
 10
254.1388772781712
 20
178.1589536200602
 10
254.1402500491978
 20
178.1610718039542
 10
254.141701058278
 20
178.1634441120621
 10
254.1433405010353
 20
178.1662531340352
 10
254.1451345379394
 20
178.1694320741542
 10
254.1470932949621
 20
178.1729810978924
 10
254.1493965361364
 20
178.1771879859759
 10
254.1516097189008
 20
178.1812582018253
 10
254.153711947071
 20
178.1851914968175
  0
LWPOLYLINE
  5
482
330
23
100
AcDbEntity
  8
sanindusa
100
AcDbPolyline
 90
       12
 70
   128
 43
0.0
 10
254.5746438802479
 20
178.1851914968057
 10
254.5764383031281
 20
178.1818289384313
 10
254.5783165456645
 20
178.1783654001033
 10
254.580265691792
 20
178.1748010383698
 10
254.5821225990898
 20
178.1714151668192
 10
254.5837497718223
 20
178.1684868628163
 10
254.5852583976695
 20
178.1658298784239
 10
254.5866547690419
 20
178.1634441120526
 10
254.5894784172933
 20
178.1589536722393
 10
254.591999743437
 20
178.1554794850658
 10
254.5942395343451
 20
178.1530211597604
 10
254.5962181303957
 20
178.1515783476324
  0
LWPOLYLINE
  5
483
330
23
100
AcDbEntity
  8
sanindusa
100
AcDbPolyline
 90
       13
 70
   128
 43
0.0
 10
254.5567307801204
 20
178.2671368148483
 10
254.5571884279187
 20
178.2553852131463
 10
254.5582084541518
 20
178.2439827734385
 10
254.5591931104197
 20
178.2365752775428
 10
254.5604133405843
 20
178.2293232412979
 10
254.5618600681812
 20
178.2222268333763
 10
254.5631161361874
 20
178.2168993171917
 10
254.5644715085943
 20
178.211781985957
 10
254.5659208680036
 20
178.2068749289609
 10
254.5674584003064
 20
178.2021782404914
 10
254.5697680372845
 20
178.1959127222337
 10
254.5721685235789
 20
178.190250406591
 10
254.5746438824236
 20
178.185191503935
  0
LWPOLYLINE
  5
484
330
23
100
AcDbEntity
  8
sanindusa
100
AcDbPolyline
 90
        8
 70
   128
 43
0.0
 10
254.5617442702739
 20
178.399335223163
 10
254.5608736340466
 20
178.3803502740182
 10
254.5600835039802
 20
178.3653178180166
 10
254.5588120248925
 20
178.3421612826867
 10
254.557854155779
 20
178.3230349008335
 10
254.5571342672211
 20
178.3047160396633
 10
254.5567114405596
 20
178.285507027764
 10
254.5567307806416
 20
178.2671368148789
  0
LWPOLYLINE
  5
485
330
23
100
AcDbEntity
  8
sanindusa
100
AcDbPolyline
 90
        8
 70
   128
 43
0.0
 10
254.6017274799958
 20
178.4034275642333
 10
254.6000161660668
 20
178.403088211458
 10
254.595817126788
 20
178.4024145131484
 10
254.5905783642895
 20
178.4017475201709
 10
254.5847227202385
 20
178.401129532873
 10
254.5779838101651
 20
178.4005223147487
 10
254.5702964245619
 20
178.3999214690245
 10
254.5617442458613
 20
178.3993346485998
  0
LWPOLYLINE
  5
486
330
23
100
AcDbEntity
  8
sanindusa
100
AcDbPolyline
 90
        6
 70
   128
 43
0.0
 10
254.6031641007886
 20
178.4132469484391
 10
254.603080547905
 20
178.4099696983337
 10
254.602850239032
 20
178.4070817618889
 10
254.6024859908484
 20
178.4048953134638
 10
254.6020111174787
 20
178.4036494038479
 10
254.6017274799958
 20
178.4034275642333
  0
LWPOLYLINE
  5
487
330
23
100
AcDbEntity
  8
sanindusa
100
AcDbPolyline
 90
        4
 70
   128
 43
0.0
 10
254.6033660863463
 20
178.5000414328666
 10
254.6033431429994
 20
178.4900430231561
 10
254.6032505244396
 20
178.4500493862564
 10
254.6031641007886
 20
178.4132469484391
  0
ARC
  5
48E
330
23
100
AcDbEntity
  8
sanindusa
100
AcDbCircle
 10
254.0832086391645
 20
178.1020642367847
 30
0.0
 40
0.0599892309326829
100
AcDbArc
 50
180.0
 51
270.0015575773713
  0
ARC
  5
490
330
23
100
AcDbEntity
  8
sanindusa
100
AcDbCircle
 10
254.6451471881567
 20
178.1020642367847
 30
0.0
 40
0.0599892309326844
100
AcDbArc
 50
269.9984424226288
 51
0.0
  0
LINE
  5
492
330
23
100
AcDbEntity
  8
sanindusa
100
AcDbLine
 10
254.0832102699633
 20
178.0420750058742
 30
0.0
 11
254.6451455573578
 21
178.0420750058742
 31
0.0
  0
LWPOLYLINE
  5
499
330
23
100
AcDbEntity
  8
sanindusa
100
AcDbPolyline
 90
        9
 70
   128
 43
0.0
 10
254.1315653603932
 20
178.4084245183684
 10
254.1306055248751
 20
178.4083238104006
 10
254.1296823172365
 20
178.4080362588427
 10
254.1288309676156
 20
178.4075728368287
 10
254.128083964007
 20
178.4069512288111
 10
254.1274698125013
 20
178.406195155712
 10
254.1270119494758
 20
178.4053334697188
 10
254.1267278472485
 20
178.4043990532682
 10
254.1266283473253
 20
178.4034275642333
  0
LWPOLYLINE
  5
49A
330
23
100
AcDbEntity
  8
sanindusa
100
AcDbPolyline
 90
        9
 70
   128
 43
0.0
 10
254.6017274799958
 20
178.4034275642333
 10
254.6016279800726
 20
178.4043990532682
 10
254.6013438778454
 20
178.4053334697188
 10
254.6008860148198
 20
178.406195155712
 10
254.6002718633141
 20
178.4069512288111
 10
254.5995248597056
 20
178.4075728368287
 10
254.5986735100846
 20
178.4080362588427
 10
254.597750302446
 20
178.4083238104006
 10
254.596790466928
 20
178.4084245183684
  0
LWPOLYLINE
  5
49D
330
23
100
AcDbEntity
  8
sanindusa
100
AcDbPolyline
 90
       45
 70
   128
 43
0.0
 10
254.3641779136606
 20
178.455387650858
 10
254.3666684233304
 20
178.4555657484959
 10
254.3691082334053
 20
178.456096415855
 10
254.3714476763881
 20
178.4569688500783
 10
254.3736391279661
 20
178.458165290921
 10
254.3756379765046
 20
178.4596613822977
 10
254.3774035312118
 20
178.4614266681023
 10
254.3788998504851
 20
178.4634252122066
 10
254.3800964735793
 20
178.4656163300158
 10
254.3809690406988
 20
178.4679554166901
 10
254.3814997888935
 20
178.4703948551702
 10
254.3816779136606
 20
178.4728849855233
 10
254.3814997888935
 20
178.4753751158764
 10
254.3809690406988
 20
178.4778145543564
 10
254.3800964735793
 20
178.4801536410308
 10
254.3788998504851
 20
178.48234475884
 10
254.3774035312118
 20
178.4843433029442
 10
254.3756379765046
 20
178.4861085887489
 10
254.3736391279661
 20
178.4876046801255
 10
254.3714476763881
 20
178.4888011209682
 10
254.3691082334053
 20
178.4896735551916
 10
254.3666684233304
 20
178.4902042225507
 10
254.3641779136606
 20
178.4903823201885
 10
254.3616874039908
 20
178.4902042225507
 10
254.3592475939159
 20
178.4896735551916
 10
254.3569081509331
 20
178.4888011209682
 10
254.3547166993551
 20
178.4876046801255
 10
254.3527178508165
 20
178.4861085887489
 10
254.3509522961094
 20
178.4843433029442
 10
254.349455976836
 20
178.48234475884
 10
254.3482593537419
 20
178.4801536410308
 10
254.3473867866223
 20
178.4778145543564
 10
254.3468560384277
 20
178.4753751158764
 10
254.3466779136605
 20
178.4728849855233
 10
254.3468560384277
 20
178.4703948551702
 10
254.3473867866223
 20
178.4679554166901
 10
254.3482593537419
 20
178.4656163300158
 10
254.349455976836
 20
178.4634252122066
 10
254.3509522961094
 20
178.4614266681023
 10
254.3527178508165
 20
178.4596613822977
 10
254.3547166993551
 20
178.458165290921
 10
254.3569081509331
 20
178.4569688500783
 10
254.3592475939159
 20
178.456096415855
 10
254.3616874039908
 20
178.4555657484959
 10
254.3641779136606
 20
178.455387650858
  0
LINE
  5
4A0
330
23
100
AcDbEntity
  8
sanindusa
100
AcDbLine
 10
254.596790466928
 20
178.4084245183684
 30
0.0
 11
254.1315653603932
 21
178.4084245183684
 31
0.0
  0
ARC
  5
4A6
330
23
100
AcDbEntity
  8
sanindusa
100
AcDbCircle
 10
254.343910130952
 20
178.2549416944615
 30
0.0
 40
0.1526762934633819
100
AcDbArc
 50
89.89950747089308
 51
91.75516373325118
  0
LINE
  5
4A7
330
23
100
AcDbEntity
  8
sanindusa
100
AcDbLine
 10
254.3841779136606
 20
178.4071288747334
 30
0.0
 11
254.3441779136605
 21
178.4071288747334
 31
0.0
  0
ARC
  5
4A8
330
23
100
AcDbEntity
  8
sanindusa
100
AcDbCircle
 10
254.3846032666024
 20
178.2660301660792
 30
0.0
 40
0.1415882259246037
100
AcDbArc
 50
88.15914052261243
 51
90.17212564783859
  0
LINE
  5
4A9
330
23
100
AcDbEntity
  8
sanindusa
100
AcDbLine
 10
254.3441779136605
 20
178.4076177530894
 30
0.0
 11
254.3841779136606
 21
178.4076177530894
 31
0.0
  0
LWPOLYLINE
  5
4AE
330
23
100
AcDbEntity
  8
sanindusa
100
AcDbPolyline
 90
       12
 70
   128
 43
0.0
 10
254.5638746758695
 20
178.1186199699751
 10
254.5622367737996
 20
178.11985415777
 10
254.5602308271337
 20
178.1214989644341
 10
254.5579435241206
 20
178.1235422582726
 10
254.5549895686987
 20
178.1264646721957
 10
254.5518763280731
 20
178.1299428907528
 10
254.5494852423015
 20
178.132952631612
 10
254.5471097800473
 20
178.1363129963271
 10
254.5447872864257
 20
178.1400546273764
 10
254.5425533346978
 20
178.144212280723
 10
254.540250663698
 20
178.1493345202072
 10
254.5378611535619
 20
178.1557387970206
  0
LWPOLYLINE
  5
4AF
330
23
100
AcDbEntity
  8
sanindusa
100
AcDbPolyline
 90
        9
 70
   128
 43
0.0
 10
254.5746438802479
 20
178.1851914968057
 10
254.5726032337978
 20
178.1804858741878
 10
254.5696046983001
 20
178.1757109355435
 10
254.5656735502145
 20
178.1710593123793
 10
254.5609165369972
 20
178.1667348939641
 10
254.5555155079977
 20
178.1629255551847
 10
254.5497051259635
 20
178.1597769311156
 10
254.5437401087049
 20
178.1573745652987
 10
254.5378611535619
 20
178.1557387970206
  0
LWPOLYLINE
  5
4B0
330
23
100
AcDbEntity
  8
sanindusa
100
AcDbPolyline
 90
       12
 70
   128
 43
0.0
 10
254.1904946737721
 20
178.1557387970206
 10
254.1881051636359
 20
178.1493345202064
 10
254.1858024926358
 20
178.144212280721
 10
254.1835685409072
 20
178.1400546273743
 10
254.1812460472845
 20
178.136312996325
 10
254.1788705850297
 20
178.1329526316099
 10
254.1764794992579
 20
178.1299428907515
 10
254.1725394390357
 20
178.1256123786407
 10
254.1689137586885
 20
178.1221832379356
 10
254.1672260282272
 20
178.1207447597668
 10
254.1657342300295
 20
178.1195548162269
 10
254.1644811514585
 20
178.1186199699751
  0
LWPOLYLINE
  5
4B1
330
23
100
AcDbEntity
  8
sanindusa
100
AcDbPolyline
 90
        9
 70
   128
 43
0.0
 10
254.1904946737721
 20
178.1557387970206
 10
254.1846157186267
 20
178.1573745652993
 10
254.1786507013656
 20
178.1597769311172
 10
254.1728403193291
 20
178.1629255551875
 10
254.1674392903273
 20
178.1667348939684
 10
254.162682277108
 20
178.1710593123854
 10
254.1587511290208
 20
178.1757109355515
 10
254.1557525935219
 20
178.1804858741977
 10
254.153711947071
 20
178.1851914968175
  0
LWPOLYLINE
  5
4B2
330
23
100
AcDbEntity
  8
sanindusa
100
AcDbPolyline
 90
        5
 70
   128
 43
0.0
 10
254.5378643018742
 20
178.1557387970047
 10
254.4406080599355
 20
178.1557393359101
 10
254.343332835263
 20
178.1557395313539
 10
254.2669047228589
 20
178.1557392268514
 10
254.1904915254598
 20
178.1557387970047
  0
LWPOLYLINE
  5
4B3
330
23
100
AcDbEntity
  8
sanindusa
100
AcDbPolyline
 90
       16
 70
   128
 43
0.0
 10
254.2149039072405
 20
178.2660347680113
 10
254.2148077567997
 20
178.2610507526282
 10
254.2146144832273
 20
178.2562224823825
 10
254.2143271370579
 20
178.2514378867893
 10
254.2139498157123
 20
178.2467022224938
 10
254.2134866021074
 20
178.2420199908625
 10
254.2129415517152
 20
178.2373943081104
 10
254.2123187176252
 20
178.2328281717722
 10
254.2105836960082
 20
178.2224194759045
 10
254.208510488643
 20
178.2124230549177
 10
254.2061742573935
 20
178.2029358610645
 10
254.2031219576212
 20
178.1922538396547
 10
254.1999026152437
 20
178.1822384415566
 10
254.1966286668358
 20
178.1728158965534
 10
254.1934339505854
 20
178.1639665376089
 10
254.1904883762764
 20
178.1557398198466
  0
LWPOLYLINE
  5
4B5
330
23
100
AcDbEntity
  8
sanindusa
100
AcDbPolyline
 90
       16
 70
   128
 43
0.0
 10
254.5378674510576
 20
178.1557398198466
 10
254.5349218767459
 20
178.1639665376094
 10
254.531727160497
 20
178.1728158965555
 10
254.5284532120875
 20
178.1822384415615
 10
254.5252338697097
 20
178.1922538396614
 10
254.5221815699381
 20
178.2029358610727
 10
254.5198453386885
 20
178.2124230549271
 10
254.5177721313232
 20
178.2224194759147
 10
254.5160371097068
 20
178.2328281717828
 10
254.514889482952
 20
178.2418338578719
 10
254.5140556191683
 20
178.2510571639725
 10
254.5138632233633
 20
178.2539966744201
 10
254.5137058022032
 20
178.2569537014049
 10
254.5135843136231
 20
178.2599270056688
 10
254.5134997189956
 20
178.2629151726965
 10
254.5134519200925
 20
178.2660347680113
  0
ARC
  5
4B9
330
23
100
AcDbEntity
  8
sanindusa
100
AcDbCircle
 10
254.2105129633358
 20
179.6860208718909
 30
0.0
 40
1.287434847462771
100
AcDbArc
 50
268.0456360418923
 51
270.2840913582904
  0
ARC
  5
4BA
330
23
100
AcDbEntity
  8
sanindusa
100
AcDbCircle
 10
254.5182033301877
 20
179.6612922986737
 30
0.0
 40
1.26270845792875
100
AcDbArc
 50
269.6939890273757
 51
271.976283573151
  0
LWPOLYLINE
  5
4BC
330
23
100
AcDbEntity
  8
sanindusa
100
AcDbPolyline
 90
        7
 70
   128
 43
0.0
 10
254.2168964558568
 20
178.3986019661158
 10
254.2177921019936
 20
178.3765408785377
 10
254.2177894100522
 20
178.354464714051
 10
254.2171922869217
 20
178.332369659605
 10
254.2163080177278
 20
178.3102626258474
 10
254.2154431421141
 20
178.2881494170281
 10
254.2149038010614
 20
178.2660347693259
  0
LWPOLYLINE
  5
4BD
330
23
100
AcDbEntity
  8
sanindusa
100
AcDbPolyline
 90
        7
 70
   128
 43
0.0
 10
254.5134520262716
 20
178.2660347693259
 10
254.5129126852208
 20
178.2881494169991
 10
254.5120478096179
 20
178.3102626257899
 10
254.5111635404353
 20
178.3323696595187
 10
254.5105664173074
 20
178.354464713936
 10
254.5105637253545
 20
178.3765408783939
 10
254.5114593714608
 20
178.3986019659418
  0
LWPOLYLINE
  5
4BE
330
23
100
AcDbEntity
  8
sanindusa
100
AcDbPolyline
 90
        9
 70
   128
 43
0.0
 10
254.5114635643371
 20
178.3986017897214
 10
254.4746311277202
 20
178.3984297211296
 10
254.4377835641356
 20
178.3983000821217
 10
254.4009061383202
 20
178.3982183391002
 10
254.3640239427332
 20
178.3981900307724
 10
254.3284313169768
 20
178.3982168773403
 10
254.2928387095328
 20
178.3982936192231
 10
254.254860371818
 20
178.3984250518202
 10
254.2168922584912
 20
178.3986017897447
  0
CIRCLE
  5
4BF
330
23
100
AcDbEntity
  8
sanindusa
100
AcDbCircle
 10
254.3641604159556
 20
178.3517079923173
 30
0.0
 40
0.0333048221240661
  0
CIRCLE
  5
4C5
330
23
100
AcDbEntity
  8
sanindusa
100
AcDbCircle
 10
254.3641779136606
 20
178.3520335112808
 30
0.0
 40
0.0229999999999998
  0
LWPOLYLINE
  5
4C6
330
23
100
AcDbEntity
  8
sanindusa
100
AcDbPolyline
 90
       14
 70
   128
 43
0.0
 10
254.3441779136605
 20
178.4071288747334
 10
254.3428916670358
 20
178.4071330367749
 10
254.3416492219973
 20
178.4071453811661
 10
254.3404928885204
 20
178.4071654875336
 10
254.3394620441551
 20
178.4071926711791
 10
254.3385917930696
 20
178.4072260063962
 10
254.3379117706211
 20
178.4072643579941
 10
254.3374451341584
 20
178.407306419955
 10
254.3372077744265
 20
178.4073507599094
 10
254.3372077744265
 20
178.4073958679133
 10
254.3374451341584
 20
178.4074402078677
 10
254.3379117706211
 20
178.4074822698287
 10
254.3385917930696
 20
178.4075206214265
 10
254.3392338705641
 20
178.4075463574784
  0
LWPOLYLINE
  5
4C7
330
23
100
AcDbEntity
  8
sanindusa
100
AcDbPolyline
 90
       15
 70
   128
 43
0.0
 10
254.3891515804458
 20
178.407545319196
 10
254.3895402247624
 20
178.4075304363863
 10
254.3902400914871
 20
178.4074955335004
 10
254.3907557620061
 20
178.4074569170341
 10
254.3910715679317
 20
178.4074157603292
 10
254.3911779136606
 20
178.4073733139114
 10
254.3910715679317
 20
178.4073308674936
 10
254.3907557620061
 20
178.4072897107887
 10
254.3902400914871
 20
178.4072510943224
 10
254.3895402247624
 20
178.4072161914364
 10
254.3886774269284
 20
178.4071860626374
 10
254.3876779136606
 20
178.4071616233735
 10
254.3865720546639
 20
178.4071436162195
 10
254.3853934509042
 20
178.4071325883137
 10
254.3841779136606
 20
178.4071288747334
  0
LWPOLYLINE
  5
4CA
330
23
100
AcDbEntity
  8
sanindusa
100
AcDbPolyline
 90
       15
 70
   128
 43
0.0
 10
255.9426474298655
 20
178.4842415678884
 10
255.9441061983026
 20
178.4842364916736
 10
255.9466007995119
 20
178.4841124888298
 10
255.9490210257786
 20
178.4838790024534
 10
255.9513807193939
 20
178.4835406708003
 10
255.9536445250133
 20
178.4831056879537
 10
255.955712963918
 20
178.4825989067523
 10
255.9576318157429
 20
178.4820211004896
 10
255.9593411234863
 20
178.4813993813475
 10
255.9607479287272
 20
178.4807842287296
 10
255.9618799863742
 20
178.4801891068714
 10
255.9626178780058
 20
178.4797229803695
 10
255.9630664616355
 20
178.479381411276
 10
255.9632799226013
 20
178.4791799848135
 10
255.9632743837905
 20
178.4791892885793
  0
LINE
  5
4CB
330
23
100
AcDbEntity
  8
sanindusa
100
AcDbLine
 10
255.814396352802
 20
178.4842560776895
 30
0.0
 11
255.9426478440149
 21
178.4842561855981
 31
0.0
  0
ARC
  5
4CC
330
23
100
AcDbEntity
  8
sanindusa
100
AcDbCircle
 10
255.814396352802
 20
178.4862560776895
 30
0.0
 40
0.0020000000000002
100
AcDbArc
 50
180.0
 51
270.0
  0
LINE
  5
4CE
330
23
100
AcDbEntity
  8
sanindusa
100
AcDbLine
 10
256.142396352802
 20
177.8038651746788
 30
0.0
 11
256.142396352802
 21
177.8442754145913
 31
0.0
  0
ARC
  5
4CF
330
23
100
AcDbEntity
  8
sanindusa
100
AcDbCircle
 10
256.137396352802
 20
177.8442754145913
 30
0.0
 40
0.005
100
AcDbArc
 50
0.0
 51
85.10085133863759
  0
LINE
  5
4D0
330
23
100
AcDbEntity
  8
sanindusa
100
AcDbLine
 10
256.1376519520684
 20
177.8492718412011
 30
0.0
 11
256.1119693003548
 21
177.8514733320738
 31
0.0
  0
LINE
  5
4D1
330
23
100
AcDbEntity
  8
sanindusa
100
AcDbLine
 10
256.129396352802
 20
178.4282296264563
 30
0.0
 11
256.129396352802
 21
178.4699814818522
 31
0.0
  0
ARC
  5
4D2
330
23
100
AcDbEntity
  8
sanindusa
100
AcDbCircle
 10
256.124396352802
 20
178.4282296264563
 30
0.0
 40
0.0050000000000002
100
AcDbArc
 50
277.7652594022334
 51
0.0
  0
LINE
  5
4D3
330
23
100
AcDbEntity
  8
sanindusa
100
AcDbLine
 10
256.1117207465947
 20
178.4214547978247
 30
0.0
 11
256.1249574018164
 21
178.4232598588719
 31
0.0
  0
ARC
  5
4D4
330
23
100
AcDbEntity
  8
sanindusa
100
AcDbCircle
 10
256.112396352802
 20
177.8564550613125
 30
0.0
 40
0.0050000000000002
100
AcDbArc
 50
180.0
 51
265.1003699753744
  0
ARC
  5
4D5
330
23
100
AcDbEntity
  8
sanindusa
100
AcDbCircle
 10
256.112396352802
 20
178.4165006524642
 30
0.0
 40
0.005
100
AcDbArc
 50
97.76563074463032
 51
180.0
  0
LINE
  5
4D6
330
23
100
AcDbEntity
  8
sanindusa
100
AcDbLine
 10
256.107396352802
 20
177.8564550613125
 30
0.0
 11
256.107396352802
 21
178.4165006524642
 31
0.0
  0
ARC
  5
4DA
330
23
100
AcDbEntity
  8
sanindusa
100
AcDbCircle
 10
255.814396352802
 20
178.6088651746788
 30
0.0
 40
0.0020000000000002
100
AcDbArc
 50
180.0
 51
270.0
  0
LINE
  5
4DC
330
23
100
AcDbEntity
  8
sanindusa
100
AcDbLine
 10
256.2733639964993
 20
178.6068651746788
 30
0.0
 11
255.814396352802
 21
178.6068651746788
 31
0.0
  0
LINE
  5
4DE
330
23
100
AcDbEntity
  8
sanindusa
100
AcDbLine
 10
256.3283556197329
 20
178.6068651746788
 30
0.0
 11
256.2733639964993
 21
178.6068651746788
 31
0.0
  0
ARC
  5
4E0
330
23
100
AcDbEntity
  8
sanindusa
100
AcDbCircle
 10
256.3283556197329
 20
178.6118651746789
 30
0.0
 40
0.005
100
AcDbArc
 50
270.0
 51
1.000000000093006
  0
LINE
  5
4E1
330
23
100
AcDbEntity
  8
sanindusa
100
AcDbLine
 10
255.812396352802
 20
178.6119175318981
 30
0.0
 11
255.812396352802
 21
178.6773538420591
 31
0.0
  0
LINE
  5
4E9
330
23
100
AcDbEntity
  8
sanindusa
100
AcDbLine
 10
256.3324821049622
 20
178.661952436711
 30
0.0
 11
256.3333548582086
 21
178.611952436711
 31
0.0
  0
LINE
  5
4EE
330
23
100
AcDbEntity
  8
sanindusa
100
AcDbLine
 10
255.8440698281824
 20
178.6777372635535
 30
0.0
 11
255.8446216950874
 21
178.6714293959651
 31
0.0
  0
LINE
  5
4F1
330
23
100
AcDbEntity
  8
sanindusa
100
AcDbLine
 10
255.8496013945795
 20
178.6668651746788
 30
0.0
 11
256.2724912432528
 21
178.6668651746788
 31
0.0
  0
LINE
  5
4F2
330
23
100
AcDbEntity
  8
sanindusa
100
AcDbLine
 10
256.2724912432528
 20
178.6668651746788
 30
0.0
 11
256.3274828664865
 21
178.6668651746788
 31
0.0
  0
ARC
  5
4F3
330
23
100
AcDbEntity
  8
sanindusa
100
AcDbCircle
 10
256.3274828664865
 20
178.6618651746788
 30
0.0
 40
0.0050000000000001
100
AcDbArc
 50
1.000000000093006
 51
90.0
  0
LINE
  5
4F6
330
23
100
AcDbEntity
  8
sanindusa
100
AcDbLine
 10
255.814396352802
 20
178.7068651746789
 30
0.0
 11
255.8369398102967
 21
178.7068651746789
 31
0.0
  0
LINE
  5
4F7
330
23
100
AcDbEntity
  8
sanindusa
100
AcDbLine
 10
255.812396352802
 20
178.6773538420591
 30
0.0
 11
255.812396352802
 21
178.7048651746788
 31
0.0
  0
ARC
  5
4F8
330
23
100
AcDbEntity
  8
sanindusa
100
AcDbCircle
 10
255.814396352802
 20
178.7048651746788
 30
0.0
 40
0.0019999999999999
100
AcDbArc
 50
90.0
 51
180.0
  0
ARC
  5
4F9
330
23
100
AcDbEntity
  8
sanindusa
100
AcDbCircle
 10
255.8369398102967
 20
178.7018651746788
 30
0.0
 40
0.005
100
AcDbArc
 50
5.000000000732073
 51
90.0
  0
LINE
  5
4FA
330
23
100
AcDbEntity
  8
sanindusa
100
AcDbLine
 10
255.8419207837871
 20
178.7023009533926
 30
0.0
 11
255.8440698281824
 21
178.6777372635535
 31
0.0
  0
ARC
  5
4FB
330
23
100
AcDbEntity
  8
sanindusa
100
AcDbCircle
 10
255.8496026685779
 20
178.6718651746788
 30
0.0
 40
0.005
100
AcDbArc
 50
185.0000000007321
 51
270.0
  0
ARC
  5
4FD
330
23
100
AcDbEntity
  8
sanindusa
100
AcDbCircle
 10
256.0137113149663
 20
178.666670761359
 30
0.0
 40
0.259999999999561
100
AcDbArc
 50
341.9854138997564
 51
346.7016632070899
  0
LINE
  5
501
330
23
100
AcDbEntity
  8
sanindusa
100
AcDbLine
 10
255.812396352802
 20
178.574639124089
 30
0.0
 11
255.812396352802
 21
178.6159782659875
 31
0.0
  0
LINE
  5
507
330
23
100
AcDbEntity
  8
sanindusa
100
AcDbLine
 10
256.126896352802
 20
178.4698651746788
 30
0.0
 11
256.0758679611076
 21
178.4698651746788
 31
0.0
  0
LWPOLYLINE
  5
508
330
23
100
AcDbEntity
  8
sanindusa
100
AcDbPolyline
 90
        7
 70
   128
 43
0.0
 10
256.0128963528021
 20
178.4707046275009
 10
256.0231443713713
 20
178.4706636232773
 10
256.0333923899406
 20
178.4705460225444
 10
256.0437171428388
 20
178.4703671172231
 10
256.0538884270792
 20
178.4701613087276
 10
256.0650784099655
 20
178.4699563795492
 10
256.0758679611076
 20
178.4698651746788
  0
LINE
  5
509
330
23
100
AcDbEntity
  8
sanindusa
100
AcDbLine
 10
255.9681720381534
 20
178.4707046275009
 30
0.0
 11
256.0128963528021
 21
178.4707046275009
 31
0.0
  0
ARC
  5
50E
330
23
100
AcDbEntity
  8
sanindusa
100
AcDbCircle
 10
256.0137113149659
 20
178.6666707613592
 30
0.0
 40
0.2599999999999866
100
AcDbArc
 50
328.3517211770615
 51
341.9854138997564
  0
ARC
  5
510
330
23
100
AcDbEntity
  8
sanindusa
100
AcDbCircle
 10
256.126896352802
 20
178.5969073245935
 30
0.0
 40
0.1270421499146164
100
AcDbArc
 50
270.0
 51
328.3517211770615
  0
LINE
  5
512
330
23
100
AcDbEntity
  8
sanindusa
100
AcDbLine
 10
255.963060642339
 20
178.4758503408969
 30
0.0
 11
255.9629360464787
 21
178.47941829951
 31
0.0
  0
ARC
  5
513
330
23
100
AcDbEntity
  8
sanindusa
100
AcDbCircle
 10
255.9683594599184
 20
178.4759977340145
 30
0.0
 40
0.0053008671433763
100
AcDbArc
 50
181.5933416512405
 51
266.865270334491
  0
LINE
  5
519
330
23
100
AcDbEntity
  8
sanindusa
100
AcDbLine
 10
255.812396352802
 20
178.4890240168022
 30
0.0
 11
255.812396352802
 21
178.5818348682786
 31
0.0
  0
LINE
  5
51A
330
23
100
AcDbEntity
  8
sanindusa
100
AcDbLine
 10
255.812396352802
 20
178.4862560776895
 30
0.0
 11
255.812396352802
 21
178.4890240168022
 31
0.0
  0
LINE
  5
51C
330
23
100
AcDbEntity
  8
sanindusa
100
AcDbLine
 10
255.8496026685779
 20
178.6668651746788
 30
0.0
 11
255.8751988022888
 21
178.6668651746788
 31
0.0
  0
LINE
  5
51E
330
23
100
AcDbEntity
  8
sanindusa
100
AcDbLine
 10
256.2723525167481
 20
178.6068651746788
 30
0.0
 11
256.2667395580571
 21
178.6068651746788
 31
0.0
  0
LINE
  5
51F
330
23
100
AcDbEntity
  8
sanindusa
100
AcDbLine
 10
255.9129199249951
 20
177.8038651746788
 30
0.0
 11
255.882396352802
 21
177.8038651746788
 31
0.0
  0
LINE
  5
520
330
23
100
AcDbEntity
  8
sanindusa
100
AcDbLine
 10
255.882396352802
 20
177.8038651746788
 30
0.0
 11
255.882396352802
 21
177.8464556675297
 31
0.0
  0
LWPOLYLINE
  5
523
330
23
100
AcDbEntity
  8
sanindusa
100
AcDbPolyline
 90
       14
 70
   128
 43
0.0
 10
255.8874038050792
 20
177.8514374007749
 10
255.8875901512881
 20
177.851176013197
 10
255.8881464119223
 20
177.8509179647875
 10
255.8890642944167
 20
177.850667102454
 10
255.8903301152577
 20
177.850427165976
 10
255.8919250039719
 20
177.8502017322537
 10
255.8938251844422
 20
177.8499941619847
 10
255.8960023293544
 20
177.8498075495637
 10
255.8984239824924
 20
177.8496446769519
 10
255.9010540425857
 20
177.849507972205
 10
255.903853301496
 20
177.8493994732758
 10
255.9067800287206
 20
177.8493207976334
 10
255.9097905934974
 20
177.8492731181505
 10
255.9128401152401
 20
177.8492571456182
  0
LINE
  5
528
330
23
100
AcDbEntity
  8
sanindusa
100
AcDbLine
 10
255.9129199249951
 20
177.8038651746788
 30
0.0
 11
256.0169537781054
 21
177.8038651746788
 31
0.0
  0
LINE
  5
529
330
23
100
AcDbEntity
  8
sanindusa
100
AcDbLine
 10
255.9128401152401
 20
177.8492571456182
 30
0.0
 11
256.0168739683504
 21
177.8492571456182
 31
0.0
  0
LINE
  5
52E
330
23
100
AcDbEntity
  8
sanindusa
100
AcDbLine
 10
256.0169537781054
 20
177.8038651746788
 30
0.0
 11
256.142396352802
 21
177.8038651746788
 31
0.0
  0
LINE
  5
532
330
23
100
AcDbEntity
  8
sanindusa
100
AcDbLine
 10
256.0164227536351
 20
177.8514732037394
 30
0.0
 11
255.8874038050792
 21
177.8514732037394
 31
0.0
  0
LINE
  5
536
330
23
100
AcDbEntity
  8
sanindusa
100
AcDbLine
 10
255.882396352802
 20
178.4255388673015
 30
0.0
 11
255.8827499684011
 21
178.4264090210613
 31
0.0
  0
LINE
  5
537
330
23
100
AcDbEntity
  8
sanindusa
100
AcDbLine
 10
255.882396352802
 20
178.4255388673015
 30
0.0
 11
255.882396352802
 21
178.4788651746788
 31
0.0
  0
LINE
  5
538
330
23
100
AcDbEntity
  8
sanindusa
100
AcDbLine
 10
255.882396352802
 20
178.4788651746788
 30
0.0
 11
255.9037628533372
 21
178.4791246868311
 31
0.0
  0
LWPOLYLINE
  5
539
330
23
100
AcDbEntity
  8
sanindusa
100
AcDbPolyline
 90
       10
 70
   128
 43
0.0
 10
255.9036873815578
 20
178.4232754791366
 10
255.9011976420377
 20
178.4232489666251
 10
255.8987616246235
 20
178.4231700734276
 10
255.8964385321769
 20
178.4230407168962
 10
255.8942848231283
 20
178.4228640408003
 10
255.892352839361
 20
178.4226443389229
 10
255.8906895341384
 20
178.4223869507087
 10
255.8893353309927
 20
178.4220981314982
 10
255.8883231413067
 20
178.4217849005039
 10
255.8876775644637
 20
178.4214548702211
  0
LWPOLYLINE
  5
53A
330
23
100
AcDbEntity
  8
sanindusa
100
AcDbPolyline
 90
        9
 70
   128
 43
0.0
 10
255.8876775644637
 20
178.4214548702211
 10
255.8867315164757
 20
178.4215686998917
 10
255.8858203593201
 20
178.4218632964196
 10
255.8849781211141
 20
178.4223276577894
 10
255.8842362561243
 20
178.4229444419398
 10
255.8836224700749
 20
178.4236906144216
 10
255.883159685448
 20
178.424538308643
 10
255.8828651854195
 20
178.4254558665765
 10
255.8827499684011
 20
178.4264090210613
  0
LINE
  5
53C
330
23
100
AcDbEntity
  8
sanindusa
100
AcDbLine
 10
256.0166514250423
 20
178.4232754791366
 30
0.0
 11
255.9036873815578
 21
178.4232754791366
 31
0.0
  0
LINE
  5
53F
330
23
100
AcDbEntity
  8
sanindusa
100
AcDbLine
 10
255.9037628533372
 20
178.4791246868311
 30
0.0
 11
255.9624368645718
 21
178.4798373266437
 31
0.0
  0
LINE
  5
545
330
23
100
AcDbEntity
  8
sanindusa
100
AcDbLine
 10
255.8876775644637
 20
178.4214548702211
 30
0.0
 11
256.0164184156594
 21
178.4214548702211
 31
0.0
  0
LWPOLYLINE
  5
548
330
23
100
AcDbEntity
  8
sanindusa
100
AcDbPolyline
 90
        9
 70
   128
 43
0.0
 10
255.8874038050792
 20
177.8514732037394
 10
255.8864272974703
 20
177.8513787498917
 10
255.8854881005913
 20
177.8510961251983
 10
255.8846223755568
 20
177.8506362113222
 10
255.8838634546564
 20
177.8500167159442
 10
255.8832405579891
 20
177.8492614909785
 10
255.8827776684261
 20
177.8483996142225
 10
255.8824926082186
 20
177.8474642697988
 10
255.882396352802
 20
177.8464914704942
  0
LINE
  5
54C
330
23
100
AcDbEntity
  8
sanindusa
100
AcDbLine
 10
255.882396352802
 20
177.8464914704942
 30
0.0
 11
255.882396352802
 21
177.8564549369846
 31
0.0
  0
LINE
  5
554
330
23
100
AcDbEntity
  8
sanindusa
100
AcDbLine
 10
255.882396352802
 20
178.4165007193809
 30
0.0
 11
255.882396352802
 21
178.4255388673015
 31
0.0
  0
LINE
  5
55A
330
23
100
AcDbEntity
  8
sanindusa
100
AcDbLine
 10
255.882396352802
 20
177.8564549369846
 30
0.0
 11
255.882396352802
 21
178.4165007193809
 31
0.0
  0
LINE
  5
565
330
23
100
AcDbEntity
  8
sanindusa
100
AcDbLine
 10
256.0169537781054
 20
177.8492571474177
 30
0.0
 11
256.1378233633958
 21
177.8492571474177
 31
0.0
  0
LINE
  5
566
330
23
100
AcDbEntity
  8
sanindusa
100
AcDbLine
 10
256.1119692995534
 20
177.8514733320738
 30
0.0
 11
256.0169537781054
 21
177.8514733320738
 31
0.0
  0
LWPOLYLINE
  5
569
330
23
100
AcDbEntity
  8
sanindusa
100
AcDbPolyline
 90
       29
 70
   128
 43
0.0
 10
256.1250719269001
 20
178.4232754767171
 10
256.1250289997383
 20
178.4232754767171
 10
256.1246794477459
 20
178.4232754767171
 10
256.1239793271423
 20
178.4232754767171
 10
256.1229308701398
 20
178.4232754767171
 10
256.1215374195607
 20
178.4232754767171
 10
256.1198034181791
 20
178.4232754767171
 10
256.1177343945559
 20
178.4232754767171
 10
256.1153369454122
 20
178.4232754767171
 10
256.1126187145962
 20
178.4232754767171
 10
256.1095883687128
 20
178.4232754767171
 10
256.1062555694912
 20
178.4232754767171
 10
256.1026309429804
 20
178.4232754767171
 10
256.0987260456698
 20
178.4232754767171
 10
256.0945533276433
 20
178.4232754767171
 10
256.0901260928845
 20
178.4232754767171
 10
256.0854584568592
 20
178.4232754767171
 10
256.0805653015105
 20
178.4232754767171
 10
256.0754622278109
 20
178.4232754767171
 10
256.0701655060206
 20
178.4232754767171
 10
256.0646920238133
 20
178.4232754767171
 10
256.0590592324321
 20
178.4232754767171
 10
256.0532850910499
 20
178.4232754767171
 10
256.0473880095091
 20
178.4232754767171
 10
256.0413867896258
 20
178.4232754767171
 10
256.0353005652426
 20
178.4232754767171
 10
256.0291487412243
 20
178.4232754767171
 10
256.0229509315888
 20
178.4232754767171
 10
256.0167268968217
 20
178.4232754755947
  0
LINE
  5
56A
330
23
100
AcDbEntity
  8
sanindusa
100
AcDbLine
 10
256.0167268968217
 20
178.4214547978247
 30
0.0
 11
256.1117207465947
 21
178.4214547978247
 31
0.0
  0
LINE
  5
597
330
23
100
AcDbEntity
  8
sanindusa
100
AcDbLine
 10
256.7083095202405
 20
178.4842560776895
 30
0.0
 11
256.8361677793224
 21
178.4842560776895
 31
0.0
  0
ARC
  5
598
330
23
100
AcDbEntity
  8
sanindusa
100
AcDbCircle
 10
256.7083095202405
 20
178.4862560776895
 30
0.0
 40
0.0020000000000002
100
AcDbArc
 50
180.0
 51
270.0
  0
LINE
  5
599
330
23
100
AcDbEntity
  8
sanindusa
100
AcDbLine
 10
256.8843304514064
 20
178.494906260792
 30
0.0
 11
256.8936387128907
 21
178.4870957020137
 31
0.0
  0
LWPOLYLINE
  5
59A
330
23
100
AcDbEntity
  8
sanindusa
100
AcDbPolyline
 90
       21
 70
   128
 43
0.0
 10
256.8843304514064
 20
178.494906260792
 10
256.8843331164643
 20
178.4949062896798
 10
256.8848899171535
 20
178.4949122656742
 10
256.8863507866065
 20
178.494927318995
 10
256.8887596806722
 20
178.4949502541866
 10
256.891905892306
 20
178.4949770760497
 10
256.8958876683767
 20
178.4950068338102
 10
256.900346834621
 20
178.4950359876549
 10
256.9054290021548
 20
178.4950657724289
 10
256.9107018254918
 20
178.4950949831947
 10
256.9163202417686
 20
178.495126603256
 10
256.9218397184105
 20
178.4951603734683
 10
256.9273940954636
 20
178.4951990619998
 10
256.9325483291645
 20
178.4952407220089
 10
256.9374194992193
 20
178.4952863425746
 10
256.9416045799398
 20
178.4953311200942
 10
256.9452148954434
 20
178.4953743506603
 10
256.9479345071072
 20
178.4954099763428
 10
256.9498541821583
 20
178.4954368400779
 10
256.9506627140311
 20
178.4954486237547
 10
256.9509398567316
 20
178.4954527392428
  0
LINE
  5
59B
330
23
100
AcDbEntity
  8
sanindusa
100
AcDbLine
 10
256.9409803275904
 20
178.4870957020137
 30
0.0
 11
256.9509398567316
 21
178.4954527392428
 31
0.0
  0
LINE
  5
59C
330
23
100
AcDbEntity
  8
sanindusa
100
AcDbLine
 10
256.8936387128907
 20
178.4870957020137
 30
0.0
 11
256.9409803275904
 21
178.4870957020137
 31
0.0
  0
LINE
  5
59D
330
23
100
AcDbEntity
  8
sanindusa
100
AcDbLine
 10
256.9509398567316
 20
178.4954527392428
 30
0.0
 11
257.0033065564485
 21
178.4963263362774
 31
0.0
  0
LINE
  5
59E
330
23
100
AcDbEntity
  8
sanindusa
100
AcDbLine
 10
256.8711530012631
 20
178.4948713517307
 30
0.0
 11
256.8843304514064
 21
178.494906260792
 31
0.0
  0
ARC
  5
5A0
330
23
100
AcDbEntity
  8
sanindusa
100
AcDbCircle
 10
257.0001751165483
 20
178.6512966435271
 30
0.0
 40
0.1550019420681694
100
AcDbArc
 50
271.1576016067185
 51
317.0363920454532
  0
ARC
  5
5A1
330
23
100
AcDbEntity
  8
sanindusa
100
AcDbCircle
 10
257.0089588085996
 20
178.6431004786776
 30
0.0
 40
0.1429881907031369
100
AcDbArc
 50
317.0409851413767
 51
352.4978013601649
  0
ARC
  5
5A3
330
23
100
AcDbEntity
  8
sanindusa
100
AcDbCircle
 10
256.8711441210351
 20
178.4998713438449
 30
0.0
 40
0.0049999999999999
100
AcDbArc
 50
182.0000000004987
 51
270.1017599702145
  0
LINE
  5
5A7
330
23
100
AcDbEntity
  8
sanindusa
100
AcDbLine
 10
256.7083095202405
 20
178.5868651746788
 30
0.0
 11
256.7380423265563
 21
178.5868651746788
 31
0.0
  0
LINE
  5
5A8
330
23
100
AcDbEntity
  8
sanindusa
100
AcDbLine
 10
256.7308529777352
 20
178.7068651746789
 30
0.0
 11
256.7083095202405
 21
178.7068651746789
 31
0.0
  0
ARC
  5
5A9
330
23
100
AcDbEntity
  8
sanindusa
100
AcDbCircle
 10
256.7308529777352
 20
178.7018651746788
 30
0.0
 40
0.0050000000000001
100
AcDbArc
 50
5.000000000732073
 51
90.0
  0
LINE
  5
5AA
330
23
100
AcDbEntity
  8
sanindusa
100
AcDbLine
 10
256.7358339512257
 20
178.7023009533926
 30
0.0
 11
256.7394680594202
 21
178.6607629066549
 31
0.0
  0
ARC
  5
5AB
330
23
100
AcDbEntity
  8
sanindusa
100
AcDbCircle
 10
256.7444490329107
 20
178.6611986853686
 30
0.0
 40
0.0050000000000004
100
AcDbArc
 50
185.0000000007321
 51
268.999999999907
  0
LINE
  5
5AC
330
23
100
AcDbEntity
  8
sanindusa
100
AcDbLine
 10
256.7443617708785
 20
178.6561994468929
 30
0.0
 11
256.7789607113328
 21
178.6555955201408
 31
0.0
  0
LINE
  5
5AD
330
23
100
AcDbEntity
  8
sanindusa
100
AcDbLine
 10
256.7787512824556
 20
178.6435973477989
 30
0.0
 11
256.7789607113328
 21
178.6555955201408
 31
0.0
  0
LINE
  5
5AE
330
23
100
AcDbEntity
  8
sanindusa
100
AcDbLine
 10
256.7468899886154
 20
178.6441534887516
 30
0.0
 11
256.7787512824556
 21
178.6435973477989
 31
0.0
  0
ARC
  5
5AF
330
23
100
AcDbEntity
  8
sanindusa
100
AcDbCircle
 10
256.7468027265832
 20
178.6391542502758
 30
0.0
 40
0.0050000000000001
100
AcDbArc
 50
88.99999999990701
 51
177.9999999995013
  0
LINE
  5
5B0
330
23
100
AcDbEntity
  8
sanindusa
100
AcDbLine
 10
256.7418057724481
 20
178.6393287477593
 30
0.0
 11
256.7400411082103
 21
178.5887953756854
 31
0.0
  0
ARC
  5
5B1
330
23
100
AcDbEntity
  8
sanindusa
100
AcDbCircle
 10
256.7380423265563
 20
178.5888651746788
 30
0.0
 40
0.0020000000000002
100
AcDbArc
 50
270.0
 51
357.9999999995013
  0
ARC
  5
5B2
330
23
100
AcDbEntity
  8
sanindusa
100
AcDbCircle
 10
256.7083095202405
 20
178.5888651746788
 30
0.0
 40
0.0020000000000002
100
AcDbArc
 50
180.0
 51
270.0
  0
ARC
  5
5B3
330
23
100
AcDbEntity
  8
sanindusa
100
AcDbCircle
 10
256.7083095202405
 20
178.7048651746788
 30
0.0
 40
0.0019999999999999
100
AcDbArc
 50
90.0
 51
180.0
  0
LINE
  5
5B4
330
23
100
AcDbEntity
  8
sanindusa
100
AcDbLine
 10
256.7063095202406
 20
178.7048651746788
 30
0.0
 11
256.7063095202406
 21
178.5888651746788
 31
0.0
  0
LINE
  5
5B6
330
23
100
AcDbEntity
  8
sanindusa
100
AcDbLine
 10
256.7063095202406
 20
178.5818348682786
 30
0.0
 11
256.7063095202406
 21
178.5888651746788
 31
0.0
  0
LINE
  5
5B8
330
23
100
AcDbEntity
  8
sanindusa
100
AcDbLine
 10
256.7400411082103
 20
178.5887953756854
 30
0.0
 11
256.739795604501
 21
178.5817650692851
 31
0.0
  0
LINE
  5
5B9
330
23
100
AcDbEntity
  8
sanindusa
100
AcDbLine
 10
256.8139553806633
 20
178.6549846859155
 30
0.0
 11
256.813745951786
 21
178.6429865135736
 31
0.0
  0
LINE
  5
5BA
330
23
100
AcDbEntity
  8
sanindusa
100
AcDbLine
 10
256.813745951786
 20
178.6429865135736
 30
0.0
 11
256.7787512824556
 21
178.6435973477989
 31
0.0
  0
LINE
  5
5BB
330
23
100
AcDbEntity
  8
sanindusa
100
AcDbLine
 10
256.8139553806633
 20
178.6549846859155
 30
0.0
 11
256.7789607113328
 21
178.6555955201408
 31
0.0
  0
LINE
  5
5BC
330
23
100
AcDbEntity
  8
sanindusa
100
AcDbLine
 10
256.8941148747074
 20
178.4598164097996
 30
0.0
 11
256.8658407974983
 21
178.4598164097996
 31
0.0
  0
LINE
  5
5BF
330
23
100
AcDbEntity
  8
sanindusa
100
AcDbLine
 10
256.8943095202405
 20
178.4486651746789
 30
0.0
 11
256.8941148747074
 21
178.4598164097996
 31
0.0
  0
LINE
  5
5C0
330
23
100
AcDbEntity
  8
sanindusa
100
AcDbLine
 10
256.8813095202405
 20
178.4486651746789
 30
0.0
 11
256.8943095202405
 21
178.4486651746789
 31
0.0
  0
ARC
  5
5C1
330
23
100
AcDbEntity
  8
sanindusa
100
AcDbCircle
 10
256.8775966003944
 20
178.4453164097996
 30
0.0
 40
0.005
100
AcDbArc
 50
42.04800222410616
 51
90.0
  0
LINE
  5
5C2
330
23
100
AcDbEntity
  8
sanindusa
100
AcDbLine
 10
256.8653579531109
 20
178.4503164097996
 30
0.0
 11
256.8775966003944
 21
178.4503164097996
 31
0.0
  0
ARC
  5
5C3
330
23
100
AcDbEntity
  8
sanindusa
100
AcDbCircle
 10
256.8653579531109
 20
178.4793164097996
 30
0.0
 40
0.0290000000000001
100
AcDbArc
 50
182.0000000004987
 51
270.0
  0
LINE
  5
5C4
330
23
100
AcDbEntity
  8
sanindusa
100
AcDbLine
 10
256.8308006769633
 20
178.6379497802405
 30
0.0
 11
256.8363756191274
 21
178.4783043243952
 31
0.0
  0
ARC
  5
5C5
330
23
100
AcDbEntity
  8
sanindusa
100
AcDbCircle
 10
256.8258037228282
 20
178.6377752827569
 30
0.0
 40
0.0050000000000003
100
AcDbArc
 50
2.000000000498698
 51
88.99999999990701
  0
ARC
  5
5C6
330
23
100
AcDbEntity
  8
sanindusa
100
AcDbCircle
 10
256.8559215590179
 20
178.6492514019073
 30
0.0
 40
0.0050000000000001
100
AcDbArc
 50
2.000000000498698
 51
88.99999999990701
  0
ARC
  5
5C7
330
23
100
AcDbEntity
  8
sanindusa
100
AcDbCircle
 10
256.8597264967779
 20
178.6262533655289
 30
0.0
 40
0.0020000000000002
100
AcDbArc
 50
270.0421157587954
 51
2.000000000498698
  0
LINE
  5
5C8
330
23
100
AcDbEntity
  8
sanindusa
100
AcDbLine
 10
256.8597279668951
 20
178.6242533660692
 30
0.0
 11
256.8517916656591
 21
178.6242475324212
 31
0.0
  0
LINE
  5
5C9
330
23
100
AcDbEntity
  8
sanindusa
100
AcDbLine
 10
256.8517916656591
 20
178.6242475324212
 30
0.0
 11
256.8513256835222
 21
178.6375915149183
 31
0.0
  0
ARC
  5
5CA
330
23
100
AcDbEntity
  8
sanindusa
100
AcDbCircle
 10
256.8463287293871
 20
178.6374170174348
 30
0.0
 40
0.0050000000000001
100
AcDbArc
 50
2.000000000498698
 51
88.99999999990701
  0
LINE
  5
5CB
330
23
100
AcDbEntity
  8
sanindusa
100
AcDbLine
 10
256.8401466734398
 20
178.642525687263
 30
0.0
 11
256.8464159914193
 21
178.6424162559106
 31
0.0
  0
LINE
  5
5CC
330
23
100
AcDbEntity
  8
sanindusa
100
AcDbLine
 10
256.8458529809579
 20
178.4791184198656
 30
0.0
 11
256.8401466734398
 21
178.642525687263
 31
0.0
  0
ARC
  5
5CD
330
23
100
AcDbEntity
  8
sanindusa
100
AcDbCircle
 10
256.8658407974983
 20
178.4798164097996
 30
0.0
 40
0.0200000000000001
100
AcDbArc
 50
182.0000000004987
 51
270.0
  0
LINE
  5
5CE
330
23
100
AcDbEntity
  8
sanindusa
100
AcDbLine
 10
256.813745951786
 20
178.6429865135736
 30
0.0
 11
256.8258909848605
 21
178.6427745212327
 31
0.0
  0
LINE
  5
5CF
330
23
100
AcDbEntity
  8
sanindusa
100
AcDbLine
 10
256.8139553806633
 20
178.6549846859155
 30
0.0
 11
256.8560088210501
 21
178.6542506403831
 31
0.0
  0
LINE
  5
5D0
330
23
100
AcDbEntity
  8
sanindusa
100
AcDbLine
 10
256.8617252784319
 20
178.6263231645224
 30
0.0
 11
256.860918513153
 21
178.6494258993908
 31
0.0
  0
LINE
  5
5D1
330
23
100
AcDbEntity
  8
sanindusa
100
AcDbLine
 10
256.8521408644849
 20
178.6142477864013
 30
0.0
 11
256.8602139050167
 21
178.6142537205608
 31
0.0
  0
ARC
  5
5D2
330
23
100
AcDbEntity
  8
sanindusa
100
AcDbCircle
 10
256.8602153751339
 20
178.6122537211011
 30
0.0
 40
0.0020000000000002
100
AcDbArc
 50
2.000000000498698
 51
90.04211575879544
  0
LINE
  5
5D3
330
23
100
AcDbEntity
  8
sanindusa
100
AcDbLine
 10
256.8938736887501
 20
178.4736339440397
 30
0.0
 11
256.8936387128907
 21
178.4870957020137
 31
0.0
  0
LINE
  5
5D4
330
23
100
AcDbEntity
  8
sanindusa
100
AcDbLine
 10
256.8938736887501
 20
178.4736339440397
 30
0.0
 11
256.8790533061417
 21
178.4736339440397
 31
0.0
  0
LINE
  5
5D5
330
23
100
AcDbEntity
  8
sanindusa
100
AcDbLine
 10
256.8790533061417
 20
178.4736339440397
 30
0.0
 11
256.8783095202405
 21
178.4818651746788
 31
0.0
  0
LINE
  5
5D6
330
23
100
AcDbEntity
  8
sanindusa
100
AcDbLine
 10
256.8615922110275
 20
178.4818651746788
 30
0.0
 11
256.8783095202405
 21
178.4818651746788
 31
0.0
  0
ARC
  5
5D7
330
23
100
AcDbEntity
  8
sanindusa
100
AcDbCircle
 10
256.8615922110275
 20
178.4868651746789
 30
0.0
 40
0.0049999999999998
100
AcDbArc
 50
182.0000000004987
 51
270.0
  0
LINE
  5
5D8
330
23
100
AcDbEntity
  8
sanindusa
100
AcDbLine
 10
256.8565952568924
 20
178.4866906771953
 30
0.0
 11
256.8521408644849
 21
178.6142477864013
 31
0.0
  0
LINE
  5
5D9
330
23
100
AcDbEntity
  8
sanindusa
100
AcDbLine
 10
256.8661471669
 20
178.4996968463614
 30
0.0
 11
256.862214156788
 21
178.6123235200945
 31
0.0
  0
LINE
  5
5DC
330
23
100
AcDbEntity
  8
sanindusa
100
AcDbLine
 10
256.9409803275904
 20
178.4870957020137
 30
0.0
 11
256.9403095202405
 21
178.4486651746789
 31
0.0
  0
LINE
  5
5DD
330
23
100
AcDbEntity
  8
sanindusa
100
AcDbLine
 10
256.8943095202405
 20
178.4486651746789
 30
0.0
 11
256.9403095202405
 21
178.4486651746789
 31
0.0
  0
LINE
  5
5E0
330
23
100
AcDbEntity
  8
sanindusa
100
AcDbLine
 10
256.955898373304
 20
178.4773151485811
 30
0.0
 11
256.9533095202405
 21
178.4486651746789
 31
0.0
  0
ARC
  5
5E1
330
23
100
AcDbEntity
  8
sanindusa
100
AcDbCircle
 10
257.0266346649352
 20
178.4798651746789
 30
0.0
 40
0.0020000000000002
100
AcDbArc
 50
1.000000000093006
 51
90.0
  0
LINE
  5
5E2
330
23
100
AcDbEntity
  8
sanindusa
100
AcDbLine
 10
257.0287682865577
 20
178.4722274507859
 30
0.0
 11
257.0286343603255
 21
178.4799000794917
 31
0.0
  0
ARC
  5
5E3
330
23
100
AcDbEntity
  8
sanindusa
100
AcDbCircle
 10
256.9608780844891
 20
178.4768651746788
 30
0.0
 40
0.0050000000000003
100
AcDbArc
 50
90.0
 51
174.8366931848253
  0
ARC
  5
5E4
330
23
100
AcDbEntity
  8
sanindusa
100
AcDbCircle
 10
257.2192576120299
 20
178.6098651746788
 30
0.0
 40
0.0030000000000003
100
AcDbArc
 50
181.000000000093
 51
270.0
  0
LINE
  5
5E5
330
23
100
AcDbEntity
  8
sanindusa
100
AcDbLine
 10
257.2161864208874
 20
178.6139175318982
 30
0.0
 11
257.2162580689444
 21
178.6098128174595
 31
0.0
  0
ARC
  5
5E6
330
23
100
AcDbEntity
  8
sanindusa
100
AcDbCircle
 10
257.2131868778019
 20
178.6138651746789
 30
0.0
 40
0.0029999999999998
100
AcDbArc
 50
1.000000000093006
 51
90.0
  0
ARC
  5
5E7
330
23
100
AcDbEntity
  8
sanindusa
100
AcDbCircle
 10
257.1652687526984
 20
178.6138651746789
 30
0.0
 40
0.003
100
AcDbArc
 50
90.0
 51
168.4173256592849
  0
ARC
  5
5E8
330
23
100
AcDbEntity
  8
sanindusa
100
AcDbCircle
 10
256.9076244824044
 20
178.6666707613592
 30
0.0
 40
0.2599999999999999
100
AcDbArc
 50
328.3517211770615
 51
348.4173256592849
  0
ARC
  5
5E9
330
23
100
AcDbEntity
  8
sanindusa
100
AcDbCircle
 10
257.0208095202405
 20
178.5969073245935
 30
0.0
 40
0.1270421499145959
100
AcDbArc
 50
274.5679214460791
 51
328.3517211770615
  0
ARC
  5
5EA
330
23
100
AcDbEntity
  8
sanindusa
100
AcDbCircle
 10
257.030767981948
 20
178.4722623555988
 30
0.0
 40
0.0020000000000001
100
AcDbArc
 50
181.000000000093
 51
274.5679214460791
  0
ARC
  5
5EB
330
23
100
AcDbEntity
  8
sanindusa
100
AcDbCircle
 10
257.221396033925
 20
178.6618651746788
 30
0.0
 40
0.005
100
AcDbArc
 50
1.000000000093006
 51
90.0
  0
LINE
  5
5EC
330
23
100
AcDbEntity
  8
sanindusa
100
AcDbLine
 10
257.2272680256471
 20
178.611952436711
 30
0.0
 11
257.2263952724007
 21
178.661952436711
 31
0.0
  0
ARC
  5
5ED
330
23
100
AcDbEntity
  8
sanindusa
100
AcDbCircle
 10
257.2222687871713
 20
178.6118651746789
 30
0.0
 40
0.0050000000000001
100
AcDbArc
 50
270.0
 51
1.000000000093006
  0
LINE
  5
5EE
330
23
100
AcDbEntity
  8
sanindusa
100
AcDbLine
 10
256.9403095202405
 20
178.4486651746789
 30
0.0
 11
256.9533095202405
 21
178.4486651746789
 31
0.0
  0
LINE
  5
5EF
330
23
100
AcDbEntity
  8
sanindusa
100
AcDbLine
 10
256.9608780844891
 20
178.4818651746788
 30
0.0
 11
257.0266346649352
 21
178.4818651746788
 31
0.0
  0
LINE
  5
5F0
330
23
100
AcDbEntity
  8
sanindusa
100
AcDbLine
 10
257.2222687871713
 20
178.6068651746788
 30
0.0
 11
257.2192576120299
 21
178.6068651746788
 31
0.0
  0
LINE
  5
5F1
330
23
100
AcDbEntity
  8
sanindusa
100
AcDbLine
 10
257.2131868778019
 20
178.6168651746788
 30
0.0
 11
257.1652687526984
 21
178.6168651746788
 31
0.0
  0
ARC
  5
5F2
330
23
100
AcDbEntity
  8
sanindusa
100
AcDbCircle
 10
257.1606944025555
 20
178.6618651746788
 30
0.0
 40
0.005
100
AcDbArc
 50
90.0
 51
172.5000000006308
  0
LINE
  5
5F3
330
23
100
AcDbEntity
  8
sanindusa
100
AcDbLine
 10
257.1507229992135
 20
178.624431334612
 30
0.0
 11
257.1557371782486
 21
178.6625178056399
 31
0.0
  0
LINE
  5
5F4
330
23
100
AcDbEntity
  8
sanindusa
100
AcDbLine
 10
257.1606944025555
 20
178.6668651746788
 30
0.0
 11
257.221396033925
 21
178.6668651746788
 31
0.0
  0
ARC
  5
5F5
330
23
100
AcDbEntity
  8
sanindusa
100
AcDbCircle
 10
257.0210909916881
 20
178.5929644748472
 30
0.0
 40
0.1230894120614505
100
AcDbArc
 50
271.0327387533303
 51
274.5834845574464
  0
LINE
  5
5F7
330
23
100
AcDbEntity
  8
sanindusa
100
AcDbLine
 10
256.8517916656591
 20
178.6242475324212
 30
0.0
 11
256.8521408644849
 21
178.6142477864013
 31
0.0
  0
LINE
  5
5F8
330
23
100
AcDbEntity
  8
sanindusa
100
AcDbLine
 10
256.8617252784319
 20
178.6263231645224
 30
0.0
 11
256.862214156788
 21
178.6123235200945
 31
0.0
  0
LINE
  5
5FD
330
23
100
AcDbEntity
  8
sanindusa
100
AcDbLine
 10
256.7063095202406
 20
178.4890240168022
 30
0.0
 11
256.7063095202406
 21
178.5818348682786
 31
0.0
  0
LINE
  5
5FF
330
23
100
AcDbEntity
  8
sanindusa
100
AcDbLine
 10
256.739795604501
 20
178.5817650692851
 30
0.0
 11
256.7377300426977
 21
178.5226151183116
 31
0.0
  0
LWPOLYLINE
  5
604
330
23
100
AcDbEntity
  8
sanindusa
100
AcDbPolyline
 90
        9
 70
   128
 43
0.0
 10
256.7377300426977
 20
178.5226151183116
 10
256.7379516211137
 20
178.5145082070384
 10
256.7386600699312
 20
178.5082672148104
 10
256.7398622093825
 20
178.5019900755284
 10
256.7408612340401
 20
178.4990402896654
 10
256.7412970996426
 20
178.4983726506541
 10
256.7416015815122
 20
178.4981301331058
 10
256.741789213828
 20
178.4980701784331
 10
256.7418727293532
 20
178.4980648629466
  0
LINE
  5
609
330
23
100
AcDbEntity
  8
sanindusa
100
AcDbLine
 10
256.7063095202406
 20
178.4862560776895
 30
0.0
 11
256.7063095202406
 21
178.4890240168022
 31
0.0
  0
LINE
  5
615
330
23
100
AcDbEntity
  8
sanindusa
100
AcDbLine
 10
257.1257006099268
 20
178.6668651746788
 30
0.0
 11
257.1606944025555
 21
178.6668651746788
 31
0.0
  0
LINE
  5
61B
330
23
100
AcDbEntity
  8
sanindusa
100
AcDbLine
 10
256.7435158360164
 20
178.6668651746788
 30
0.0
 11
256.7691119697274
 21
178.6668651746788
 31
0.0
  0
ARC
  5
61C
330
23
100
AcDbEntity
  8
sanindusa
100
AcDbCircle
 10
256.7435158360164
 20
178.6718651746788
 30
0.0
 40
0.005
100
AcDbArc
 50
185.0000000007321
 51
270.0
  0
LINE
  5
61E
330
23
100
AcDbEntity
  8
sanindusa
100
AcDbLine
 10
256.7691119697274
 20
178.6668651746788
 30
0.0
 11
257.1257006099269
 21
178.6668651746788
 31
0.0
  0
LINE
  5
624
330
23
100
AcDbEntity
  8
sanindusa
100
AcDbLine
 10
257.2192576120299
 20
178.6068651746788
 30
0.0
 11
257.1662656841866
 21
178.6068651746788
 31
0.0
  0
LINE
  5
625
330
23
100
AcDbEntity
  8
sanindusa
100
AcDbLine
 10
257.1662656841866
 20
178.6068651746788
 30
0.0
 11
257.1606527254956
 21
178.6068651746788
 31
0.0
  0
ARC
  5
626
330
23
100
AcDbEntity
  8
sanindusa
100
AcDbCircle
 10
257.0218095202406
 20
177.8355548840653
 30
0.0
 40
0.005
100
AcDbArc
 50
0.0
 51
85.10072537913417
  0
LINE
  5
627
330
23
100
AcDbEntity
  8
sanindusa
100
AcDbLine
 10
257.0268095202405
 20
177.8183651746788
 30
0.0
 11
257.0268095202405
 21
177.8355548840653
 31
0.0
  0
LWPOLYLINE
  5
628
330
23
100
AcDbEntity
  8
sanindusa
100
AcDbPolyline
 90
        8
 70
   128
 43
0.0
 10
257.0222365417862
 20
177.8405366159529
 10
257.0180225783543
 20
177.8408978289354
 10
257.0158639929546
 20
177.8410828609467
 10
257.0137054076889
 20
177.8412678945204
 10
257.0115468225655
 20
177.841452929754
 10
257.0093882375934
 20
177.8416379667534
 10
257.0072296527825
 20
177.8418230056338
 10
257.0050710681436
 20
177.8420080465204
  0
LINE
  5
629
330
23
100
AcDbEntity
  8
sanindusa
100
AcDbLine
 10
257.0138095202405
 20
178.4365220630521
 30
0.0
 11
257.0138095202405
 21
178.4671879918436
 31
0.0
  0
ARC
  5
62A
330
23
100
AcDbEntity
  8
sanindusa
100
AcDbCircle
 10
257.0088095202405
 20
178.4365220630521
 30
0.0
 40
0.005
100
AcDbArc
 50
277.7654706234222
 51
0.0
  0
LWPOLYLINE
  5
62B
330
23
100
AcDbEntity
  8
sanindusa
100
AcDbPolyline
 90
        8
 70
   128
 43
0.0
 10
257.0043502622409
 20
178.4308676740098
 10
257.0049959941199
 20
178.4309557335678
 10
257.0056417260317
 20
178.4310437928856
 10
257.0062874579757
 20
178.4311318519677
 10
257.006933189951
 20
178.4312199108189
 10
257.0075789219573
 20
178.4313079694435
 10
257.0082246539939
 20
178.431396027846
 10
257.0094851126023
 20
178.4315679158035
  0
LWPOLYLINE
  5
62C
330
23
100
AcDbEntity
  8
sanindusa
100
AcDbPolyline
 90
        7
 70
   128
 43
0.0
 10
257.0317365308343
 20
177.8492571474177
 10
257.027838199815
 20
177.8495912957197
 10
257.0237847120346
 20
177.8499387474579
 10
257.0197312246446
 20
177.8502862037501
 10
257.0156777376893
 20
177.850633665114
 10
257.0116242512201
 20
177.8509811321486
 10
257.0058824677933
 20
177.8514733320738
  0
ARC
  5
62D
330
23
100
AcDbEntity
  8
sanindusa
100
AcDbCircle
 10
257.0063095202405
 20
177.8564550613125
 30
0.0
 40
0.0050000000000002
100
AcDbArc
 50
180.0
 51
265.1003699753744
  0
ARC
  5
62E
330
23
100
AcDbEntity
  8
sanindusa
100
AcDbCircle
 10
257.0063095202405
 20
178.4165006524642
 30
0.0
 40
0.005
100
AcDbArc
 50
97.76563074463032
 51
180.0
  0
LINE
  5
62F
330
23
100
AcDbEntity
  8
sanindusa
100
AcDbLine
 10
257.0013095202405
 20
177.8564550613125
 30
0.0
 11
257.0013095202405
 21
178.4165006524642
 31
0.0
  0
ARC
  5
630
330
23
100
AcDbEntity
  8
sanindusa
100
AcDbCircle
 10
257.0063095202405
 20
177.8564550613125
 30
0.0
 40
0.0145
100
AcDbArc
 50
234.11170244791
 51
265.1003699753744
  0
LWPOLYLINE
  5
631
330
23
100
AcDbEntity
  8
sanindusa
100
AcDbPolyline
 90
        8
 70
   128
 43
0.0
 10
257.0056339140338
 20
178.4214547978247
 10
257.0073128277286
 20
178.4216837536426
 10
257.0089917416381
 20
178.4219127078863
 10
257.0106706557517
 20
178.4221416606333
 10
257.0123495700594
 20
178.4223706119565
 10
257.0140284845521
 20
178.4225995619239
 10
257.0157073992209
 20
178.4228285105994
 10
257.0189850943387
 20
178.4232754767171
  0
ARC
  5
632
330
23
100
AcDbEntity
  8
sanindusa
100
AcDbCircle
 10
257.0088095202405
 20
178.4671879918436
 30
0.0
 40
0.005
100
AcDbArc
 50
0.0
 51
90.69586594000321
  0
ARC
  5
635
330
23
100
AcDbEntity
  8
sanindusa
100
AcDbCircle
 10
257.0183095202405
 20
178.4282296264563
 30
0.0
 40
0.0050000000000003
100
AcDbArc
 50
277.7652594022334
 51
0.0
  0
ARC
  5
636
330
23
100
AcDbEntity
  8
sanindusa
100
AcDbCircle
 10
257.0063095202405
 20
178.4165006524642
 30
0.0
 40
0.0144999999999999
100
AcDbArc
 50
97.76563074463032
 51
125.88829755209
  0
LINE
  5
637
330
23
100
AcDbEntity
  8
sanindusa
100
AcDbLine
 10
257.0363095202405
 20
177.8038651746788
 30
0.0
 11
257.0363095202405
 21
177.8442754145913
 31
0.0
  0
ARC
  5
638
330
23
100
AcDbEntity
  8
sanindusa
100
AcDbCircle
 10
257.0218095202406
 20
177.8183651746788
 30
0.0
 40
0.005
100
AcDbArc
 50
270.0
 51
0.0
  0
ARC
  5
639
330
23
100
AcDbEntity
  8
sanindusa
100
AcDbCircle
 10
257.0313095202406
 20
177.8442754145913
 30
0.0
 40
0.005
100
AcDbArc
 50
0.0
 51
85.10085133863759
  0
LINE
  5
63A
330
23
100
AcDbEntity
  8
sanindusa
100
AcDbLine
 10
257.0233095202405
 20
178.4282296264563
 30
0.0
 11
257.0233095202405
 21
178.4818651746788
 31
0.0
  0
ARC
  5
63B
330
23
100
AcDbEntity
  8
sanindusa
100
AcDbCircle
 10
257.0028095202405
 20
178.4671151173497
 30
0.0
 40
0.0050000000000003
100
AcDbArc
 50
90.69586594000321
 51
180.0
  0
LINE
  5
63C
330
23
100
AcDbEntity
  8
sanindusa
100
AcDbLine
 10
256.9978095202405
 20
178.4671151173497
 30
0.0
 11
256.9978095202405
 21
178.4282479925886
 31
0.0
  0
ARC
  5
63D
330
23
100
AcDbEntity
  8
sanindusa
100
AcDbCircle
 10
257.0028095202405
 20
177.8183651746788
 30
0.0
 40
0.005
100
AcDbArc
 50
180.0
 51
270.0
  0
LINE
  5
63E
330
23
100
AcDbEntity
  8
sanindusa
100
AcDbLine
 10
256.9883095202405
 20
178.4814400734643
 30
0.0
 11
256.9883095202405
 21
177.8038651746788
 31
0.0
  0
LINE
  5
63F
330
23
100
AcDbEntity
  8
sanindusa
100
AcDbLine
 10
256.9581790456656
 20
178.4810741162832
 30
0.0
 11
256.9883095202405
 21
178.4814400734643
 31
0.0
  0
LINE
  5
640
330
23
100
AcDbEntity
  8
sanindusa
100
AcDbLine
 10
256.9350150010439
 20
177.8038651746788
 30
0.0
 11
256.9883095202405
 21
177.8038651746788
 31
0.0
  0
LINE
  5
641
330
23
100
AcDbEntity
  8
sanindusa
100
AcDbLine
 10
257.0028095202405
 20
177.8133651746788
 30
0.0
 11
257.0218095202406
 21
177.8133651746788
 31
0.0
  0
LINE
  5
642
330
23
100
AcDbEntity
  8
sanindusa
100
AcDbLine
 10
257.0027487959744
 20
178.4721147485925
 30
0.0
 11
257.0087487959745
 21
178.4721876230864
 31
0.0
  0
LINE
  5
643
330
23
100
AcDbEntity
  8
sanindusa
100
AcDbLine
 10
256.9883095202405
 20
178.4814400734643
 30
0.0
 11
257.0233095202405
 21
178.4818651746788
 31
0.0
  0
LINE
  5
644
330
23
100
AcDbEntity
  8
sanindusa
100
AcDbLine
 10
256.9883095202405
 20
177.8038651746788
 30
0.0
 11
257.0363095202405
 21
177.8038651746788
 31
0.0
  0
LINE
  5
645
330
23
100
AcDbEntity
  8
sanindusa
100
AcDbLine
 10
256.7763095202405
 20
177.8038651746788
 30
0.0
 11
256.7763095202405
 21
178.4788651746788
 31
0.0
  0
LINE
  5
646
330
23
100
AcDbEntity
  8
sanindusa
100
AcDbLine
 10
256.836330576539
 20
178.4795941753626
 30
0.0
 11
256.7763095202405
 21
178.4788651746788
 31
0.0
  0
LINE
  5
647
330
23
100
AcDbEntity
  8
sanindusa
100
AcDbLine
 10
256.7763095202405
 20
177.8038651746788
 30
0.0
 11
256.9350150010439
 21
177.8038651746788
 31
0.0
  0
LINE
  5
650
330
23
100
AcDbEntity
  8
sanindusa
100
AcDbLine
 10
256.7418727293532
 20
178.4980648629466
 30
0.0
 11
256.8356855659155
 21
178.4980648629467
 31
0.0
  0
LINE
  5
66D
330
23
100
AcDbEntity
  8
sanindusa
100
AcDbLine
 10
256.9978095202405
 20
177.844707721188
 30
0.0
 11
256.9978095202405
 21
177.8183651746788
 31
0.0
  0
LINE
  5
671
330
23
100
AcDbEntity
  8
sanindusa
100
AcDbLine
 10
256.7318118641779
 20
178.6396777427263
 30
0.0
 11
256.7303168163578
 21
178.5968651746788
 31
0.0
  0
LINE
  5
672
330
23
100
AcDbEntity
  8
sanindusa
100
AcDbLine
 10
256.7163095202405
 20
178.5968651746788
 30
0.0
 11
256.7303168163578
 21
178.5968651746788
 31
0.0
  0
LINE
  5
673
330
23
100
AcDbEntity
  8
sanindusa
100
AcDbLine
 10
256.7163095202405
 20
178.6968651746788
 30
0.0
 11
256.7163095202405
 21
178.5968651746788
 31
0.0
  0
LINE
  5
674
330
23
100
AcDbEntity
  8
sanindusa
100
AcDbLine
 10
256.7262713218651
 20
178.6968651746788
 30
0.0
 11
256.7163095202405
 21
178.6968651746788
 31
0.0
  0
LINE
  5
675
330
23
100
AcDbEntity
  8
sanindusa
100
AcDbLine
 10
256.7262713218651
 20
178.6968651746788
 30
0.0
 11
256.7295061124393
 21
178.6598913492274
 31
0.0
  0
ARC
  5
676
330
23
100
AcDbEntity
  8
sanindusa
100
AcDbCircle
 10
256.7444490329107
 20
178.6611986853686
 30
0.0
 40
0.0150000000000004
100
AcDbArc
 50
185.0000000007321
 51
233.739945190281
  0
ARC
  5
677
330
23
100
AcDbEntity
  8
sanindusa
100
AcDbCircle
 10
256.7468027265832
 20
178.6391542502758
 30
0.0
 40
0.0150000000000001
100
AcDbArc
 50
138.4488669006808
 51
177.9999999995013
  0
ARC
  5
678
330
23
100
AcDbEntity
  8
sanindusa
100
AcDbCircle
 10
257.0208095202405
 20
178.5969073245935
 30
0.0
 40
0.1170421499145959
100
AcDbArc
 50
278.7221234983369
 51
328.3517211770615
  0
ARC
  5
679
330
23
100
AcDbEntity
  8
sanindusa
100
AcDbCircle
 10
257.0001751165483
 20
178.6512966435271
 30
0.0
 40
0.1650019420681694
100
AcDbArc
 50
281.6568016345793
 51
317.0363920454532
  0
ARC
  5
67A
330
23
100
AcDbEntity
  8
sanindusa
100
AcDbCircle
 10
256.9076244824044
 20
178.6666707613592
 30
0.0
 40
0.2499999999999999
100
AcDbArc
 50
328.3517211770615
 51
330.5667469099014
  0
ARC
  5
67B
330
23
100
AcDbEntity
  8
sanindusa
100
AcDbCircle
 10
257.0089588085996
 20
178.6431004786776
 30
0.0
 40
0.1529881907031369
100
AcDbArc
 50
317.0409851413767
 51
319.5373414076268
  0
ARC
  5
67C
330
23
100
AcDbEntity
  8
sanindusa
100
AcDbCircle
 10
257.0266346649352
 20
178.4798651746789
 30
0.0
 40
0.0120000000000002
100
AcDbArc
 50
6.476483445779905
 51
55.02329209208331
  0
LINE
  5
67D
330
23
100
AcDbEntity
  8
sanindusa
100
AcDbLine
 10
257.2131868778019
 20
178.6268651746788
 30
0.0
 11
257.1652687526984
 21
178.6268651746788
 31
0.0
  0
LINE
  5
67E
330
23
100
AcDbEntity
  8
sanindusa
100
AcDbLine
 10
257.1610364706529
 20
178.6261569519583
 30
0.0
 11
257.1650792848704
 21
178.6568651746788
 31
0.0
  0
ARC
  5
67F
330
23
100
AcDbEntity
  8
sanindusa
100
AcDbCircle
 10
257.1652687526984
 20
178.6138651746789
 30
0.0
 40
0.013
100
AcDbArc
 50
90.0
 51
108.9995153991707
  0
ARC
  5
680
330
23
100
AcDbEntity
  8
sanindusa
100
AcDbCircle
 10
257.2131868778019
 20
178.6138651746789
 30
0.0
 40
0.0129999999999998
100
AcDbArc
 50
72.86833809856834
 51
90.0
  0
LINE
  5
681
330
23
100
AcDbEntity
  8
sanindusa
100
AcDbLine
 10
257.2170162677267
 20
178.6262883696303
 30
0.0
 11
257.2164825476094
 21
178.6568651746788
 31
0.0
  0
LINE
  5
682
330
23
100
AcDbEntity
  8
sanindusa
100
AcDbLine
 10
257.1650792848704
 20
178.6568651746788
 30
0.0
 11
257.2164825476094
 21
178.6568651746788
 31
0.0
  0
ENDSEC
  0
SECTION
  2
OBJECTS
  0
DICTIONARY
  5
C
330
0
100
AcDbDictionary
281
     1
  3
ACAD_COLOR
350
1C
  3
ACAD_GROUP
350
D
  3
ACAD_LAYOUT
350
1A
  3
ACAD_MATERIAL
350
1B
  3
ACAD_MLEADERSTYLE
350
6CF
  3
ACAD_MLINESTYLE
350
17
  3
ACAD_PLOTSETTINGS
350
19
  3
ACAD_PLOTSTYLENAME
350
E
  3
ACAD_SCALELIST
350
6BD
  3
ACAD_TABLESTYLE
350
1D
  3
ACAD_VISUALSTYLE
350
6A9
  3
ACDB_RECOMPOSE_DATA
350
6E0
  3
AcDbVariableDictionary
350
663
  3
ASE_INDEX_DICTIONARY
350
660
  3
DWGPROPS
350
6E1
  0
DICTIONARY
  5
6D3
330
10
100
AcDbDictionary
280
     1
281
     1
  3
ADSK_XREC_LAYER_RECONCILED
360
6D4
  0
DICTIONARY
  5
6D5
330
30
100
AcDbDictionary
280
     1
281
     1
  3
ADSK_XREC_LAYER_RECONCILED
360
6D6
  0
DICTIONARY
  5
6D7
330
65E
100
AcDbDictionary
280
     1
281
     1
  3
ADSK_XREC_LAYER_RECONCILED
360
6D8
  0
DICTIONARY
  5
66E
330
23
100
AcDbDictionary
280
     1
281
     1
  3
ACAD_SORTENTS
360
66F
  0
DICTIONARY
  5
1C
102
{ACAD_REACTORS
330
C
102
}
330
C
100
AcDbDictionary
281
     1
  0
DICTIONARY
  5
D
102
{ACAD_REACTORS
330
C
102
}
330
C
100
AcDbDictionary
281
     1
  0
DICTIONARY
  5
1A
102
{ACAD_REACTORS
330
C
102
}
330
C
100
AcDbDictionary
281
     1
  3
Layout1
350
22
  3
Layout2
350
2A
  3
Model
350
26
  0
DICTIONARY
  5
1B
102
{ACAD_REACTORS
330
C
102
}
330
C
100
AcDbDictionary
281
     1
  3
ByBlock
350
699
  3
ByLayer
350
691
  3
Global
350
6A1
  0
DICTIONARY
  5
6CF
102
{ACAD_REACTORS
330
C
102
}
330
C
100
AcDbDictionary
281
     1
  3
Standard
350
6D0
  0
DICTIONARY
  5
17
102
{ACAD_REACTORS
330
C
102
}
330
C
100
AcDbDictionary
281
     1
  3
Standard
350
18
  0
DICTIONARY
  5
19
102
{ACAD_REACTORS
330
C
102
}
330
C
100
AcDbDictionary
281
     1
  0
ACDBDICTIONARYWDFLT
  5
E
102
{ACAD_REACTORS
330
C
102
}
330
C
100
AcDbDictionary
281
     1
  3
Normal
350
F
100
AcDbDictionaryWithDefault
340
F
  0
DICTIONARY
  5
6BD
102
{ACAD_REACTORS
330
C
102
}
330
C
100
AcDbDictionary
281
     1
  3
A0
350
6BE
  3
A1
350
6BF
  3
A2
350
6C0
  3
A3
350
6C1
  3
A4
350
6C2
  3
A5
350
6C3
  3
A6
350
6C4
  3
A7
350
6C5
  3
A8
350
6C6
  3
A9
350
6C7
  3
B0
350
6C8
  3
B1
350
6C9
  3
B2
350
6CA
  3
B3
350
6CB
  3
B4
350
6CC
  3
B5
350
6CD
  3
B6
350
6CE
  0
DICTIONARY
  5
1D
102
{ACAD_REACTORS
330
C
102
}
330
C
100
AcDbDictionary
281
     1
  3
Standard
350
1E
  0
DICTIONARY
  5
6A9
102
{ACAD_REACTORS
330
C
102
}
330
C
100
AcDbDictionary
281
     1
  3
2dWireframe
350
6AF
  3
3D Hidden
350
6B1
  3
3dWireframe
350
6B0
  3
Basic
350
6AE
  3
Brighten
350
6B5
  3
ColorChange
350
6B9
  3
Conceptual
350
6B2
  3
Dim
350
6B4
  3
EdgeColorOff
350
6BC
  3
Facepattern
350
6B8
  3
Flat
350
6AA
  3
FlatWithEdges
350
6AB
  3
Gouraud
350
6AC
  3
GouraudWithEdges
350
6AD
  3
JitterOff
350
6BA
  3
Linepattern
350
6B7
  3
OverhangOff
350
6BB
  3
Realistic
350
6B3
  3
Thicken
350
6B6
  0
XRECORD
  5
6E0
102
{ACAD_REACTORS
330
C
102
}
330
C
100
AcDbXrecord
280
     1
 90
        1
330
1E
  0
DICTIONARY
  5
663
102
{ACAD_REACTORS
330
C
102
}
330
C
100
AcDbDictionary
281
     1
  3
CANNOSCALE
350
6DA
  3
CMLEADERSTYLE
350
6D9
  3
CTABLESTYLE
350
664
  3
DIMASSOC
350
68E
  3
HIDETEXT
350
68D
  3
INDEXCTL
350
6DC
  3
PROJECTNAME
350
68F
  3
SORTENTS
350
6DB
  3
XCLIPFRAME
350
6DD
  0
DICTIONARY
  5
660
102
{ACAD_REACTORS
330
C
102
}
330
C
100
AcDbDictionary
281
     1
  3
ASEBlockHierarchyIndexRecord
350
661
1001
DCO15
1040
1554706169.656
  0
XRECORD
  5
6E1
102
{ACAD_REACTORS
330
C
102
}
330
C
100
AcDbXrecord
280
     1
  1
DWGPROPS COOKIE
  2

  3

  4

  6

  7

  8
Julio
  9

300
=
301
=
302
=
303
=
304
=
305
=
306
=
307
=
308
=
309
=
 40
0.0079732638888889
 41
2453797.530085718
 42
2456149.581286343
  1

 90
        0
  0
XRECORD
  5
6D4
102
{ACAD_REACTORS
330
6D3
102
}
330
6D3
100
AcDbXrecord
280
     1
290
     1
  0
XRECORD
  5
6D6
102
{ACAD_REACTORS
330
6D5
102
}
330
6D5
100
AcDbXrecord
280
     1
290
     1
  0
XRECORD
  5
6D8
102
{ACAD_REACTORS
330
6D7
102
}
330
6D7
100
AcDbXrecord
280
     1
290
     1
  0
SORTENTSTABLE
  5
66F
102
{ACAD_REACTORS
330
66E
102
}
330
66E
100
AcDbSortentsTable
330
23
331
63C
  5
675
331
5FD
  5
62F
331
67F
  5
5F4
331
67B
  5
5A7
331
638
  5
671
331
354
  5
354
331
39B
  5
39B
331
47E
  5
47E
331
3E4
  5
3E4
331
42F
  5
42F
331
3E0
  5
3E0
331
4B5
  5
4B5
331
42B
  5
42B
331
476
  5
476
331
4B1
  5
4B1
331
472
  5
472
331
3D8
  5
3D8
331
5BC
  5
5C7
331
5B8
  5
5C3
331
51E
  5
51E
331
5B4
  5
5C0
331
51A
  5
51A
331
5B0
  5
5B9
331
5F5
  5
62C
331
677
  5
5B8
331
5F1
  5
625
331
673
  5
5C1
331
630
  5
645
331
62C
  5
641
331
5ED
  5
61B
331
628
  5
63D
331
5E9
  5
5F8
331
397
  5
397
331
37B
  5
37B
331
423
  5
423
331
3D4
  5
3D4
331
4A9
  5
4A9
331
41B
  5
41B
331
3CC
  5
3CC
331
4D3
  5
4D3
331
5AC
  5
5B2
331
512
  5
512
331
4CF
  5
4CF
331
50E
  5
50E
331
5A8
  5
5AB
331
545
  5
545
331
4CB
  5
4CB
331
5A0
  5
5A0
331
624
  5
639
331
5E5
  5
5EF
331
5E1
  5
5EA
331
61C
  5
637
331
5DD
  5
5E8
331
5D9
  5
5E6
331
49D
  5
49D
331
499
  5
499
331
442
  5
442
331
4C7
  5
4C7
331
59C
  5
59C
331
4BF
  5
4BF
331
539
  5
539
331
598
  5
598
331
4FA
  5
4FA
331
5D5
  5
5E2
331
5D1
  5
5DC
331
647
  5
681
331
5CD
  5
5D6
331
643
  5
67D
331
5C9
  5
5D2
331
367
  5
367
331
363
  5
363
331
43E
  5
43E
331
3F3
  5
3F3
331
485
  5
485
331
432
  5
432
331
481
  5
481
331
4F6
  5
4F6
331
4F2
  5
4F2
331
4EE
  5
4EE
331
5C7
  5
5D0
331
5C3
  5
5CC
331
529
  5
529
331
604
  5
631
331
682
  5
62B
331
63F
  5
679
331
67E
  5
629
331
63B
  5
674
331
5F8
  5
62E
331
67A
  5
5F7
331
357
  5
357
331
353
  5
353
331
39E
  5
39E
331
3E7
  5
3E7
331
47D
  5
47D
331
3E3
  5
3E3
331
42E
  5
42E
331
479
  5
479
331
3DF
  5
3DF
331
42A
  5
42A
331
475
  5
475
331
4B0
  5
4B0
331
5BF
  5
5C8
331
5BB
  5
5C6
331
4DE
  5
4DE
331
519
  5
519
331
5B3
  5
5BF
331
554
  5
554
331
4DA
  5
4DA
331
637
  5
670
331
5F4
  5
62A
331
676
  5
5B1
331
62F
  5
644
331
5F0
  5
624
331
672
  5
5AA
331
62B
  5
640
331
5EC
  5
609
331
5E8
  5
5F5
331
396
  5
396
331
37A
  5
37A
331
426
  5
426
331
3D3
  5
3D3
331
4A8
  5
4A8
331
469
  5
469
331
465
  5
465
331
3CB
  5
3CB
331
461
  5
461
331
4A0
  5
4A0
331
5AF
  5
5B6
331
4D6
  5
4D6
331
4D2
  5
4D2
331
54C
  5
54C
331
5AB
  5
5B0
331
4CE
  5
4CE
331
548
  5
548
331
5A7
  5
5A9
331
4CA
  5
4CA
331
509
  5
509
331
5A3
  5
5A8
331
627
  5
63C
331
5E4
  5
5EE
331
5E0
  5
5E9
331
61B
  5
636
331
5DC
  5
5E7
331
5D8
  5
5E5
331
376
  5
376
331
372
  5
372
331
36E
  5
36E
331
36A
  5
36A
331
3C7
  5
3C7
331
455
  5
455
331
3B3
  5
3B3
331
490
  5
490
331
4C6
  5
4C6
331
59B
  5
59B
331
501
  5
501
331
53C
  5
53C
331
4BE
  5
4BE
331
597
  5
597
331
4FD
  5
4FD
331
538
  5
538
331
4F9
  5
4F9
331
4BA
  5
4BA
331
5D4
  5
5E1
331
5D0
  5
5D9
331
646
  5
680
331
5CC
  5
5D5
331
642
  5
67C
331
5C8
  5
5D1
331
35A
  5
35A
331
3F6
  5
3F6
331
3F2
  5
3F2
331
3AB
  5
3AB
331
439
  5
439
331
484
  5
484
331
3A3
  5
3A3
331
435
  5
435
331
480
  5
480
331
4F1
  5
4F1
331
5C6
  5
5CF
331
528
  5
528
331
5C2
  5
5CB
331
4E9
  5
4E9
331
63E
  5
678
331
5FF
  5
630
331
681
  5
615
331
63A
  5
673
331
67D
  5
626
331
679
  5
5A1
331
399
  5
399
331
3E6
  5
3E6
331
47C
  5
47C
331
3E2
  5
3E2
331
42D
  5
42D
331
4B3
  5
4B3
331
3DA
  5
3DA
331
470
  5
470
331
4E1
  5
4E1
331
5BA
  5
5C5
331
520
  5
520
331
5B6
  5
5C2
331
51C
  5
51C
331
5B2
  5
5BC
331
5F7
  5
62D
331
636
  5
651
331
5F3
  5
628
331
675
  5
5AF
331
632
  5
647
331
62E
  5
643
331
671
  5
5BA
331
5EF
  5
61E
331
62A
  5
63F
331
66D
  5
676
331
5EB
  5
604
331
379
  5
379
331
425
  5
425
331
4AF
  5
4AF
331
421
  5
421
331
46C
  5
46C
331
3D2
  5
3D2
331
41D
  5
41D
331
3CE
  5
3CE
331
468
  5
468
331
4A7
  5
4A7
331
3CA
  5
3CA
331
4D5
  5
4D5
331
5AE
  5
5B4
331
4D1
  5
4D1
331
5AA
  5
5AE
331
510
  5
510
331
508
  5
508
331
626
  5
63B
331
5E7
  5
5F3
331
5E3
  5
5ED
331
61E
  5
638
331
369
  5
369
331
415
  5
415
331
401
  5
401
331
440
  5
440
331
4C5
  5
4C5
331
53F
  5
53F
331
59E
  5
59E
331
59A
  5
59A
331
537
  5
537
331
4BD
  5
4BD
331
4B9
  5
4B9
331
4F8
  5
4F8
331
5D7
  5
5E4
331
5D3
  5
5E0
331
5CF
  5
5D8
331
645
  5
67F
331
5CB
  5
5D4
331
641
  5
67B
331
365
  5
365
331
3F5
  5
3F5
331
3F1
  5
3F1
331
43C
  5
43C
331
487
  5
487
331
3ED
  5
3ED
331
438
  5
438
331
434
  5
434
331
483
  5
483
331
56A
  5
56A
331
566
  5
566
331
5C5
  5
5CE
331
5C1
  5
5CA
331
680
  5
5F1
331
63D
  5
677
331
639
  5
672
331
67C
  5
5EB
331
678
  5
5FD
331
47F
  5
47F
331
3E5
  5
3E5
331
3E1
  5
3E1
331
42C
  5
42C
331
477
  5
477
331
473
  5
473
331
4B2
  5
4B2
331
428
  5
428
331
523
  5
523
331
4E0
  5
4E0
331
5B9
  5
5C4
331
51F
  5
51F
331
55A
  5
55A
331
4DC
  5
4DC
331
5B1
  5
5BB
331
635
  5
648
331
631
  5
646
331
5F2
  5
627
331
674
  5
5AC
331
62D
  5
642
331
5EE
  5
61C
331
629
  5
63E
331
5EA
  5
5FF
331
394
  5
394
331
37C
  5
37C
331
3D5
  5
3D5
331
4AE
  5
4AE
331
46F
  5
46F
331
420
  5
420
331
4A6
  5
4A6
331
3CD
  5
3CD
331
463
  5
463
331
3C9
  5
3C9
331
513
  5
513
331
5AD
  5
5B3
331
4D4
  5
4D4
331
4D0
  5
4D0
331
5A9
  5
5AD
331
4CC
  5
4CC
331
5A1
  5
5A3
331
5E6
  5
5F0
331
625
  5
63A
331
5E2
  5
5EC
331
374
  5
374
331
36C
  5
36C
331
414
  5
414
331
410
  5
410
331
453
  5
453
331
49A
  5
49A
331
492
  5
492
331
400
  5
400
331
507
  5
507
331
59D
  5
59D
331
599
  5
599
331
53A
  5
53A
331
4FB
  5
4FB
331
536
  5
536
331
4BC
  5
4BC
331
532
  5
532
331
615
  5
635
331
5D6
  5
5E3
331
5D2
  5
5DD
331
5CE
  5
5D7
331
650
  5
682
331
644
  5
67E
331
5CA
  5
5D3
331
609
  5
632
331
640
  5
67A
331
364
  5
364
331
360
  5
360
331
35C
  5
35C
331
48E
  5
48E
331
43F
  5
43F
331
43B
  5
43B
331
3EC
  5
3EC
331
486
  5
486
331
3A5
  5
3A5
331
482
  5
482
331
433
  5
433
331
4F7
  5
4F7
331
4F3
  5
4F3
331
52E
  5
52E
331
569
  5
569
331
5C4
  5
5CD
331
565
  5
565
331
5C0
  5
5C9
  0
LAYOUT
  5
22
102
{ACAD_XDICTIONARY
360
6E3
102
}
102
{ACAD_REACTORS
330
1A
102
}
330
1A
100
AcDbPlotSettings
  1

  2
HP DesignJet 500PS42+HPGL2 Card
  4

  6

 40
0.0
 41
0.0
 42
0.0
 43
0.0
 44
0.0
 45
0.0
 46
0.0
 47
0.0
 48
0.0
 49
0.0
140
0.0
141
0.0
142
1.0
143
1.0
 70
   688
 72
     0
 73
     0
 74
     5
  7
C:\Documents and Settings\Julio\Application Data\Autodesk\AutoCAD 2006\R16.2\enu\Plot Styles\sanindusa.ctb
 75
    16
147
1.0
148
0.0
149
0.0
100
AcDbLayout
  1
Layout1
 70
     1
 71
     1
 10
0.0
 20
0.0
 11
420.0
 21
297.0
 12
0.0
 22
0.0
 32
0.0
 14
1.000000000000000E+20
 24
1.000000000000000E+20
 34
1.000000000000000E+20
 15
-1.000000000000000E+20
 25
-1.000000000000000E+20
 35
-1.000000000000000E+20
146
0.0
 13
0.0
 23
0.0
 33
0.0
 16
1.0
 26
0.0
 36
0.0
 17
0.0
 27
1.0
 37
0.0
 76
     0
330
1F
  0
LAYOUT
  5
2A
102
{ACAD_XDICTIONARY
360
6E7
102
}
102
{ACAD_REACTORS
330
1A
102
}
330
1A
100
AcDbPlotSettings
  1

  2
HP DesignJet 500PS42+HPGL2 Card
  4

  6

 40
0.0
 41
0.0
 42
0.0
 43
0.0
 44
0.0
 45
0.0
 46
0.0
 47
0.0
 48
0.0
 49
0.0
140
0.0
141
0.0
142
1.0
143
1.0
 70
   688
 72
     0
 73
     0
 74
     5
  7
C:\Documents and Settings\Julio\Application Data\Autodesk\AutoCAD 2006\R16.2\enu\Plot Styles\sanindusa.ctb
 75
    16
147
1.0
148
0.0
149
0.0
100
AcDbLayout
  1
Layout2
 70
     1
 71
     2
 10
0.0
 20
0.0
 11
12.0
 21
9.0
 12
0.0
 22
0.0
 32
0.0
 14
0.0
 24
0.0
 34
0.0
 15
0.0
 25
0.0
 35
0.0
146
0.0
 13
0.0
 23
0.0
 33
0.0
 16
1.0
 26
0.0
 36
0.0
 17
0.0
 27
1.0
 37
0.0
 76
     0
330
27
  0
LAYOUT
  5
26
102
{ACAD_XDICTIONARY
360
6E5
102
}
102
{ACAD_REACTORS
330
1A
102
}
330
1A
100
AcDbPlotSettings
  1

  2
HP DesignJet 500PS42+HPGL2 Card
  4

  6

 40
0.0
 41
0.0
 42
0.0
 43
0.0
 44
0.0
 45
0.0
 46
0.0
 47
0.0
 48
0.0
 49
0.0
140
0.0
141
0.0
142
1.0
143
1.0
 70
  1712
 72
     0
 73
     0
 74
     0
  7
C:\Documents and Settings\Julio\Application Data\Autodesk\AutoCAD 2006\R16.2\enu\Plot Styles\sanindusa.ctb
 75
     0
147
1.0
148
0.0
149
0.0
100
AcDbLayout
  1
Model
 70
     1
 71
     0
 10
0.0
 20
0.0
 11
12.0
 21
9.0
 12
0.0
 22
0.0
 32
0.0
 14
0.0
 24
0.0
 34
0.0
 15
0.0
 25
0.0
 35
0.0
146
0.0
 13
0.0
 23
0.0
 33
0.0
 16
1.0
 26
0.0
 36
0.0
 17
0.0
 27
1.0
 37
0.0
 76
     0
330
23
331
685
  0
MATERIAL
  5
699
102
{ACAD_XDICTIONARY
360
69A
102
}
102
{ACAD_REACTORS
330
1B
102
}
330
1B
100
AcDbMaterial
  1
ByBlock
 72
     0
 43
0.0008202099737533
 43
0.0
 43
0.0
 43
0.0
 43
0.0
 43
0.0008202099737533
 43
0.0
 43
0.0
 43
0.0
 43
0.0
 43
1.0
 43
0.0
 43
0.0
 43
0.0
 43
0.0
 43
1.0
 77
     0
 47
0.0008202099737533
 47
0.0
 47
0.0
 47
0.0
 47
0.0
 47
0.0008202099737533
 47
0.0
 47
0.0
 47
0.0
 47
0.0
 47
1.0
 47
0.0
 47
0.0
 47
0.0
 47
0.0
 47
1.0
171
     0
 49
0.0008202099737533
 49
0.0
 49
0.0
 49
0.0
 49
0.0
 49
0.0008202099737533
 49
0.0
 49
0.0
 49
0.0
 49
0.0
 49
1.0
 49
0.0
 49
0.0
 49
0.0
 49
0.0
 49
1.0
175
     0
142
0.0008202099737533
142
0.0
142
0.0
142
0.0
142
0.0
142
0.0008202099737533
142
0.0
142
0.0
142
0.0
142
0.0
142
1.0
142
0.0
142
0.0
142
0.0
142
0.0
142
1.0
179
     0
144
0.0008202099737533
144
0.0
144
0.0
144
0.0
144
0.0
144
0.0008202099737533
144
0.0
144
0.0
144
0.0
144
0.0
144
1.0
144
0.0
144
0.0
144
0.0
144
0.0
144
1.0
147
0.0008202099737533
147
0.0
147
0.0
147
0.0
147
0.0
147
0.0008202099737533
147
0.0
147
0.0
147
0.0
147
0.0
147
1.0
147
0.0
147
0.0
147
0.0
147
0.0
147
1.0
  0
MATERIAL
  5
691
102
{ACAD_XDICTIONARY
360
692
102
}
102
{ACAD_REACTORS
330
1B
102
}
330
1B
100
AcDbMaterial
  1
ByLayer
 72
     0
 43
0.0008202099737533
 43
0.0
 43
0.0
 43
0.0
 43
0.0
 43
0.0008202099737533
 43
0.0
 43
0.0
 43
0.0
 43
0.0
 43
1.0
 43
0.0
 43
0.0
 43
0.0
 43
0.0
 43
1.0
 77
     0
 47
0.0008202099737533
 47
0.0
 47
0.0
 47
0.0
 47
0.0
 47
0.0008202099737533
 47
0.0
 47
0.0
 47
0.0
 47
0.0
 47
1.0
 47
0.0
 47
0.0
 47
0.0
 47
0.0
 47
1.0
171
     0
 49
0.0008202099737533
 49
0.0
 49
0.0
 49
0.0
 49
0.0
 49
0.0008202099737533
 49
0.0
 49
0.0
 49
0.0
 49
0.0
 49
1.0
 49
0.0
 49
0.0
 49
0.0
 49
0.0
 49
1.0
175
     0
142
0.0008202099737533
142
0.0
142
0.0
142
0.0
142
0.0
142
0.0008202099737533
142
0.0
142
0.0
142
0.0
142
0.0
142
1.0
142
0.0
142
0.0
142
0.0
142
0.0
142
1.0
179
     0
144
0.0008202099737533
144
0.0
144
0.0
144
0.0
144
0.0
144
0.0008202099737533
144
0.0
144
0.0
144
0.0
144
0.0
144
1.0
144
0.0
144
0.0
144
0.0
144
0.0
144
1.0
147
0.0008202099737533
147
0.0
147
0.0
147
0.0
147
0.0
147
0.0008202099737533
147
0.0
147
0.0
147
0.0
147
0.0
147
1.0
147
0.0
147
0.0
147
0.0
147
0.0
147
1.0
  0
MATERIAL
  5
6A1
102
{ACAD_XDICTIONARY
360
6A2
102
}
102
{ACAD_REACTORS
330
1B
102
}
330
1B
100
AcDbMaterial
  1
Global
 72
     0
 43
0.0008202099737533
 43
0.0
 43
0.0
 43
0.0
 43
0.0
 43
0.0008202099737533
 43
0.0
 43
0.0
 43
0.0
 43
0.0
 43
1.0
 43
0.0
 43
0.0
 43
0.0
 43
0.0
 43
1.0
 77
     0
 47
0.0008202099737533
 47
0.0
 47
0.0
 47
0.0
 47
0.0
 47
0.0008202099737533
 47
0.0
 47
0.0
 47
0.0
 47
0.0
 47
1.0
 47
0.0
 47
0.0
 47
0.0
 47
0.0
 47
1.0
171
     0
 49
0.0008202099737533
 49
0.0
 49
0.0
 49
0.0
 49
0.0
 49
0.0008202099737533
 49
0.0
 49
0.0
 49
0.0
 49
0.0
 49
1.0
 49
0.0
 49
0.0
 49
0.0
 49
0.0
 49
1.0
175
     0
142
0.0008202099737533
142
0.0
142
0.0
142
0.0
142
0.0
142
0.0008202099737533
142
0.0
142
0.0
142
0.0
142
0.0
142
1.0
142
0.0
142
0.0
142
0.0
142
0.0
142
1.0
179
     0
144
0.0008202099737533
144
0.0
144
0.0
144
0.0
144
0.0
144
0.0008202099737533
144
0.0
144
0.0
144
0.0
144
0.0
144
1.0
144
0.0
144
0.0
144
0.0
144
0.0
144
1.0
147
0.0008202099737533
147
0.0
147
0.0
147
0.0
147
0.0
147
0.0008202099737533
147
0.0
147
0.0
147
0.0
147
0.0
147
1.0
147
0.0
147
0.0
147
0.0
147
0.0
147
1.0
  0
MLEADERSTYLE
  5
6D0
102
{ACAD_REACTORS
330
6CF
102
}
330
6CF
100
AcDbMLeaderStyle
170
     2
171
     1
172
     0
 90
        2
 40
0.0
 41
0.0
173
     1
 91
-1056964608
340
14
 92
       -2
290
     1
 42
2.0
291
     1
 43
0.36
  3
Standard
 44
4.0
300

342
11
174
     1
178
     6
175
     1
176
     0
 93
-1056964608
 45
4.0
292
     0
297
     0
 46
4.0
 94
-1056964608
 47
1.0
 49
1.0
140
1.0
293
     1
141
0.0
294
     1
177
     0
142
1.0
295
     0
296
     0
143
0.125
1001
ACAD_MLEADERVER
1070
     2
  0
MLINESTYLE
  5
18
102
{ACAD_REACTORS
330
17
102
}
330
17
100
AcDbMlineStyle
  2
STANDARD
 70
     0
  3

 62
   256
 51
90.0
 52
90.0
 71
     2
 49
0.5
 62
   256
  6
BYLAYER
 49
-0.5
 62
   256
  6
BYLAYER
  0
ACDBPLACEHOLDER
  5
F
102
{ACAD_REACTORS
330
E
102
}
330
E
  0
SCALE
  5
6BE
102
{ACAD_REACTORS
330
6BD
102
}
330
6BD
100
AcDbScale
 70
     0
300
1:1
140
1.0
141
1.0
290
     1
  0
SCALE
  5
6BF
102
{ACAD_REACTORS
330
6BD
102
}
330
6BD
100
AcDbScale
 70
     0
300
1:2
140
1.0
141
2.0
290
     0
  0
SCALE
  5
6C0
102
{ACAD_REACTORS
330
6BD
102
}
330
6BD
100
AcDbScale
 70
     0
300
1:4
140
1.0
141
4.0
290
     0
  0
SCALE
  5
6C1
102
{ACAD_REACTORS
330
6BD
102
}
330
6BD
100
AcDbScale
 70
     0
300
1:5
140
1.0
141
5.0
290
     0
  0
SCALE
  5
6C2
102
{ACAD_REACTORS
330
6BD
102
}
330
6BD
100
AcDbScale
 70
     0
300
1:8
140
1.0
141
8.0
290
     0
  0
SCALE
  5
6C3
102
{ACAD_REACTORS
330
6BD
102
}
330
6BD
100
AcDbScale
 70
     0
300
1:10
140
1.0
141
10.0
290
     0
  0
SCALE
  5
6C4
102
{ACAD_REACTORS
330
6BD
102
}
330
6BD
100
AcDbScale
 70
     0
300
1:16
140
1.0
141
16.0
290
     0
  0
SCALE
  5
6C5
102
{ACAD_REACTORS
330
6BD
102
}
330
6BD
100
AcDbScale
 70
     0
300
1:20
140
1.0
141
20.0
290
     0
  0
SCALE
  5
6C6
102
{ACAD_REACTORS
330
6BD
102
}
330
6BD
100
AcDbScale
 70
     0
300
1:30
140
1.0
141
30.0
290
     0
  0
SCALE
  5
6C7
102
{ACAD_REACTORS
330
6BD
102
}
330
6BD
100
AcDbScale
 70
     0
300
1:40
140
1.0
141
40.0
290
     0
  0
SCALE
  5
6C8
102
{ACAD_REACTORS
330
6BD
102
}
330
6BD
100
AcDbScale
 70
     0
300
1:50
140
1.0
141
50.0
290
     0
  0
SCALE
  5
6C9
102
{ACAD_REACTORS
330
6BD
102
}
330
6BD
100
AcDbScale
 70
     0
300
1:100
140
1.0
141
100.0
290
     0
  0
SCALE
  5
6CA
102
{ACAD_REACTORS
330
6BD
102
}
330
6BD
100
AcDbScale
 70
     0
300
2:1
140
2.0
141
1.0
290
     0
  0
SCALE
  5
6CB
102
{ACAD_REACTORS
330
6BD
102
}
330
6BD
100
AcDbScale
 70
     0
300
4:1
140
4.0
141
1.0
290
     0
  0
SCALE
  5
6CC
102
{ACAD_REACTORS
330
6BD
102
}
330
6BD
100
AcDbScale
 70
     0
300
8:1
140
8.0
141
1.0
290
     0
  0
SCALE
  5
6CD
102
{ACAD_REACTORS
330
6BD
102
}
330
6BD
100
AcDbScale
 70
     0
300
10:1
140
10.0
141
1.0
290
     0
  0
SCALE
  5
6CE
102
{ACAD_REACTORS
330
6BD
102
}
330
6BD
100
AcDbScale
 70
     0
300
100:1
140
100.0
141
1.0
290
     0
  0
TABLESTYLE
  5
1E
102
{ACAD_XDICTIONARY
360
6DE
102
}
102
{ACAD_REACTORS
330
1D
102
}
330
1D
100
AcDbTableStyle
  3
Standard
 70
     0
 71
     0
 40
1.5
 41
1.5
280
     0
281
     0
  7
Standard
140
4.5
170
     2
 62
     0
 63
     7
283
     0
274
    -2
284
     1
 64
     0
275
    -2
285
     1
 65
     0
276
    -2
286
     1
 66
     0
277
    -2
287
     1
 67
     0
278
    -2
288
     1
 68
     0
279
    -2
289
     1
 69
     0
  7
Standard
140
6.0
170
     5
 62
     0
 63
     7
283
     0
274
    -2
284
     1
 64
     0
275
    -2
285
     1
 65
     0
276
    -2
286
     1
 66
     0
277
    -2
287
     1
 67
     0
278
    -2
288
     1
 68
     0
279
    -2
289
     1
 69
     0
  7
Standard
140
4.5
170
     5
 62
     0
 63
     7
283
     0
274
    -2
284
     1
 64
     0
275
    -2
285
     1
 65
     0
276
    -2
286
     1
 66
     0
277
    -2
287
     1
 67
     0
278
    -2
288
     1
 68
     0
279
    -2
289
     1
 69
     0
  0
VISUALSTYLE
  5
6AF
102
{ACAD_XDICTIONARY
360
6F6
102
}
102
{ACAD_REACTORS
330
6A9
102
}
330
6A9
100
AcDbVisualStyle
  2
2dWireframe
 70
     4
 71
     0
 72
     2
 73
     0
 90
        0
 40
-0.6
 41
-30.0
 62
     5
 63
     7
 74
     1
 91
        4
 64
     7
 65
   257
 75
     1
175
     1
 42
1.0
 92
        0
 66
   257
 43
1.0
 76
     1
 77
     6
 78
     2
 67
     7
 79
     5
170
     0
171
     0
290
     0
174
     0
 93
        1
 44
0.0
173
     0
291
     0
 45
0.0
1001
ACAD
1000
AcDbSavedByObjectVersion
1070
     0
  0
VISUALSTYLE
  5
6B1
102
{ACAD_XDICTIONARY
360
6FA
102
}
102
{ACAD_REACTORS
330
6A9
102
}
330
6A9
100
AcDbVisualStyle
  2
3D Hidden
 70
     6
 71
     1
 72
     2
 73
     2
 90
        0
 40
-0.6
 41
-30.0
 62
     5
 63
     7
 74
     2
 91
        2
 64
     7
 65
   257
 75
     2
175
     1
 42
179.0
 92
        0
 66
   257
 43
1.0
 76
     1
 77
     6
 78
     2
 67
     7
 79
     3
170
     0
171
     0
290
     0
174
     0
 93
        1
 44
0.0
173
     0
291
     0
 45
0.0
1001
ACAD
1000
AcDbSavedByObjectVersion
1070
     0
  0
VISUALSTYLE
  5
6B0
102
{ACAD_XDICTIONARY
360
6F8
102
}
102
{ACAD_REACTORS
330
6A9
102
}
330
6A9
100
AcDbVisualStyle
  2
3dWireframe
 70
     5
 71
     0
 72
     2
 73
     0
 90
        0
 40
-0.6
 41
-30.0
 62
     5
 63
     7
 74
     1
 91
        4
 64
     7
 65
   257
 75
     1
175
     1
 42
1.0
 92
        0
 66
   257
 43
1.0
 76
     1
 77
     6
 78
     2
 67
     7
 79
     5
170
     0
171
     0
290
     0
174
     0
 93
        1
 44
0.0
173
     0
291
     0
 45
0.0
1001
ACAD
1000
AcDbSavedByObjectVersion
1070
     0
  0
VISUALSTYLE
  5
6AE
102
{ACAD_XDICTIONARY
360
6F4
102
}
102
{ACAD_REACTORS
330
6A9
102
}
330
6A9
100
AcDbVisualStyle
  2
Basic
 70
     7
 71
     1
 72
     0
 73
     1
 90
        0
 40
-0.6
 41
-30.0
 62
     5
 63
     7
 74
     0
 91
        4
 64
     7
 65
   257
 75
     1
175
     1
 42
1.0
 92
        8
 66
     7
 43
1.0
 76
     1
 77
     6
 78
     2
 67
     7
 79
     5
170
     0
171
     0
290
     0
174
     0
 93
        1
 44
0.0
173
     0
291
     1
 45
0.0
1001
ACAD
1000
AcDbSavedByObjectVersion
1070
     0
  0
VISUALSTYLE
  5
6B5
102
{ACAD_XDICTIONARY
360
702
102
}
102
{ACAD_REACTORS
330
6A9
102
}
330
6A9
100
AcDbVisualStyle
  2
Brighten
 70
    12
 71
     2
 72
     2
 73
     0
 90
        0
 40
-0.6
 41
-30.0
 62
     5
 63
     7
 74
     1
 91
        4
 64
     7
 65
   257
 75
     1
175
     1
 42
1.0
 92
        8
 66
     7
 43
1.0
 76
     1
 77
     6
 78
     2
 67
     7
 79
     5
170
     0
171
     0
290
     0
174
     0
 93
        1
 44
50.0
173
     0
291
     1
 45
0.0
1001
ACAD
1000
AcDbSavedByObjectVersion
1070
     0
  0
VISUALSTYLE
  5
6B9
102
{ACAD_XDICTIONARY
360
70A
102
}
102
{ACAD_REACTORS
330
6A9
102
}
330
6A9
100
AcDbVisualStyle
  2
ColorChange
 70
    16
 71
     2
 72
     2
 73
     3
 90
        0
 40
-0.6
 41
-30.0
 62
     5
 63
     8
 74
     1
 91
        4
 64
     7
 65
   257
 75
     1
175
     1
 42
1.0
 92
        8
 66
     8
 43
1.0
 76
     1
 77
     6
 78
     2
 67
     7
 79
     5
170
     0
171
     0
290
     0
174
     0
 93
        1
 44
0.0
173
     0
291
     1
 45
0.0
1001
ACAD
1000
AcDbSavedByObjectVersion
1070
     0
  0
VISUALSTYLE
  5
6B2
102
{ACAD_XDICTIONARY
360
6FC
102
}
102
{ACAD_REACTORS
330
6A9
102
}
330
6A9
100
AcDbVisualStyle
  2
Conceptual
 70
     9
 71
     3
 72
     2
 73
     0
 90
        0
 40
-0.6
 41
-30.0
 62
     5
 63
     7
 74
     2
 91
        2
 64
     7
 65
   257
 75
     1
175
     1
 42
179.0
 92
        8
 66
     7
 43
1.0
 76
     1
 77
     6
 78
     2
 67
     7
 79
     3
170
     0
171
     0
290
     0
174
     0
 93
        1
 44
0.0
173
     0
291
     0
 45
0.0
1001
ACAD
1000
AcDbSavedByObjectVersion
1070
     0
  0
VISUALSTYLE
  5
6B4
102
{ACAD_XDICTIONARY
360
700
102
}
102
{ACAD_REACTORS
330
6A9
102
}
330
6A9
100
AcDbVisualStyle
  2
Dim
 70
    11
 71
     2
 72
     2
 73
     0
 90
        0
 40
-0.6
 41
-30.0
 62
     5
 63
     7
 74
     1
 91
        4
 64
     7
 65
   257
 75
     1
175
     1
 42
1.0
 92
        8
 66
     7
 43
1.0
 76
     1
 77
     6
 78
     2
 67
     7
 79
     5
170
     0
171
     0
290
     0
174
     0
 93
        1
 44
-50.0
173
     0
291
     1
 45
0.0
1001
ACAD
1000
AcDbSavedByObjectVersion
1070
     0
  0
VISUALSTYLE
  5
6BC
102
{ACAD_XDICTIONARY
360
710
102
}
102
{ACAD_REACTORS
330
6A9
102
}
330
6A9
100
AcDbVisualStyle
  2
EdgeColorOff
 70
    22
 71
     2
 72
     2
 73
     0
 90
        0
 40
-0.6
 41
-30.0
 62
     5
 63
     7
 74
     1
 91
        4
 64
     7
 65
   257
 75
     1
175
     1
 42
1.0
 92
        8
 66
     7
 43
1.0
 76
     1
 77
     6
 78
     2
 67
     7
 79
     5
170
     0
171
     0
290
     0
174
     0
 93
        1
 44
0.0
173
     0
291
     1
 45
0.0
1001
ACAD
1000
AcDbSavedByObjectVersion
1070
     0
  0
VISUALSTYLE
  5
6B8
102
{ACAD_XDICTIONARY
360
708
102
}
102
{ACAD_REACTORS
330
6A9
102
}
330
6A9
100
AcDbVisualStyle
  2
Facepattern
 70
    15
 71
     2
 72
     2
 73
     0
 90
        0
 40
-0.6
 41
-30.0
 62
     5
 63
     7
 74
     1
 91
        4
 64
     7
 65
   257
 75
     1
175
     1
 42
1.0
 92
        8
 66
     7
 43
1.0
 76
     1
 77
     6
 78
     2
 67
     7
 79
     5
170
     0
171
     0
290
     0
174
     0
 93
        1
 44
0.0
173
     0
291
     1
 45
0.0
1001
ACAD
1000
AcDbSavedByObjectVersion
1070
     0
  0
VISUALSTYLE
  5
6AA
102
{ACAD_XDICTIONARY
360
6EC
102
}
102
{ACAD_REACTORS
330
6A9
102
}
330
6A9
100
AcDbVisualStyle
  2
Flat
 70
     0
 71
     2
 72
     1
 73
     1
 90
        2
 40
-0.6
 41
30.0
 62
     5
 63
     7
 74
     0
 91
        4
 64
     7
 65
   257
 75
     1
175
     1
 42
1.0
 92
        8
 66
     7
 43
1.0
 76
     1
 77
     6
 78
     2
 67
     7
 79
     5
170
     0
171
     0
290
     0
174
     0
 93
       13
 44
0.0
173
     0
291
     1
 45
0.0
1001
ACAD
1000
AcDbSavedByObjectVersion
1070
     0
  0
VISUALSTYLE
  5
6AB
102
{ACAD_XDICTIONARY
360
6EE
102
}
102
{ACAD_REACTORS
330
6A9
102
}
330
6A9
100
AcDbVisualStyle
  2
FlatWithEdges
 70
     1
 71
     2
 72
     1
 73
     1
 90
        2
 40
-0.6
 41
30.0
 62
     5
 63
     7
 74
     1
 91
        4
 64
     7
 65
   257
 75
     1
175
     1
 42
1.0
 92
        0
 66
   257
 43
1.0
 76
     1
 77
     6
 78
     2
 67
     7
 79
     5
170
     0
171
     0
290
     0
174
     0
 93
       13
 44
0.0
173
     0
291
     1
 45
0.0
1001
ACAD
1000
AcDbSavedByObjectVersion
1070
     0
  0
VISUALSTYLE
  5
6AC
102
{ACAD_XDICTIONARY
360
6F0
102
}
102
{ACAD_REACTORS
330
6A9
102
}
330
6A9
100
AcDbVisualStyle
  2
Gouraud
 70
     2
 71
     2
 72
     2
 73
     1
 90
        2
 40
-0.6
 41
30.0
 62
     5
 63
     7
 74
     0
 91
        4
 64
     7
 65
   257
 75
     1
175
     1
 42
1.0
 92
        0
 66
     7
 43
1.0
 76
     1
 77
     6
 78
     2
 67
     7
 79
     5
170
     0
171
     0
290
     0
174
     0
 93
       13
 44
0.0
173
     0
291
     1
 45
0.0
1001
ACAD
1000
AcDbSavedByObjectVersion
1070
     0
  0
VISUALSTYLE
  5
6AD
102
{ACAD_XDICTIONARY
360
6F2
102
}
102
{ACAD_REACTORS
330
6A9
102
}
330
6A9
100
AcDbVisualStyle
  2
GouraudWithEdges
 70
     3
 71
     2
 72
     2
 73
     1
 90
        2
 40
-0.6
 41
30.0
 62
     5
 63
     7
 74
     1
 91
        4
 64
     7
 65
   257
 75
     1
175
     1
 42
1.0
 92
        0
 66
   257
 43
1.0
 76
     1
 77
     6
 78
     2
 67
     7
 79
     5
170
     0
171
     0
290
     0
174
     0
 93
       13
 44
0.0
173
     0
291
     1
 45
0.0
1001
ACAD
1000
AcDbSavedByObjectVersion
1070
     0
  0
VISUALSTYLE
  5
6BA
102
{ACAD_XDICTIONARY
360
70C
102
}
102
{ACAD_REACTORS
330
6A9
102
}
330
6A9
100
AcDbVisualStyle
  2
JitterOff
 70
    20
 71
     2
 72
     2
 73
     0
 90
        0
 40
-0.6
 41
-30.0
 62
     5
 63
     7
 74
     1
 91
        4
 64
     7
 65
   257
 75
     1
175
     1
 42
1.0
 92
       10
 66
     7
 43
1.0
 76
     1
 77
     6
 78
     2
 67
     7
 79
     5
170
     0
171
     0
290
     0
174
     0
 93
        1
 44
0.0
173
     0
291
     1
 45
0.0
1001
ACAD
1000
AcDbSavedByObjectVersion
1070
     0
  0
VISUALSTYLE
  5
6B7
102
{ACAD_XDICTIONARY
360
706
102
}
102
{ACAD_REACTORS
330
6A9
102
}
330
6A9
100
AcDbVisualStyle
  2
Linepattern
 70
    14
 71
     2
 72
     2
 73
     0
 90
        0
 40
-0.6
 41
-30.0
 62
     5
 63
     7
 74
     1
 91
        4
 64
     7
 65
   257
 75
     7
175
     7
 42
1.0
 92
        8
 66
     7
 43
1.0
 76
     1
 77
     6
 78
     2
 67
     7
 79
     5
170
     0
171
     0
290
     0
174
     0
 93
        1
 44
0.0
173
     0
291
     1
 45
0.0
1001
ACAD
1000
AcDbSavedByObjectVersion
1070
     0
  0
VISUALSTYLE
  5
6BB
102
{ACAD_XDICTIONARY
360
70E
102
}
102
{ACAD_REACTORS
330
6A9
102
}
330
6A9
100
AcDbVisualStyle
  2
OverhangOff
 70
    21
 71
     2
 72
     2
 73
     0
 90
        0
 40
-0.6
 41
-30.0
 62
     5
 63
     7
 74
     1
 91
        4
 64
     7
 65
   257
 75
     1
175
     1
 42
1.0
 92
        9
 66
     7
 43
1.0
 76
     1
 77
     6
 78
     2
 67
     7
 79
     5
170
     0
171
     0
290
     0
174
     0
 93
        1
 44
0.0
173
     0
291
     1
 45
0.0
1001
ACAD
1000
AcDbSavedByObjectVersion
1070
     0
  0
VISUALSTYLE
  5
6B3
102
{ACAD_XDICTIONARY
360
6FE
102
}
102
{ACAD_REACTORS
330
6A9
102
}
330
6A9
100
AcDbVisualStyle
  2
Realistic
 70
     8
 71
     2
 72
     2
 73
     0
 90
        0
 40
-0.6
 41
-30.0
 62
     5
 63
     7
 74
     1
 91
        0
 64
     7
 65
   257
 75
     1
175
     1
 42
1.0
 92
        8
 66
     8
 43
1.0
 76
     1
 77
     6
 78
     2
 67
     7
 79
     5
170
     0
171
     0
290
     0
174
     0
 93
       13
 44
0.0
173
     0
291
     0
 45
0.0
1001
ACAD
1000
AcDbSavedByObjectVersion
1070
     0
  0
VISUALSTYLE
  5
6B6
102
{ACAD_XDICTIONARY
360
704
102
}
102
{ACAD_REACTORS
330
6A9
102
}
330
6A9
100
AcDbVisualStyle
  2
Thicken
 70
    13
 71
     2
 72
     2
 73
     0
 90
        0
 40
-0.6
 41
-30.0
 62
     5
 63
     7
 74
     1
 91
        4
 64
     7
 65
   257
 75
     1
175
     1
 42
1.0
 92
       12
 66
     7
 43
1.0
 76
     1
 77
     6
 78
     2
 67
     7
 79
     5
170
     0
171
     0
290
     0
174
     0
 93
        1
 44
0.0
173
     0
291
     1
 45
0.0
1001
ACAD
1000
AcDbSavedByObjectVersion
1070
     0
  0
DICTIONARYVAR
  5
6DA
102
{ACAD_REACTORS
330
663
102
}
330
663
100
DictionaryVariables
280
     0
  1
1:1
  0
DICTIONARYVAR
  5
6D9
102
{ACAD_REACTORS
330
663
102
}
330
663
100
DictionaryVariables
280
     0
  1
STANDARD
  0
DICTIONARYVAR
  5
664
102
{ACAD_REACTORS
330
663
102
}
330
663
100
DictionaryVariables
280
     0
  1
STANDARD
  0
DICTIONARYVAR
  5
68E
102
{ACAD_REACTORS
330
663
102
}
330
663
100
DictionaryVariables
280
     0
  1
2
  0
DICTIONARYVAR
  5
68D
102
{ACAD_REACTORS
330
663
102
}
330
663
100
DictionaryVariables
280
     0
  1
1
  0
DICTIONARYVAR
  5
6DC
102
{ACAD_REACTORS
330
663
102
}
330
663
100
DictionaryVariables
280
     0
  1
0
  0
DICTIONARYVAR
  5
68F
102
{ACAD_REACTORS
330
663
102
}
330
663
100
DictionaryVariables
280
     0
  1

  0
DICTIONARYVAR
  5
6DB
102
{ACAD_REACTORS
330
663
102
}
330
663
100
DictionaryVariables
280
     0
  1
127
  0
DICTIONARYVAR
  5
6DD
102
{ACAD_REACTORS
330
663
102
}
330
663
100
DictionaryVariables
280
     0
  1
2
  0
XRECORD
  5
661
102
{ACAD_REACTORS
330
660
102
}
330
660
100
AcDbXrecord
280
     1
  0
DICTIONARY
  5
6E3
330
22
100
AcDbDictionary
280
     1
281
     1
  3
ACAD_XREC_ROUNDTRIP
360
6E4
  0
DICTIONARY
  5
6E7
330
2A
100
AcDbDictionary
280
     1
281
     1
  3
ACAD_XREC_ROUNDTRIP
360
6E8
  0
DICTIONARY
  5
6E5
330
26
100
AcDbDictionary
280
     1
281
     1
  3
ACAD_XREC_ROUNDTRIP
360
6E6
  0
DICTIONARY
  5
69A
330
699
100
AcDbDictionary
280
     1
281
     1
  3
ACAD_XREC_ROUNDTRIP
360
6EA
  3
BUMPTILE
360
69C
  3
DIFFUSETILE
360
69B
  3
OPACITYTILE
360
69F
  3
REFLECTIONTILE
360
69E
  3
REFRACTIONTILE
360
6A0
  3
SPECULARTILE
360
69D
  0
DICTIONARY
  5
692
330
691
100
AcDbDictionary
280
     1
281
     1
  3
ACAD_XREC_ROUNDTRIP
360
6E9
  3
BUMPTILE
360
694
  3
DIFFUSETILE
360
693
  3
OPACITYTILE
360
697
  3
REFLECTIONTILE
360
696
  3
REFRACTIONTILE
360
698
  3
SPECULARTILE
360
695
  0
DICTIONARY
  5
6A2
330
6A1
100
AcDbDictionary
280
     1
281
     1
  3
ACAD_XREC_ROUNDTRIP
360
6EB
  3
BUMPTILE
360
6A4
  3
DIFFUSETILE
360
6A3
  3
OPACITYTILE
360
6A7
  3
REFLECTIONTILE
360
6A6
  3
REFRACTIONTILE
360
6A8
  3
SPECULARTILE
360
6A5
  0
DICTIONARY
  5
6DE
330
1E
100
AcDbDictionary
280
     1
281
     1
  3
ACAD_ROUNDTRIP_2008_TABLESTYLE_CELLSTYLEMAP
360
6DF
  3
ACAD_XREC_ROUNDTRIP
360
6E2
  0
DICTIONARY
  5
6F6
330
6AF
100
AcDbDictionary
280
     1
281
     1
  3
ACAD_XREC_ROUNDTRIP
360
6F7
  0
DICTIONARY
  5
6FA
330
6B1
100
AcDbDictionary
280
     1
281
     1
  3
ACAD_XREC_ROUNDTRIP
360
6FB
  0
DICTIONARY
  5
6F8
330
6B0
100
AcDbDictionary
280
     1
281
     1
  3
ACAD_XREC_ROUNDTRIP
360
6F9
  0
DICTIONARY
  5
6F4
330
6AE
100
AcDbDictionary
280
     1
281
     1
  3
ACAD_XREC_ROUNDTRIP
360
6F5
  0
DICTIONARY
  5
702
330
6B5
100
AcDbDictionary
280
     1
281
     1
  3
ACAD_XREC_ROUNDTRIP
360
703
  0
DICTIONARY
  5
70A
330
6B9
100
AcDbDictionary
280
     1
281
     1
  3
ACAD_XREC_ROUNDTRIP
360
70B
  0
DICTIONARY
  5
6FC
330
6B2
100
AcDbDictionary
280
     1
281
     1
  3
ACAD_XREC_ROUNDTRIP
360
6FD
  0
DICTIONARY
  5
700
330
6B4
100
AcDbDictionary
280
     1
281
     1
  3
ACAD_XREC_ROUNDTRIP
360
701
  0
DICTIONARY
  5
710
330
6BC
100
AcDbDictionary
280
     1
281
     1
  3
ACAD_XREC_ROUNDTRIP
360
711
  0
DICTIONARY
  5
708
330
6B8
100
AcDbDictionary
280
     1
281
     1
  3
ACAD_XREC_ROUNDTRIP
360
709
  0
DICTIONARY
  5
6EC
330
6AA
100
AcDbDictionary
280
     1
281
     1
  3
ACAD_XREC_ROUNDTRIP
360
6ED
  0
DICTIONARY
  5
6EE
330
6AB
100
AcDbDictionary
280
     1
281
     1
  3
ACAD_XREC_ROUNDTRIP
360
6EF
  0
DICTIONARY
  5
6F0
330
6AC
100
AcDbDictionary
280
     1
281
     1
  3
ACAD_XREC_ROUNDTRIP
360
6F1
  0
DICTIONARY
  5
6F2
330
6AD
100
AcDbDictionary
280
     1
281
     1
  3
ACAD_XREC_ROUNDTRIP
360
6F3
  0
DICTIONARY
  5
70C
330
6BA
100
AcDbDictionary
280
     1
281
     1
  3
ACAD_XREC_ROUNDTRIP
360
70D
  0
DICTIONARY
  5
706
330
6B7
100
AcDbDictionary
280
     1
281
     1
  3
ACAD_XREC_ROUNDTRIP
360
707
  0
DICTIONARY
  5
70E
330
6BB
100
AcDbDictionary
280
     1
281
     1
  3
ACAD_XREC_ROUNDTRIP
360
70F
  0
DICTIONARY
  5
6FE
330
6B3
100
AcDbDictionary
280
     1
281
     1
  3
ACAD_XREC_ROUNDTRIP
360
6FF
  0
DICTIONARY
  5
704
330
6B6
100
AcDbDictionary
280
     1
281
     1
  3
ACAD_XREC_ROUNDTRIP
360
705
  0
XRECORD
  5
6E4
102
{ACAD_REACTORS
330
6E3
102
}
330
6E3
100
AcDbXrecord
280
     1
102
SHADEPLOT
 70
     0
102
SHADEPLOTRESLEVEL
 70
     2
102
SHADEPLOTCUSTOMDPI
 70
   300
  0
XRECORD
  5
6E8
102
{ACAD_REACTORS
330
6E7
102
}
330
6E7
100
AcDbXrecord
280
     1
102
SHADEPLOT
 70
     0
102
SHADEPLOTRESLEVEL
 70
     2
102
SHADEPLOTCUSTOMDPI
 70
   300
  0
XRECORD
  5
6E6
102
{ACAD_REACTORS
330
6E5
102
}
330
6E5
100
AcDbXrecord
280
     1
102
SHADEPLOT
 70
     0
102
SHADEPLOTRESLEVEL
 70
     2
102
SHADEPLOTCUSTOMDPI
 70
   300
  0
XRECORD
  5
6EA
102
{ACAD_REACTORS
330
69A
102
}
330
69A
100
AcDbXrecord
280
     1
102
MATERIAL
148
0.0
149
0.0
149
0.0
 93
        0
 94
      127
282
     0
 72
     0
 77
     0
171
     0
175
     0
179
     0
273
     0
  0
XRECORD
  5
69C
102
{ACAD_REACTORS
330
69A
102
}
330
69A
100
AcDbXrecord
280
     1
270
     1
271
     1
  0
XRECORD
  5
69B
102
{ACAD_REACTORS
330
69A
102
}
330
69A
100
AcDbXrecord
280
     1
270
     1
271
     1
  0
XRECORD
  5
69F
102
{ACAD_REACTORS
330
69A
102
}
330
69A
100
AcDbXrecord
280
     1
270
     1
271
     1
  0
XRECORD
  5
69E
102
{ACAD_REACTORS
330
69A
102
}
330
69A
100
AcDbXrecord
280
     1
270
     1
271
     1
  0
XRECORD
  5
6A0
102
{ACAD_REACTORS
330
69A
102
}
330
69A
100
AcDbXrecord
280
     1
270
     1
271
     1
  0
XRECORD
  5
69D
102
{ACAD_REACTORS
330
69A
102
}
330
69A
100
AcDbXrecord
280
     1
270
     1
271
     1
  0
XRECORD
  5
6E9
102
{ACAD_REACTORS
330
692
102
}
330
692
100
AcDbXrecord
280
     1
102
MATERIAL
148
0.0
149
0.0
149
0.0
 93
        0
 94
      127
282
     0
 72
     0
 77
     0
171
     0
175
     0
179
     0
273
     0
  0
XRECORD
  5
694
102
{ACAD_REACTORS
330
692
102
}
330
692
100
AcDbXrecord
280
     1
270
     1
271
     1
  0
XRECORD
  5
693
102
{ACAD_REACTORS
330
692
102
}
330
692
100
AcDbXrecord
280
     1
270
     1
271
     1
  0
XRECORD
  5
697
102
{ACAD_REACTORS
330
692
102
}
330
692
100
AcDbXrecord
280
     1
270
     1
271
     1
  0
XRECORD
  5
696
102
{ACAD_REACTORS
330
692
102
}
330
692
100
AcDbXrecord
280
     1
270
     1
271
     1
  0
XRECORD
  5
698
102
{ACAD_REACTORS
330
692
102
}
330
692
100
AcDbXrecord
280
     1
270
     1
271
     1
  0
XRECORD
  5
695
102
{ACAD_REACTORS
330
692
102
}
330
692
100
AcDbXrecord
280
     1
270
     1
271
     1
  0
XRECORD
  5
6EB
102
{ACAD_REACTORS
330
6A2
102
}
330
6A2
100
AcDbXrecord
280
     1
102
MATERIAL
148
0.0
149
0.0
149
0.0
 93
        0
 94
      127
282
     0
 72
     0
 77
     0
171
     0
175
     0
179
     0
273
     0
  0
XRECORD
  5
6A4
102
{ACAD_REACTORS
330
6A2
102
}
330
6A2
100
AcDbXrecord
280
     1
270
     1
271
     1
  0
XRECORD
  5
6A3
102
{ACAD_REACTORS
330
6A2
102
}
330
6A2
100
AcDbXrecord
280
     1
270
     1
271
     1
  0
XRECORD
  5
6A7
102
{ACAD_REACTORS
330
6A2
102
}
330
6A2
100
AcDbXrecord
280
     1
270
     1
271
     1
  0
XRECORD
  5
6A6
102
{ACAD_REACTORS
330
6A2
102
}
330
6A2
100
AcDbXrecord
280
     1
270
     1
271
     1
  0
XRECORD
  5
6A8
102
{ACAD_REACTORS
330
6A2
102
}
330
6A2
100
AcDbXrecord
280
     1
270
     1
271
     1
  0
XRECORD
  5
6A5
102
{ACAD_REACTORS
330
6A2
102
}
330
6A2
100
AcDbXrecord
280
     1
270
     1
271
     1
  0
CELLSTYLEMAP
  5
6DF
102
{ACAD_REACTORS
330
6DE
102
}
330
6DE
100
AcDbCellStyleMap
 90
        3
300
CELLSTYLE
  1
TABLEFORMAT_BEGIN
 90
        5
170
     1
 91
        0
 92
    32768
 62
   257
 93
        1
300
CONTENTFORMAT
  1
CONTENTFORMAT_BEGIN
 90
        0
 91
        0
 92
        4
 93
        0
300

 40
0.0
140
1.0
 94
        5
 62
     0
340
11
144
6.0
309
CONTENTFORMAT_END
171
     1
301
MARGIN
  1
CELLMARGIN_BEGIN
 40
1.5
 40
1.5
 40
1.5
 40
1.5
 40
0.18
 40
0.18
309
CELLMARGIN_END
 94
        6
 95
        1
302
GRIDFORMAT
  1
GRIDFORMAT_BEGIN
 90
        0
 91
        1
 62
     0
 92
       -2
340
0
 93
        0
 40
0.045
309
GRIDFORMAT_END
 95
        2
302
GRIDFORMAT
  1
GRIDFORMAT_BEGIN
 90
        0
 91
        1
 62
     0
 92
       -2
340
0
 93
        0
 40
0.045
309
GRIDFORMAT_END
 95
        4
302
GRIDFORMAT
  1
GRIDFORMAT_BEGIN
 90
        0
 91
        1
 62
     0
 92
       -2
340
0
 93
        0
 40
0.045
309
GRIDFORMAT_END
 95
        8
302
GRIDFORMAT
  1
GRIDFORMAT_BEGIN
 90
        0
 91
        1
 62
     0
 92
       -2
340
0
 93
        0
 40
0.045
309
GRIDFORMAT_END
 95
       16
302
GRIDFORMAT
  1
GRIDFORMAT_BEGIN
 90
        0
 91
        1
 62
     0
 92
       -2
340
0
 93
        0
 40
0.045
309
GRIDFORMAT_END
 95
       32
302
GRIDFORMAT
  1
GRIDFORMAT_BEGIN
 90
        0
 91
        1
 62
     0
 92
       -2
340
0
 93
        0
 40
0.045
309
GRIDFORMAT_END
309
TABLEFORMAT_END
  1
CELLSTYLE_BEGIN
 90
        1
 91
        1
300
_TITLE
309
CELLSTYLE_END
300
CELLSTYLE
  1
TABLEFORMAT_BEGIN
 90
        5
170
     1
 91
        0
 92
        0
 62
   257
 93
        1
300
CONTENTFORMAT
  1
CONTENTFORMAT_BEGIN
 90
        0
 91
        0
 92
        4
 93
        0
300

 40
0.0
140
1.0
 94
        5
 62
     0
340
11
144
4.5
309
CONTENTFORMAT_END
171
     1
301
MARGIN
  1
CELLMARGIN_BEGIN
 40
1.5
 40
1.5
 40
1.5
 40
1.5
 40
0.18
 40
0.18
309
CELLMARGIN_END
 94
        6
 95
        1
302
GRIDFORMAT
  1
GRIDFORMAT_BEGIN
 90
        0
 91
        1
 62
     0
 92
       -2
340
0
 93
        0
 40
0.045
309
GRIDFORMAT_END
 95
        2
302
GRIDFORMAT
  1
GRIDFORMAT_BEGIN
 90
        0
 91
        1
 62
     0
 92
       -2
340
0
 93
        0
 40
0.045
309
GRIDFORMAT_END
 95
        4
302
GRIDFORMAT
  1
GRIDFORMAT_BEGIN
 90
        0
 91
        1
 62
     0
 92
       -2
340
0
 93
        0
 40
0.045
309
GRIDFORMAT_END
 95
        8
302
GRIDFORMAT
  1
GRIDFORMAT_BEGIN
 90
        0
 91
        1
 62
     0
 92
       -2
340
0
 93
        0
 40
0.045
309
GRIDFORMAT_END
 95
       16
302
GRIDFORMAT
  1
GRIDFORMAT_BEGIN
 90
        0
 91
        1
 62
     0
 92
       -2
340
0
 93
        0
 40
0.045
309
GRIDFORMAT_END
 95
       32
302
GRIDFORMAT
  1
GRIDFORMAT_BEGIN
 90
        0
 91
        1
 62
     0
 92
       -2
340
0
 93
        0
 40
0.045
309
GRIDFORMAT_END
309
TABLEFORMAT_END
  1
CELLSTYLE_BEGIN
 90
        2
 91
        1
300
_HEADER
309
CELLSTYLE_END
300
CELLSTYLE
  1
TABLEFORMAT_BEGIN
 90
        5
170
     1
 91
        0
 92
        0
 62
   257
 93
        1
300
CONTENTFORMAT
  1
CONTENTFORMAT_BEGIN
 90
        0
 91
        0
 92
        4
 93
        0
300

 40
0.0
140
1.0
 94
        2
 62
     0
340
11
144
4.5
309
CONTENTFORMAT_END
171
     1
301
MARGIN
  1
CELLMARGIN_BEGIN
 40
1.5
 40
1.5
 40
1.5
 40
1.5
 40
0.18
 40
0.18
309
CELLMARGIN_END
 94
        6
 95
        1
302
GRIDFORMAT
  1
GRIDFORMAT_BEGIN
 90
        0
 91
        1
 62
     0
 92
       -2
340
0
 93
        0
 40
0.045
309
GRIDFORMAT_END
 95
        2
302
GRIDFORMAT
  1
GRIDFORMAT_BEGIN
 90
        0
 91
        1
 62
     0
 92
       -2
340
0
 93
        0
 40
0.045
309
GRIDFORMAT_END
 95
        4
302
GRIDFORMAT
  1
GRIDFORMAT_BEGIN
 90
        0
 91
        1
 62
     0
 92
       -2
340
0
 93
        0
 40
0.045
309
GRIDFORMAT_END
 95
        8
302
GRIDFORMAT
  1
GRIDFORMAT_BEGIN
 90
        0
 91
        1
 62
     0
 92
       -2
340
0
 93
        0
 40
0.045
309
GRIDFORMAT_END
 95
       16
302
GRIDFORMAT
  1
GRIDFORMAT_BEGIN
 90
        0
 91
        1
 62
     0
 92
       -2
340
0
 93
        0
 40
0.045
309
GRIDFORMAT_END
 95
       32
302
GRIDFORMAT
  1
GRIDFORMAT_BEGIN
 90
        0
 91
        1
 62
     0
 92
       -2
340
0
 93
        0
 40
0.045
309
GRIDFORMAT_END
309
TABLEFORMAT_END
  1
CELLSTYLE_BEGIN
 90
        3
 91
        2
300
_DATA
309
CELLSTYLE_END
  0
XRECORD
  5
6E2
102
{ACAD_REACTORS
330
6DE
102
}
330
6DE
100
AcDbXrecord
280
     1
102
ACAD_ROUNDTRIP_PRE2007_TABLESTYLE
 90
        4
 91
        0
  1

 92
        4
 93
        0
  2

 94
        4
 95
        0
  3

  0
XRECORD
  5
6F7
102
{ACAD_REACTORS
330
6F6
102
}
330
6F6
100
AcDbXrecord
280
     1
102
RTVSPropertyOp0
 70
     1
102
RTVSPropertyOp1
 70
     1
102
RTVSPropertyOp2
 70
     1
102
RTVSPropertyOp3
 70
     1
102
RTVSPropertyOp4
 70
     1
102
RTVSPropertyOp5
 70
     1
102
RTVSPropertyOp6
 70
     1
102
RTVSPropertyOp7
 70
     1
102
RTVSPropertyOp8
 70
     1
102
RTVSPropertyOp9
 70
     1
102
RTVSPropertyOp10
 70
     1
102
RTVSPropertyOp11
 70
     1
102
RTVSPropertyOp12
 70
     1
102
RTVSPropertyOp13
 70
     1
102
RTVSPropertyOp14
 70
     1
102
RTVSPropertyOp15
 70
     1
102
RTVSPropertyOp16
 70
     1
102
RTVSPropertyOp17
 70
     1
102
RTVSPropertyOp18
 70
     1
102
RTVSPropertyOp19
 70
     1
102
RTVSPropertyOp20
 70
     1
102
RTVSPropertyOp21
 70
     1
102
RTVSPropertyOp22
 70
     1
102
RTVSPropertyOp23
 70
     1
102
RTVSPropertyOp24
 70
     1
102
RTVSPropertyOp25
 70
     1
102
RTVSPropertyOp26
 70
     1
102
RTVSPropertyOp27
 70
     1
  0
XRECORD
  5
6FB
102
{ACAD_REACTORS
330
6FA
102
}
330
6FA
100
AcDbXrecord
280
     1
102
RTVSPropertyOp0
 70
     1
102
RTVSPropertyOp1
 70
     1
102
RTVSPropertyOp2
 70
     1
102
RTVSPropertyOp3
 70
     1
102
RTVSPropertyOp4
 70
     1
102
RTVSPropertyOp5
 70
     1
102
RTVSPropertyOp6
 70
     1
102
RTVSPropertyOp7
 70
     1
102
RTVSPropertyOp8
 70
     1
102
RTVSPropertyOp9
 70
     1
102
RTVSPropertyOp10
 70
     1
102
RTVSPropertyOp11
 70
     1
102
RTVSPropertyOp12
 70
     1
102
RTVSPropertyOp13
 70
     1
102
RTVSPropertyOp14
 70
     1
102
RTVSPropertyOp15
 70
     1
102
RTVSPropertyOp16
 70
     1
102
RTVSPropertyOp17
 70
     1
102
RTVSPropertyOp18
 70
     1
102
RTVSPropertyOp19
 70
     1
102
RTVSPropertyOp20
 70
     1
102
RTVSPropertyOp21
 70
     1
102
RTVSPropertyOp22
 70
     1
102
RTVSPropertyOp23
 70
     1
102
RTVSPropertyOp24
 70
     1
102
RTVSPropertyOp25
 70
     1
102
RTVSPropertyOp26
 70
     1
102
RTVSPropertyOp27
 70
     1
  0
XRECORD
  5
6F9
102
{ACAD_REACTORS
330
6F8
102
}
330
6F8
100
AcDbXrecord
280
     1
102
RTVSPropertyOp0
 70
     1
102
RTVSPropertyOp1
 70
     1
102
RTVSPropertyOp2
 70
     1
102
RTVSPropertyOp3
 70
     1
102
RTVSPropertyOp4
 70
     1
102
RTVSPropertyOp5
 70
     1
102
RTVSPropertyOp6
 70
     1
102
RTVSPropertyOp7
 70
     1
102
RTVSPropertyOp8
 70
     1
102
RTVSPropertyOp9
 70
     1
102
RTVSPropertyOp10
 70
     1
102
RTVSPropertyOp11
 70
     1
102
RTVSPropertyOp12
 70
     1
102
RTVSPropertyOp13
 70
     1
102
RTVSPropertyOp14
 70
     1
102
RTVSPropertyOp15
 70
     1
102
RTVSPropertyOp16
 70
     1
102
RTVSPropertyOp17
 70
     1
102
RTVSPropertyOp18
 70
     1
102
RTVSPropertyOp19
 70
     1
102
RTVSPropertyOp20
 70
     1
102
RTVSPropertyOp21
 70
     1
102
RTVSPropertyOp22
 70
     1
102
RTVSPropertyOp23
 70
     1
102
RTVSPropertyOp24
 70
     1
102
RTVSPropertyOp25
 70
     1
102
RTVSPropertyOp26
 70
     1
102
RTVSPropertyOp27
 70
     1
  0
XRECORD
  5
6F5
102
{ACAD_REACTORS
330
6F4
102
}
330
6F4
100
AcDbXrecord
280
     1
102
RTVSPropertyOp0
 70
     1
102
RTVSPropertyOp1
 70
     1
102
RTVSPropertyOp2
 70
     1
102
RTVSPropertyOp3
 70
     1
102
RTVSPropertyOp4
 70
     1
102
RTVSPropertyOp5
 70
     1
102
RTVSPropertyOp6
 70
     1
102
RTVSPropertyOp7
 70
     1
102
RTVSPropertyOp8
 70
     1
102
RTVSPropertyOp9
 70
     1
102
RTVSPropertyOp10
 70
     1
102
RTVSPropertyOp11
 70
     1
102
RTVSPropertyOp12
 70
     1
102
RTVSPropertyOp13
 70
     1
102
RTVSPropertyOp14
 70
     1
102
RTVSPropertyOp15
 70
     1
102
RTVSPropertyOp16
 70
     1
102
RTVSPropertyOp17
 70
     1
102
RTVSPropertyOp18
 70
     1
102
RTVSPropertyOp19
 70
     1
102
RTVSPropertyOp20
 70
     1
102
RTVSPropertyOp21
 70
     1
102
RTVSPropertyOp22
 70
     1
102
RTVSPropertyOp23
 70
     1
102
RTVSPropertyOp24
 70
     1
102
RTVSPropertyOp25
 70
     1
102
RTVSPropertyOp26
 70
     1
102
RTVSPropertyOp27
 70
     1
  0
XRECORD
  5
703
102
{ACAD_REACTORS
330
702
102
}
330
702
100
AcDbXrecord
280
     1
102
RTVSPropertyOp0
 70
     1
102
RTVSPropertyOp1
 70
     1
102
RTVSPropertyOp2
 70
     1
102
RTVSPropertyOp3
 70
     1
102
RTVSPropertyOp4
 70
     1
102
RTVSPropertyOp5
 70
     1
102
RTVSPropertyOp6
 70
     1
102
RTVSPropertyOp7
 70
     1
102
RTVSPropertyOp8
 70
     1
102
RTVSPropertyOp9
 70
     1
102
RTVSPropertyOp10
 70
     1
102
RTVSPropertyOp11
 70
     1
102
RTVSPropertyOp12
 70
     1
102
RTVSPropertyOp13
 70
     1
102
RTVSPropertyOp14
 70
     1
102
RTVSPropertyOp15
 70
     1
102
RTVSPropertyOp16
 70
     1
102
RTVSPropertyOp17
 70
     1
102
RTVSPropertyOp18
 70
     1
102
RTVSPropertyOp19
 70
     1
102
RTVSPropertyOp20
 70
     1
102
RTVSPropertyOp21
 70
     1
102
RTVSPropertyOp22
 70
     1
102
RTVSPropertyOp23
 70
     1
102
RTVSPropertyOp24
 70
     1
102
RTVSPropertyOp25
 70
     1
102
RTVSPropertyOp26
 70
     1
102
RTVSPropertyOp27
 70
     1
  0
XRECORD
  5
70B
102
{ACAD_REACTORS
330
70A
102
}
330
70A
100
AcDbXrecord
280
     1
102
RTVSPropertyOp0
 70
     1
102
RTVSPropertyOp1
 70
     1
102
RTVSPropertyOp2
 70
     1
102
RTVSPropertyOp3
 70
     1
102
RTVSPropertyOp4
 70
     1
102
RTVSPropertyOp5
 70
     1
102
RTVSPropertyOp6
 70
     1
102
RTVSPropertyOp7
 70
     1
102
RTVSPropertyOp8
 70
     1
102
RTVSPropertyOp9
 70
     1
102
RTVSPropertyOp10
 70
     1
102
RTVSPropertyOp11
 70
     1
102
RTVSPropertyOp12
 70
     1
102
RTVSPropertyOp13
 70
     1
102
RTVSPropertyOp14
 70
     1
102
RTVSPropertyOp15
 70
     1
102
RTVSPropertyOp16
 70
     1
102
RTVSPropertyOp17
 70
     1
102
RTVSPropertyOp18
 70
     1
102
RTVSPropertyOp19
 70
     1
102
RTVSPropertyOp20
 70
     1
102
RTVSPropertyOp21
 70
     1
102
RTVSPropertyOp22
 70
     1
102
RTVSPropertyOp23
 70
     1
102
RTVSPropertyOp24
 70
     1
102
RTVSPropertyOp25
 70
     1
102
RTVSPropertyOp26
 70
     1
102
RTVSPropertyOp27
 70
     1
  0
XRECORD
  5
6FD
102
{ACAD_REACTORS
330
6FC
102
}
330
6FC
100
AcDbXrecord
280
     1
102
RTVSPropertyOp0
 70
     1
102
RTVSPropertyOp1
 70
     1
102
RTVSPropertyOp2
 70
     1
102
RTVSPropertyOp3
 70
     1
102
RTVSPropertyOp4
 70
     1
102
RTVSPropertyOp5
 70
     1
102
RTVSPropertyOp6
 70
     1
102
RTVSPropertyOp7
 70
     1
102
RTVSPropertyOp8
 70
     1
102
RTVSPropertyOp9
 70
     1
102
RTVSPropertyOp10
 70
     1
102
RTVSPropertyOp11
 70
     1
102
RTVSPropertyOp12
 70
     1
102
RTVSPropertyOp13
 70
     1
102
RTVSPropertyOp14
 70
     1
102
RTVSPropertyOp15
 70
     1
102
RTVSPropertyOp16
 70
     1
102
RTVSPropertyOp17
 70
     1
102
RTVSPropertyOp18
 70
     1
102
RTVSPropertyOp19
 70
     1
102
RTVSPropertyOp20
 70
     1
102
RTVSPropertyOp21
 70
     1
102
RTVSPropertyOp22
 70
     1
102
RTVSPropertyOp23
 70
     1
102
RTVSPropertyOp24
 70
     1
102
RTVSPropertyOp25
 70
     1
102
RTVSPropertyOp26
 70
     1
102
RTVSPropertyOp27
 70
     1
  0
XRECORD
  5
701
102
{ACAD_REACTORS
330
700
102
}
330
700
100
AcDbXrecord
280
     1
102
RTVSPropertyOp0
 70
     1
102
RTVSPropertyOp1
 70
     1
102
RTVSPropertyOp2
 70
     1
102
RTVSPropertyOp3
 70
     1
102
RTVSPropertyOp4
 70
     1
102
RTVSPropertyOp5
 70
     1
102
RTVSPropertyOp6
 70
     1
102
RTVSPropertyOp7
 70
     1
102
RTVSPropertyOp8
 70
     1
102
RTVSPropertyOp9
 70
     1
102
RTVSPropertyOp10
 70
     1
102
RTVSPropertyOp11
 70
     1
102
RTVSPropertyOp12
 70
     1
102
RTVSPropertyOp13
 70
     1
102
RTVSPropertyOp14
 70
     1
102
RTVSPropertyOp15
 70
     1
102
RTVSPropertyOp16
 70
     1
102
RTVSPropertyOp17
 70
     1
102
RTVSPropertyOp18
 70
     1
102
RTVSPropertyOp19
 70
     1
102
RTVSPropertyOp20
 70
     1
102
RTVSPropertyOp21
 70
     1
102
RTVSPropertyOp22
 70
     1
102
RTVSPropertyOp23
 70
     1
102
RTVSPropertyOp24
 70
     1
102
RTVSPropertyOp25
 70
     1
102
RTVSPropertyOp26
 70
     1
102
RTVSPropertyOp27
 70
     1
  0
XRECORD
  5
711
102
{ACAD_REACTORS
330
710
102
}
330
710
100
AcDbXrecord
280
     1
102
RTVSPropertyOp0
 70
     0
102
RTVSPropertyOp1
 70
     0
102
RTVSPropertyOp2
 70
     0
102
RTVSPropertyOp3
 70
     0
102
RTVSPropertyOp4
 70
     0
102
RTVSPropertyOp5
 70
     0
102
RTVSPropertyOp6
 70
     0
102
RTVSPropertyOp7
 70
     0
102
RTVSPropertyOp8
 70
     0
102
RTVSPropertyOp9
 70
     0
102
RTVSPropertyOp10
 70
     0
102
RTVSPropertyOp11
 70
     0
102
RTVSPropertyOp12
 70
     0
102
RTVSPropertyOp13
 70
     0
102
RTVSPropertyOp14
 70
     2
102
RTVSPropertyOp15
 70
     0
102
RTVSPropertyOp16
 70
     0
102
RTVSPropertyOp17
 70
     0
102
RTVSPropertyOp18
 70
     0
102
RTVSPropertyOp19
 70
     0
102
RTVSPropertyOp20
 70
     0
102
RTVSPropertyOp21
 70
     0
102
RTVSPropertyOp22
 70
     0
102
RTVSPropertyOp23
 70
     0
102
RTVSPropertyOp24
 70
     0
102
RTVSPropertyOp25
 70
     0
102
RTVSPropertyOp26
 70
     0
102
RTVSPropertyOp27
 70
     0
  0
XRECORD
  5
709
102
{ACAD_REACTORS
330
708
102
}
330
708
100
AcDbXrecord
280
     1
102
RTVSPropertyOp0
 70
     1
102
RTVSPropertyOp1
 70
     1
102
RTVSPropertyOp2
 70
     1
102
RTVSPropertyOp3
 70
     1
102
RTVSPropertyOp4
 70
     1
102
RTVSPropertyOp5
 70
     1
102
RTVSPropertyOp6
 70
     1
102
RTVSPropertyOp7
 70
     1
102
RTVSPropertyOp8
 70
     1
102
RTVSPropertyOp9
 70
     1
102
RTVSPropertyOp10
 70
     1
102
RTVSPropertyOp11
 70
     1
102
RTVSPropertyOp12
 70
     1
102
RTVSPropertyOp13
 70
     1
102
RTVSPropertyOp14
 70
     1
102
RTVSPropertyOp15
 70
     1
102
RTVSPropertyOp16
 70
     1
102
RTVSPropertyOp17
 70
     1
102
RTVSPropertyOp18
 70
     1
102
RTVSPropertyOp19
 70
     1
102
RTVSPropertyOp20
 70
     1
102
RTVSPropertyOp21
 70
     1
102
RTVSPropertyOp22
 70
     1
102
RTVSPropertyOp23
 70
     1
102
RTVSPropertyOp24
 70
     1
102
RTVSPropertyOp25
 70
     1
102
RTVSPropertyOp26
 70
     1
102
RTVSPropertyOp27
 70
     1
  0
XRECORD
  5
6ED
102
{ACAD_REACTORS
330
6EC
102
}
330
6EC
100
AcDbXrecord
280
     1
102
RTVSPropertyOp0
 70
     1
102
RTVSPropertyOp1
 70
     1
102
RTVSPropertyOp2
 70
     1
102
RTVSPropertyOp3
 70
     1
102
RTVSPropertyOp4
 70
     1
102
RTVSPropertyOp5
 70
     1
102
RTVSPropertyOp6
 70
     1
102
RTVSPropertyOp7
 70
     1
102
RTVSPropertyOp8
 70
     1
102
RTVSPropertyOp9
 70
     1
102
RTVSPropertyOp10
 70
     1
102
RTVSPropertyOp11
 70
     1
102
RTVSPropertyOp12
 70
     1
102
RTVSPropertyOp13
 70
     1
102
RTVSPropertyOp14
 70
     1
102
RTVSPropertyOp15
 70
     1
102
RTVSPropertyOp16
 70
     1
102
RTVSPropertyOp17
 70
     1
102
RTVSPropertyOp18
 70
     1
102
RTVSPropertyOp19
 70
     1
102
RTVSPropertyOp20
 70
     1
102
RTVSPropertyOp21
 70
     1
102
RTVSPropertyOp22
 70
     1
102
RTVSPropertyOp23
 70
     1
102
RTVSPropertyOp24
 70
     1
102
RTVSPropertyOp25
 70
     1
102
RTVSPropertyOp26
 70
     1
102
RTVSPropertyOp27
 70
     1
  0
XRECORD
  5
6EF
102
{ACAD_REACTORS
330
6EE
102
}
330
6EE
100
AcDbXrecord
280
     1
102
RTVSPropertyOp0
 70
     1
102
RTVSPropertyOp1
 70
     1
102
RTVSPropertyOp2
 70
     1
102
RTVSPropertyOp3
 70
     1
102
RTVSPropertyOp4
 70
     1
102
RTVSPropertyOp5
 70
     1
102
RTVSPropertyOp6
 70
     1
102
RTVSPropertyOp7
 70
     1
102
RTVSPropertyOp8
 70
     1
102
RTVSPropertyOp9
 70
     1
102
RTVSPropertyOp10
 70
     1
102
RTVSPropertyOp11
 70
     1
102
RTVSPropertyOp12
 70
     1
102
RTVSPropertyOp13
 70
     1
102
RTVSPropertyOp14
 70
     1
102
RTVSPropertyOp15
 70
     1
102
RTVSPropertyOp16
 70
     1
102
RTVSPropertyOp17
 70
     1
102
RTVSPropertyOp18
 70
     1
102
RTVSPropertyOp19
 70
     1
102
RTVSPropertyOp20
 70
     1
102
RTVSPropertyOp21
 70
     1
102
RTVSPropertyOp22
 70
     1
102
RTVSPropertyOp23
 70
     1
102
RTVSPropertyOp24
 70
     1
102
RTVSPropertyOp25
 70
     1
102
RTVSPropertyOp26
 70
     1
102
RTVSPropertyOp27
 70
     1
  0
XRECORD
  5
6F1
102
{ACAD_REACTORS
330
6F0
102
}
330
6F0
100
AcDbXrecord
280
     1
102
RTVSPropertyOp0
 70
     1
102
RTVSPropertyOp1
 70
     1
102
RTVSPropertyOp2
 70
     1
102
RTVSPropertyOp3
 70
     1
102
RTVSPropertyOp4
 70
     1
102
RTVSPropertyOp5
 70
     1
102
RTVSPropertyOp6
 70
     1
102
RTVSPropertyOp7
 70
     1
102
RTVSPropertyOp8
 70
     1
102
RTVSPropertyOp9
 70
     1
102
RTVSPropertyOp10
 70
     1
102
RTVSPropertyOp11
 70
     1
102
RTVSPropertyOp12
 70
     1
102
RTVSPropertyOp13
 70
     1
102
RTVSPropertyOp14
 70
     1
102
RTVSPropertyOp15
 70
     1
102
RTVSPropertyOp16
 70
     1
102
RTVSPropertyOp17
 70
     1
102
RTVSPropertyOp18
 70
     1
102
RTVSPropertyOp19
 70
     1
102
RTVSPropertyOp20
 70
     1
102
RTVSPropertyOp21
 70
     1
102
RTVSPropertyOp22
 70
     1
102
RTVSPropertyOp23
 70
     1
102
RTVSPropertyOp24
 70
     1
102
RTVSPropertyOp25
 70
     1
102
RTVSPropertyOp26
 70
     1
102
RTVSPropertyOp27
 70
     1
  0
XRECORD
  5
6F3
102
{ACAD_REACTORS
330
6F2
102
}
330
6F2
100
AcDbXrecord
280
     1
102
RTVSPropertyOp0
 70
     1
102
RTVSPropertyOp1
 70
     1
102
RTVSPropertyOp2
 70
     1
102
RTVSPropertyOp3
 70
     1
102
RTVSPropertyOp4
 70
     1
102
RTVSPropertyOp5
 70
     1
102
RTVSPropertyOp6
 70
     1
102
RTVSPropertyOp7
 70
     1
102
RTVSPropertyOp8
 70
     1
102
RTVSPropertyOp9
 70
     1
102
RTVSPropertyOp10
 70
     1
102
RTVSPropertyOp11
 70
     1
102
RTVSPropertyOp12
 70
     1
102
RTVSPropertyOp13
 70
     1
102
RTVSPropertyOp14
 70
     1
102
RTVSPropertyOp15
 70
     1
102
RTVSPropertyOp16
 70
     1
102
RTVSPropertyOp17
 70
     1
102
RTVSPropertyOp18
 70
     1
102
RTVSPropertyOp19
 70
     1
102
RTVSPropertyOp20
 70
     1
102
RTVSPropertyOp21
 70
     1
102
RTVSPropertyOp22
 70
     1
102
RTVSPropertyOp23
 70
     1
102
RTVSPropertyOp24
 70
     1
102
RTVSPropertyOp25
 70
     1
102
RTVSPropertyOp26
 70
     1
102
RTVSPropertyOp27
 70
     1
  0
XRECORD
  5
70D
102
{ACAD_REACTORS
330
70C
102
}
330
70C
100
AcDbXrecord
280
     1
102
RTVSPropertyOp0
 70
     0
102
RTVSPropertyOp1
 70
     0
102
RTVSPropertyOp2
 70
     0
102
RTVSPropertyOp3
 70
     0
102
RTVSPropertyOp4
 70
     0
102
RTVSPropertyOp5
 70
     0
102
RTVSPropertyOp6
 70
     0
102
RTVSPropertyOp7
 70
     0
102
RTVSPropertyOp8
 70
     0
102
RTVSPropertyOp9
 70
     0
102
RTVSPropertyOp10
 70
     0
102
RTVSPropertyOp11
 70
     0
102
RTVSPropertyOp12
 70
     0
102
RTVSPropertyOp13
 70
     0
102
RTVSPropertyOp14
 70
     2
102
RTVSPropertyOp15
 70
     0
102
RTVSPropertyOp16
 70
     0
102
RTVSPropertyOp17
 70
     0
102
RTVSPropertyOp18
 70
     0
102
RTVSPropertyOp19
 70
     0
102
RTVSPropertyOp20
 70
     0
102
RTVSPropertyOp21
 70
     0
102
RTVSPropertyOp22
 70
     0
102
RTVSPropertyOp23
 70
     0
102
RTVSPropertyOp24
 70
     0
102
RTVSPropertyOp25
 70
     0
102
RTVSPropertyOp26
 70
     0
102
RTVSPropertyOp27
 70
     0
  0
XRECORD
  5
707
102
{ACAD_REACTORS
330
706
102
}
330
706
100
AcDbXrecord
280
     1
102
RTVSPropertyOp0
 70
     1
102
RTVSPropertyOp1
 70
     1
102
RTVSPropertyOp2
 70
     1
102
RTVSPropertyOp3
 70
     1
102
RTVSPropertyOp4
 70
     1
102
RTVSPropertyOp5
 70
     1
102
RTVSPropertyOp6
 70
     1
102
RTVSPropertyOp7
 70
     1
102
RTVSPropertyOp8
 70
     1
102
RTVSPropertyOp9
 70
     1
102
RTVSPropertyOp10
 70
     1
102
RTVSPropertyOp11
 70
     1
102
RTVSPropertyOp12
 70
     1
102
RTVSPropertyOp13
 70
     1
102
RTVSPropertyOp14
 70
     1
102
RTVSPropertyOp15
 70
     1
102
RTVSPropertyOp16
 70
     1
102
RTVSPropertyOp17
 70
     1
102
RTVSPropertyOp18
 70
     1
102
RTVSPropertyOp19
 70
     1
102
RTVSPropertyOp20
 70
     1
102
RTVSPropertyOp21
 70
     1
102
RTVSPropertyOp22
 70
     1
102
RTVSPropertyOp23
 70
     1
102
RTVSPropertyOp24
 70
     1
102
RTVSPropertyOp25
 70
     1
102
RTVSPropertyOp26
 70
     1
102
RTVSPropertyOp27
 70
     1
  0
XRECORD
  5
70F
102
{ACAD_REACTORS
330
70E
102
}
330
70E
100
AcDbXrecord
280
     1
102
RTVSPropertyOp0
 70
     0
102
RTVSPropertyOp1
 70
     0
102
RTVSPropertyOp2
 70
     0
102
RTVSPropertyOp3
 70
     0
102
RTVSPropertyOp4
 70
     0
102
RTVSPropertyOp5
 70
     0
102
RTVSPropertyOp6
 70
     0
102
RTVSPropertyOp7
 70
     0
102
RTVSPropertyOp8
 70
     0
102
RTVSPropertyOp9
 70
     0
102
RTVSPropertyOp10
 70
     0
102
RTVSPropertyOp11
 70
     0
102
RTVSPropertyOp12
 70
     0
102
RTVSPropertyOp13
 70
     0
102
RTVSPropertyOp14
 70
     2
102
RTVSPropertyOp15
 70
     0
102
RTVSPropertyOp16
 70
     0
102
RTVSPropertyOp17
 70
     0
102
RTVSPropertyOp18
 70
     0
102
RTVSPropertyOp19
 70
     0
102
RTVSPropertyOp20
 70
     0
102
RTVSPropertyOp21
 70
     0
102
RTVSPropertyOp22
 70
     0
102
RTVSPropertyOp23
 70
     0
102
RTVSPropertyOp24
 70
     0
102
RTVSPropertyOp25
 70
     0
102
RTVSPropertyOp26
 70
     0
102
RTVSPropertyOp27
 70
     0
  0
XRECORD
  5
6FF
102
{ACAD_REACTORS
330
6FE
102
}
330
6FE
100
AcDbXrecord
280
     1
102
RTVSPropertyOp0
 70
     1
102
RTVSPropertyOp1
 70
     1
102
RTVSPropertyOp2
 70
     1
102
RTVSPropertyOp3
 70
     1
102
RTVSPropertyOp4
 70
     1
102
RTVSPropertyOp5
 70
     1
102
RTVSPropertyOp6
 70
     1
102
RTVSPropertyOp7
 70
     1
102
RTVSPropertyOp8
 70
     1
102
RTVSPropertyOp9
 70
     1
102
RTVSPropertyOp10
 70
     1
102
RTVSPropertyOp11
 70
     1
102
RTVSPropertyOp12
 70
     1
102
RTVSPropertyOp13
 70
     1
102
RTVSPropertyOp14
 70
     1
102
RTVSPropertyOp15
 70
     1
102
RTVSPropertyOp16
 70
     1
102
RTVSPropertyOp17
 70
     1
102
RTVSPropertyOp18
 70
     1
102
RTVSPropertyOp19
 70
     1
102
RTVSPropertyOp20
 70
     1
102
RTVSPropertyOp21
 70
     1
102
RTVSPropertyOp22
 70
     1
102
RTVSPropertyOp23
 70
     1
102
RTVSPropertyOp24
 70
     1
102
RTVSPropertyOp25
 70
     1
102
RTVSPropertyOp26
 70
     1
102
RTVSPropertyOp27
 70
     1
  0
XRECORD
  5
705
102
{ACAD_REACTORS
330
704
102
}
330
704
100
AcDbXrecord
280
     1
102
RTVSPropertyOp0
 70
     1
102
RTVSPropertyOp1
 70
     1
102
RTVSPropertyOp2
 70
     1
102
RTVSPropertyOp3
 70
     1
102
RTVSPropertyOp4
 70
     1
102
RTVSPropertyOp5
 70
     1
102
RTVSPropertyOp6
 70
     1
102
RTVSPropertyOp7
 70
     1
102
RTVSPropertyOp8
 70
     1
102
RTVSPropertyOp9
 70
     1
102
RTVSPropertyOp10
 70
     1
102
RTVSPropertyOp11
 70
     1
102
RTVSPropertyOp12
 70
     1
102
RTVSPropertyOp13
 70
     1
102
RTVSPropertyOp14
 70
     1
102
RTVSPropertyOp15
 70
     1
102
RTVSPropertyOp16
 70
     1
102
RTVSPropertyOp17
 70
     1
102
RTVSPropertyOp18
 70
     1
102
RTVSPropertyOp19
 70
     1
102
RTVSPropertyOp20
 70
     1
102
RTVSPropertyOp21
 70
     1
102
RTVSPropertyOp22
 70
     1
102
RTVSPropertyOp23
 70
     1
102
RTVSPropertyOp24
 70
     1
102
RTVSPropertyOp25
 70
     1
102
RTVSPropertyOp26
 70
     1
102
RTVSPropertyOp27
 70
     1
  0
ENDSEC
  0
EOF
