  0
SECTION
  2
HEADER
  9
$ACADVER
  1
AC1015
  9
$ACADMAINTVER
 70
    20
  9
$DWGCODEPAGE
  3
ANSI_1252
  9
$INSBASE
 10
0.0
 20
0.0
 30
0.0
  9
$EXTMIN
 10
141.8525273064979
 20
591.4632383370067
 30
0.0
  9
$EXTMAX
 10
144.6935410274019
 20
592.3336324540127
 30
0.0
  9
$LIMMIN
 10
0.0
 20
0.0
  9
$LIMMAX
 10
420.0
 20
297.0
  9
$ORTHOMODE
 70
     1
  9
$REGENMODE
 70
     1
  9
$FILLMODE
 70
     1
  9
$QTEXTMODE
 70
     0
  9
$MIRRTEXT
 70
     0
  9
$LTSCALE
 40
1.0
  9
$ATTMODE
 70
     1
  9
$TEXTSIZE
 40
2.5
  9
$TRACEWID
 40
1.0
  9
$TEXTSTYLE
  7
Standard
  9
$CLAYER
  8
0
  9
$CELTYPE
  6
ByLayer
  9
$CECOLOR
 62
   256
  9
$CELTSCALE
 40
1.0
  9
$DISPSILH
 70
     0
  9
$DIMSCALE
 40
1.0
  9
$DIMASZ
 40
2.5
  9
$DIMEXO
 40
0.625
  9
$DIMDLI
 40
3.75
  9
$DIMRND
 40
0.0
  9
$DIMDLE
 40
0.0
  9
$DIMEXE
 40
1.25
  9
$DIMTP
 40
0.0
  9
$DIMTM
 40
0.0
  9
$DIMTXT
 40
2.5
  9
$DIMCEN
 40
2.5
  9
$DIMTSZ
 40
0.0
  9
$DIMTOL
 70
     0
  9
$DIMLIM
 70
     0
  9
$DIMTIH
 70
     0
  9
$DIMTOH
 70
     0
  9
$DIMSE1
 70
     0
  9
$DIMSE2
 70
     0
  9
$DIMTAD
 70
     1
  9
$DIMZIN
 70
     8
  9
$DIMBLK
  1

  9
$DIMASO
 70
     1
  9
$DIMSHO
 70
     1
  9
$DIMPOST
  1

  9
$DIMAPOST
  1

  9
$DIMALT
 70
     0
  9
$DIMALTD
 70
     3
  9
$DIMALTF
 40
0.03937007874016
  9
$DIMLFAC
 40
1.0
  9
$DIMTOFL
 70
     1
  9
$DIMTVP
 40
0.0
  9
$DIMTIX
 70
     0
  9
$DIMSOXD
 70
     0
  9
$DIMSAH
 70
     0
  9
$DIMBLK1
  1

  9
$DIMBLK2
  1

  9
$DIMSTYLE
  2
ISO-25
  9
$DIMCLRD
 70
     0
  9
$DIMCLRE
 70
     0
  9
$DIMCLRT
 70
     0
  9
$DIMTFAC
 40
1.0
  9
$DIMGAP
 40
0.625
  9
$DIMJUST
 70
     0
  9
$DIMSD1
 70
     0
  9
$DIMSD2
 70
     0
  9
$DIMTOLJ
 70
     0
  9
$DIMTZIN
 70
     8
  9
$DIMALTZ
 70
     0
  9
$DIMALTTZ
 70
     0
  9
$DIMUPT
 70
     0
  9
$DIMDEC
 70
     2
  9
$DIMTDEC
 70
     2
  9
$DIMALTU
 70
     2
  9
$DIMALTTD
 70
     3
  9
$DIMTXSTY
  7
Standard
  9
$DIMAUNIT
 70
     0
  9
$DIMADEC
 70
     0
  9
$DIMALTRND
 40
0.0
  9
$DIMAZIN
 70
     0
  9
$DIMDSEP
 70
    44
  9
$DIMATFIT
 70
     3
  9
$DIMFRAC
 70
     0
  9
$DIMLDRBLK
  1

  9
$DIMLUNIT
 70
     2
  9
$DIMLWD
 70
    -2
  9
$DIMLWE
 70
    -2
  9
$DIMTMOVE
 70
     0
  9
$LUNITS
 70
     2
  9
$LUPREC
 70
     4
  9
$SKETCHINC
 40
1.0
  9
$FILLETRAD
 40
0.0
  9
$AUNITS
 70
     0
  9
$AUPREC
 70
     0
  9
$MENU
  1
.
  9
$ELEVATION
 40
0.0
  9
$PELEVATION
 40
0.0
  9
$THICKNESS
 40
0.0
  9
$LIMCHECK
 70
     0
  9
$CHAMFERA
 40
0.0
  9
$CHAMFERB
 40
0.0
  9
$CHAMFERC
 40
0.0
  9
$CHAMFERD
 40
0.0
  9
$SKPOLY
 70
     0
  9
$TDCREATE
 40
2453797.519417488
  9
$TDUCREATE
 40
2453797.477750822
  9
$TDUPDATE
 40
2456149.580104884
  9
$TDUUPDATE
 40
2456149.538438218
  9
$TDINDWG
 40
0.0091418866
  9
$TDUSRTIMER
 40
0.0091418866
  9
$USRTIMER
 70
     1
  9
$ANGBASE
 50
0.0
  9
$ANGDIR
 70
     0
  9
$PDMODE
 70
     0
  9
$PDSIZE
 40
0.0
  9
$PLINEWID
 40
0.0
  9
$SPLFRAME
 70
     0
  9
$SPLINETYPE
 70
     6
  9
$SPLINESEGS
 70
     8
  9
$HANDSEED
  5
785
  9
$SURFTAB1
 70
     6
  9
$SURFTAB2
 70
     6
  9
$SURFTYPE
 70
     6
  9
$SURFU
 70
     6
  9
$SURFV
 70
     6
  9
$UCSBASE
  2

  9
$UCSNAME
  2

  9
$UCSORG
 10
0.0
 20
0.0
 30
0.0
  9
$UCSXDIR
 10
1.0
 20
0.0
 30
0.0
  9
$UCSYDIR
 10
0.0
 20
1.0
 30
0.0
  9
$UCSORTHOREF
  2

  9
$UCSORTHOVIEW
 70
     0
  9
$UCSORGTOP
 10
0.0
 20
0.0
 30
0.0
  9
$UCSORGBOTTOM
 10
0.0
 20
0.0
 30
0.0
  9
$UCSORGLEFT
 10
0.0
 20
0.0
 30
0.0
  9
$UCSORGRIGHT
 10
0.0
 20
0.0
 30
0.0
  9
$UCSORGFRONT
 10
0.0
 20
0.0
 30
0.0
  9
$UCSORGBACK
 10
0.0
 20
0.0
 30
0.0
  9
$PUCSBASE
  2

  9
$PUCSNAME
  2

  9
$PUCSORG
 10
0.0
 20
0.0
 30
0.0
  9
$PUCSXDIR
 10
1.0
 20
0.0
 30
0.0
  9
$PUCSYDIR
 10
0.0
 20
1.0
 30
0.0
  9
$PUCSORTHOREF
  2

  9
$PUCSORTHOVIEW
 70
     0
  9
$PUCSORGTOP
 10
0.0
 20
0.0
 30
0.0
  9
$PUCSORGBOTTOM
 10
0.0
 20
0.0
 30
0.0
  9
$PUCSORGLEFT
 10
0.0
 20
0.0
 30
0.0
  9
$PUCSORGRIGHT
 10
0.0
 20
0.0
 30
0.0
  9
$PUCSORGFRONT
 10
0.0
 20
0.0
 30
0.0
  9
$PUCSORGBACK
 10
0.0
 20
0.0
 30
0.0
  9
$USERI1
 70
     0
  9
$USERI2
 70
     0
  9
$USERI3
 70
     0
  9
$USERI4
 70
     0
  9
$USERI5
 70
     0
  9
$USERR1
 40
0.0
  9
$USERR2
 40
0.0
  9
$USERR3
 40
0.0
  9
$USERR4
 40
0.0
  9
$USERR5
 40
0.0
  9
$WORLDVIEW
 70
     1
  9
$SHADEDGE
 70
     3
  9
$SHADEDIF
 70
    70
  9
$TILEMODE
 70
     1
  9
$MAXACTVP
 70
    64
  9
$PINSBASE
 10
0.0
 20
0.0
 30
0.0
  9
$PLIMCHECK
 70
     0
  9
$PEXTMIN
 10
1.000000000000000E+20
 20
1.000000000000000E+20
 30
1.000000000000000E+20
  9
$PEXTMAX
 10
-1.000000000000000E+20
 20
-1.000000000000000E+20
 30
-1.000000000000000E+20
  9
$PLIMMIN
 10
0.0
 20
0.0
  9
$PLIMMAX
 10
420.0
 20
297.0
  9
$UNITMODE
 70
     0
  9
$VISRETAIN
 70
     1
  9
$PLINEGEN
 70
     0
  9
$PSLTSCALE
 70
     1
  9
$TREEDEPTH
 70
  3020
  9
$CMLSTYLE
  2
Standard
  9
$CMLJUST
 70
     0
  9
$CMLSCALE
 40
20.0
  9
$PROXYGRAPHICS
 70
     1
  9
$MEASUREMENT
 70
     1
  9
$CELWEIGHT
370
    -1
  9
$ENDCAPS
280
     0
  9
$JOINSTYLE
280
     0
  9
$LWDISPLAY
290
     0
  9
$INSUNITS
 70
     4
  9
$HYPERLINKBASE
  1

  9
$STYLESHEET
  1

  9
$XEDIT
290
     1
  9
$CEPSNTYPE
380
     0
  9
$PSTYLEMODE
290
     1
  9
$FINGERPRINTGUID
  2
{D2E37D07-2571-489A-857E-82B1FBC7306E}
  9
$VERSIONGUID
  2
{A03D35D9-ABBE-435E-AB7B-5DAD8EB44469}
  9
$EXTNAMES
290
     1
  9
$PSVPSCALE
 40
0.0
  9
$OLESTARTUP
290
     0
  0
ENDSEC
  0
SECTION
  2
CLASSES
  0
CLASS
  1
ACDBDICTIONARYWDFLT
  2
AcDbDictionaryWithDefault
  3
ObjectDBX Classes
 90
        0
280
     0
281
     0
  0
CLASS
  1
TABLESTYLE
  2
AcDbTableStyle
  3
ObjectDBX Classes
 90
     4095
280
     0
281
     0
  0
CLASS
  1
DICTIONARYVAR
  2
AcDbDictionaryVar
  3
ObjectDBX Classes
 90
        0
280
     0
281
     0
  0
CLASS
  1
SORTENTSTABLE
  2
AcDbSortentsTable
  3
ObjectDBX Classes
 90
        0
280
     0
281
     0
  0
CLASS
  1
ACDBPLACEHOLDER
  2
AcDbPlaceHolder
  3
ObjectDBX Classes
 90
        0
280
     0
281
     0
  0
CLASS
  1
LAYOUT
  2
AcDbLayout
  3
ObjectDBX Classes
 90
        0
280
     0
281
     0
  0
CLASS
  1
MATERIAL
  2
AcDbMaterial
  3
ObjectDBX Classes
 90
     1153
280
     0
281
     0
  0
CLASS
  1
VISUALSTYLE
  2
AcDbVisualStyle
  3
ObjectDBX Classes
 90
     4095
280
     0
281
     0
  0
CLASS
  1
SCALE
  2
AcDbScale
  3
ObjectDBX Classes
 90
     1153
280
     0
281
     0
  0
CLASS
  1
MLEADERSTYLE
  2
AcDbMLeaderStyle
  3
ACDB_MLEADERSTYLE_CLASS
 90
     4095
280
     0
281
     0
  0
CLASS
  1
CELLSTYLEMAP
  2
AcDbCellStyleMap
  3
ObjectDBX Classes
 90
     1152
280
     0
281
     0
  0
ENDSEC
  0
SECTION
  2
TABLES
  0
TABLE
  2
VPORT
  5
8
330
0
100
AcDbSymbolTable
 70
     1
  0
VPORT
  5
6FA
330
8
100
AcDbSymbolTableRecord
100
AcDbViewportTableRecord
  2
*Active
 70
     0
 10
0.0
 20
0.0
 11
1.0
 21
1.0
 12
143.3232332262453
 22
591.8997960677178
 13
0.0
 23
0.0
 14
10.0
 24
10.0
 15
10.0
 25
10.0
 16
0.0
 26
0.0
 36
1.0
 17
0.0
 27
0.0
 37
0.0
 40
1.805061093135509
 41
1.645464025026068
 42
50.0
 43
0.0
 44
0.0
 50
0.0
 51
0.0
 71
     0
 72
  1000
 73
     1
 74
     3
 75
     0
 76
     0
 77
     0
 78
     0
281
     0
 65
     1
110
0.0
120
0.0
130
0.0
111
1.0
121
0.0
131
0.0
112
0.0
122
1.0
132
0.0
 79
     0
146
0.0
  0
ENDTAB
  0
TABLE
  2
LTYPE
  5
5
330
0
100
AcDbSymbolTable
 70
     2
  0
LTYPE
  5
14
330
5
100
AcDbSymbolTableRecord
100
AcDbLinetypeTableRecord
  2
ByBlock
 70
     0
  3

 72
    65
 73
     0
 40
0.0
  0
LTYPE
  5
15
330
5
100
AcDbSymbolTableRecord
100
AcDbLinetypeTableRecord
  2
ByLayer
 70
     0
  3

 72
    65
 73
     0
 40
0.0
  0
LTYPE
  5
16
330
5
100
AcDbSymbolTableRecord
100
AcDbLinetypeTableRecord
  2
Continuous
 70
     0
  3
Solid line
 72
    65
 73
     0
 40
0.0
  0
LTYPE
  5
2F
330
5
100
AcDbSymbolTableRecord
100
AcDbLinetypeTableRecord
  2
HIDDEN
 70
     0
  3
Hidden __ __ __ __ __ __ __ __ __ __ __ __ __ __
 72
    65
 73
     2
 40
1.905
 49
1.27
 74
     0
 49
-0.635
 74
     0
  0
ENDTAB
  0
TABLE
  2
LAYER
  5
2
330
0
100
AcDbSymbolTable
 70
     3
  0
LAYER
  5
10
102
{ACAD_XDICTIONARY
360
745
102
}
330
2
100
AcDbSymbolTableRecord
100
AcDbLayerTableRecord
  2
0
 70
     0
 62
     7
  6
Continuous
370
    -3
390
F
  0
LAYER
  5
30
102
{ACAD_XDICTIONARY
360
747
102
}
330
2
100
AcDbSymbolTableRecord
100
AcDbLayerTableRecord
  2
FORMAT
 70
     0
 62
     7
  6
Continuous
370
    -3
390
F
  0
LAYER
  5
6BA
102
{ACAD_XDICTIONARY
360
749
102
}
330
2
100
AcDbSymbolTableRecord
100
AcDbLayerTableRecord
  2
sanindusa
 70
     0
 62
     3
  6
Continuous
370
    -3
390
F
  0
ENDTAB
  0
TABLE
  2
STYLE
  5
3
330
0
100
AcDbSymbolTable
 70
     2
  0
STYLE
  5
11
330
3
100
AcDbSymbolTableRecord
100
AcDbTextStyleTableRecord
  2
Standard
 70
     0
 40
0.0
 41
1.0
 50
0.0
 71
     0
 42
2.5
  3
txt
  4

  0
STYLE
  5
31
330
3
100
AcDbSymbolTableRecord
100
AcDbTextStyleTableRecord
  2
SLDTEXTSTYLE0
 70
     0
 40
0.0
 41
0.75
 50
0.0
 71
     0
 42
0.0
  3
TXT
  4

  0
ENDTAB
  0
TABLE
  2
VIEW
  5
6
330
0
100
AcDbSymbolTable
 70
     0
  0
ENDTAB
  0
TABLE
  2
UCS
  5
7
330
0
100
AcDbSymbolTable
 70
     0
  0
ENDTAB
  0
TABLE
  2
APPID
  5
9
330
0
100
AcDbSymbolTable
 70
     4
  0
APPID
  5
12
330
9
100
AcDbSymbolTableRecord
100
AcDbRegAppTableRecord
  2
ACAD
 70
     0
  0
APPID
  5
33
330
9
100
AcDbSymbolTableRecord
100
AcDbRegAppTableRecord
  2
DCO15
 70
     0
  0
APPID
  5
6C5
330
9
100
AcDbSymbolTableRecord
100
AcDbRegAppTableRecord
  2
ACAD_EXEMPT_FROM_CAD_STANDARDS
 70
     0
  0
APPID
  5
784
330
9
100
AcDbSymbolTableRecord
100
AcDbRegAppTableRecord
  2
ACAD_MLEADERVER
 70
     0
  0
ENDTAB
  0
TABLE
  2
DIMSTYLE
  5
A
330
0
100
AcDbSymbolTable
 70
     2
100
AcDbDimStyleTable
 71
     1
340
2B
  0
DIMSTYLE
105
2B
330
A
100
AcDbSymbolTableRecord
100
AcDbDimStyleTableRecord
  2
ISO-25
 70
     0
 41
2.5
 42
0.625
 43
3.75
 44
1.25
 73
     0
 74
     0
 77
     1
 78
     8
140
2.5
141
2.5
143
0.03937007874016
147
0.625
171
     3
172
     1
271
     2
272
     2
274
     3
278
    44
283
     0
284
     8
340
11
  0
DIMSTYLE
105
32
330
A
100
AcDbSymbolTableRecord
100
AcDbDimStyleTableRecord
  2
STANDARD
 70
     0
340
11
  0
ENDTAB
  0
TABLE
  2
BLOCK_RECORD
  5
1
330
0
100
AcDbSymbolTable
 70
     1
  0
BLOCK_RECORD
  5
23
102
{ACAD_XDICTIONARY
360
6CD
102
}
330
1
100
AcDbSymbolTableRecord
100
AcDbBlockTableRecord
  2
*Model_Space
340
26
  0
BLOCK_RECORD
  5
1F
330
1
100
AcDbSymbolTableRecord
100
AcDbBlockTableRecord
  2
*Paper_Space
340
22
  0
BLOCK_RECORD
  5
27
330
1
100
AcDbSymbolTableRecord
100
AcDbBlockTableRecord
  2
*Paper_Space0
340
2A
  0
ENDTAB
  0
ENDSEC
  0
SECTION
  2
BLOCKS
  0
BLOCK
  5
24
330
23
100
AcDbEntity
  8
0
100
AcDbBlockBegin
  2
*Model_Space
 70
     0
 10
0.0
 20
0.0
 30
0.0
  3
*Model_Space
  1

  0
ENDBLK
  5
25
330
23
100
AcDbEntity
  8
0
100
AcDbBlockEnd
  0
BLOCK
  5
20
330
1F
100
AcDbEntity
 67
     1
  8
0
100
AcDbBlockBegin
  2
*Paper_Space
 70
     0
 10
0.0
 20
0.0
 30
0.0
  3
*Paper_Space
  1

  0
ENDBLK
  5
21
330
1F
100
AcDbEntity
 67
     1
  8
0
100
AcDbBlockEnd
  0
BLOCK
  5
28
330
27
100
AcDbEntity
 67
     1
  8
0
100
AcDbBlockBegin
  2
*Paper_Space0
 70
     0
 10
0.0
 20
0.0
 30
0.0
  3
*Paper_Space0
  1

  0
ENDBLK
  5
29
330
27
100
AcDbEntity
 67
     1
  8
0
100
AcDbBlockEnd
  0
ENDSEC
  0
SECTION
  2
ENTITIES
  0
LINE
  5
384
330
23
100
AcDbEntity
  8
sanindusa
100
AcDbLine
 10
142.8113409153097
 20
591.5086303097455
 30
0.0
 11
143.0574974933165
 21
591.5086303097455
 31
0.0
  0
LINE
  5
389
330
23
100
AcDbEntity
  8
sanindusa
100
AcDbLine
 10
142.8067672034248
 20
591.4632383370067
 30
0.0
 11
143.0620697862343
 21
591.4632383370067
 31
0.0
  0
LINE
  5
38B
330
23
100
AcDbEntity
  8
sanindusa
100
AcDbLine
 10
143.0316473679745
 20
591.5108464944016
 30
0.0
 11
142.8372003414804
 21
591.5108464944016
 31
0.0
  0
LWPOLYLINE
  5
391
330
23
100
AcDbEntity
  8
sanindusa
100
AcDbPolyline
 90
       56
 70
   128
 43
0.0
 10
143.0447479989264
 20
592.0826486390449
 10
143.0444634177973
 20
592.0826486390449
 10
143.0438279776268
 20
592.0826486390449
 10
143.0428437044049
 20
592.0826486390449
 10
143.0415137363153
 20
592.0826486390449
 10
143.0398423137291
 20
592.0826486390449
 10
143.0378347656857
 20
592.0826486390449
 10
143.035497492902
 20
592.0826486390449
 10
143.0328379473643
 20
592.0826486390449
 10
143.0298646085699
 20
592.0826486390449
 10
143.0265869564907
 20
592.0826486390449
 10
143.0230154413487
 20
592.0826486390449
 10
143.0191614502969
 20
592.0826486390449
 10
143.0150372711136
 20
592.0826486390449
 10
143.0106560530247
 20
592.0826486390449
 10
143.0060317647799
 20
592.0826486390449
 10
143.0011791501155
 20
592.0826486390449
 10
142.9961136807469
 20
592.0826486390449
 10
142.9908515070398
 20
592.0826486390449
 10
142.9854094065169
 20
592.0826486390449
 10
142.9798047303667
 20
592.0826486390449
 10
142.9740553481213
 20
592.0826486390449
 10
142.9681795906831
 20
592.0826486390449
 10
142.9621961918799
 20
592.0826486390449
 10
142.956124228735
 20
592.0826486390449
 10
142.9499830606437
 20
592.0826486390449
 10
142.9437922676493
 20
592.0826486390449
 10
142.9375715880153
 20
592.0826486390449
 10
142.9313408552937
 20
592.0826486390449
 10
142.9251199350889
 20
592.0826486390449
 10
142.9189286617199
 20
592.0826486390449
 10
142.9127867749818
 20
592.0826486390449
 10
142.9067138572092
 20
592.0826486390449
 10
142.900729270841
 20
592.0826486390449
 10
142.8948520966871
 20
592.0826486390449
 10
142.8891010730919
 20
592.0826486390449
 10
142.883494536191
 20
592.0826486390449
 10
142.8780503614495
 20
592.0826486390449
 10
142.8727859066688
 20
592.0826486390449
 10
142.8677179566447
 20
592.0826486390449
 10
142.8628626696518
 20
592.0826486390449
 10
142.8582355259259
 20
592.0826486390449
 10
142.8538512783074
 20
592.0826486390449
 10
142.8497239052053
 20
592.0826486390449
 10
142.8458665660286
 20
592.0826486390449
 10
142.8422915592306
 20
592.0826486390449
 10
142.8390102830968
 20
592.0826486390449
 10
142.8360331994037
 20
592.0826486390449
 10
142.8333698000635
 20
592.0826486390449
 10
142.8310285768604
 20
592.0826486390449
 10
142.829016994376
 20
592.0826486390449
 10
142.8273414661904
 20
592.0826486390449
 10
142.8260073344329
 20
592.0826486390449
 10
142.8250188527498
 20
592.0826486390449
 10
142.8243791727425
 20
592.0826486390449
 10
142.8240903421488
 20
592.0826486379224
  0
LINE
  5
399
330
23
100
AcDbEntity
  8
sanindusa
100
AcDbLine
 10
142.8374440129573
 20
592.0808279601525
 30
0.0
 11
143.031398852071
 21
592.0808279601525
 31
0.0
  0
LINE
  5
3AD
330
23
100
AcDbEntity
  8
sanindusa
100
AcDbLine
 10
142.8095235835681
 20
591.508630307946
 30
0.0
 11
142.8113395012289
 21
591.508630307946
 31
0.0
  0
ARC
  5
3AE
330
23
100
AcDbEntity
  8
sanindusa
100
AcDbCircle
 10
143.1424697503284
 20
587.8358469464501
 30
0.0
 40
3.687843647776051
100
AcDbArc
 50
94.79000886838978
 51
95.17983470422953
  0
LINE
  5
3AF
330
23
100
AcDbEntity
  8
sanindusa
100
AcDbLine
 10
142.8349375408272
 20
591.5108463660673
 30
0.0
 11
142.834519775947
 21
591.5108105631027
 31
0.0
  0
LINE
  5
3B0
330
23
100
AcDbEntity
  8
sanindusa
100
AcDbLine
 10
142.8371895749512
 20
591.5108463660673
 30
0.0
 11
142.8349375408272
 21
591.5108463660673
 31
0.0
  0
LWPOLYLINE
  5
3B2
330
23
100
AcDbEntity
  8
sanindusa
100
AcDbPolyline
 90
        9
 70
   128
 43
0.0
 10
142.8095235835681
 20
591.508630307946
 10
142.8086114499173
 20
591.5084658699619
 10
142.8077453419188
 20
591.5081358555398
 10
142.8069550287831
 20
591.5076516076864
 10
142.8062676745571
 20
591.5070297706036
 10
142.8057069044616
 20
591.5062917176065
 10
142.8052919928633
 20
591.5054628164957
 10
142.8050372007905
 20
591.5045715576347
 10
142.804951285764
 20
591.5036485747009
  0
LINE
  5
3B3
330
23
100
AcDbEntity
  8
sanindusa
100
AcDbLine
 10
142.804951285764
 20
591.5036485747009
 30
0.0
 11
142.804951285764
 21
591.4632383370067
 31
0.0
  0
LINE
  5
3B4
330
23
100
AcDbEntity
  8
sanindusa
100
AcDbLine
 10
142.804951285764
 20
591.4632383370067
 30
0.0
 11
142.8067672034248
 21
591.4632383370067
 31
0.0
  0
LINE
  5
3B8
330
23
100
AcDbEntity
  8
sanindusa
100
AcDbLine
 10
143.0638857038951
 20
591.4632383370067
 30
0.0
 11
143.0638857038951
 21
591.5036485747009
 31
0.0
  0
LINE
  5
3B9
330
23
100
AcDbEntity
  8
sanindusa
100
AcDbLine
 10
143.0620697862343
 20
591.4632383370067
 30
0.0
 11
143.0638857038951
 21
591.4632383370067
 31
0.0
  0
LINE
  5
3BA
330
23
100
AcDbEntity
  8
sanindusa
100
AcDbLine
 10
143.0574988863083
 20
591.5086303075351
 30
0.0
 11
143.059313406091
 21
591.508630307946
 31
0.0
  0
LWPOLYLINE
  5
3BB
330
23
100
AcDbEntity
  8
sanindusa
100
AcDbPolyline
 90
        9
 70
   128
 43
0.0
 10
143.0638857038951
 20
591.5036485747009
 10
143.0637997888686
 20
591.5045715576347
 10
143.0635449967958
 20
591.5054628164957
 10
143.0631300851975
 20
591.5062917176065
 10
143.062569315102
 20
591.5070297706036
 10
143.061881960876
 20
591.5076516076864
 10
143.0610916477403
 20
591.5081358555398
 10
143.0602255397418
 20
591.5084658699619
 10
143.059313406091
 20
591.508630307946
  0
LINE
  5
3BE
330
23
100
AcDbEntity
  8
sanindusa
100
AcDbLine
 10
143.0338994488319
 20
591.5108463660673
 30
0.0
 11
143.0316473679745
 21
591.5108464944016
 31
0.0
  0
LINE
  5
3BF
330
23
100
AcDbEntity
  8
sanindusa
100
AcDbLine
 10
143.0343172137121
 20
591.5108105631027
 30
0.0
 11
143.0338994488319
 21
591.5108463660673
 31
0.0
  0
ARC
  5
3C0
330
23
100
AcDbEntity
  8
sanindusa
100
AcDbCircle
 10
142.7263672393299
 20
587.8358469464403
 30
0.0
 40
3.687843647785855
100
AcDbArc
 50
84.82016529577048
 51
85.20999113161023
  0
LINE
  5
3C5
330
23
100
AcDbEntity
  8
sanindusa
100
AcDbLine
 10
142.8240889988059
 20
592.0826486414645
 30
0.0
 11
142.8221172040923
 21
592.0826486414645
 31
0.0
  0
LWPOLYLINE
  5
3C6
330
23
100
AcDbEntity
  8
sanindusa
100
AcDbPolyline
 90
        9
 70
   128
 43
0.0
 10
142.8221172040923
 20
592.0826486414645
 10
142.821244123631
 20
592.0828487117286
 10
142.8204207532681
 20
592.0832013936557
 10
142.8196735241752
 20
592.0836953657347
 10
142.8190264232984
 20
592.0843147708722
 10
142.8185002233486
 20
592.0850397254234
 10
142.8181118159724
 20
592.0858469574819
 10
142.8178736695103
 20
592.0867105539348
 10
142.8177934287482
 20
592.0876027923046
  0
LINE
  5
3C7
330
23
100
AcDbEntity
  8
sanindusa
100
AcDbLine
 10
142.8351909174946
 20
592.0808280325489
 30
0.0
 11
142.8374380974112
 21
592.0808280325489
 31
0.0
  0
ARC
  5
3C8
330
23
100
AcDbEntity
  8
sanindusa
100
AcDbCircle
 10
142.9759445741735
 20
593.1394251045296
 30
0.0
 40
1.067913551124156
100
AcDbArc
 50
261.718031699219
 51
262.4262367043046
  0
LINE
  5
3C9
330
23
100
AcDbEntity
  8
sanindusa
100
AcDbLine
 10
143.0467197855668
 20
592.0826486414645
 30
0.0
 11
143.0447493161284
 21
592.0826486425436
 31
0.0
  0
LWPOLYLINE
  5
3CA
330
23
100
AcDbEntity
  8
sanindusa
100
AcDbPolyline
 90
        9
 70
   128
 43
0.0
 10
143.0510435609108
 20
592.0876027923046
 10
143.0509633201487
 20
592.0867105539348
 10
143.0507251736867
 20
592.0858469574819
 10
143.0503367663105
 20
592.0850397254234
 10
143.0498105663607
 20
592.0843147708722
 10
143.0491634654839
 20
592.0836953657347
 10
143.048416236391
 20
592.0832013936557
 10
143.047592866028
 20
592.0828487117286
 10
143.0467197855668
 20
592.0826486414645
  0
LINE
  5
3CB
330
23
100
AcDbEntity
  8
sanindusa
100
AcDbLine
 10
143.031398852071
 20
592.0808279601525
 30
0.0
 11
143.0336460721645
 21
592.0808280325489
 31
0.0
  0
ARC
  5
3CC
330
23
100
AcDbEntity
  8
sanindusa
100
AcDbCircle
 10
142.8928924154846
 20
593.1394251045368
 30
0.0
 40
1.067913551131363
100
AcDbArc
 50
277.5737632956953
 51
278.281968300781
  0
ARC
  5
3CD
330
23
100
AcDbEntity
  8
sanindusa
100
AcDbCircle
 10
142.8345117233894
 20
591.5158291058199
 30
0.0
 40
0.0050009015120598
100
AcDbArc
 50
274.8845432695585
 51
359.9884683561437
  0
ARC
  5
3D2
330
23
100
AcDbEntity
  8
sanindusa
100
AcDbCircle
 10
142.8345127968369
 20
592.0758733719829
 30
0.0
 40
0.004999827989235
100
AcDbArc
 50
0.0
 51
64.6819448481414
  0
LWPOLYLINE
  5
3D3
330
23
100
AcDbEntity
  8
sanindusa
100
AcDbPolyline
 90
        3
 70
   128
 43
0.0
 10
142.8351909174946
 20
592.0808280325489
 10
142.8362590764047
 20
592.0805585252916
 10
142.8366509369694
 20
592.080392955669
  0
LWPOLYLINE
  5
3D7
330
23
100
AcDbEntity
  8
sanindusa
100
AcDbPolyline
 90
        3
 70
   128
 43
0.0
 10
143.0321860526897
 20
592.080392955669
 10
143.0332446210726
 20
592.0807560529483
 10
143.0336460721645
 20
592.0808280325489
  0
ARC
  5
3D8
330
23
100
AcDbEntity
  8
sanindusa
100
AcDbCircle
 10
143.0343241928221
 20
592.0758733719829
 30
0.0
 40
0.0049998279891728
100
AcDbArc
 50
115.3180551503866
 51
180.0
  0
LINE
  5
3D9
330
23
100
AcDbEntity
  8
sanindusa
100
AcDbLine
 10
143.0293243648589
 20
591.5158280993124
 30
0.0
 11
143.0293243648589
 21
592.0758738817087
 31
0.0
  0
LINE
  5
3DB
330
23
100
AcDbEntity
  8
sanindusa
100
AcDbLine
 10
142.8395126248002
 20
592.0758738817087
 30
0.0
 11
142.8395126248002
 21
591.5158280993124
 31
0.0
  0
ARC
  5
3DC
330
23
100
AcDbEntity
  8
sanindusa
100
AcDbCircle
 10
143.0343252662697
 20
591.5158291058199
 30
0.0
 40
0.0050009015120853
100
AcDbArc
 50
180.0115321910135
 51
265.115456728819
  0
LINE
  5
3DF
330
23
100
AcDbEntity
  8
sanindusa
100
AcDbLine
 10
143.2203777617604
 20
592.2336324540126
 30
0.0
 11
143.1653861385268
 21
592.2336324540126
 31
0.0
  0
ARC
  5
3E2
330
23
100
AcDbEntity
  8
sanindusa
100
AcDbCircle
 10
143.2203777617604
 20
592.2386324540126
 30
0.0
 40
0.0050000000000001
100
AcDbArc
 50
270.0
 51
0.9999999968366147
  0
LINE
  5
3E3
330
23
100
AcDbEntity
  8
sanindusa
100
AcDbLine
 10
143.1653861385268
 20
592.2336324540126
 30
0.0
 11
142.7034508511323
 21
592.2336324540126
 31
0.0
  0
LINE
  5
3E6
330
23
100
AcDbEntity
  8
sanindusa
100
AcDbLine
 10
142.7034508511323
 20
592.2336324540126
 30
0.0
 11
142.6484592278987
 21
592.2336324540126
 31
0.0
  0
ARC
  5
3E7
330
23
100
AcDbEntity
  8
sanindusa
100
AcDbCircle
 10
142.6484592278987
 20
592.2386324540126
 30
0.0
 40
0.0050000000000001
100
AcDbArc
 50
179.0000000031634
 51
270.0
  0
LINE
  5
3E9
330
23
100
AcDbEntity
  8
sanindusa
100
AcDbLine
 10
142.6434599894229
 20
592.2387197160447
 30
0.0
 11
142.6443327426693
 21
592.2887197160448
 31
0.0
  0
LINE
  5
3EE
330
23
100
AcDbEntity
  8
sanindusa
100
AcDbLine
 10
143.2245042469897
 20
592.2887197160448
 30
0.0
 11
143.2253770002362
 21
592.2387197160447
 31
0.0
  0
LINE
  5
3F0
330
23
100
AcDbEntity
  8
sanindusa
100
AcDbLine
 10
143.1645133852804
 20
592.2936324540126
 30
0.0
 11
143.2195050085139
 21
592.2936324540126
 31
0.0
  0
ARC
  5
3F1
330
23
100
AcDbEntity
  8
sanindusa
100
AcDbCircle
 10
143.2195050085139
 20
592.2886324540126
 30
0.0
 40
0.0050000000000001
100
AcDbArc
 50
0.9999999968366147
 51
90.0
  0
LINE
  5
3F3
330
23
100
AcDbEntity
  8
sanindusa
100
AcDbLine
 10
142.6493319811451
 20
592.2936324540126
 30
0.0
 11
142.7043236043787
 21
592.2936324540126
 31
0.0
  0
ARC
  5
3F5
330
23
100
AcDbEntity
  8
sanindusa
100
AcDbCircle
 10
142.6493319811451
 20
592.2886324540126
 30
0.0
 40
0.005
100
AcDbArc
 50
90.0
 51
179.0000000031634
  0
LINE
  5
3F6
330
23
100
AcDbEntity
  8
sanindusa
100
AcDbLine
 10
142.7043236043787
 20
592.2936324540126
 30
0.0
 11
143.1645133852804
 21
592.2936324540126
 31
0.0
  0
LINE
  5
3F8
330
23
100
AcDbEntity
  8
sanindusa
100
AcDbLine
 10
142.700046303303
 20
592.2061903579552
 30
0.0
 11
142.6900581971722
 21
592.2336324540126
 31
0.0
  0
LINE
  5
3FA
330
23
100
AcDbEntity
  8
sanindusa
100
AcDbLine
 10
143.1787787924869
 20
592.2336324540126
 30
0.0
 11
143.1687906863561
 21
592.2061903579552
 31
0.0
  0
ARC
  5
3FE
330
23
100
AcDbEntity
  8
sanindusa
100
AcDbCircle
 10
143.0483875613582
 20
592.2496324540126
 30
0.0
 40
0.1279999999999988
100
AcDbArc
 50
270.0
 51
340.0000000010658
  0
ARC
  5
402
330
23
100
AcDbEntity
  8
sanindusa
100
AcDbCircle
 10
142.8204511660383
 20
592.2496349357588
 30
0.0
 40
0.1280024817580413
100
AcDbArc
 50
200.0007778338829
 51
269.9992221639542
  0
LWPOLYLINE
  5
407
330
23
100
AcDbEntity
  8
sanindusa
100
AcDbPolyline
 90
        3
 70
   128
 43
0.0
 10
142.8710251238935
 20
592.122522129452
 10
142.8801319704823
 20
592.1232911747846
 10
142.8870542328179
 20
592.1238825557243
  0
LWPOLYLINE
  5
408
330
23
100
AcDbEntity
  8
sanindusa
100
AcDbPolyline
 90
        3
 70
   128
 43
0.0
 10
142.9827718226639
 20
592.1238028610543
 10
142.9895377794405
 20
592.1232232699073
 10
142.9978118657656
 20
592.122522129452
  0
LWPOLYLINE
  5
40C
330
23
100
AcDbEntity
  8
sanindusa
100
AcDbPolyline
 90
        3
 70
   128
 43
0.0
 10
142.8529880173388
 20
592.1216324540126
 10
142.8616658899662
 20
592.1218804280393
 10
142.8710251238935
 20
592.122522129452
  0
LINE
  5
40D
330
23
100
AcDbEntity
  8
sanindusa
100
AcDbLine
 10
143.0483875613582
 20
592.1216324540126
 30
0.0
 11
143.0158489723203
 21
592.1216324540126
 31
0.0
  0
LWPOLYLINE
  5
40E
330
23
100
AcDbEntity
  8
sanindusa
100
AcDbPolyline
 90
        3
 70
   128
 43
0.0
 10
142.9978118657656
 20
592.122522129452
 10
143.0070852474594
 20
592.1218849177551
 10
143.0158489723203
 20
592.1216324540126
  0
LINE
  5
40F
330
23
100
AcDbEntity
  8
sanindusa
100
AcDbLine
 10
142.8529880173388
 20
592.1216324540126
 30
0.0
 11
142.8204494283009
 21
592.1216324540126
 31
0.0
  0
LINE
  5
426
330
23
100
AcDbEntity
  8
sanindusa
100
AcDbLine
 10
143.2242348051936
 20
592.3041560262057
 30
0.0
 11
143.2245042469897
 21
592.2887197160448
 31
0.0
  0
LINE
  5
428
330
23
100
AcDbEntity
  8
sanindusa
100
AcDbLine
 10
142.6443327426693
 20
592.2887197160448
 30
0.0
 11
142.6446021844654
 21
592.3041560262057
 31
0.0
  0
ARC
  5
429
330
23
100
AcDbEntity
  8
sanindusa
100
AcDbCircle
 10
142.6745976153201
 20
592.3036324540126
 30
0.0
 40
0.0299999999999835
100
AcDbArc
 50
90.0
 51
178.9999999966506
  0
ARC
  5
42B
330
23
100
AcDbEntity
  8
sanindusa
100
AcDbCircle
 10
143.194239374339
 20
592.3036324540126
 30
0.0
 40
0.0299999999999929
100
AcDbArc
 50
1.000000003349398
 51
90.0
  0
LINE
  5
42D
330
23
100
AcDbEntity
  8
sanindusa
100
AcDbLine
 10
142.6745976153201
 20
592.3336324540127
 30
0.0
 11
143.1942393743389
 21
592.3336324540127
 31
0.0
  0
LINE
  5
431
330
23
100
AcDbEntity
  8
sanindusa
100
AcDbLine
 10
143.0510435609108
 20
592.0876027923046
 30
0.0
 11
143.0510435609108
 21
592.1217015168602
 31
0.0
  0
LINE
  5
432
330
23
100
AcDbEntity
  8
sanindusa
100
AcDbLine
 10
142.8177934287482
 20
592.1217051232011
 30
0.0
 11
142.8177934287482
 21
592.0876027923046
 31
0.0
  0
ARC
  5
439
330
23
100
AcDbEntity
  8
sanindusa
100
AcDbCircle
 10
142.9345116469743
 20
591.6417627949652
 30
0.0
 40
0.4844498631157197
100
AcDbArc
 50
84.28279672686921
 51
95.62179411878844
  0
LINE
  5
44A
330
23
100
AcDbEntity
  8
sanindusa
100
AcDbLine
 10
142.4033066914361
 20
592.1746990222819
 30
0.0
 11
142.4313024269005
 21
592.1746990222819
 31
0.0
  0
LWPOLYLINE
  5
44B
330
23
100
AcDbEntity
  8
sanindusa
100
AcDbPolyline
 90
        9
 70
   128
 43
0.0
 10
142.4333021222908
 20
592.1726990222818
 10
142.4332636987046
 20
592.1730892029258
 10
142.4331499045428
 20
592.1734643891466
 10
142.4329651128514
 20
592.1738101627478
 10
142.4327164250712
 20
592.1741132358441
 10
142.4324133981344
 20
592.1743619615064
 10
142.4320676771961
 20
592.1745467813468
 10
142.4316925481181
 20
592.1746605928426
 10
142.4313024269005
 20
592.1746990222819
  0
LINE
  5
44F
330
23
100
AcDbEntity
  8
sanindusa
100
AcDbLine
 10
142.4333021222908
 20
592.1726990222818
 30
0.0
 11
142.4333021222908
 21
592.1480065203918
 31
0.0
  0
LINE
  5
450
330
23
100
AcDbEntity
  8
sanindusa
100
AcDbLine
 10
141.8836649324173
 20
592.1746990222819
 30
0.0
 11
142.4033066914361
 21
592.1746990222819
 31
0.0
  0
LINE
  5
452
330
23
100
AcDbEntity
  8
sanindusa
100
AcDbLine
 10
141.8556691969529
 20
592.1746990222819
 30
0.0
 11
141.8836649324173
 21
592.1746990222819
 31
0.0
  0
LINE
  5
456
330
23
100
AcDbEntity
  8
sanindusa
100
AcDbLine
 10
141.8536695015626
 20
592.1480065203918
 30
0.0
 11
141.8536695015626
 21
592.1726990222818
 31
0.0
  0
LINE
  5
458
330
23
100
AcDbEntity
  8
sanindusa
100
AcDbLine
 10
142.4033066914361
 20
592.1451745912967
 30
0.0
 11
141.8836649324173
 21
592.1451745912967
 31
0.0
  0
LWPOLYLINE
  5
45B
330
23
100
AcDbEntity
  8
sanindusa
100
AcDbPolyline
 90
       14
 70
   128
 43
0.0
 10
142.428302883815
 20
592.1430255469013
 10
142.4280726463157
 20
592.1432859595451
 10
142.4274892367513
 20
592.1435421142539
 10
142.4265609747673
 20
592.143790358163
 10
142.4253010977374
 20
592.1440271512182
 10
142.4237275719938
 20
592.1442491166597
 10
142.4218628366203
 20
592.1444530891744
 10
142.4197334834622
 20
592.1446361600358
 10
142.4173698779165
 20
592.1447957185828
 10
142.4148057259096
 20
592.1449294894488
 10
142.4120775932377
 20
592.1450355650099
 10
142.4092243841246
 20
592.1451124325877
 10
142.4062867864321
 20
592.1451589960208
 10
142.4033066914361
 20
592.1451745912967
  0
LWPOLYLINE
  5
45C
330
23
100
AcDbEntity
  8
sanindusa
100
AcDbPolyline
 90
       14
 70
   128
 43
0.0
 10
141.8836649324173
 20
592.1451745912967
 10
141.8806848374212
 20
592.1451589960208
 10
141.8777472397288
 20
592.1451124325877
 10
141.8748940306156
 20
592.1450355650099
 10
141.8721658979437
 20
592.1449294894488
 10
141.8696017459368
 20
592.1447957185828
 10
141.8672381403912
 20
592.1446361600358
 10
141.8651087872331
 20
592.1444530891744
 10
141.8632440518595
 20
592.1442491166597
 10
141.8616705261159
 20
592.1440271512182
 10
141.860410649086
 20
592.143790358163
 10
141.8594823871021
 20
592.1435421142539
 10
141.8588989775377
 20
592.1432859595451
 10
141.8586687400384
 20
592.1430255469013
  0
LINE
  5
45E
330
23
100
AcDbEntity
  8
sanindusa
100
AcDbLine
 10
141.9741271704742
 20
592.1415404831021
 30
0.0
 11
142.3128444533791
 21
592.1415404831021
 31
0.0
  0
ARC
  5
460
330
23
100
AcDbEntity
  8
sanindusa
100
AcDbCircle
 10
141.9475919219141
 20
591.7123262127456
 30
0.0
 40
0.4301558432342978
100
AcDbArc
 50
86.48979544229927
 51
89.64244460971539
  0
LINE
  5
461
330
23
100
AcDbEntity
  8
sanindusa
100
AcDbLine
 10
141.8585586358001
 20
592.1424736799964
 30
0.0
 11
141.9502763001215
 21
592.1424736799964
 31
0.0
  0
LINE
  5
462
330
23
100
AcDbEntity
  8
sanindusa
100
AcDbLine
 10
141.8586687400384
 20
592.1430255469013
 30
0.0
 11
141.8585586358001
 21
592.1424736799964
 31
0.0
  0
LINE
  5
463
330
23
100
AcDbEntity
  8
sanindusa
100
AcDbLine
 10
142.4284129880533
 20
592.1424736799964
 30
0.0
 11
142.428302883815
 21
592.1430255469013
 31
0.0
  0
LINE
  5
464
330
23
100
AcDbEntity
  8
sanindusa
100
AcDbLine
 10
142.3366953237319
 20
592.1424736799964
 30
0.0
 11
142.4284129880533
 21
592.1424736799964
 31
0.0
  0
ARC
  5
465
330
23
100
AcDbEntity
  8
sanindusa
100
AcDbCircle
 10
142.3393966788889
 20
591.7118234213813
 30
0.0
 40
0.4306587309748427
100
AcDbArc
 50
90.3593965548964
 51
93.50836339142306
  0
LINE
  5
467
330
23
100
AcDbEntity
  8
sanindusa
100
AcDbLine
 10
142.4333021222908
 20
592.1480065203918
 30
0.0
 11
142.4335715640869
 21
592.1466560182461
 31
0.0
  0
ARC
  5
468
330
23
100
AcDbEntity
  8
sanindusa
100
AcDbCircle
 10
142.4287593007191
 20
592.1473254877057
 30
0.0
 40
0.004858607627493
100
AcDbArc
 50
266.8542587678475
 51
352.0799940180925
  0
LINE
  5
469
330
23
100
AcDbEntity
  8
sanindusa
100
AcDbLine
 10
142.4284129880533
 20
592.1424736799964
 30
0.0
 11
142.4284926799489
 21
592.1424742011297
 31
0.0
  0
LINE
  5
46A
330
23
100
AcDbEntity
  8
sanindusa
100
AcDbLine
 10
141.8584789439045
 20
592.1424742011297
 30
0.0
 11
141.8585586358001
 21
592.1424736799964
 31
0.0
  0
ARC
  5
46B
330
23
100
AcDbEntity
  8
sanindusa
100
AcDbCircle
 10
141.8582123231342
 20
592.1473254877057
 30
0.0
 40
0.0048586076275127
100
AcDbArc
 50
187.9200059819075
 51
273.1457412321526
  0
LINE
  5
46C
330
23
100
AcDbEntity
  8
sanindusa
100
AcDbLine
 10
141.8534000597665
 20
592.1466560182461
 30
0.0
 11
141.8536695015626
 21
592.1480065203918
 31
0.0
  0
LWPOLYLINE
  5
46E
330
23
100
AcDbEntity
  8
sanindusa
100
AcDbPolyline
 90
        9
 70
   128
 43
0.0
 10
142.4344443173333
 20
592.1726990222818
 10
142.4344058937471
 20
592.1730892029258
 10
142.4342920995854
 20
592.1734643891466
 10
142.4341073078939
 20
592.1738101627478
 10
142.4338586201138
 20
592.1741132358441
 10
142.433555593177
 20
592.1743619615064
 10
142.4332098722386
 20
592.1745467813468
 10
142.4328347431606
 20
592.1746605928426
 10
142.432444621943
 20
592.1746990222819
  0
LINE
  5
46F
330
23
100
AcDbEntity
  8
sanindusa
100
AcDbLine
 10
142.4313024269005
 20
592.1746990222819
 30
0.0
 11
142.432444621943
 21
592.1746990222819
 31
0.0
  0
LINE
  5
471
330
23
100
AcDbEntity
  8
sanindusa
100
AcDbLine
 10
142.4335715640869
 20
592.1466560182461
 30
0.0
 11
142.4335715640869
 21
591.7746041318309
 31
0.0
  0
LINE
  5
472
330
23
100
AcDbEntity
  8
sanindusa
100
AcDbLine
 10
142.4344443173333
 20
591.7737313785845
 30
0.0
 11
142.4344443173333
 21
592.1726990222818
 31
0.0
  0
LINE
  5
473
330
23
100
AcDbEntity
  8
sanindusa
100
AcDbLine
 10
141.8534000597665
 20
591.7746041318309
 30
0.0
 11
141.8534000597665
 21
592.1466560182461
 31
0.0
  0
LINE
  5
475
330
23
100
AcDbEntity
  8
sanindusa
100
AcDbLine
 10
141.8525273065201
 20
592.1726990222818
 30
0.0
 11
141.8525273065201
 21
591.7737313785845
 31
0.0
  0
LWPOLYLINE
  5
477
330
23
100
AcDbEntity
  8
sanindusa
100
AcDbPolyline
 90
        9
 70
   128
 43
0.0
 10
141.8545270019104
 20
592.1746990222819
 10
141.8541368806927
 20
592.1746605928426
 10
141.8537617516147
 20
592.1745467813468
 10
141.8534160306764
 20
592.1743619615064
 10
141.8531130037396
 20
592.1741132358441
 10
141.8528643159595
 20
592.1738101627478
 10
141.852679524268
 20
592.1734643891466
 10
141.8525657301063
 20
592.1730892029258
 10
141.8525273065201
 20
592.1726990222818
  0
LINE
  5
478
330
23
100
AcDbEntity
  8
sanindusa
100
AcDbLine
 10
141.8545270019104
 20
592.1746990222819
 30
0.0
 11
141.8556691969529
 21
592.1746990222819
 31
0.0
  0
ARC
  5
489
330
23
100
AcDbEntity
  8
sanindusa
100
AcDbCircle
 10
141.9737285482391
 20
592.1119474818988
 30
0.0
 40
0.0297282371634738
100
AcDbArc
 50
89.61409306979636
 51
180.0981181043765
  0
ARC
  5
48B
330
23
100
AcDbEntity
  8
sanindusa
100
AcDbCircle
 10
142.3132396903175
 20
592.1119440795552
 30
0.0
 40
0.029731616824205
100
AcDbArc
 50
359.9084497123841
 51
90.37933911279749
  0
LINE
  5
497
330
23
100
AcDbEntity
  8
sanindusa
100
AcDbLine
 10
141.9440003546661
 20
592.1118965727949
 30
0.0
 11
141.9440003546661
 21
591.8056793483322
 31
0.0
  0
ARC
  5
499
330
23
100
AcDbEntity
  8
sanindusa
100
AcDbCircle
 10
141.973609470814
 20
591.8050426347009
 30
0.0
 40
0.0296157941833163
100
AcDbArc
 50
178.782552247602
 51
270.4001821231655
  0
LINE
  5
49B
330
23
100
AcDbEntity
  8
sanindusa
100
AcDbLine
 10
141.9738288891409
 20
591.7754275628909
 30
0.0
 11
142.3131471365109
 21
591.7754275628909
 31
0.0
  0
LINE
  5
49E
330
23
100
AcDbEntity
  8
sanindusa
100
AcDbLine
 10
142.3429712691872
 20
591.8056793293589
 30
0.0
 11
142.3429712691872
 21
592.1118965727949
 31
0.0
  0
ARC
  5
49F
330
23
100
AcDbEntity
  8
sanindusa
100
AcDbCircle
 10
142.3133098973903
 20
591.8050941502425
 30
0.0
 40
0.0296669901474189
100
AcDbArc
 50
269.7014315662433
 51
1.115834060052387
  0
ARC
  5
4A3
330
23
100
AcDbEntity
  8
sanindusa
100
AcDbCircle
 10
141.913389290677
 20
591.7746025010321
 30
0.0
 40
0.0599892309326825
100
AcDbArc
 50
180.0
 51
270.0015575773713
  0
ARC
  5
4A4
330
23
100
AcDbEntity
  8
sanindusa
100
AcDbCircle
 10
142.3735823331764
 20
591.7746025010321
 30
0.0
 40
0.0599892309326847
100
AcDbArc
 50
269.9984424226288
 51
0.0
  0
LINE
  5
4A6
330
23
100
AcDbEntity
  8
sanindusa
100
AcDbLine
 10
142.3735807023775
 20
591.7146132701216
 30
0.0
 11
141.9133909214759
 21
591.7146132701216
 31
0.0
  0
LWPOLYLINE
  5
4A8
330
23
100
AcDbEntity
  8
sanindusa
100
AcDbPolyline
 90
       19
 70
   128
 43
0.0
 10
142.3356542948251
 20
591.8158109687196
 10
142.3368419423171
 20
591.8148464765046
 10
142.3381369080612
 20
591.8134775060816
 10
142.3384380675123
 20
591.8131146203122
 10
142.3387419368339
 20
591.812731366705
 10
142.3390479633254
 20
591.8123277481296
 10
142.3393555776924
 20
591.8119037674005
 10
142.3396641940163
 20
591.8114594272654
 10
142.3399732097257
 20
591.8109947303926
 10
142.3402884921994
 20
591.8104992815913
 10
142.3409570850168
 20
591.8093925730906
 10
142.3414498797648
 20
591.8085289483435
 10
142.3417887762493
 20
591.8079082784711
 10
142.3419895869927
 20
591.8075304771997
 10
142.342092263627
 20
591.8073377241431
 10
142.3423351917514
 20
591.8068816991852
 10
142.3425621596097
 20
591.8064532641047
 10
142.3427739621232
 20
591.8060524139646
 10
142.3429713672864
 20
591.8056791441988
  0
LWPOLYLINE
  5
4A9
330
23
100
AcDbEntity
  8
sanindusa
100
AcDbPolyline
 90
        5
 70
   128
 43
0.0
 10
142.3131472605001
 20
591.7754274409467
 10
142.3109863848611
 20
591.7771266428428
 10
142.3080881051183
 20
591.7789170221134
 10
142.3051685799794
 20
591.7806257697235
 10
142.3025765195506
 20
591.7823395420992
  0
LWPOLYLINE
  5
4AB
330
23
100
AcDbEntity
  8
sanindusa
100
AcDbPolyline
 90
        6
 70
   128
 43
0.0
 10
141.9843951043549
 20
591.7823395420992
 10
141.9824746655151
 20
591.781044341634
 10
141.9801214483569
 20
591.7796303985868
 10
141.9777275313349
 20
591.7782371615607
 10
141.9754517287977
 20
591.7767627567058
 10
141.9738286950074
 20
591.775427373371
  0
LWPOLYLINE
  5
4AC
330
23
100
AcDbEntity
  8
sanindusa
100
AcDbPolyline
 90
        7
 70
   128
 43
0.0
 10
141.9440002563103
 20
591.8056791626837
 10
141.9449349596126
 20
591.8074416452956
 10
141.9456384410461
 20
591.8087374692902
 10
141.9472161921543
 20
591.8113243336413
 10
141.9486662364135
 20
591.8132765871028
 10
141.9500509047126
 20
591.8147722362593
 10
141.951317329029
 20
591.8158109687716
  0
ARC
  5
4AD
330
23
100
AcDbEntity
  8
sanindusa
100
AcDbCircle
 10
141.9740950852432
 20
592.1117430325201
 30
0.0
 40
0.0297974678563235
100
AcDbArc
 50
89.93830520500548
 51
180.0693927446742
  0
ARC
  5
4AF
330
23
100
AcDbEntity
  8
sanindusa
100
AcDbCircle
 10
142.3128647618442
 20
592.1117312573364
 30
0.0
 40
0.029809232683718
100
AcDbArc
 50
359.9532675212895
 51
90.03903453191101
  0
LWPOLYLINE
  5
4B2
330
23
100
AcDbEntity
  8
sanindusa
100
AcDbPolyline
 90
        4
 70
   128
 43
0.0
 10
141.9444972598945
 20
592.0259130693562
 10
141.9444736755719
 20
592.0359114775758
 10
141.9443801841711
 20
592.0759051124454
 10
141.9442976392409
 20
592.1117069438677
  0
LWPOLYLINE
  5
4B3
330
23
100
AcDbEntity
  8
sanindusa
100
AcDbPolyline
 90
        6
 70
   128
 43
0.0
 10
141.9459334098369
 20
592.0160936851504
 10
141.945411291422
 20
592.016781453438
 10
141.9449788134351
 20
592.0185423037305
 10
141.9446749841828
 20
592.0211622179261
 10
141.9445183816411
 20
592.0243209184835
 10
141.9444972598945
 20
592.0259130693562
  0
ARC
  5
4B4
330
23
100
AcDbEntity
  8
sanindusa
100
AcDbCircle
 10
141.9838032488349
 20
592.2255659496405
 30
0.0
 40
0.2128679268851993
100
AcDbArc
 50
259.7523617903099
 51
266.4904013208174
  0
LWPOLYLINE
  5
4B5
330
23
100
AcDbEntity
  8
sanindusa
100
AcDbPolyline
 90
       51
 70
   128
 43
0.0
 10
141.9748842468639
 20
591.8819606628452
 10
141.9749347202578
 20
591.8909126067283
 10
141.9748732382839
 20
591.9003415919886
 10
141.9748386594353
 20
591.9028899193261
 10
141.9747964295558
 20
591.905470969338
 10
141.9747465624125
 20
591.9080847422409
 10
141.9746890742765
 20
591.9107312382904
 10
141.9746239839247
 20
591.9134104577815
 10
141.9745513126418
 20
591.9161224010473
 10
141.9743233058456
 20
591.9234252656654
 10
141.9740263441561
 20
591.931539080292
 10
141.9736613277943
 20
591.9404638588448
 10
141.9734536387525
 20
591.945230364802
 10
141.973343566502
 20
591.9476896479779
 10
141.9732869825681
 20
591.9489382972535
 10
141.9732583048326
 20
591.9495673738309
 10
141.9732438696734
 20
591.9498831001069
 10
141.9732366280398
 20
591.9500412602419
 10
141.973233001212
 20
591.9501204145587
 10
141.9732311862956
 20
591.9501600102795
 10
141.9732302784618
 20
591.9501798127804
 10
141.9732298244511
 20
591.950189715191
 10
141.9732295974222
 20
591.9501946666864
 10
141.9732294839019
 20
591.9501971425066
 10
141.9732294271403
 20
591.9501983804349
 10
141.9732293987591
 20
591.9501989994034
 10
141.9732293845684
 20
591.9501993088889
 10
141.9732293774731
 20
591.9501994636319
 10
141.9732293739254
 20
591.9501995410036
 10
141.9732293721516
 20
591.9501995796894
 10
141.9732293712646
 20
591.9501995990323
 10
141.9732293703777
 20
591.9501996183752
 10
141.973228986812
 20
591.9502078946784
 10
141.9732255420338
 20
591.950281690613
 10
141.9732155970562
 20
591.9504943415983
 10
141.9731773697553
 20
591.951311380003
 10
141.9730906396516
 20
591.9531661185541
 10
141.9729623938306
 20
591.9559126500542
 10
141.9727928728129
 20
591.9595509781666
 10
141.9725823954691
 20
591.9640811077264
 10
141.9723767505759
 20
591.9685242146235
 10
141.9722323324196
 20
591.9716841636877
 10
141.9721056687282
 20
591.9744973477348
 10
141.9719881740624
 20
591.9771492226016
 10
141.9718797997063
 20
591.9796397875503
 10
141.9717805006222
 20
591.9819690419013
 10
141.9716902354564
 20
591.9841369850319
 10
141.9713923022981
 20
591.9917546265992
 10
141.971150990896
 20
591.9987046424308
 10
141.9709538569542
 20
592.0055042161928
 10
141.9707723705829
 20
592.0130975869605
  0
ARC
  5
4B6
330
23
100
AcDbEntity
  8
sanindusa
100
AcDbCircle
 10
141.9215173768409
 20
591.8790448935596
 30
0.0
 40
0.0534466582163076
100
AcDbArc
 50
349.8604118192819
 51
3.127294651867502
  0
LWPOLYLINE
  5
4B7
330
23
100
AcDbEntity
  8
sanindusa
100
AcDbPolyline
 90
       15
 70
   128
 43
0.0
 10
141.9513173290005
 20
591.8158109695668
 10
141.9529006358443
 20
591.8172047561845
 10
141.9545977939766
 20
591.8193138350106
 10
141.9564085140033
 20
591.822138276918
 10
141.9575493216811
 20
591.824176345808
 10
141.958730818319
 20
591.8264719861938
 10
141.9599529224684
 20
591.8290252133522
 10
141.9612155479345
 20
591.8318360425474
 10
141.9625186037721
 20
591.8349044890297
 10
141.9644107144973
 20
591.8396422033063
 10
141.9663277794642
 20
591.8447824924879
 10
141.9682634668039
 20
591.8503253157195
 10
141.9703813824303
 20
591.8567828383952
 10
141.9723438996798
 20
591.8632197048927
 10
141.9741293839481
 20
591.8696356287198
  0
LWPOLYLINE
  5
4B8
330
23
100
AcDbEntity
  8
sanindusa
100
AcDbPolyline
 90
       14
 70
   128
 43
0.0
 10
142.3128422398576
 20
591.8696356286289
 10
142.314361224261
 20
591.8641380227878
 10
142.3160125269806
 20
591.8586246260986
 10
142.3177828812632
 20
591.8530956168637
 10
142.319539445635
 20
591.8479009840524
 10
142.3211934123397
 20
591.8432736638292
 10
142.3228326164517
 20
591.8389414903016
 10
142.3244530200626
 20
591.8349044889396
 10
142.3266022333888
 20
591.8299335784844
 10
142.3286390162467
 20
591.8256782251342
 10
142.3305629638281
 20
591.8221383582928
 10
142.3323737078806
 20
591.8193139072652
 10
142.3340709166569
 20
591.8172048012807
 10
142.3356542948536
 20
591.8158109695148
  0
LWPOLYLINE
  5
4BA
330
23
100
AcDbEntity
  8
sanindusa
100
AcDbPolyline
 90
       26
 70
   128
 43
0.0
 10
142.3161994288315
 20
592.0130975803304
 10
142.3160320594963
 20
592.0060242688289
 10
142.3158534661317
 20
591.9997329999448
 10
142.3156371511387
 20
591.9933396074894
 10
142.3153711948104
 20
591.9863523888141
 10
142.3151091820244
 20
591.9800433090165
 10
142.3148089785431
 20
591.9732265883263
 10
142.3146568073818
 20
591.9698737479444
 10
142.3144675561628
 20
591.9657706191563
 10
142.3142254213699
 20
591.9605541804899
 10
142.3140318769359
 20
591.9563981030863
 10
142.3138873560229
 20
591.9533023803853
 10
142.3137921809939
 20
591.9512670074797
 10
142.3137521600819
 20
591.9504116515857
 10
142.3137102480868
 20
591.9495001423209
 10
142.3135840352292
 20
591.9467111242294
 10
142.3134629934073
 20
591.9439854960207
 10
142.3133471517238
 20
591.9413232572541
 10
142.3132365379671
 20
591.9387244075074
 10
142.3128928398956
 20
591.9301776695102
 10
142.3126137024277
 20
591.9223979887918
 10
142.3123927970898
 20
591.9151247513424
 10
142.3121901208971
 20
591.9062941362983
 10
142.3120714254685
 20
591.8978232535391
 10
142.312037136542
 20
591.8897120963651
 10
142.3120873769273
 20
591.8819606628395
  0
ARC
  5
4BB
330
23
100
AcDbEntity
  8
sanindusa
100
AcDbCircle
 10
142.3007712183214
 20
592.2454373717394
 30
0.0
 40
0.2328517930370475
100
AcDbArc
 50
273.7990646350429
 51
279.958203144093
  0
LWPOLYLINE
  5
4BC
330
23
100
AcDbEntity
  8
sanindusa
100
AcDbPolyline
 90
        6
 70
   128
 43
0.0
 10
142.3424743639589
 20
592.0259130693562
 10
142.3423908400594
 20
592.0226358038494
 10
142.3421606088513
 20
592.0197478536022
 10
142.3417964789662
 20
592.0175614043574
 10
142.3413217546201
 20
592.0163155110868
 10
142.3410382140165
 20
592.0160936851504
  0
LWPOLYLINE
  5
4BD
330
23
100
AcDbEntity
  8
sanindusa
100
AcDbPolyline
 90
        4
 70
   128
 43
0.0
 10
142.3426739846124
 20
592.1117069438675
 10
142.3426510412656
 20
592.1017085341572
 10
142.3425584227057
 20
592.0617148972574
 10
142.3424743639589
 20
592.0259130693562
  0
ARC
  5
4C4
330
23
100
AcDbEntity
  8
sanindusa
100
AcDbCircle
 10
141.9125165374306
 20
591.7737297477857
 30
0.0
 40
0.059989230932683
100
AcDbArc
 50
180.0
 51
270.0015575773713
  0
ARC
  5
4C6
330
23
100
AcDbEntity
  8
sanindusa
100
AcDbCircle
 10
142.3744550864228
 20
591.7737297477857
 30
0.0
 40
0.0599892309326819
100
AcDbArc
 50
269.9984424226288
 51
0.0
  0
LINE
  5
4C8
330
23
100
AcDbEntity
  8
sanindusa
100
AcDbLine
 10
141.9125181682295
 20
591.7137405168752
 30
0.0
 11
142.3744534556239
 21
591.7137405168752
 31
0.0
  0
LWPOLYLINE
  5
4CF
330
23
100
AcDbEntity
  8
sanindusa
100
AcDbPolyline
 90
        9
 70
   128
 43
0.0
 10
141.9508704602611
 20
592.0210906392854
 10
141.9499106165039
 20
592.0209899326955
 10
141.9489874010163
 20
592.0207023820757
 10
141.9481360443093
 20
592.0202389605468
 10
141.9473890347154
 20
592.0196173525796
 10
141.9467748786124
 20
592.0188612791434
 10
141.9463170126017
 20
592.0179995924981
 10
141.9460329091516
 20
592.0170651751736
 10
141.9459334098369
 20
592.0160936851504
  0
LWPOLYLINE
  5
4D0
330
23
100
AcDbEntity
  8
sanindusa
100
AcDbPolyline
 90
        9
 70
   128
 43
0.0
 10
142.3410382140165
 20
592.0160936851504
 10
142.3409387147017
 20
592.0170651751736
 10
142.3406546112516
 20
592.0179995924981
 10
142.3401967452409
 20
592.0188612791434
 10
142.339582589138
 20
592.0196173525796
 10
142.338835579544
 20
592.0202389605468
 10
142.3379842228371
 20
592.0207023820757
 10
142.3370610073495
 20
592.0209899326955
 10
142.3361011635923
 20
592.0210906392854
  0
LWPOLYLINE
  5
4D3
330
23
100
AcDbEntity
  8
sanindusa
100
AcDbPolyline
 90
       45
 70
   128
 43
0.0
 10
142.1434858119267
 20
592.0662156223196
 10
142.1459763215965
 20
592.0663937199574
 10
142.1484161316714
 20
592.0669243873166
 10
142.1507555746542
 20
592.0677968215399
 10
142.1529470262322
 20
592.0689932623826
 10
142.1549458747707
 20
592.0704893537592
 10
142.1567114294779
 20
592.0722546395638
 10
142.1582077487512
 20
592.0742531836681
 10
142.1594043718454
 20
592.0764443014774
 10
142.1602769389649
 20
592.0787833881517
 10
142.1608076871596
 20
592.0812228266318
 10
142.1609858119267
 20
592.0837129569848
 10
142.1608076871596
 20
592.0862030873379
 10
142.1602769389649
 20
592.088642525818
 10
142.1594043718454
 20
592.0909816124923
 10
142.1582077487512
 20
592.0931727303016
 10
142.1567114294779
 20
592.0951712744058
 10
142.1549458747707
 20
592.0969365602104
 10
142.1529470262322
 20
592.0984326515871
 10
142.1507555746542
 20
592.0996290924298
 10
142.1484161316714
 20
592.1005015266531
 10
142.1459763215965
 20
592.1010321940123
 10
142.1434858119267
 20
592.1012102916501
 10
142.1409953022569
 20
592.1010321940123
 10
142.1385554921819
 20
592.1005015266531
 10
142.1362160491991
 20
592.0996290924298
 10
142.1340245976212
 20
592.0984326515871
 10
142.1320257490826
 20
592.0969365602104
 10
142.1302601943755
 20
592.0951712744058
 10
142.1287638751021
 20
592.0931727303016
 10
142.127567252008
 20
592.0909816124923
 10
142.1266946848884
 20
592.088642525818
 10
142.1261639366938
 20
592.0862030873379
 10
142.1259858119267
 20
592.0837129569848
 10
142.1261639366938
 20
592.0812228266318
 10
142.1266946848884
 20
592.0787833881517
 10
142.127567252008
 20
592.0764443014774
 10
142.1287638751021
 20
592.0742531836681
 10
142.1302601943755
 20
592.0722546395638
 10
142.1320257490826
 20
592.0704893537592
 10
142.1340245976212
 20
592.0689932623826
 10
142.1362160491991
 20
592.0677968215399
 10
142.1385554921819
 20
592.0669243873166
 10
142.1409953022569
 20
592.0663937199574
 10
142.1434858119267
 20
592.0662156223196
  0
LINE
  5
4D6
330
23
100
AcDbEntity
  8
sanindusa
100
AcDbLine
 10
142.3361011635923
 20
592.0210906392854
 30
0.0
 11
141.9508704602611
 21
592.0210906392854
 31
0.0
  0
ARC
  5
4DC
330
23
100
AcDbEntity
  8
sanindusa
100
AcDbCircle
 10
142.1232180631959
 20
591.8675890339835
 30
0.0
 40
0.1526954302116307
100
AcDbArc
 50
89.89953281441087
 51
91.75483686354418
  0
LINE
  5
4DD
330
23
100
AcDbEntity
  8
sanindusa
100
AcDbLine
 10
142.1634858119267
 20
592.0197953957019
 30
0.0
 11
142.1234858119267
 21
592.0197953957019
 31
0.0
  0
ARC
  5
4DE
330
23
100
AcDbEntity
  8
sanindusa
100
AcDbCircle
 10
142.1639111963195
 20
591.8786870862758
 30
0.0
 40
0.14159778213873
100
AcDbArc
 50
88.15919795648225
 51
90.17212675682349
  0
LINE
  5
4DF
330
23
100
AcDbEntity
  8
sanindusa
100
AcDbLine
 10
142.1234858119267
 20
592.0202842294486
 30
0.0
 11
142.1634858119267
 21
592.0202842294486
 31
0.0
  0
LWPOLYLINE
  5
4E4
330
23
100
AcDbEntity
  8
sanindusa
100
AcDbPolyline
 90
       16
 70
   128
 43
0.0
 10
142.3025749048646
 20
591.7823394805099
 10
142.3007942552107
 20
591.7841898771021
 10
142.2985671924134
 20
591.7866402193633
 10
142.2960005485555
 20
591.7896764596677
 10
142.2932073556935
 20
591.7932659663286
 10
142.2902690727274
 20
591.7974403457243
 10
142.2872628736258
 20
591.8022481030471
 10
142.2842680603499
 20
591.8077402828962
 10
142.2813680882363
 20
591.8139469119512
 10
142.2786463613238
 20
591.8208849685758
 10
142.2773759079071
 20
591.8246405755848
 10
142.2761747302592
 20
591.8286038300082
 10
142.2750508978211
 20
591.8327835267764
 10
142.2740126220326
 20
591.837187845378
 10
142.2729458572257
 20
591.8425417360607
 10
142.2718857398081
 20
591.8489061845426
  0
LWPOLYLINE
  5
4E5
330
23
100
AcDbEntity
  8
sanindusa
100
AcDbPolyline
 90
        9
 70
   128
 43
0.0
 10
142.3128422398576
 20
591.8696356286289
 10
142.3101362268289
 20
591.8664411825329
 10
142.3065021271223
 20
591.8632068319189
 10
142.3019869079239
 20
591.860044628499
 10
142.2967054124599
 20
591.8570721803417
 10
142.2908327416025
 20
591.8543991346992
 10
142.2845855193858
 20
591.8521141092965
 10
142.2781960745479
 20
591.8502752113191
 10
142.2718857398081
 20
591.8489061845426
  0
LWPOLYLINE
  5
4E6
330
23
100
AcDbEntity
  8
sanindusa
100
AcDbPolyline
 90
       15
 70
   128
 43
0.0
 10
142.0150858841831
 20
591.8489061845426
 10
142.0137956440139
 20
591.841299256431
 10
142.0125545060564
 20
591.8353987395483
 10
142.0112561600173
 20
591.8302492430826
 10
142.0098417518909
 20
591.8254163332029
 10
142.0083252626578
 20
591.8208849685411
 10
142.0056035357381
 20
591.8139469119201
 10
142.002703563615
 20
591.8077402828707
 10
141.9997087503285
 20
591.8022481030281
 10
141.996702551216
 20
591.7974403457113
 10
141.9937642682389
 20
591.7932659663205
 10
141.9909710753658
 20
591.7896764596634
 10
141.9884044314987
 20
591.7866402193617
 10
141.9861773686963
 20
591.7841898771016
 10
141.9843967190408
 20
591.7823394805099
  0
LWPOLYLINE
  5
4E7
330
23
100
AcDbEntity
  8
sanindusa
100
AcDbPolyline
 90
        9
 70
   128
 43
0.0
 10
142.0150858841831
 20
591.8489061845426
 10
142.008775549414
 20
591.8502752113245
 10
142.0023861045465
 20
591.8521141093095
 10
141.9961388823009
 20
591.8543991347221
 10
141.9902662114166
 20
591.8570721803763
 10
141.9849847159286
 20
591.8600446285469
 10
141.9804694967102
 20
591.8632068319809
 10
141.9768353969878
 20
591.8664411826093
 10
141.9741293839481
 20
591.8696356287198
  0
LWPOLYLINE
  5
4E8
330
23
100
AcDbEntity
  8
sanindusa
100
AcDbPolyline
 90
        3
 70
   128
 43
0.0
 10
142.2718716673132
 20
591.8489061846424
 10
142.1280786406194
 20
591.8489071892718
 10
142.0150999566779
 20
591.8489061846424
  0
ARC
  5
4E9
330
23
100
AcDbEntity
  8
sanindusa
100
AcDbCircle
 10
142.2683197759779
 20
593.1413312448582
 30
0.0
 40
1.129249389040678
100
AcDbArc
 50
269.7346414151396
 51
272.4301922234132
  0
ARC
  5
4EC
330
23
100
AcDbEntity
  8
sanindusa
100
AcDbCircle
 10
142.0170217151438
 20
593.055053378063
 30
0.0
 40
1.042981972253935
100
AcDbArc
 50
267.4583070109812
 51
270.3768593505588
  0
LWPOLYLINE
  5
4EE
330
23
100
AcDbEntity
  8
sanindusa
100
AcDbPolyline
 90
        8
 70
   128
 43
0.0
 10
142.023881808891
 20
592.0120940783424
 10
142.0241561399619
 20
591.9933258256016
 10
142.0236572617108
 20
591.9745663403197
 10
142.0226408543814
 20
591.9558020830917
 10
142.0213635654357
 20
591.9370241320178
 10
142.0200799845488
 20
591.9182333124898
 10
142.0190427601725
 20
591.8994335384964
 10
142.0185045315477
 20
591.8806287251746
  0
LWPOLYLINE
  5
4F0
330
23
100
AcDbEntity
  8
sanindusa
100
AcDbPolyline
 90
        8
 70
   128
 43
0.0
 10
142.2684670924381
 20
591.8806287251746
 10
142.2679288638157
 20
591.8994335384772
 10
142.2668916394338
 20
591.9182333124509
 10
142.2656080585346
 20
591.9370241319593
 10
142.264330769571
 20
591.9558020830136
 10
142.2633143622178
 20
591.9745663402217
 10
142.2628154839358
 20
591.9933258254833
 10
142.2630898149666
 20
592.0120940782028
  0
LWPOLYLINE
  5
4F1
330
23
100
AcDbEntity
  8
sanindusa
100
AcDbPolyline
 90
       12
 70
   128
 43
0.0
 10
142.018506630896
 20
591.8806287024052
 10
142.0184777336816
 20
591.8783728540605
 10
142.0184233732102
 20
591.8767268692025
 10
142.0183426719315
 20
591.8750982418401
 10
142.0182380878349
 20
591.8734904508336
 10
142.0181120790189
 20
591.8719058282976
 10
142.0179671059974
 20
591.870346609326
 10
142.0171018346439
 20
591.8633459592077
 10
142.0158700966935
 20
591.8551195091554
 10
142.0155819219471
 20
591.8530356293486
 10
142.0153267272285
 20
591.850964781354
 10
142.015114028329
 20
591.848900994431
  0
LWPOLYLINE
  5
4F2
330
23
100
AcDbEntity
  8
sanindusa
100
AcDbPolyline
 90
       13
 70
   128
 43
0.0
 10
142.2718575956622
 20
591.848900994431
 10
142.2716285231275
 20
591.851107717893
 10
142.2713516244916
 20
591.8533226033755
 10
142.2708481162352
 20
591.856839131193
 10
142.2698697893417
 20
591.8633459592256
 10
142.2692901051916
 20
591.8677353028069
 10
142.2688214995641
 20
591.8723560873517
 10
142.2687253262342
 20
591.8736045503439
 10
142.268642487769
 20
591.8748672209337
 10
142.2685741764216
 20
591.8761430221446
 10
142.268521584806
 20
591.877430393066
 10
142.2684859043533
 20
591.8787274320402
 10
142.2684649930898
 20
591.8806287024052
  0
LWPOLYLINE
  5
4F4
330
23
100
AcDbEntity
  8
sanindusa
100
AcDbPolyline
 90
        6
 70
   128
 43
0.0
 10
142.2630967192626
 20
592.0120938844313
 10
142.2032714024386
 20
592.0118933483565
 10
142.1434039496585
 20
592.0118202502987
 10
142.0993136750045
 20
592.0118608367553
 10
142.0552234153664
 20
592.0119746412918
 10
142.0238748992903
 20
592.0120938844539
  0
LWPOLYLINE
  5
4F6
330
23
100
AcDbEntity
  8
sanindusa
100
AcDbPolyline
 90
       39
 70
   128
 43
0.0
 10
142.1434858119267
 20
591.9266749798701
 10
142.1382108589047
 20
591.9270611906957
 10
142.1329359058827
 20
591.9282450178251
 10
142.1273428506788
 20
591.9304675664142
 10
142.1220519765373
 20
591.9336831054497
 10
142.117481339093
 20
591.9376419613281
 10
142.1135248037246
 20
591.9424411522554
 10
142.1104912576432
 20
591.947717484745
 10
142.1083220786251
 20
591.9535910993396
 10
142.1071958186578
 20
591.9595957896897
 10
142.1070927015649
 20
591.96588211517
 10
142.1080216445949
 20
591.9719088807796
 10
142.1100121874557
 20
591.9778617851051
 10
142.112877715611
 20
591.9832026606587
 10
142.116712260625
 20
591.9881235334818
 10
142.121168942619
 20
591.9921903991554
 10
142.1263913503285
 20
591.9955468543154
 10
142.1319485808309
 20
591.9979166524619
 10
142.1379921930423
 20
591.9993657036411
 10
142.144051242296
 20
591.9997751675123
 10
142.1502675638569
 20
591.999146954268
 10
142.1561368586276
 20
591.9975270901817
 10
142.161810251826
 20
591.9948665767447
 10
142.1667926061207
 20
591.9913996191061
 10
142.1712450174462
 20
591.9870167135768
 10
142.1747729824206
 20
591.9821154101526
 10
142.1775043371174
 20
591.976533357641
 10
142.179210450491
 20
591.9707448979407
 10
142.1799462375187
 20
591.9645806421906
 10
142.17964986929
 20
591.9585233075192
 10
142.1783095356942
 20
591.9524306374376
 10
142.1760217679134
 20
591.9467757981321
 10
142.1727258528168
 20
591.9414344678662
 10
142.168690201076
 20
591.9368487360931
 10
142.1638002213817
 20
591.9328968671358
 10
142.1584913678702
 20
591.9299268506649
 10
142.1525883312082
 20
591.927837228772
 10
142.1481109430239
 20
591.9269715384865
 10
142.1434858119267
 20
591.9266749798701
  0
CIRCLE
  5
4FB
330
23
100
AcDbEntity
  8
sanindusa
100
AcDbCircle
 10
142.1434858119267
 20
591.9636990222818
 30
0.0
 40
0.0229999999999998
  0
LWPOLYLINE
  5
4FC
330
23
100
AcDbEntity
  8
sanindusa
100
AcDbPolyline
 90
       14
 70
   128
 43
0.0
 10
142.1234858119267
 20
592.0197953957019
 10
142.122199565302
 20
592.0197995573635
 10
142.1209571202634
 20
592.0198119006284
 10
142.1198007867865
 20
592.0198320051611
 10
142.1187699424212
 20
592.0198591863262
 10
142.1178996913357
 20
592.0198925185015
 10
142.1172196688872
 20
592.0199308665998
 10
142.1167530324245
 20
592.0199729247229
 10
142.1165156726926
 20
592.0200172606313
 10
142.1165156726926
 20
592.0200623645191
 10
142.1167530324245
 20
592.0201067004276
 10
142.1172196688872
 20
592.0201487585505
 10
142.1178996913357
 20
592.0201871066488
 10
142.1185420873889
 20
592.0202128514492
  0
LWPOLYLINE
  5
4FD
330
23
100
AcDbEntity
  8
sanindusa
100
AcDbPolyline
 90
       15
 70
   128
 43
0.0
 10
142.1684596752762
 20
592.0202117952343
 10
142.1688481230285
 20
592.020196920713
 10
142.1695479897532
 20
592.020162021012
 10
142.1700636602722
 20
592.0201234080693
 10
142.1703794661978
 20
592.0200822551199
 10
142.1704858119267
 20
592.0200398125753
 10
142.1703794661978
 20
592.0199973700306
 10
142.1700636602722
 20
592.0199562170811
 10
142.1695479897532
 20
592.0199176041385
 10
142.1688481230285
 20
592.0198827044374
 10
142.1679853251945
 20
592.0198525783876
 10
142.1669858119267
 20
592.0198281413537
 10
142.16587995293
 20
592.0198101358429
 10
142.1647013491703
 20
592.0197991089432
 10
142.1634858119267
 20
592.0197953957019
  0
LINE
  5
500
330
23
100
AcDbEntity
  8
sanindusa
100
AcDbLine
 10
143.8459905743237
 20
591.4632383370067
 30
0.0
 11
143.8459905743237
 21
591.5036485769191
 31
0.0
  0
ARC
  5
501
330
23
100
AcDbEntity
  8
sanindusa
100
AcDbCircle
 10
143.8409905743237
 20
591.5036485769191
 30
0.0
 40
0.005
100
AcDbArc
 50
0.0
 51
85.10085133835945
  0
LINE
  5
502
330
23
100
AcDbEntity
  8
sanindusa
100
AcDbLine
 10
143.8412461735901
 20
591.5086450035289
 30
0.0
 11
143.8155635218765
 21
591.5108464944016
 31
0.0
  0
LINE
  5
503
330
23
100
AcDbEntity
  8
sanindusa
100
AcDbLine
 10
143.8329905743237
 20
592.0876027887841
 30
0.0
 11
143.8329905743237
 21
592.1253781914209
 31
0.0
  0
ARC
  5
504
330
23
100
AcDbEntity
  8
sanindusa
100
AcDbCircle
 10
143.8279905743237
 20
592.0876027887841
 30
0.0
 40
0.005
100
AcDbArc
 50
277.7652594024534
 51
0.0
  0
LINE
  5
505
330
23
100
AcDbEntity
  8
sanindusa
100
AcDbLine
 10
143.8153149681164
 20
592.0808279601525
 30
0.0
 11
143.8285516233381
 21
592.0826330211997
 31
0.0
  0
ARC
  5
506
330
23
100
AcDbEntity
  8
sanindusa
100
AcDbCircle
 10
143.8159905743237
 20
591.5158282236403
 30
0.0
 40
0.005
100
AcDbArc
 50
180.0
 51
265.1003699753744
  0
ARC
  5
507
330
23
100
AcDbEntity
  8
sanindusa
100
AcDbCircle
 10
143.8159905743237
 20
592.0758738147919
 30
0.0
 40
0.0050000000000002
100
AcDbArc
 50
97.76563074507038
 51
180.0
  0
LINE
  5
508
330
23
100
AcDbEntity
  8
sanindusa
100
AcDbLine
 10
143.8109905743237
 20
591.5158282236403
 30
0.0
 11
143.8109905743237
 21
592.0758738147919
 31
0.0
  0
LWPOLYLINE
  5
509
330
23
100
AcDbEntity
  8
sanindusa
100
AcDbPolyline
 90
       17
 70
   128
 43
0.0
 10
143.6500192379421
 20
592.1480875746963
 10
143.6515242910867
 20
592.1480696362595
 10
143.6538654374104
 20
592.1478701809368
 10
143.6561328265162
 20
592.1475040330339
 10
143.6582565358951
 20
592.1469864625295
 10
143.6602643912196
 20
592.1463263996908
 10
143.6622036606595
 20
592.1455186626038
 10
143.6640202429439
 20
592.1445874273571
 10
143.6656622868254
 20
592.143566974514
 10
143.6670715054599
 20
592.1425092281538
 10
143.6681946617035
 20
592.1414839565447
 10
143.6690748423238
 20
592.1404960377966
 10
143.6697236261442
 20
592.1395725087763
 10
143.6701457710366
 20
592.1387607786213
 10
143.6703655045436
 20
592.1381091611155
 10
143.670431205549
 20
592.1376582202277
 10
143.6704299155939
 20
592.1376424338393
  0
ARC
  5
50A
330
23
100
AcDbEntity
  8
sanindusa
100
AcDbCircle
 10
143.5239905743237
 20
592.1501332543246
 30
0.0
 40
0.0019999999999999
100
AcDbArc
 50
180.0
 51
270.0
  0
LINE
  5
50B
330
23
100
AcDbEntity
  8
sanindusa
100
AcDbLine
 10
143.5239905743237
 20
592.1481332543246
 30
0.0
 11
143.6500206441561
 21
592.1481335230381
 31
0.0
  0
LINE
  5
50D
330
23
100
AcDbEntity
  8
sanindusa
100
AcDbLine
 10
143.6165141465168
 20
591.4632383370067
 30
0.0
 11
143.5859905743237
 21
591.4632383370067
 31
0.0
  0
LINE
  5
50E
330
23
100
AcDbEntity
  8
sanindusa
100
AcDbLine
 10
143.5859905743237
 20
591.4632383370067
 30
0.0
 11
143.5859905743237
 21
591.5058288298576
 31
0.0
  0
LWPOLYLINE
  5
511
330
23
100
AcDbEntity
  8
sanindusa
100
AcDbPolyline
 90
       14
 70
   128
 43
0.0
 10
143.5909980266009
 20
591.5108105631027
 10
143.5911843728098
 20
591.5105491755248
 10
143.591740633444
 20
591.5102911271153
 10
143.5926585159385
 20
591.5100402647818
 10
143.5939243367794
 20
591.5098003283039
 10
143.5955192254936
 20
591.5095748945815
 10
143.5974194059639
 20
591.5093673243126
 10
143.5995965508761
 20
591.5091807118915
 10
143.6020182040141
 20
591.5090178392797
 10
143.6046482641074
 20
591.5088811345328
 10
143.6074475230177
 20
591.5087726356035
 10
143.6103742502423
 20
591.5086939599611
 10
143.6133848150192
 20
591.5086462804782
 10
143.6164343367618
 20
591.508630307946
  0
LINE
  5
514
330
23
100
AcDbEntity
  8
sanindusa
100
AcDbLine
 10
143.6164343367618
 20
591.508630307946
 30
0.0
 11
143.720468189872
 21
591.508630307946
 31
0.0
  0
LINE
  5
518
330
23
100
AcDbEntity
  8
sanindusa
100
AcDbLine
 10
143.6165141465168
 20
591.4632383370067
 30
0.0
 11
143.7205479996271
 21
591.4632383370067
 31
0.0
  0
LINE
  5
51A
330
23
100
AcDbEntity
  8
sanindusa
100
AcDbLine
 10
143.7205479996271
 20
591.4632383370067
 30
0.0
 11
143.8459905743237
 21
591.4632383370067
 31
0.0
  0
LINE
  5
520
330
23
100
AcDbEntity
  8
sanindusa
100
AcDbLine
 10
143.7200169751568
 20
591.5108463660673
 30
0.0
 11
143.5909980266009
 21
591.5108463660673
 31
0.0
  0
LINE
  5
525
330
23
100
AcDbEntity
  8
sanindusa
100
AcDbLine
 10
143.5859905743237
 20
592.0849120296293
 30
0.0
 11
143.5859905743237
 21
592.1382383370066
 31
0.0
  0
LINE
  5
526
330
23
100
AcDbEntity
  8
sanindusa
100
AcDbLine
 10
143.5859905743237
 20
592.1382383370066
 30
0.0
 11
143.6073570748589
 21
592.1384978491589
 31
0.0
  0
LWPOLYLINE
  5
527
330
23
100
AcDbEntity
  8
sanindusa
100
AcDbPolyline
 90
       10
 70
   128
 43
0.0
 10
143.6072816030796
 20
592.0826486414645
 10
143.6047918635594
 20
592.0826221289529
 10
143.6023558461453
 20
592.0825432357554
 10
143.6000327536985
 20
592.082413879224
 10
143.59787904465
 20
592.082237203128
 10
143.5959470608827
 20
592.0820175012507
 10
143.59428375566
 20
592.0817601130365
 10
143.5929295525144
 20
592.0814712938261
 10
143.5919173628285
 20
592.0811580628317
 10
143.5912717859854
 20
592.0808280325489
  0
LWPOLYLINE
  5
528
330
23
100
AcDbEntity
  8
sanindusa
100
AcDbPolyline
 90
        9
 70
   128
 43
0.0
 10
143.5912717859854
 20
592.0808280325489
 10
143.5903257379974
 20
592.0809418622195
 10
143.5894145808418
 20
592.0812364587475
 10
143.5885723426357
 20
592.0817008201172
 10
143.587830477646
 20
592.0823176042675
 10
143.5872166915966
 20
592.0830637767494
 10
143.5867539069697
 20
592.0839114709708
 10
143.5864594069412
 20
592.0848290289042
 10
143.5863441899228
 20
592.0857821833891
  0
LINE
  5
52A
330
23
100
AcDbEntity
  8
sanindusa
100
AcDbLine
 10
143.720245646564
 20
592.0826486414645
 30
0.0
 11
143.6072816030796
 21
592.0826486414645
 31
0.0
  0
LINE
  5
52D
330
23
100
AcDbEntity
  8
sanindusa
100
AcDbLine
 10
143.6073570748589
 20
592.1384978491589
 30
0.0
 11
143.6698875374627
 21
592.1392573284617
 31
0.0
  0
LINE
  5
533
330
23
100
AcDbEntity
  8
sanindusa
100
AcDbLine
 10
143.5912717859854
 20
592.0808280325489
 30
0.0
 11
143.7200126371812
 21
592.0808280325489
 31
0.0
  0
LWPOLYLINE
  5
536
330
23
100
AcDbEntity
  8
sanindusa
100
AcDbPolyline
 90
        9
 70
   128
 43
0.0
 10
143.5909980266009
 20
591.5108463660673
 10
143.590021518992
 20
591.5107519122195
 10
143.589082322113
 20
591.5104692875261
 10
143.5882165970785
 20
591.5100093736501
 10
143.5874576761781
 20
591.509389878272
 10
143.5868347795108
 20
591.5086346533063
 10
143.5863718899479
 20
591.5077727765504
 10
143.5860868297403
 20
591.5068374321266
 10
143.5859905743237
 20
591.505864632822
  0
LINE
  5
53A
330
23
100
AcDbEntity
  8
sanindusa
100
AcDbLine
 10
143.5859905743237
 20
591.505864632822
 30
0.0
 11
143.5859905743237
 21
591.5158280993124
 31
0.0
  0
LINE
  5
542
330
23
100
AcDbEntity
  8
sanindusa
100
AcDbLine
 10
143.5859905743237
 20
592.0758738817087
 30
0.0
 11
143.5859905743237
 21
592.0849120296293
 31
0.0
  0
LINE
  5
548
330
23
100
AcDbEntity
  8
sanindusa
100
AcDbLine
 10
143.5859905743237
 20
591.5158280993124
 30
0.0
 11
143.5859905743237
 21
592.0758738817087
 31
0.0
  0
ARC
  5
54D
330
23
100
AcDbEntity
  8
sanindusa
100
AcDbCircle
 10
143.5239905743237
 20
592.2356324540126
 30
0.0
 40
0.0020000000000002
100
AcDbArc
 50
180.0
 51
270.0
  0
LINE
  5
54F
330
23
100
AcDbEntity
  8
sanindusa
100
AcDbLine
 10
143.922958218021
 20
592.2336324540126
 30
0.0
 11
143.5239905743237
 21
592.2336324540126
 31
0.0
  0
LINE
  5
551
330
23
100
AcDbEntity
  8
sanindusa
100
AcDbLine
 10
143.9779498412546
 20
592.2336324540126
 30
0.0
 11
143.922958218021
 21
592.2336324540126
 31
0.0
  0
ARC
  5
553
330
23
100
AcDbEntity
  8
sanindusa
100
AcDbCircle
 10
143.9779498412546
 20
592.2386324540126
 30
0.0
 40
0.005
100
AcDbArc
 50
270.0
 51
1.000000003349398
  0
LINE
  5
559
330
23
100
AcDbEntity
  8
sanindusa
100
AcDbLine
 10
143.5219905743237
 20
592.2386848112319
 30
0.0
 11
143.5219905743237
 21
592.3041211213928
 31
0.0
  0
LINE
  5
55C
330
23
100
AcDbEntity
  8
sanindusa
100
AcDbLine
 10
143.9820763264839
 20
592.2887197160448
 30
0.0
 11
143.9829490797303
 21
592.2387197160447
 31
0.0
  0
LINE
  5
55E
330
23
100
AcDbEntity
  8
sanindusa
100
AcDbLine
 10
143.5536640497041
 20
592.3045045428873
 30
0.0
 11
143.5542159166091
 21
592.2981966752988
 31
0.0
  0
LINE
  5
565
330
23
100
AcDbEntity
  8
sanindusa
100
AcDbLine
 10
143.9220854647745
 20
592.2936324540126
 30
0.0
 11
143.9770770880081
 21
592.2936324540126
 31
0.0
  0
ARC
  5
566
330
23
100
AcDbEntity
  8
sanindusa
100
AcDbCircle
 10
143.9770770880081
 20
592.2886324540126
 30
0.0
 40
0.0050000000000001
100
AcDbArc
 50
0.9999999968366147
 51
90.0
  0
LINE
  5
569
330
23
100
AcDbEntity
  8
sanindusa
100
AcDbLine
 10
143.5239905743237
 20
592.3336324540127
 30
0.0
 11
143.5465340318184
 21
592.3336324540127
 31
0.0
  0
LINE
  5
56A
330
23
100
AcDbEntity
  8
sanindusa
100
AcDbLine
 10
143.5219905743237
 20
592.3041211213928
 30
0.0
 11
143.5219905743237
 21
592.3316324540126
 31
0.0
  0
ARC
  5
56B
330
23
100
AcDbEntity
  8
sanindusa
100
AcDbCircle
 10
143.5239905743237
 20
592.3316324540126
 30
0.0
 40
0.0020000000000002
100
AcDbArc
 50
90.0
 51
180.0
  0
ARC
  5
56C
330
23
100
AcDbEntity
  8
sanindusa
100
AcDbCircle
 10
143.5465340318184
 20
592.3286324540127
 30
0.0
 40
0.005
100
AcDbArc
 50
5.000000002354321
 51
90.0
  0
LINE
  5
56D
330
23
100
AcDbEntity
  8
sanindusa
100
AcDbLine
 10
143.5515150053088
 20
592.3290682327263
 30
0.0
 11
143.5536640497041
 21
592.3045045428873
 31
0.0
  0
ARC
  5
56E
330
23
100
AcDbEntity
  8
sanindusa
100
AcDbCircle
 10
143.5591968900996
 20
592.2986324540126
 30
0.0
 40
0.005
100
AcDbArc
 50
185.0000000023543
 51
270.0
  0
LWPOLYLINE
  5
570
330
23
100
AcDbEntity
  8
sanindusa
100
AcDbPolyline
 90
        3
 70
   128
 43
0.0
 10
143.9252221893736
 20
592.2336324540126
 10
143.924505403718
 20
592.2288761814338
 10
143.9234905743237
 20
592.2228469097936
  0
LINE
  5
573
330
23
100
AcDbEntity
  8
sanindusa
100
AcDbLine
 10
143.5219905743237
 20
592.2065379159536
 30
0.0
 11
143.5219905743237
 21
592.2423425547292
 31
0.0
  0
LINE
  5
576
330
23
100
AcDbEntity
  8
sanindusa
100
AcDbLine
 10
143.9234905743237
 20
592.2228469097936
 30
0.0
 11
143.9231560457665
 21
592.221047461034
 31
0.0
  0
LINE
  5
57C
330
23
100
AcDbEntity
  8
sanindusa
100
AcDbLine
 10
143.8054598012151
 20
592.1216324540126
 30
0.0
 11
143.7607601438792
 21
592.1216324540126
 31
0.0
  0
LWPOLYLINE
  5
57D
330
23
100
AcDbEntity
  8
sanindusa
100
AcDbPolyline
 90
        6
 70
   128
 43
0.0
 10
143.7119905743237
 20
592.1220353585801
 10
143.7222414696276
 20
592.1220018331255
 10
143.7324923649315
 20
592.1219094245394
 10
143.7428205569241
 20
592.1217824853473
 10
143.7529941555393
 20
592.1216691766399
 10
143.7607601438792
 20
592.1216324540126
  0
LINE
  5
57E
330
23
100
AcDbEntity
  8
sanindusa
100
AcDbLine
 10
143.6849083799991
 20
592.1220353585801
 30
0.0
 11
143.7119905743237
 21
592.1220353585801
 31
0.0
  0
ARC
  5
57F
330
23
100
AcDbEntity
  8
sanindusa
100
AcDbCircle
 10
143.6840579628075
 20
592.205099477169
 30
0.0
 40
0.0830684717949734
100
AcDbArc
 50
264.2892303936991
 51
270.5865783488223
  0
ARC
  5
583
330
23
100
AcDbEntity
  8
sanindusa
100
AcDbCircle
 10
143.8023986095168
 20
592.2444278286616
 30
0.0
 40
0.1230000000000129
100
AcDbArc
 50
277.6484942006003
 51
349.0422967130216
  0
ARC
  5
584
330
23
100
AcDbEntity
  8
sanindusa
100
AcDbCircle
 10
143.8054598012151
 20
592.2216324540126
 30
0.0
 40
0.1000000000000003
100
AcDbArc
 50
270.0
 51
277.6484942006003
  0
LWPOLYLINE
  5
587
330
23
100
AcDbEntity
  8
sanindusa
100
AcDbPolyline
 90
       12
 70
   128
 43
0.0
 10
143.6757920863522
 20
592.1224432838573
 10
143.6746881672235
 20
592.1226646646584
 10
143.6734673675248
 20
592.1232554237531
 10
143.6724599807105
 20
592.1241086345687
 10
143.6710932180968
 20
592.1264700106944
 10
143.6708626303703
 20
592.1273949521791
 10
143.6707929301172
 20
592.1278794704945
 10
143.6707693760395
 20
592.1281360750326
 10
143.6707605643149
 20
592.128271998382
 10
143.6707569201038
 20
592.1283439004518
 10
143.670754264608
 20
592.1284079314472
 10
143.6707536721258
 20
592.12842437501
  0
LINE
  5
588
330
23
100
AcDbEntity
  8
sanindusa
100
AcDbLine
 10
143.6707536721258
 20
592.12842437501
 30
0.0
 11
143.6704310418619
 21
592.1376632969623
 31
0.0
  0
LINE
  5
589
330
23
100
AcDbEntity
  8
sanindusa
100
AcDbLine
 10
143.5219905743237
 20
592.1962127210675
 30
0.0
 11
143.5219905743237
 21
592.2156324540126
 31
0.0
  0
LINE
  5
58E
330
23
100
AcDbEntity
  8
sanindusa
100
AcDbLine
 10
143.5219905743237
 20
592.1526452376035
 30
0.0
 11
143.5219905743237
 21
592.1962127210675
 31
0.0
  0
LINE
  5
58F
330
23
100
AcDbEntity
  8
sanindusa
100
AcDbLine
 10
143.8910102672465
 20
592.2936324540126
 30
0.0
 11
143.9261860724796
 21
592.2936324540126
 31
0.0
  0
LINE
  5
590
330
23
100
AcDbEntity
  8
sanindusa
100
AcDbLine
 10
143.5591968900996
 20
592.2936324540126
 30
0.0
 11
143.5847930238105
 21
592.2936324540126
 31
0.0
  0
LINE
  5
591
330
23
100
AcDbEntity
  8
sanindusa
100
AcDbLine
 10
143.5219905743237
 20
592.1501332543246
 30
0.0
 11
143.5219905743237
 21
592.1526452376035
 31
0.0
  0
LINE
  5
592
330
23
100
AcDbEntity
  8
sanindusa
100
AcDbLine
 10
143.5847930238105
 20
592.2936324540126
 30
0.0
 11
143.8910102672465
 21
592.2936324540126
 31
0.0
  0
LINE
  5
593
330
23
100
AcDbEntity
  8
sanindusa
100
AcDbLine
 10
143.5219905743237
 20
592.2407197160448
 30
0.0
 11
143.5219905743237
 21
592.2456324540125
 31
0.0
  0
LINE
  5
595
330
23
100
AcDbEntity
  8
sanindusa
100
AcDbLine
 10
143.7205479996271
 20
591.5086303097455
 30
0.0
 11
143.8414175849175
 21
591.5086303097455
 31
0.0
  0
LINE
  5
596
330
23
100
AcDbEntity
  8
sanindusa
100
AcDbLine
 10
143.8155635210751
 20
591.5108464944016
 30
0.0
 11
143.7205479996271
 21
591.5108464944016
 31
0.0
  0
LWPOLYLINE
  5
599
330
23
100
AcDbEntity
  8
sanindusa
100
AcDbPolyline
 90
       29
 70
   128
 43
0.0
 10
143.8286661484219
 20
592.0826486390449
 10
143.82862322126
 20
592.0826486390449
 10
143.8282736692676
 20
592.0826486390449
 10
143.827573548664
 20
592.0826486390449
 10
143.8265250916615
 20
592.0826486390449
 10
143.8251316410824
 20
592.0826486390449
 10
143.8233976397008
 20
592.0826486390449
 10
143.8213286160777
 20
592.0826486390449
 10
143.8189311669339
 20
592.0826486390449
 10
143.8162129361179
 20
592.0826486390449
 10
143.8131825902345
 20
592.0826486390449
 10
143.8098497910129
 20
592.0826486390449
 10
143.8062251645021
 20
592.0826486390449
 10
143.8023202671915
 20
592.0826486390449
 10
143.798147549165
 20
592.0826486390449
 10
143.7937203144062
 20
592.0826486390449
 10
143.7890526783808
 20
592.0826486390449
 10
143.7841595230322
 20
592.0826486390449
 10
143.7790564493326
 20
592.0826486390449
 10
143.7737597275424
 20
592.0826486390449
 10
143.7682862453351
 20
592.0826486390449
 10
143.7626534539538
 20
592.0826486390449
 10
143.7568793125716
 20
592.0826486390449
 10
143.7509822310308
 20
592.0826486390449
 10
143.7449810111475
 20
592.0826486390449
 10
143.7388947867642
 20
592.0826486390449
 10
143.732742962746
 20
592.0826486390449
 10
143.7265451531105
 20
592.0826486390449
 10
143.7203211183434
 20
592.0826486379224
  0
LINE
  5
59A
330
23
100
AcDbEntity
  8
sanindusa
100
AcDbLine
 10
143.7203211183434
 20
592.0808279601525
 30
0.0
 11
143.8153149681164
 21
592.0808279601525
 31
0.0
  0
ARC
  5
5CA
330
23
100
AcDbEntity
  8
sanindusa
100
AcDbCircle
 10
144.2345817604711
 20
592.1501332543246
 30
0.0
 40
0.0020000000000002
100
AcDbArc
 50
180.0
 51
270.0
  0
LINE
  5
5CB
330
23
100
AcDbEntity
  8
sanindusa
100
AcDbLine
 10
144.2345817604711
 20
592.1481332543246
 30
0.0
 11
144.3606118303034
 21
592.1481334696435
 31
0.0
  0
LINE
  5
5CC
330
23
100
AcDbEntity
  8
sanindusa
100
AcDbLine
 10
144.5470817604711
 20
591.4777383370067
 30
0.0
 11
144.5470817604711
 21
591.4949280463932
 31
0.0
  0
ARC
  5
5CD
330
23
100
AcDbEntity
  8
sanindusa
100
AcDbCircle
 10
144.5420817604711
 20
591.4949280463932
 30
0.0
 40
0.005
100
AcDbArc
 50
0.0
 51
85.10072537913417
  0
LWPOLYLINE
  5
5CE
330
23
100
AcDbEntity
  8
sanindusa
100
AcDbPolyline
 90
        8
 70
   128
 43
0.0
 10
144.5425087820168
 20
591.4999097782806
 10
144.5382948185848
 20
591.5002709912632
 10
144.5361362331852
 20
591.5004560232745
 10
144.5339776479194
 20
591.5006410568483
 10
144.531819062796
 20
591.5008260920818
 10
144.5296604778239
 20
591.5010111290812
 10
144.527501893013
 20
591.5011961679616
 10
144.5253433083741
 20
591.5013812088481
  0
ARC
  5
5CF
330
23
100
AcDbEntity
  8
sanindusa
100
AcDbCircle
 10
144.5290817604711
 20
592.0958952253799
 30
0.0
 40
0.005
100
AcDbArc
 50
277.7654706234222
 51
0.0
  0
LINE
  5
5D0
330
23
100
AcDbEntity
  8
sanindusa
100
AcDbLine
 10
144.5340817604711
 20
592.0958952253799
 30
0.0
 11
144.5340817604711
 21
592.1265611541714
 31
0.0
  0
LWPOLYLINE
  5
5D1
330
23
100
AcDbEntity
  8
sanindusa
100
AcDbPolyline
 90
        8
 70
   128
 43
0.0
 10
144.5246225024715
 20
592.0902408363375
 10
144.5252682343505
 20
592.0903288958957
 10
144.5259139662623
 20
592.0904169552134
 10
144.5265596982062
 20
592.0905050142955
 10
144.5272054301815
 20
592.0905930731467
 10
144.5278511621878
 20
592.0906811317713
 10
144.5284968942244
 20
592.0907691901738
 10
144.5297573528328
 20
592.0909410781312
  0
LWPOLYLINE
  5
5D2
330
23
100
AcDbEntity
  8
sanindusa
100
AcDbPolyline
 90
        7
 70
   128
 43
0.0
 10
144.5520087710649
 20
591.5086303097455
 10
144.5481104400455
 20
591.5089644580474
 10
144.5440569522651
 20
591.5093119097857
 10
144.5400034648751
 20
591.5096593660779
 10
144.5359499779199
 20
591.5100068274417
 10
144.5318964914507
 20
591.5103542944764
 10
144.5261547080239
 20
591.5108464944016
  0
LINE
  5
5D3
330
23
100
AcDbEntity
  8
sanindusa
100
AcDbLine
 10
144.5435817604711
 20
592.0876027887841
 30
0.0
 11
144.5435817604711
 21
592.1412383370067
 31
0.0
  0
ARC
  5
5D4
330
23
100
AcDbEntity
  8
sanindusa
100
AcDbCircle
 10
144.5265817604711
 20
591.5158282236403
 30
0.0
 40
0.005
100
AcDbArc
 50
180.0
 51
265.1003699753744
  0
ARC
  5
5D8
330
23
100
AcDbEntity
  8
sanindusa
100
AcDbCircle
 10
144.5265817604711
 20
592.0758738147919
 30
0.0
 40
0.0145000000000001
100
AcDbArc
 50
97.76563074507038
 51
125.88829755209
  0
ARC
  5
5D9
330
23
100
AcDbEntity
  8
sanindusa
100
AcDbCircle
 10
144.5265817604711
 20
591.5158282236403
 30
0.0
 40
0.0145
100
AcDbArc
 50
180.0
 51
217.497707699588
  0
LWPOLYLINE
  5
5DA
330
23
100
AcDbEntity
  8
sanindusa
100
AcDbPolyline
 90
        8
 70
   128
 43
0.0
 10
144.5259061542643
 20
592.0808279601525
 10
144.5275850679592
 20
592.0810569159705
 10
144.5292639818686
 20
592.0812858702141
 10
144.5309428959822
 20
592.0815148229611
 10
144.53262181029
 20
592.0817437742843
 10
144.5343007247826
 20
592.0819727242517
 10
144.5359796394515
 20
592.0822016729272
 10
144.5392573345692
 20
592.0826486390449
  0
ARC
  5
5DB
330
23
100
AcDbEntity
  8
sanindusa
100
AcDbCircle
 10
144.5290817604711
 20
592.1265611541714
 30
0.0
 40
0.005
100
AcDbArc
 50
0.0
 51
90.69586593996367
  0
LINE
  5
5DC
330
23
100
AcDbEntity
  8
sanindusa
100
AcDbLine
 10
144.5215817604711
 20
591.5158282236403
 30
0.0
 11
144.5215817604711
 21
592.0758738147919
 31
0.0
  0
ARC
  5
5DD
330
23
100
AcDbEntity
  8
sanindusa
100
AcDbCircle
 10
144.5265817604711
 20
592.0758738147919
 30
0.0
 40
0.0050000000000002
100
AcDbArc
 50
97.76563074507038
 51
180.0
  0
ARC
  5
5DE
330
23
100
AcDbEntity
  8
sanindusa
100
AcDbCircle
 10
144.5385817604711
 20
592.0876027887841
 30
0.0
 40
0.005
100
AcDbArc
 50
277.7652594024534
 51
0.0
  0
ARC
  5
5DF
330
23
100
AcDbEntity
  8
sanindusa
100
AcDbCircle
 10
144.5420817604711
 20
591.4777383370067
 30
0.0
 40
0.005
100
AcDbArc
 50
270.0
 51
0.0
  0
ARC
  5
5E0
330
23
100
AcDbEntity
  8
sanindusa
100
AcDbCircle
 10
144.5515817604711
 20
591.5036485769191
 30
0.0
 40
0.005
100
AcDbArc
 50
0.0
 51
85.10085133835945
  0
LINE
  5
5E1
330
23
100
AcDbEntity
  8
sanindusa
100
AcDbLine
 10
144.5565817604711
 20
591.4632383370067
 30
0.0
 11
144.5565817604711
 21
591.5036485769191
 31
0.0
  0
ARC
  5
5E2
330
23
100
AcDbEntity
  8
sanindusa
100
AcDbCircle
 10
144.5230817604711
 20
592.1264882796775
 30
0.0
 40
0.005
100
AcDbArc
 50
90.69586593996367
 51
180.0
  0
LINE
  5
5E3
330
23
100
AcDbEntity
  8
sanindusa
100
AcDbLine
 10
144.5085817604711
 20
592.1408132357921
 30
0.0
 11
144.5085817604711
 21
591.4632383370067
 31
0.0
  0
LINE
  5
5E4
330
23
100
AcDbEntity
  8
sanindusa
100
AcDbLine
 10
144.4552872412744
 20
591.4632383370067
 30
0.0
 11
144.5085817604711
 21
591.4632383370067
 31
0.0
  0
ARC
  5
5E6
330
23
100
AcDbEntity
  8
sanindusa
100
AcDbCircle
 10
144.5230817604711
 20
591.4777383370067
 30
0.0
 40
0.005
100
AcDbArc
 50
180.0
 51
270.0
  0
LINE
  5
5E7
330
23
100
AcDbEntity
  8
sanindusa
100
AcDbLine
 10
144.5180817604711
 20
592.1264882796775
 30
0.0
 11
144.5180817604711
 21
592.0876211549165
 31
0.0
  0
LINE
  5
5E8
330
23
100
AcDbEntity
  8
sanindusa
100
AcDbLine
 10
144.523021036205
 20
592.1314879109202
 30
0.0
 11
144.529021036205
 21
592.1315607854142
 31
0.0
  0
LINE
  5
5E9
330
23
100
AcDbEntity
  8
sanindusa
100
AcDbLine
 10
144.5230817604711
 20
591.4727383370067
 30
0.0
 11
144.5420817604711
 21
591.4727383370067
 31
0.0
  0
LINE
  5
5EA
330
23
100
AcDbEntity
  8
sanindusa
100
AcDbLine
 10
144.5085817604711
 20
591.4632383370067
 30
0.0
 11
144.5565817604711
 21
591.4632383370067
 31
0.0
  0
LINE
  5
5EB
330
23
100
AcDbEntity
  8
sanindusa
100
AcDbLine
 10
144.5085817604711
 20
592.1408132357921
 30
0.0
 11
144.5435817604711
 21
592.1412383370067
 31
0.0
  0
LINE
  5
5EC
330
23
100
AcDbEntity
  8
sanindusa
100
AcDbLine
 10
144.2965817604711
 20
591.4632383370067
 30
0.0
 11
144.2965817604711
 21
592.1382383370066
 31
0.0
  0
LINE
  5
5ED
330
23
100
AcDbEntity
  8
sanindusa
100
AcDbLine
 10
144.2965817604711
 20
591.4632383370067
 30
0.0
 11
144.4552872412744
 21
591.4632383370067
 31
0.0
  0
LINE
  5
5EE
330
23
100
AcDbEntity
  8
sanindusa
100
AcDbLine
 10
144.3614627425062
 20
592.1390263651285
 30
0.0
 11
144.2965817604711
 21
592.1382383370066
 31
0.0
  0
LINE
  5
5F2
330
23
100
AcDbEntity
  8
sanindusa
100
AcDbLine
 10
144.4878053753624
 20
592.1406552760791
 30
0.0
 11
144.5268798131719
 21
592.1414464680577
 31
0.0
  0
ARC
  5
5F3
330
23
100
AcDbEntity
  8
sanindusa
100
AcDbCircle
 10
144.4878928162985
 20
592.1356560407294
 30
0.0
 40
0.0050000000000001
100
AcDbArc
 50
91.00205040030314
 51
174.2999999980421
  0
LINE
  5
5F4
330
23
100
AcDbEntity
  8
sanindusa
100
AcDbLine
 10
144.4075321933264
 20
592.1032290527612
 30
0.0
 11
144.407581760471
 21
592.1027324540126
 31
0.0
  0
LINE
  5
5F5
330
23
100
AcDbEntity
  8
sanindusa
100
AcDbLine
 10
144.4795817604711
 20
592.1027324540126
 30
0.0
 11
144.4829175384487
 21
592.136152639478
 31
0.0
  0
LINE
  5
5F6
330
23
100
AcDbEntity
  8
sanindusa
100
AcDbLine
 10
144.4075012562527
 20
592.1497142255822
 30
0.0
 11
144.4199505900217
 21
592.1388921848422
 31
0.0
  0
LWPOLYLINE
  5
5F7
330
23
100
AcDbEntity
  8
sanindusa
100
AcDbPolyline
 90
       21
 70
   128
 43
0.0
 10
144.4075012562527
 20
592.1497142255822
 10
144.4075056152405
 20
592.1497142880014
 10
144.4081338284848
 20
592.1497232020235
 10
144.4097536925712
 20
592.1497453427989
 10
144.4124142060082
 20
592.1497791944419
 10
144.4158811636468
 20
592.1498191789054
 10
144.420264069176
 20
592.1498642723013
 10
144.4251653726003
 20
592.1499093451187
 10
144.4307474251118
 20
592.1499563581899
 10
144.4365358848122
 20
592.1500031116871
 10
144.4427001405623
 20
592.1500537504515
 10
144.4487574752337
 20
592.1501071813048
 10
144.4548501453153
 20
592.1501671016829
 10
144.4605049846208
 20
592.150230163405
 10
144.4658463148867
 20
592.1502977217269
 10
144.4704320466597
 20
592.150362804224
 10
144.4743839156171
 20
592.1504246940688
 10
144.4773539320879
 20
592.1504750513346
 10
144.4794435539809
 20
592.1505126393465
 10
144.4803092442663
 20
592.1505287975685
 10
144.4806058028827
 20
592.1505344308202
  0
LINE
  5
5F8
330
23
100
AcDbEntity
  8
sanindusa
100
AcDbLine
 10
144.4672129309205
 20
592.1388921848422
 30
0.0
 11
144.4806058028827
 21
592.1505344308202
 31
0.0
  0
LINE
  5
5FE
330
23
100
AcDbEntity
  8
sanindusa
100
AcDbLine
 10
144.4806058028827
 20
592.1505344308202
 30
0.0
 11
144.5266503562065
 21
592.1514438351862
 31
0.0
  0
LINE
  5
5FF
330
23
100
AcDbEntity
  8
sanindusa
100
AcDbLine
 10
144.3954605326004
 20
592.1496507538241
 30
0.0
 11
144.4075012562527
 21
592.1497142255822
 31
0.0
  0
ARC
  5
601
330
23
100
AcDbEntity
  8
sanindusa
100
AcDbCircle
 10
144.4997392269025
 20
592.2723871849195
 30
0.0
 40
0.1271351550908468
100
AcDbArc
 50
297.4643670488293
 51
349.9956598771152
  0
ARC
  5
602
330
23
100
AcDbEntity
  8
sanindusa
100
AcDbCircle
 10
144.5249957763432
 20
592.2238047098329
 30
0.0
 40
0.0723797887132491
100
AcDbArc
 50
271.3098781202542
 51
297.4612042121027
  0
LINE
  5
603
330
23
100
AcDbEntity
  8
sanindusa
100
AcDbLine
 10
144.6824586611179
 20
592.2406848112319
 30
0.0
 11
144.6825303091749
 21
592.2365800967932
 31
0.0
  0
ARC
  5
604
330
23
100
AcDbEntity
  8
sanindusa
100
AcDbCircle
 10
144.6794591180324
 20
592.2406324540125
 30
0.0
 40
0.003
100
AcDbArc
 50
0.9999999968366147
 51
90.0
  0
LINE
  5
605
330
23
100
AcDbEntity
  8
sanindusa
100
AcDbLine
 10
144.6794591180324
 20
592.2436324540126
 30
0.0
 11
144.6397564963079
 21
592.2436324540126
 31
0.0
  0
ARC
  5
606
330
23
100
AcDbEntity
  8
sanindusa
100
AcDbCircle
 10
144.6397564963079
 20
592.2406324540125
 30
0.0
 40
0.0030000000000001
100
AcDbArc
 50
90.0
 51
173.1997568461715
  0
ARC
  5
607
330
23
100
AcDbEntity
  8
sanindusa
100
AcDbCircle
 10
144.3210147295067
 20
592.2786414805256
 30
0.0
 40
0.3180000000000001
100
AcDbArc
 50
349.8948844532366
 51
353.1997568461715
  0
ARC
  5
608
330
23
100
AcDbEntity
  8
sanindusa
100
AcDbCircle
 10
144.5129897956641
 20
592.2444278286616
 30
0.0
 40
0.123
100
AcDbArc
 50
286.062254598657
 51
349.8948844532366
  0
ARC
  5
609
330
23
100
AcDbEntity
  8
sanindusa
100
AcDbCircle
 10
144.5464682752663
 20
592.1281514707743
 30
0.0
 40
0.0020000000000002
100
AcDbArc
 50
181.0000000033494
 51
286.062254598657
  0
LINE
  5
60A
330
23
100
AcDbEntity
  8
sanindusa
100
AcDbLine
 10
144.544468579876
 20
592.1281165659614
 30
0.0
 11
144.5442394959031
 21
592.1412407779781
 31
0.0
  0
ARC
  5
60B
330
23
100
AcDbEntity
  8
sanindusa
100
AcDbCircle
 10
144.5422398005128
 20
592.1412058731653
 30
0.0
 40
0.0020000000000005
100
AcDbArc
 50
1.000000003349398
 51
101.7904611493515
  0
LINE
  5
60C
330
23
100
AcDbEntity
  8
sanindusa
100
AcDbLine
 10
144.4665817604711
 20
592.1027324540126
 30
0.0
 11
144.4795817604711
 21
592.1027324540126
 31
0.0
  0
LINE
  5
60D
330
23
100
AcDbEntity
  8
sanindusa
100
AcDbLine
 10
144.4672129309205
 20
592.1388921848422
 30
0.0
 11
144.4665817604711
 21
592.1027324540126
 31
0.0
  0
LINE
  5
60E
330
23
100
AcDbEntity
  8
sanindusa
100
AcDbLine
 10
144.6249412406537
 20
592.2503009128801
 30
0.0
 11
144.6318532198619
 21
592.2895006949009
 31
0.0
  0
ARC
  5
60F
330
23
100
AcDbEntity
  8
sanindusa
100
AcDbCircle
 10
144.636777258627
 20
592.2886324540126
 30
0.0
 40
0.005
100
AcDbArc
 50
90.0
 51
169.9999999993425
  0
LINE
  5
610
330
23
100
AcDbEntity
  8
sanindusa
100
AcDbLine
 10
144.636777258627
 20
592.2936324540126
 30
0.0
 11
144.6876682741555
 21
592.2936324540126
 31
0.0
  0
ARC
  5
611
330
23
100
AcDbEntity
  8
sanindusa
100
AcDbCircle
 10
144.6876682741555
 20
592.2886324540126
 30
0.0
 40
0.0050000000000001
100
AcDbArc
 50
0.9999999968366147
 51
90.0
  0
LINE
  5
612
330
23
100
AcDbEntity
  8
sanindusa
100
AcDbLine
 10
144.6935402658777
 20
592.2387197160447
 30
0.0
 11
144.6926675126313
 21
592.2887197160448
 31
0.0
  0
ARC
  5
613
330
23
100
AcDbEntity
  8
sanindusa
100
AcDbCircle
 10
144.6885410274019
 20
592.2386324540126
 30
0.0
 40
0.005
100
AcDbArc
 50
270.0
 51
1.000000003349398
  0
LINE
  5
614
330
23
100
AcDbEntity
  8
sanindusa
100
AcDbLine
 10
144.6885410274019
 20
592.2336324540126
 30
0.0
 11
144.6855298522604
 21
592.2336324540126
 31
0.0
  0
ARC
  5
615
330
23
100
AcDbEntity
  8
sanindusa
100
AcDbCircle
 10
144.6855298522604
 20
592.2366324540127
 30
0.0
 40
0.0030000000000004
100
AcDbArc
 50
181.0000000033494
 51
270.0
  0
ARC
  5
617
330
23
100
AcDbEntity
  8
sanindusa
100
AcDbCircle
 10
144.3954381578567
 20
592.154650703761
 30
0.0
 40
0.0050000000000002
100
AcDbArc
 50
181.9999999972438
 51
270.2563965328176
  0
ARC
  5
618
330
23
100
AcDbEntity
  8
sanindusa
100
AcDbCircle
 10
144.4011786060945
 20
592.1366783150971
 30
0.0
 40
0.0030000000000001
100
AcDbArc
 50
5.700000001957864
 51
90.29908626483374
  0
ARC
  5
61B
330
23
100
AcDbEntity
  8
sanindusa
100
AcDbCircle
 10
144.516713454716
 20
592.2312590590741
 30
0.0
 40
0.1093150689933796
100
AcDbArc
 50
284.2283925639872
 51
286.0964613881339
  0
LINE
  5
61C
330
23
100
AcDbEntity
  8
sanindusa
100
AcDbLine
 10
144.2571252179657
 20
592.3336324540127
 30
0.0
 11
144.2345817604711
 21
592.3336324540127
 31
0.0
  0
ARC
  5
61D
330
23
100
AcDbEntity
  8
sanindusa
100
AcDbCircle
 10
144.2571252179657
 20
592.3286324540127
 30
0.0
 40
0.005
100
AcDbArc
 50
5.000000002354321
 51
90.0
  0
LINE
  5
61E
330
23
100
AcDbEntity
  8
sanindusa
100
AcDbLine
 10
144.2621061914562
 20
592.3290682327263
 30
0.0
 11
144.2657402996507
 21
592.2875301859886
 31
0.0
  0
ARC
  5
61F
330
23
100
AcDbEntity
  8
sanindusa
100
AcDbCircle
 10
144.2707212731412
 20
592.2879659647024
 30
0.0
 40
0.0050000000000001
100
AcDbArc
 50
185.0000000023543
 51
268.9999999999354
  0
LINE
  5
620
330
23
100
AcDbEntity
  8
sanindusa
100
AcDbLine
 10
144.270634011109
 20
592.2829667262266
 30
0.0
 11
144.3060704911028
 21
592.2823481801676
 31
0.0
  0
LINE
  5
621
330
23
100
AcDbEntity
  8
sanindusa
100
AcDbLine
 10
144.3058610622255
 20
592.2703500078256
 30
0.0
 11
144.3060704911028
 21
592.2823481801676
 31
0.0
  0
LINE
  5
622
330
23
100
AcDbEntity
  8
sanindusa
100
AcDbLine
 10
144.2734323560498
 20
592.2709160529974
 30
0.0
 11
144.3058610622255
 21
592.2703500078256
 31
0.0
  0
ARC
  5
623
330
23
100
AcDbEntity
  8
sanindusa
100
AcDbCircle
 10
144.2733450940176
 20
592.2659168145217
 30
0.0
 40
0.0050000000000002
100
AcDbArc
 50
88.99999999993543
 51
177.3000000024921
  0
LINE
  5
624
330
23
100
AcDbEntity
  8
sanindusa
100
AcDbLine
 10
144.2683506446428
 20
592.2661523467752
 30
0.0
 11
144.2659637440109
 21
592.2155382411111
 31
0.0
  0
ARC
  5
625
330
23
100
AcDbEntity
  8
sanindusa
100
AcDbCircle
 10
144.263965964261
 20
592.2156324540126
 30
0.0
 40
0.0020000000000003
100
AcDbArc
 50
270.0
 51
357.3000000024921
  0
LINE
  5
626
330
23
100
AcDbEntity
  8
sanindusa
100
AcDbLine
 10
144.2345817604711
 20
592.2136324540126
 30
0.0
 11
144.263965964261
 21
592.2136324540126
 31
0.0
  0
ARC
  5
627
330
23
100
AcDbEntity
  8
sanindusa
100
AcDbCircle
 10
144.2345817604711
 20
592.2156324540126
 30
0.0
 40
0.0020000000000002
100
AcDbArc
 50
180.0
 51
270.0
  0
ARC
  5
628
330
23
100
AcDbEntity
  8
sanindusa
100
AcDbCircle
 10
144.2345817604711
 20
592.3316324540126
 30
0.0
 40
0.0020000000000002
100
AcDbArc
 50
90.0
 51
180.0
  0
LINE
  5
629
330
23
100
AcDbEntity
  8
sanindusa
100
AcDbLine
 10
144.2325817604711
 20
592.3316324540126
 30
0.0
 11
144.2325817604711
 21
592.2156324540126
 31
0.0
  0
LINE
  5
62C
330
23
100
AcDbEntity
  8
sanindusa
100
AcDbLine
 10
144.2325817604711
 20
592.1962127210675
 30
0.0
 11
144.2325817604711
 21
592.2156324540126
 31
0.0
  0
LINE
  5
630
330
23
100
AcDbEntity
  8
sanindusa
100
AcDbLine
 10
144.2659637440109
 20
592.2155382411111
 30
0.0
 11
144.2650479326531
 21
592.1961185081662
 31
0.0
  0
LINE
  5
631
330
23
100
AcDbEntity
  8
sanindusa
100
AcDbLine
 10
144.3410651604332
 20
592.2817373459422
 30
0.0
 11
144.340855731556
 21
592.2697391736003
 31
0.0
  0
LINE
  5
632
330
23
100
AcDbEntity
  8
sanindusa
100
AcDbLine
 10
144.340855731556
 20
592.2697391736003
 30
0.0
 11
144.3058610622255
 21
592.2703500078256
 31
0.0
  0
LINE
  5
633
330
23
100
AcDbEntity
  8
sanindusa
100
AcDbLine
 10
144.3410651604332
 20
592.2817373459422
 30
0.0
 11
144.3060704911028
 21
592.2823481801676
 31
0.0
  0
ARC
  5
634
330
23
100
AcDbEntity
  8
sanindusa
100
AcDbCircle
 10
144.3811931893323
 20
592.2760361469521
 30
0.0
 40
0.0050000000000001
100
AcDbArc
 50
1.999999997243794
 51
88.99999999993543
  0
ARC
  5
635
330
23
100
AcDbEntity
  8
sanindusa
100
AcDbCircle
 10
144.3849977716502
 20
592.2530482891061
 30
0.0
 40
0.002
100
AcDbArc
 50
270.2015564352519
 51
1.999999997243794
  0
LINE
  5
636
330
23
100
AcDbEntity
  8
sanindusa
100
AcDbLine
 10
144.3850048072825
 20
592.2510483014812
 30
0.0
 11
144.3770637119313
 21
592.2510203659948
 31
0.0
  0
LINE
  5
637
330
23
100
AcDbEntity
  8
sanindusa
100
AcDbLine
 10
144.3770637119313
 20
592.2510203659948
 30
0.0
 11
144.3765973138367
 21
592.2643762599632
 31
0.0
  0
ARC
  5
638
330
23
100
AcDbEntity
  8
sanindusa
100
AcDbCircle
 10
144.3716003597016
 20
592.2642017624796
 30
0.0
 40
0.0050000000000001
100
AcDbArc
 50
1.999999997243794
 51
88.99999999993543
  0
LINE
  5
639
330
23
100
AcDbEntity
  8
sanindusa
100
AcDbLine
 10
144.3695803824748
 20
592.2692377829535
 30
0.0
 11
144.3716876217338
 21
592.2692010009554
 31
0.0
  0
ARC
  5
63A
330
23
100
AcDbEntity
  8
sanindusa
100
AcDbCircle
 10
144.3695280252555
 20
592.266238239868
 30
0.0
 40
0.0029999999999998
100
AcDbArc
 50
88.99999999993543
 51
181.9999999972438
  0
LINE
  5
63B
330
23
100
AcDbEntity
  8
sanindusa
100
AcDbLine
 10
144.3710555522792
 20
592.1365344640786
 30
0.0
 11
144.3665298527745
 21
592.2661335413779
 31
0.0
  0
ARC
  5
63C
330
23
100
AcDbEntity
  8
sanindusa
100
AcDbCircle
 10
144.3910433688196
 20
592.1372324540126
 30
0.0
 40
0.0200000000000001
100
AcDbArc
 50
181.9999999972438
 51
270.0
  0
LINE
  5
63D
330
23
100
AcDbEntity
  8
sanindusa
100
AcDbLine
 10
144.4203286620296
 20
592.1172324540126
 30
0.0
 11
144.3910433688196
 21
592.1172324540126
 31
0.0
  0
LINE
  5
63E
330
23
100
AcDbEntity
  8
sanindusa
100
AcDbLine
 10
144.4205817604711
 20
592.1027324540126
 30
0.0
 11
144.4203286620296
 21
592.1172324540126
 31
0.0
  0
LINE
  5
63F
330
23
100
AcDbEntity
  8
sanindusa
100
AcDbLine
 10
144.407581760471
 20
592.1027324540126
 30
0.0
 11
144.4205817604711
 21
592.1027324540126
 31
0.0
  0
ARC
  5
640
330
23
100
AcDbEntity
  8
sanindusa
100
AcDbCircle
 10
144.4025569154765
 20
592.1027324540126
 30
0.0
 40
0.005
100
AcDbArc
 50
5.700000001957864
 51
90.0
  0
LINE
  5
641
330
23
100
AcDbEntity
  8
sanindusa
100
AcDbLine
 10
144.3905605244322
 20
592.1077324540126
 30
0.0
 11
144.4025569154765
 21
592.1077324540126
 31
0.0
  0
ARC
  5
642
330
23
100
AcDbEntity
  8
sanindusa
100
AcDbCircle
 10
144.3905605244322
 20
592.1367324540126
 30
0.0
 40
0.0290000000000001
100
AcDbArc
 50
181.9999999972438
 51
270.0
  0
LINE
  5
643
330
23
100
AcDbEntity
  8
sanindusa
100
AcDbLine
 10
144.35707352711
 20
592.264717048928
 30
0.0
 11
144.3615781904486
 21
592.1357203686083
 31
0.0
  0
ARC
  5
644
330
23
100
AcDbEntity
  8
sanindusa
100
AcDbCircle
 10
144.3520765729749
 20
592.2645425514446
 30
0.0
 40
0.0050000000000003
100
AcDbArc
 50
1.999999997243794
 51
88.99999999993543
  0
LINE
  5
645
330
23
100
AcDbEntity
  8
sanindusa
100
AcDbLine
 10
144.340855731556
 20
592.2697391736003
 30
0.0
 11
144.3521638350071
 21
592.2695417899204
 31
0.0
  0
LINE
  5
646
330
23
100
AcDbEntity
  8
sanindusa
100
AcDbLine
 10
144.3410651604332
 20
592.2817373459422
 30
0.0
 11
144.3812804513645
 21
592.2810353854279
 31
0.0
  0
LINE
  5
647
330
23
100
AcDbEntity
  8
sanindusa
100
AcDbLine
 10
144.3869965533042
 20
592.2531180880995
 30
0.0
 11
144.3861901434674
 21
592.2762106444356
 31
0.0
  0
LINE
  5
649
330
23
100
AcDbEntity
  8
sanindusa
100
AcDbLine
 10
144.4201193288483
 20
592.1292251439369
 30
0.0
 11
144.4049374384726
 21
592.1292251439369
 31
0.0
  0
LINE
  5
64A
330
23
100
AcDbEntity
  8
sanindusa
100
AcDbLine
 10
144.3945334923731
 20
592.1396465668355
 30
0.0
 11
144.4011629460454
 21
592.139678274224
 31
0.0
  0
LINE
  5
64C
330
23
100
AcDbEntity
  8
sanindusa
100
AcDbLine
 10
144.3804811465898
 20
592.1531578415359
 30
0.0
 11
144.3774128788934
 21
592.2410215324318
 31
0.0
  0
ARC
  5
64E
330
23
100
AcDbEntity
  8
sanindusa
100
AcDbCircle
 10
144.3944726181681
 20
592.1536464344897
 30
0.0
 40
0.0140000000000001
100
AcDbArc
 50
181.9999999972438
 51
270.2491318594622
  0
LINE
  5
64F
330
23
100
AcDbEntity
  8
sanindusa
100
AcDbLine
 10
144.3904412037216
 20
592.1544762062775
 30
0.0
 11
144.3874853870511
 21
592.2391197211115
 31
0.0
  0
LINE
  5
651
330
23
100
AcDbEntity
  8
sanindusa
100
AcDbLine
 10
144.4205817604711
 20
592.1027324540126
 30
0.0
 11
144.4665817604711
 21
592.1027324540126
 31
0.0
  0
LINE
  5
655
330
23
100
AcDbEntity
  8
sanindusa
100
AcDbLine
 10
144.3770986286275
 20
592.2500204826385
 30
0.0
 11
144.3773779621971
 21
592.2420214157881
 31
0.0
  0
LINE
  5
657
330
23
100
AcDbEntity
  8
sanindusa
100
AcDbLine
 10
144.3773779621971
 20
592.2420214157881
 30
0.0
 11
144.3774128788934
 21
592.2410215324318
 31
0.0
  0
LINE
  5
658
330
23
100
AcDbEntity
  8
sanindusa
100
AcDbLine
 10
144.3770637119313
 20
592.2510203659948
 30
0.0
 11
144.3770986286275
 21
592.2500204826385
 31
0.0
  0
LINE
  5
659
330
23
100
AcDbEntity
  8
sanindusa
100
AcDbLine
 10
144.3869965533042
 20
592.2531180880995
 30
0.0
 11
144.3874853870511
 21
592.2391197211115
 31
0.0
  0
LINE
  5
677
330
23
100
AcDbEntity
  8
sanindusa
100
AcDbLine
 10
144.2325817604711
 20
592.1526452376035
 30
0.0
 11
144.2325817604711
 21
592.1962127210675
 31
0.0
  0
LINE
  5
67B
330
23
100
AcDbEntity
  8
sanindusa
100
AcDbLine
 10
144.3605679018403
 20
592.1543584355084
 30
0.0
 11
144.268036574281
 21
592.1543584355084
 31
0.0
  0
LINE
  5
67F
330
23
100
AcDbEntity
  8
sanindusa
100
AcDbLine
 10
144.2650479326531
 20
592.1961185081662
 30
0.0
 11
144.2640075507896
 21
592.1740572640292
 31
0.0
  0
LINE
  5
687
330
23
100
AcDbEntity
  8
sanindusa
100
AcDbLine
 10
144.6016014533938
 20
592.2936324540126
 30
0.0
 11
144.636777258627
 21
592.2936324540126
 31
0.0
  0
LINE
  5
68E
330
23
100
AcDbEntity
  8
sanindusa
100
AcDbLine
 10
144.2697880762469
 20
592.2936324540126
 30
0.0
 11
144.2953842099579
 21
592.2936324540126
 31
0.0
  0
ARC
  5
693
330
23
100
AcDbEntity
  8
sanindusa
100
AcDbCircle
 10
144.3012639786287
 20
592.173246456263
 30
0.0
 40
0.0372652495572885
100
AcDbArc
 50
178.7532747054944
 51
194.8371002949338
  0
LWPOLYLINE
  5
69B
330
23
100
AcDbEntity
  8
sanindusa
100
AcDbPolyline
 90
        4
 70
   128
 43
0.0
 10
144.2652412352539
 20
592.1637038788168
 10
144.2672455606742
 20
592.156850962873
 10
144.2680267550766
 20
592.1543892713178
 10
144.268036574281
 20
592.1543584355084
  0
LINE
  5
69D
330
23
100
AcDbEntity
  8
sanindusa
100
AcDbLine
 10
144.2325817604711
 20
592.1501332543246
 30
0.0
 11
144.2325817604711
 21
592.1526452376035
 31
0.0
  0
LINE
  5
69F
330
23
100
AcDbEntity
  8
sanindusa
100
AcDbLine
 10
144.2953842099579
 20
592.2936324540126
 30
0.0
 11
144.6016014533938
 21
592.2936324540126
 31
0.0
  0
LINE
  5
6A0
330
23
100
AcDbEntity
  8
sanindusa
100
AcDbLine
 10
144.6855298522604
 20
592.2336324540126
 30
0.0
 11
144.6358133755209
 21
592.2336324540126
 31
0.0
  0
LINE
  5
6CB
330
23
100
AcDbEntity
  8
sanindusa
100
AcDbLine
 10
144.5180817604711
 20
591.4777383370067
 30
0.0
 11
144.5180817604711
 21
591.5040808835158
 31
0.0
  0
ARC
  5
6CC
330
23
100
AcDbEntity
  8
sanindusa
100
AcDbCircle
 10
144.5265817604711
 20
591.5158282236403
 30
0.0
 40
0.0145
100
AcDbArc
 50
234.11170244791
 51
265.1003699753744
  0
LINE
  5
6CF
330
23
100
AcDbEntity
  8
sanindusa
100
AcDbLine
 10
144.2583617458932
 20
592.2666234112823
 30
0.0
 11
144.2563343438138
 21
592.2236324540127
 31
0.0
  0
LINE
  5
6D0
330
23
100
AcDbEntity
  8
sanindusa
100
AcDbLine
 10
144.2425817604711
 20
592.2236324540127
 30
0.0
 11
144.2563343438138
 21
592.2236324540127
 31
0.0
  0
LINE
  5
6D1
330
23
100
AcDbEntity
  8
sanindusa
100
AcDbLine
 10
144.2425817604711
 20
592.3236324540126
 30
0.0
 11
144.2425817604711
 21
592.2236324540127
 31
0.0
  0
LINE
  5
6D2
330
23
100
AcDbEntity
  8
sanindusa
100
AcDbLine
 10
144.2525435620956
 20
592.3236324540126
 30
0.0
 11
144.2425817604711
 21
592.3236324540126
 31
0.0
  0
LINE
  5
6D3
330
23
100
AcDbEntity
  8
sanindusa
100
AcDbLine
 10
144.2525435620956
 20
592.3236324540126
 30
0.0
 11
144.2557783526698
 21
592.2866586285612
 31
0.0
  0
ARC
  5
6D4
330
23
100
AcDbEntity
  8
sanindusa
100
AcDbCircle
 10
144.2707212731412
 20
592.2879659647024
 30
0.0
 40
0.0150000000000001
100
AcDbArc
 50
185.0000000023543
 51
234.5310239121372
  0
ARC
  5
6D5
330
23
100
AcDbEntity
  8
sanindusa
100
AcDbCircle
 10
144.2733450940176
 20
592.2659168145217
 30
0.0
 40
0.0150000000000002
100
AcDbArc
 50
139.0414012564183
 51
177.3000000024921
  0
ARC
  5
6D6
330
23
100
AcDbEntity
  8
sanindusa
100
AcDbCircle
 10
144.5129897956641
 20
592.2444278286616
 30
0.0
 40
0.113
100
AcDbArc
 50
286.062254598657
 51
286.1037124622471
  0
ARC
  5
6D7
330
23
100
AcDbEntity
  8
sanindusa
100
AcDbCircle
 10
144.4997392269025
 20
592.2723871849195
 30
0.0
 40
0.1371351550908468
100
AcDbArc
 50
297.4643670488293
 51
329.8476617264628
  0
ARC
  5
6D8
330
23
100
AcDbEntity
  8
sanindusa
100
AcDbCircle
 10
144.5249957763432
 20
592.2238047098329
 30
0.0
 40
0.0823797887132491
100
AcDbArc
 50
271.3098781202542
 51
281.8087542524498
  0
ARC
  5
6D9
330
23
100
AcDbEntity
  8
sanindusa
100
AcDbCircle
 10
144.5422398005128
 20
592.1412058731653
 30
0.0
 40
0.0120000000000005
100
AcDbArc
 50
1.000000003349398
 51
25.43018361942313
  0
LINE
  5
6DA
330
23
100
AcDbEntity
  8
sanindusa
100
AcDbLine
 10
144.5544670568275
 20
592.1282910900258
 30
0.0
 11
144.5544611404116
 21
592.1286300412698
 31
0.0
  0
LINE
  5
6DB
330
23
100
AcDbEntity
  8
sanindusa
100
AcDbLine
 10
144.6794591180324
 20
592.2536324540126
 30
0.0
 11
144.6397564963079
 21
592.2536324540126
 31
0.0
  0
LINE
  5
6DC
330
23
100
AcDbEntity
  8
sanindusa
100
AcDbLine
 10
144.6355602457466
 20
592.2529365785742
 30
0.0
 11
144.6409727567828
 21
592.2836324540126
 31
0.0
  0
ARC
  5
6DD
330
23
100
AcDbEntity
  8
sanindusa
100
AcDbCircle
 10
144.6397564963079
 20
592.2406324540125
 30
0.0
 40
0.0130000000000001
100
AcDbArc
 50
90.0
 51
108.8316459296516
  0
ARC
  5
6DE
330
23
100
AcDbEntity
  8
sanindusa
100
AcDbCircle
 10
144.6794591180324
 20
592.2406324540125
 30
0.0
 40
0.013
100
AcDbArc
 50
72.86833809856834
 51
90.0
  0
LINE
  5
6DF
330
23
100
AcDbEntity
  8
sanindusa
100
AcDbLine
 10
144.6832885079573
 20
592.2530556489641
 30
0.0
 11
144.6827547878399
 21
592.2836324540126
 31
0.0
  0
LINE
  5
6E0
330
23
100
AcDbEntity
  8
sanindusa
100
AcDbLine
 10
144.6409727567828
 20
592.2836324540126
 30
0.0
 11
144.6827547878399
 21
592.2836324540126
 31
0.0
  0
LINE
  5
6E1
330
23
100
AcDbEntity
  8
sanindusa
100
AcDbLine
 10
144.5542759408122
 20
592.1392401192141
 30
0.0
 11
144.5542379728547
 21
592.1414153020424
 31
0.0
  0
ARC
  5
6E2
330
23
100
AcDbEntity
  8
sanindusa
100
AcDbCircle
 10
144.5422398005128
 20
592.1412058731653
 30
0.0
 40
0.0120000000000005
100
AcDbArc
 50
101.5308560991173
 51
101.7904611493515
  0
ARC
  5
6E3
330
23
100
AcDbEntity
  8
sanindusa
100
AcDbCircle
 10
144.5129897956641
 20
592.2444278286616
 30
0.0
 40
0.113
100
AcDbArc
 50
291.4299927593715
 51
338.7672738759898
  0
ARC
  5
6E4
330
23
100
AcDbEntity
  8
sanindusa
100
AcDbCircle
 10
144.5249957763432
 20
592.2238047098329
 30
0.0
 40
0.0823797887132491
100
AcDbArc
 50
289.9302845896737
 51
297.4612042121027
  0
LINE
  5
6E5
330
23
100
AcDbEntity
  8
sanindusa
100
AcDbLine
 10
144.4199505900217
 20
592.1388921848422
 30
0.0
 11
144.4201193288483
 21
592.1292251439369
 31
0.0
  0
LINE
  5
6E6
330
23
100
AcDbEntity
  8
sanindusa
100
AcDbLine
 10
144.4041637728044
 20
592.1369762743463
 30
0.0
 11
144.4049374384726
 21
592.1292251439369
 31
0.0
  0
LINE
  5
6EA
330
23
100
AcDbEntity
  8
sanindusa
100
AcDbLine
 10
144.3854450392499
 20
592.2420493512745
 30
0.0
 11
144.3773779621971
 21
592.2420214157881
 31
0.0
  0
ARC
  5
6EB
330
23
100
AcDbEntity
  8
sanindusa
100
AcDbCircle
 10
144.3854380036175
 20
592.2400493636496
 30
0.0
 40
0.002
100
AcDbArc
 50
358.0000000027562
 51
89.79844356474815
  0
ENDSEC
  0
SECTION
  2
OBJECTS
  0
DICTIONARY
  5
C
330
0
100
AcDbDictionary
281
     1
  3
ACAD_COLOR
350
1C
  3
ACAD_GROUP
350
D
  3
ACAD_LAYOUT
350
1A
  3
ACAD_MATERIAL
350
1B
  3
ACAD_MLEADERSTYLE
350
741
  3
ACAD_MLINESTYLE
350
17
  3
ACAD_PLOTSETTINGS
350
19
  3
ACAD_PLOTSTYLENAME
350
E
  3
ACAD_SCALELIST
350
72F
  3
ACAD_TABLESTYLE
350
1D
  3
ACAD_VISUALSTYLE
350
71B
  3
ACDB_RECOMPOSE_DATA
350
752
  3
AcDbVariableDictionary
350
6BF
  3
ASE_INDEX_DICTIONARY
350
6BC
  3
DWGPROPS
350
753
  0
DICTIONARY
  5
745
330
10
100
AcDbDictionary
280
     1
281
     1
  3
ADSK_XREC_LAYER_RECONCILED
360
746
  0
DICTIONARY
  5
747
330
30
100
AcDbDictionary
280
     1
281
     1
  3
ADSK_XREC_LAYER_RECONCILED
360
748
  0
DICTIONARY
  5
749
330
6BA
100
AcDbDictionary
280
     1
281
     1
  3
ADSK_XREC_LAYER_RECONCILED
360
74A
  0
DICTIONARY
  5
6CD
330
23
100
AcDbDictionary
280
     1
281
     1
  3
ACAD_SORTENTS
360
6CE
  0
DICTIONARY
  5
1C
102
{ACAD_REACTORS
330
C
102
}
330
C
100
AcDbDictionary
281
     1
  0
DICTIONARY
  5
D
102
{ACAD_REACTORS
330
C
102
}
330
C
100
AcDbDictionary
281
     1
  0
DICTIONARY
  5
1A
102
{ACAD_REACTORS
330
C
102
}
330
C
100
AcDbDictionary
281
     1
  3
Layout1
350
22
  3
Layout2
350
2A
  3
Model
350
26
  0
DICTIONARY
  5
1B
102
{ACAD_REACTORS
330
C
102
}
330
C
100
AcDbDictionary
281
     1
  3
ByBlock
350
70B
  3
ByLayer
350
703
  3
Global
350
713
  0
DICTIONARY
  5
741
102
{ACAD_REACTORS
330
C
102
}
330
C
100
AcDbDictionary
281
     1
  3
Standard
350
742
  0
DICTIONARY
  5
17
102
{ACAD_REACTORS
330
C
102
}
330
C
100
AcDbDictionary
281
     1
  3
Standard
350
18
  0
DICTIONARY
  5
19
102
{ACAD_REACTORS
330
C
102
}
330
C
100
AcDbDictionary
281
     1
  0
ACDBDICTIONARYWDFLT
  5
E
102
{ACAD_REACTORS
330
C
102
}
330
C
100
AcDbDictionary
281
     1
  3
Normal
350
F
100
AcDbDictionaryWithDefault
340
F
  0
DICTIONARY
  5
72F
102
{ACAD_REACTORS
330
C
102
}
330
C
100
AcDbDictionary
281
     1
  3
A0
350
730
  3
A1
350
731
  3
A2
350
732
  3
A3
350
733
  3
A4
350
734
  3
A5
350
735
  3
A6
350
736
  3
A7
350
737
  3
A8
350
738
  3
A9
350
739
  3
B0
350
73A
  3
B1
350
73B
  3
B2
350
73C
  3
B3
350
73D
  3
B4
350
73E
  3
B5
350
73F
  3
B6
350
740
  0
DICTIONARY
  5
1D
102
{ACAD_REACTORS
330
C
102
}
330
C
100
AcDbDictionary
281
     1
  3
Standard
350
1E
  0
DICTIONARY
  5
71B
102
{ACAD_REACTORS
330
C
102
}
330
C
100
AcDbDictionary
281
     1
  3
2dWireframe
350
721
  3
3D Hidden
350
723
  3
3dWireframe
350
722
  3
Basic
350
720
  3
Brighten
350
727
  3
ColorChange
350
72B
  3
Conceptual
350
724
  3
Dim
350
726
  3
EdgeColorOff
350
72E
  3
Facepattern
350
72A
  3
Flat
350
71C
  3
FlatWithEdges
350
71D
  3
Gouraud
350
71E
  3
GouraudWithEdges
350
71F
  3
JitterOff
350
72C
  3
Linepattern
350
729
  3
OverhangOff
350
72D
  3
Realistic
350
725
  3
Thicken
350
728
  0
XRECORD
  5
752
102
{ACAD_REACTORS
330
C
102
}
330
C
100
AcDbXrecord
280
     1
 90
        1
330
1E
  0
DICTIONARY
  5
6BF
102
{ACAD_REACTORS
330
C
102
}
330
C
100
AcDbDictionary
281
     1
  3
CANNOSCALE
350
74C
  3
CMLEADERSTYLE
350
74B
  3
CTABLESTYLE
350
6C0
  3
DIMASSOC
350
6F5
  3
HIDETEXT
350
6F4
  3
INDEXCTL
350
74E
  3
PROJECTNAME
350
6F6
  3
SORTENTS
350
74D
  3
XCLIPFRAME
350
74F
  0
DICTIONARY
  5
6BC
102
{ACAD_REACTORS
330
C
102
}
330
C
100
AcDbDictionary
281
     1
  3
ASEBlockHierarchyIndexRecord
350
6BD
1001
DCO15
1040
1554706195.984
  0
XRECORD
  5
753
102
{ACAD_REACTORS
330
C
102
}
330
C
100
AcDbXrecord
280
     1
  1
DWGPROPS COOKIE
  2

  3

  4

  6

  7

  8
Julio
  9

300
=
301
=
302
=
303
=
304
=
305
=
306
=
307
=
308
=
309
=
 40
0.009141712962963
 41
2453797.519417488
 42
2456149.580104884
  1

 90
        0
  0
XRECORD
  5
746
102
{ACAD_REACTORS
330
745
102
}
330
745
100
AcDbXrecord
280
     1
290
     1
  0
XRECORD
  5
748
102
{ACAD_REACTORS
330
747
102
}
330
747
100
AcDbXrecord
280
     1
290
     1
  0
XRECORD
  5
74A
102
{ACAD_REACTORS
330
749
102
}
330
749
100
AcDbXrecord
280
     1
290
     1
  0
SORTENTSTABLE
  5
6CE
102
{ACAD_REACTORS
330
6CD
102
}
330
6CD
100
AcDbSortentsTable
330
23
331
58E
  5
58E
331
514
  5
514
331
54F
  5
54F
331
5ED
  5
5EE
331
508
  5
508
331
5E9
  5
5EA
331
626
  5
640
331
622
  5
63A
331
3C5
  5
3C5
331
49E
  5
49E
331
3F8
  5
3F8
331
57E
  5
57E
331
504
  5
504
331
500
  5
500
331
5E1
  5
5E2
331
576
  5
576
331
5DD
  5
5DE
331
4FC
  5
4FC
331
5D9
  5
5D9
331
61E
  5
634
331
659
  5
6D9
331
3B9
  5
3B9
331
6A0
  5
6E3
331
655
  5
6D6
331
44F
  5
44F
331
651
  5
6D5
331
612
  5
624
331
44B
  5
44B
331
3F0
  5
3F0
331
533
  5
533
331
56E
  5
56E
331
4F4
  5
4F4
331
4F0
  5
4F0
331
56A
  5
56A
331
5D1
  5
5D1
331
566
  5
566
331
5CD
  5
5CD
331
4EC
  5
4EC
331
4E8
  5
4E8
331
60E
  5
61E
331
649
  5
6D0
331
60A
  5
613
331
3AD
  5
3AD
331
6E3
  5
611
331
645
  5
6A1
331
6DF
  5
625
331
606
  5
60C
331
641
  5
694
331
602
  5
604
331
6DB
  5
60B
331
4BD
  5
4BD
331
399
  5
399
331
472
  5
472
331
3DC
  5
3DC
331
42B
  5
42B
331
4B5
  5
4B5
331
46E
  5
46E
331
46A
  5
46A
331
3D8
  5
3D8
331
527
  5
527
331
55E
  5
55E
331
4E4
  5
4E4
331
599
  5
599
331
595
  5
595
331
4DC
  5
4DC
331
591
  5
591
331
63D
  5
67C
331
6D7
  5
603
331
5FE
  5
5FF
331
639
  5
658
331
6D3
  5
635
331
635
  5
64F
331
391
  5
391
331
6CF
  5
63E
331
5F6
  5
5F7
331
631
  5
648
331
5F2
  5
5F3
331
6CB
  5
6E4
331
4AD
  5
4AD
331
389
  5
389
331
462
  5
462
331
4A9
  5
4A9
331
40F
  5
40F
331
3CC
  5
3CC
331
45E
  5
45E
331
3C8
  5
3C8
331
589
  5
589
331
5EC
  5
5ED
331
50B
  5
50B
331
5E8
  5
5E9
331
629
  5
644
331
625
  5
63F
331
407
  5
407
331
621
  5
639
331
3C0
  5
3C0
331
499
  5
499
331
456
  5
456
331
452
  5
452
331
4D0
  5
4D0
331
507
  5
507
331
542
  5
542
331
57D
  5
57D
331
5E4
  5
5E5
331
503
  5
503
331
5E0
  5
5E1
331
5DC
  5
5DD
331
4FB
  5
4FB
331
53A
  5
53A
331
5D8
  5
5D8
331
61D
  5
633
331
658
  5
6D8
331
3B8
  5
3B8
331
69F
  5
6E2
331
615
  5
628
331
611
  5
623
331
44A
  5
44A
331
3F3
  5
3F3
331
3B4
  5
3B4
331
69B
  5
6E0
331
3B0
  5
3B0
331
4C8
  5
4C8
331
489
  5
489
331
4C4
  5
4C4
331
536
  5
536
331
56D
  5
56D
331
5D4
  5
5D4
331
569
  5
569
331
5D0
  5
5D0
331
565
  5
565
331
5CC
  5
5CC
331
52A
  5
52A
331
64C
  5
6D2
331
60D
  5
61D
331
609
  5
612
331
693
  5
6DF
331
6E2
  5
619
331
644
  5
6A0
331
6DE
  5
609
331
605
  5
60A
331
3E7
  5
3E7
331
640
  5
68F
331
601
  5
602
331
3E3
  5
3E3
331
432
  5
432
331
6DA
  5
614
331
475
  5
475
331
4BC
  5
4BC
331
471
  5
471
331
4B8
  5
4B8
331
3DF
  5
3DF
331
3DB
  5
3DB
331
4B4
  5
4B4
331
469
  5
469
331
526
  5
526
331
4E7
  5
4E7
331
4DF
  5
4DF
331
559
  5
559
331
51A
  5
51A
331
551
  5
551
331
590
  5
590
331
6D6
  5
610
331
687
  5
6DD
331
63C
  5
678
331
638
  5
656
331
6D2
  5
632
331
634
  5
64D
331
67F
  5
6DC
331
5F5
  5
5F6
331
426
  5
426
331
3D7
  5
3D7
331
630
  5
647
331
3D3
  5
3D3
331
67B
  5
6DB
331
4AC
  5
4AC
331
465
  5
465
331
4A8
  5
4A8
331
461
  5
461
331
40E
  5
40E
331
3CB
  5
3CB
331
4A4
  5
4A4
331
588
  5
588
331
50E
  5
50E
331
54D
  5
54D
331
50A
  5
50A
331
584
  5
584
331
5EB
  5
5EC
331
62C
  5
646
331
628
  5
643
331
677
  5
6DA
331
384
  5
384
331
3C7
  5
3C7
331
624
  5
63D
331
620
  5
638
331
402
  5
402
331
3FE
  5
3FE
331
4D3
  5
4D3
331
3FA
  5
3FA
331
5E7
  5
5E8
331
506
  5
506
331
502
  5
502
331
57C
  5
57C
331
5E3
  5
5E4
331
5DF
  5
5E0
331
5DB
  5
5DC
331
570
  5
570
331
3BF
  5
3BF
331
61C
  5
631
331
618
  5
62A
331
657
  5
6D7
331
3BB
  5
3BB
331
3F6
  5
3F6
331
4CF
  5
4CF
331
614
  5
627
331
610
  5
621
331
3B3
  5
3B3
331
3EE
  5
3EE
331
439
  5
439
331
478
  5
478
331
4F6
  5
4F6
331
4F2
  5
4F2
331
56C
  5
56C
331
5D3
  5
5D3
331
52D
  5
52D
331
5CF
  5
5CF
331
4EE
  5
4EE
331
5CB
  5
5CB
331
64F
  5
6D4
331
3AF
  5
3AF
331
60C
  5
61C
331
647
  5
6CF
331
608
  5
60F
331
6E1
  5
615
331
643
  5
69E
331
6DD
  5
60D
331
3E6
  5
3E6
331
68E
  5
6DE
331
604
  5
608
331
4BB
  5
4BB
331
3E2
  5
3E2
331
431
  5
431
331
6D9
  5
618
331
42D
  5
42D
331
4B7
  5
4B7
331
46C
  5
46C
331
4B3
  5
4B3
331
429
  5
429
331
468
  5
468
331
4E6
  5
4E6
331
525
  5
525
331
55C
  5
55C
331
4DE
  5
4DE
331
593
  5
593
331
63F
  5
688
331
6D5
  5
63C
331
63B
  5
65A
331
637
  5
652
331
5F8
  5
5F9
331
6D1
  5
645
331
633
  5
64B
331
4AF
  5
4AF
331
5F4
  5
5F5
331
464
  5
464
331
4AB
  5
4AB
331
3D2
  5
3D2
331
38B
  5
38B
331
40D
  5
40D
331
460
  5
460
331
45C
  5
45C
331
4A3
  5
4A3
331
3CA
  5
3CA
331
458
  5
458
331
58F
  5
58F
331
511
  5
511
331
587
  5
587
331
5EE
  5
5EF
331
50D
  5
50D
331
548
  5
548
331
509
  5
509
331
5EA
  5
5EB
331
583
  5
583
331
627
  5
642
331
3C6
  5
3C6
331
49F
  5
49F
331
623
  5
63B
331
49B
  5
49B
331
497
  5
497
331
4D6
  5
4D6
331
450
  5
450
331
5E6
  5
5E7
331
57F
  5
57F
331
505
  5
505
331
501
  5
501
331
5E2
  5
5E3
331
5DE
  5
5DF
331
4FD
  5
4FD
331
573
  5
573
331
5DA
  5
5DB
331
61F
  5
636
331
3BE
  5
3BE
331
61B
  5
62D
331
617
  5
629
331
3BA
  5
3BA
331
3F5
  5
3F5
331
69D
  5
6E1
331
613
  5
626
331
48B
  5
48B
331
3F1
  5
3F1
331
3B2
  5
3B2
331
4C6
  5
4C6
331
3E9
  5
3E9
331
4F1
  5
4F1
331
56B
  5
56B
331
5D2
  5
5D2
331
5CE
  5
5CE
331
528
  5
528
331
4E9
  5
4E9
331
5CA
  5
5CA
331
64E
  5
6D3
331
60F
  5
620
331
64A
  5
6D1
331
3AE
  5
3AE
331
6E4
  5
606
331
60B
  5
616
331
646
  5
6CC
331
607
  5
60E
331
6E0
  5
622
331
642
  5
69C
331
6DC
  5
61F
331
477
  5
477
331
603
  5
607
331
473
  5
473
331
4BA
  5
4BA
331
6D8
  5
605
331
46F
  5
46F
331
4B6
  5
4B6
331
428
  5
428
331
46B
  5
46B
331
4B2
  5
4B2
331
3D9
  5
3D9
331
4E5
  5
4E5
331
520
  5
520
331
59A
  5
59A
331
596
  5
596
331
4DD
  5
4DD
331
518
  5
518
331
553
  5
553
331
592
  5
592
331
63E
  5
680
331
5FF
  5
600
331
6D4
  5
637
331
63A
  5
659
331
636
  5
650
331
5F7
  5
5F8
331
6D0
  5
641
331
632
  5
64A
331
6CC
  5
5DA
331
467
  5
467
331
5F3
  5
5F4
331
463
  5
463
331
3CD
  5
3CD
331
40C
  5
40C
331
4A6
  5
4A6
331
45B
  5
45B
331
3C9
  5
3C9
331
408
  5
408
  0
LAYOUT
  5
22
102
{ACAD_XDICTIONARY
360
755
102
}
102
{ACAD_REACTORS
330
1A
102
}
330
1A
100
AcDbPlotSettings
  1

  2
HP DesignJet 500PS42+HPGL2 Card
  4

  6

 40
0.0
 41
0.0
 42
0.0
 43
0.0
 44
0.0
 45
0.0
 46
0.0
 47
0.0
 48
0.0
 49
0.0
140
0.0
141
0.0
142
1.0
143
1.0
 70
   688
 72
     0
 73
     0
 74
     5
  7
C:\Documents and Settings\Julio\Application Data\Autodesk\AutoCAD 2006\R16.2\enu\Plot Styles\sanindusa.ctb
 75
    16
147
1.0
148
0.0
149
0.0
100
AcDbLayout
  1
Layout1
 70
     1
 71
     1
 10
0.0
 20
0.0
 11
420.0
 21
297.0
 12
0.0
 22
0.0
 32
0.0
 14
1.000000000000000E+20
 24
1.000000000000000E+20
 34
1.000000000000000E+20
 15
-1.000000000000000E+20
 25
-1.000000000000000E+20
 35
-1.000000000000000E+20
146
0.0
 13
0.0
 23
0.0
 33
0.0
 16
1.0
 26
0.0
 36
0.0
 17
0.0
 27
1.0
 37
0.0
 76
     0
330
1F
  0
LAYOUT
  5
2A
102
{ACAD_XDICTIONARY
360
759
102
}
102
{ACAD_REACTORS
330
1A
102
}
330
1A
100
AcDbPlotSettings
  1

  2
HP DesignJet 500PS42+HPGL2 Card
  4

  6

 40
0.0
 41
0.0
 42
0.0
 43
0.0
 44
0.0
 45
0.0
 46
0.0
 47
0.0
 48
0.0
 49
0.0
140
0.0
141
0.0
142
1.0
143
1.0
 70
   688
 72
     0
 73
     0
 74
     5
  7
C:\Documents and Settings\Julio\Application Data\Autodesk\AutoCAD 2006\R16.2\enu\Plot Styles\sanindusa.ctb
 75
    16
147
1.0
148
0.0
149
0.0
100
AcDbLayout
  1
Layout2
 70
     1
 71
     2
 10
0.0
 20
0.0
 11
12.0
 21
9.0
 12
0.0
 22
0.0
 32
0.0
 14
0.0
 24
0.0
 34
0.0
 15
0.0
 25
0.0
 35
0.0
146
0.0
 13
0.0
 23
0.0
 33
0.0
 16
1.0
 26
0.0
 36
0.0
 17
0.0
 27
1.0
 37
0.0
 76
     0
330
27
  0
LAYOUT
  5
26
102
{ACAD_XDICTIONARY
360
757
102
}
102
{ACAD_REACTORS
330
1A
102
}
330
1A
100
AcDbPlotSettings
  1

  2
HP DesignJet 500PS42+HPGL2 Card
  4

  6

 40
0.0
 41
0.0
 42
0.0
 43
0.0
 44
0.0
 45
0.0
 46
0.0
 47
0.0
 48
0.0
 49
0.0
140
0.0
141
0.0
142
1.0
143
1.0
 70
  1712
 72
     0
 73
     0
 74
     0
  7
C:\Documents and Settings\Julio\Application Data\Autodesk\AutoCAD 2006\R16.2\enu\Plot Styles\sanindusa.ctb
 75
     0
147
1.0
148
0.0
149
0.0
100
AcDbLayout
  1
Model
 70
     1
 71
     0
 10
0.0
 20
0.0
 11
12.0
 21
9.0
 12
0.0
 22
0.0
 32
0.0
 14
0.0
 24
0.0
 34
0.0
 15
0.0
 25
0.0
 35
0.0
146
0.0
 13
0.0
 23
0.0
 33
0.0
 16
1.0
 26
0.0
 36
0.0
 17
0.0
 27
1.0
 37
0.0
 76
     0
330
23
331
6FA
  0
MATERIAL
  5
70B
102
{ACAD_XDICTIONARY
360
70C
102
}
102
{ACAD_REACTORS
330
1B
102
}
330
1B
100
AcDbMaterial
  1
ByBlock
 72
     0
 43
0.0008202099737533
 43
0.0
 43
0.0
 43
0.0
 43
0.0
 43
0.0008202099737533
 43
0.0
 43
0.0
 43
0.0
 43
0.0
 43
1.0
 43
0.0
 43
0.0
 43
0.0
 43
0.0
 43
1.0
 77
     0
 47
0.0008202099737533
 47
0.0
 47
0.0
 47
0.0
 47
0.0
 47
0.0008202099737533
 47
0.0
 47
0.0
 47
0.0
 47
0.0
 47
1.0
 47
0.0
 47
0.0
 47
0.0
 47
0.0
 47
1.0
171
     0
 49
0.0008202099737533
 49
0.0
 49
0.0
 49
0.0
 49
0.0
 49
0.0008202099737533
 49
0.0
 49
0.0
 49
0.0
 49
0.0
 49
1.0
 49
0.0
 49
0.0
 49
0.0
 49
0.0
 49
1.0
175
     0
142
0.0008202099737533
142
0.0
142
0.0
142
0.0
142
0.0
142
0.0008202099737533
142
0.0
142
0.0
142
0.0
142
0.0
142
1.0
142
0.0
142
0.0
142
0.0
142
0.0
142
1.0
179
     0
144
0.0008202099737533
144
0.0
144
0.0
144
0.0
144
0.0
144
0.0008202099737533
144
0.0
144
0.0
144
0.0
144
0.0
144
1.0
144
0.0
144
0.0
144
0.0
144
0.0
144
1.0
147
0.0008202099737533
147
0.0
147
0.0
147
0.0
147
0.0
147
0.0008202099737533
147
0.0
147
0.0
147
0.0
147
0.0
147
1.0
147
0.0
147
0.0
147
0.0
147
0.0
147
1.0
  0
MATERIAL
  5
703
102
{ACAD_XDICTIONARY
360
704
102
}
102
{ACAD_REACTORS
330
1B
102
}
330
1B
100
AcDbMaterial
  1
ByLayer
 72
     0
 43
0.0008202099737533
 43
0.0
 43
0.0
 43
0.0
 43
0.0
 43
0.0008202099737533
 43
0.0
 43
0.0
 43
0.0
 43
0.0
 43
1.0
 43
0.0
 43
0.0
 43
0.0
 43
0.0
 43
1.0
 77
     0
 47
0.0008202099737533
 47
0.0
 47
0.0
 47
0.0
 47
0.0
 47
0.0008202099737533
 47
0.0
 47
0.0
 47
0.0
 47
0.0
 47
1.0
 47
0.0
 47
0.0
 47
0.0
 47
0.0
 47
1.0
171
     0
 49
0.0008202099737533
 49
0.0
 49
0.0
 49
0.0
 49
0.0
 49
0.0008202099737533
 49
0.0
 49
0.0
 49
0.0
 49
0.0
 49
1.0
 49
0.0
 49
0.0
 49
0.0
 49
0.0
 49
1.0
175
     0
142
0.0008202099737533
142
0.0
142
0.0
142
0.0
142
0.0
142
0.0008202099737533
142
0.0
142
0.0
142
0.0
142
0.0
142
1.0
142
0.0
142
0.0
142
0.0
142
0.0
142
1.0
179
     0
144
0.0008202099737533
144
0.0
144
0.0
144
0.0
144
0.0
144
0.0008202099737533
144
0.0
144
0.0
144
0.0
144
0.0
144
1.0
144
0.0
144
0.0
144
0.0
144
0.0
144
1.0
147
0.0008202099737533
147
0.0
147
0.0
147
0.0
147
0.0
147
0.0008202099737533
147
0.0
147
0.0
147
0.0
147
0.0
147
1.0
147
0.0
147
0.0
147
0.0
147
0.0
147
1.0
  0
MATERIAL
  5
713
102
{ACAD_XDICTIONARY
360
714
102
}
102
{ACAD_REACTORS
330
1B
102
}
330
1B
100
AcDbMaterial
  1
Global
 72
     0
 43
0.0008202099737533
 43
0.0
 43
0.0
 43
0.0
 43
0.0
 43
0.0008202099737533
 43
0.0
 43
0.0
 43
0.0
 43
0.0
 43
1.0
 43
0.0
 43
0.0
 43
0.0
 43
0.0
 43
1.0
 77
     0
 47
0.0008202099737533
 47
0.0
 47
0.0
 47
0.0
 47
0.0
 47
0.0008202099737533
 47
0.0
 47
0.0
 47
0.0
 47
0.0
 47
1.0
 47
0.0
 47
0.0
 47
0.0
 47
0.0
 47
1.0
171
     0
 49
0.0008202099737533
 49
0.0
 49
0.0
 49
0.0
 49
0.0
 49
0.0008202099737533
 49
0.0
 49
0.0
 49
0.0
 49
0.0
 49
1.0
 49
0.0
 49
0.0
 49
0.0
 49
0.0
 49
1.0
175
     0
142
0.0008202099737533
142
0.0
142
0.0
142
0.0
142
0.0
142
0.0008202099737533
142
0.0
142
0.0
142
0.0
142
0.0
142
1.0
142
0.0
142
0.0
142
0.0
142
0.0
142
1.0
179
     0
144
0.0008202099737533
144
0.0
144
0.0
144
0.0
144
0.0
144
0.0008202099737533
144
0.0
144
0.0
144
0.0
144
0.0
144
1.0
144
0.0
144
0.0
144
0.0
144
0.0
144
1.0
147
0.0008202099737533
147
0.0
147
0.0
147
0.0
147
0.0
147
0.0008202099737533
147
0.0
147
0.0
147
0.0
147
0.0
147
1.0
147
0.0
147
0.0
147
0.0
147
0.0
147
1.0
  0
MLEADERSTYLE
  5
742
102
{ACAD_REACTORS
330
741
102
}
330
741
100
AcDbMLeaderStyle
170
     2
171
     1
172
     0
 90
        2
 40
0.0
 41
0.0
173
     1
 91
-1056964608
340
14
 92
       -2
290
     1
 42
2.0
291
     1
 43
0.36
  3
Standard
 44
4.0
300

342
11
174
     1
178
     6
175
     1
176
     0
 93
-1056964608
 45
4.0
292
     0
297
     0
 46
4.0
 94
-1056964608
 47
1.0
 49
1.0
140
1.0
293
     1
141
0.0
294
     1
177
     0
142
1.0
295
     0
296
     0
143
0.125
1001
ACAD_MLEADERVER
1070
     2
  0
MLINESTYLE
  5
18
102
{ACAD_REACTORS
330
17
102
}
330
17
100
AcDbMlineStyle
  2
STANDARD
 70
     0
  3

 62
   256
 51
90.0
 52
90.0
 71
     2
 49
0.5
 62
   256
  6
BYLAYER
 49
-0.5
 62
   256
  6
BYLAYER
  0
ACDBPLACEHOLDER
  5
F
102
{ACAD_REACTORS
330
E
102
}
330
E
  0
SCALE
  5
730
102
{ACAD_REACTORS
330
72F
102
}
330
72F
100
AcDbScale
 70
     0
300
1:1
140
1.0
141
1.0
290
     1
  0
SCALE
  5
731
102
{ACAD_REACTORS
330
72F
102
}
330
72F
100
AcDbScale
 70
     0
300
1:2
140
1.0
141
2.0
290
     0
  0
SCALE
  5
732
102
{ACAD_REACTORS
330
72F
102
}
330
72F
100
AcDbScale
 70
     0
300
1:4
140
1.0
141
4.0
290
     0
  0
SCALE
  5
733
102
{ACAD_REACTORS
330
72F
102
}
330
72F
100
AcDbScale
 70
     0
300
1:5
140
1.0
141
5.0
290
     0
  0
SCALE
  5
734
102
{ACAD_REACTORS
330
72F
102
}
330
72F
100
AcDbScale
 70
     0
300
1:8
140
1.0
141
8.0
290
     0
  0
SCALE
  5
735
102
{ACAD_REACTORS
330
72F
102
}
330
72F
100
AcDbScale
 70
     0
300
1:10
140
1.0
141
10.0
290
     0
  0
SCALE
  5
736
102
{ACAD_REACTORS
330
72F
102
}
330
72F
100
AcDbScale
 70
     0
300
1:16
140
1.0
141
16.0
290
     0
  0
SCALE
  5
737
102
{ACAD_REACTORS
330
72F
102
}
330
72F
100
AcDbScale
 70
     0
300
1:20
140
1.0
141
20.0
290
     0
  0
SCALE
  5
738
102
{ACAD_REACTORS
330
72F
102
}
330
72F
100
AcDbScale
 70
     0
300
1:30
140
1.0
141
30.0
290
     0
  0
SCALE
  5
739
102
{ACAD_REACTORS
330
72F
102
}
330
72F
100
AcDbScale
 70
     0
300
1:40
140
1.0
141
40.0
290
     0
  0
SCALE
  5
73A
102
{ACAD_REACTORS
330
72F
102
}
330
72F
100
AcDbScale
 70
     0
300
1:50
140
1.0
141
50.0
290
     0
  0
SCALE
  5
73B
102
{ACAD_REACTORS
330
72F
102
}
330
72F
100
AcDbScale
 70
     0
300
1:100
140
1.0
141
100.0
290
     0
  0
SCALE
  5
73C
102
{ACAD_REACTORS
330
72F
102
}
330
72F
100
AcDbScale
 70
     0
300
2:1
140
2.0
141
1.0
290
     0
  0
SCALE
  5
73D
102
{ACAD_REACTORS
330
72F
102
}
330
72F
100
AcDbScale
 70
     0
300
4:1
140
4.0
141
1.0
290
     0
  0
SCALE
  5
73E
102
{ACAD_REACTORS
330
72F
102
}
330
72F
100
AcDbScale
 70
     0
300
8:1
140
8.0
141
1.0
290
     0
  0
SCALE
  5
73F
102
{ACAD_REACTORS
330
72F
102
}
330
72F
100
AcDbScale
 70
     0
300
10:1
140
10.0
141
1.0
290
     0
  0
SCALE
  5
740
102
{ACAD_REACTORS
330
72F
102
}
330
72F
100
AcDbScale
 70
     0
300
100:1
140
100.0
141
1.0
290
     0
  0
TABLESTYLE
  5
1E
102
{ACAD_XDICTIONARY
360
750
102
}
102
{ACAD_REACTORS
330
1D
102
}
330
1D
100
AcDbTableStyle
  3
Standard
 70
     0
 71
     0
 40
1.5
 41
1.5
280
     0
281
     0
  7
Standard
140
4.5
170
     2
 62
     0
 63
     7
283
     0
274
    -2
284
     1
 64
     0
275
    -2
285
     1
 65
     0
276
    -2
286
     1
 66
     0
277
    -2
287
     1
 67
     0
278
    -2
288
     1
 68
     0
279
    -2
289
     1
 69
     0
  7
Standard
140
6.0
170
     5
 62
     0
 63
     7
283
     0
274
    -2
284
     1
 64
     0
275
    -2
285
     1
 65
     0
276
    -2
286
     1
 66
     0
277
    -2
287
     1
 67
     0
278
    -2
288
     1
 68
     0
279
    -2
289
     1
 69
     0
  7
Standard
140
4.5
170
     5
 62
     0
 63
     7
283
     0
274
    -2
284
     1
 64
     0
275
    -2
285
     1
 65
     0
276
    -2
286
     1
 66
     0
277
    -2
287
     1
 67
     0
278
    -2
288
     1
 68
     0
279
    -2
289
     1
 69
     0
  0
VISUALSTYLE
  5
721
102
{ACAD_XDICTIONARY
360
768
102
}
102
{ACAD_REACTORS
330
71B
102
}
330
71B
100
AcDbVisualStyle
  2
2dWireframe
 70
     4
 71
     0
 72
     2
 73
     0
 90
        0
 40
-0.6
 41
-30.0
 62
     5
 63
     7
 74
     1
 91
        4
 64
     7
 65
   257
 75
     1
175
     1
 42
1.0
 92
        0
 66
   257
 43
1.0
 76
     1
 77
     6
 78
     2
 67
     7
 79
     5
170
     0
171
     0
290
     0
174
     0
 93
        1
 44
0.0
173
     0
291
     0
 45
0.0
1001
ACAD
1000
AcDbSavedByObjectVersion
1070
     0
  0
VISUALSTYLE
  5
723
102
{ACAD_XDICTIONARY
360
76C
102
}
102
{ACAD_REACTORS
330
71B
102
}
330
71B
100
AcDbVisualStyle
  2
3D Hidden
 70
     6
 71
     1
 72
     2
 73
     2
 90
        0
 40
-0.6
 41
-30.0
 62
     5
 63
     7
 74
     2
 91
        2
 64
     7
 65
   257
 75
     2
175
     1
 42
179.0
 92
        0
 66
   257
 43
1.0
 76
     1
 77
     6
 78
     2
 67
     7
 79
     3
170
     0
171
     0
290
     0
174
     0
 93
        1
 44
0.0
173
     0
291
     0
 45
0.0
1001
ACAD
1000
AcDbSavedByObjectVersion
1070
     0
  0
VISUALSTYLE
  5
722
102
{ACAD_XDICTIONARY
360
76A
102
}
102
{ACAD_REACTORS
330
71B
102
}
330
71B
100
AcDbVisualStyle
  2
3dWireframe
 70
     5
 71
     0
 72
     2
 73
     0
 90
        0
 40
-0.6
 41
-30.0
 62
     5
 63
     7
 74
     1
 91
        4
 64
     7
 65
   257
 75
     1
175
     1
 42
1.0
 92
        0
 66
   257
 43
1.0
 76
     1
 77
     6
 78
     2
 67
     7
 79
     5
170
     0
171
     0
290
     0
174
     0
 93
        1
 44
0.0
173
     0
291
     0
 45
0.0
1001
ACAD
1000
AcDbSavedByObjectVersion
1070
     0
  0
VISUALSTYLE
  5
720
102
{ACAD_XDICTIONARY
360
766
102
}
102
{ACAD_REACTORS
330
71B
102
}
330
71B
100
AcDbVisualStyle
  2
Basic
 70
     7
 71
     1
 72
     0
 73
     1
 90
        0
 40
-0.6
 41
-30.0
 62
     5
 63
     7
 74
     0
 91
        4
 64
     7
 65
   257
 75
     1
175
     1
 42
1.0
 92
        8
 66
     7
 43
1.0
 76
     1
 77
     6
 78
     2
 67
     7
 79
     5
170
     0
171
     0
290
     0
174
     0
 93
        1
 44
0.0
173
     0
291
     1
 45
0.0
1001
ACAD
1000
AcDbSavedByObjectVersion
1070
     0
  0
VISUALSTYLE
  5
727
102
{ACAD_XDICTIONARY
360
774
102
}
102
{ACAD_REACTORS
330
71B
102
}
330
71B
100
AcDbVisualStyle
  2
Brighten
 70
    12
 71
     2
 72
     2
 73
     0
 90
        0
 40
-0.6
 41
-30.0
 62
     5
 63
     7
 74
     1
 91
        4
 64
     7
 65
   257
 75
     1
175
     1
 42
1.0
 92
        8
 66
     7
 43
1.0
 76
     1
 77
     6
 78
     2
 67
     7
 79
     5
170
     0
171
     0
290
     0
174
     0
 93
        1
 44
50.0
173
     0
291
     1
 45
0.0
1001
ACAD
1000
AcDbSavedByObjectVersion
1070
     0
  0
VISUALSTYLE
  5
72B
102
{ACAD_XDICTIONARY
360
77C
102
}
102
{ACAD_REACTORS
330
71B
102
}
330
71B
100
AcDbVisualStyle
  2
ColorChange
 70
    16
 71
     2
 72
     2
 73
     3
 90
        0
 40
-0.6
 41
-30.0
 62
     5
 63
     8
 74
     1
 91
        4
 64
     7
 65
   257
 75
     1
175
     1
 42
1.0
 92
        8
 66
     8
 43
1.0
 76
     1
 77
     6
 78
     2
 67
     7
 79
     5
170
     0
171
     0
290
     0
174
     0
 93
        1
 44
0.0
173
     0
291
     1
 45
0.0
1001
ACAD
1000
AcDbSavedByObjectVersion
1070
     0
  0
VISUALSTYLE
  5
724
102
{ACAD_XDICTIONARY
360
76E
102
}
102
{ACAD_REACTORS
330
71B
102
}
330
71B
100
AcDbVisualStyle
  2
Conceptual
 70
     9
 71
     3
 72
     2
 73
     0
 90
        0
 40
-0.6
 41
-30.0
 62
     5
 63
     7
 74
     2
 91
        2
 64
     7
 65
   257
 75
     1
175
     1
 42
179.0
 92
        8
 66
     7
 43
1.0
 76
     1
 77
     6
 78
     2
 67
     7
 79
     3
170
     0
171
     0
290
     0
174
     0
 93
        1
 44
0.0
173
     0
291
     0
 45
0.0
1001
ACAD
1000
AcDbSavedByObjectVersion
1070
     0
  0
VISUALSTYLE
  5
726
102
{ACAD_XDICTIONARY
360
772
102
}
102
{ACAD_REACTORS
330
71B
102
}
330
71B
100
AcDbVisualStyle
  2
Dim
 70
    11
 71
     2
 72
     2
 73
     0
 90
        0
 40
-0.6
 41
-30.0
 62
     5
 63
     7
 74
     1
 91
        4
 64
     7
 65
   257
 75
     1
175
     1
 42
1.0
 92
        8
 66
     7
 43
1.0
 76
     1
 77
     6
 78
     2
 67
     7
 79
     5
170
     0
171
     0
290
     0
174
     0
 93
        1
 44
-50.0
173
     0
291
     1
 45
0.0
1001
ACAD
1000
AcDbSavedByObjectVersion
1070
     0
  0
VISUALSTYLE
  5
72E
102
{ACAD_XDICTIONARY
360
782
102
}
102
{ACAD_REACTORS
330
71B
102
}
330
71B
100
AcDbVisualStyle
  2
EdgeColorOff
 70
    22
 71
     2
 72
     2
 73
     0
 90
        0
 40
-0.6
 41
-30.0
 62
     5
 63
     7
 74
     1
 91
        4
 64
     7
 65
   257
 75
     1
175
     1
 42
1.0
 92
        8
 66
     7
 43
1.0
 76
     1
 77
     6
 78
     2
 67
     7
 79
     5
170
     0
171
     0
290
     0
174
     0
 93
        1
 44
0.0
173
     0
291
     1
 45
0.0
1001
ACAD
1000
AcDbSavedByObjectVersion
1070
     0
  0
VISUALSTYLE
  5
72A
102
{ACAD_XDICTIONARY
360
77A
102
}
102
{ACAD_REACTORS
330
71B
102
}
330
71B
100
AcDbVisualStyle
  2
Facepattern
 70
    15
 71
     2
 72
     2
 73
     0
 90
        0
 40
-0.6
 41
-30.0
 62
     5
 63
     7
 74
     1
 91
        4
 64
     7
 65
   257
 75
     1
175
     1
 42
1.0
 92
        8
 66
     7
 43
1.0
 76
     1
 77
     6
 78
     2
 67
     7
 79
     5
170
     0
171
     0
290
     0
174
     0
 93
        1
 44
0.0
173
     0
291
     1
 45
0.0
1001
ACAD
1000
AcDbSavedByObjectVersion
1070
     0
  0
VISUALSTYLE
  5
71C
102
{ACAD_XDICTIONARY
360
75E
102
}
102
{ACAD_REACTORS
330
71B
102
}
330
71B
100
AcDbVisualStyle
  2
Flat
 70
     0
 71
     2
 72
     1
 73
     1
 90
        2
 40
-0.6
 41
30.0
 62
     5
 63
     7
 74
     0
 91
        4
 64
     7
 65
   257
 75
     1
175
     1
 42
1.0
 92
        8
 66
     7
 43
1.0
 76
     1
 77
     6
 78
     2
 67
     7
 79
     5
170
     0
171
     0
290
     0
174
     0
 93
       13
 44
0.0
173
     0
291
     1
 45
0.0
1001
ACAD
1000
AcDbSavedByObjectVersion
1070
     0
  0
VISUALSTYLE
  5
71D
102
{ACAD_XDICTIONARY
360
760
102
}
102
{ACAD_REACTORS
330
71B
102
}
330
71B
100
AcDbVisualStyle
  2
FlatWithEdges
 70
     1
 71
     2
 72
     1
 73
     1
 90
        2
 40
-0.6
 41
30.0
 62
     5
 63
     7
 74
     1
 91
        4
 64
     7
 65
   257
 75
     1
175
     1
 42
1.0
 92
        0
 66
   257
 43
1.0
 76
     1
 77
     6
 78
     2
 67
     7
 79
     5
170
     0
171
     0
290
     0
174
     0
 93
       13
 44
0.0
173
     0
291
     1
 45
0.0
1001
ACAD
1000
AcDbSavedByObjectVersion
1070
     0
  0
VISUALSTYLE
  5
71E
102
{ACAD_XDICTIONARY
360
762
102
}
102
{ACAD_REACTORS
330
71B
102
}
330
71B
100
AcDbVisualStyle
  2
Gouraud
 70
     2
 71
     2
 72
     2
 73
     1
 90
        2
 40
-0.6
 41
30.0
 62
     5
 63
     7
 74
     0
 91
        4
 64
     7
 65
   257
 75
     1
175
     1
 42
1.0
 92
        0
 66
     7
 43
1.0
 76
     1
 77
     6
 78
     2
 67
     7
 79
     5
170
     0
171
     0
290
     0
174
     0
 93
       13
 44
0.0
173
     0
291
     1
 45
0.0
1001
ACAD
1000
AcDbSavedByObjectVersion
1070
     0
  0
VISUALSTYLE
  5
71F
102
{ACAD_XDICTIONARY
360
764
102
}
102
{ACAD_REACTORS
330
71B
102
}
330
71B
100
AcDbVisualStyle
  2
GouraudWithEdges
 70
     3
 71
     2
 72
     2
 73
     1
 90
        2
 40
-0.6
 41
30.0
 62
     5
 63
     7
 74
     1
 91
        4
 64
     7
 65
   257
 75
     1
175
     1
 42
1.0
 92
        0
 66
   257
 43
1.0
 76
     1
 77
     6
 78
     2
 67
     7
 79
     5
170
     0
171
     0
290
     0
174
     0
 93
       13
 44
0.0
173
     0
291
     1
 45
0.0
1001
ACAD
1000
AcDbSavedByObjectVersion
1070
     0
  0
VISUALSTYLE
  5
72C
102
{ACAD_XDICTIONARY
360
77E
102
}
102
{ACAD_REACTORS
330
71B
102
}
330
71B
100
AcDbVisualStyle
  2
JitterOff
 70
    20
 71
     2
 72
     2
 73
     0
 90
        0
 40
-0.6
 41
-30.0
 62
     5
 63
     7
 74
     1
 91
        4
 64
     7
 65
   257
 75
     1
175
     1
 42
1.0
 92
       10
 66
     7
 43
1.0
 76
     1
 77
     6
 78
     2
 67
     7
 79
     5
170
     0
171
     0
290
     0
174
     0
 93
        1
 44
0.0
173
     0
291
     1
 45
0.0
1001
ACAD
1000
AcDbSavedByObjectVersion
1070
     0
  0
VISUALSTYLE
  5
729
102
{ACAD_XDICTIONARY
360
778
102
}
102
{ACAD_REACTORS
330
71B
102
}
330
71B
100
AcDbVisualStyle
  2
Linepattern
 70
    14
 71
     2
 72
     2
 73
     0
 90
        0
 40
-0.6
 41
-30.0
 62
     5
 63
     7
 74
     1
 91
        4
 64
     7
 65
   257
 75
     7
175
     7
 42
1.0
 92
        8
 66
     7
 43
1.0
 76
     1
 77
     6
 78
     2
 67
     7
 79
     5
170
     0
171
     0
290
     0
174
     0
 93
        1
 44
0.0
173
     0
291
     1
 45
0.0
1001
ACAD
1000
AcDbSavedByObjectVersion
1070
     0
  0
VISUALSTYLE
  5
72D
102
{ACAD_XDICTIONARY
360
780
102
}
102
{ACAD_REACTORS
330
71B
102
}
330
71B
100
AcDbVisualStyle
  2
OverhangOff
 70
    21
 71
     2
 72
     2
 73
     0
 90
        0
 40
-0.6
 41
-30.0
 62
     5
 63
     7
 74
     1
 91
        4
 64
     7
 65
   257
 75
     1
175
     1
 42
1.0
 92
        9
 66
     7
 43
1.0
 76
     1
 77
     6
 78
     2
 67
     7
 79
     5
170
     0
171
     0
290
     0
174
     0
 93
        1
 44
0.0
173
     0
291
     1
 45
0.0
1001
ACAD
1000
AcDbSavedByObjectVersion
1070
     0
  0
VISUALSTYLE
  5
725
102
{ACAD_XDICTIONARY
360
770
102
}
102
{ACAD_REACTORS
330
71B
102
}
330
71B
100
AcDbVisualStyle
  2
Realistic
 70
     8
 71
     2
 72
     2
 73
     0
 90
        0
 40
-0.6
 41
-30.0
 62
     5
 63
     7
 74
     1
 91
        0
 64
     7
 65
   257
 75
     1
175
     1
 42
1.0
 92
        8
 66
     8
 43
1.0
 76
     1
 77
     6
 78
     2
 67
     7
 79
     5
170
     0
171
     0
290
     0
174
     0
 93
       13
 44
0.0
173
     0
291
     0
 45
0.0
1001
ACAD
1000
AcDbSavedByObjectVersion
1070
     0
  0
VISUALSTYLE
  5
728
102
{ACAD_XDICTIONARY
360
776
102
}
102
{ACAD_REACTORS
330
71B
102
}
330
71B
100
AcDbVisualStyle
  2
Thicken
 70
    13
 71
     2
 72
     2
 73
     0
 90
        0
 40
-0.6
 41
-30.0
 62
     5
 63
     7
 74
     1
 91
        4
 64
     7
 65
   257
 75
     1
175
     1
 42
1.0
 92
       12
 66
     7
 43
1.0
 76
     1
 77
     6
 78
     2
 67
     7
 79
     5
170
     0
171
     0
290
     0
174
     0
 93
        1
 44
0.0
173
     0
291
     1
 45
0.0
1001
ACAD
1000
AcDbSavedByObjectVersion
1070
     0
  0
DICTIONARYVAR
  5
74C
102
{ACAD_REACTORS
330
6BF
102
}
330
6BF
100
DictionaryVariables
280
     0
  1
1:1
  0
DICTIONARYVAR
  5
74B
102
{ACAD_REACTORS
330
6BF
102
}
330
6BF
100
DictionaryVariables
280
     0
  1
STANDARD
  0
DICTIONARYVAR
  5
6C0
102
{ACAD_REACTORS
330
6BF
102
}
330
6BF
100
DictionaryVariables
280
     0
  1
STANDARD
  0
DICTIONARYVAR
  5
6F5
102
{ACAD_REACTORS
330
6BF
102
}
330
6BF
100
DictionaryVariables
280
     0
  1
2
  0
DICTIONARYVAR
  5
6F4
102
{ACAD_REACTORS
330
6BF
102
}
330
6BF
100
DictionaryVariables
280
     0
  1
1
  0
DICTIONARYVAR
  5
74E
102
{ACAD_REACTORS
330
6BF
102
}
330
6BF
100
DictionaryVariables
280
     0
  1
0
  0
DICTIONARYVAR
  5
6F6
102
{ACAD_REACTORS
330
6BF
102
}
330
6BF
100
DictionaryVariables
280
     0
  1

  0
DICTIONARYVAR
  5
74D
102
{ACAD_REACTORS
330
6BF
102
}
330
6BF
100
DictionaryVariables
280
     0
  1
127
  0
DICTIONARYVAR
  5
74F
102
{ACAD_REACTORS
330
6BF
102
}
330
6BF
100
DictionaryVariables
280
     0
  1
2
  0
XRECORD
  5
6BD
102
{ACAD_REACTORS
330
6BC
102
}
330
6BC
100
AcDbXrecord
280
     1
  0
DICTIONARY
  5
755
330
22
100
AcDbDictionary
280
     1
281
     1
  3
ACAD_XREC_ROUNDTRIP
360
756
  0
DICTIONARY
  5
759
330
2A
100
AcDbDictionary
280
     1
281
     1
  3
ACAD_XREC_ROUNDTRIP
360
75A
  0
DICTIONARY
  5
757
330
26
100
AcDbDictionary
280
     1
281
     1
  3
ACAD_XREC_ROUNDTRIP
360
758
  0
DICTIONARY
  5
70C
330
70B
100
AcDbDictionary
280
     1
281
     1
  3
ACAD_XREC_ROUNDTRIP
360
75C
  3
BUMPTILE
360
70E
  3
DIFFUSETILE
360
70D
  3
OPACITYTILE
360
711
  3
REFLECTIONTILE
360
710
  3
REFRACTIONTILE
360
712
  3
SPECULARTILE
360
70F
  0
DICTIONARY
  5
704
330
703
100
AcDbDictionary
280
     1
281
     1
  3
ACAD_XREC_ROUNDTRIP
360
75B
  3
BUMPTILE
360
706
  3
DIFFUSETILE
360
705
  3
OPACITYTILE
360
709
  3
REFLECTIONTILE
360
708
  3
REFRACTIONTILE
360
70A
  3
SPECULARTILE
360
707
  0
DICTIONARY
  5
714
330
713
100
AcDbDictionary
280
     1
281
     1
  3
ACAD_XREC_ROUNDTRIP
360
75D
  3
BUMPTILE
360
716
  3
DIFFUSETILE
360
715
  3
OPACITYTILE
360
719
  3
REFLECTIONTILE
360
718
  3
REFRACTIONTILE
360
71A
  3
SPECULARTILE
360
717
  0
DICTIONARY
  5
750
330
1E
100
AcDbDictionary
280
     1
281
     1
  3
ACAD_ROUNDTRIP_2008_TABLESTYLE_CELLSTYLEMAP
360
751
  3
ACAD_XREC_ROUNDTRIP
360
754
  0
DICTIONARY
  5
768
330
721
100
AcDbDictionary
280
     1
281
     1
  3
ACAD_XREC_ROUNDTRIP
360
769
  0
DICTIONARY
  5
76C
330
723
100
AcDbDictionary
280
     1
281
     1
  3
ACAD_XREC_ROUNDTRIP
360
76D
  0
DICTIONARY
  5
76A
330
722
100
AcDbDictionary
280
     1
281
     1
  3
ACAD_XREC_ROUNDTRIP
360
76B
  0
DICTIONARY
  5
766
330
720
100
AcDbDictionary
280
     1
281
     1
  3
ACAD_XREC_ROUNDTRIP
360
767
  0
DICTIONARY
  5
774
330
727
100
AcDbDictionary
280
     1
281
     1
  3
ACAD_XREC_ROUNDTRIP
360
775
  0
DICTIONARY
  5
77C
330
72B
100
AcDbDictionary
280
     1
281
     1
  3
ACAD_XREC_ROUNDTRIP
360
77D
  0
DICTIONARY
  5
76E
330
724
100
AcDbDictionary
280
     1
281
     1
  3
ACAD_XREC_ROUNDTRIP
360
76F
  0
DICTIONARY
  5
772
330
726
100
AcDbDictionary
280
     1
281
     1
  3
ACAD_XREC_ROUNDTRIP
360
773
  0
DICTIONARY
  5
782
330
72E
100
AcDbDictionary
280
     1
281
     1
  3
ACAD_XREC_ROUNDTRIP
360
783
  0
DICTIONARY
  5
77A
330
72A
100
AcDbDictionary
280
     1
281
     1
  3
ACAD_XREC_ROUNDTRIP
360
77B
  0
DICTIONARY
  5
75E
330
71C
100
AcDbDictionary
280
     1
281
     1
  3
ACAD_XREC_ROUNDTRIP
360
75F
  0
DICTIONARY
  5
760
330
71D
100
AcDbDictionary
280
     1
281
     1
  3
ACAD_XREC_ROUNDTRIP
360
761
  0
DICTIONARY
  5
762
330
71E
100
AcDbDictionary
280
     1
281
     1
  3
ACAD_XREC_ROUNDTRIP
360
763
  0
DICTIONARY
  5
764
330
71F
100
AcDbDictionary
280
     1
281
     1
  3
ACAD_XREC_ROUNDTRIP
360
765
  0
DICTIONARY
  5
77E
330
72C
100
AcDbDictionary
280
     1
281
     1
  3
ACAD_XREC_ROUNDTRIP
360
77F
  0
DICTIONARY
  5
778
330
729
100
AcDbDictionary
280
     1
281
     1
  3
ACAD_XREC_ROUNDTRIP
360
779
  0
DICTIONARY
  5
780
330
72D
100
AcDbDictionary
280
     1
281
     1
  3
ACAD_XREC_ROUNDTRIP
360
781
  0
DICTIONARY
  5
770
330
725
100
AcDbDictionary
280
     1
281
     1
  3
ACAD_XREC_ROUNDTRIP
360
771
  0
DICTIONARY
  5
776
330
728
100
AcDbDictionary
280
     1
281
     1
  3
ACAD_XREC_ROUNDTRIP
360
777
  0
XRECORD
  5
756
102
{ACAD_REACTORS
330
755
102
}
330
755
100
AcDbXrecord
280
     1
102
SHADEPLOT
 70
     0
102
SHADEPLOTRESLEVEL
 70
     2
102
SHADEPLOTCUSTOMDPI
 70
   300
  0
XRECORD
  5
75A
102
{ACAD_REACTORS
330
759
102
}
330
759
100
AcDbXrecord
280
     1
102
SHADEPLOT
 70
     0
102
SHADEPLOTRESLEVEL
 70
     2
102
SHADEPLOTCUSTOMDPI
 70
   300
  0
XRECORD
  5
758
102
{ACAD_REACTORS
330
757
102
}
330
757
100
AcDbXrecord
280
     1
102
SHADEPLOT
 70
     0
102
SHADEPLOTRESLEVEL
 70
     2
102
SHADEPLOTCUSTOMDPI
 70
   300
  0
XRECORD
  5
75C
102
{ACAD_REACTORS
330
70C
102
}
330
70C
100
AcDbXrecord
280
     1
102
MATERIAL
148
0.0
149
0.0
149
0.0
 93
        0
 94
      127
282
     0
 72
     0
 77
     0
171
     0
175
     0
179
     0
273
     0
  0
XRECORD
  5
70E
102
{ACAD_REACTORS
330
70C
102
}
330
70C
100
AcDbXrecord
280
     1
270
     1
271
     1
  0
XRECORD
  5
70D
102
{ACAD_REACTORS
330
70C
102
}
330
70C
100
AcDbXrecord
280
     1
270
     1
271
     1
  0
XRECORD
  5
711
102
{ACAD_REACTORS
330
70C
102
}
330
70C
100
AcDbXrecord
280
     1
270
     1
271
     1
  0
XRECORD
  5
710
102
{ACAD_REACTORS
330
70C
102
}
330
70C
100
AcDbXrecord
280
     1
270
     1
271
     1
  0
XRECORD
  5
712
102
{ACAD_REACTORS
330
70C
102
}
330
70C
100
AcDbXrecord
280
     1
270
     1
271
     1
  0
XRECORD
  5
70F
102
{ACAD_REACTORS
330
70C
102
}
330
70C
100
AcDbXrecord
280
     1
270
     1
271
     1
  0
XRECORD
  5
75B
102
{ACAD_REACTORS
330
704
102
}
330
704
100
AcDbXrecord
280
     1
102
MATERIAL
148
0.0
149
0.0
149
0.0
 93
        0
 94
      127
282
     0
 72
     0
 77
     0
171
     0
175
     0
179
     0
273
     0
  0
XRECORD
  5
706
102
{ACAD_REACTORS
330
704
102
}
330
704
100
AcDbXrecord
280
     1
270
     1
271
     1
  0
XRECORD
  5
705
102
{ACAD_REACTORS
330
704
102
}
330
704
100
AcDbXrecord
280
     1
270
     1
271
     1
  0
XRECORD
  5
709
102
{ACAD_REACTORS
330
704
102
}
330
704
100
AcDbXrecord
280
     1
270
     1
271
     1
  0
XRECORD
  5
708
102
{ACAD_REACTORS
330
704
102
}
330
704
100
AcDbXrecord
280
     1
270
     1
271
     1
  0
XRECORD
  5
70A
102
{ACAD_REACTORS
330
704
102
}
330
704
100
AcDbXrecord
280
     1
270
     1
271
     1
  0
XRECORD
  5
707
102
{ACAD_REACTORS
330
704
102
}
330
704
100
AcDbXrecord
280
     1
270
     1
271
     1
  0
XRECORD
  5
75D
102
{ACAD_REACTORS
330
714
102
}
330
714
100
AcDbXrecord
280
     1
102
MATERIAL
148
0.0
149
0.0
149
0.0
 93
        0
 94
      127
282
     0
 72
     0
 77
     0
171
     0
175
     0
179
     0
273
     0
  0
XRECORD
  5
716
102
{ACAD_REACTORS
330
714
102
}
330
714
100
AcDbXrecord
280
     1
270
     1
271
     1
  0
XRECORD
  5
715
102
{ACAD_REACTORS
330
714
102
}
330
714
100
AcDbXrecord
280
     1
270
     1
271
     1
  0
XRECORD
  5
719
102
{ACAD_REACTORS
330
714
102
}
330
714
100
AcDbXrecord
280
     1
270
     1
271
     1
  0
XRECORD
  5
718
102
{ACAD_REACTORS
330
714
102
}
330
714
100
AcDbXrecord
280
     1
270
     1
271
     1
  0
XRECORD
  5
71A
102
{ACAD_REACTORS
330
714
102
}
330
714
100
AcDbXrecord
280
     1
270
     1
271
     1
  0
XRECORD
  5
717
102
{ACAD_REACTORS
330
714
102
}
330
714
100
AcDbXrecord
280
     1
270
     1
271
     1
  0
CELLSTYLEMAP
  5
751
102
{ACAD_REACTORS
330
750
102
}
330
750
100
AcDbCellStyleMap
 90
        3
300
CELLSTYLE
  1
TABLEFORMAT_BEGIN
 90
        5
170
     1
 91
        0
 92
    32768
 62
   257
 93
        1
300
CONTENTFORMAT
  1
CONTENTFORMAT_BEGIN
 90
        0
 91
        0
 92
        4
 93
        0
300

 40
0.0
140
1.0
 94
        5
 62
     0
340
11
144
6.0
309
CONTENTFORMAT_END
171
     1
301
MARGIN
  1
CELLMARGIN_BEGIN
 40
1.5
 40
1.5
 40
1.5
 40
1.5
 40
0.18
 40
0.18
309
CELLMARGIN_END
 94
        6
 95
        1
302
GRIDFORMAT
  1
GRIDFORMAT_BEGIN
 90
        0
 91
        1
 62
     0
 92
       -2
340
0
 93
        0
 40
0.045
309
GRIDFORMAT_END
 95
        2
302
GRIDFORMAT
  1
GRIDFORMAT_BEGIN
 90
        0
 91
        1
 62
     0
 92
       -2
340
0
 93
        0
 40
0.045
309
GRIDFORMAT_END
 95
        4
302
GRIDFORMAT
  1
GRIDFORMAT_BEGIN
 90
        0
 91
        1
 62
     0
 92
       -2
340
0
 93
        0
 40
0.045
309
GRIDFORMAT_END
 95
        8
302
GRIDFORMAT
  1
GRIDFORMAT_BEGIN
 90
        0
 91
        1
 62
     0
 92
       -2
340
0
 93
        0
 40
0.045
309
GRIDFORMAT_END
 95
       16
302
GRIDFORMAT
  1
GRIDFORMAT_BEGIN
 90
        0
 91
        1
 62
     0
 92
       -2
340
0
 93
        0
 40
0.045
309
GRIDFORMAT_END
 95
       32
302
GRIDFORMAT
  1
GRIDFORMAT_BEGIN
 90
        0
 91
        1
 62
     0
 92
       -2
340
0
 93
        0
 40
0.045
309
GRIDFORMAT_END
309
TABLEFORMAT_END
  1
CELLSTYLE_BEGIN
 90
        1
 91
        1
300
_TITLE
309
CELLSTYLE_END
300
CELLSTYLE
  1
TABLEFORMAT_BEGIN
 90
        5
170
     1
 91
        0
 92
        0
 62
   257
 93
        1
300
CONTENTFORMAT
  1
CONTENTFORMAT_BEGIN
 90
        0
 91
        0
 92
        4
 93
        0
300

 40
0.0
140
1.0
 94
        5
 62
     0
340
11
144
4.5
309
CONTENTFORMAT_END
171
     1
301
MARGIN
  1
CELLMARGIN_BEGIN
 40
1.5
 40
1.5
 40
1.5
 40
1.5
 40
0.18
 40
0.18
309
CELLMARGIN_END
 94
        6
 95
        1
302
GRIDFORMAT
  1
GRIDFORMAT_BEGIN
 90
        0
 91
        1
 62
     0
 92
       -2
340
0
 93
        0
 40
0.045
309
GRIDFORMAT_END
 95
        2
302
GRIDFORMAT
  1
GRIDFORMAT_BEGIN
 90
        0
 91
        1
 62
     0
 92
       -2
340
0
 93
        0
 40
0.045
309
GRIDFORMAT_END
 95
        4
302
GRIDFORMAT
  1
GRIDFORMAT_BEGIN
 90
        0
 91
        1
 62
     0
 92
       -2
340
0
 93
        0
 40
0.045
309
GRIDFORMAT_END
 95
        8
302
GRIDFORMAT
  1
GRIDFORMAT_BEGIN
 90
        0
 91
        1
 62
     0
 92
       -2
340
0
 93
        0
 40
0.045
309
GRIDFORMAT_END
 95
       16
302
GRIDFORMAT
  1
GRIDFORMAT_BEGIN
 90
        0
 91
        1
 62
     0
 92
       -2
340
0
 93
        0
 40
0.045
309
GRIDFORMAT_END
 95
       32
302
GRIDFORMAT
  1
GRIDFORMAT_BEGIN
 90
        0
 91
        1
 62
     0
 92
       -2
340
0
 93
        0
 40
0.045
309
GRIDFORMAT_END
309
TABLEFORMAT_END
  1
CELLSTYLE_BEGIN
 90
        2
 91
        1
300
_HEADER
309
CELLSTYLE_END
300
CELLSTYLE
  1
TABLEFORMAT_BEGIN
 90
        5
170
     1
 91
        0
 92
        0
 62
   257
 93
        1
300
CONTENTFORMAT
  1
CONTENTFORMAT_BEGIN
 90
        0
 91
        0
 92
        4
 93
        0
300

 40
0.0
140
1.0
 94
        2
 62
     0
340
11
144
4.5
309
CONTENTFORMAT_END
171
     1
301
MARGIN
  1
CELLMARGIN_BEGIN
 40
1.5
 40
1.5
 40
1.5
 40
1.5
 40
0.18
 40
0.18
309
CELLMARGIN_END
 94
        6
 95
        1
302
GRIDFORMAT
  1
GRIDFORMAT_BEGIN
 90
        0
 91
        1
 62
     0
 92
       -2
340
0
 93
        0
 40
0.045
309
GRIDFORMAT_END
 95
        2
302
GRIDFORMAT
  1
GRIDFORMAT_BEGIN
 90
        0
 91
        1
 62
     0
 92
       -2
340
0
 93
        0
 40
0.045
309
GRIDFORMAT_END
 95
        4
302
GRIDFORMAT
  1
GRIDFORMAT_BEGIN
 90
        0
 91
        1
 62
     0
 92
       -2
340
0
 93
        0
 40
0.045
309
GRIDFORMAT_END
 95
        8
302
GRIDFORMAT
  1
GRIDFORMAT_BEGIN
 90
        0
 91
        1
 62
     0
 92
       -2
340
0
 93
        0
 40
0.045
309
GRIDFORMAT_END
 95
       16
302
GRIDFORMAT
  1
GRIDFORMAT_BEGIN
 90
        0
 91
        1
 62
     0
 92
       -2
340
0
 93
        0
 40
0.045
309
GRIDFORMAT_END
 95
       32
302
GRIDFORMAT
  1
GRIDFORMAT_BEGIN
 90
        0
 91
        1
 62
     0
 92
       -2
340
0
 93
        0
 40
0.045
309
GRIDFORMAT_END
309
TABLEFORMAT_END
  1
CELLSTYLE_BEGIN
 90
        3
 91
        2
300
_DATA
309
CELLSTYLE_END
  0
XRECORD
  5
754
102
{ACAD_REACTORS
330
750
102
}
330
750
100
AcDbXrecord
280
     1
102
ACAD_ROUNDTRIP_PRE2007_TABLESTYLE
 90
        4
 91
        0
  1

 92
        4
 93
        0
  2

 94
        4
 95
        0
  3

  0
XRECORD
  5
769
102
{ACAD_REACTORS
330
768
102
}
330
768
100
AcDbXrecord
280
     1
102
RTVSPropertyOp0
 70
     1
102
RTVSPropertyOp1
 70
     1
102
RTVSPropertyOp2
 70
     1
102
RTVSPropertyOp3
 70
     1
102
RTVSPropertyOp4
 70
     1
102
RTVSPropertyOp5
 70
     1
102
RTVSPropertyOp6
 70
     1
102
RTVSPropertyOp7
 70
     1
102
RTVSPropertyOp8
 70
     1
102
RTVSPropertyOp9
 70
     1
102
RTVSPropertyOp10
 70
     1
102
RTVSPropertyOp11
 70
     1
102
RTVSPropertyOp12
 70
     1
102
RTVSPropertyOp13
 70
     1
102
RTVSPropertyOp14
 70
     1
102
RTVSPropertyOp15
 70
     1
102
RTVSPropertyOp16
 70
     1
102
RTVSPropertyOp17
 70
     1
102
RTVSPropertyOp18
 70
     1
102
RTVSPropertyOp19
 70
     1
102
RTVSPropertyOp20
 70
     1
102
RTVSPropertyOp21
 70
     1
102
RTVSPropertyOp22
 70
     1
102
RTVSPropertyOp23
 70
     1
102
RTVSPropertyOp24
 70
     1
102
RTVSPropertyOp25
 70
     1
102
RTVSPropertyOp26
 70
     1
102
RTVSPropertyOp27
 70
     1
  0
XRECORD
  5
76D
102
{ACAD_REACTORS
330
76C
102
}
330
76C
100
AcDbXrecord
280
     1
102
RTVSPropertyOp0
 70
     1
102
RTVSPropertyOp1
 70
     1
102
RTVSPropertyOp2
 70
     1
102
RTVSPropertyOp3
 70
     1
102
RTVSPropertyOp4
 70
     1
102
RTVSPropertyOp5
 70
     1
102
RTVSPropertyOp6
 70
     1
102
RTVSPropertyOp7
 70
     1
102
RTVSPropertyOp8
 70
     1
102
RTVSPropertyOp9
 70
     1
102
RTVSPropertyOp10
 70
     1
102
RTVSPropertyOp11
 70
     1
102
RTVSPropertyOp12
 70
     1
102
RTVSPropertyOp13
 70
     1
102
RTVSPropertyOp14
 70
     1
102
RTVSPropertyOp15
 70
     1
102
RTVSPropertyOp16
 70
     1
102
RTVSPropertyOp17
 70
     1
102
RTVSPropertyOp18
 70
     1
102
RTVSPropertyOp19
 70
     1
102
RTVSPropertyOp20
 70
     1
102
RTVSPropertyOp21
 70
     1
102
RTVSPropertyOp22
 70
     1
102
RTVSPropertyOp23
 70
     1
102
RTVSPropertyOp24
 70
     1
102
RTVSPropertyOp25
 70
     1
102
RTVSPropertyOp26
 70
     1
102
RTVSPropertyOp27
 70
     1
  0
XRECORD
  5
76B
102
{ACAD_REACTORS
330
76A
102
}
330
76A
100
AcDbXrecord
280
     1
102
RTVSPropertyOp0
 70
     1
102
RTVSPropertyOp1
 70
     1
102
RTVSPropertyOp2
 70
     1
102
RTVSPropertyOp3
 70
     1
102
RTVSPropertyOp4
 70
     1
102
RTVSPropertyOp5
 70
     1
102
RTVSPropertyOp6
 70
     1
102
RTVSPropertyOp7
 70
     1
102
RTVSPropertyOp8
 70
     1
102
RTVSPropertyOp9
 70
     1
102
RTVSPropertyOp10
 70
     1
102
RTVSPropertyOp11
 70
     1
102
RTVSPropertyOp12
 70
     1
102
RTVSPropertyOp13
 70
     1
102
RTVSPropertyOp14
 70
     1
102
RTVSPropertyOp15
 70
     1
102
RTVSPropertyOp16
 70
     1
102
RTVSPropertyOp17
 70
     1
102
RTVSPropertyOp18
 70
     1
102
RTVSPropertyOp19
 70
     1
102
RTVSPropertyOp20
 70
     1
102
RTVSPropertyOp21
 70
     1
102
RTVSPropertyOp22
 70
     1
102
RTVSPropertyOp23
 70
     1
102
RTVSPropertyOp24
 70
     1
102
RTVSPropertyOp25
 70
     1
102
RTVSPropertyOp26
 70
     1
102
RTVSPropertyOp27
 70
     1
  0
XRECORD
  5
767
102
{ACAD_REACTORS
330
766
102
}
330
766
100
AcDbXrecord
280
     1
102
RTVSPropertyOp0
 70
     1
102
RTVSPropertyOp1
 70
     1
102
RTVSPropertyOp2
 70
     1
102
RTVSPropertyOp3
 70
     1
102
RTVSPropertyOp4
 70
     1
102
RTVSPropertyOp5
 70
     1
102
RTVSPropertyOp6
 70
     1
102
RTVSPropertyOp7
 70
     1
102
RTVSPropertyOp8
 70
     1
102
RTVSPropertyOp9
 70
     1
102
RTVSPropertyOp10
 70
     1
102
RTVSPropertyOp11
 70
     1
102
RTVSPropertyOp12
 70
     1
102
RTVSPropertyOp13
 70
     1
102
RTVSPropertyOp14
 70
     1
102
RTVSPropertyOp15
 70
     1
102
RTVSPropertyOp16
 70
     1
102
RTVSPropertyOp17
 70
     1
102
RTVSPropertyOp18
 70
     1
102
RTVSPropertyOp19
 70
     1
102
RTVSPropertyOp20
 70
     1
102
RTVSPropertyOp21
 70
     1
102
RTVSPropertyOp22
 70
     1
102
RTVSPropertyOp23
 70
     1
102
RTVSPropertyOp24
 70
     1
102
RTVSPropertyOp25
 70
     1
102
RTVSPropertyOp26
 70
     1
102
RTVSPropertyOp27
 70
     1
  0
XRECORD
  5
775
102
{ACAD_REACTORS
330
774
102
}
330
774
100
AcDbXrecord
280
     1
102
RTVSPropertyOp0
 70
     1
102
RTVSPropertyOp1
 70
     1
102
RTVSPropertyOp2
 70
     1
102
RTVSPropertyOp3
 70
     1
102
RTVSPropertyOp4
 70
     1
102
RTVSPropertyOp5
 70
     1
102
RTVSPropertyOp6
 70
     1
102
RTVSPropertyOp7
 70
     1
102
RTVSPropertyOp8
 70
     1
102
RTVSPropertyOp9
 70
     1
102
RTVSPropertyOp10
 70
     1
102
RTVSPropertyOp11
 70
     1
102
RTVSPropertyOp12
 70
     1
102
RTVSPropertyOp13
 70
     1
102
RTVSPropertyOp14
 70
     1
102
RTVSPropertyOp15
 70
     1
102
RTVSPropertyOp16
 70
     1
102
RTVSPropertyOp17
 70
     1
102
RTVSPropertyOp18
 70
     1
102
RTVSPropertyOp19
 70
     1
102
RTVSPropertyOp20
 70
     1
102
RTVSPropertyOp21
 70
     1
102
RTVSPropertyOp22
 70
     1
102
RTVSPropertyOp23
 70
     1
102
RTVSPropertyOp24
 70
     1
102
RTVSPropertyOp25
 70
     1
102
RTVSPropertyOp26
 70
     1
102
RTVSPropertyOp27
 70
     1
  0
XRECORD
  5
77D
102
{ACAD_REACTORS
330
77C
102
}
330
77C
100
AcDbXrecord
280
     1
102
RTVSPropertyOp0
 70
     1
102
RTVSPropertyOp1
 70
     1
102
RTVSPropertyOp2
 70
     1
102
RTVSPropertyOp3
 70
     1
102
RTVSPropertyOp4
 70
     1
102
RTVSPropertyOp5
 70
     1
102
RTVSPropertyOp6
 70
     1
102
RTVSPropertyOp7
 70
     1
102
RTVSPropertyOp8
 70
     1
102
RTVSPropertyOp9
 70
     1
102
RTVSPropertyOp10
 70
     1
102
RTVSPropertyOp11
 70
     1
102
RTVSPropertyOp12
 70
     1
102
RTVSPropertyOp13
 70
     1
102
RTVSPropertyOp14
 70
     1
102
RTVSPropertyOp15
 70
     1
102
RTVSPropertyOp16
 70
     1
102
RTVSPropertyOp17
 70
     1
102
RTVSPropertyOp18
 70
     1
102
RTVSPropertyOp19
 70
     1
102
RTVSPropertyOp20
 70
     1
102
RTVSPropertyOp21
 70
     1
102
RTVSPropertyOp22
 70
     1
102
RTVSPropertyOp23
 70
     1
102
RTVSPropertyOp24
 70
     1
102
RTVSPropertyOp25
 70
     1
102
RTVSPropertyOp26
 70
     1
102
RTVSPropertyOp27
 70
     1
  0
XRECORD
  5
76F
102
{ACAD_REACTORS
330
76E
102
}
330
76E
100
AcDbXrecord
280
     1
102
RTVSPropertyOp0
 70
     1
102
RTVSPropertyOp1
 70
     1
102
RTVSPropertyOp2
 70
     1
102
RTVSPropertyOp3
 70
     1
102
RTVSPropertyOp4
 70
     1
102
RTVSPropertyOp5
 70
     1
102
RTVSPropertyOp6
 70
     1
102
RTVSPropertyOp7
 70
     1
102
RTVSPropertyOp8
 70
     1
102
RTVSPropertyOp9
 70
     1
102
RTVSPropertyOp10
 70
     1
102
RTVSPropertyOp11
 70
     1
102
RTVSPropertyOp12
 70
     1
102
RTVSPropertyOp13
 70
     1
102
RTVSPropertyOp14
 70
     1
102
RTVSPropertyOp15
 70
     1
102
RTVSPropertyOp16
 70
     1
102
RTVSPropertyOp17
 70
     1
102
RTVSPropertyOp18
 70
     1
102
RTVSPropertyOp19
 70
     1
102
RTVSPropertyOp20
 70
     1
102
RTVSPropertyOp21
 70
     1
102
RTVSPropertyOp22
 70
     1
102
RTVSPropertyOp23
 70
     1
102
RTVSPropertyOp24
 70
     1
102
RTVSPropertyOp25
 70
     1
102
RTVSPropertyOp26
 70
     1
102
RTVSPropertyOp27
 70
     1
  0
XRECORD
  5
773
102
{ACAD_REACTORS
330
772
102
}
330
772
100
AcDbXrecord
280
     1
102
RTVSPropertyOp0
 70
     1
102
RTVSPropertyOp1
 70
     1
102
RTVSPropertyOp2
 70
     1
102
RTVSPropertyOp3
 70
     1
102
RTVSPropertyOp4
 70
     1
102
RTVSPropertyOp5
 70
     1
102
RTVSPropertyOp6
 70
     1
102
RTVSPropertyOp7
 70
     1
102
RTVSPropertyOp8
 70
     1
102
RTVSPropertyOp9
 70
     1
102
RTVSPropertyOp10
 70
     1
102
RTVSPropertyOp11
 70
     1
102
RTVSPropertyOp12
 70
     1
102
RTVSPropertyOp13
 70
     1
102
RTVSPropertyOp14
 70
     1
102
RTVSPropertyOp15
 70
     1
102
RTVSPropertyOp16
 70
     1
102
RTVSPropertyOp17
 70
     1
102
RTVSPropertyOp18
 70
     1
102
RTVSPropertyOp19
 70
     1
102
RTVSPropertyOp20
 70
     1
102
RTVSPropertyOp21
 70
     1
102
RTVSPropertyOp22
 70
     1
102
RTVSPropertyOp23
 70
     1
102
RTVSPropertyOp24
 70
     1
102
RTVSPropertyOp25
 70
     1
102
RTVSPropertyOp26
 70
     1
102
RTVSPropertyOp27
 70
     1
  0
XRECORD
  5
783
102
{ACAD_REACTORS
330
782
102
}
330
782
100
AcDbXrecord
280
     1
102
RTVSPropertyOp0
 70
     0
102
RTVSPropertyOp1
 70
     0
102
RTVSPropertyOp2
 70
     0
102
RTVSPropertyOp3
 70
     0
102
RTVSPropertyOp4
 70
     0
102
RTVSPropertyOp5
 70
     0
102
RTVSPropertyOp6
 70
     0
102
RTVSPropertyOp7
 70
     0
102
RTVSPropertyOp8
 70
     0
102
RTVSPropertyOp9
 70
     0
102
RTVSPropertyOp10
 70
     0
102
RTVSPropertyOp11
 70
     0
102
RTVSPropertyOp12
 70
     0
102
RTVSPropertyOp13
 70
     0
102
RTVSPropertyOp14
 70
     2
102
RTVSPropertyOp15
 70
     0
102
RTVSPropertyOp16
 70
     0
102
RTVSPropertyOp17
 70
     0
102
RTVSPropertyOp18
 70
     0
102
RTVSPropertyOp19
 70
     0
102
RTVSPropertyOp20
 70
     0
102
RTVSPropertyOp21
 70
     0
102
RTVSPropertyOp22
 70
     0
102
RTVSPropertyOp23
 70
     0
102
RTVSPropertyOp24
 70
     0
102
RTVSPropertyOp25
 70
     0
102
RTVSPropertyOp26
 70
     0
102
RTVSPropertyOp27
 70
     0
  0
XRECORD
  5
77B
102
{ACAD_REACTORS
330
77A
102
}
330
77A
100
AcDbXrecord
280
     1
102
RTVSPropertyOp0
 70
     1
102
RTVSPropertyOp1
 70
     1
102
RTVSPropertyOp2
 70
     1
102
RTVSPropertyOp3
 70
     1
102
RTVSPropertyOp4
 70
     1
102
RTVSPropertyOp5
 70
     1
102
RTVSPropertyOp6
 70
     1
102
RTVSPropertyOp7
 70
     1
102
RTVSPropertyOp8
 70
     1
102
RTVSPropertyOp9
 70
     1
102
RTVSPropertyOp10
 70
     1
102
RTVSPropertyOp11
 70
     1
102
RTVSPropertyOp12
 70
     1
102
RTVSPropertyOp13
 70
     1
102
RTVSPropertyOp14
 70
     1
102
RTVSPropertyOp15
 70
     1
102
RTVSPropertyOp16
 70
     1
102
RTVSPropertyOp17
 70
     1
102
RTVSPropertyOp18
 70
     1
102
RTVSPropertyOp19
 70
     1
102
RTVSPropertyOp20
 70
     1
102
RTVSPropertyOp21
 70
     1
102
RTVSPropertyOp22
 70
     1
102
RTVSPropertyOp23
 70
     1
102
RTVSPropertyOp24
 70
     1
102
RTVSPropertyOp25
 70
     1
102
RTVSPropertyOp26
 70
     1
102
RTVSPropertyOp27
 70
     1
  0
XRECORD
  5
75F
102
{ACAD_REACTORS
330
75E
102
}
330
75E
100
AcDbXrecord
280
     1
102
RTVSPropertyOp0
 70
     1
102
RTVSPropertyOp1
 70
     1
102
RTVSPropertyOp2
 70
     1
102
RTVSPropertyOp3
 70
     1
102
RTVSPropertyOp4
 70
     1
102
RTVSPropertyOp5
 70
     1
102
RTVSPropertyOp6
 70
     1
102
RTVSPropertyOp7
 70
     1
102
RTVSPropertyOp8
 70
     1
102
RTVSPropertyOp9
 70
     1
102
RTVSPropertyOp10
 70
     1
102
RTVSPropertyOp11
 70
     1
102
RTVSPropertyOp12
 70
     1
102
RTVSPropertyOp13
 70
     1
102
RTVSPropertyOp14
 70
     1
102
RTVSPropertyOp15
 70
     1
102
RTVSPropertyOp16
 70
     1
102
RTVSPropertyOp17
 70
     1
102
RTVSPropertyOp18
 70
     1
102
RTVSPropertyOp19
 70
     1
102
RTVSPropertyOp20
 70
     1
102
RTVSPropertyOp21
 70
     1
102
RTVSPropertyOp22
 70
     1
102
RTVSPropertyOp23
 70
     1
102
RTVSPropertyOp24
 70
     1
102
RTVSPropertyOp25
 70
     1
102
RTVSPropertyOp26
 70
     1
102
RTVSPropertyOp27
 70
     1
  0
XRECORD
  5
761
102
{ACAD_REACTORS
330
760
102
}
330
760
100
AcDbXrecord
280
     1
102
RTVSPropertyOp0
 70
     1
102
RTVSPropertyOp1
 70
     1
102
RTVSPropertyOp2
 70
     1
102
RTVSPropertyOp3
 70
     1
102
RTVSPropertyOp4
 70
     1
102
RTVSPropertyOp5
 70
     1
102
RTVSPropertyOp6
 70
     1
102
RTVSPropertyOp7
 70
     1
102
RTVSPropertyOp8
 70
     1
102
RTVSPropertyOp9
 70
     1
102
RTVSPropertyOp10
 70
     1
102
RTVSPropertyOp11
 70
     1
102
RTVSPropertyOp12
 70
     1
102
RTVSPropertyOp13
 70
     1
102
RTVSPropertyOp14
 70
     1
102
RTVSPropertyOp15
 70
     1
102
RTVSPropertyOp16
 70
     1
102
RTVSPropertyOp17
 70
     1
102
RTVSPropertyOp18
 70
     1
102
RTVSPropertyOp19
 70
     1
102
RTVSPropertyOp20
 70
     1
102
RTVSPropertyOp21
 70
     1
102
RTVSPropertyOp22
 70
     1
102
RTVSPropertyOp23
 70
     1
102
RTVSPropertyOp24
 70
     1
102
RTVSPropertyOp25
 70
     1
102
RTVSPropertyOp26
 70
     1
102
RTVSPropertyOp27
 70
     1
  0
XRECORD
  5
763
102
{ACAD_REACTORS
330
762
102
}
330
762
100
AcDbXrecord
280
     1
102
RTVSPropertyOp0
 70
     1
102
RTVSPropertyOp1
 70
     1
102
RTVSPropertyOp2
 70
     1
102
RTVSPropertyOp3
 70
     1
102
RTVSPropertyOp4
 70
     1
102
RTVSPropertyOp5
 70
     1
102
RTVSPropertyOp6
 70
     1
102
RTVSPropertyOp7
 70
     1
102
RTVSPropertyOp8
 70
     1
102
RTVSPropertyOp9
 70
     1
102
RTVSPropertyOp10
 70
     1
102
RTVSPropertyOp11
 70
     1
102
RTVSPropertyOp12
 70
     1
102
RTVSPropertyOp13
 70
     1
102
RTVSPropertyOp14
 70
     1
102
RTVSPropertyOp15
 70
     1
102
RTVSPropertyOp16
 70
     1
102
RTVSPropertyOp17
 70
     1
102
RTVSPropertyOp18
 70
     1
102
RTVSPropertyOp19
 70
     1
102
RTVSPropertyOp20
 70
     1
102
RTVSPropertyOp21
 70
     1
102
RTVSPropertyOp22
 70
     1
102
RTVSPropertyOp23
 70
     1
102
RTVSPropertyOp24
 70
     1
102
RTVSPropertyOp25
 70
     1
102
RTVSPropertyOp26
 70
     1
102
RTVSPropertyOp27
 70
     1
  0
XRECORD
  5
765
102
{ACAD_REACTORS
330
764
102
}
330
764
100
AcDbXrecord
280
     1
102
RTVSPropertyOp0
 70
     1
102
RTVSPropertyOp1
 70
     1
102
RTVSPropertyOp2
 70
     1
102
RTVSPropertyOp3
 70
     1
102
RTVSPropertyOp4
 70
     1
102
RTVSPropertyOp5
 70
     1
102
RTVSPropertyOp6
 70
     1
102
RTVSPropertyOp7
 70
     1
102
RTVSPropertyOp8
 70
     1
102
RTVSPropertyOp9
 70
     1
102
RTVSPropertyOp10
 70
     1
102
RTVSPropertyOp11
 70
     1
102
RTVSPropertyOp12
 70
     1
102
RTVSPropertyOp13
 70
     1
102
RTVSPropertyOp14
 70
     1
102
RTVSPropertyOp15
 70
     1
102
RTVSPropertyOp16
 70
     1
102
RTVSPropertyOp17
 70
     1
102
RTVSPropertyOp18
 70
     1
102
RTVSPropertyOp19
 70
     1
102
RTVSPropertyOp20
 70
     1
102
RTVSPropertyOp21
 70
     1
102
RTVSPropertyOp22
 70
     1
102
RTVSPropertyOp23
 70
     1
102
RTVSPropertyOp24
 70
     1
102
RTVSPropertyOp25
 70
     1
102
RTVSPropertyOp26
 70
     1
102
RTVSPropertyOp27
 70
     1
  0
XRECORD
  5
77F
102
{ACAD_REACTORS
330
77E
102
}
330
77E
100
AcDbXrecord
280
     1
102
RTVSPropertyOp0
 70
     0
102
RTVSPropertyOp1
 70
     0
102
RTVSPropertyOp2
 70
     0
102
RTVSPropertyOp3
 70
     0
102
RTVSPropertyOp4
 70
     0
102
RTVSPropertyOp5
 70
     0
102
RTVSPropertyOp6
 70
     0
102
RTVSPropertyOp7
 70
     0
102
RTVSPropertyOp8
 70
     0
102
RTVSPropertyOp9
 70
     0
102
RTVSPropertyOp10
 70
     0
102
RTVSPropertyOp11
 70
     0
102
RTVSPropertyOp12
 70
     0
102
RTVSPropertyOp13
 70
     0
102
RTVSPropertyOp14
 70
     2
102
RTVSPropertyOp15
 70
     0
102
RTVSPropertyOp16
 70
     0
102
RTVSPropertyOp17
 70
     0
102
RTVSPropertyOp18
 70
     0
102
RTVSPropertyOp19
 70
     0
102
RTVSPropertyOp20
 70
     0
102
RTVSPropertyOp21
 70
     0
102
RTVSPropertyOp22
 70
     0
102
RTVSPropertyOp23
 70
     0
102
RTVSPropertyOp24
 70
     0
102
RTVSPropertyOp25
 70
     0
102
RTVSPropertyOp26
 70
     0
102
RTVSPropertyOp27
 70
     0
  0
XRECORD
  5
779
102
{ACAD_REACTORS
330
778
102
}
330
778
100
AcDbXrecord
280
     1
102
RTVSPropertyOp0
 70
     1
102
RTVSPropertyOp1
 70
     1
102
RTVSPropertyOp2
 70
     1
102
RTVSPropertyOp3
 70
     1
102
RTVSPropertyOp4
 70
     1
102
RTVSPropertyOp5
 70
     1
102
RTVSPropertyOp6
 70
     1
102
RTVSPropertyOp7
 70
     1
102
RTVSPropertyOp8
 70
     1
102
RTVSPropertyOp9
 70
     1
102
RTVSPropertyOp10
 70
     1
102
RTVSPropertyOp11
 70
     1
102
RTVSPropertyOp12
 70
     1
102
RTVSPropertyOp13
 70
     1
102
RTVSPropertyOp14
 70
     1
102
RTVSPropertyOp15
 70
     1
102
RTVSPropertyOp16
 70
     1
102
RTVSPropertyOp17
 70
     1
102
RTVSPropertyOp18
 70
     1
102
RTVSPropertyOp19
 70
     1
102
RTVSPropertyOp20
 70
     1
102
RTVSPropertyOp21
 70
     1
102
RTVSPropertyOp22
 70
     1
102
RTVSPropertyOp23
 70
     1
102
RTVSPropertyOp24
 70
     1
102
RTVSPropertyOp25
 70
     1
102
RTVSPropertyOp26
 70
     1
102
RTVSPropertyOp27
 70
     1
  0
XRECORD
  5
781
102
{ACAD_REACTORS
330
780
102
}
330
780
100
AcDbXrecord
280
     1
102
RTVSPropertyOp0
 70
     0
102
RTVSPropertyOp1
 70
     0
102
RTVSPropertyOp2
 70
     0
102
RTVSPropertyOp3
 70
     0
102
RTVSPropertyOp4
 70
     0
102
RTVSPropertyOp5
 70
     0
102
RTVSPropertyOp6
 70
     0
102
RTVSPropertyOp7
 70
     0
102
RTVSPropertyOp8
 70
     0
102
RTVSPropertyOp9
 70
     0
102
RTVSPropertyOp10
 70
     0
102
RTVSPropertyOp11
 70
     0
102
RTVSPropertyOp12
 70
     0
102
RTVSPropertyOp13
 70
     0
102
RTVSPropertyOp14
 70
     2
102
RTVSPropertyOp15
 70
     0
102
RTVSPropertyOp16
 70
     0
102
RTVSPropertyOp17
 70
     0
102
RTVSPropertyOp18
 70
     0
102
RTVSPropertyOp19
 70
     0
102
RTVSPropertyOp20
 70
     0
102
RTVSPropertyOp21
 70
     0
102
RTVSPropertyOp22
 70
     0
102
RTVSPropertyOp23
 70
     0
102
RTVSPropertyOp24
 70
     0
102
RTVSPropertyOp25
 70
     0
102
RTVSPropertyOp26
 70
     0
102
RTVSPropertyOp27
 70
     0
  0
XRECORD
  5
771
102
{ACAD_REACTORS
330
770
102
}
330
770
100
AcDbXrecord
280
     1
102
RTVSPropertyOp0
 70
     1
102
RTVSPropertyOp1
 70
     1
102
RTVSPropertyOp2
 70
     1
102
RTVSPropertyOp3
 70
     1
102
RTVSPropertyOp4
 70
     1
102
RTVSPropertyOp5
 70
     1
102
RTVSPropertyOp6
 70
     1
102
RTVSPropertyOp7
 70
     1
102
RTVSPropertyOp8
 70
     1
102
RTVSPropertyOp9
 70
     1
102
RTVSPropertyOp10
 70
     1
102
RTVSPropertyOp11
 70
     1
102
RTVSPropertyOp12
 70
     1
102
RTVSPropertyOp13
 70
     1
102
RTVSPropertyOp14
 70
     1
102
RTVSPropertyOp15
 70
     1
102
RTVSPropertyOp16
 70
     1
102
RTVSPropertyOp17
 70
     1
102
RTVSPropertyOp18
 70
     1
102
RTVSPropertyOp19
 70
     1
102
RTVSPropertyOp20
 70
     1
102
RTVSPropertyOp21
 70
     1
102
RTVSPropertyOp22
 70
     1
102
RTVSPropertyOp23
 70
     1
102
RTVSPropertyOp24
 70
     1
102
RTVSPropertyOp25
 70
     1
102
RTVSPropertyOp26
 70
     1
102
RTVSPropertyOp27
 70
     1
  0
XRECORD
  5
777
102
{ACAD_REACTORS
330
776
102
}
330
776
100
AcDbXrecord
280
     1
102
RTVSPropertyOp0
 70
     1
102
RTVSPropertyOp1
 70
     1
102
RTVSPropertyOp2
 70
     1
102
RTVSPropertyOp3
 70
     1
102
RTVSPropertyOp4
 70
     1
102
RTVSPropertyOp5
 70
     1
102
RTVSPropertyOp6
 70
     1
102
RTVSPropertyOp7
 70
     1
102
RTVSPropertyOp8
 70
     1
102
RTVSPropertyOp9
 70
     1
102
RTVSPropertyOp10
 70
     1
102
RTVSPropertyOp11
 70
     1
102
RTVSPropertyOp12
 70
     1
102
RTVSPropertyOp13
 70
     1
102
RTVSPropertyOp14
 70
     1
102
RTVSPropertyOp15
 70
     1
102
RTVSPropertyOp16
 70
     1
102
RTVSPropertyOp17
 70
     1
102
RTVSPropertyOp18
 70
     1
102
RTVSPropertyOp19
 70
     1
102
RTVSPropertyOp20
 70
     1
102
RTVSPropertyOp21
 70
     1
102
RTVSPropertyOp22
 70
     1
102
RTVSPropertyOp23
 70
     1
102
RTVSPropertyOp24
 70
     1
102
RTVSPropertyOp25
 70
     1
102
RTVSPropertyOp26
 70
     1
102
RTVSPropertyOp27
 70
     1
  0
ENDSEC
  0
EOF
