  0
SECTION
  2
HEADER
  9
$ACADVER
  1
AC1015
  9
$ACADMAINTVER
 70
    20
  9
$DWGCODEPAGE
  3
ANSI_1252
  9
$INSBASE
 10
0.0
 20
0.0
 30
0.0
  9
$EXTMIN
 10
902.9630964441189
 20
1368.490954455845
 30
0.0
  9
$EXTMAX
 10
905.786412175259
 20
1369.342954455845
 30
0.0
  9
$LIMMIN
 10
0.0
 20
0.0
  9
$LIMMAX
 10
420.0
 20
297.0
  9
$ORTHOMODE
 70
     0
  9
$REGENMODE
 70
     1
  9
$FILLMODE
 70
     1
  9
$QTEXTMODE
 70
     0
  9
$MIRRTEXT
 70
     0
  9
$LTSCALE
 40
1.0
  9
$ATTMODE
 70
     1
  9
$TEXTSIZE
 40
2.5
  9
$TRACEWID
 40
1.0
  9
$TEXTSTYLE
  7
Standard
  9
$CLAYER
  8
0
  9
$CELTYPE
  6
ByLayer
  9
$CECOLOR
 62
   256
  9
$CELTSCALE
 40
1.0
  9
$DISPSILH
 70
     0
  9
$DIMSCALE
 40
1.0
  9
$DIMASZ
 40
2.5
  9
$DIMEXO
 40
0.625
  9
$DIMDLI
 40
3.75
  9
$DIMRND
 40
0.0
  9
$DIMDLE
 40
0.0
  9
$DIMEXE
 40
1.25
  9
$DIMTP
 40
0.0
  9
$DIMTM
 40
0.0
  9
$DIMTXT
 40
2.5
  9
$DIMCEN
 40
2.5
  9
$DIMTSZ
 40
0.0
  9
$DIMTOL
 70
     0
  9
$DIMLIM
 70
     0
  9
$DIMTIH
 70
     0
  9
$DIMTOH
 70
     0
  9
$DIMSE1
 70
     0
  9
$DIMSE2
 70
     0
  9
$DIMTAD
 70
     1
  9
$DIMZIN
 70
     8
  9
$DIMBLK
  1

  9
$DIMASO
 70
     1
  9
$DIMSHO
 70
     1
  9
$DIMPOST
  1

  9
$DIMAPOST
  1

  9
$DIMALT
 70
     0
  9
$DIMALTD
 70
     3
  9
$DIMALTF
 40
0.03937007874016
  9
$DIMLFAC
 40
1.0
  9
$DIMTOFL
 70
     1
  9
$DIMTVP
 40
0.0
  9
$DIMTIX
 70
     0
  9
$DIMSOXD
 70
     0
  9
$DIMSAH
 70
     0
  9
$DIMBLK1
  1

  9
$DIMBLK2
  1

  9
$DIMSTYLE
  2
ISO-25
  9
$DIMCLRD
 70
     0
  9
$DIMCLRE
 70
     0
  9
$DIMCLRT
 70
     0
  9
$DIMTFAC
 40
1.0
  9
$DIMGAP
 40
0.625
  9
$DIMJUST
 70
     0
  9
$DIMSD1
 70
     0
  9
$DIMSD2
 70
     0
  9
$DIMTOLJ
 70
     0
  9
$DIMTZIN
 70
     8
  9
$DIMALTZ
 70
     0
  9
$DIMALTTZ
 70
     0
  9
$DIMUPT
 70
     0
  9
$DIMDEC
 70
     2
  9
$DIMTDEC
 70
     2
  9
$DIMALTU
 70
     2
  9
$DIMALTTD
 70
     3
  9
$DIMTXSTY
  7
Standard
  9
$DIMAUNIT
 70
     0
  9
$DIMADEC
 70
     0
  9
$DIMALTRND
 40
0.0
  9
$DIMAZIN
 70
     0
  9
$DIMDSEP
 70
    44
  9
$DIMATFIT
 70
     3
  9
$DIMFRAC
 70
     0
  9
$DIMLDRBLK
  1

  9
$DIMLUNIT
 70
     2
  9
$DIMLWD
 70
    -2
  9
$DIMLWE
 70
    -2
  9
$DIMTMOVE
 70
     0
  9
$LUNITS
 70
     2
  9
$LUPREC
 70
     4
  9
$SKETCHINC
 40
1.0
  9
$FILLETRAD
 40
0.0
  9
$AUNITS
 70
     0
  9
$AUPREC
 70
     0
  9
$MENU
  1
.
  9
$ELEVATION
 40
0.0
  9
$PELEVATION
 40
0.0
  9
$THICKNESS
 40
0.0
  9
$LIMCHECK
 70
     0
  9
$CHAMFERA
 40
0.0
  9
$CHAMFERB
 40
0.0
  9
$CHAMFERC
 40
0.0
  9
$CHAMFERD
 40
0.0
  9
$SKPOLY
 70
     0
  9
$TDCREATE
 40
2453797.512999665
  9
$TDUCREATE
 40
2453797.471332998
  9
$TDUPDATE
 40
2456149.579696713
  9
$TDUUPDATE
 40
2456149.538030047
  9
$TDINDWG
 40
0.0048499074
  9
$TDUSRTIMER
 40
0.0048499074
  9
$USRTIMER
 70
     1
  9
$ANGBASE
 50
0.0
  9
$ANGDIR
 70
     0
  9
$PDMODE
 70
     0
  9
$PDSIZE
 40
0.0
  9
$PLINEWID
 40
0.0
  9
$SPLFRAME
 70
     0
  9
$SPLINETYPE
 70
     6
  9
$SPLINESEGS
 70
     8
  9
$HANDSEED
  5
8FE
  9
$SURFTAB1
 70
     6
  9
$SURFTAB2
 70
     6
  9
$SURFTYPE
 70
     6
  9
$SURFU
 70
     6
  9
$SURFV
 70
     6
  9
$UCSBASE
  2

  9
$UCSNAME
  2

  9
$UCSORG
 10
0.0
 20
0.0
 30
0.0
  9
$UCSXDIR
 10
1.0
 20
0.0
 30
0.0
  9
$UCSYDIR
 10
0.0
 20
1.0
 30
0.0
  9
$UCSORTHOREF
  2

  9
$UCSORTHOVIEW
 70
     0
  9
$UCSORGTOP
 10
0.0
 20
0.0
 30
0.0
  9
$UCSORGBOTTOM
 10
0.0
 20
0.0
 30
0.0
  9
$UCSORGLEFT
 10
0.0
 20
0.0
 30
0.0
  9
$UCSORGRIGHT
 10
0.0
 20
0.0
 30
0.0
  9
$UCSORGFRONT
 10
0.0
 20
0.0
 30
0.0
  9
$UCSORGBACK
 10
0.0
 20
0.0
 30
0.0
  9
$PUCSBASE
  2

  9
$PUCSNAME
  2

  9
$PUCSORG
 10
0.0
 20
0.0
 30
0.0
  9
$PUCSXDIR
 10
1.0
 20
0.0
 30
0.0
  9
$PUCSYDIR
 10
0.0
 20
1.0
 30
0.0
  9
$PUCSORTHOREF
  2

  9
$PUCSORTHOVIEW
 70
     0
  9
$PUCSORGTOP
 10
0.0
 20
0.0
 30
0.0
  9
$PUCSORGBOTTOM
 10
0.0
 20
0.0
 30
0.0
  9
$PUCSORGLEFT
 10
0.0
 20
0.0
 30
0.0
  9
$PUCSORGRIGHT
 10
0.0
 20
0.0
 30
0.0
  9
$PUCSORGFRONT
 10
0.0
 20
0.0
 30
0.0
  9
$PUCSORGBACK
 10
0.0
 20
0.0
 30
0.0
  9
$USERI1
 70
     0
  9
$USERI2
 70
     0
  9
$USERI3
 70
     0
  9
$USERI4
 70
     0
  9
$USERI5
 70
     0
  9
$USERR1
 40
0.0
  9
$USERR2
 40
0.0
  9
$USERR3
 40
0.0
  9
$USERR4
 40
0.0
  9
$USERR5
 40
0.0
  9
$WORLDVIEW
 70
     1
  9
$SHADEDGE
 70
     3
  9
$SHADEDIF
 70
    70
  9
$TILEMODE
 70
     1
  9
$MAXACTVP
 70
    64
  9
$PINSBASE
 10
0.0
 20
0.0
 30
0.0
  9
$PLIMCHECK
 70
     0
  9
$PEXTMIN
 10
1.000000000000000E+20
 20
1.000000000000000E+20
 30
1.000000000000000E+20
  9
$PEXTMAX
 10
-1.000000000000000E+20
 20
-1.000000000000000E+20
 30
-1.000000000000000E+20
  9
$PLIMMIN
 10
0.0
 20
0.0
  9
$PLIMMAX
 10
420.0
 20
297.0
  9
$UNITMODE
 70
     0
  9
$VISRETAIN
 70
     1
  9
$PLINEGEN
 70
     0
  9
$PSLTSCALE
 70
     1
  9
$TREEDEPTH
 70
  3020
  9
$CMLSTYLE
  2
Standard
  9
$CMLJUST
 70
     0
  9
$CMLSCALE
 40
20.0
  9
$PROXYGRAPHICS
 70
     1
  9
$MEASUREMENT
 70
     1
  9
$CELWEIGHT
370
    -1
  9
$ENDCAPS
280
     0
  9
$JOINSTYLE
280
     0
  9
$LWDISPLAY
290
     0
  9
$INSUNITS
 70
     4
  9
$HYPERLINKBASE
  1

  9
$STYLESHEET
  1

  9
$XEDIT
290
     1
  9
$CEPSNTYPE
380
     0
  9
$PSTYLEMODE
290
     1
  9
$FINGERPRINTGUID
  2
{64B3E202-6E34-4A91-AC1A-AF76F1689003}
  9
$VERSIONGUID
  2
{20B024F2-067A-4B9B-B6D0-3B4587D17300}
  9
$EXTNAMES
290
     1
  9
$PSVPSCALE
 40
0.0
  9
$OLESTARTUP
290
     0
  0
ENDSEC
  0
SECTION
  2
CLASSES
  0
CLASS
  1
ACDBDICTIONARYWDFLT
  2
AcDbDictionaryWithDefault
  3
ObjectDBX Classes
 90
        0
280
     0
281
     0
  0
CLASS
  1
TABLESTYLE
  2
AcDbTableStyle
  3
ObjectDBX Classes
 90
     4095
280
     0
281
     0
  0
CLASS
  1
DICTIONARYVAR
  2
AcDbDictionaryVar
  3
ObjectDBX Classes
 90
        0
280
     0
281
     0
  0
CLASS
  1
SORTENTSTABLE
  2
AcDbSortentsTable
  3
ObjectDBX Classes
 90
    32768
280
     0
281
     0
  0
CLASS
  1
ACDBPLACEHOLDER
  2
AcDbPlaceHolder
  3
ObjectDBX Classes
 90
        0
280
     0
281
     0
  0
CLASS
  1
LAYOUT
  2
AcDbLayout
  3
ObjectDBX Classes
 90
        0
280
     0
281
     0
  0
CLASS
  1
MATERIAL
  2
AcDbMaterial
  3
ObjectDBX Classes
 90
     1153
280
     0
281
     0
  0
CLASS
  1
VISUALSTYLE
  2
AcDbVisualStyle
  3
ObjectDBX Classes
 90
     4095
280
     0
281
     0
  0
CLASS
  1
SCALE
  2
AcDbScale
  3
ObjectDBX Classes
 90
     1153
280
     0
281
     0
  0
CLASS
  1
MLEADERSTYLE
  2
AcDbMLeaderStyle
  3
ACDB_MLEADERSTYLE_CLASS
 90
     4095
280
     0
281
     0
  0
CLASS
  1
CELLSTYLEMAP
  2
AcDbCellStyleMap
  3
ObjectDBX Classes
 90
     1152
280
     0
281
     0
  0
ENDSEC
  0
SECTION
  2
TABLES
  0
TABLE
  2
VPORT
  5
8
330
0
100
AcDbSymbolTable
 70
     1
  0
VPORT
  5
861
330
8
100
AcDbSymbolTableRecord
100
AcDbViewportTableRecord
  2
*Active
 70
     0
 10
0.0
 20
0.0
 11
1.0
 21
1.0
 12
904.4279479696351
 22
1368.916954455845
 13
0.0
 23
0.0
 14
10.0
 24
10.0
 15
10.0
 25
10.0
 16
0.0
 26
0.0
 36
1.0
 17
0.0
 27
0.0
 37
0.0
 40
1.786989729924216
 41
1.645464025026068
 42
50.0
 43
0.0
 44
0.0
 50
0.0
 51
0.0
 71
     0
 72
  1000
 73
     1
 74
     3
 75
     0
 76
     0
 77
     0
 78
     0
281
     0
 65
     1
110
0.0
120
0.0
130
0.0
111
1.0
121
0.0
131
0.0
112
0.0
122
1.0
132
0.0
 79
     0
146
0.0
  0
ENDTAB
  0
TABLE
  2
LTYPE
  5
5
330
0
100
AcDbSymbolTable
 70
     3
  0
LTYPE
  5
14
330
5
100
AcDbSymbolTableRecord
100
AcDbLinetypeTableRecord
  2
ByBlock
 70
     0
  3

 72
    65
 73
     0
 40
0.0
  0
LTYPE
  5
15
330
5
100
AcDbSymbolTableRecord
100
AcDbLinetypeTableRecord
  2
ByLayer
 70
     0
  3

 72
    65
 73
     0
 40
0.0
  0
LTYPE
  5
16
330
5
100
AcDbSymbolTableRecord
100
AcDbLinetypeTableRecord
  2
Continuous
 70
     0
  3
Solid line
 72
    65
 73
     0
 40
0.0
  0
LTYPE
  5
2F
330
5
100
AcDbSymbolTableRecord
100
AcDbLinetypeTableRecord
  2
DASHDOT
 70
     0
  3
Dash dot __ . __ . __ . __ . __ . __ . __ . __
 72
    65
 73
     4
 40
25.4
 49
12.7
 74
     0
 49
-6.349999999999999
 74
     0
 49
0.0
 74
     0
 49
-6.349999999999999
 74
     0
  0
LTYPE
  5
30
330
5
100
AcDbSymbolTableRecord
100
AcDbLinetypeTableRecord
  2
HIDDEN
 70
     0
  3
Hidden __ __ __ __ __ __ __ __ __ __ __ __ __ _
 72
    65
 73
     2
 40
9.524999999999998
 49
6.349999999999999
 74
     0
 49
-3.174999999999999
 74
     0
  0
ENDTAB
  0
TABLE
  2
LAYER
  5
2
330
0
100
AcDbSymbolTable
 70
    10
  0
LAYER
  5
10
102
{ACAD_XDICTIONARY
360
8B0
102
}
330
2
100
AcDbSymbolTableRecord
100
AcDbLayerTableRecord
  2
0
 70
     0
 62
     7
  6
Continuous
370
    -3
390
F
  0
LAYER
  5
31
102
{ACAD_XDICTIONARY
360
8B2
102
}
330
2
100
AcDbSymbolTableRecord
100
AcDbLayerTableRecord
  2
7
 70
     0
 62
     7
  6
Continuous
370
    -3
390
F
  0
LAYER
  5
32
102
{ACAD_XDICTIONARY
360
8B4
102
}
330
2
100
AcDbSymbolTableRecord
100
AcDbLayerTableRecord
  2
cen
 70
     0
 62
     7
  6
DASHDOT
370
    -3
390
F
  0
LAYER
  5
33
102
{ACAD_XDICTIONARY
360
8B6
102
}
330
2
100
AcDbSymbolTableRecord
100
AcDbLayerTableRecord
  2
hid
 70
     0
 62
     7
  6
HIDDEN
370
    -3
390
F
  0
LAYER
  5
34
102
{ACAD_XDICTIONARY
360
8B8
102
}
330
2
100
AcDbSymbolTableRecord
100
AcDbLayerTableRecord
  2
hatch
 70
     0
 62
     9
  6
Continuous
370
    -3
390
F
  0
LAYER
  5
35
102
{ACAD_XDICTIONARY
360
8BA
102
}
330
2
100
AcDbSymbolTableRecord
100
AcDbLayerTableRecord
  2
9
 70
     0
 62
     9
  6
Continuous
370
    -3
390
F
  0
LAYER
  5
36
102
{ACAD_XDICTIONARY
360
8BC
102
}
330
2
100
AcDbSymbolTableRecord
100
AcDbLayerTableRecord
  2
leg fin
 70
     0
 62
     9
  6
Continuous
370
    -3
390
F
  0
LAYER
  5
37
102
{ACAD_XDICTIONARY
360
8BE
102
}
330
2
100
AcDbSymbolTableRecord
100
AcDbLayerTableRecord
  2
cotas
 70
     0
 62
     1
  6
Continuous
370
    -3
390
F
  0
LAYER
  5
38
102
{ACAD_XDICTIONARY
360
8C0
102
}
330
2
100
AcDbSymbolTableRecord
100
AcDbLayerTableRecord
  2
indusa
 70
     0
 62
     3
  6
Continuous
370
    -3
390
F
  0
LAYER
  5
39
102
{ACAD_XDICTIONARY
360
8C2
102
}
330
2
100
AcDbSymbolTableRecord
100
AcDbLayerTableRecord
  2
SANINDUSA
 70
     0
 62
     3
  6
Continuous
370
    -3
390
F
  0
ENDTAB
  0
TABLE
  2
STYLE
  5
3
330
0
100
AcDbSymbolTable
 70
     2
  0
STYLE
  5
11
330
3
100
AcDbSymbolTableRecord
100
AcDbTextStyleTableRecord
  2
Standard
 70
     0
 40
0.0
 41
1.0
 50
0.0
 71
     0
 42
2.5
  3
txt
  4

  0
STYLE
  5
3A
330
3
100
AcDbSymbolTableRecord
100
AcDbTextStyleTableRecord
  2
SANINDUSA
 70
     0
 40
0.0
 41
1.0
 50
0.0
 71
     0
 42
2.5
  3
verdana.TTF
  4

1001
ACAD
1000
Verdana
1071
       34
  0
ENDTAB
  0
TABLE
  2
VIEW
  5
6
330
0
100
AcDbSymbolTable
 70
     0
  0
ENDTAB
  0
TABLE
  2
UCS
  5
7
330
0
100
AcDbSymbolTable
 70
     0
  0
ENDTAB
  0
TABLE
  2
APPID
  5
9
330
0
100
AcDbSymbolTable
 70
     3
  0
APPID
  5
12
330
9
100
AcDbSymbolTableRecord
100
AcDbRegAppTableRecord
  2
ACAD
 70
     0
  0
APPID
  5
3C
330
9
100
AcDbSymbolTableRecord
100
AcDbRegAppTableRecord
  2
DCO15
 70
     0
  0
APPID
  5
8FD
330
9
100
AcDbSymbolTableRecord
100
AcDbRegAppTableRecord
  2
ACAD_MLEADERVER
 70
     0
  0
ENDTAB
  0
TABLE
  2
DIMSTYLE
  5
A
330
0
100
AcDbSymbolTable
 70
     2
100
AcDbDimStyleTable
 71
     0
  0
DIMSTYLE
105
2B
330
A
100
AcDbSymbolTableRecord
100
AcDbDimStyleTableRecord
  2
ISO-25
 70
     0
 41
2.5
 42
0.625
 43
3.75
 44
1.25
 73
     0
 74
     0
 77
     1
 78
     8
140
2.5
141
2.5
143
0.03937007874016
147
0.625
171
     3
172
     1
271
     2
272
     2
274
     3
278
    44
283
     0
284
     8
340
11
  0
DIMSTYLE
105
3B
330
A
100
AcDbSymbolTableRecord
100
AcDbDimStyleTableRecord
  2
SANINDUSA
 70
     0
 41
10.0
 42
4.0
 43
4.0
 44
4.0
 73
     0
 74
     0
 77
     1
 78
     8
140
10.0
141
0.0
143
0.03937007874016
147
5.0
171
     3
172
     1
176
   256
177
   256
178
   256
179
     1
271
     1
272
     1
274
     3
278
    44
283
     0
284
     8
340
3A
371
    -1
372
    -1
  0
ENDTAB
  0
TABLE
  2
BLOCK_RECORD
  5
1
330
0
100
AcDbSymbolTable
 70
     1
  0
BLOCK_RECORD
  5
23
330
1
100
AcDbSymbolTableRecord
100
AcDbBlockTableRecord
  2
*Model_Space
340
26
  0
BLOCK_RECORD
  5
1F
330
1
100
AcDbSymbolTableRecord
100
AcDbBlockTableRecord
  2
*Paper_Space
340
22
  0
BLOCK_RECORD
  5
27
330
1
100
AcDbSymbolTableRecord
100
AcDbBlockTableRecord
  2
*Paper_Space0
340
2A
  0
ENDTAB
  0
ENDSEC
  0
SECTION
  2
BLOCKS
  0
BLOCK
  5
24
330
23
100
AcDbEntity
  8
0
100
AcDbBlockBegin
  2
*Model_Space
 70
     0
 10
0.0
 20
0.0
 30
0.0
  3
*Model_Space
  1

  0
ENDBLK
  5
25
330
23
100
AcDbEntity
  8
0
100
AcDbBlockEnd
  0
BLOCK
  5
20
330
1F
100
AcDbEntity
 67
     1
  8
0
100
AcDbBlockBegin
  2
*Paper_Space
 70
     0
 10
0.0
 20
0.0
 30
0.0
  3
*Paper_Space
  1

  0
ENDBLK
  5
21
330
1F
100
AcDbEntity
 67
     1
  8
0
100
AcDbBlockEnd
  0
BLOCK
  5
28
330
27
100
AcDbEntity
 67
     1
  8
0
100
AcDbBlockBegin
  2
*Paper_Space0
 70
     0
 10
0.0
 20
0.0
 30
0.0
  3
*Paper_Space0
  1

  0
ENDBLK
  5
29
330
27
100
AcDbEntity
 67
     1
  8
0
100
AcDbBlockEnd
  0
ENDSEC
  0
SECTION
  2
ENTITIES
  0
LINE
  5
351
330
23
100
AcDbEntity
  8
SANINDUSA
100
AcDbLine
 10
904.7893879202259
 20
1368.490954455845
 30
0.0
 11
904.5548641515829
 21
1368.490954455845
 31
0.0
  0
LINE
  5
352
330
23
100
AcDbEntity
  8
SANINDUSA
100
AcDbLine
 10
904.7929787661846
 20
1368.490954455845
 30
0.0
 11
904.7893879202259
 21
1368.490954455845
 31
0.0
  0
LINE
  5
354
330
23
100
AcDbEntity
  8
SANINDUSA
100
AcDbLine
 10
905.2440339685373
 20
1368.712419331744
 30
0.0
 11
905.3314581738876
 21
1368.712419331744
 31
0.0
  0
LWPOLYLINE
  5
355
330
23
100
AcDbEntity
  8
SANINDUSA
  6
Continuous
100
AcDbPolyline
 90
       11
 70
   128
 43
0.0
 10
905.6356385949662
 20
1368.707646255715
 10
905.6318360499332
 20
1368.707081718514
 10
905.6265292969419
 20
1368.70657961195
 10
905.6215114970745
 20
1368.706199325174
 10
905.6163122506101
 20
1368.705882732592
 10
905.6109298836858
 20
1368.705654202307
 10
905.6053376719331
 20
1368.705678466792
 10
905.5994644720692
 20
1368.705687989362
 10
905.5928059278352
 20
1368.705678697439
 10
905.5867433218594
 20
1368.705655054356
 10
905.5805895696391
 20
1368.705621378116
  0
LINE
  5
357
330
23
100
AcDbEntity
  8
SANINDUSA
100
AcDbLine
 10
905.3314581738876
 20
1368.710954455845
 30
0.0
 11
905.3314581738876
 21
1368.720955837495
 31
0.0
  0
LWPOLYLINE
  5
359
330
23
100
AcDbEntity
  8
SANINDUSA
  6
Continuous
100
AcDbPolyline
 90
        7
 70
   128
 43
0.0
 10
905.5805895696391
 20
1368.705621378116
 10
905.5748018672691
 20
1368.705594561196
 10
905.5516282632455
 20
1368.705588124627
 10
905.5358136507495
 20
1368.705687320774
 10
905.5200071081715
 20
1368.706034287809
 10
905.5041536826847
 20
1368.706877699376
 10
905.4699010146507
 20
1368.710630389665
  0
LINE
  5
35A
330
23
100
AcDbEntity
  8
SANINDUSA
100
AcDbLine
 10
905.3395922433429
 20
1368.841317684883
 30
0.0
 11
905.1864264682484
 21
1368.84524052215
 31
0.0
  0
LINE
  5
35B
330
23
100
AcDbEntity
  8
SANINDUSA
100
AcDbLine
 10
905.3431227004139
 20
1368.850969439462
 30
0.0
 11
905.1866055600765
 21
1368.85521921514
 31
0.0
  0
LINE
  5
35D
330
23
100
AcDbEntity
  8
SANINDUSA
  6
Continuous
100
AcDbLine
 10
905.1450029441111
 20
1368.920954046642
 30
0.0
 11
905.2120029441111
 21
1368.920954046642
 31
0.0
  0
LINE
  5
35F
330
23
100
AcDbEntity
  8
SANINDUSA
100
AcDbLine
 10
905.2110086717235
 20
1368.910954046642
 30
0.0
 11
905.236100681108
 21
1368.910954046642
 31
0.0
  0
ARC
  5
360
330
23
100
AcDbEntity
  8
SANINDUSA
  6
Continuous
100
AcDbCircle
 10
905.2195029441111
 20
1368.922454046642
 30
0.0
 40
0.0015000000000003
100
AcDbArc
 50
270.0
 51
0.0
  0
ARC
  5
361
330
23
100
AcDbEntity
  8
SANINDUSA
  6
Continuous
100
AcDbCircle
 10
905.2225029441112
 20
1368.922454046642
 30
0.0
 40
0.0015000000000003
100
AcDbArc
 50
90.0
 51
180.0
  0
ARC
  5
362
330
23
100
AcDbEntity
  8
SANINDUSA
  6
Continuous
100
AcDbCircle
 10
905.2120029441111
 20
1368.919954046642
 30
0.0
 40
0.0010000000000002
100
AcDbArc
 50
90.0
 51
180.0
  0
LINE
  5
363
330
23
100
AcDbEntity
  8
SANINDUSA
  6
Continuous
100
AcDbLine
 10
905.2195029441111
 20
1368.920954046642
 30
0.0
 11
905.2120029441111
 21
1368.920954046642
 31
0.0
  0
ARC
  5
364
330
23
100
AcDbEntity
  8
SANINDUSA
  6
Continuous
100
AcDbCircle
 10
905.2360892258832
 20
1368.923454046642
 30
0.0
 40
0.0025
100
AcDbArc
 50
270.0
 51
0.0
  0
ARC
  5
365
330
23
100
AcDbEntity
  8
SANINDUSA
  6
Continuous
100
AcDbCircle
 10
905.2410892258832
 20
1368.923454046642
 30
0.0
 40
0.0025
100
AcDbArc
 50
90.0
 51
180.0
  0
LINE
  5
369
330
23
100
AcDbEntity
  8
SANINDUSA
  6
Continuous
100
AcDbLine
 10
905.2275029441112
 20
1368.923954046642
 30
0.0
 11
905.2225029441112
 21
1368.923954046642
 31
0.0
  0
ARC
  5
36A
330
23
100
AcDbEntity
  8
SANINDUSA
  6
Continuous
100
AcDbCircle
 10
905.2275029441112
 20
1368.922454046642
 30
0.0
 40
0.0014999999999998
100
AcDbArc
 50
0.0
 51
90.0
  0
ARC
  5
36B
330
23
100
AcDbEntity
  8
SANINDUSA
  6
Continuous
100
AcDbCircle
 10
905.2305029441111
 20
1368.922454046642
 30
0.0
 40
0.0015000000000003
100
AcDbArc
 50
180.0
 51
270.0
  0
LINE
  5
36C
330
23
100
AcDbEntity
  8
SANINDUSA
  6
Continuous
100
AcDbLine
 10
905.2360892258832
 20
1368.920954046642
 30
0.0
 11
905.2305029441111
 21
1368.920954046642
 31
0.0
  0
LINE
  5
36E
330
23
100
AcDbEntity
  8
SANINDUSA
100
AcDbLine
 10
905.2376098508476
 20
1368.911045484812
 30
0.0
 11
905.2390625401745
 21
1368.894469854502
 31
0.0
  0
ARC
  5
36F
330
23
100
AcDbEntity
  8
SANINDUSA
100
AcDbCircle
 10
905.236100681108
 20
1368.923454046642
 30
0.0
 40
0.0125
100
AcDbArc
 50
270.0
 51
276.9344413941716
  0
LINE
  5
371
330
23
100
AcDbEntity
  8
SANINDUSA
100
AcDbLine
 10
905.1460086717236
 20
1368.910954046642
 30
0.0
 11
905.2110086717235
 21
1368.910954046642
 31
0.0
  0
LINE
  5
375
330
23
100
AcDbEntity
  8
SANINDUSA
100
AcDbLine
 10
905.1379626670312
 20
1368.910954046642
 30
0.0
 11
905.1460086717236
 21
1368.910954046642
 31
0.0
  0
LINE
  5
376
330
23
100
AcDbEntity
  8
SANINDUSA
  6
Continuous
100
AcDbLine
 10
905.1450029441111
 20
1368.920954046642
 30
0.0
 11
905.1375029441111
 21
1368.920954046642
 31
0.0
  0
ARC
  5
377
330
23
100
AcDbEntity
  8
SANINDUSA
  6
Continuous
100
AcDbCircle
 10
905.1450029441111
 20
1368.919954046642
 30
0.0
 40
0.0010000000000002
100
AcDbArc
 50
0.0
 51
90.0
  0
LINE
  5
378
330
23
100
AcDbEntity
  8
SANINDUSA
  6
Continuous
100
AcDbLine
 10
905.1460029441111
 20
1368.919954046642
 30
0.0
 11
905.1460029441111
 21
1368.910954046642
 31
0.0
  0
LINE
  5
379
330
23
100
AcDbEntity
  8
SANINDUSA
  6
Continuous
100
AcDbLine
 10
905.2110029441111
 20
1368.910954046642
 30
0.0
 11
905.2110029441111
 21
1368.919954046642
 31
0.0
  0
LINE
  5
37A
330
23
100
AcDbEntity
  8
SANINDUSA
100
AcDbLine
 10
905.1279626670313
 20
1368.910954046642
 30
0.0
 11
905.108416662339
 21
1368.910954046642
 31
0.0
  0
LINE
  5
37B
330
23
100
AcDbEntity
  8
SANINDUSA
100
AcDbLine
 10
905.1279626670313
 20
1368.910954046642
 30
0.0
 11
905.1279626670313
 21
1368.905220853037
 31
0.0
  0
LINE
  5
37C
330
23
100
AcDbEntity
  8
SANINDUSA
100
AcDbLine
 10
905.1379626670312
 20
1368.910954046642
 30
0.0
 11
905.1379626670312
 21
1368.905200794354
 31
0.0
  0
ARC
  5
37D
330
23
100
AcDbEntity
  8
SANINDUSA
  6
Continuous
100
AcDbCircle
 10
905.134502944111
 20
1368.922454046642
 30
0.0
 40
0.0015000000000003
100
AcDbArc
 50
0.0
 51
90.0
  0
ARC
  5
37E
330
23
100
AcDbEntity
  8
SANINDUSA
  6
Continuous
100
AcDbCircle
 10
905.1375029441111
 20
1368.922454046642
 30
0.0
 40
0.0014999999999998
100
AcDbArc
 50
180.0
 51
270.0
  0
ARC
  5
37F
330
23
100
AcDbEntity
  8
SANINDUSA
  6
Continuous
100
AcDbCircle
 10
905.129502944111
 20
1368.922454046642
 30
0.0
 40
0.0014999999999998
100
AcDbArc
 50
90.0
 51
180.0
  0
ARC
  5
380
330
23
100
AcDbEntity
  8
SANINDUSA
  6
Continuous
100
AcDbCircle
 10
905.115916662339
 20
1368.923454046642
 30
0.0
 40
0.0025
100
AcDbArc
 50
0.0
 51
90.0
  0
ARC
  5
381
330
23
100
AcDbEntity
  8
SANINDUSA
  6
Continuous
100
AcDbCircle
 10
905.120916662339
 20
1368.923454046642
 30
0.0
 40
0.0025
100
AcDbArc
 50
180.0
 51
270.0
  0
LINE
  5
382
330
23
100
AcDbEntity
  8
SANINDUSA
  6
Continuous
100
AcDbLine
 10
905.1265029441111
 20
1368.920954046642
 30
0.0
 11
905.120916662339
 21
1368.920954046642
 31
0.0
  0
ARC
  5
386
330
23
100
AcDbEntity
  8
SANINDUSA
  6
Continuous
100
AcDbCircle
 10
905.1265029441111
 20
1368.922454046642
 30
0.0
 40
0.0014999999999998
100
AcDbArc
 50
270.0
 51
0.0
  0
LINE
  5
388
330
23
100
AcDbEntity
  8
SANINDUSA
  6
Continuous
100
AcDbLine
 10
905.134502944111
 20
1368.923954046642
 30
0.0
 11
905.129502944111
 21
1368.923954046642
 31
0.0
  0
LINE
  5
389
330
23
100
AcDbEntity
  8
SANINDUSA
100
AcDbLine
 10
905.2559937698367
 20
1368.878954455845
 30
0.0
 11
905.3701074738663
 21
1368.878954455845
 31
0.0
  0
ARC
  5
38A
330
23
100
AcDbEntity
  8
SANINDUSA
100
AcDbCircle
 10
905.2559937698367
 20
1368.895954455845
 30
0.0
 40
0.0170000000000001
100
AcDbArc
 50
185.0007635807622
 51
270.0
  0
LWPOLYLINE
  5
38B
330
23
100
AcDbEntity
  8
SANINDUSA
100
AcDbPolyline
 90
       11
 70
   128
 43
0.0
 10
903.1868674151221
 20
1368.696184178067
 10
903.1868674651224
 20
1368.696184211233
 10
903.1919957298295
 20
1368.699990655558
 10
903.1967143825914
 20
1368.704320459687
 10
903.2009483615366
 20
1368.70910205747
 10
903.2046719770388
 20
1368.714322237427
 10
903.2078451267548
 20
1368.71991444918
 10
903.2104193079488
 20
1368.725787649044
 10
903.2125163228085
 20
1368.73244619326
 10
903.213746086581
 20
1368.738508799242
 10
903.2143780181545
 20
1368.744662551469
  0
LWPOLYLINE
  5
38C
330
23
100
AcDbEntity
  8
SANINDUSA
100
AcDbPolyline
 90
        7
 70
   128
 43
0.0
 10
903.2138854809046
 20
1368.831905279252
 10
903.2135026414771
 20
1368.836337700573
 10
903.2127546379436
 20
1368.840724090864
 10
903.2102221401615
 20
1368.849482764927
 10
903.2084174558239
 20
1368.853913372482
 10
903.2062813692339
 20
1368.85822722767
 10
903.2062813397134
 20
1368.858227279621
  0
LWPOLYLINE
  5
38E
330
23
100
AcDbEntity
  8
SANINDUSA
100
AcDbPolyline
 90
        7
 70
   128
 43
0.0
 10
903.2143780181545
 20
1368.744662551469
 10
903.2146650940552
 20
1368.750450253823
 10
903.2153213387182
 20
1368.773623857783
 10
903.2153066323768
 20
1368.788196165154
 10
903.2150031673848
 20
1368.802762618555
 10
903.2144903159739
 20
1368.817360686545
 10
903.2138854809046
 20
1368.831905279252
  0
LWPOLYLINE
  5
38F
330
23
100
AcDbEntity
  8
SANINDUSA
100
AcDbPolyline
 90
        7
 70
   128
 43
0.0
 10
903.0818148700832
 20
1368.744662551469
 10
903.0815277941824
 20
1368.750450253823
 10
903.0808715495195
 20
1368.773623857783
 10
903.0808862558609
 20
1368.788196165154
 10
903.0811897208529
 20
1368.802762618555
 10
903.081702572264
 20
1368.817360686545
 10
903.0823074073332
 20
1368.831905279252
  0
LWPOLYLINE
  5
390
330
23
100
AcDbEntity
  8
SANINDUSA
100
AcDbPolyline
 90
        6
 70
   128
 43
0.0
 10
903.0982692995602
 20
1368.834982120775
 10
903.0986596767569
 20
1368.823856742051
 10
903.0990202381689
 20
1368.812686507159
 10
903.0996842961748
 20
1368.790201765206
 10
903.1003117976787
 20
1368.767624662597
 10
903.1009260996064
 20
1368.745044389481
  0
LINE
  5
391
330
23
100
AcDbEntity
  8
SANINDUSA
100
AcDbLine
 10
903.1094074370358
 20
1368.799138682979
 30
0.0
 11
903.1091726389572
 21
1368.807718171705
 31
0.0
  0
LWPOLYLINE
  5
392
330
23
100
AcDbEntity
  8
SANINDUSA
100
AcDbPolyline
 90
        6
 70
   128
 43
0.0
 10
903.1979235886776
 20
1368.834982120775
 10
903.1975332114809
 20
1368.823856742051
 10
903.1971726500689
 20
1368.812686507159
 10
903.196508592063
 20
1368.790201765206
 10
903.1958810905591
 20
1368.767624662597
 10
903.1952667886313
 20
1368.745044389481
  0
LINE
  5
393
330
23
100
AcDbEntity
  8
SANINDUSA
100
AcDbLine
 10
903.186785451202
 20
1368.799138682979
 30
0.0
 11
903.1870202492806
 21
1368.807718171705
 31
0.0
  0
LWPOLYLINE
  5
394
330
23
100
AcDbEntity
  8
SANINDUSA
100
AcDbPolyline
 90
       11
 70
   128
 43
0.0
 10
903.1093254731157
 20
1368.696184178067
 10
903.1093254231153
 20
1368.696184211233
 10
903.1041971584082
 20
1368.699990655558
 10
903.0994785056464
 20
1368.704320459687
 10
903.0952445267011
 20
1368.70910205747
 10
903.091520911199
 20
1368.714322237427
 10
903.088347761483
 20
1368.71991444918
 10
903.0857735802889
 20
1368.725787649044
 10
903.0836765654292
 20
1368.73244619326
 10
903.0824468016568
 20
1368.738508799242
 10
903.0818148700832
 20
1368.744662551469
  0
LWPOLYLINE
  5
396
330
23
100
AcDbEntity
  8
SANINDUSA
100
AcDbPolyline
 90
        7
 70
   128
 43
0.0
 10
903.1952667886313
 20
1368.745044389481
 10
903.1946042369849
 20
1368.738739157512
 10
903.1928485675553
 20
1368.732453773191
 10
903.1901638441981
 20
1368.726769279572
 10
903.1864504592498
 20
1368.721465556642
 10
903.1820322552363
 20
1368.717008091705
 10
903.1767736566809
 20
1368.7132538184
  0
LWPOLYLINE
  5
397
330
23
100
AcDbEntity
  8
SANINDUSA
100
AcDbPolyline
 90
        7
 70
   128
 43
0.0
 10
903.1009260996064
 20
1368.745044389481
 10
903.101588651253
 20
1368.738739157512
 10
903.1033443206824
 20
1368.732453773191
 10
903.1060290440397
 20
1368.726769279572
 10
903.109742428988
 20
1368.721465556642
 10
903.1141606330015
 20
1368.717008091705
 10
903.1194192315567
 20
1368.7132538184
  0
LWPOLYLINE
  5
399
330
23
100
AcDbEntity
  8
SANINDUSA
100
AcDbPolyline
 90
        6
 70
   128
 43
0.0
 10
903.1767736566809
 20
1368.7132538184
 10
903.1732011377796
 20
1368.711393062149
 10
903.1694477699227
 20
1368.709927229385
 10
903.1655557250042
 20
1368.708872789835
 10
903.1615687330578
 20
1368.708241590915
 10
903.1575315909185
 20
1368.708040724618
  0
LWPOLYLINE
  5
39A
330
23
100
AcDbEntity
  8
SANINDUSA
100
AcDbPolyline
 90
        7
 70
   128
 43
0.0
 10
903.1575315909185
 20
1368.688168619522
 10
903.162669265993
 20
1368.688397275181
 10
903.1677633513961
 20
1368.689081450811
 10
903.1727739387514
 20
1368.690215786403
 10
903.177661773828
 20
1368.691791395281
 10
903.182388564068
 20
1368.693795933719
 10
903.1869172785796
 20
1368.696213697647
  0
LINE
  5
39B
330
23
100
AcDbEntity
  8
SANINDUSA
100
AcDbLine
 10
903.1575315909185
 20
1368.688168619522
 30
0.0
 11
903.1386612973195
 21
1368.688168619522
 31
0.0
  0
LINE
  5
39C
330
23
100
AcDbEntity
  8
SANINDUSA
100
AcDbLine
 10
903.1386612973195
 20
1368.708040724618
 30
0.0
 11
903.1575315909185
 21
1368.708040724618
 31
0.0
  0
LWPOLYLINE
  5
39E
330
23
100
AcDbEntity
  8
SANINDUSA
100
AcDbPolyline
 90
        6
 70
   128
 43
0.0
 10
903.1194192315567
 20
1368.7132538184
 10
903.1229917504582
 20
1368.711393062149
 10
903.126745118315
 20
1368.709927229385
 10
903.1306371632336
 20
1368.708872789835
 10
903.1346241551799
 20
1368.708241590915
 10
903.1386612973195
 20
1368.708040724618
  0
LWPOLYLINE
  5
39F
330
23
100
AcDbEntity
  8
SANINDUSA
100
AcDbPolyline
 90
        7
 70
   128
 43
0.0
 10
903.1386612973195
 20
1368.688168619522
 10
903.1335236222448
 20
1368.688397275181
 10
903.1284295368417
 20
1368.689081450811
 10
903.1234189494863
 20
1368.690215786403
 10
903.1185311144097
 20
1368.691791395281
 10
903.1138043241698
 20
1368.693795933719
 10
903.1092756096581
 20
1368.696213697647
  0
LINE
  5
3A0
330
23
100
AcDbEntity
  8
SANINDUSA
100
AcDbLine
 10
903.1502868362371
 20
1368.720687425619
 30
0.0
 11
903.1459060520006
 21
1368.720687425619
 31
0.0
  0
LWPOLYLINE
  5
3A1
330
23
100
AcDbEntity
  8
SANINDUSA
100
AcDbPolyline
 90
       16
 70
   128
 43
0.0
 10
903.1502868362371
 20
1368.720687425619
 10
903.1541631129881
 20
1368.720913514365
 10
903.1579987800894
 20
1368.721532794113
 10
903.1617536533371
 20
1368.722538777004
 10
903.1653883949603
 20
1368.723920923901
 10
903.1688649257421
 20
1368.725664754801
 10
903.1721468239551
 20
1368.727752000532
 10
903.1751997069308
 20
1368.730160794154
 10
903.1779915912704
 20
1368.732865900041
 10
903.1804932279152
 20
1368.735838978267
 10
903.1826784085749
 20
1368.739048881503
 10
903.1845242402969
 20
1368.742461981333
 10
903.186011385303
 20
1368.746042520561
 10
903.1871242635814
 20
1368.74975298782
 10
903.18785121611
 20
1368.753554510557
 10
903.1881846270012
 20
1368.757407262278
  0
LWPOLYLINE
  5
3A2
330
23
100
AcDbEntity
  8
SANINDUSA
100
AcDbPolyline
 90
       16
 70
   128
 43
0.0
 10
903.1459060520006
 20
1368.720687425619
 10
903.1420297752498
 20
1368.720913514365
 10
903.1381941081484
 20
1368.721532794113
 10
903.1344392349007
 20
1368.722538777004
 10
903.1308044932774
 20
1368.723920923901
 10
903.1273279624954
 20
1368.725664754801
 10
903.1240460642827
 20
1368.727752000532
 10
903.1209931813069
 20
1368.730160794154
 10
903.1182012969676
 20
1368.732865900041
 10
903.1156996603225
 20
1368.735838978267
 10
903.1135144796628
 20
1368.739048881503
 10
903.1116686479409
 20
1368.742461981333
 10
903.1101815029348
 20
1368.746042520561
 10
903.1090686246564
 20
1368.74975298782
 10
903.108341672128
 20
1368.753554510557
 10
903.1080082612366
 20
1368.757407262278
  0
LINE
  5
3A3
330
23
100
AcDbEntity
  8
SANINDUSA
100
AcDbLine
 10
903.1009260996064
 20
1368.745044389481
 30
0.0
 11
903.1080082612366
 21
1368.757407262278
 31
0.0
  0
LWPOLYLINE
  5
3A4
330
23
100
AcDbEntity
  8
SANINDUSA
100
AcDbPolyline
 90
       16
 70
   128
 43
0.0
 10
903.1080082612366
 20
1368.757407262278
 10
903.1082649217378
 20
1368.758064252708
 10
903.1085053319413
 20
1368.759108813878
 10
903.108727223381
 20
1368.7605310895
 10
903.1089285023302
 20
1368.762317659245
 10
903.1091072695579
 20
1368.76445166537
 10
903.1092618382496
 20
1368.766912971787
 10
903.1093907499236
 20
1368.769678354065
 10
903.1094927881932
 20
1368.772721718565
 10
903.1095669902441
 20
1368.776014348664
 10
903.1096126559196
 20
1368.77952517571
 10
903.1096293543265
 20
1368.78322107219
 10
903.1096169279022
 20
1368.787067164305
 10
903.1095754938995
 20
1368.791027161042
 10
903.1095054432826
 20
1368.795063696601
 10
903.1094074370358
 20
1368.799138682979
  0
LINE
  5
3A5
330
23
100
AcDbEntity
  8
SANINDUSA
100
AcDbLine
 10
903.1952667886313
 20
1368.745044389481
 30
0.0
 11
903.1881846270012
 21
1368.757407262278
 31
0.0
  0
LWPOLYLINE
  5
3A6
330
23
100
AcDbEntity
  8
SANINDUSA
100
AcDbPolyline
 90
       16
 70
   128
 43
0.0
 10
903.1881846270012
 20
1368.757407262278
 10
903.1879279665
 20
1368.758064252708
 10
903.1876875562964
 20
1368.759108813878
 10
903.1874656648568
 20
1368.7605310895
 10
903.1872643859076
 20
1368.762317659245
 10
903.1870856186799
 20
1368.76445166537
 10
903.1869310499882
 20
1368.766912971787
 10
903.1868021383141
 20
1368.769678354065
 10
903.1867001000446
 20
1368.772721718565
 10
903.1866258979937
 20
1368.776014348664
 10
903.1865802323181
 20
1368.77952517571
 10
903.1865635339112
 20
1368.78322107219
 10
903.1865759603356
 20
1368.787067164305
 10
903.1866173943383
 20
1368.791027161042
 10
903.1866874449551
 20
1368.795063696601
 10
903.186785451202
 20
1368.799138682979
  0
LWPOLYLINE
  5
3A7
330
23
100
AcDbEntity
  8
SANINDUSA
100
AcDbPolyline
 90
        4
 70
   128
 43
0.0
 10
903.0937372435335
 20
1368.864818457568
 10
903.0937372744116
 20
1368.864818508545
 10
903.095451756217
 20
1368.867437192142
 10
903.095451789809
 20
1368.86743724134
  0
LWPOLYLINE
  5
3A8
330
23
100
AcDbEntity
  8
SANINDUSA
100
AcDbPolyline
 90
        5
 70
   128
 43
0.0
 10
903.095451789809
 20
1368.86743724134
 10
903.0954518240887
 20
1368.867437290117
 10
903.0976546574944
 20
1368.870470739078
 10
903.1026498739498
 20
1368.87661331254
 10
903.1026715479926
 20
1368.876638196116
  0
LWPOLYLINE
  5
3A9
330
23
100
AcDbEntity
  8
SANINDUSA
100
AcDbPolyline
 90
        5
 70
   128
 43
0.0
 10
903.1026715479926
 20
1368.876638196116
 10
903.1091458260851
 20
1368.877300037487
 10
903.1174230079031
 20
1368.878058654055
 10
903.1243720696227
 20
1368.878582381769
 10
903.1253331797834
 20
1368.878644843278
  0
LWPOLYLINE
  5
3AA
330
23
100
AcDbEntity
  8
SANINDUSA
100
AcDbPolyline
 90
        4
 70
   128
 43
0.0
 10
903.1103121080066
 20
1368.833819883097
 10
903.1134838088156
 20
1368.824401102228
 10
903.1166412712172
 20
1368.814969107529
 10
903.1175090507765
 20
1368.812370683366
  0
LINE
  5
3AB
330
23
100
AcDbEntity
  8
SANINDUSA
100
AcDbLine
 10
903.1181762939288
 20
1368.812370683366
 30
0.0
 11
903.1175090507765
 21
1368.812370683366
 31
0.0
  0
LWPOLYLINE
  5
3AC
330
23
100
AcDbEntity
  8
SANINDUSA
100
AcDbPolyline
 90
        4
 70
   128
 43
0.0
 10
903.1004171471055
 20
1368.823789040516
 10
903.0998256769631
 20
1368.825932414799
 10
903.0990507017351
 20
1368.829822505528
 10
903.0982692995602
 20
1368.834982120775
  0
LWPOLYLINE
  5
3AD
330
23
100
AcDbEntity
  8
SANINDUSA
100
AcDbPolyline
 90
       10
 70
   128
 43
0.0
 10
903.1026715479926
 20
1368.876638196116
 10
903.1033267916486
 20
1368.87046565847
 10
903.1040268973722
 20
1368.864616185026
 10
903.1048879511443
 20
1368.858277304506
 10
903.1057844290829
 20
1368.852481417225
 10
903.1066961702283
 20
1368.847317834116
 10
903.1076538385923
 20
1368.842641905289
 10
903.1086069842173
 20
1368.83874495426
 10
903.1095403557641
 20
1368.83570206533
 10
903.1103121080066
 20
1368.833819883097
  0
LWPOLYLINE
  5
3AE
330
23
100
AcDbEntity
  8
SANINDUSA
100
AcDbPolyline
 90
        7
 70
   128
 43
0.0
 10
903.1026715479926
 20
1368.876638196116
 10
903.1026637330823
 20
1368.876593637397
 10
903.1012566596473
 20
1368.868350469698
 10
903.0996066819472
 20
1368.857648813256
 10
903.0984534760959
 20
1368.847364521907
 10
903.0981173533994
 20
1368.841127919831
 10
903.0982692995602
 20
1368.834982120775
  0
LWPOLYLINE
  5
3AF
330
23
100
AcDbEntity
  8
SANINDUSA
100
AcDbPolyline
 90
        4
 70
   128
 43
0.0
 10
903.1076396462484
 20
1368.802039845535
 10
903.1066781428259
 20
1368.804938302983
 10
903.1035475653233
 20
1368.814370288063
 10
903.1004171471055
 20
1368.823789040516
  0
LWPOLYLINE
  5
3B0
330
23
100
AcDbEntity
  8
SANINDUSA
100
AcDbPolyline
 90
        6
 70
   128
 43
0.0
 10
903.1175090507765
 20
1368.812370683366
 10
903.114263500506
 20
1368.811819784189
 10
903.1113836006415
 20
1368.810224538002
 10
903.1091956845315
 20
1368.807773190845
 10
903.1079134699874
 20
1368.804712024308
 10
903.1076396462484
 20
1368.802039845535
  0
LWPOLYLINE
  5
3B1
330
23
100
AcDbEntity
  8
SANINDUSA
100
AcDbPolyline
 90
        3
 70
   128
 43
0.0
 10
903.1708597084543
 20
1368.878644843278
 10
903.1651872775315
 20
1368.878971928511
 10
903.1480964441188
 20
1368.879426643883
  0
LWPOLYLINE
  5
3B2
330
23
100
AcDbEntity
  8
SANINDUSA
100
AcDbPolyline
 90
        5
 70
   128
 43
0.0
 10
903.193521340245
 20
1368.876638196116
 10
903.1870470621525
 20
1368.877300037487
 10
903.1787698803345
 20
1368.878058654055
 10
903.1718208186148
 20
1368.878582381769
 10
903.1708597084543
 20
1368.878644843278
  0
LWPOLYLINE
  5
3B3
330
23
100
AcDbEntity
  8
SANINDUSA
100
AcDbPolyline
 90
        4
 70
   128
 43
0.0
 10
903.185880780231
 20
1368.833819883097
 10
903.1827090794221
 20
1368.824401102228
 10
903.1795516170205
 20
1368.814969107529
 10
903.1786838374612
 20
1368.812370683366
  0
LINE
  5
3B4
330
23
100
AcDbEntity
  8
SANINDUSA
100
AcDbLine
 10
903.1780165943089
 20
1368.812370683366
 30
0.0
 11
903.1786838374612
 21
1368.812370683366
 31
0.0
  0
LWPOLYLINE
  5
3B5
330
23
100
AcDbEntity
  8
SANINDUSA
100
AcDbPolyline
 90
        4
 70
   128
 43
0.0
 10
903.1957757411323
 20
1368.823789040516
 10
903.1963672112746
 20
1368.825932414799
 10
903.1971421865028
 20
1368.829822505528
 10
903.1979235886776
 20
1368.834982120775
  0
LWPOLYLINE
  5
3B6
330
23
100
AcDbEntity
  8
SANINDUSA
100
AcDbPolyline
 90
       10
 70
   128
 43
0.0
 10
903.193521340245
 20
1368.876638196116
 10
903.192866096589
 20
1368.87046565847
 10
903.1921659908656
 20
1368.864616185026
 10
903.1913049370933
 20
1368.858277304506
 10
903.1904084591548
 20
1368.852481417225
 10
903.1894967180093
 20
1368.847317834116
 10
903.1885390496455
 20
1368.842641905289
 10
903.1875859040205
 20
1368.83874495426
 10
903.1866525324739
 20
1368.83570206533
 10
903.185880780231
 20
1368.833819883097
  0
LWPOLYLINE
  5
3B7
330
23
100
AcDbEntity
  8
SANINDUSA
100
AcDbPolyline
 90
        7
 70
   128
 43
0.0
 10
903.193521340245
 20
1368.876638196116
 10
903.1935291551553
 20
1368.876593637397
 10
903.1949362285905
 20
1368.868350469698
 10
903.1965862062905
 20
1368.857648813256
 10
903.1977394121419
 20
1368.847364521907
 10
903.1980755348383
 20
1368.841127919831
 10
903.1979235886776
 20
1368.834982120775
  0
LWPOLYLINE
  5
3B8
330
23
100
AcDbEntity
  8
SANINDUSA
100
AcDbPolyline
 90
        4
 70
   128
 43
0.0
 10
903.2049904127163
 20
1368.860718600331
 10
903.2049903826916
 20
1368.860718651895
 10
903.2024556769057
 20
1368.864818407362
 10
903.2024556447042
 20
1368.864818457568
  0
LWPOLYLINE
  5
3B9
330
23
100
AcDbEntity
  8
SANINDUSA
100
AcDbPolyline
 90
        4
 70
   128
 43
0.0
 10
903.2055119910873
 20
1368.859837751949
 10
903.2055119655911
 20
1368.859837805644
 10
903.2049904512746
 20
1368.860718556006
 10
903.2049904127163
 20
1368.860718600331
  0
LWPOLYLINE
  5
3BA
330
23
100
AcDbEntity
  8
SANINDUSA
100
AcDbPolyline
 90
        4
 70
   128
 43
0.0
 10
903.2059972207205
 20
1368.858926941153
 10
903.2059971928148
 20
1368.858926993821
 10
903.2055120192193
 20
1368.859837699522
 10
903.2055119910873
 20
1368.859837751949
  0
LWPOLYLINE
  5
3BB
330
23
100
AcDbEntity
  8
SANINDUSA
100
AcDbPolyline
 90
        4
 70
   128
 43
0.0
 10
903.2062813397134
 20
1368.858227279621
 10
903.2062813090806
 20
1368.858227330989
 10
903.2059972438124
 20
1368.858926886733
 10
903.2059972207205
 20
1368.858926941153
  0
LWPOLYLINE
  5
3BC
330
23
100
AcDbEntity
  8
SANINDUSA
100
AcDbPolyline
 90
        4
 70
   128
 43
0.0
 10
903.2024556447042
 20
1368.864818457568
 10
903.2024556138264
 20
1368.864818508545
 10
903.2007411320208
 20
1368.867437192142
 10
903.2007410984288
 20
1368.86743724134
  0
LWPOLYLINE
  5
3BD
330
23
100
AcDbEntity
  8
SANINDUSA
100
AcDbPolyline
 90
        5
 70
   128
 43
0.0
 10
903.2007410984288
 20
1368.86743724134
 10
903.200741064149
 20
1368.867437290117
 10
903.1985382307434
 20
1368.870470739078
 10
903.1935430142878
 20
1368.87661331254
 10
903.193521340245
 20
1368.876638196116
  0
LWPOLYLINE
  5
3BE
330
23
100
AcDbEntity
  8
SANINDUSA
100
AcDbPolyline
 90
        4
 70
   128
 43
0.0
 10
903.1885532419893
 20
1368.802039845535
 10
903.1895147454118
 20
1368.804938302983
 10
903.1926453229145
 20
1368.814370288063
 10
903.1957757411323
 20
1368.823789040516
  0
LWPOLYLINE
  5
3BF
330
23
100
AcDbEntity
  8
SANINDUSA
100
AcDbPolyline
 90
        6
 70
   128
 43
0.0
 10
903.1786838374612
 20
1368.812370683366
 10
903.1819293877317
 20
1368.811819784189
 10
903.1848092875963
 20
1368.810224538002
 10
903.186997203706
 20
1368.807773190845
 10
903.1882794182504
 20
1368.804712024308
 10
903.1885532419893
 20
1368.802039845535
  0
LINE
  5
3C0
330
23
100
AcDbEntity
  8
SANINDUSA
100
AcDbLine
 10
903.1181762939288
 20
1368.812370683366
 30
0.0
 11
903.1780165943089
 21
1368.812370683366
 31
0.0
  0
LWPOLYLINE
  5
3C1
330
23
100
AcDbEntity
  8
SANINDUSA
100
AcDbPolyline
 90
        3
 70
   128
 43
0.0
 10
903.1253331797834
 20
1368.878644843278
 10
903.1310056107063
 20
1368.878971928511
 10
903.1480964441188
 20
1368.879426643883
  0
LWPOLYLINE
  5
3C2
330
23
100
AcDbEntity
  8
SANINDUSA
100
AcDbPolyline
 90
        4
 70
   128
 43
0.0
 10
903.0899115485244
 20
1368.858227279621
 10
903.0899115791573
 20
1368.858227330989
 10
903.0901956444253
 20
1368.858926886733
 10
903.0901956675172
 20
1368.858926941153
  0
LWPOLYLINE
  5
3C3
330
23
100
AcDbEntity
  8
SANINDUSA
100
AcDbPolyline
 90
        4
 70
   128
 43
0.0
 10
903.0901956675172
 20
1368.858926941153
 10
903.0901956954229
 20
1368.858926993821
 10
903.0906808690184
 20
1368.859837699522
 10
903.0906808971504
 20
1368.859837751949
  0
LWPOLYLINE
  5
3C4
330
23
100
AcDbEntity
  8
SANINDUSA
100
AcDbPolyline
 90
        4
 70
   128
 43
0.0
 10
903.0906808971504
 20
1368.859837751949
 10
903.0906809226467
 20
1368.859837805644
 10
903.0912024369632
 20
1368.860718556006
 10
903.0912024755215
 20
1368.860718600331
  0
LWPOLYLINE
  5
3C5
330
23
100
AcDbEntity
  8
SANINDUSA
100
AcDbPolyline
 90
        4
 70
   128
 43
0.0
 10
903.0912024755215
 20
1368.860718600331
 10
903.0912025055462
 20
1368.860718651895
 10
903.0937372113321
 20
1368.864818407362
 10
903.0937372435335
 20
1368.864818457568
  0
LWPOLYLINE
  5
3C6
330
23
100
AcDbEntity
  8
SANINDUSA
100
AcDbPolyline
 90
        7
 70
   128
 43
0.0
 10
903.0823074073332
 20
1368.831905279252
 10
903.0826902467607
 20
1368.836337700573
 10
903.0834382502941
 20
1368.840724090864
 10
903.0859707480763
 20
1368.849482764927
 10
903.0877754324139
 20
1368.853913372482
 10
903.0899115190036
 20
1368.85822722767
 10
903.0899115485244
 20
1368.858227279621
  0
CIRCLE
  5
3C7
330
23
100
AcDbEntity
  8
SANINDUSA
100
AcDbCircle
 10
903.2255964441189
 20
1368.987786164537
 30
0.0
 40
0.008
  0
CIRCLE
  5
3CB
330
23
100
AcDbEntity
  8
SANINDUSA
100
AcDbCircle
 10
903.0705964441189
 20
1368.987786164537
 30
0.0
 40
0.008
  0
LINE
  5
3E5
330
23
100
AcDbEntity
  8
SANINDUSA
100
AcDbLine
 10
905.2264130789867
 20
1368.490954455845
 30
0.0
 11
905.2264130789867
 21
1368.537869841969
 31
0.0
  0
ARC
  5
3E6
330
23
100
AcDbEntity
  8
SANINDUSA
100
AcDbCircle
 10
905.225398445763
 20
1368.537869841969
 30
0.0
 40
0.001
100
AcDbArc
 50
0.0
 51
90.0
  0
ARC
  5
3E7
330
23
100
AcDbEntity
  8
SANINDUSA
100
AcDbCircle
 10
905.1879626670313
 20
1368.905200794354
 30
0.0
 40
0.05
100
AcDbArc
 50
180.0
 51
268.444678978731
  0
ARC
  5
3E8
330
23
100
AcDbEntity
  8
SANINDUSA
100
AcDbCircle
 10
905.1879626670313
 20
1368.905220853037
 30
0.0
 40
0.06
100
AcDbArc
 50
180.0
 51
268.5328779023322
  0
LWPOLYLINE
  5
3EF
330
23
100
AcDbEntity
  8
SANINDUSA
100
AcDbPolyline
 90
       39
 70
   128
 43
0.0
 10
904.5047162513959
 20
1368.839105649697
 10
904.5049615472477
 20
1368.839102475138
 10
904.5056520112423
 20
1368.839097911613
 10
904.5077551623199
 20
1368.83908803338
 10
904.5110625637796
 20
1368.839076229888
 10
904.515643547406
 20
1368.839063517344
 10
904.5214404118448
 20
1368.839051205759
 10
904.5280905073012
 20
1368.839040676883
 10
904.5357982441318
 20
1368.839031963652
 10
904.5446633861699
 20
1368.839025407061
 10
904.5545387796199
 20
1368.839021470514
 10
904.5647289413544
 20
1368.839020350672
 10
904.575718315533
 20
1368.83902162154
 10
904.5874924585584
 20
1368.839025077023
 10
904.6000395613061
 20
1368.839030427235
 10
904.6124933669048
 20
1368.839036746519
 10
904.6254552727956
 20
1368.839043636569
 10
904.6388296971469
 20
1368.839050237488
 10
904.6526559215219
 20
1368.839055581122
 10
904.666556036178
 20
1368.839058494573
 10
904.6806006084882
 20
1368.839058133327
 10
904.6947413131794
 20
1368.839054547072
 10
904.7089247687607
 20
1368.839048608011
 10
904.722490384985
 20
1368.839041686255
 10
904.7357859851192
 20
1368.839034635681
 10
904.7489016970537
 20
1368.839028270565
 10
904.7615313955912
 20
1368.839023457852
 10
904.7729985783156
 20
1368.839020842252
 10
904.7839132988638
 20
1368.839020519449
 10
904.7941027756021
 20
1368.839022831319
 10
904.8035432419521
 20
1368.839027934247
 10
904.8115542439381
 20
1368.839035083963
 10
904.8187029985834
 20
1368.8390443214
 10
904.8249073295446
 20
1368.839055262972
 10
904.8301410463208
 20
1368.839067415916
 10
904.834137310743
 20
1368.839079322451
 10
904.8370733180957
 20
1368.839090459023
 10
904.8388885387362
 20
1368.839099628333
 10
904.8395358204128
 20
1368.839105649697
  0
LINE
  5
3F0
330
23
100
AcDbEntity
  8
SANINDUSA
100
AcDbLine
 10
904.8526486782206
 20
1368.840483866589
 30
0.0
 11
904.491603393588
 21
1368.840483866589
 31
0.0
  0
LINE
  5
3F2
330
23
100
AcDbEntity
  8
SANINDUSA
100
AcDbLine
 10
904.4921260359044
 20
1368.890954455845
 30
0.0
 11
904.8521260359043
 21
1368.890954455845
 31
0.0
  0
LWPOLYLINE
  5
3F4
330
23
100
AcDbEntity
  8
SANINDUSA
100
AcDbPolyline
 90
       39
 70
   128
 43
0.0
 10
904.7584831674853
 20
1368.704890819107
 10
904.7578557661898
 20
1368.704896363931
 10
904.7564004561472
 20
1368.704924574723
 10
904.7546799138325
 20
1368.704955941774
 10
904.7524502940008
 20
1368.704989985541
 10
904.7492329428187
 20
1368.705026402806
 10
904.7453584763553
 20
1368.70505290134
 10
904.7415971426826
 20
1368.705063383572
 10
904.7373937642035
 20
1368.705060399654
 10
904.7319887559476
 20
1368.705038111999
 10
904.7260593889065
 20
1368.704995027449
 10
904.7215385635512
 20
1368.704952661898
 10
904.7168071605703
 20
1368.704902432331
 10
904.7093179043516
 20
1368.704816275599
 10
904.7007038985332
 20
1368.704717010709
 10
904.6950651601594
 20
1368.704657384507
 10
904.6893835203954
 20
1368.704605286325
 10
904.6835959768779
 20
1368.704563557106
 10
904.6778737816058
 20
1368.704536585203
 10
904.6721260359044
 20
1368.70452682832
 10
904.6679613318138
 20
1368.704532022952
 10
904.6613030833327
 20
1368.704559738292
 10
904.6546700903826
 20
1368.704606937725
 10
904.6470633248684
 20
1368.704679076794
 10
904.6396272264708
 20
1368.704761496797
 10
904.6335376339374
 20
1368.704832630906
 10
904.6276443681325
 20
1368.704900216932
 10
904.6211077777742
 20
1368.7049684779
 10
904.6149627498683
 20
1368.705020569732
 10
904.6106675182064
 20
1368.705046588844
 10
904.6067029721289
 20
1368.705060753166
 10
904.6030216201534
 20
1368.705063700341
 10
904.5997244495698
 20
1368.705056385712
 10
904.5967479549149
 20
1368.705040387548
 10
904.592534970917
 20
1368.704999553996
 10
904.5893904857987
 20
1368.704952832443
 10
904.5872180390704
 20
1368.704912157986
 10
904.5862239774637
 20
1368.704893437509
 10
904.5857689043232
 20
1368.704890819107
  0
LWPOLYLINE
  5
3F5
330
23
100
AcDbEntity
  8
SANINDUSA
100
AcDbPolyline
 90
       38
 70
   128
 43
0.0
 10
904.5807834548041
 20
1368.713809619158
 10
904.5807834563673
 20
1368.713809619159
 10
904.5812631833246
 20
1368.713811702192
 10
904.5823303559355
 20
1368.713817232137
 10
904.5846765989093
 20
1368.713828130965
 10
904.5880207747421
 20
1368.713839987019
 10
904.5925399852297
 20
1368.713850304523
 10
904.5979787654928
 20
1368.713856122975
 10
904.6010570905261
 20
1368.713856903784
 10
904.6043002554396
 20
1368.713856060417
 10
904.6117935631531
 20
1368.713848235521
 10
904.6196918401685
 20
1368.713832728445
 10
904.6239164656169
 20
1368.713822204413
 10
904.6282263401641
 20
1368.713810266806
 10
904.6377611038156
 20
1368.713781227194
 10
904.6472850022542
 20
1368.713752064371
 10
904.6522137191709
 20
1368.713738459726
 10
904.657130455114
 20
1368.713726786614
 10
904.6677173618448
 20
1368.713711137468
 10
904.6721260359044
 20
1368.713709505076
 10
904.6822021703773
 20
1368.713717666832
 10
904.6921427720711
 20
1368.713738730587
 10
904.7023544393235
 20
1368.713768311243
 10
904.7116480698493
 20
1368.713797235342
 10
904.7161506066849
 20
1368.71381062682
 10
904.7204495107784
 20
1368.713822504811
 10
904.7290587665482
 20
1368.713842320474
 10
904.7365573789717
 20
1368.713853496668
 10
904.7400479273941
 20
1368.713856108493
 10
904.7432873791736
 20
1368.7138569036
 10
904.7494311537313
 20
1368.713853508708
 10
904.7543385970639
 20
1368.713845018154
 10
904.7564399420876
 20
1368.713839363103
 10
904.7582567542425
 20
1368.713833296874
 10
904.7612387368666
 20
1368.713820628248
 10
904.7627864282635
 20
1368.713812747825
 10
904.7634686154415
 20
1368.713809619159
 10
904.7634686170045
 20
1368.713809619158
  0
LINE
  5
3F7
330
23
100
AcDbEntity
  8
SANINDUSA
100
AcDbLine
 10
904.7671689331075
 20
1368.538448251204
 30
0.0
 11
904.5770648526207
 21
1368.538448251204
 31
0.0
  0
LINE
  5
3F8
330
23
100
AcDbEntity
  8
SANINDUSA
100
AcDbLine
 10
904.5578288839861
 20
1368.536425192615
 30
0.0
 11
904.786417049836
 21
1368.536425192615
 31
0.0
  0
LWPOLYLINE
  5
3FA
330
23
100
AcDbEntity
  8
SANINDUSA
100
AcDbPolyline
 90
        6
 70
   128
 43
0.0
 10
904.5767897189177
 20
1368.7053286151
 10
904.5755091893894
 20
1368.656419196907
 10
904.5747685714042
 20
1368.628136822641
 10
904.5740277061746
 20
1368.599854451028
 10
904.5732864096367
 20
1368.571572093166
 10
904.5725451739601
 20
1368.543289733002
  0
LWPOLYLINE
  5
3FD
330
23
100
AcDbEntity
  8
SANINDUSA
100
AcDbPolyline
 90
       10
 70
   128
 43
0.0
 10
904.568071718616
 20
1368.538448026894
 10
904.5659008864383
 20
1368.538218636966
 10
904.5624086671528
 20
1368.537848215698
 10
904.5591673471372
 20
1368.537502608356
 10
904.5562869019633
 20
1368.53719352523
 10
904.5538262223754
 20
1368.536927326957
 10
904.5518662744818
 20
1368.53671273981
 10
904.5504497564756
 20
1368.536554486919
 10
904.5496257676447
 20
1368.536457981988
 10
904.5494102490577
 20
1368.536425187784
  0
LWPOLYLINE
  5
3FF
330
23
100
AcDbEntity
  8
SANINDUSA
100
AcDbPolyline
 90
        9
 70
   128
 43
0.0
 10
904.5449346027913
 20
1368.531452596935
 10
904.5450182955056
 20
1368.532363752663
 10
904.5452665708998
 20
1368.533244395097
 10
904.5456711145881
 20
1368.534065032788
 10
904.5462183789844
 20
1368.534798183761
 10
904.5468900369913
 20
1368.535419295844
 10
904.5476635957484
 20
1368.535907568886
 10
904.5485131498859
 20
1368.536246651328
 10
904.5494102490577
 20
1368.536425187784
  0
LINE
  5
402
330
23
100
AcDbEntity
  8
SANINDUSA
100
AcDbLine
 10
904.5494102490577
 20
1368.536425187784
 30
0.0
 11
904.5578288839861
 21
1368.536425192615
 31
0.0
  0
LINE
  5
403
330
23
100
AcDbEntity
  8
SANINDUSA
100
AcDbLine
 10
904.544934817124
 20
1368.490954455845
 30
0.0
 11
904.5533562607756
 21
1368.490954455845
 31
0.0
  0
LWPOLYLINE
  5
404
330
23
100
AcDbEntity
  8
SANINDUSA
100
AcDbPolyline
 90
        4
 70
   128
 43
0.0
 10
904.5449346027913
 20
1368.531452596935
 10
904.5449349494713
 20
1368.513446864217
 10
904.5449350981192
 20
1368.502200666354
 10
904.544934817124
 20
1368.490954455845
  0
LINE
  5
407
330
23
100
AcDbEntity
  8
SANINDUSA
100
AcDbLine
 10
904.5770484905991
 20
1368.538448026894
 30
0.0
 11
904.568071718616
 21
1368.538448026894
 31
0.0
  0
LWPOLYLINE
  5
408
330
23
100
AcDbEntity
  8
SANINDUSA
100
AcDbPolyline
 90
        5
 70
   128
 43
0.0
 10
904.5725451739601
 20
1368.543289733002
 10
904.5722199237362
 20
1368.54164307324
 10
904.5713676016193
 20
1368.540196819505
 10
904.5700841536479
 20
1368.539113729803
 10
904.5697436845543
 20
1368.538930489697
  0
LWPOLYLINE
  5
409
330
23
100
AcDbEntity
  8
SANINDUSA
100
AcDbPolyline
 90
        3
 70
   128
 43
0.0
 10
904.5697436845543
 20
1368.538930489697
 10
904.5685137452943
 20
1368.538515109509
 10
904.568071718616
 20
1368.538448026894
  0
LWPOLYLINE
  5
40F
330
23
100
AcDbEntity
  8
SANINDUSA
100
AcDbPolyline
 90
       12
 70
   128
 43
0.0
 10
904.572254195529
 20
1368.713894433416
 10
904.5620022017178
 20
1368.721508703768
 10
904.5519716112274
 20
1368.730172041714
 10
904.5428302328
 20
1368.739769498585
 10
904.5346230802048
 20
1368.750218180444
 10
904.5273951672115
 20
1368.761435193359
 10
904.521191507589
 20
1368.773337643392
 10
904.5163209189025
 20
1368.785113279966
 10
904.5124386165571
 20
1368.797355085033
 10
904.5095823302284
 20
1368.809993578492
 10
904.5077897895916
 20
1368.822959280242
 10
904.5070986993557
 20
1368.836183187903
  0
LINE
  5
411
330
23
100
AcDbEntity
  8
SANINDUSA
100
AcDbLine
 10
904.5047162513959
 20
1368.839105649697
 30
0.0
 11
904.491603393588
 21
1368.840483866589
 31
0.0
  0
LWPOLYLINE
  5
412
330
23
100
AcDbEntity
  8
SANINDUSA
100
AcDbPolyline
 90
        7
 70
   128
 43
0.0
 10
904.5044124327299
 20
1368.839137582326
 10
904.5045292786021
 20
1368.83912297758
 10
904.5047290468188
 20
1368.839087078112
 10
904.505664386605
 20
1368.838713138122
 10
904.506423219191
 20
1368.838050681697
 10
904.5069199990342
 20
1368.837174395488
 10
904.5070987208687
 20
1368.836183068575
  0
LINE
  5
418
330
23
100
AcDbEntity
  8
SANINDUSA
100
AcDbLine
 10
904.4871260359043
 20
1368.885954455845
 30
0.0
 11
904.4871260359043
 21
1368.845456476066
 31
0.0
  0
ARC
  5
419
330
23
100
AcDbEntity
  8
SANINDUSA
100
AcDbCircle
 10
904.4921260359044
 20
1368.845456476066
 30
0.0
 40
0.005
100
AcDbArc
 50
180.0
 51
264.0000000022097
  0
ARC
  5
41A
330
23
100
AcDbEntity
  8
SANINDUSA
100
AcDbCircle
 10
904.4921260359044
 20
1368.885954455845
 30
0.0
 40
0.005
100
AcDbArc
 50
90.0
 51
180.0
  0
LWPOLYLINE
  5
41B
330
23
100
AcDbEntity
  8
SANINDUSA
100
AcDbPolyline
 90
        4
 70
   128
 43
0.0
 10
904.5734547450999
 20
1368.712967391993
 10
904.5736160820403
 20
1368.712821070869
 10
904.5742343942746
 20
1368.712196259127
 10
904.5750608989182
 20
1368.711154676019
  0
LWPOLYLINE
  5
41C
330
23
100
AcDbEntity
  8
SANINDUSA
100
AcDbPolyline
 90
        7
 70
   128
 43
0.0
 10
904.5728902276605
 20
1368.713854037322
 10
904.5728902291969
 20
1368.713854037323
 10
904.5739005473965
 20
1368.713852695885
 10
904.5768578518652
 20
1368.713834626506
 10
904.5798207145676
 20
1368.713812775133
 10
904.5807834086847
 20
1368.713809644967
 10
904.5807834102241
 20
1368.713809644965
  0
LINE
  5
41D
330
23
100
AcDbEntity
  8
SANINDUSA
100
AcDbLine
 10
904.572254195529
 20
1368.713894433416
 30
0.0
 11
904.5733858598939
 21
1368.713028029747
 31
0.0
  0
LINE
  5
41F
330
23
100
AcDbEntity
  8
SANINDUSA
100
AcDbLine
 10
904.5733858598939
 20
1368.713028029747
 30
0.0
 11
904.5734547450999
 21
1368.712967391993
 31
0.0
  0
LWPOLYLINE
  5
420
330
23
100
AcDbEntity
  8
SANINDUSA
100
AcDbPolyline
 90
        5
 70
   128
 43
0.0
 10
904.5722897475673
 20
1368.7138924163
 10
904.5724011728404
 20
1368.713886265211
 10
904.572595750586
 20
1368.713876074556
 10
904.5727857078032
 20
1368.713866703892
 10
904.572876990502
 20
1368.71386237868
  0
LWPOLYLINE
  5
423
330
23
100
AcDbEntity
  8
SANINDUSA
100
AcDbPolyline
 90
        4
 70
   128
 43
0.0
 10
904.5750608989182
 20
1368.711154676019
 10
904.5760668102934
 20
1368.709302591856
 10
904.5765277111438
 20
1368.707873142597
 10
904.5766496599522
 20
1368.707276605945
  0
LWPOLYLINE
  5
424
330
23
100
AcDbEntity
  8
SANINDUSA
100
AcDbPolyline
 90
        3
 70
   128
 43
0.0
 10
904.5766496599522
 20
1368.707276605945
 10
904.576723226545
 20
1368.7067691824
 10
904.5767897189177
 20
1368.7053286151
  0
LWPOLYLINE
  5
426
330
23
100
AcDbEntity
  8
SANINDUSA
100
AcDbPolyline
 90
        6
 70
   128
 43
0.0
 10
904.5857689086048
 20
1368.704890860089
 10
904.5857689053972
 20
1368.70489086013
 10
904.5834964433725
 20
1368.704949064168
 10
904.581668350892
 20
1368.705021586372
 10
904.5785539883237
 20
1368.705136956399
 10
904.5775119220111
 20
1368.705158083106
  0
LWPOLYLINE
  5
42A
330
23
100
AcDbEntity
  8
SANINDUSA
100
AcDbPolyline
 90
        5
 70
   128
 43
0.0
 10
904.7717058079923
 20
1368.543289733002
 10
904.7710154883862
 20
1368.569624011955
 10
904.7703255243979
 20
1368.595958334798
 10
904.7689462180938
 20
1368.648627057209
 10
904.7674650668644
 20
1368.705191802758
  0
LWPOLYLINE
  5
42D
330
23
100
AcDbEntity
  8
SANINDUSA
100
AcDbPolyline
 90
       10
 70
   128
 43
0.0
 10
904.7948431482655
 20
1368.536425187784
 10
904.7946282223644
 20
1368.536457896933
 10
904.7938062788444
 20
1368.53655416475
 10
904.7923930088835
 20
1368.536712055494
 10
904.7904373312515
 20
1368.536926174504
 10
904.7879827685463
 20
1368.53719170976
 10
904.7851095150846
 20
1368.537500019835
 10
904.7818767972314
 20
1368.537844708829
 10
904.7783939688061
 20
1368.5382141335
 10
904.7761804523236
 20
1368.538448026894
  0
LWPOLYLINE
  5
42E
330
23
100
AcDbEntity
  8
SANINDUSA
100
AcDbPolyline
 90
        5
 70
   128
 43
0.0
 10
904.7745397401692
 20
1368.538915192248
 10
904.7731688333598
 20
1368.539887023786
 10
904.7721970844062
 20
1368.541257534642
 10
904.7717343957227
 20
1368.542871801153
 10
904.7717058079923
 20
1368.543289733002
  0
LINE
  5
42F
330
23
100
AcDbEntity
  8
SANINDUSA
100
AcDbLine
 10
904.7761804523236
 20
1368.538448026894
 30
0.0
 11
904.7671873242412
 21
1368.538448026894
 31
0.0
  0
LWPOLYLINE
  5
436
330
23
100
AcDbEntity
  8
SANINDUSA
100
AcDbPolyline
 90
        3
 70
   128
 43
0.0
 10
904.7761804523236
 20
1368.538448026894
 10
904.7749377287821
 20
1368.538744501346
 10
904.7745397401692
 20
1368.538915192248
  0
LWPOLYLINE
  5
437
330
23
100
AcDbEntity
  8
SANINDUSA
100
AcDbPolyline
 90
        9
 70
   128
 43
0.0
 10
904.7993187945319
 20
1368.531452596935
 10
904.7992351018177
 20
1368.532363752663
 10
904.7989868264235
 20
1368.533244395097
 10
904.7985822827351
 20
1368.534065032788
 10
904.798035018339
 20
1368.534798183761
 10
904.7973633603319
 20
1368.535419295844
 10
904.7965898015748
 20
1368.535907568886
 10
904.7957402474374
 20
1368.536246651328
 10
904.7948431482655
 20
1368.536425187784
  0
LINE
  5
43A
330
23
100
AcDbEntity
  8
SANINDUSA
100
AcDbLine
 10
904.786417049836
 20
1368.536425192615
 30
0.0
 11
904.7948431482655
 21
1368.536425187784
 31
0.0
  0
LINE
  5
43C
330
23
100
AcDbEntity
  8
SANINDUSA
100
AcDbLine
 10
904.7908958110332
 20
1368.490954455845
 30
0.0
 11
904.7993184531319
 21
1368.490954455845
 31
0.0
  0
LWPOLYLINE
  5
43D
330
23
100
AcDbEntity
  8
SANINDUSA
100
AcDbPolyline
 90
        4
 70
   128
 43
0.0
 10
904.7993184531319
 20
1368.490954455845
 10
904.7993210633938
 20
1368.502198025099
 10
904.7993213916369
 20
1368.513442558157
 10
904.7993187945319
 20
1368.531452596935
  0
LWPOLYLINE
  5
440
330
23
100
AcDbEntity
  8
SANINDUSA
100
AcDbPolyline
 90
        6
 70
   128
 43
0.0
 10
904.7667385810212
 20
1368.705158062027
 10
904.7656995951962
 20
1368.705136996372
 10
904.7625837209167
 20
1368.705021586372
 10
904.7594677555609
 20
1368.704909639608
 10
904.7584831664115
 20
1368.70489086013
 10
904.7584831632054
 20
1368.704890860089
  0
LWPOLYLINE
  5
443
330
23
100
AcDbEntity
  8
SANINDUSA
100
AcDbPolyline
 90
        6
 70
   128
 43
0.0
 10
904.767621080442
 20
1368.707229854694
 10
904.7680270884891
 20
1368.708750855041
 10
904.7681215440061
 20
1368.709004797061
 10
904.7691304979895
 20
1368.710943076657
 10
904.7700003199738
 20
1368.712071289319
 10
904.7708612282329
 20
1368.712940647041
  0
LINE
  5
444
330
23
100
AcDbEntity
  8
SANINDUSA
100
AcDbLine
 10
904.7708612282329
 20
1368.712940647041
 30
0.0
 11
904.772184816927
 21
1368.713970729345
 31
0.0
  0
LWPOLYLINE
  5
445
330
23
100
AcDbEntity
  8
SANINDUSA
100
AcDbPolyline
 90
        5
 70
   128
 43
0.0
 10
904.7713438229653
 20
1368.713842592353
 10
904.7718368812821
 20
1368.713840552123
 10
904.7720340526302
 20
1368.713881228352
 10
904.7721794462145
 20
1368.713946033447
 10
904.772184816927
 20
1368.713970729345
  0
LINE
  5
446
330
23
100
AcDbEntity
  8
SANINDUSA
100
AcDbLine
 10
904.7674650668644
 20
1368.705191802758
 30
0.0
 11
904.767621080442
 21
1368.707229854694
 31
0.0
  0
LWPOLYLINE
  5
449
330
23
100
AcDbEntity
  8
SANINDUSA
100
AcDbPolyline
 90
        7
 70
   128
 43
0.0
 10
904.7634686615847
 20
1368.713809644965
 10
904.7634686631241
 20
1368.713809644967
 10
904.7644298971436
 20
1368.713812768141
 10
904.7673942199436
 20
1368.713834626506
 10
904.7703529794794
 20
1368.7138527
 10
904.7713618426119
 20
1368.713854037323
 10
904.7713618441482
 20
1368.713854037322
  0
ARC
  5
44B
330
23
100
AcDbEntity
  8
SANINDUSA
100
AcDbCircle
 10
904.8521260359043
 20
1368.885954455845
 30
0.0
 40
0.005
100
AcDbArc
 50
0.0
 51
90.0
  0
LINE
  5
44C
330
23
100
AcDbEntity
  8
SANINDUSA
100
AcDbLine
 10
904.8395358204128
 20
1368.839105649697
 30
0.0
 11
904.8526486782206
 21
1368.840483866589
 31
0.0
  0
LWPOLYLINE
  5
44F
330
23
100
AcDbEntity
  8
SANINDUSA
100
AcDbPolyline
 90
        7
 70
   128
 43
0.0
 10
904.8398396312977
 20
1368.839137581508
 10
904.8396800361892
 20
1368.839116464189
 10
904.8395228726878
 20
1368.839087046147
 10
904.8385875542383
 20
1368.838713060237
 10
904.8378287536488
 20
1368.838050562942
 10
904.8373320179031
 20
1368.837174245725
 10
904.8371533493599
 20
1368.836182905117
  0
ARC
  5
453
330
23
100
AcDbEntity
  8
SANINDUSA
100
AcDbCircle
 10
904.8521260359043
 20
1368.845456476066
 30
0.0
 40
0.005
100
AcDbArc
 50
275.9999999977903
 51
0.0
  0
LINE
  5
454
330
23
100
AcDbEntity
  8
SANINDUSA
100
AcDbLine
 10
904.8571260359043
 20
1368.885954455845
 30
0.0
 11
904.8571260359043
 21
1368.845456476066
 31
0.0
  0
LWPOLYLINE
  5
455
330
23
100
AcDbEntity
  8
SANINDUSA
100
AcDbPolyline
 90
       12
 70
   128
 43
0.0
 10
904.8371533620361
 20
1368.836182975452
 10
904.8363844661052
 20
1368.822163923948
 10
904.8343788577025
 20
1368.808439862755
 10
904.831181550837
 20
1368.795093447772
 10
904.8268375740672
 20
1368.782207600168
 10
904.821391955952
 20
1368.769865241115
 10
904.8148897250497
 20
1368.75814929178
 10
904.8078317360531
 20
1368.747751067805
 10
904.7999122113932
 20
1368.738052927443
 10
904.7911688931415
 20
1368.729124373623
 10
904.7816395233693
 20
1368.721034909273
 10
904.772184816927
 20
1368.713970729345
  0
ARC
  5
4F3
330
23
100
AcDbEntity
  8
SANINDUSA
100
AcDbCircle
 10
903.1480964441188
 20
1368.806820852995
 30
0.0
 40
0.1277205625037759
100
AcDbArc
 50
0.0
 51
180.0
  0
ARC
  5
4F6
330
23
100
AcDbEntity
  8
SANINDUSA
100
AcDbCircle
 10
903.1480964441188
 20
1368.712820852995
 30
0.0
 40
0.1277205625037758
100
AcDbArc
 50
180.0
 51
0.0
  0
LINE
  5
4FA
330
23
100
AcDbEntity
  8
SANINDUSA
100
AcDbLine
 10
903.2758170066227
 20
1368.712820852995
 30
0.0
 11
903.2758170066227
 21
1368.806820852995
 31
0.0
  0
LINE
  5
500
330
23
100
AcDbEntity
  8
SANINDUSA
100
AcDbLine
 10
903.0203758816151
 20
1368.806820852995
 30
0.0
 11
903.0203758816151
 21
1368.712820852995
 31
0.0
  0
LWPOLYLINE
  5
509
330
23
100
AcDbEntity
  8
SANINDUSA
100
AcDbPolyline
 90
        4
 70
   128
 43
0.0
 10
905.2463947834654
 20
1368.543158033887
 10
905.2464264128179
 20
1368.599724183186
 10
905.2464177965413
 20
1368.656285567306
 10
905.246392988586
 20
1368.705194539689
  0
LINE
  5
50A
330
23
100
AcDbEntity
  8
SANINDUSA
100
AcDbLine
 10
905.5957117827595
 20
1368.490954455845
 30
0.0
 11
905.6725864282197
 21
1368.490954455845
 31
0.0
  0
LINE
  5
50B
330
23
100
AcDbEntity
  8
SANINDUSA
100
AcDbLine
 10
905.2741098246494
 20
1368.490954455845
 30
0.0
 11
905.5957117827595
 21
1368.490954455845
 31
0.0
  0
LINE
  5
50C
330
23
100
AcDbEntity
  8
SANINDUSA
100
AcDbLine
 10
905.2264130789867
 20
1368.490954455845
 30
0.0
 11
905.2113898851105
 21
1368.490954455845
 31
0.0
  0
LINE
  5
50D
330
23
100
AcDbEntity
  8
SANINDUSA
100
AcDbLine
 10
905.225398445763
 20
1368.538869841968
 30
0.0
 11
905.2464005062599
 21
1368.538869841968
 31
0.0
  0
LINE
  5
50E
330
23
100
AcDbEntity
  8
SANINDUSA
100
AcDbLine
 10
905.2125170913832
 20
1368.53400072671
 30
0.0
 11
905.2113898851105
 21
1368.490954455845
 31
0.0
  0
ARC
  5
50F
330
23
100
AcDbEntity
  8
SANINDUSA
100
AcDbCircle
 10
905.2175153780082
 20
1368.533869841968
 30
0.0
 40
0.0050000000000001
100
AcDbArc
 50
90.0
 51
178.5000000023336
  0
LINE
  5
510
330
23
100
AcDbEntity
  8
SANINDUSA
100
AcDbLine
 10
905.2741098246494
 20
1368.490954455845
 30
0.0
 11
905.2264130789867
 21
1368.490954455845
 31
0.0
  0
LWPOLYLINE
  5
511
330
23
100
AcDbEntity
  8
SANINDUSA
100
AcDbPolyline
 90
        3
 70
   128
 43
0.0
 10
905.2463948955873
 20
1368.538869841968
 10
905.2463950136271
 20
1368.539863781953
 10
905.2463947834654
 20
1368.543158033887
  0
LINE
  5
512
330
23
100
AcDbEntity
  8
SANINDUSA
100
AcDbLine
 10
905.711412175259
 20
1368.490954455845
 30
0.0
 11
905.711412175259
 21
1368.531452603255
 31
0.0
  0
ARC
  5
513
330
23
100
AcDbEntity
  8
SANINDUSA
100
AcDbCircle
 10
905.706412175259
 20
1368.531452603255
 30
0.0
 40
0.0050000000000001
100
AcDbArc
 50
0.0
 51
83.99779512870896
  0
ARC
  5
514
330
23
100
AcDbEntity
  8
SANINDUSA
100
AcDbCircle
 10
905.6882183752916
 20
1368.543420831592
 30
0.0
 40
0.005
100
AcDbArc
 50
181.4999999976663
 51
263.9968119085519
  0
LINE
  5
515
330
23
100
AcDbEntity
  8
SANINDUSA
100
AcDbLine
 10
905.7069350863963
 20
1368.53642518447
 30
0.0
 11
905.6876954562797
 21
1368.538448251205
 31
0.0
  0
LINE
  5
516
330
23
100
AcDbEntity
  8
SANINDUSA
100
AcDbLine
 10
905.3764121752591
 20
1368.890954455845
 30
0.0
 11
905.7341239369023
 21
1368.890954455845
 31
0.0
  0
LWPOLYLINE
  5
517
330
23
100
AcDbEntity
  8
SANINDUSA
100
AcDbPolyline
 90
       13
 70
   128
 43
0.0
 10
905.2417062743479
 20
1368.713824166008
 10
905.2326180037812
 20
1368.720355083925
 10
905.2239595681049
 20
1368.727887517827
 10
905.215555950364
 20
1368.7366287859
 10
905.2077167105773
 20
1368.746305615533
 10
905.2007040471908
 20
1368.75651693717
 10
905.1943126926699
 20
1368.767470308658
 10
905.1884324028092
 20
1368.779432129867
 10
905.1832907647407
 20
1368.792015599101
 10
905.1795602412148
 20
1368.803035658022
 10
905.1763975952756
 20
1368.814378447902
 10
905.1740229804618
 20
1368.824954451559
 10
905.1727041387081
 20
1368.832162914832
  0
LINE
  5
518
330
23
100
AcDbEntity
  8
SANINDUSA
100
AcDbLine
 10
905.2454569169574
 20
1368.71102205329
 30
0.0
 11
905.2417062743479
 21
1368.713824166008
 31
0.0
  0
LWPOLYLINE
  5
519
330
23
100
AcDbEntity
  8
SANINDUSA
100
AcDbPolyline
 90
        3
 70
   128
 43
0.0
 10
905.246392988586
 20
1368.705194539689
 10
905.2463915396183
 20
1368.707355377309
 10
905.2463909931411
 20
1368.708116539632
  0
LWPOLYLINE
  5
51B
330
23
100
AcDbEntity
  8
SANINDUSA
100
AcDbPolyline
 90
        6
 70
   128
 43
0.0
 10
905.2463909931411
 20
1368.708116539632
 10
905.246346248343
 20
1368.708779613509
 10
905.2462206777734
 20
1368.709405927966
 10
905.2461533097803
 20
1368.709635265983
 10
905.2458483872523
 20
1368.710377257676
 10
905.2454569169574
 20
1368.71102205329
  0
LINE
  5
51C
330
23
100
AcDbEntity
  8
SANINDUSA
100
AcDbLine
 10
905.255993831129
 20
1368.890954455845
 30
0.0
 11
905.3764121752591
 21
1368.890954455845
 31
0.0
  0
LINE
  5
51D
330
23
100
AcDbEntity
  8
SANINDUSA
100
AcDbLine
 10
905.2485896626079
 20
1368.923215923073
 30
0.0
 11
905.2510128576386
 21
1368.895518677131
 31
0.0
  0
LINE
  5
51E
330
23
100
AcDbEntity
  8
SANINDUSA
100
AcDbLine
 10
905.1084121752589
 20
1368.870594183055
 30
0.0
 11
905.108416662339
 21
1368.910954046642
 31
0.0
  0
LWPOLYLINE
  5
51F
330
23
100
AcDbEntity
  8
SANINDUSA
100
AcDbPolyline
 90
       15
 70
   128
 43
0.0
 10
905.1084121752589
 20
1368.864648201729
 10
905.1086008089622
 20
1368.861289880799
 10
905.1091643378937
 20
1368.857973792703
 10
905.1100956753499
 20
1368.854741639174
 10
905.1113831092219
 20
1368.851634066416
 10
905.1130104492822
 20
1368.848690153961
 10
905.1149572307849
 20
1368.845946923215
 10
905.1171989718234
 20
1368.843438871898
 10
905.1197074812032
 20
1368.841197540209
 10
905.1224512129635
 20
1368.839251114196
 10
905.1253956630855
 20
1368.837624071294
 10
905.1285038034004
 20
1368.836336872511
 10
905.1317365472403
 20
1368.835405705121
 10
905.135053240976
 20
1368.834842279091
 10
905.138412175259
 20
1368.834653679833
  0
LINE
  5
520
330
23
100
AcDbEntity
  8
SANINDUSA
100
AcDbLine
 10
905.138412175259
 20
1368.834653679833
 30
0.0
 11
905.1697448909177
 21
1368.834653679833
 31
0.0
  0
LWPOLYLINE
  5
522
330
23
100
AcDbEntity
  8
SANINDUSA
100
AcDbPolyline
 90
        9
 70
   128
 43
0.0
 10
905.1727041387081
 20
1368.832162914832
 10
905.1725727873236
 20
1368.832670069533
 10
905.1723542265007
 20
1368.833146386631
 10
905.1720551964322
 20
1368.833577176992
 10
905.1716849189
 20
1368.833949155483
 10
905.1712548128854
 20
1368.834250850665
 10
905.1707781424187
 20
1368.834472958567
 10
905.1702696075306
 20
1368.834608629609
 10
905.1697448909177
 20
1368.834653679833
  0
LINE
  5
523
330
23
100
AcDbEntity
  8
SANINDUSA
100
AcDbLine
 10
905.1084121752589
 20
1368.864648201729
 30
0.0
 11
905.1084121752589
 21
1368.870594183055
 31
0.0
  0
ARC
  5
524
330
23
100
AcDbEntity
  8
SANINDUSA
100
AcDbCircle
 10
905.255993831129
 20
1368.895954455845
 30
0.0
 40
0.005
100
AcDbArc
 50
184.9999999957234
 51
270.0
  0
LINE
  5
525
330
23
100
AcDbEntity
  8
SANINDUSA
100
AcDbLine
 10
905.115916662339
 20
1368.925954046642
 30
0.0
 11
905.2410892258832
 21
1368.925954046642
 31
0.0
  0
LINE
  5
526
330
23
100
AcDbEntity
  8
SANINDUSA
100
AcDbLine
 10
905.111412175259
 20
1368.925954455845
 30
0.0
 11
905.115916662339
 21
1368.925954046642
 31
0.0
  0
ARC
  5
527
330
23
100
AcDbEntity
  8
SANINDUSA
100
AcDbCircle
 10
905.111412175259
 20
1368.922954455845
 30
0.0
 40
0.003
100
AcDbArc
 50
90.0
 51
180.0
  0
LINE
  5
528
330
23
100
AcDbEntity
  8
SANINDUSA
100
AcDbLine
 10
905.2410892258832
 20
1368.925954046642
 30
0.0
 11
905.2456010785135
 21
1368.925954455845
 31
0.0
  0
ARC
  5
529
330
23
100
AcDbEntity
  8
SANINDUSA
100
AcDbCircle
 10
905.2456010785135
 20
1368.922954455845
 30
0.0
 40
0.003
100
AcDbArc
 50
4.999999995723404
 51
90.0
  0
LWPOLYLINE
  5
52A
330
23
100
AcDbEntity
  8
SANINDUSA
100
AcDbPolyline
 90
       15
 70
   128
 43
0.0
 10
905.6844587046382
 20
1368.713741435501
 10
905.6947575960364
 20
1368.7192884465
 10
905.7060149448599
 20
1368.72635709444
 10
905.7167976211099
 20
1368.734322744192
 10
905.7243909763725
 20
1368.74087611515
 10
905.7314293458464
 20
1368.747914956868
 10
905.737848202531
 20
1368.755410584395
 10
905.7436004679688
 20
1368.763328238558
 10
905.7486390740438
 20
1368.771633156579
 10
905.7529169526393
 20
1368.780290575684
 10
905.7563880079685
 20
1368.789265724054
 10
905.759088052156
 20
1368.798523068178
 10
905.7617998861321
 20
1368.811241431237
 10
905.7639157661244
 20
1368.824308254295
 10
905.7657256215023
 20
1368.836507888199
  0
ARC
  5
52B
330
23
100
AcDbEntity
  8
SANINDUSA
100
AcDbCircle
 10
905.6889945255804
 20
1368.704788597804
 30
0.0
 40
0.009999999999897
100
AcDbArc
 50
116.8470108138564
 51
181.4865418481275
  0
LINE
  5
52C
330
23
100
AcDbEntity
  8
SANINDUSA
100
AcDbLine
 10
905.786412175259
 20
1368.845456476066
 30
0.0
 11
905.786412175259
 21
1368.885954455845
 31
0.0
  0
ARC
  5
52D
330
23
100
AcDbEntity
  8
SANINDUSA
100
AcDbCircle
 10
905.781412175259
 20
1368.845456476066
 30
0.0
 40
0.005
100
AcDbArc
 50
275.9999999977903
 51
0.0
  0
ARC
  5
52E
330
23
100
AcDbEntity
  8
SANINDUSA
100
AcDbCircle
 10
905.7686895747453
 20
1368.836075210641
 30
0.0
 40
0.0029999999999643
100
AcDbArc
 50
98.6970375430249
 51
171.7480268703041
  0
LINE
  5
52F
330
23
100
AcDbEntity
  8
SANINDUSA
100
AcDbLine
 10
905.7682329176985
 20
1368.839043738881
 30
0.0
 11
905.7819348175753
 21
1368.840483866589
 31
0.0
  0
LINE
  5
530
330
23
100
AcDbEntity
  8
SANINDUSA
100
AcDbLine
 10
905.7341239369023
 20
1368.890954455845
 30
0.0
 11
905.781412175259
 21
1368.890954455845
 31
0.0
  0
LINE
  5
531
330
23
100
AcDbEntity
  8
SANINDUSA
100
AcDbLine
 10
905.6725864282197
 20
1368.490954455845
 30
0.0
 11
905.6669904785454
 21
1368.70465515221
 31
0.0
  0
LINE
  5
532
330
23
100
AcDbEntity
  8
SANINDUSA
100
AcDbLine
 10
905.701412175259
 20
1368.526950792501
 30
0.0
 11
905.6866497114546
 21
1368.52850308063
 31
0.0
  0
ARC
  5
533
330
23
100
AcDbEntity
  8
SANINDUSA
100
AcDbCircle
 10
905.6882183752916
 20
1368.543420831592
 30
0.0
 40
0.015
100
AcDbArc
 50
243.6818607134557
 51
263.9968119085519
  0
LINE
  5
534
330
23
100
AcDbEntity
  8
SANINDUSA
100
AcDbLine
 10
905.701412175259
 20
1368.500954455845
 30
0.0
 11
905.701412175259
 21
1368.526950792501
 31
0.0
  0
LINE
  5
535
330
23
100
AcDbEntity
  8
SANINDUSA
100
AcDbLine
 10
905.682327996929
 20
1368.500954455845
 30
0.0
 11
905.6815680504797
 21
1368.529975639891
 31
0.0
  0
LINE
  5
536
330
23
100
AcDbEntity
  8
SANINDUSA
100
AcDbLine
 10
905.682327996929
 20
1368.500954455845
 30
0.0
 11
905.701412175259
 21
1368.500954455845
 31
0.0
  0
LINE
  5
537
330
23
100
AcDbEntity
  8
SANINDUSA
100
AcDbLine
 10
905.6725864282197
 20
1368.490954455845
 30
0.0
 11
905.711412175259
 21
1368.490954455845
 31
0.0
  0
ARC
  5
538
330
23
100
AcDbEntity
  8
SANINDUSA
100
AcDbCircle
 10
905.781412175259
 20
1368.885954455845
 30
0.0
 40
0.005
100
AcDbArc
 50
0.0
 51
90.0
  0
LINE
  5
53A
330
23
100
AcDbEntity
  8
SANINDUSA
100
AcDbLine
 10
905.727440872233
 20
1368.84091205712
 30
0.0
 11
905.3813843350329
 21
1368.840897636411
 31
0.0
  0
LWPOLYLINE
  5
53B
330
23
100
AcDbEntity
  8
SANINDUSA
100
AcDbPolyline
 90
        2
 70
   128
 43
0.0
 10
905.737021617868
 20
1368.85042000441
 10
905.7380347245759
 20
1368.850359814781
  0
LINE
  5
53C
330
23
100
AcDbEntity
  8
SANINDUSA
100
AcDbLine
 10
905.7374381373923
 20
1368.840318110128
 30
0.0
 11
905.7380347245759
 21
1368.850359814781
 31
0.0
  0
LINE
  5
53E
330
23
100
AcDbEntity
  8
SANINDUSA
100
AcDbLine
 10
905.737021617868
 20
1368.85042000441
 30
0.0
 11
905.738821726671
 21
1368.880719282438
 31
0.0
  0
LWPOLYLINE
  5
540
330
23
100
AcDbEntity
  8
SANINDUSA
100
AcDbPolyline
 90
        4
 70
   128
 43
0.0
 10
905.7530083219948
 20
1368.849470219178
 10
905.7641717230655
 20
1368.848806990947
 42
0.0410382521989228
 10
905.7658100714339
 20
1368.848844170273
 10
905.7761883073748
 20
1368.849934966825
  0
LINE
  5
541
330
23
100
AcDbEntity
  8
SANINDUSA
100
AcDbLine
 10
905.7524117348112
 20
1368.839428514525
 30
0.0
 11
905.7530083219948
 21
1368.849470219178
 31
0.0
  0
LINE
  5
542
330
23
100
AcDbEntity
  8
SANINDUSA
100
AcDbLine
 10
905.776162175259
 20
1368.880954455845
 30
0.0
 11
905.7390712866279
 21
1368.880954455845
 31
0.0
  0
ARC
  5
543
330
23
100
AcDbEntity
  8
SANINDUSA
100
AcDbCircle
 10
905.7390712866279
 20
1368.880704455845
 30
0.0
 40
0.00025
100
AcDbArc
 50
90.0
 51
176.60000000514
  0
ARC
  5
544
330
23
100
AcDbEntity
  8
SANINDUSA
100
AcDbCircle
 10
905.776162175259
 20
1368.880704455845
 30
0.0
 40
0.00025
100
AcDbArc
 50
0.0
 51
90.0
  0
ARC
  5
545
330
23
100
AcDbEntity
  8
SANINDUSA
100
AcDbCircle
 10
905.776162175259
 20
1368.850183597299
 30
0.0
 40
0.00025
100
AcDbArc
 50
275.9999999977903
 51
0.0
  0
LINE
  5
546
330
23
100
AcDbEntity
  8
SANINDUSA
100
AcDbLine
 10
905.776412175259
 20
1368.850183597299
 30
0.0
 11
905.776412175259
 21
1368.880704455845
 31
0.0
  0
ARC
  5
547
330
23
100
AcDbEntity
  8
SANINDUSA
100
AcDbCircle
 10
905.7341239369023
 20
1368.885954455845
 30
0.0
 40
0.005
100
AcDbArc
 50
90.0
 51
176.60000000514
  0
LINE
  5
551
330
23
100
AcDbEntity
  8
SANINDUSA
100
AcDbLine
 10
905.3552034868625
 20
1368.849359840184
 30
0.0
 11
905.3701770842813
 21
1368.850249435787
 31
0.0
  0
LINE
  5
552
330
23
100
AcDbEntity
  8
SANINDUSA
100
AcDbLine
 10
905.3557965505982
 20
1368.839377441904
 30
0.0
 11
905.3707701480171
 21
1368.840267037508
 31
0.0
  0
LINE
  5
553
330
23
100
AcDbEntity
  8
SANINDUSA
100
AcDbLine
 10
905.3707701480171
 20
1368.840267037508
 30
0.0
 11
905.3813843350329
 21
1368.840897636411
 31
0.0
  0
ARC
  5
554
330
23
100
AcDbEntity
  8
SANINDUSA
100
AcDbCircle
 10
905.3813250286593
 20
1368.841895876239
 30
0.0
 40
0.001
100
AcDbArc
 50
273.4000000017486
 51
3.399999994859978
  0
LINE
  5
555
330
23
100
AcDbEntity
  8
SANINDUSA
100
AcDbLine
 10
905.3701770842813
 20
1368.850249435787
 30
0.0
 11
905.3707701480171
 21
1368.840267037508
 31
0.0
  0
LINE
  5
556
330
23
100
AcDbEntity
  8
SANINDUSA
100
AcDbLine
 10
905.3701770842813
 20
1368.850249435787
 30
0.0
 11
905.3718071128459
 21
1368.850346277328
 31
0.0
  0
LINE
  5
557
330
23
100
AcDbEntity
  8
SANINDUSA
100
AcDbLine
 10
905.3701074738663
 20
1368.878954455845
 30
0.0
 11
905.3718071128459
 21
1368.850346277328
 31
0.0
  0
ARC
  5
558
330
23
100
AcDbEntity
  8
SANINDUSA
100
AcDbCircle
 10
905.3747004136155
 20
1368.885954455845
 30
0.0
 40
0.005
100
AcDbArc
 50
3.399999994859978
 51
90.0
  0
LINE
  5
559
330
23
100
AcDbEntity
  8
SANINDUSA
100
AcDbLine
 10
905.3552034868625
 20
1368.849359840184
 30
0.0
 11
905.3557965505982
 21
1368.839377441904
 31
0.0
  0
LINE
  5
55A
330
23
100
AcDbEntity
  8
SANINDUSA
100
AcDbLine
 10
905.3553003606115
 20
1368.839347962788
 30
0.0
 11
905.3557965505982
 21
1368.839377441904
 31
0.0
  0
LINE
  5
55B
330
23
100
AcDbEntity
  8
SANINDUSA
100
AcDbLine
 10
905.3796916127552
 20
1368.886250987713
 30
0.0
 11
905.3823232684873
 21
1368.841955182612
 31
0.0
  0
LINE
  5
55C
330
23
100
AcDbEntity
  8
SANINDUSA
100
AcDbLine
 10
905.3552034868625
 20
1368.849359840184
 30
0.0
 11
905.3442213763354
 21
1368.850878820635
 31
0.0
  0
ARC
  5
55D
330
23
100
AcDbEntity
  8
SANINDUSA
100
AcDbCircle
 10
905.3428512790231
 20
1368.840973123619
 30
0.0
 40
0.01
100
AcDbArc
 50
82.12515099130163
 51
88.44467897873098
  0
ARC
  5
55E
330
23
100
AcDbEntity
  8
SANINDUSA
100
AcDbCircle
 10
904.7250423706852
 20
1368.551854316737
 30
0.0
 40
0.7801605001700374
100
AcDbArc
 50
1.402873788153013
 51
7.257988810304336
  0
ARC
  5
55F
330
23
100
AcDbEntity
  8
SANINDUSA
100
AcDbCircle
 10
904.7250423706852
 20
1368.551854316737
 30
0.0
 40
0.7901605001700374
100
AcDbArc
 50
1.3851160177852
 51
7.257988810304336
  0
LINE
  5
560
330
23
100
AcDbEntity
  8
SANINDUSA
100
AcDbLine
 10
905.5049690279496
 20
1368.570954455845
 30
0.0
 11
905.5149719882557
 21
1368.570954455845
 31
0.0
  0
ARC
  5
561
330
23
100
AcDbEntity
  8
SANINDUSA
100
AcDbCircle
 10
905.4295125990522
 20
1368.641574065657
 30
0.0
 40
0.08
100
AcDbArc
 50
7.257988810304336
 51
69.19008174909982
  0
ARC
  5
562
330
23
100
AcDbEntity
  8
SANINDUSA
100
AcDbCircle
 10
905.4295125990522
 20
1368.641574065657
 30
0.0
 40
0.07
100
AcDbArc
 50
7.257988810304336
 51
69.19008174909982
  0
ARC
  5
563
330
23
100
AcDbEntity
  8
SANINDUSA
100
AcDbCircle
 10
905.5179459449744
 20
1368.876780026589
 30
0.0
 40
0.1712820657056132
100
AcDbArc
 50
206.4679399141202
 51
249.4901430571925
  0
ARC
  5
564
330
23
100
AcDbEntity
  8
SANINDUSA
100
AcDbCircle
 10
905.52182800908
 20
1368.884469428706
 30
0.0
 40
0.1898466707870334
100
AcDbArc
 50
244.4111118688323
 51
249.1900817490998
  0
LINE
  5
565
330
23
100
AcDbEntity
  8
SANINDUSA
100
AcDbLine
 10
905.388078239277
 20
1368.726633393166
 30
0.0
 11
905.3930041335274
 21
1368.733937297621
 31
0.0
  0
ARC
  5
566
330
23
100
AcDbEntity
  8
SANINDUSA
100
AcDbCircle
 10
905.454135387877
 20
1368.845009825234
 30
0.0
 40
0.1
100
AcDbArc
 50
183.8574159019261
 51
206.4679399141202
  0
ARC
  5
567
330
23
100
AcDbEntity
  8
SANINDUSA
100
AcDbCircle
 10
905.454135387877
 20
1368.845009825234
 30
0.0
 40
0.11
100
AcDbArc
 50
184.3339494952287
 51
206.4679399141202
  0
ARC
  5
568
330
23
100
AcDbEntity
  8
SANINDUSA
100
AcDbCircle
 10
905.5179459449744
 20
1368.876780026589
 30
0.0
 40
0.1812820657056132
100
AcDbArc
 50
206.4679399141202
 51
225.8512230931961
  0
ARC
  5
569
330
23
100
AcDbEntity
  8
SANINDUSA
100
AcDbCircle
 10
905.384713414975
 20
1368.73952871836
 30
0.0
 40
0.01
100
AcDbArc
 50
326.0035128125472
 51
45.85122309319607
  0
ARC
  5
56A
330
23
100
AcDbEntity
  8
SANINDUSA
100
AcDbCircle
 10
905.3394642267775
 20
1368.836319323975
 30
0.0
 40
0.005
100
AcDbArc
 50
4.333949495228694
 51
88.53287790233224
  0
ARC
  5
56B
330
23
100
AcDbEntity
  8
SANINDUSA
100
AcDbCircle
 10
905.3553596669852
 20
1368.83834972296
 30
0.0
 40
0.001
100
AcDbArc
 50
93.40000000174859
 51
183.8574159019261
  0
LINE
  5
56E
330
23
100
AcDbEntity
  8
SANINDUSA
100
AcDbLine
 10
905.108416662339
 20
1368.910954046642
 30
0.0
 11
905.1084121752589
 21
1368.922954455845
 31
0.0
  0
LINE
  5
56F
330
23
100
AcDbEntity
  8
SANINDUSA
100
AcDbLine
 10
905.225398445763
 20
1368.538869841968
 30
0.0
 11
905.2175153780082
 21
1368.538869841968
 31
0.0
  0
LWPOLYLINE
  5
572
330
23
100
AcDbEntity
  8
SANINDUSA
100
AcDbPolyline
 90
        4
 70
   128
 43
0.0
 10
905.7291327377628
 20
1368.886250987713
 10
905.7265019387786
 20
1368.841969603321
 42
0.4142135623731347
 10
905.727440872233
 20
1368.84091205712
 10
905.7374381373923
 20
1368.840318110128
  0
LWPOLYLINE
  5
573
330
23
100
AcDbEntity
  8
SANINDUSA
100
AcDbPolyline
 90
       15
 70
   128
 43
0.0
 10
905.7524117348112
 20
1368.839428514525
 10
905.7529233331443
 20
1368.839398119983
 42
-0.4402108907384906
 10
905.7538532008017
 20
1368.83825313297
 10
905.7520573488877
 20
1368.826147891766
 10
905.75000170573
 20
1368.813453067148
 10
905.7474441478644
 20
1368.80145825118
 10
905.7450112777328
 20
1368.793116937315
 10
905.7419195236601
 20
1368.785122552641
 10
905.7381105746625
 20
1368.777414136639
 10
905.7335993644919
 20
1368.769978502639
 10
905.7284216716798
 20
1368.762851713813
 10
905.7226161071268
 20
1368.756072258902
 10
905.7162170162042
 20
1368.749672738628
 10
905.7093015592659
 20
1368.743704421185
 10
905.6992495126797
 20
1368.736278520552
  0
LINE
  5
575
330
23
100
AcDbEntity
  8
SANINDUSA
100
AcDbLine
 10
905.7374381373923
 20
1368.840318110128
 30
0.0
 11
905.7524117348112
 21
1368.839428514525
 31
0.0
  0
ARC
  5
577
330
23
100
AcDbEntity
  8
SANINDUSA
100
AcDbCircle
 10
905.6442462009854
 20
1368.678907621116
 30
0.0
 40
0.03
100
AcDbArc
 50
106.6736624547004
 51
170.2970805539261
  0
LINE
  5
578
330
23
100
AcDbEntity
  8
SANINDUSA
100
AcDbLine
 10
905.6146753545073
 20
1368.683963809261
 30
0.0
 11
905.5978062165042
 21
1368.585312118722
 31
0.0
  0
LINE
  5
579
330
23
100
AcDbEntity
  8
SANINDUSA
100
AcDbLine
 10
905.6245323033333
 20
1368.682278413213
 30
0.0
 11
905.6077394570946
 21
1368.58406634836
 31
0.0
  0
ARC
  5
57B
330
23
100
AcDbEntity
  8
SANINDUSA
100
AcDbCircle
 10
905.509169968834
 20
1368.600920308845
 30
0.0
 40
0.09
100
AcDbArc
 50
274.7362821348185
 51
350.0130228492491
  0
ARC
  5
57C
330
23
100
AcDbEntity
  8
SANINDUSA
100
AcDbCircle
 10
905.509169968834
 20
1368.600920308845
 30
0.0
 40
0.1
100
AcDbArc
 50
274.7362821348185
 51
350.2970805539261
  0
ARC
  5
580
330
23
100
AcDbEntity
  8
SANINDUSA
100
AcDbCircle
 10
905.5099956648893
 20
1368.590954455845
 30
0.0
 40
0.08
100
AcDbArc
 50
196.0263690350435
 51
274.7362821348185
  0
ARC
  5
581
330
23
100
AcDbEntity
  8
SANINDUSA
100
AcDbCircle
 10
905.5099956648893
 20
1368.590954455845
 30
0.0
 40
0.09
100
AcDbArc
 50
196.0263690350435
 51
274.7362821348185
  0
LINE
  5
585
330
23
100
AcDbEntity
  8
SANINDUSA
100
AcDbLine
 10
905.4234935384229
 20
1368.566107280617
 30
0.0
 11
905.4103409202607
 21
1368.611896366466
 31
0.0
  0
LINE
  5
586
330
23
100
AcDbEntity
  8
SANINDUSA
100
AcDbLine
 10
905.4331048858081
 20
1368.568868077864
 30
0.0
 11
905.419952818889
 21
1368.614655244634
 31
0.0
  0
LINE
  5
58A
330
23
100
AcDbEntity
  8
SANINDUSA
100
AcDbLine
 10
905.3314581738876
 20
1368.620952932564
 30
0.0
 11
905.3314581738876
 21
1368.630954455845
 31
0.0
  0
ARC
  5
591
330
23
100
AcDbEntity
  8
SANINDUSA
100
AcDbCircle
 10
905.5596047417973
 20
1368.961504194673
 30
0.0
 40
0.265
100
AcDbArc
 50
286.6736624547004
 51
301.8111724532743
  0
ARC
  5
592
330
23
100
AcDbEntity
  8
SANINDUSA
100
AcDbCircle
 10
905.5596047417973
 20
1368.961504194673
 30
0.0
 40
0.275
100
AcDbArc
 50
286.6736624547004
 51
292.2079781523938
  0
ARC
  5
593
330
23
100
AcDbEntity
  8
SANINDUSA
100
AcDbCircle
 10
905.6442462009854
 20
1368.678907621116
 30
0.0
 40
0.02
100
AcDbArc
 50
106.6736624547004
 51
170.2970805539261
  0
ARC
  5
594
330
23
100
AcDbEntity
  8
SANINDUSA
100
AcDbCircle
 10
905.6644913352331
 20
1368.704589709839
 30
0.0
 40
0.0025
100
AcDbArc
 50
1.499999997666362
 51
112.2079781523938
  0
LINE
  5
5D2
330
23
100
AcDbEntity
  8
SANINDUSA
100
AcDbLine
 10
905.3314581738876
 20
1368.710954455845
 30
0.0
 11
905.3314581738876
 21
1368.630954455845
 31
0.0
  0
LINE
  5
5D3
330
23
100
AcDbEntity
  8
SANINDUSA
100
AcDbLine
 10
905.6832200886669
 20
1368.543289946851
 30
0.0
 11
905.6789979523346
 21
1368.70452682832
 31
0.0
  0
LINE
  5
5E2
330
23
100
AcDbEntity
  8
SANINDUSA
100
AcDbLine
 10
905.3314581738876
 20
1368.720955837495
 30
0.0
 11
905.3800492902077
 21
1368.722228240656
 31
0.0
  0
ARC
  5
5E3
330
23
100
AcDbEntity
  8
SANINDUSA
100
AcDbCircle
 10
905.3797875207246
 20
1368.732224813905
 30
0.0
 40
0.01
100
AcDbArc
 50
271.4999999978369
 51
326.0035128125472
  0
LINE
  5
5E4
330
23
100
AcDbEntity
  8
SANINDUSA
100
AcDbLine
 10
905.3314581738876
 20
1368.710954455845
 30
0.0
 11
905.4375407349958
 21
1368.71373232547
 31
0.0
  0
ARC
  5
5E5
330
23
100
AcDbEntity
  8
SANINDUSA
100
AcDbCircle
 10
905.4376716197372
 20
1368.708734038845
 30
0.0
 40
0.005
100
AcDbArc
 50
64.41111186883235
 51
91.49999999783688
  0
LINE
  5
5E6
330
23
100
AcDbEntity
  8
SANINDUSA
100
AcDbLine
 10
905.3314581738876
 20
1368.630954455845
 30
0.0
 11
905.4012536630848
 21
1368.629126796639
 31
0.0
  0
LINE
  5
5E7
330
23
100
AcDbEntity
  8
SANINDUSA
100
AcDbLine
 10
905.3314581738876
 20
1368.620952932564
 30
0.0
 11
905.4009913423586
 21
1368.619132142468
 31
0.0
  0
ARC
  5
5E8
330
23
100
AcDbEntity
  8
SANINDUSA
100
AcDbCircle
 10
905.4007301241187
 20
1368.609133650139
 30
0.0
 40
0.02
100
AcDbArc
 50
16.02636903504354
 51
88.50000000216311
  0
ARC
  5
5E9
330
23
100
AcDbEntity
  8
SANINDUSA
100
AcDbCircle
 10
905.4007295728757
 20
1368.609135569219
 30
0.0
 40
0.01
100
AcDbArc
 50
16.02636903504354
 51
88.50000000216311
  0
ARC
  5
5F3
330
23
100
AcDbEntity
  8
SANINDUSA
100
AcDbCircle
 10
903.1480964441188
 20
1368.712820852995
 30
0.0
 40
0.1849999999999999
100
AcDbArc
 50
180.0
 51
0.0
  0
LINE
  5
5F6
330
23
100
AcDbEntity
  8
SANINDUSA
100
AcDbLine
 10
903.3130964441188
 20
1369.065643365647
 30
0.0
 11
902.9830964441188
 21
1369.065643365647
 31
0.0
  0
LINE
  5
5F8
330
23
100
AcDbEntity
  8
SANINDUSA
100
AcDbLine
 10
903.3330964441189
 20
1369.036840090882
 30
0.0
 11
903.3330964441189
 21
1368.712820852995
 31
0.0
  0
ARC
  5
601
330
23
100
AcDbEntity
  8
SANINDUSA
100
AcDbCircle
 10
903.3030964441188
 20
1369.036840090882
 30
0.0
 40
0.0300000000000001
100
AcDbArc
 50
0.0
 51
56.02552405082064
  0
ARC
  5
603
330
23
100
AcDbEntity
  8
SANINDUSA
100
AcDbCircle
 10
903.3220964441188
 20
1369.065035835242
 30
0.0
 40
0.004
100
AcDbArc
 50
180.0
 51
236.0255240508206
  0
LINE
  5
606
330
23
100
AcDbEntity
  8
SANINDUSA
100
AcDbLine
 10
903.3180964441188
 20
1369.065643365647
 30
0.0
 11
903.3180964441188
 21
1369.064663056256
 31
0.0
  0
LINE
  5
610
330
23
100
AcDbEntity
  8
SANINDUSA
100
AcDbLine
 10
902.9630964441189
 20
1368.712820852995
 30
0.0
 11
902.9630964441189
 21
1369.036840090882
 31
0.0
  0
ARC
  5
612
330
23
100
AcDbEntity
  8
SANINDUSA
100
AcDbCircle
 10
902.993096444119
 20
1369.036840090882
 30
0.0
 40
0.03
100
AcDbArc
 50
123.9744759491793
 51
180.0
  0
ARC
  5
61F
330
23
100
AcDbEntity
  8
SANINDUSA
100
AcDbCircle
 10
902.9740964441188
 20
1369.065035835242
 30
0.0
 40
0.004
100
AcDbArc
 50
303.9744759491794
 51
0.0
  0
LINE
  5
622
330
23
100
AcDbEntity
  8
SANINDUSA
100
AcDbLine
 10
902.9780964441188
 20
1369.064663056256
 30
0.0
 11
902.9780964441188
 21
1369.065643365647
 31
0.0
  0
LINE
  5
638
330
23
100
AcDbEntity
  8
SANINDUSA
100
AcDbLine
 10
904.5071260359044
 20
1368.925954455845
 30
0.0
 11
904.8371260359044
 21
1368.925954455845
 31
0.0
  0
LINE
  5
63B
330
23
100
AcDbEntity
  8
SANINDUSA
100
AcDbLine
 10
904.5021260359044
 20
1368.895082898417
 30
0.0
 11
904.5021260359044
 21
1368.922954455845
 31
0.0
  0
LINE
  5
63F
330
23
100
AcDbEntity
  8
SANINDUSA
100
AcDbLine
 10
904.5021260359044
 20
1368.890954455845
 30
0.0
 11
904.5021260359044
 21
1368.895082898417
 31
0.0
  0
ARC
  5
641
330
23
100
AcDbEntity
  8
SANINDUSA
100
AcDbCircle
 10
904.5051260359043
 20
1368.922954455845
 30
0.0
 40
0.0030000000000001
100
AcDbArc
 50
90.0
 51
180.0
  0
LINE
  5
642
330
23
100
AcDbEntity
  8
SANINDUSA
100
AcDbLine
 10
904.5051260359043
 20
1368.925954455845
 30
0.0
 11
904.5071260359044
 21
1368.925954455845
 31
0.0
  0
LINE
  5
644
330
23
100
AcDbEntity
  8
SANINDUSA
100
AcDbLine
 10
904.8421260359043
 20
1368.922954455845
 30
0.0
 11
904.8421260359043
 21
1368.895082898417
 31
0.0
  0
ARC
  5
646
330
23
100
AcDbEntity
  8
SANINDUSA
100
AcDbCircle
 10
904.8521260359043
 20
1368.885954455845
 30
0.0
 40
0.005
100
AcDbArc
 50
0.0
 51
90.0
  0
LINE
  5
648
330
23
100
AcDbEntity
  8
SANINDUSA
100
AcDbLine
 10
904.8421260359043
 20
1368.895082898417
 30
0.0
 11
904.8421260359043
 21
1368.890954455845
 31
0.0
  0
ARC
  5
64B
330
23
100
AcDbEntity
  8
SANINDUSA
100
AcDbCircle
 10
904.8391260359045
 20
1368.922954455845
 30
0.0
 40
0.0030000000000001
100
AcDbArc
 50
0.0
 51
90.0
  0
LINE
  5
64C
330
23
100
AcDbEntity
  8
SANINDUSA
100
AcDbLine
 10
904.8371260359044
 20
1368.925954455845
 30
0.0
 11
904.8391260359045
 21
1368.925954455845
 31
0.0
  0
CIRCLE
  5
660
330
23
100
AcDbEntity
  8
SANINDUSA
100
AcDbCircle
 10
903.9775604158968
 20
1368.550954455845
 30
0.0
 40
0.005
  0
LINE
  5
665
330
23
100
AcDbEntity
  8
SANINDUSA
100
AcDbLine
 10
903.6235630339509
 20
1368.870594183055
 30
0.0
 11
903.6235630339509
 21
1368.922954455845
 31
0.0
  0
LINE
  5
667
330
23
100
AcDbEntity
  8
SANINDUSA
100
AcDbLine
 10
903.7637405212997
 20
1368.923215923073
 30
0.0
 11
903.7661637163305
 21
1368.895518677131
 31
0.0
  0
LWPOLYLINE
  5
66A
330
23
100
AcDbEntity
  8
SANINDUSA
100
AcDbPolyline
 90
        5
 70
   128
 43
0.0
 10
903.6921076299348
 20
1368.839084732205
 10
903.7131615226112
 20
1368.839098822184
 10
903.7342153747061
 20
1368.83911356024
 10
903.7552691817397
 20
1368.839128986055
 10
903.7665936200761
 20
1368.839137582326
  0
LWPOLYLINE
  5
66C
330
23
100
AcDbEntity
  8
SANINDUSA
100
AcDbPolyline
 90
       13
 70
   128
 43
0.0
 10
903.7568571330398
 20
1368.713824166008
 10
903.7477688624731
 20
1368.720355083925
 10
903.7391104267967
 20
1368.727887517827
 10
903.7307068090559
 20
1368.7366287859
 10
903.7228675692691
 20
1368.746305615533
 10
903.7158549058826
 20
1368.75651693717
 10
903.7094635513618
 20
1368.767470308658
 10
903.7035832615012
 20
1368.779432129867
 10
903.6984416234325
 20
1368.792015599101
 10
903.6947110999067
 20
1368.803035658022
 10
903.6915484539674
 20
1368.814378447902
 10
903.6891738391537
 20
1368.824954451559
 10
903.6878549974002
 20
1368.832162914832
  0
LINE
  5
66D
330
23
100
AcDbEntity
  8
SANINDUSA
100
AcDbLine
 10
903.7326662367
 20
1368.538869841968
 30
0.0
 11
903.7615513649519
 21
1368.538869841968
 31
0.0
  0
LINE
  5
66E
330
23
100
AcDbEntity
  8
SANINDUSA
100
AcDbLine
 10
903.7615538326313
 20
1368.490954455845
 30
0.0
 11
903.7265407438024
 21
1368.490954455845
 31
0.0
  0
LINE
  5
670
330
23
100
AcDbEntity
  8
SANINDUSA
100
AcDbLine
 10
904.1165630339509
 20
1368.840483866589
 30
0.0
 11
903.6535630339509
 21
1368.840483866589
 31
0.0
  0
ARC
  5
672
330
23
100
AcDbEntity
  8
SANINDUSA
100
AcDbCircle
 10
903.7326662367
 20
1368.533869841968
 30
0.0
 40
0.0050000000000001
100
AcDbArc
 50
90.0
 51
178.5000000023336
  0
LINE
  5
673
330
23
100
AcDbEntity
  8
SANINDUSA
100
AcDbLine
 10
903.7276679500751
 20
1368.53400072671
 30
0.0
 11
903.7265407438024
 21
1368.490954455845
 31
0.0
  0
LINE
  5
674
330
23
100
AcDbEntity
  8
SANINDUSA
100
AcDbLine
 10
903.6535630339509
 20
1368.834653679833
 30
0.0
 11
903.6848957496095
 21
1368.834653679833
 31
0.0
  0
LINE
  5
678
330
23
100
AcDbEntity
  8
SANINDUSA
100
AcDbLine
 10
903.6235630339509
 20
1368.864648201729
 30
0.0
 11
903.6235630339509
 21
1368.870594183055
 31
0.0
  0
LWPOLYLINE
  5
67A
330
23
100
AcDbEntity
  8
SANINDUSA
100
AcDbPolyline
 90
       15
 70
   128
 43
0.0
 10
903.6235630339509
 20
1368.864648201729
 10
903.6237516676541
 20
1368.861289880799
 10
903.6243151965855
 20
1368.857973792703
 10
903.6252465340417
 20
1368.854741639174
 10
903.6265339679138
 20
1368.851634066416
 10
903.628161307974
 20
1368.848690153961
 10
903.6301080894769
 20
1368.845946923215
 10
903.6323498305153
 20
1368.843438871898
 10
903.6348583398952
 20
1368.841197540209
 10
903.6376020716554
 20
1368.839251114196
 10
903.6405465217773
 20
1368.837624071294
 10
903.6436546620922
 20
1368.836336872511
 10
903.6468874059321
 20
1368.835405705121
 10
903.6502040996678
 20
1368.834842279091
 10
903.6535630339509
 20
1368.834653679833
  0
LWPOLYLINE
  5
67B
330
23
100
AcDbEntity
  8
SANINDUSA
100
AcDbPolyline
 90
       15
 70
   128
 43
0.0
 10
903.6535630339509
 20
1368.840483866589
 10
903.6502040996678
 20
1368.840673193939
 10
903.6468874059321
 20
1368.841238795088
 10
903.6436546620922
 20
1368.842173557273
 10
903.6405465217773
 20
1368.843465725317
 10
903.6376020716554
 20
1368.845099049457
 10
903.6348583398952
 20
1368.847052989695
 10
903.6323498305153
 20
1368.849302974099
 10
903.6301080894769
 20
1368.851820707808
 10
903.628161307974
 20
1368.854574528861
 10
903.6265339679138
 20
1368.857529806361
 10
903.6252465340417
 20
1368.860649375978
 10
903.6243151965855
 20
1368.863894007314
 10
903.6237516676541
 20
1368.867222897247
 10
903.6235630339509
 20
1368.870594183055
  0
LWPOLYLINE
  5
67E
330
23
100
AcDbEntity
  8
SANINDUSA
100
AcDbPolyline
 90
        9
 70
   128
 43
0.0
 10
903.6878549974002
 20
1368.832162914832
 10
903.6877236460155
 20
1368.832670069533
 10
903.6875050851925
 20
1368.833146386631
 10
903.6872060551241
 20
1368.833577176992
 10
903.6868357775919
 20
1368.833949155483
 10
903.6864056715772
 20
1368.834250850665
 10
903.6859290011106
 20
1368.834472958567
 10
903.6854204662224
 20
1368.834608629609
 10
903.6848957496095
 20
1368.834653679833
  0
LINE
  5
682
330
23
100
AcDbEntity
  8
SANINDUSA
100
AcDbLine
 10
903.6848957496095
 20
1368.834653679833
 30
0.0
 11
903.6843265291743
 21
1368.838242762527
 31
0.0
  0
LWPOLYLINE
  5
683
330
23
100
AcDbEntity
  8
SANINDUSA
100
AcDbPolyline
 90
        6
 70
   128
 43
0.0
 10
903.6843265291743
 20
1368.838242762527
 10
903.6845265891995
 20
1368.838445161023
 10
903.6855116964654
 20
1368.838698104654
 10
903.6872264877596
 20
1368.838902621244
 10
903.6895187469861
 20
1368.839037339919
 10
903.6921076299348
 20
1368.839084732205
  0
LINE
  5
684
330
23
100
AcDbEntity
  8
SANINDUSA
100
AcDbLine
 10
904.1983709473587
 20
1368.543289946851
 30
0.0
 11
904.1941488110266
 21
1368.70452682832
 31
0.0
  0
LWPOLYLINE
  5
687
330
23
100
AcDbEntity
  8
SANINDUSA
100
AcDbPolyline
 90
        4
 70
   128
 43
0.0
 10
903.7615456421573
 20
1368.543158033887
 10
903.7615772715097
 20
1368.599724183186
 10
903.7615686552333
 20
1368.656285567306
 10
903.761543847278
 20
1368.705194539689
  0
LINE
  5
689
330
23
100
AcDbEntity
  8
SANINDUSA
100
AcDbLine
 10
904.1096209843001
 20
1368.538448026894
 30
0.0
 11
903.7668118928017
 21
1368.538448026894
 31
0.0
  0
LINE
  5
68A
330
23
100
AcDbEntity
  8
SANINDUSA
100
AcDbLine
 10
903.7891352993851
 20
1368.536425187784
 30
0.0
 11
904.1106282412014
 21
1368.536425192615
 31
0.0
  0
LINE
  5
68B
330
23
100
AcDbEntity
  8
SANINDUSA
100
AcDbLine
 10
903.7892606833414
 20
1368.490954455845
 30
0.0
 11
904.1108626414514
 21
1368.490954455845
 31
0.0
  0
LWPOLYLINE
  5
68D
330
23
100
AcDbEntity
  8
SANINDUSA
100
AcDbPolyline
 90
       10
 70
   128
 43
0.0
 10
903.7668118928017
 20
1368.538448026894
 10
903.7672574453443
 20
1368.538218636966
 10
903.7684834344991
 20
1368.537848215698
 10
903.7702750154389
 20
1368.537502608356
 10
903.7725771813915
 20
1368.53719352523
 10
903.7753278119661
 20
1368.536927326957
 10
903.7784482836332
 20
1368.53671273981
 10
903.7818530781059
 20
1368.536554486919
 10
903.7854502112919
 20
1368.536457981988
 10
903.7891352993851
 20
1368.536425187784
  0
LWPOLYLINE
  5
692
330
23
100
AcDbEntity
  8
SANINDUSA
100
AcDbPolyline
 90
        5
 70
   128
 43
0.0
 10
903.7615440745152
 20
1368.534437748469
 10
903.7615444283114
 20
1368.534804232168
 10
903.7615455287305
 20
1368.536970639063
 10
903.7615458723191
 20
1368.539863781953
 10
903.7615456421573
 20
1368.543158033887
  0
LWPOLYLINE
  5
695
330
23
100
AcDbEntity
  8
SANINDUSA
100
AcDbPolyline
 90
        3
 70
   128
 43
0.0
 10
903.7615538326313
 20
1368.490954455845
 10
903.7615589899244
 20
1368.513426069671
 10
903.7615440745152
 20
1368.534437748469
  0
LWPOLYLINE
  5
698
330
23
100
AcDbEntity
  8
SANINDUSA
100
AcDbPolyline
 90
        9
 70
   128
 43
0.0
 10
903.7618558504428
 20
1368.533472747649
 10
903.7619639949513
 20
1368.534435311424
 10
903.7622549596916
 20
1368.535361574632
 10
903.7627177409593
 20
1368.53621650785
 10
903.7633348372921
 20
1368.536967779214
 10
903.764082911341
 20
1368.537586977143
 10
903.7649336724411
 20
1368.538050684809
 10
903.765854946509
 20
1368.538341365717
 10
903.7668118928017
 20
1368.538448026894
  0
LINE
  5
69A
330
23
100
AcDbEntity
  8
SANINDUSA
100
AcDbLine
 10
903.7892606833414
 20
1368.490954455845
 30
0.0
 11
903.7615538326313
 21
1368.490954455845
 31
0.0
  0
ARC
  5
69B
330
23
100
AcDbEntity
  8
SANINDUSA
100
AcDbCircle
 10
904.2215630339509
 20
1368.531452603255
 30
0.0
 40
0.0050000000000001
100
AcDbArc
 50
0.0
 51
83.99779512870896
  0
LINE
  5
69C
330
23
100
AcDbEntity
  8
SANINDUSA
100
AcDbLine
 10
904.1108626414514
 20
1368.490954455845
 30
0.0
 11
904.2265630339509
 21
1368.490954455845
 31
0.0
  0
LINE
  5
69E
330
23
100
AcDbEntity
  8
SANINDUSA
100
AcDbLine
 10
904.1106282412014
 20
1368.536425192615
 30
0.0
 11
904.2220858676239
 21
1368.536425192615
 31
0.0
  0
LINE
  5
6A0
330
23
100
AcDbEntity
  8
SANINDUSA
100
AcDbLine
 10
904.202846314841
 20
1368.538448251204
 30
0.0
 11
904.1102418101248
 21
1368.538448251204
 31
0.0
  0
LINE
  5
6A5
330
23
100
AcDbEntity
  8
SANINDUSA
100
AcDbLine
 10
904.1102418101248
 20
1368.538448251204
 30
0.0
 11
904.1096209796775
 21
1368.538448036178
 31
0.0
  0
LINE
  5
6AA
330
23
100
AcDbEntity
  8
SANINDUSA
100
AcDbLine
 10
904.2220859451767
 20
1368.53642518446
 30
0.0
 11
904.2028463149787
 21
1368.538448251204
 31
0.0
  0
ARC
  5
6AB
330
23
100
AcDbEntity
  8
SANINDUSA
100
AcDbCircle
 10
904.2033692339837
 20
1368.543420831592
 30
0.0
 40
0.005
100
AcDbArc
 50
181.4999999976663
 51
263.9968119085519
  0
LINE
  5
6AC
330
23
100
AcDbEntity
  8
SANINDUSA
100
AcDbLine
 10
904.2265630339509
 20
1368.490954455845
 30
0.0
 11
904.2265630339509
 21
1368.531452603255
 31
0.0
  0
LWPOLYLINE
  5
6AE
330
23
100
AcDbEntity
  8
SANINDUSA
100
AcDbPolyline
 90
        5
 70
   128
 43
0.0
 10
903.7665936200761
 20
1368.839137582326
 10
903.8459671668311
 20
1368.839128795213
 10
903.8956630361738
 20
1368.839124762865
 10
904.0215123575165
 20
1368.839115589347
 10
904.1163568800355
 20
1368.839105694302
  0
LINE
  5
6AF
330
23
100
AcDbEntity
  8
SANINDUSA
100
AcDbLine
 10
903.771144689821
 20
1368.890954455845
 30
0.0
 11
904.1165630339509
 21
1368.890954455845
 31
0.0
  0
LWPOLYLINE
  5
6B1
330
23
100
AcDbEntity
  8
SANINDUSA
100
AcDbPolyline
 90
        6
 70
   128
 43
0.0
 10
904.1100140090144
 20
1368.704890860089
 10
904.1100138864814
 20
1368.70489086013
 10
904.0231738389582
 20
1368.704949064168
 10
903.9532892566111
 20
1368.705021586372
 10
903.8342411388573
 20
1368.705136956399
 10
903.7944250979499
 20
1368.705158083106
  0
LWPOLYLINE
  5
6B2
330
23
100
AcDbEntity
  8
SANINDUSA
100
AcDbPolyline
 90
        7
 70
   128
 43
0.0
 10
903.7945743050409
 20
1368.713854037322
 10
903.7945743650212
 20
1368.713854037323
 10
903.8343689416659
 20
1368.713852695885
 10
903.9534247490477
 20
1368.713834626506
 10
904.0724729834247
 20
1368.713812775133
 10
904.1102914421795
 20
1368.713809644967
 10
904.1102915021596
 20
1368.713809644965
  0
LWPOLYLINE
  5
6B4
330
23
100
AcDbEntity
  8
SANINDUSA
100
AcDbPolyline
 90
        5
 70
   128
 43
0.0
 10
903.7944250979499
 20
1368.705158083106
 10
903.7894840986526
 20
1368.70518595919
 10
903.7790479097653
 20
1368.705248232231
 10
903.7680275924188
 20
1368.705319454021
 10
903.7666746840601
 20
1368.7053286151
  0
LWPOLYLINE
  5
6BA
330
23
100
AcDbEntity
  8
SANINDUSA
100
AcDbPolyline
 90
        6
 70
   128
 43
0.0
 10
903.7615418518329
 20
1368.708116539632
 10
903.761497107035
 20
1368.708779613509
 10
903.7613715364654
 20
1368.709405927966
 10
903.7613041684721
 20
1368.709635265983
 10
903.7609992459444
 20
1368.710377257676
 10
903.7606077756494
 20
1368.71102205329
  0
LWPOLYLINE
  5
6BB
330
23
100
AcDbEntity
  8
SANINDUSA
100
AcDbPolyline
 90
        4
 70
   128
 43
0.0
 10
903.7606077756494
 20
1368.71102205329
 10
903.7599174072175
 20
1368.711800953195
 10
903.7593235734599
 20
1368.712267567454
 10
903.7591533970337
 20
1368.712376731618
  0
LINE
  5
6BF
330
23
100
AcDbEntity
  8
SANINDUSA
100
AcDbLine
 10
903.7589992894215
 20
1368.712471438726
 30
0.0
 11
903.7568571330398
 21
1368.713824166008
 31
0.0
  0
LWPOLYLINE
  5
6C3
330
23
100
AcDbEntity
  8
SANINDUSA
100
AcDbPolyline
 90
        3
 70
   128
 43
0.0
 10
903.761543847278
 20
1368.705194539689
 10
903.7615423983101
 20
1368.707355377309
 10
903.7615418518329
 20
1368.708116539632
  0
LINE
  5
6C4
330
23
100
AcDbEntity
  8
SANINDUSA
100
AcDbLine
 10
903.7596184066067
 20
1368.713894433416
 30
0.0
 11
903.7617167105002
 21
1368.7138924163
 31
0.0
  0
LWPOLYLINE
  5
6C5
330
23
100
AcDbEntity
  8
SANINDUSA
100
AcDbPolyline
 90
        9
 70
   128
 43
0.0
 10
903.7568571330398
 20
1368.713824166008
 10
903.757138294264
 20
1368.713672732157
 10
903.7574445394794
 20
1368.713566066848
 10
903.7577727157795
 20
1368.71350526824
 10
903.7581194444697
 20
1368.713490962276
 10
903.7584811558515
 20
1368.713523296243
 10
903.7588541259738
 20
1368.713601937249
 10
903.7592345149734
 20
1368.713726075656
 10
903.7596184066067
 20
1368.713894433416
  0
LWPOLYLINE
  5
6C6
330
23
100
AcDbEntity
  8
SANINDUSA
100
AcDbPolyline
 90
        5
 70
   128
 43
0.0
 10
903.7617167105002
 20
1368.7138924163
 10
903.7682003605366
 20
1368.713886265211
 10
903.7792189146008
 20
1368.713876074556
 10
903.7896536495155
 20
1368.713866703892
 10
903.7945688499732
 20
1368.71386237868
  0
LWPOLYLINE
  5
6C9
330
23
100
AcDbEntity
  8
SANINDUSA
100
AcDbPolyline
 90
        9
 70
   128
 43
0.0
 10
903.761543847278
 20
1368.705194539689
 10
903.7616423300983
 20
1368.705220564583
 10
903.7619357094506
 20
1368.70524568153
 10
903.7624123198336
 20
1368.705268891818
 10
903.7630532100193
 20
1368.705289272547
 10
903.7638328966016
 20
1368.705306013329
 10
903.7647203772801
 20
1368.705318448507
 10
903.7656803635899
 20
1368.705326083628
 10
903.7666746840601
 20
1368.7053286151
  0
ARC
  5
6CB
330
23
100
AcDbEntity
  8
SANINDUSA
100
AcDbCircle
 10
903.771144689821
 20
1368.895954455845
 30
0.0
 40
0.005
100
AcDbArc
 50
184.9999999957234
 51
270.0
  0
LWPOLYLINE
  5
6D1
330
23
100
AcDbEntity
  8
SANINDUSA
100
AcDbPolyline
 90
       15
 70
   128
 43
0.0
 10
904.1996292867754
 20
1368.713710753563
 10
904.2099084547283
 20
1368.7192884465
 10
904.2211658035517
 20
1368.72635709444
 10
904.2319484798017
 20
1368.734322744192
 10
904.2395418350643
 20
1368.74087611515
 10
904.2465802045382
 20
1368.747914956868
 10
904.2529990612228
 20
1368.755410584395
 10
904.2587513266608
 20
1368.763328238558
 10
904.2637899327356
 20
1368.771633156579
 10
904.2680678113311
 20
1368.780290575684
 10
904.2715388666604
 20
1368.789265724054
 10
904.2742389108481
 20
1368.798523068178
 10
904.2769507448239
 20
1368.811241431237
 10
904.2790666248162
 20
1368.824308254295
 10
904.2808740234042
 20
1368.836522884089
  0
LWPOLYLINE
  5
6D3
330
23
100
AcDbEntity
  8
SANINDUSA
100
AcDbPolyline
 90
       20
 70
   128
 43
0.0
 10
904.1941488110266
 20
1368.70452682832
 10
904.1940482373536
 20
1368.704532022952
 10
904.1936938519867
 20
1368.704549254426
 10
904.1923648507159
 20
1368.704606937725
 10
904.1904295455989
 20
1368.704679076794
 10
904.1877967851991
 20
1368.704761496797
 10
904.1859107907125
 20
1368.704811692917
 10
904.1818066240042
 20
1368.704900216932
 10
904.1774623283455
 20
1368.7049684779
 10
904.1725170384653
 20
1368.705020569732
 10
904.1684552119239
 20
1368.705046588844
 10
904.1641592982506
 20
1368.705060753166
 10
904.1595836695565
 20
1368.705063700341
 10
904.1548791025855
 20
1368.705056438006
 10
904.1499442042985
 20
1368.705040387548
 10
904.1413298931376
 20
1368.704999553996
 10
904.1325963782099
 20
1368.704952832443
 10
904.1236649107611
 20
1368.704912157986
 10
904.1145294088847
 20
1368.704890431433
 10
904.1100138865095
 20
1368.704890819107
  0
LWPOLYLINE
  5
6D4
330
23
100
AcDbEntity
  8
SANINDUSA
100
AcDbPolyline
 90
       21
 70
   128
 43
0.0
 10
904.1102914994862
 20
1368.713809619158
 10
904.110291559466
 20
1368.713809619159
 10
904.1174293281347
 20
1368.713811702192
 10
904.1245517880161
 20
1368.713817232137
 10
904.1339933149773
 20
1368.713828130965
 10
904.1431286722648
 20
1368.713839987019
 10
904.1522688408983
 20
1368.713850304523
 10
904.1607891913221
 20
1368.713856122975
 10
904.1648466612867
 20
1368.713856903784
 10
904.1686765962269
 20
1368.713856060417
 10
904.1761711159875
 20
1368.713848235521
 10
904.1825015540437
 20
1368.713832728445
 10
904.1853585367395
 20
1368.713822204413
 10
904.1879443394128
 20
1368.713810266806
 10
904.1926195490139
 20
1368.713781227194
 10
904.1960150393055
 20
1368.713752064371
 10
904.1973162420745
 20
1368.713738459726
 10
904.1983198934058
 20
1368.713726786614
 10
904.1995138580531
 20
1368.713711137468
 10
904.1996268210718
 20
1368.713709505076
 10
904.1996267606938
 20
1368.713709505912
  0
ARC
  5
6D8
330
23
100
AcDbEntity
  8
SANINDUSA
100
AcDbCircle
 10
904.2041453842722
 20
1368.704788597804
 30
0.0
 40
0.009999999999897
100
AcDbArc
 50
116.8470108138564
 51
181.4865418481275
  0
LWPOLYLINE
  5
6DA
330
23
100
AcDbEntity
  8
SANINDUSA
100
AcDbPolyline
 90
       20
 70
   128
 43
0.0
 10
904.1165630339509
 20
1368.839105649697
 10
904.1250458243789
 20
1368.839102475138
 10
904.1335274106277
 20
1368.839097911613
 10
904.1474707522091
 20
1368.839087993007
 10
904.1611831262628
 20
1368.839076229888
 10
904.1749679889944
 20
1368.839063480913
 10
904.1883036125343
 20
1368.839051205759
 10
904.2007069475509
 20
1368.83904065284
 10
904.2125136812668
 20
1368.839031963652
 10
904.223953718248
 20
1368.839025389884
 10
904.2345958842489
 20
1368.839021470514
 10
904.2439220055642
 20
1368.839020352117
 10
904.2523913055093
 20
1368.839021604995
 10
904.2601395566862
 20
1368.839025101333
 10
904.2668642648708
 20
1368.839030427235
 10
904.2722884526783
 20
1368.839036752608
 10
904.2766874553302
 20
1368.839043576847
 10
904.280099408337
 20
1368.8390502598
 10
904.2823571210011
 20
1368.839055581122
 10
904.2835261415227
 20
1368.839058701984
  0
LINE
  5
6DB
330
23
100
AcDbEntity
  8
SANINDUSA
100
AcDbLine
 10
904.2970856762673
 20
1368.840483866589
 30
0.0
 11
904.1165630339509
 21
1368.840483866589
 31
0.0
  0
LINE
  5
6DD
330
23
100
AcDbEntity
  8
SANINDUSA
100
AcDbLine
 10
904.1165630339509
 20
1368.890954455845
 30
0.0
 11
904.2965630339509
 21
1368.890954455845
 31
0.0
  0
ARC
  5
6E8
330
23
100
AcDbEntity
  8
SANINDUSA
100
AcDbCircle
 10
904.2965630339509
 20
1368.885954455845
 30
0.0
 40
0.005
100
AcDbArc
 50
0.0
 51
90.0
  0
LINE
  5
6E9
330
23
100
AcDbEntity
  8
SANINDUSA
100
AcDbLine
 10
904.2835261407843
 20
1368.839058701982
 30
0.0
 11
904.2970856762673
 21
1368.840483866589
 31
0.0
  0
ARC
  5
6EA
330
23
100
AcDbEntity
  8
SANINDUSA
100
AcDbCircle
 10
904.2838404334373
 20
1368.836075210641
 30
0.0
 40
0.0029999999999643
100
AcDbArc
 50
96.0044195272207
 51
171.7480268703041
  0
ARC
  5
6EB
330
23
100
AcDbEntity
  8
SANINDUSA
100
AcDbCircle
 10
904.2965630339509
 20
1368.845456476066
 30
0.0
 40
0.005
100
AcDbArc
 50
275.9999999977903
 51
0.0
  0
LINE
  5
6EC
330
23
100
AcDbEntity
  8
SANINDUSA
100
AcDbLine
 10
904.3015630339509
 20
1368.845456476066
 30
0.0
 11
904.3015630339509
 21
1368.885954455845
 31
0.0
  0
LINE
  5
6ED
330
23
100
AcDbEntity
  8
SANINDUSA
100
AcDbLine
 10
903.6285630339509
 20
1368.925954455845
 30
0.0
 11
903.7587442975304
 21
1368.925954455845
 31
0.0
  0
ARC
  5
6EF
330
23
100
AcDbEntity
  8
SANINDUSA
100
AcDbCircle
 10
903.6265630339508
 20
1368.922954455845
 30
0.0
 40
0.003
100
AcDbArc
 50
90.0
 51
180.0
  0
LINE
  5
6F1
330
23
100
AcDbEntity
  8
SANINDUSA
100
AcDbLine
 10
903.6265630339508
 20
1368.925954455845
 30
0.0
 11
903.6285630339509
 21
1368.925954455845
 31
0.0
  0
LINE
  5
6F4
330
23
100
AcDbEntity
  8
SANINDUSA
100
AcDbLine
 10
903.7587442975304
 20
1368.925954455845
 30
0.0
 11
903.7607519372054
 21
1368.925954455845
 31
0.0
  0
ARC
  5
6F6
330
23
100
AcDbEntity
  8
SANINDUSA
100
AcDbCircle
 10
903.7607519372054
 20
1368.922954455845
 30
0.0
 40
0.003
100
AcDbArc
 50
4.999999995723404
 51
90.0
  0
LINE
  5
7B5
330
23
100
AcDbEntity
  8
SANINDUSA
100
AcDbLine
 10
904.5005257937758
 20
1369.307954455845
 30
0.0
 11
904.4975262506904
 21
1369.307954455845
 31
0.0
  0
ARC
  5
7B6
330
23
100
AcDbEntity
  8
SANINDUSA
100
AcDbCircle
 10
904.4975262506904
 20
1369.309954455845
 30
0.0
 40
0.002
100
AcDbArc
 50
179.0000000031918
 51
270.0
  0
LINE
  5
7B7
330
23
100
AcDbEntity
  8
SANINDUSA
100
AcDbLine
 10
904.8437262780328
 20
1369.307954455845
 30
0.0
 11
904.5005257937758
 21
1369.307954455845
 31
0.0
  0
LINE
  5
7B8
330
23
100
AcDbEntity
  8
SANINDUSA
100
AcDbLine
 10
904.8467258211184
 20
1369.307954455845
 30
0.0
 11
904.8437262780328
 21
1369.307954455845
 31
0.0
  0
ARC
  5
7B9
330
23
100
AcDbEntity
  8
SANINDUSA
100
AcDbCircle
 10
904.8467258211184
 20
1369.309954455845
 30
0.0
 40
0.0019999999999999
100
AcDbArc
 50
270.0
 51
0.9999999968081942
  0
LINE
  5
7BA
330
23
100
AcDbEntity
  8
SANINDUSA
100
AcDbLine
 10
904.4955265552999
 20
1369.309989360657
 30
0.0
 11
904.4955874502157
 21
1369.313478028038
 31
0.0
  0
LINE
  5
7BB
330
23
100
AcDbEntity
  8
SANINDUSA
100
AcDbLine
 10
904.8486646215931
 20
1369.313478028038
 30
0.0
 11
904.8487255165088
 21
1369.309989360657
 31
0.0
  0
ARC
  5
7BC
330
23
100
AcDbEntity
  8
SANINDUSA
100
AcDbCircle
 10
904.5255828810704
 20
1369.312954455845
 30
0.0
 40
0.030000000000027
100
AcDbArc
 50
90.0
 51
179.0000000031918
  0
ARC
  5
7BD
330
23
100
AcDbEntity
  8
SANINDUSA
100
AcDbCircle
 10
904.8186691907384
 20
1369.312954455845
 30
0.0
 40
0.0299999999999928
100
AcDbArc
 50
0.9999999968081942
 51
90.0
  0
LINE
  5
7BE
330
23
100
AcDbEntity
  8
SANINDUSA
100
AcDbLine
 10
904.5255828810704
 20
1369.342954455845
 30
0.0
 11
904.8186691907384
 21
1369.342954455845
 31
0.0
  0
LINE
  5
7BF
330
23
100
AcDbEntity
  8
SANINDUSA
100
AcDbLine
 10
904.8437242027057
 20
1369.305954455845
 30
0.0
 11
904.8467237457911
 21
1369.305954455845
 31
0.0
  0
ARC
  5
7C0
330
23
100
AcDbEntity
  8
SANINDUSA
100
AcDbCircle
 10
904.8467237457911
 20
1369.303954455845
 30
0.0
 40
0.0019999999999999
100
AcDbArc
 50
359.0000000031918
 51
90.0
  0
LINE
  5
7C1
330
23
100
AcDbEntity
  8
SANINDUSA
100
AcDbLine
 10
904.500527869103
 20
1369.305954455845
 30
0.0
 11
904.8437242027057
 21
1369.305954455845
 31
0.0
  0
LINE
  5
7C2
330
23
100
AcDbEntity
  8
SANINDUSA
100
AcDbLine
 10
904.4975283260175
 20
1369.305954455845
 30
0.0
 11
904.500527869103
 21
1369.305954455845
 31
0.0
  0
ARC
  5
7C3
330
23
100
AcDbEntity
  8
SANINDUSA
100
AcDbCircle
 10
904.4975283260175
 20
1369.303954455845
 30
0.0
 40
0.0019999999999999
100
AcDbArc
 50
90.0
 51
180.9999999968082
  0
LINE
  5
7C4
330
23
100
AcDbEntity
  8
SANINDUSA
100
AcDbLine
 10
904.8487234411815
 20
1369.303919551032
 30
0.0
 11
904.8422117880646
 21
1368.930867193812
 31
0.0
  0
LINE
  5
7C5
330
23
100
AcDbEntity
  8
SANINDUSA
100
AcDbLine
 10
904.5020402837442
 20
1368.930867193812
 30
0.0
 11
904.4955286306272
 21
1369.303919551032
 31
0.0
  0
ARC
  5
7C6
330
23
100
AcDbEntity
  8
SANINDUSA
100
AcDbCircle
 10
904.8437589605772
 20
1369.306954455845
 30
0.0
 40
0.0010000000000001
100
AcDbArc
 50
180.0
 51
270.0
  0
ARC
  5
7C7
330
23
100
AcDbEntity
  8
SANINDUSA
100
AcDbCircle
 10
904.5004931112316
 20
1369.306954455845
 30
0.0
 40
0.001
100
AcDbArc
 50
270.0
 51
0.0
  0
ARC
  5
7C8
330
23
100
AcDbEntity
  8
SANINDUSA
100
AcDbCircle
 10
904.5024931112315
 20
1369.306954455845
 30
0.0
 40
0.0010000000000002
100
AcDbArc
 50
90.0
 51
180.0
  0
ARC
  5
7C9
330
23
100
AcDbEntity
  8
SANINDUSA
100
AcDbCircle
 10
904.8417589605771
 20
1369.306954455845
 30
0.0
 40
0.0010000000000002
100
AcDbArc
 50
0.0
 51
90.0
  0
ARC
  5
7CA
330
23
100
AcDbEntity
  8
SANINDUSA
100
AcDbCircle
 10
904.8372125495887
 20
1368.930954455845
 30
0.0
 40
0.0050000000000001
100
AcDbArc
 50
270.0
 51
359.0000000031918
  0
ARC
  5
7CB
330
23
100
AcDbEntity
  8
SANINDUSA
100
AcDbCircle
 10
904.50703952222
 20
1368.930954455845
 30
0.0
 40
0.0050000000000001
100
AcDbArc
 50
180.9999999968082
 51
270.0
  0
LINE
  5
7CC
330
23
100
AcDbEntity
  8
SANINDUSA
100
AcDbLine
 10
904.8372125495887
 20
1368.925954455845
 30
0.0
 11
904.50703952222
 21
1368.925954455845
 31
0.0
  0
ARC
  5
7CD
330
23
100
AcDbEntity
  8
SANINDUSA
100
AcDbCircle
 10
902.9959816210944
 20
1369.62236871986
 30
0.0
 40
0.4040544655251156
100
AcDbArc
 50
267.2444992273672
 51
270.7900993967576
  0
LWPOLYLINE
  5
7CE
330
23
100
AcDbEntity
  8
SANINDUSA
100
AcDbPolyline
 90
        9
 70
   128
 43
0.0
 10
902.9765570969059
 20
1369.21878143194
 10
902.9755819804975
 20
1369.218685113096
 10
902.9746443227816
 20
1369.21840045063
 10
902.9737801434901
 20
1369.217938379729
 10
902.973022639712
 20
1369.217316650658
 10
902.9724009106406
 20
1369.21655914688
 10
902.9719388397406
 20
1369.215694967588
 10
902.9716541772735
 20
1369.214757309872
 10
902.9715578584301
 20
1369.213782193464
  0
LINE
  5
7CF
330
23
100
AcDbEntity
  8
SANINDUSA
100
AcDbLine
 10
903.0015532892848
 20
1369.218352671139
 30
0.0
 11
903.2946395989529
 21
1369.218352671139
 31
0.0
  0
ARC
  5
7D0
330
23
100
AcDbEntity
  8
SANINDUSA
100
AcDbCircle
 10
903.3012570438303
 20
1369.561401310541
 30
0.0
 40
0.3431124590753191
100
AcDbArc
 50
268.8948953560311
 51
273.0705060158886
  0
LINE
  5
7D1
330
23
100
AcDbEntity
  8
SANINDUSA
100
AcDbLine
 10
902.9715578584301
 20
1369.070703499038
 30
0.0
 11
902.9715578584301
 21
1369.213782193464
 31
0.0
  0
LINE
  5
7D2
330
23
100
AcDbEntity
  8
SANINDUSA
100
AcDbLine
 10
903.3246350298076
 20
1369.213782193464
 30
0.0
 11
903.3246350298076
 21
1369.070703499038
 31
0.0
  0
CIRCLE
  5
7D3
330
23
100
AcDbEntity
  8
SANINDUSA
100
AcDbCircle
 10
903.1480964441188
 20
1369.142242846251
 30
0.0
 40
0.025
  0
ARC
  5
7D4
330
23
100
AcDbEntity
  8
SANINDUSA
100
AcDbCircle
 10
903.3002112671434
 20
1368.662116972642
 30
0.0
 40
0.4040544655250426
100
AcDbArc
 50
87.24449922736715
 51
90.79009939675758
  0
LWPOLYLINE
  5
7D5
330
23
100
AcDbEntity
  8
SANINDUSA
100
AcDbPolyline
 90
        9
 70
   128
 43
0.0
 10
903.3196357913318
 20
1369.065704260562
 10
903.3206109077401
 20
1369.065800579406
 10
903.3215485654562
 20
1369.066085241873
 10
903.3224127447478
 20
1369.066547312773
 10
903.3231702485259
 20
1369.067169041844
 10
903.323791977597
 20
1369.067926545622
 10
903.3242540484973
 20
1369.068790724913
 10
903.3245387109642
 20
1369.06972838263
 10
903.3246350298076
 20
1369.070703499038
  0
ARC
  5
7D6
330
23
100
AcDbEntity
  8
SANINDUSA
100
AcDbCircle
 10
902.9949358444072
 20
1368.72308438196
 30
0.0
 40
0.343112459076178
100
AcDbArc
 50
88.89489535603102
 51
93.07050601588864
  0
LWPOLYLINE
  5
7D7
330
23
100
AcDbEntity
  8
SANINDUSA
100
AcDbPolyline
 90
        9
 70
   128
 43
0.0
 10
902.9715578584301
 20
1369.070703499038
 10
902.9716541772735
 20
1369.06972838263
 10
902.9719388397406
 20
1369.068790724913
 10
902.9724009106406
 20
1369.067926545622
 10
902.973022639712
 20
1369.067169041844
 10
902.9737801434901
 20
1369.066547312773
 10
902.9746443227816
 20
1369.066085241873
 10
902.9755819804975
 20
1369.065800579406
 10
902.9765570969059
 20
1369.065704260562
  0
LINE
  5
7D8
330
23
100
AcDbEntity
  8
SANINDUSA
100
AcDbLine
 10
903.2946395989529
 20
1369.066133021363
 30
0.0
 11
903.0015532892848
 21
1369.066133021363
 31
0.0
  0
LINE
  5
7D9
330
23
100
AcDbEntity
  8
SANINDUSA
100
AcDbLine
 10
903.3196966862474
 20
1369.218842326855
 30
0.0
 11
902.9764962019903
 21
1369.218842326855
 31
0.0
  0
LINE
  5
7DA
330
23
100
AcDbEntity
  8
SANINDUSA
100
AcDbLine
 10
902.9764962019903
 20
1369.065643365647
 30
0.0
 11
903.3196966862474
 21
1369.065643365647
 31
0.0
  0
ARC
  5
7DB
330
23
100
AcDbEntity
  8
SANINDUSA
100
AcDbCircle
 10
903.3196961403092
 20
1369.213842542441
 30
0.0
 40
0.004999784443837
100
AcDbArc
 50
0.0
 51
89.99374373961998
  0
ARC
  5
7DC
330
23
100
AcDbEntity
  8
SANINDUSA
100
AcDbCircle
 10
902.9764967479286
 20
1369.213842542441
 30
0.0
 40
0.0049997844438474
100
AcDbArc
 50
90.00625626038001
 51
180.0
  0
ARC
  5
7DD
330
23
100
AcDbEntity
  8
SANINDUSA
100
AcDbCircle
 10
903.3196961403092
 20
1369.070643150061
 30
0.0
 40
0.0049997844438539
100
AcDbArc
 50
270.00625626038
 51
0.0
  0
ARC
  5
7DE
330
23
100
AcDbEntity
  8
SANINDUSA
100
AcDbCircle
 10
902.9764967479286
 20
1369.070643150061
 30
0.0
 40
0.0049997844438676
100
AcDbArc
 50
180.0
 51
269.99374373962
  0
LINE
  5
7DF
330
23
100
AcDbEntity
  8
SANINDUSA
100
AcDbLine
 10
903.3246959247232
 20
1369.070642604122
 30
0.0
 11
903.3246959247232
 21
1369.21384308838
 31
0.0
  0
LINE
  5
7E0
330
23
100
AcDbEntity
  8
SANINDUSA
100
AcDbLine
 10
902.9714969635145
 20
1369.21384308838
 30
0.0
 11
902.9714969635145
 21
1369.070642604122
 31
0.0
  0
LINE
  5
7E1
330
23
100
AcDbEntity
  8
SANINDUSA
100
AcDbLine
 10
903.6220575417173
 20
1369.307954455845
 30
0.0
 11
903.6190579986319
 21
1369.307954455845
 31
0.0
  0
ARC
  5
7E2
330
23
100
AcDbEntity
  8
SANINDUSA
100
AcDbCircle
 10
903.6190579986319
 20
1369.309954455845
 30
0.0
 40
0.0019999999999999
100
AcDbArc
 50
179.0000000031918
 51
270.0
  0
LINE
  5
7E3
330
23
100
AcDbEntity
  8
SANINDUSA
100
AcDbLine
 10
903.7652580259745
 20
1369.307954455845
 30
0.0
 11
903.6220575417173
 21
1369.307954455845
 31
0.0
  0
LINE
  5
7E4
330
23
100
AcDbEntity
  8
SANINDUSA
100
AcDbLine
 10
903.7682575690599
 20
1369.307954455845
 30
0.0
 11
903.7652580259745
 21
1369.307954455845
 31
0.0
  0
ARC
  5
7E5
330
23
100
AcDbEntity
  8
SANINDUSA
100
AcDbCircle
 10
903.7682575690599
 20
1369.309954455845
 30
0.0
 40
0.0020000000000001
100
AcDbArc
 50
270.0
 51
0.9999999968081942
  0
LINE
  5
7E6
330
23
100
AcDbEntity
  8
SANINDUSA
100
AcDbLine
 10
903.6170583032415
 20
1369.309989360657
 30
0.0
 11
903.6171191981571
 21
1369.313478028038
 31
0.0
  0
LINE
  5
7E7
330
23
100
AcDbEntity
  8
SANINDUSA
100
AcDbLine
 10
903.7701963695347
 20
1369.313478028038
 30
0.0
 11
903.7702572644503
 21
1369.309989360657
 31
0.0
  0
LINE
  5
7E8
330
23
100
AcDbEntity
  8
SANINDUSA
100
AcDbLine
 10
903.6171191981571
 20
1369.313478028038
 30
0.0
 11
903.6175479589584
 21
1369.338041717877
 31
0.0
  0
ARC
  5
7E9
330
23
100
AcDbEntity
  8
SANINDUSA
100
AcDbCircle
 10
903.622547197434
 20
1369.337954455845
 30
0.0
 40
0.005
100
AcDbArc
 50
90.0
 51
179.0000000031918
  0
LINE
  5
7EA
330
23
100
AcDbEntity
  8
SANINDUSA
100
AcDbLine
 10
903.622547197434
 20
1369.342954455845
 30
0.0
 11
903.7647683702578
 21
1369.342954455845
 31
0.0
  0
ARC
  5
7EB
330
23
100
AcDbEntity
  8
SANINDUSA
100
AcDbCircle
 10
903.7647683702578
 20
1369.337954455845
 30
0.0
 40
0.0050000000000001
100
AcDbArc
 50
0.9999999968081942
 51
90.0
  0
LINE
  5
7EC
330
23
100
AcDbEntity
  8
SANINDUSA
100
AcDbLine
 10
903.7697676087336
 20
1369.338041717877
 30
0.0
 11
903.7701963695347
 21
1369.313478028038
 31
0.0
  0
LINE
  5
7ED
330
23
100
AcDbEntity
  8
SANINDUSA
100
AcDbLine
 10
903.6190600739592
 20
1369.305954455845
 30
0.0
 11
903.6220596170446
 21
1369.305954455845
 31
0.0
  0
ARC
  5
7EE
330
23
100
AcDbEntity
  8
SANINDUSA
100
AcDbCircle
 10
903.6190600739592
 20
1369.303954455845
 30
0.0
 40
0.0019999999999999
100
AcDbArc
 50
90.0
 51
180.9999999968082
  0
LINE
  5
7EF
330
23
100
AcDbEntity
  8
SANINDUSA
100
AcDbLine
 10
903.6220596170446
 20
1369.305954455845
 30
0.0
 11
903.7652559506472
 21
1369.305954455845
 31
0.0
  0
LINE
  5
7F0
330
23
100
AcDbEntity
  8
SANINDUSA
100
AcDbLine
 10
903.7652559506472
 20
1369.305954455845
 30
0.0
 11
903.7682554937328
 21
1369.305954455845
 31
0.0
  0
ARC
  5
7F1
330
23
100
AcDbEntity
  8
SANINDUSA
100
AcDbCircle
 10
903.7682554937328
 20
1369.303954455845
 30
0.0
 40
0.0020000000000001
100
AcDbArc
 50
359.0000000031918
 51
90.0
  0
LINE
  5
7F2
330
23
100
AcDbEntity
  8
SANINDUSA
100
AcDbLine
 10
903.6235720316858
 20
1368.930867193812
 30
0.0
 11
903.617060378569
 21
1369.303919551032
 31
0.0
  0
LINE
  5
7F3
330
23
100
AcDbEntity
  8
SANINDUSA
100
AcDbLine
 10
903.770255189123
 20
1369.303919551032
 30
0.0
 11
903.7637435360061
 21
1368.930867193812
 31
0.0
  0
ARC
  5
7F4
330
23
100
AcDbEntity
  8
SANINDUSA
100
AcDbCircle
 10
903.6220248591732
 20
1369.306954455845
 30
0.0
 40
0.0010000000000001
100
AcDbArc
 50
270.0
 51
0.0
  0
ARC
  5
7F5
330
23
100
AcDbEntity
  8
SANINDUSA
100
AcDbCircle
 10
903.7652907085186
 20
1369.306954455845
 30
0.0
 40
0.0009999999999999
100
AcDbArc
 50
180.0
 51
270.0
  0
ARC
  5
7F6
330
23
100
AcDbEntity
  8
SANINDUSA
100
AcDbCircle
 10
903.6240248591733
 20
1369.306954455845
 30
0.0
 40
0.0010000000000002
100
AcDbArc
 50
90.0
 51
180.0
  0
ARC
  5
7F7
330
23
100
AcDbEntity
  8
SANINDUSA
100
AcDbCircle
 10
903.7632907085185
 20
1369.306954455845
 30
0.0
 40
0.0010000000000002
100
AcDbArc
 50
0.0
 51
90.0
  0
ARC
  5
7F8
330
23
100
AcDbEntity
  8
SANINDUSA
100
AcDbCircle
 10
903.6285712701614
 20
1368.930954455845
 30
0.0
 40
0.0050000000000001
100
AcDbArc
 50
180.9999999968082
 51
270.0
  0
LINE
  5
7F9
330
23
100
AcDbEntity
  8
SANINDUSA
100
AcDbLine
 10
903.7587442975304
 20
1368.925954455845
 30
0.0
 11
903.6285712701614
 21
1368.925954455845
 31
0.0
  0
ARC
  5
7FA
330
23
100
AcDbEntity
  8
SANINDUSA
100
AcDbCircle
 10
903.7587442975304
 20
1368.930954455845
 30
0.0
 40
0.0050000000000001
100
AcDbArc
 50
270.0
 51
359.0000000031918
  0
LINE
  5
7FB
330
23
100
AcDbEntity
  8
SANINDUSA
100
AcDbLine
 10
903.6220102565508
 20
1369.305954455845
 30
0.0
 11
903.6240600739592
 21
1369.305954455845
 31
0.0
  0
LINE
  5
7FC
330
23
100
AcDbEntity
  8
SANINDUSA
100
AcDbLine
 10
903.6335712701614
 20
1368.925954455845
 30
0.0
 11
903.630642959578
 21
1368.925954455845
 31
0.0
  0
LINE
  5
7FD
330
23
100
AcDbEntity
  8
SANINDUSA
100
AcDbLine
 10
903.630642959578
 20
1368.925954455845
 30
0.0
 11
903.6285712701614
 21
1368.925954455845
 31
0.0
  0
LINE
  5
7FE
330
23
100
AcDbEntity
  8
SANINDUSA
100
AcDbLine
 10
905.1039088865096
 20
1369.307954046642
 30
0.0
 11
905.1188736717236
 21
1369.307954046642
 31
0.0
  0
LINE
  5
7FF
330
23
100
AcDbEntity
  8
SANINDUSA
100
AcDbLine
 10
905.1120497456533
 20
1369.317954046642
 30
0.0
 11
905.1188736717236
 21
1369.317954046642
 31
0.0
  0
ARC
  5
800
330
23
100
AcDbEntity
  8
SANINDUSA
100
AcDbCircle
 10
905.1039088865096
 20
1369.309954046642
 30
0.0
 40
0.0019999999999999
100
AcDbArc
 50
179.0000000031918
 51
270.0
  0
LINE
  5
801
330
23
100
AcDbEntity
  8
SANINDUSA
100
AcDbLine
 10
905.1019091911193
 20
1369.309988951455
 30
0.0
 11
905.1023988468358
 21
1369.338041308674
 31
0.0
  0
LINE
  5
802
330
23
100
AcDbEntity
  8
SANINDUSA
100
AcDbLine
 10
905.1120497456533
 20
1369.317954046642
 30
0.0
 11
905.1123115716272
 21
1369.332954046642
 31
0.0
  0
ARC
  5
803
330
23
100
AcDbEntity
  8
SANINDUSA
100
AcDbCircle
 10
905.1073980853116
 20
1369.337954046642
 30
0.0
 40
0.0050000000000001
100
AcDbArc
 50
90.0
 51
179.0000000031918
  0
LINE
  5
804
330
23
100
AcDbEntity
  8
SANINDUSA
100
AcDbLine
 10
905.1073980853116
 20
1369.342954046642
 30
0.0
 11
905.1525086717235
 21
1369.342954046642
 31
0.0
  0
LINE
  5
805
330
23
100
AcDbEntity
  8
SANINDUSA
100
AcDbLine
 10
905.1123115716272
 20
1369.332954046642
 30
0.0
 11
905.1265550555184
 21
1369.332954046642
 31
0.0
  0
ARC
  5
806
330
23
100
AcDbEntity
  8
SANINDUSA
100
AcDbCircle
 10
905.1525086717235
 20
1369.341954046642
 30
0.0
 40
0.0010000000000002
100
AcDbArc
 50
0.0
 51
90.0
  0
LINE
  5
807
330
23
100
AcDbEntity
  8
SANINDUSA
100
AcDbLine
 10
905.1535086717235
 20
1369.341954046642
 30
0.0
 11
905.1535086717235
 21
1369.329954046642
 31
0.0
  0
ARC
  5
808
330
23
100
AcDbEntity
  8
SANINDUSA
100
AcDbCircle
 10
905.1525086717235
 20
1369.329954046642
 30
0.0
 40
0.0010000000000002
100
AcDbArc
 50
270.0
 51
0.0
  0
LINE
  5
809
330
23
100
AcDbEntity
  8
SANINDUSA
100
AcDbLine
 10
905.1385550555183
 20
1369.328954046642
 30
0.0
 11
905.1525086717235
 21
1369.328954046642
 31
0.0
  0
ARC
  5
80A
330
23
100
AcDbEntity
  8
SANINDUSA
100
AcDbCircle
 10
905.1385550555183
 20
1369.323954046642
 30
0.0
 40
0.0050000000000001
100
AcDbArc
 50
90.0
 51
175.0000000042766
  0
ARC
  5
80B
330
23
100
AcDbEntity
  8
SANINDUSA
100
AcDbCircle
 10
905.1385550555183
 20
1369.323954046642
 30
0.0
 40
0.0150000000000001
100
AcDbArc
 50
143.1301023515505
 51
175.0000000042766
  0
LINE
  5
80C
330
23
100
AcDbEntity
  8
SANINDUSA
100
AcDbLine
 10
905.1319535352476
 20
1369.305866890899
 30
0.0
 11
905.1335740820277
 21
1369.324389825355
 31
0.0
  0
LINE
  5
80D
330
23
100
AcDbEntity
  8
SANINDUSA
100
AcDbLine
 10
905.122905839026
 20
1369.317188382323
 30
0.0
 11
905.1236121350468
 21
1369.325261382783
 31
0.0
  0
ARC
  5
80E
330
23
100
AcDbEntity
  8
SANINDUSA
100
AcDbCircle
 10
905.1309573405495
 20
1369.305954046642
 30
0.0
 40
0.0009999999999999
100
AcDbArc
 50
270.0
 51
355.0000000042766
  0
LINE
  5
80F
330
23
100
AcDbEntity
  8
SANINDUSA
100
AcDbLine
 10
905.1208736717235
 20
1369.304954046642
 30
0.0
 11
905.1309573405495
 21
1369.304954046642
 31
0.0
  0
ARC
  5
810
330
23
100
AcDbEntity
  8
SANINDUSA
100
AcDbCircle
 10
905.1208736717235
 20
1369.305954046642
 30
0.0
 40
0.0010000000000002
100
AcDbArc
 50
180.0
 51
270.0
  0
LINE
  5
811
330
23
100
AcDbEntity
  8
SANINDUSA
100
AcDbLine
 10
905.1198736717235
 20
1369.305954046642
 30
0.0
 11
905.1198736717235
 21
1369.306954046642
 31
0.0
  0
ARC
  5
812
330
23
100
AcDbEntity
  8
SANINDUSA
100
AcDbCircle
 10
905.1188736717236
 20
1369.306954046642
 30
0.0
 40
0.0010000000000002
100
AcDbArc
 50
0.0
 51
90.0
  0
ARC
  5
813
330
23
100
AcDbEntity
  8
SANINDUSA
100
AcDbCircle
 10
905.1188736717236
 20
1369.306954046642
 30
0.0
 40
0.0110000000000002
100
AcDbArc
 50
68.49633977005734
 51
90.0
  0
ARC
  5
814
330
23
100
AcDbEntity
  8
SANINDUSA
100
AcDbCircle
 10
905.2045086717235
 20
1369.329954046642
 30
0.0
 40
0.0010000000000002
100
AcDbArc
 50
180.0
 51
270.0
  0
LINE
  5
815
330
23
100
AcDbEntity
  8
SANINDUSA
100
AcDbLine
 10
905.2045086717235
 20
1369.328954046642
 30
0.0
 11
905.1525086717235
 21
1369.328954046642
 31
0.0
  0
ARC
  5
816
330
23
100
AcDbEntity
  8
SANINDUSA
100
AcDbCircle
 10
905.2045086717235
 20
1369.341954046642
 30
0.0
 40
0.0010000000000002
100
AcDbArc
 50
90.0
 51
180.0
  0
LINE
  5
817
330
23
100
AcDbEntity
  8
SANINDUSA
100
AcDbLine
 10
905.1525086717235
 20
1369.342954046642
 30
0.0
 11
905.2045086717235
 21
1369.342954046642
 31
0.0
  0
LINE
  5
818
330
23
100
AcDbEntity
  8
SANINDUSA
100
AcDbLine
 10
905.2035086717236
 20
1369.329954046642
 30
0.0
 11
905.2035086717236
 21
1369.341954046642
 31
0.0
  0
LINE
  5
819
330
23
100
AcDbEntity
  8
SANINDUSA
100
AcDbLine
 10
905.2421436717237
 20
1369.306954046642
 30
0.0
 11
905.2421436717237
 21
1369.305954046642
 31
0.0
  0
ARC
  5
81A
330
23
100
AcDbEntity
  8
SANINDUSA
100
AcDbCircle
 10
905.2411436717235
 20
1369.305954046642
 30
0.0
 40
0.0009999999999999
100
AcDbArc
 50
270.0
 51
0.0
  0
ARC
  5
81B
330
23
100
AcDbEntity
  8
SANINDUSA
100
AcDbCircle
 10
905.2310600028976
 20
1369.305954046642
 30
0.0
 40
0.0010000000000002
100
AcDbArc
 50
184.9999999957234
 51
270.0
  0
LINE
  5
81C
330
23
100
AcDbEntity
  8
SANINDUSA
100
AcDbLine
 10
905.2300638081995
 20
1369.305866890899
 30
0.0
 11
905.2284432614193
 21
1369.324389825355
 31
0.0
  0
LINE
  5
81D
330
23
100
AcDbEntity
  8
SANINDUSA
100
AcDbLine
 10
905.239111504421
 20
1369.317188382323
 30
0.0
 11
905.2384052084002
 21
1369.325261382783
 31
0.0
  0
ARC
  5
81E
330
23
100
AcDbEntity
  8
SANINDUSA
100
AcDbCircle
 10
905.2234622879289
 20
1369.323954046642
 30
0.0
 40
0.0050000000000001
100
AcDbArc
 50
4.999999995723404
 51
90.0
  0
ARC
  5
81F
330
23
100
AcDbEntity
  8
SANINDUSA
100
AcDbCircle
 10
905.2234622879289
 20
1369.323954046642
 30
0.0
 40
0.0150000000000001
100
AcDbArc
 50
4.999999995723404
 51
36.86989764844953
  0
ARC
  5
820
330
23
100
AcDbEntity
  8
SANINDUSA
100
AcDbCircle
 10
905.2496192581354
 20
1369.337954046642
 30
0.0
 40
0.0050000000000001
100
AcDbArc
 50
0.9999999968081942
 51
90.0
  0
LINE
  5
821
330
23
100
AcDbEntity
  8
SANINDUSA
100
AcDbLine
 10
905.2546184966113
 20
1369.338041308674
 30
0.0
 11
905.2551081523279
 21
1369.309988951455
 31
0.0
  0
LINE
  5
822
330
23
100
AcDbEntity
  8
SANINDUSA
100
AcDbLine
 10
905.2447057718199
 20
1369.332954046642
 30
0.0
 11
905.2449675977939
 21
1369.317954046642
 31
0.0
  0
ARC
  5
823
330
23
100
AcDbEntity
  8
SANINDUSA
100
AcDbCircle
 10
905.2531084569377
 20
1369.309954046642
 30
0.0
 40
0.0020000000000001
100
AcDbArc
 50
270.0
 51
0.9999999968081942
  0
ARC
  5
824
330
23
100
AcDbEntity
  8
SANINDUSA
100
AcDbCircle
 10
905.2431436717236
 20
1369.306954046642
 30
0.0
 40
0.0010000000000002
100
AcDbArc
 50
90.0
 51
180.0
  0
ARC
  5
825
330
23
100
AcDbEntity
  8
SANINDUSA
100
AcDbCircle
 10
905.2431436717236
 20
1369.306954046642
 30
0.0
 40
0.0110000000000002
100
AcDbArc
 50
90.0
 51
111.5036602299426
  0
LINE
  5
826
330
23
100
AcDbEntity
  8
SANINDUSA
100
AcDbLine
 10
905.2045086717235
 20
1369.328954046642
 30
0.0
 11
905.2234622879289
 21
1369.328954046642
 31
0.0
  0
LINE
  5
827
330
23
100
AcDbEntity
  8
SANINDUSA
100
AcDbLine
 10
905.2310600028976
 20
1369.304954046642
 30
0.0
 11
905.2411436717235
 21
1369.304954046642
 31
0.0
  0
LINE
  5
828
330
23
100
AcDbEntity
  8
SANINDUSA
100
AcDbLine
 10
905.2045086717235
 20
1369.342954046642
 30
0.0
 11
905.2496192581354
 21
1369.342954046642
 31
0.0
  0
LINE
  5
829
330
23
100
AcDbEntity
  8
SANINDUSA
100
AcDbLine
 10
905.2354622879288
 20
1369.332954046642
 30
0.0
 11
905.2447057718199
 21
1369.332954046642
 31
0.0
  0
LINE
  5
82A
330
23
100
AcDbEntity
  8
SANINDUSA
100
AcDbLine
 10
905.2431436717236
 20
1369.307954046642
 30
0.0
 11
905.2531084569377
 21
1369.307954046642
 31
0.0
  0
LINE
  5
82B
330
23
100
AcDbEntity
  8
SANINDUSA
100
AcDbLine
 10
905.2431436717236
 20
1369.317954046642
 30
0.0
 11
905.2449675977939
 21
1369.317954046642
 31
0.0
  0
LINE
  5
82C
330
23
100
AcDbEntity
  8
SANINDUSA
100
AcDbLine
 10
905.2310600028976
 20
1369.304954046642
 30
0.0
 11
905.2284341771425
 21
1369.304954046642
 31
0.0
  0
LINE
  5
82D
330
23
100
AcDbEntity
  8
SANINDUSA
100
AcDbLine
 10
905.1408532051878
 20
1369.304954046642
 30
0.0
 11
905.1309573405495
 21
1369.304954046642
 31
0.0
  0
LINE
  5
82E
330
23
100
AcDbEntity
  8
SANINDUSA
100
AcDbLine
 10
905.2284341771425
 20
1369.304954046642
 30
0.0
 11
905.2161641382594
 21
1369.304954046642
 31
0.0
  0
LINE
  5
82F
330
23
100
AcDbEntity
  8
SANINDUSA
100
AcDbLine
 10
905.1438196915396
 20
1369.304954046642
 30
0.0
 11
905.1408532051878
 21
1369.304954046642
 31
0.0
  0
LINE
  5
830
330
23
100
AcDbEntity
  8
SANINDUSA
100
AcDbLine
 10
905.2161641382594
 20
1369.304954046642
 30
0.0
 11
905.2131976519074
 21
1369.304954046642
 31
0.0
  0
LINE
  5
831
330
23
100
AcDbEntity
  8
SANINDUSA
100
AcDbLine
 10
905.2131976519074
 20
1369.304954046642
 30
0.0
 11
905.1438196915396
 21
1369.304954046642
 31
0.0
  0
ARC
  5
832
330
23
100
AcDbEntity
  8
SANINDUSA
100
AcDbCircle
 10
905.1184221580392
 20
1368.930954046642
 30
0.0
 40
0.0050000000000004
100
AcDbArc
 50
180.9999999968082
 51
270.0
  0
LINE
  5
833
330
23
100
AcDbEntity
  8
SANINDUSA
100
AcDbLine
 10
905.1069112664464
 20
1369.303919141829
 30
0.0
 11
905.1134229195634
 21
1368.93086678461
 31
0.0
  0
ARC
  5
834
330
23
100
AcDbEntity
  8
SANINDUSA
100
AcDbCircle
 10
905.1089109618368
 20
1369.303954046642
 30
0.0
 40
0.0020000000000001
100
AcDbArc
 50
90.0
 51
180.9999999968082
  0
LINE
  5
835
330
23
100
AcDbEntity
  8
SANINDUSA
100
AcDbLine
 10
905.1118757470508
 20
1369.305954046642
 30
0.0
 11
905.1089109618368
 21
1369.305954046642
 31
0.0
  0
ARC
  5
836
330
23
100
AcDbEntity
  8
SANINDUSA
100
AcDbCircle
 10
905.1118757470508
 20
1369.306954046642
 30
0.0
 40
0.0009999999999999
100
AcDbArc
 50
270.0
 51
0.0
  0
ARC
  5
837
330
23
100
AcDbEntity
  8
SANINDUSA
100
AcDbCircle
 10
905.1138757470509
 20
1369.306954046642
 30
0.0
 40
0.0010000000000002
100
AcDbArc
 50
90.0
 51
180.0
  0
ARC
  5
838
330
23
100
AcDbEntity
  8
SANINDUSA
100
AcDbCircle
 10
905.1178930497878
 20
1369.306954046642
 30
0.0
 40
0.0010000000000002
100
AcDbArc
 50
0.9999999968081942
 51
90.0
  0
LINE
  5
839
330
23
100
AcDbEntity
  8
SANINDUSA
100
AcDbLine
 10
905.1188928974829
 20
1369.306971499048
 30
0.0
 11
905.125248368914
 21
1368.94286678461
 31
0.0
  0
ARC
  5
83A
330
23
100
AcDbEntity
  8
SANINDUSA
100
AcDbCircle
 10
905.1302476073898
 20
1368.942954046642
 30
0.0
 40
0.0050000000000001
100
AcDbArc
 50
180.9999999968082
 51
270.0
  0
LINE
  5
83B
330
23
100
AcDbEntity
  8
SANINDUSA
100
AcDbLine
 10
905.1465086717236
 20
1368.937954046642
 30
0.0
 11
905.1302476073898
 21
1368.937954046642
 31
0.0
  0
ARC
  5
83C
330
23
100
AcDbEntity
  8
SANINDUSA
100
AcDbCircle
 10
905.1465086717236
 20
1368.936954046642
 30
0.0
 40
0.0010000000000002
100
AcDbArc
 50
0.0
 51
90.0
  0
LINE
  5
83D
330
23
100
AcDbEntity
  8
SANINDUSA
100
AcDbLine
 10
905.1475086717235
 20
1368.936954046642
 30
0.0
 11
905.1475086717235
 21
1368.926954046642
 31
0.0
  0
ARC
  5
83E
330
23
100
AcDbEntity
  8
SANINDUSA
100
AcDbCircle
 10
905.1465086717236
 20
1368.926954046642
 30
0.0
 40
0.0010000000000002
100
AcDbArc
 50
270.0
 51
0.0
  0
LINE
  5
83F
330
23
100
AcDbEntity
  8
SANINDUSA
100
AcDbLine
 10
905.1465086717236
 20
1368.925954046642
 30
0.0
 11
905.1184221580392
 21
1368.925954046642
 31
0.0
  0
ARC
  5
840
330
23
100
AcDbEntity
  8
SANINDUSA
100
AcDbCircle
 10
905.2105086717235
 20
1368.926954046642
 30
0.0
 40
0.0010000000000002
100
AcDbArc
 50
180.0
 51
270.0
  0
LINE
  5
841
330
23
100
AcDbEntity
  8
SANINDUSA
100
AcDbLine
 10
905.2105086717235
 20
1368.925954046642
 30
0.0
 11
905.1465086717236
 21
1368.925954046642
 31
0.0
  0
LINE
  5
842
330
23
100
AcDbEntity
  8
SANINDUSA
100
AcDbLine
 10
905.2095086717235
 20
1368.926954046642
 30
0.0
 11
905.2095086717235
 21
1368.936954046642
 31
0.0
  0
ARC
  5
843
330
23
100
AcDbEntity
  8
SANINDUSA
100
AcDbCircle
 10
905.2105086717235
 20
1368.936954046642
 30
0.0
 40
0.0009999999999999
100
AcDbArc
 50
90.0
 51
180.0
  0
LINE
  5
844
330
23
100
AcDbEntity
  8
SANINDUSA
100
AcDbLine
 10
905.1465086717236
 20
1368.937954046642
 30
0.0
 11
905.2105086717235
 21
1368.937954046642
 31
0.0
  0
ARC
  5
845
330
23
100
AcDbEntity
  8
SANINDUSA
100
AcDbCircle
 10
905.2317697360573
 20
1368.942954046642
 30
0.0
 40
0.0050000000000004
100
AcDbArc
 50
270.0
 51
359.0000000031918
  0
LINE
  5
846
330
23
100
AcDbEntity
  8
SANINDUSA
100
AcDbLine
 10
905.2367689745331
 20
1368.94286678461
 30
0.0
 11
905.2431244459642
 21
1369.306971499048
 31
0.0
  0
ARC
  5
847
330
23
100
AcDbEntity
  8
SANINDUSA
100
AcDbCircle
 10
905.2441242936593
 20
1369.306954046642
 30
0.0
 40
0.0010000000000002
100
AcDbArc
 50
90.0
 51
179.0000000031918
  0
ARC
  5
848
330
23
100
AcDbEntity
  8
SANINDUSA
100
AcDbCircle
 10
905.2481415963963
 20
1369.306954046642
 30
0.0
 40
0.0010000000000002
100
AcDbArc
 50
0.0
 51
90.0
  0
ARC
  5
849
330
23
100
AcDbEntity
  8
SANINDUSA
100
AcDbCircle
 10
905.2501415963963
 20
1369.306954046642
 30
0.0
 40
0.0009999999999999
100
AcDbArc
 50
180.0
 51
270.0
  0
ARC
  5
84A
330
23
100
AcDbEntity
  8
SANINDUSA
100
AcDbCircle
 10
905.2531063816102
 20
1369.303954046642
 30
0.0
 40
0.0020000000000001
100
AcDbArc
 50
359.0000000031918
 51
90.0
  0
LINE
  5
84B
330
23
100
AcDbEntity
  8
SANINDUSA
100
AcDbLine
 10
905.2551060770007
 20
1369.303919141829
 30
0.0
 11
905.2485944238837
 21
1368.93086678461
 31
0.0
  0
ARC
  5
84C
330
23
100
AcDbEntity
  8
SANINDUSA
100
AcDbCircle
 10
905.243595185408
 20
1368.930954046642
 30
0.0
 40
0.005
100
AcDbArc
 50
270.0
 51
359.0000000031918
  0
LINE
  5
84D
330
23
100
AcDbEntity
  8
SANINDUSA
100
AcDbLine
 10
905.2317697360573
 20
1368.937954046642
 30
0.0
 11
905.2105086717235
 21
1368.937954046642
 31
0.0
  0
LINE
  5
84E
330
23
100
AcDbEntity
  8
SANINDUSA
100
AcDbLine
 10
905.243595185408
 20
1368.925954046642
 30
0.0
 11
905.2105086717235
 21
1368.925954046642
 31
0.0
  0
LINE
  5
84F
330
23
100
AcDbEntity
  8
SANINDUSA
100
AcDbLine
 10
905.2441242936593
 20
1369.307954046642
 30
0.0
 11
905.2481415963963
 21
1369.307954046642
 31
0.0
  0
LINE
  5
850
330
23
100
AcDbEntity
  8
SANINDUSA
100
AcDbLine
 10
905.2531063816102
 20
1369.305954046642
 30
0.0
 11
905.2501415963963
 21
1369.305954046642
 31
0.0
  0
LINE
  5
851
330
23
100
AcDbEntity
  8
SANINDUSA
100
AcDbLine
 10
905.1068611444282
 20
1369.305954046642
 30
0.0
 11
905.1089109618368
 21
1369.305954046642
 31
0.0
  0
LINE
  5
852
330
23
100
AcDbEntity
  8
SANINDUSA
100
AcDbLine
 10
905.1047894550119
 20
1369.305954046642
 30
0.0
 11
905.1068611444282
 21
1369.305954046642
 31
0.0
  0
ARC
  5
853
330
23
100
AcDbEntity
  8
SANINDUSA
100
AcDbCircle
 10
905.1039109618368
 20
1369.303954046642
 30
0.0
 40
0.0020000000000001
100
AcDbArc
 50
90.0
 51
180.9999999968082
  0
LINE
  5
854
330
23
100
AcDbEntity
  8
SANINDUSA
100
AcDbLine
 10
905.1084229195634
 20
1368.93086678461
 30
0.0
 11
905.1019112664464
 21
1369.303919141829
 31
0.0
  0
ARC
  5
855
330
23
100
AcDbEntity
  8
SANINDUSA
100
AcDbCircle
 10
905.1068757470508
 20
1369.306954046642
 30
0.0
 40
0.0009999999999999
100
AcDbArc
 50
270.0
 51
0.0
  0
ARC
  5
856
330
23
100
AcDbEntity
  8
SANINDUSA
100
AcDbCircle
 10
905.1088757470509
 20
1369.306954046642
 30
0.0
 40
0.0010000000000002
100
AcDbArc
 50
90.0
 51
180.0
  0
LINE
  5
857
330
23
100
AcDbEntity
  8
SANINDUSA
100
AcDbLine
 10
905.1184221580392
 20
1368.925954046642
 30
0.0
 11
905.1134221580392
 21
1368.925954046642
 31
0.0
  0
ARC
  5
858
330
23
100
AcDbEntity
  8
SANINDUSA
100
AcDbCircle
 10
905.1134221580392
 20
1368.930954046642
 30
0.0
 40
0.0050000000000001
100
AcDbArc
 50
180.9999999968082
 51
270.0
  0
ENDSEC
  0
SECTION
  2
OBJECTS
  0
DICTIONARY
  5
C
330
0
100
AcDbDictionary
281
     1
  3
ACAD_COLOR
350
1C
  3
ACAD_GROUP
350
D
  3
ACAD_LAYOUT
350
1A
  3
ACAD_MATERIAL
350
1B
  3
ACAD_MLEADERSTYLE
350
8AB
  3
ACAD_MLINESTYLE
350
17
  3
ACAD_PLOTSETTINGS
350
19
  3
ACAD_PLOTSTYLENAME
350
E
  3
ACAD_SCALELIST
350
899
  3
ACAD_TABLESTYLE
350
1D
  3
ACAD_VISUALSTYLE
350
885
  3
ACDB_RECOMPOSE_DATA
350
8CB
  3
AcDbVariableDictionary
350
709
  3
ASE_INDEX_DICTIONARY
350
706
  3
DWGPROPS
350
8CC
  0
DICTIONARY
  5
8B0
330
10
100
AcDbDictionary
280
     1
281
     1
  3
ADSK_XREC_LAYER_RECONCILED
360
8B1
  0
DICTIONARY
  5
8B2
330
31
100
AcDbDictionary
280
     1
281
     1
  3
ADSK_XREC_LAYER_RECONCILED
360
8B3
  0
DICTIONARY
  5
8B4
330
32
100
AcDbDictionary
280
     1
281
     1
  3
ADSK_XREC_LAYER_RECONCILED
360
8B5
  0
DICTIONARY
  5
8B6
330
33
100
AcDbDictionary
280
     1
281
     1
  3
ADSK_XREC_LAYER_RECONCILED
360
8B7
  0
DICTIONARY
  5
8B8
330
34
100
AcDbDictionary
280
     1
281
     1
  3
ADSK_XREC_LAYER_RECONCILED
360
8B9
  0
DICTIONARY
  5
8BA
330
35
100
AcDbDictionary
280
     1
281
     1
  3
ADSK_XREC_LAYER_RECONCILED
360
8BB
  0
DICTIONARY
  5
8BC
330
36
100
AcDbDictionary
280
     1
281
     1
  3
ADSK_XREC_LAYER_RECONCILED
360
8BD
  0
DICTIONARY
  5
8BE
330
37
100
AcDbDictionary
280
     1
281
     1
  3
ADSK_XREC_LAYER_RECONCILED
360
8BF
  0
DICTIONARY
  5
8C0
330
38
100
AcDbDictionary
280
     1
281
     1
  3
ADSK_XREC_LAYER_RECONCILED
360
8C1
  0
DICTIONARY
  5
8C2
330
39
100
AcDbDictionary
280
     1
281
     1
  3
ADSK_XREC_LAYER_RECONCILED
360
8C3
  0
DICTIONARY
  5
1C
102
{ACAD_REACTORS
330
C
102
}
330
C
100
AcDbDictionary
281
     1
  0
DICTIONARY
  5
D
102
{ACAD_REACTORS
330
C
102
}
330
C
100
AcDbDictionary
281
     1
  0
DICTIONARY
  5
1A
102
{ACAD_REACTORS
330
C
102
}
330
C
100
AcDbDictionary
281
     1
  3
Layout1
350
22
  3
Layout2
350
2A
  3
Model
350
26
  0
DICTIONARY
  5
1B
102
{ACAD_REACTORS
330
C
102
}
330
C
100
AcDbDictionary
281
     1
  3
ByBlock
350
875
  3
ByLayer
350
86D
  3
Global
350
87D
  0
DICTIONARY
  5
8AB
102
{ACAD_REACTORS
330
C
102
}
330
C
100
AcDbDictionary
281
     1
  3
Standard
350
8AC
  0
DICTIONARY
  5
17
102
{ACAD_REACTORS
330
C
102
}
330
C
100
AcDbDictionary
281
     1
  3
Standard
350
18
  0
DICTIONARY
  5
19
102
{ACAD_REACTORS
330
C
102
}
330
C
100
AcDbDictionary
281
     1
  0
ACDBDICTIONARYWDFLT
  5
E
102
{ACAD_REACTORS
330
C
102
}
330
C
100
AcDbDictionary
281
     1
  3
Normal
350
F
100
AcDbDictionaryWithDefault
340
F
  0
DICTIONARY
  5
899
102
{ACAD_REACTORS
330
C
102
}
330
C
100
AcDbDictionary
281
     1
  3
A0
350
89A
  3
A1
350
89B
  3
A2
350
89C
  3
A3
350
89D
  3
A4
350
89E
  3
A5
350
89F
  3
A6
350
8A0
  3
A7
350
8A1
  3
A8
350
8A2
  3
A9
350
8A3
  3
B0
350
8A4
  3
B1
350
8A5
  3
B2
350
8A6
  3
B3
350
8A7
  3
B4
350
8A8
  3
B5
350
8A9
  3
B6
350
8AA
  0
DICTIONARY
  5
1D
102
{ACAD_REACTORS
330
C
102
}
330
C
100
AcDbDictionary
281
     1
  3
Standard
350
1E
  0
DICTIONARY
  5
885
102
{ACAD_REACTORS
330
C
102
}
330
C
100
AcDbDictionary
281
     1
  3
2dWireframe
350
88B
  3
3D Hidden
350
88D
  3
3dWireframe
350
88C
  3
Basic
350
88A
  3
Brighten
350
891
  3
ColorChange
350
895
  3
Conceptual
350
88E
  3
Dim
350
890
  3
EdgeColorOff
350
898
  3
Facepattern
350
894
  3
Flat
350
886
  3
FlatWithEdges
350
887
  3
Gouraud
350
888
  3
GouraudWithEdges
350
889
  3
JitterOff
350
896
  3
Linepattern
350
893
  3
OverhangOff
350
897
  3
Realistic
350
88F
  3
Thicken
350
892
  0
XRECORD
  5
8CB
102
{ACAD_REACTORS
330
C
102
}
330
C
100
AcDbXrecord
280
     1
 90
        1
330
1E
  0
DICTIONARY
  5
709
102
{ACAD_REACTORS
330
C
102
}
330
C
100
AcDbDictionary
281
     1
  3
CANNOSCALE
350
8C5
  3
CMLEADERSTYLE
350
8C4
  3
CTABLESTYLE
350
70A
  3
DIMASSOC
350
86A
  3
HIDETEXT
350
869
  3
INDEXCTL
350
8C7
  3
PROJECTNAME
350
86B
  3
SORTENTS
350
8C6
  3
XCLIPFRAME
350
8C8
  0
DICTIONARY
  5
706
102
{ACAD_REACTORS
330
C
102
}
330
C
100
AcDbDictionary
281
     1
  3
ASEBlockHierarchyIndexRecord
350
707
1001
DCO15
1040
1554704426.515
  0
XRECORD
  5
8CC
102
{ACAD_REACTORS
330
C
102
}
330
C
100
AcDbXrecord
280
     1
  1
DWGPROPS COOKIE
  2

  3

  4

  6

  7

  8
Julio
  9

300
=
301
=
302
=
303
=
304
=
305
=
306
=
307
=
308
=
309
=
 40
0.0048497222222222
 41
2453797.512999665
 42
2456149.579696713
  1

 90
        0
  0
XRECORD
  5
8B1
102
{ACAD_REACTORS
330
8B0
102
}
330
8B0
100
AcDbXrecord
280
     1
290
     1
  0
XRECORD
  5
8B3
102
{ACAD_REACTORS
330
8B2
102
}
330
8B2
100
AcDbXrecord
280
     1
290
     1
  0
XRECORD
  5
8B5
102
{ACAD_REACTORS
330
8B4
102
}
330
8B4
100
AcDbXrecord
280
     1
290
     1
  0
XRECORD
  5
8B7
102
{ACAD_REACTORS
330
8B6
102
}
330
8B6
100
AcDbXrecord
280
     1
290
     1
  0
XRECORD
  5
8B9
102
{ACAD_REACTORS
330
8B8
102
}
330
8B8
100
AcDbXrecord
280
     1
290
     1
  0
XRECORD
  5
8BB
102
{ACAD_REACTORS
330
8BA
102
}
330
8BA
100
AcDbXrecord
280
     1
290
     1
  0
XRECORD
  5
8BD
102
{ACAD_REACTORS
330
8BC
102
}
330
8BC
100
AcDbXrecord
280
     1
290
     1
  0
XRECORD
  5
8BF
102
{ACAD_REACTORS
330
8BE
102
}
330
8BE
100
AcDbXrecord
280
     1
290
     1
  0
XRECORD
  5
8C1
102
{ACAD_REACTORS
330
8C0
102
}
330
8C0
100
AcDbXrecord
280
     1
290
     1
  0
XRECORD
  5
8C3
102
{ACAD_REACTORS
330
8C2
102
}
330
8C2
100
AcDbXrecord
280
     1
290
     1
  0
LAYOUT
  5
22
102
{ACAD_XDICTIONARY
360
8CE
102
}
102
{ACAD_REACTORS
330
1A
102
}
330
1A
100
AcDbPlotSettings
  1

  2
HP DesignJet 500PS42+HPGL2 Card
  4

  6

 40
0.0
 41
0.0
 42
0.0
 43
0.0
 44
0.0
 45
0.0
 46
0.0
 47
0.0
 48
0.0
 49
0.0
140
0.0
141
0.0
142
1.0
143
1.0
 70
   688
 72
     0
 73
     0
 74
     5
  7
C:\Documents and Settings\Julio\Application Data\Autodesk\AutoCAD 2006\R16.2\enu\Plot Styles\sanindusa.ctb
 75
    16
147
1.0
148
0.0
149
0.0
100
AcDbLayout
  1
Layout1
 70
     1
 71
     1
 10
0.0
 20
0.0
 11
420.0
 21
297.0
 12
0.0
 22
0.0
 32
0.0
 14
1.000000000000000E+20
 24
1.000000000000000E+20
 34
1.000000000000000E+20
 15
-1.000000000000000E+20
 25
-1.000000000000000E+20
 35
-1.000000000000000E+20
146
0.0
 13
0.0
 23
0.0
 33
0.0
 16
1.0
 26
0.0
 36
0.0
 17
0.0
 27
1.0
 37
0.0
 76
     0
330
1F
  0
LAYOUT
  5
2A
102
{ACAD_XDICTIONARY
360
8D2
102
}
102
{ACAD_REACTORS
330
1A
102
}
330
1A
100
AcDbPlotSettings
  1

  2
HP DesignJet 500PS42+HPGL2 Card
  4

  6

 40
0.0
 41
0.0
 42
0.0
 43
0.0
 44
0.0
 45
0.0
 46
0.0
 47
0.0
 48
0.0
 49
0.0
140
0.0
141
0.0
142
1.0
143
1.0
 70
   688
 72
     0
 73
     0
 74
     5
  7
C:\Documents and Settings\Julio\Application Data\Autodesk\AutoCAD 2006\R16.2\enu\Plot Styles\sanindusa.ctb
 75
    16
147
1.0
148
0.0
149
0.0
100
AcDbLayout
  1
Layout2
 70
     1
 71
     2
 10
0.0
 20
0.0
 11
12.0
 21
9.0
 12
0.0
 22
0.0
 32
0.0
 14
0.0
 24
0.0
 34
0.0
 15
0.0
 25
0.0
 35
0.0
146
0.0
 13
0.0
 23
0.0
 33
0.0
 16
1.0
 26
0.0
 36
0.0
 17
0.0
 27
1.0
 37
0.0
 76
     0
330
27
  0
LAYOUT
  5
26
102
{ACAD_XDICTIONARY
360
8D0
102
}
102
{ACAD_REACTORS
330
1A
102
}
330
1A
100
AcDbPlotSettings
  1

  2
HP DesignJet 500PS42+HPGL2 Card
  4

  6

 40
0.0
 41
0.0
 42
0.0
 43
0.0
 44
0.0
 45
0.0
 46
0.0
 47
0.0
 48
0.0
 49
0.0
140
0.0
141
0.0
142
1.0
143
1.0
 70
  1712
 72
     0
 73
     0
 74
     0
  7
C:\Documents and Settings\Julio\Application Data\Autodesk\AutoCAD 2006\R16.2\enu\Plot Styles\sanindusa.ctb
 75
     0
147
1.0
148
0.0
149
0.0
100
AcDbLayout
  1
Model
 70
     1
 71
     0
 10
0.0
 20
0.0
 11
12.0
 21
9.0
 12
0.0
 22
0.0
 32
0.0
 14
0.0
 24
0.0
 34
0.0
 15
0.0
 25
0.0
 35
0.0
146
0.0
 13
0.0
 23
0.0
 33
0.0
 16
1.0
 26
0.0
 36
0.0
 17
0.0
 27
1.0
 37
0.0
 76
     0
330
23
331
861
  0
MATERIAL
  5
875
102
{ACAD_XDICTIONARY
360
876
102
}
102
{ACAD_REACTORS
330
1B
102
}
330
1B
100
AcDbMaterial
  1
ByBlock
 72
     0
 43
0.0008202099737533
 43
0.0
 43
0.0
 43
0.0
 43
0.0
 43
0.0008202099737533
 43
0.0
 43
0.0
 43
0.0
 43
0.0
 43
1.0
 43
0.0
 43
0.0
 43
0.0
 43
0.0
 43
1.0
 77
     0
 47
0.0008202099737533
 47
0.0
 47
0.0
 47
0.0
 47
0.0
 47
0.0008202099737533
 47
0.0
 47
0.0
 47
0.0
 47
0.0
 47
1.0
 47
0.0
 47
0.0
 47
0.0
 47
0.0
 47
1.0
171
     0
 49
0.0008202099737533
 49
0.0
 49
0.0
 49
0.0
 49
0.0
 49
0.0008202099737533
 49
0.0
 49
0.0
 49
0.0
 49
0.0
 49
1.0
 49
0.0
 49
0.0
 49
0.0
 49
0.0
 49
1.0
175
     0
142
0.0008202099737533
142
0.0
142
0.0
142
0.0
142
0.0
142
0.0008202099737533
142
0.0
142
0.0
142
0.0
142
0.0
142
1.0
142
0.0
142
0.0
142
0.0
142
0.0
142
1.0
179
     0
144
0.0008202099737533
144
0.0
144
0.0
144
0.0
144
0.0
144
0.0008202099737533
144
0.0
144
0.0
144
0.0
144
0.0
144
1.0
144
0.0
144
0.0
144
0.0
144
0.0
144
1.0
147
0.0008202099737533
147
0.0
147
0.0
147
0.0
147
0.0
147
0.0008202099737533
147
0.0
147
0.0
147
0.0
147
0.0
147
1.0
147
0.0
147
0.0
147
0.0
147
0.0
147
1.0
  0
MATERIAL
  5
86D
102
{ACAD_XDICTIONARY
360
86E
102
}
102
{ACAD_REACTORS
330
1B
102
}
330
1B
100
AcDbMaterial
  1
ByLayer
 72
     0
 43
0.0008202099737533
 43
0.0
 43
0.0
 43
0.0
 43
0.0
 43
0.0008202099737533
 43
0.0
 43
0.0
 43
0.0
 43
0.0
 43
1.0
 43
0.0
 43
0.0
 43
0.0
 43
0.0
 43
1.0
 77
     0
 47
0.0008202099737533
 47
0.0
 47
0.0
 47
0.0
 47
0.0
 47
0.0008202099737533
 47
0.0
 47
0.0
 47
0.0
 47
0.0
 47
1.0
 47
0.0
 47
0.0
 47
0.0
 47
0.0
 47
1.0
171
     0
 49
0.0008202099737533
 49
0.0
 49
0.0
 49
0.0
 49
0.0
 49
0.0008202099737533
 49
0.0
 49
0.0
 49
0.0
 49
0.0
 49
1.0
 49
0.0
 49
0.0
 49
0.0
 49
0.0
 49
1.0
175
     0
142
0.0008202099737533
142
0.0
142
0.0
142
0.0
142
0.0
142
0.0008202099737533
142
0.0
142
0.0
142
0.0
142
0.0
142
1.0
142
0.0
142
0.0
142
0.0
142
0.0
142
1.0
179
     0
144
0.0008202099737533
144
0.0
144
0.0
144
0.0
144
0.0
144
0.0008202099737533
144
0.0
144
0.0
144
0.0
144
0.0
144
1.0
144
0.0
144
0.0
144
0.0
144
0.0
144
1.0
147
0.0008202099737533
147
0.0
147
0.0
147
0.0
147
0.0
147
0.0008202099737533
147
0.0
147
0.0
147
0.0
147
0.0
147
1.0
147
0.0
147
0.0
147
0.0
147
0.0
147
1.0
  0
MATERIAL
  5
87D
102
{ACAD_XDICTIONARY
360
87E
102
}
102
{ACAD_REACTORS
330
1B
102
}
330
1B
100
AcDbMaterial
  1
Global
 72
     0
 43
0.0008202099737533
 43
0.0
 43
0.0
 43
0.0
 43
0.0
 43
0.0008202099737533
 43
0.0
 43
0.0
 43
0.0
 43
0.0
 43
1.0
 43
0.0
 43
0.0
 43
0.0
 43
0.0
 43
1.0
 77
     0
 47
0.0008202099737533
 47
0.0
 47
0.0
 47
0.0
 47
0.0
 47
0.0008202099737533
 47
0.0
 47
0.0
 47
0.0
 47
0.0
 47
1.0
 47
0.0
 47
0.0
 47
0.0
 47
0.0
 47
1.0
171
     0
 49
0.0008202099737533
 49
0.0
 49
0.0
 49
0.0
 49
0.0
 49
0.0008202099737533
 49
0.0
 49
0.0
 49
0.0
 49
0.0
 49
1.0
 49
0.0
 49
0.0
 49
0.0
 49
0.0
 49
1.0
175
     0
142
0.0008202099737533
142
0.0
142
0.0
142
0.0
142
0.0
142
0.0008202099737533
142
0.0
142
0.0
142
0.0
142
0.0
142
1.0
142
0.0
142
0.0
142
0.0
142
0.0
142
1.0
179
     0
144
0.0008202099737533
144
0.0
144
0.0
144
0.0
144
0.0
144
0.0008202099737533
144
0.0
144
0.0
144
0.0
144
0.0
144
1.0
144
0.0
144
0.0
144
0.0
144
0.0
144
1.0
147
0.0008202099737533
147
0.0
147
0.0
147
0.0
147
0.0
147
0.0008202099737533
147
0.0
147
0.0
147
0.0
147
0.0
147
1.0
147
0.0
147
0.0
147
0.0
147
0.0
147
1.0
  0
MLEADERSTYLE
  5
8AC
102
{ACAD_REACTORS
330
8AB
102
}
330
8AB
100
AcDbMLeaderStyle
170
     2
171
     1
172
     0
 90
        2
 40
0.0
 41
0.0
173
     1
 91
-1056964608
340
14
 92
       -2
290
     1
 42
2.0
291
     1
 43
0.36
  3
Standard
 44
4.0
300

342
11
174
     1
178
     6
175
     1
176
     0
 93
-1056964608
 45
4.0
292
     0
297
     0
 46
4.0
 94
-1056964608
 47
1.0
 49
1.0
140
1.0
293
     1
141
0.0
294
     1
177
     0
142
1.0
295
     0
296
     0
143
0.125
1001
ACAD_MLEADERVER
1070
     2
  0
MLINESTYLE
  5
18
102
{ACAD_REACTORS
330
17
102
}
330
17
100
AcDbMlineStyle
  2
STANDARD
 70
     0
  3

 62
   256
 51
90.0
 52
90.0
 71
     2
 49
0.5
 62
   256
  6
BYLAYER
 49
-0.5
 62
   256
  6
BYLAYER
  0
ACDBPLACEHOLDER
  5
F
102
{ACAD_REACTORS
330
E
102
}
330
E
  0
SCALE
  5
89A
102
{ACAD_REACTORS
330
899
102
}
330
899
100
AcDbScale
 70
     0
300
1:1
140
1.0
141
1.0
290
     1
  0
SCALE
  5
89B
102
{ACAD_REACTORS
330
899
102
}
330
899
100
AcDbScale
 70
     0
300
1:2
140
1.0
141
2.0
290
     0
  0
SCALE
  5
89C
102
{ACAD_REACTORS
330
899
102
}
330
899
100
AcDbScale
 70
     0
300
1:4
140
1.0
141
4.0
290
     0
  0
SCALE
  5
89D
102
{ACAD_REACTORS
330
899
102
}
330
899
100
AcDbScale
 70
     0
300
1:5
140
1.0
141
5.0
290
     0
  0
SCALE
  5
89E
102
{ACAD_REACTORS
330
899
102
}
330
899
100
AcDbScale
 70
     0
300
1:8
140
1.0
141
8.0
290
     0
  0
SCALE
  5
89F
102
{ACAD_REACTORS
330
899
102
}
330
899
100
AcDbScale
 70
     0
300
1:10
140
1.0
141
10.0
290
     0
  0
SCALE
  5
8A0
102
{ACAD_REACTORS
330
899
102
}
330
899
100
AcDbScale
 70
     0
300
1:16
140
1.0
141
16.0
290
     0
  0
SCALE
  5
8A1
102
{ACAD_REACTORS
330
899
102
}
330
899
100
AcDbScale
 70
     0
300
1:20
140
1.0
141
20.0
290
     0
  0
SCALE
  5
8A2
102
{ACAD_REACTORS
330
899
102
}
330
899
100
AcDbScale
 70
     0
300
1:30
140
1.0
141
30.0
290
     0
  0
SCALE
  5
8A3
102
{ACAD_REACTORS
330
899
102
}
330
899
100
AcDbScale
 70
     0
300
1:40
140
1.0
141
40.0
290
     0
  0
SCALE
  5
8A4
102
{ACAD_REACTORS
330
899
102
}
330
899
100
AcDbScale
 70
     0
300
1:50
140
1.0
141
50.0
290
     0
  0
SCALE
  5
8A5
102
{ACAD_REACTORS
330
899
102
}
330
899
100
AcDbScale
 70
     0
300
1:100
140
1.0
141
100.0
290
     0
  0
SCALE
  5
8A6
102
{ACAD_REACTORS
330
899
102
}
330
899
100
AcDbScale
 70
     0
300
2:1
140
2.0
141
1.0
290
     0
  0
SCALE
  5
8A7
102
{ACAD_REACTORS
330
899
102
}
330
899
100
AcDbScale
 70
     0
300
4:1
140
4.0
141
1.0
290
     0
  0
SCALE
  5
8A8
102
{ACAD_REACTORS
330
899
102
}
330
899
100
AcDbScale
 70
     0
300
8:1
140
8.0
141
1.0
290
     0
  0
SCALE
  5
8A9
102
{ACAD_REACTORS
330
899
102
}
330
899
100
AcDbScale
 70
     0
300
10:1
140
10.0
141
1.0
290
     0
  0
SCALE
  5
8AA
102
{ACAD_REACTORS
330
899
102
}
330
899
100
AcDbScale
 70
     0
300
100:1
140
100.0
141
1.0
290
     0
  0
TABLESTYLE
  5
1E
102
{ACAD_XDICTIONARY
360
8C9
102
}
102
{ACAD_REACTORS
330
1D
102
}
330
1D
100
AcDbTableStyle
  3
Standard
 70
     0
 71
     0
 40
1.5
 41
1.5
280
     0
281
     0
  7
Standard
140
4.5
170
     2
 62
     0
 63
     7
283
     0
274
    -2
284
     1
 64
     0
275
    -2
285
     1
 65
     0
276
    -2
286
     1
 66
     0
277
    -2
287
     1
 67
     0
278
    -2
288
     1
 68
     0
279
    -2
289
     1
 69
     0
  7
Standard
140
6.0
170
     5
 62
     0
 63
     7
283
     0
274
    -2
284
     1
 64
     0
275
    -2
285
     1
 65
     0
276
    -2
286
     1
 66
     0
277
    -2
287
     1
 67
     0
278
    -2
288
     1
 68
     0
279
    -2
289
     1
 69
     0
  7
Standard
140
4.5
170
     5
 62
     0
 63
     7
283
     0
274
    -2
284
     1
 64
     0
275
    -2
285
     1
 65
     0
276
    -2
286
     1
 66
     0
277
    -2
287
     1
 67
     0
278
    -2
288
     1
 68
     0
279
    -2
289
     1
 69
     0
  0
VISUALSTYLE
  5
88B
102
{ACAD_XDICTIONARY
360
8E1
102
}
102
{ACAD_REACTORS
330
885
102
}
330
885
100
AcDbVisualStyle
  2
2dWireframe
 70
     4
 71
     0
 72
     2
 73
     0
 90
        0
 40
-0.6
 41
-30.0
 62
     5
 63
     7
 74
     1
 91
        4
 64
     7
 65
   257
 75
     1
175
     1
 42
1.0
 92
        0
 66
   257
 43
1.0
 76
     1
 77
     6
 78
     2
 67
     7
 79
     5
170
     0
171
     0
290
     0
174
     0
 93
        1
 44
0.0
173
     0
291
     0
 45
0.0
1001
ACAD
1000
AcDbSavedByObjectVersion
1070
     0
  0
VISUALSTYLE
  5
88D
102
{ACAD_XDICTIONARY
360
8E5
102
}
102
{ACAD_REACTORS
330
885
102
}
330
885
100
AcDbVisualStyle
  2
3D Hidden
 70
     6
 71
     1
 72
     2
 73
     2
 90
        0
 40
-0.6
 41
-30.0
 62
     5
 63
     7
 74
     2
 91
        2
 64
     7
 65
   257
 75
     2
175
     1
 42
179.0
 92
        0
 66
   257
 43
1.0
 76
     1
 77
     6
 78
     2
 67
     7
 79
     3
170
     0
171
     0
290
     0
174
     0
 93
        1
 44
0.0
173
     0
291
     0
 45
0.0
1001
ACAD
1000
AcDbSavedByObjectVersion
1070
     0
  0
VISUALSTYLE
  5
88C
102
{ACAD_XDICTIONARY
360
8E3
102
}
102
{ACAD_REACTORS
330
885
102
}
330
885
100
AcDbVisualStyle
  2
3dWireframe
 70
     5
 71
     0
 72
     2
 73
     0
 90
        0
 40
-0.6
 41
-30.0
 62
     5
 63
     7
 74
     1
 91
        4
 64
     7
 65
   257
 75
     1
175
     1
 42
1.0
 92
        0
 66
   257
 43
1.0
 76
     1
 77
     6
 78
     2
 67
     7
 79
     5
170
     0
171
     0
290
     0
174
     0
 93
        1
 44
0.0
173
     0
291
     0
 45
0.0
1001
ACAD
1000
AcDbSavedByObjectVersion
1070
     0
  0
VISUALSTYLE
  5
88A
102
{ACAD_XDICTIONARY
360
8DF
102
}
102
{ACAD_REACTORS
330
885
102
}
330
885
100
AcDbVisualStyle
  2
Basic
 70
     7
 71
     1
 72
     0
 73
     1
 90
        0
 40
-0.6
 41
-30.0
 62
     5
 63
     7
 74
     0
 91
        4
 64
     7
 65
   257
 75
     1
175
     1
 42
1.0
 92
        8
 66
     7
 43
1.0
 76
     1
 77
     6
 78
     2
 67
     7
 79
     5
170
     0
171
     0
290
     0
174
     0
 93
        1
 44
0.0
173
     0
291
     1
 45
0.0
1001
ACAD
1000
AcDbSavedByObjectVersion
1070
     0
  0
VISUALSTYLE
  5
891
102
{ACAD_XDICTIONARY
360
8ED
102
}
102
{ACAD_REACTORS
330
885
102
}
330
885
100
AcDbVisualStyle
  2
Brighten
 70
    12
 71
     2
 72
     2
 73
     0
 90
        0
 40
-0.6
 41
-30.0
 62
     5
 63
     7
 74
     1
 91
        4
 64
     7
 65
   257
 75
     1
175
     1
 42
1.0
 92
        8
 66
     7
 43
1.0
 76
     1
 77
     6
 78
     2
 67
     7
 79
     5
170
     0
171
     0
290
     0
174
     0
 93
        1
 44
50.0
173
     0
291
     1
 45
0.0
1001
ACAD
1000
AcDbSavedByObjectVersion
1070
     0
  0
VISUALSTYLE
  5
895
102
{ACAD_XDICTIONARY
360
8F5
102
}
102
{ACAD_REACTORS
330
885
102
}
330
885
100
AcDbVisualStyle
  2
ColorChange
 70
    16
 71
     2
 72
     2
 73
     3
 90
        0
 40
-0.6
 41
-30.0
 62
     5
 63
     8
 74
     1
 91
        4
 64
     7
 65
   257
 75
     1
175
     1
 42
1.0
 92
        8
 66
     8
 43
1.0
 76
     1
 77
     6
 78
     2
 67
     7
 79
     5
170
     0
171
     0
290
     0
174
     0
 93
        1
 44
0.0
173
     0
291
     1
 45
0.0
1001
ACAD
1000
AcDbSavedByObjectVersion
1070
     0
  0
VISUALSTYLE
  5
88E
102
{ACAD_XDICTIONARY
360
8E7
102
}
102
{ACAD_REACTORS
330
885
102
}
330
885
100
AcDbVisualStyle
  2
Conceptual
 70
     9
 71
     3
 72
     2
 73
     0
 90
        0
 40
-0.6
 41
-30.0
 62
     5
 63
     7
 74
     2
 91
        2
 64
     7
 65
   257
 75
     1
175
     1
 42
179.0
 92
        8
 66
     7
 43
1.0
 76
     1
 77
     6
 78
     2
 67
     7
 79
     3
170
     0
171
     0
290
     0
174
     0
 93
        1
 44
0.0
173
     0
291
     0
 45
0.0
1001
ACAD
1000
AcDbSavedByObjectVersion
1070
     0
  0
VISUALSTYLE
  5
890
102
{ACAD_XDICTIONARY
360
8EB
102
}
102
{ACAD_REACTORS
330
885
102
}
330
885
100
AcDbVisualStyle
  2
Dim
 70
    11
 71
     2
 72
     2
 73
     0
 90
        0
 40
-0.6
 41
-30.0
 62
     5
 63
     7
 74
     1
 91
        4
 64
     7
 65
   257
 75
     1
175
     1
 42
1.0
 92
        8
 66
     7
 43
1.0
 76
     1
 77
     6
 78
     2
 67
     7
 79
     5
170
     0
171
     0
290
     0
174
     0
 93
        1
 44
-50.0
173
     0
291
     1
 45
0.0
1001
ACAD
1000
AcDbSavedByObjectVersion
1070
     0
  0
VISUALSTYLE
  5
898
102
{ACAD_XDICTIONARY
360
8FB
102
}
102
{ACAD_REACTORS
330
885
102
}
330
885
100
AcDbVisualStyle
  2
EdgeColorOff
 70
    22
 71
     2
 72
     2
 73
     0
 90
        0
 40
-0.6
 41
-30.0
 62
     5
 63
     7
 74
     1
 91
        4
 64
     7
 65
   257
 75
     1
175
     1
 42
1.0
 92
        8
 66
     7
 43
1.0
 76
     1
 77
     6
 78
     2
 67
     7
 79
     5
170
     0
171
     0
290
     0
174
     0
 93
        1
 44
0.0
173
     0
291
     1
 45
0.0
1001
ACAD
1000
AcDbSavedByObjectVersion
1070
     0
  0
VISUALSTYLE
  5
894
102
{ACAD_XDICTIONARY
360
8F3
102
}
102
{ACAD_REACTORS
330
885
102
}
330
885
100
AcDbVisualStyle
  2
Facepattern
 70
    15
 71
     2
 72
     2
 73
     0
 90
        0
 40
-0.6
 41
-30.0
 62
     5
 63
     7
 74
     1
 91
        4
 64
     7
 65
   257
 75
     1
175
     1
 42
1.0
 92
        8
 66
     7
 43
1.0
 76
     1
 77
     6
 78
     2
 67
     7
 79
     5
170
     0
171
     0
290
     0
174
     0
 93
        1
 44
0.0
173
     0
291
     1
 45
0.0
1001
ACAD
1000
AcDbSavedByObjectVersion
1070
     0
  0
VISUALSTYLE
  5
886
102
{ACAD_XDICTIONARY
360
8D7
102
}
102
{ACAD_REACTORS
330
885
102
}
330
885
100
AcDbVisualStyle
  2
Flat
 70
     0
 71
     2
 72
     1
 73
     1
 90
        2
 40
-0.6
 41
30.0
 62
     5
 63
     7
 74
     0
 91
        4
 64
     7
 65
   257
 75
     1
175
     1
 42
1.0
 92
        8
 66
     7
 43
1.0
 76
     1
 77
     6
 78
     2
 67
     7
 79
     5
170
     0
171
     0
290
     0
174
     0
 93
       13
 44
0.0
173
     0
291
     1
 45
0.0
1001
ACAD
1000
AcDbSavedByObjectVersion
1070
     0
  0
VISUALSTYLE
  5
887
102
{ACAD_XDICTIONARY
360
8D9
102
}
102
{ACAD_REACTORS
330
885
102
}
330
885
100
AcDbVisualStyle
  2
FlatWithEdges
 70
     1
 71
     2
 72
     1
 73
     1
 90
        2
 40
-0.6
 41
30.0
 62
     5
 63
     7
 74
     1
 91
        4
 64
     7
 65
   257
 75
     1
175
     1
 42
1.0
 92
        0
 66
   257
 43
1.0
 76
     1
 77
     6
 78
     2
 67
     7
 79
     5
170
     0
171
     0
290
     0
174
     0
 93
       13
 44
0.0
173
     0
291
     1
 45
0.0
1001
ACAD
1000
AcDbSavedByObjectVersion
1070
     0
  0
VISUALSTYLE
  5
888
102
{ACAD_XDICTIONARY
360
8DB
102
}
102
{ACAD_REACTORS
330
885
102
}
330
885
100
AcDbVisualStyle
  2
Gouraud
 70
     2
 71
     2
 72
     2
 73
     1
 90
        2
 40
-0.6
 41
30.0
 62
     5
 63
     7
 74
     0
 91
        4
 64
     7
 65
   257
 75
     1
175
     1
 42
1.0
 92
        0
 66
     7
 43
1.0
 76
     1
 77
     6
 78
     2
 67
     7
 79
     5
170
     0
171
     0
290
     0
174
     0
 93
       13
 44
0.0
173
     0
291
     1
 45
0.0
1001
ACAD
1000
AcDbSavedByObjectVersion
1070
     0
  0
VISUALSTYLE
  5
889
102
{ACAD_XDICTIONARY
360
8DD
102
}
102
{ACAD_REACTORS
330
885
102
}
330
885
100
AcDbVisualStyle
  2
GouraudWithEdges
 70
     3
 71
     2
 72
     2
 73
     1
 90
        2
 40
-0.6
 41
30.0
 62
     5
 63
     7
 74
     1
 91
        4
 64
     7
 65
   257
 75
     1
175
     1
 42
1.0
 92
        0
 66
   257
 43
1.0
 76
     1
 77
     6
 78
     2
 67
     7
 79
     5
170
     0
171
     0
290
     0
174
     0
 93
       13
 44
0.0
173
     0
291
     1
 45
0.0
1001
ACAD
1000
AcDbSavedByObjectVersion
1070
     0
  0
VISUALSTYLE
  5
896
102
{ACAD_XDICTIONARY
360
8F7
102
}
102
{ACAD_REACTORS
330
885
102
}
330
885
100
AcDbVisualStyle
  2
JitterOff
 70
    20
 71
     2
 72
     2
 73
     0
 90
        0
 40
-0.6
 41
-30.0
 62
     5
 63
     7
 74
     1
 91
        4
 64
     7
 65
   257
 75
     1
175
     1
 42
1.0
 92
       10
 66
     7
 43
1.0
 76
     1
 77
     6
 78
     2
 67
     7
 79
     5
170
     0
171
     0
290
     0
174
     0
 93
        1
 44
0.0
173
     0
291
     1
 45
0.0
1001
ACAD
1000
AcDbSavedByObjectVersion
1070
     0
  0
VISUALSTYLE
  5
893
102
{ACAD_XDICTIONARY
360
8F1
102
}
102
{ACAD_REACTORS
330
885
102
}
330
885
100
AcDbVisualStyle
  2
Linepattern
 70
    14
 71
     2
 72
     2
 73
     0
 90
        0
 40
-0.6
 41
-30.0
 62
     5
 63
     7
 74
     1
 91
        4
 64
     7
 65
   257
 75
     7
175
     7
 42
1.0
 92
        8
 66
     7
 43
1.0
 76
     1
 77
     6
 78
     2
 67
     7
 79
     5
170
     0
171
     0
290
     0
174
     0
 93
        1
 44
0.0
173
     0
291
     1
 45
0.0
1001
ACAD
1000
AcDbSavedByObjectVersion
1070
     0
  0
VISUALSTYLE
  5
897
102
{ACAD_XDICTIONARY
360
8F9
102
}
102
{ACAD_REACTORS
330
885
102
}
330
885
100
AcDbVisualStyle
  2
OverhangOff
 70
    21
 71
     2
 72
     2
 73
     0
 90
        0
 40
-0.6
 41
-30.0
 62
     5
 63
     7
 74
     1
 91
        4
 64
     7
 65
   257
 75
     1
175
     1
 42
1.0
 92
        9
 66
     7
 43
1.0
 76
     1
 77
     6
 78
     2
 67
     7
 79
     5
170
     0
171
     0
290
     0
174
     0
 93
        1
 44
0.0
173
     0
291
     1
 45
0.0
1001
ACAD
1000
AcDbSavedByObjectVersion
1070
     0
  0
VISUALSTYLE
  5
88F
102
{ACAD_XDICTIONARY
360
8E9
102
}
102
{ACAD_REACTORS
330
885
102
}
330
885
100
AcDbVisualStyle
  2
Realistic
 70
     8
 71
     2
 72
     2
 73
     0
 90
        0
 40
-0.6
 41
-30.0
 62
     5
 63
     7
 74
     1
 91
        0
 64
     7
 65
   257
 75
     1
175
     1
 42
1.0
 92
        8
 66
     8
 43
1.0
 76
     1
 77
     6
 78
     2
 67
     7
 79
     5
170
     0
171
     0
290
     0
174
     0
 93
       13
 44
0.0
173
     0
291
     0
 45
0.0
1001
ACAD
1000
AcDbSavedByObjectVersion
1070
     0
  0
VISUALSTYLE
  5
892
102
{ACAD_XDICTIONARY
360
8EF
102
}
102
{ACAD_REACTORS
330
885
102
}
330
885
100
AcDbVisualStyle
  2
Thicken
 70
    13
 71
     2
 72
     2
 73
     0
 90
        0
 40
-0.6
 41
-30.0
 62
     5
 63
     7
 74
     1
 91
        4
 64
     7
 65
   257
 75
     1
175
     1
 42
1.0
 92
       12
 66
     7
 43
1.0
 76
     1
 77
     6
 78
     2
 67
     7
 79
     5
170
     0
171
     0
290
     0
174
     0
 93
        1
 44
0.0
173
     0
291
     1
 45
0.0
1001
ACAD
1000
AcDbSavedByObjectVersion
1070
     0
  0
DICTIONARYVAR
  5
8C5
102
{ACAD_REACTORS
330
709
102
}
330
709
100
DictionaryVariables
280
     0
  1
1:1
  0
DICTIONARYVAR
  5
8C4
102
{ACAD_REACTORS
330
709
102
}
330
709
100
DictionaryVariables
280
     0
  1
STANDARD
  0
DICTIONARYVAR
  5
70A
102
{ACAD_REACTORS
330
709
102
}
330
709
100
DictionaryVariables
280
     0
  1
STANDARD
  0
DICTIONARYVAR
  5
86A
102
{ACAD_REACTORS
330
709
102
}
330
709
100
DictionaryVariables
280
     0
  1
2
  0
DICTIONARYVAR
  5
869
102
{ACAD_REACTORS
330
709
102
}
330
709
100
DictionaryVariables
280
     0
  1
1
  0
DICTIONARYVAR
  5
8C7
102
{ACAD_REACTORS
330
709
102
}
330
709
100
DictionaryVariables
280
     0
  1
0
  0
DICTIONARYVAR
  5
86B
102
{ACAD_REACTORS
330
709
102
}
330
709
100
DictionaryVariables
280
     0
  1

  0
DICTIONARYVAR
  5
8C6
102
{ACAD_REACTORS
330
709
102
}
330
709
100
DictionaryVariables
280
     0
  1
127
  0
DICTIONARYVAR
  5
8C8
102
{ACAD_REACTORS
330
709
102
}
330
709
100
DictionaryVariables
280
     0
  1
2
  0
XRECORD
  5
707
102
{ACAD_REACTORS
330
706
102
}
330
706
100
AcDbXrecord
280
     1
  0
DICTIONARY
  5
8CE
330
22
100
AcDbDictionary
280
     1
281
     1
  3
ACAD_XREC_ROUNDTRIP
360
8CF
  0
DICTIONARY
  5
8D2
330
2A
100
AcDbDictionary
280
     1
281
     1
  3
ACAD_XREC_ROUNDTRIP
360
8D3
  0
DICTIONARY
  5
8D0
330
26
100
AcDbDictionary
280
     1
281
     1
  3
ACAD_XREC_ROUNDTRIP
360
8D1
  0
DICTIONARY
  5
876
330
875
100
AcDbDictionary
280
     1
281
     1
  3
ACAD_XREC_ROUNDTRIP
360
8D5
  3
BUMPTILE
360
878
  3
DIFFUSETILE
360
877
  3
OPACITYTILE
360
87B
  3
REFLECTIONTILE
360
87A
  3
REFRACTIONTILE
360
87C
  3
SPECULARTILE
360
879
  0
DICTIONARY
  5
86E
330
86D
100
AcDbDictionary
280
     1
281
     1
  3
ACAD_XREC_ROUNDTRIP
360
8D4
  3
BUMPTILE
360
870
  3
DIFFUSETILE
360
86F
  3
OPACITYTILE
360
873
  3
REFLECTIONTILE
360
872
  3
REFRACTIONTILE
360
874
  3
SPECULARTILE
360
871
  0
DICTIONARY
  5
87E
330
87D
100
AcDbDictionary
280
     1
281
     1
  3
ACAD_XREC_ROUNDTRIP
360
8D6
  3
BUMPTILE
360
880
  3
DIFFUSETILE
360
87F
  3
OPACITYTILE
360
883
  3
REFLECTIONTILE
360
882
  3
REFRACTIONTILE
360
884
  3
SPECULARTILE
360
881
  0
DICTIONARY
  5
8C9
330
1E
100
AcDbDictionary
280
     1
281
     1
  3
ACAD_ROUNDTRIP_2008_TABLESTYLE_CELLSTYLEMAP
360
8CA
  3
ACAD_XREC_ROUNDTRIP
360
8CD
  0
DICTIONARY
  5
8E1
330
88B
100
AcDbDictionary
280
     1
281
     1
  3
ACAD_XREC_ROUNDTRIP
360
8E2
  0
DICTIONARY
  5
8E5
330
88D
100
AcDbDictionary
280
     1
281
     1
  3
ACAD_XREC_ROUNDTRIP
360
8E6
  0
DICTIONARY
  5
8E3
330
88C
100
AcDbDictionary
280
     1
281
     1
  3
ACAD_XREC_ROUNDTRIP
360
8E4
  0
DICTIONARY
  5
8DF
330
88A
100
AcDbDictionary
280
     1
281
     1
  3
ACAD_XREC_ROUNDTRIP
360
8E0
  0
DICTIONARY
  5
8ED
330
891
100
AcDbDictionary
280
     1
281
     1
  3
ACAD_XREC_ROUNDTRIP
360
8EE
  0
DICTIONARY
  5
8F5
330
895
100
AcDbDictionary
280
     1
281
     1
  3
ACAD_XREC_ROUNDTRIP
360
8F6
  0
DICTIONARY
  5
8E7
330
88E
100
AcDbDictionary
280
     1
281
     1
  3
ACAD_XREC_ROUNDTRIP
360
8E8
  0
DICTIONARY
  5
8EB
330
890
100
AcDbDictionary
280
     1
281
     1
  3
ACAD_XREC_ROUNDTRIP
360
8EC
  0
DICTIONARY
  5
8FB
330
898
100
AcDbDictionary
280
     1
281
     1
  3
ACAD_XREC_ROUNDTRIP
360
8FC
  0
DICTIONARY
  5
8F3
330
894
100
AcDbDictionary
280
     1
281
     1
  3
ACAD_XREC_ROUNDTRIP
360
8F4
  0
DICTIONARY
  5
8D7
330
886
100
AcDbDictionary
280
     1
281
     1
  3
ACAD_XREC_ROUNDTRIP
360
8D8
  0
DICTIONARY
  5
8D9
330
887
100
AcDbDictionary
280
     1
281
     1
  3
ACAD_XREC_ROUNDTRIP
360
8DA
  0
DICTIONARY
  5
8DB
330
888
100
AcDbDictionary
280
     1
281
     1
  3
ACAD_XREC_ROUNDTRIP
360
8DC
  0
DICTIONARY
  5
8DD
330
889
100
AcDbDictionary
280
     1
281
     1
  3
ACAD_XREC_ROUNDTRIP
360
8DE
  0
DICTIONARY
  5
8F7
330
896
100
AcDbDictionary
280
     1
281
     1
  3
ACAD_XREC_ROUNDTRIP
360
8F8
  0
DICTIONARY
  5
8F1
330
893
100
AcDbDictionary
280
     1
281
     1
  3
ACAD_XREC_ROUNDTRIP
360
8F2
  0
DICTIONARY
  5
8F9
330
897
100
AcDbDictionary
280
     1
281
     1
  3
ACAD_XREC_ROUNDTRIP
360
8FA
  0
DICTIONARY
  5
8E9
330
88F
100
AcDbDictionary
280
     1
281
     1
  3
ACAD_XREC_ROUNDTRIP
360
8EA
  0
DICTIONARY
  5
8EF
330
892
100
AcDbDictionary
280
     1
281
     1
  3
ACAD_XREC_ROUNDTRIP
360
8F0
  0
XRECORD
  5
8CF
102
{ACAD_REACTORS
330
8CE
102
}
330
8CE
100
AcDbXrecord
280
     1
102
SHADEPLOT
 70
     0
102
SHADEPLOTRESLEVEL
 70
     2
102
SHADEPLOTCUSTOMDPI
 70
   300
  0
XRECORD
  5
8D3
102
{ACAD_REACTORS
330
8D2
102
}
330
8D2
100
AcDbXrecord
280
     1
102
SHADEPLOT
 70
     0
102
SHADEPLOTRESLEVEL
 70
     2
102
SHADEPLOTCUSTOMDPI
 70
   300
  0
XRECORD
  5
8D1
102
{ACAD_REACTORS
330
8D0
102
}
330
8D0
100
AcDbXrecord
280
     1
102
SHADEPLOT
 70
     0
102
SHADEPLOTRESLEVEL
 70
     2
102
SHADEPLOTCUSTOMDPI
 70
   300
  0
XRECORD
  5
8D5
102
{ACAD_REACTORS
330
876
102
}
330
876
100
AcDbXrecord
280
     1
102
MATERIAL
148
0.0
149
0.0
149
0.0
 93
        0
 94
      127
282
     0
 72
     0
 77
     0
171
     0
175
     0
179
     0
273
     0
  0
XRECORD
  5
878
102
{ACAD_REACTORS
330
876
102
}
330
876
100
AcDbXrecord
280
     1
270
     1
271
     1
  0
XRECORD
  5
877
102
{ACAD_REACTORS
330
876
102
}
330
876
100
AcDbXrecord
280
     1
270
     1
271
     1
  0
XRECORD
  5
87B
102
{ACAD_REACTORS
330
876
102
}
330
876
100
AcDbXrecord
280
     1
270
     1
271
     1
  0
XRECORD
  5
87A
102
{ACAD_REACTORS
330
876
102
}
330
876
100
AcDbXrecord
280
     1
270
     1
271
     1
  0
XRECORD
  5
87C
102
{ACAD_REACTORS
330
876
102
}
330
876
100
AcDbXrecord
280
     1
270
     1
271
     1
  0
XRECORD
  5
879
102
{ACAD_REACTORS
330
876
102
}
330
876
100
AcDbXrecord
280
     1
270
     1
271
     1
  0
XRECORD
  5
8D4
102
{ACAD_REACTORS
330
86E
102
}
330
86E
100
AcDbXrecord
280
     1
102
MATERIAL
148
0.0
149
0.0
149
0.0
 93
        0
 94
      127
282
     0
 72
     0
 77
     0
171
     0
175
     0
179
     0
273
     0
  0
XRECORD
  5
870
102
{ACAD_REACTORS
330
86E
102
}
330
86E
100
AcDbXrecord
280
     1
270
     1
271
     1
  0
XRECORD
  5
86F
102
{ACAD_REACTORS
330
86E
102
}
330
86E
100
AcDbXrecord
280
     1
270
     1
271
     1
  0
XRECORD
  5
873
102
{ACAD_REACTORS
330
86E
102
}
330
86E
100
AcDbXrecord
280
     1
270
     1
271
     1
  0
XRECORD
  5
872
102
{ACAD_REACTORS
330
86E
102
}
330
86E
100
AcDbXrecord
280
     1
270
     1
271
     1
  0
XRECORD
  5
874
102
{ACAD_REACTORS
330
86E
102
}
330
86E
100
AcDbXrecord
280
     1
270
     1
271
     1
  0
XRECORD
  5
871
102
{ACAD_REACTORS
330
86E
102
}
330
86E
100
AcDbXrecord
280
     1
270
     1
271
     1
  0
XRECORD
  5
8D6
102
{ACAD_REACTORS
330
87E
102
}
330
87E
100
AcDbXrecord
280
     1
102
MATERIAL
148
0.0
149
0.0
149
0.0
 93
        0
 94
      127
282
     0
 72
     0
 77
     0
171
     0
175
     0
179
     0
273
     0
  0
XRECORD
  5
880
102
{ACAD_REACTORS
330
87E
102
}
330
87E
100
AcDbXrecord
280
     1
270
     1
271
     1
  0
XRECORD
  5
87F
102
{ACAD_REACTORS
330
87E
102
}
330
87E
100
AcDbXrecord
280
     1
270
     1
271
     1
  0
XRECORD
  5
883
102
{ACAD_REACTORS
330
87E
102
}
330
87E
100
AcDbXrecord
280
     1
270
     1
271
     1
  0
XRECORD
  5
882
102
{ACAD_REACTORS
330
87E
102
}
330
87E
100
AcDbXrecord
280
     1
270
     1
271
     1
  0
XRECORD
  5
884
102
{ACAD_REACTORS
330
87E
102
}
330
87E
100
AcDbXrecord
280
     1
270
     1
271
     1
  0
XRECORD
  5
881
102
{ACAD_REACTORS
330
87E
102
}
330
87E
100
AcDbXrecord
280
     1
270
     1
271
     1
  0
CELLSTYLEMAP
  5
8CA
102
{ACAD_REACTORS
330
8C9
102
}
330
8C9
100
AcDbCellStyleMap
 90
        3
300
CELLSTYLE
  1
TABLEFORMAT_BEGIN
 90
        5
170
     1
 91
        0
 92
    32768
 62
   257
 93
        1
300
CONTENTFORMAT
  1
CONTENTFORMAT_BEGIN
 90
        0
 91
        0
 92
        4
 93
        0
300

 40
0.0
140
1.0
 94
        5
 62
     0
340
11
144
6.0
309
CONTENTFORMAT_END
171
     1
301
MARGIN
  1
CELLMARGIN_BEGIN
 40
1.5
 40
1.5
 40
1.5
 40
1.5
 40
0.18
 40
0.18
309
CELLMARGIN_END
 94
        6
 95
        1
302
GRIDFORMAT
  1
GRIDFORMAT_BEGIN
 90
        0
 91
        1
 62
     0
 92
       -2
340
0
 93
        0
 40
0.045
309
GRIDFORMAT_END
 95
        2
302
GRIDFORMAT
  1
GRIDFORMAT_BEGIN
 90
        0
 91
        1
 62
     0
 92
       -2
340
0
 93
        0
 40
0.045
309
GRIDFORMAT_END
 95
        4
302
GRIDFORMAT
  1
GRIDFORMAT_BEGIN
 90
        0
 91
        1
 62
     0
 92
       -2
340
0
 93
        0
 40
0.045
309
GRIDFORMAT_END
 95
        8
302
GRIDFORMAT
  1
GRIDFORMAT_BEGIN
 90
        0
 91
        1
 62
     0
 92
       -2
340
0
 93
        0
 40
0.045
309
GRIDFORMAT_END
 95
       16
302
GRIDFORMAT
  1
GRIDFORMAT_BEGIN
 90
        0
 91
        1
 62
     0
 92
       -2
340
0
 93
        0
 40
0.045
309
GRIDFORMAT_END
 95
       32
302
GRIDFORMAT
  1
GRIDFORMAT_BEGIN
 90
        0
 91
        1
 62
     0
 92
       -2
340
0
 93
        0
 40
0.045
309
GRIDFORMAT_END
309
TABLEFORMAT_END
  1
CELLSTYLE_BEGIN
 90
        1
 91
        1
300
_TITLE
309
CELLSTYLE_END
300
CELLSTYLE
  1
TABLEFORMAT_BEGIN
 90
        5
170
     1
 91
        0
 92
        0
 62
   257
 93
        1
300
CONTENTFORMAT
  1
CONTENTFORMAT_BEGIN
 90
        0
 91
        0
 92
        4
 93
        0
300

 40
0.0
140
1.0
 94
        5
 62
     0
340
11
144
4.5
309
CONTENTFORMAT_END
171
     1
301
MARGIN
  1
CELLMARGIN_BEGIN
 40
1.5
 40
1.5
 40
1.5
 40
1.5
 40
0.18
 40
0.18
309
CELLMARGIN_END
 94
        6
 95
        1
302
GRIDFORMAT
  1
GRIDFORMAT_BEGIN
 90
        0
 91
        1
 62
     0
 92
       -2
340
0
 93
        0
 40
0.045
309
GRIDFORMAT_END
 95
        2
302
GRIDFORMAT
  1
GRIDFORMAT_BEGIN
 90
        0
 91
        1
 62
     0
 92
       -2
340
0
 93
        0
 40
0.045
309
GRIDFORMAT_END
 95
        4
302
GRIDFORMAT
  1
GRIDFORMAT_BEGIN
 90
        0
 91
        1
 62
     0
 92
       -2
340
0
 93
        0
 40
0.045
309
GRIDFORMAT_END
 95
        8
302
GRIDFORMAT
  1
GRIDFORMAT_BEGIN
 90
        0
 91
        1
 62
     0
 92
       -2
340
0
 93
        0
 40
0.045
309
GRIDFORMAT_END
 95
       16
302
GRIDFORMAT
  1
GRIDFORMAT_BEGIN
 90
        0
 91
        1
 62
     0
 92
       -2
340
0
 93
        0
 40
0.045
309
GRIDFORMAT_END
 95
       32
302
GRIDFORMAT
  1
GRIDFORMAT_BEGIN
 90
        0
 91
        1
 62
     0
 92
       -2
340
0
 93
        0
 40
0.045
309
GRIDFORMAT_END
309
TABLEFORMAT_END
  1
CELLSTYLE_BEGIN
 90
        2
 91
        1
300
_HEADER
309
CELLSTYLE_END
300
CELLSTYLE
  1
TABLEFORMAT_BEGIN
 90
        5
170
     1
 91
        0
 92
        0
 62
   257
 93
        1
300
CONTENTFORMAT
  1
CONTENTFORMAT_BEGIN
 90
        0
 91
        0
 92
        4
 93
        0
300

 40
0.0
140
1.0
 94
        2
 62
     0
340
11
144
4.5
309
CONTENTFORMAT_END
171
     1
301
MARGIN
  1
CELLMARGIN_BEGIN
 40
1.5
 40
1.5
 40
1.5
 40
1.5
 40
0.18
 40
0.18
309
CELLMARGIN_END
 94
        6
 95
        1
302
GRIDFORMAT
  1
GRIDFORMAT_BEGIN
 90
        0
 91
        1
 62
     0
 92
       -2
340
0
 93
        0
 40
0.045
309
GRIDFORMAT_END
 95
        2
302
GRIDFORMAT
  1
GRIDFORMAT_BEGIN
 90
        0
 91
        1
 62
     0
 92
       -2
340
0
 93
        0
 40
0.045
309
GRIDFORMAT_END
 95
        4
302
GRIDFORMAT
  1
GRIDFORMAT_BEGIN
 90
        0
 91
        1
 62
     0
 92
       -2
340
0
 93
        0
 40
0.045
309
GRIDFORMAT_END
 95
        8
302
GRIDFORMAT
  1
GRIDFORMAT_BEGIN
 90
        0
 91
        1
 62
     0
 92
       -2
340
0
 93
        0
 40
0.045
309
GRIDFORMAT_END
 95
       16
302
GRIDFORMAT
  1
GRIDFORMAT_BEGIN
 90
        0
 91
        1
 62
     0
 92
       -2
340
0
 93
        0
 40
0.045
309
GRIDFORMAT_END
 95
       32
302
GRIDFORMAT
  1
GRIDFORMAT_BEGIN
 90
        0
 91
        1
 62
     0
 92
       -2
340
0
 93
        0
 40
0.045
309
GRIDFORMAT_END
309
TABLEFORMAT_END
  1
CELLSTYLE_BEGIN
 90
        3
 91
        2
300
_DATA
309
CELLSTYLE_END
  0
XRECORD
  5
8CD
102
{ACAD_REACTORS
330
8C9
102
}
330
8C9
100
AcDbXrecord
280
     1
102
ACAD_ROUNDTRIP_PRE2007_TABLESTYLE
 90
        4
 91
        0
  1

 92
        4
 93
        0
  2

 94
        4
 95
        0
  3

  0
XRECORD
  5
8E2
102
{ACAD_REACTORS
330
8E1
102
}
330
8E1
100
AcDbXrecord
280
     1
102
RTVSPropertyOp0
 70
     1
102
RTVSPropertyOp1
 70
     1
102
RTVSPropertyOp2
 70
     1
102
RTVSPropertyOp3
 70
     1
102
RTVSPropertyOp4
 70
     1
102
RTVSPropertyOp5
 70
     1
102
RTVSPropertyOp6
 70
     1
102
RTVSPropertyOp7
 70
     1
102
RTVSPropertyOp8
 70
     1
102
RTVSPropertyOp9
 70
     1
102
RTVSPropertyOp10
 70
     1
102
RTVSPropertyOp11
 70
     1
102
RTVSPropertyOp12
 70
     1
102
RTVSPropertyOp13
 70
     1
102
RTVSPropertyOp14
 70
     1
102
RTVSPropertyOp15
 70
     1
102
RTVSPropertyOp16
 70
     1
102
RTVSPropertyOp17
 70
     1
102
RTVSPropertyOp18
 70
     1
102
RTVSPropertyOp19
 70
     1
102
RTVSPropertyOp20
 70
     1
102
RTVSPropertyOp21
 70
     1
102
RTVSPropertyOp22
 70
     1
102
RTVSPropertyOp23
 70
     1
102
RTVSPropertyOp24
 70
     1
102
RTVSPropertyOp25
 70
     1
102
RTVSPropertyOp26
 70
     1
102
RTVSPropertyOp27
 70
     1
  0
XRECORD
  5
8E6
102
{ACAD_REACTORS
330
8E5
102
}
330
8E5
100
AcDbXrecord
280
     1
102
RTVSPropertyOp0
 70
     1
102
RTVSPropertyOp1
 70
     1
102
RTVSPropertyOp2
 70
     1
102
RTVSPropertyOp3
 70
     1
102
RTVSPropertyOp4
 70
     1
102
RTVSPropertyOp5
 70
     1
102
RTVSPropertyOp6
 70
     1
102
RTVSPropertyOp7
 70
     1
102
RTVSPropertyOp8
 70
     1
102
RTVSPropertyOp9
 70
     1
102
RTVSPropertyOp10
 70
     1
102
RTVSPropertyOp11
 70
     1
102
RTVSPropertyOp12
 70
     1
102
RTVSPropertyOp13
 70
     1
102
RTVSPropertyOp14
 70
     1
102
RTVSPropertyOp15
 70
     1
102
RTVSPropertyOp16
 70
     1
102
RTVSPropertyOp17
 70
     1
102
RTVSPropertyOp18
 70
     1
102
RTVSPropertyOp19
 70
     1
102
RTVSPropertyOp20
 70
     1
102
RTVSPropertyOp21
 70
     1
102
RTVSPropertyOp22
 70
     1
102
RTVSPropertyOp23
 70
     1
102
RTVSPropertyOp24
 70
     1
102
RTVSPropertyOp25
 70
     1
102
RTVSPropertyOp26
 70
     1
102
RTVSPropertyOp27
 70
     1
  0
XRECORD
  5
8E4
102
{ACAD_REACTORS
330
8E3
102
}
330
8E3
100
AcDbXrecord
280
     1
102
RTVSPropertyOp0
 70
     1
102
RTVSPropertyOp1
 70
     1
102
RTVSPropertyOp2
 70
     1
102
RTVSPropertyOp3
 70
     1
102
RTVSPropertyOp4
 70
     1
102
RTVSPropertyOp5
 70
     1
102
RTVSPropertyOp6
 70
     1
102
RTVSPropertyOp7
 70
     1
102
RTVSPropertyOp8
 70
     1
102
RTVSPropertyOp9
 70
     1
102
RTVSPropertyOp10
 70
     1
102
RTVSPropertyOp11
 70
     1
102
RTVSPropertyOp12
 70
     1
102
RTVSPropertyOp13
 70
     1
102
RTVSPropertyOp14
 70
     1
102
RTVSPropertyOp15
 70
     1
102
RTVSPropertyOp16
 70
     1
102
RTVSPropertyOp17
 70
     1
102
RTVSPropertyOp18
 70
     1
102
RTVSPropertyOp19
 70
     1
102
RTVSPropertyOp20
 70
     1
102
RTVSPropertyOp21
 70
     1
102
RTVSPropertyOp22
 70
     1
102
RTVSPropertyOp23
 70
     1
102
RTVSPropertyOp24
 70
     1
102
RTVSPropertyOp25
 70
     1
102
RTVSPropertyOp26
 70
     1
102
RTVSPropertyOp27
 70
     1
  0
XRECORD
  5
8E0
102
{ACAD_REACTORS
330
8DF
102
}
330
8DF
100
AcDbXrecord
280
     1
102
RTVSPropertyOp0
 70
     1
102
RTVSPropertyOp1
 70
     1
102
RTVSPropertyOp2
 70
     1
102
RTVSPropertyOp3
 70
     1
102
RTVSPropertyOp4
 70
     1
102
RTVSPropertyOp5
 70
     1
102
RTVSPropertyOp6
 70
     1
102
RTVSPropertyOp7
 70
     1
102
RTVSPropertyOp8
 70
     1
102
RTVSPropertyOp9
 70
     1
102
RTVSPropertyOp10
 70
     1
102
RTVSPropertyOp11
 70
     1
102
RTVSPropertyOp12
 70
     1
102
RTVSPropertyOp13
 70
     1
102
RTVSPropertyOp14
 70
     1
102
RTVSPropertyOp15
 70
     1
102
RTVSPropertyOp16
 70
     1
102
RTVSPropertyOp17
 70
     1
102
RTVSPropertyOp18
 70
     1
102
RTVSPropertyOp19
 70
     1
102
RTVSPropertyOp20
 70
     1
102
RTVSPropertyOp21
 70
     1
102
RTVSPropertyOp22
 70
     1
102
RTVSPropertyOp23
 70
     1
102
RTVSPropertyOp24
 70
     1
102
RTVSPropertyOp25
 70
     1
102
RTVSPropertyOp26
 70
     1
102
RTVSPropertyOp27
 70
     1
  0
XRECORD
  5
8EE
102
{ACAD_REACTORS
330
8ED
102
}
330
8ED
100
AcDbXrecord
280
     1
102
RTVSPropertyOp0
 70
     1
102
RTVSPropertyOp1
 70
     1
102
RTVSPropertyOp2
 70
     1
102
RTVSPropertyOp3
 70
     1
102
RTVSPropertyOp4
 70
     1
102
RTVSPropertyOp5
 70
     1
102
RTVSPropertyOp6
 70
     1
102
RTVSPropertyOp7
 70
     1
102
RTVSPropertyOp8
 70
     1
102
RTVSPropertyOp9
 70
     1
102
RTVSPropertyOp10
 70
     1
102
RTVSPropertyOp11
 70
     1
102
RTVSPropertyOp12
 70
     1
102
RTVSPropertyOp13
 70
     1
102
RTVSPropertyOp14
 70
     1
102
RTVSPropertyOp15
 70
     1
102
RTVSPropertyOp16
 70
     1
102
RTVSPropertyOp17
 70
     1
102
RTVSPropertyOp18
 70
     1
102
RTVSPropertyOp19
 70
     1
102
RTVSPropertyOp20
 70
     1
102
RTVSPropertyOp21
 70
     1
102
RTVSPropertyOp22
 70
     1
102
RTVSPropertyOp23
 70
     1
102
RTVSPropertyOp24
 70
     1
102
RTVSPropertyOp25
 70
     1
102
RTVSPropertyOp26
 70
     1
102
RTVSPropertyOp27
 70
     1
  0
XRECORD
  5
8F6
102
{ACAD_REACTORS
330
8F5
102
}
330
8F5
100
AcDbXrecord
280
     1
102
RTVSPropertyOp0
 70
     1
102
RTVSPropertyOp1
 70
     1
102
RTVSPropertyOp2
 70
     1
102
RTVSPropertyOp3
 70
     1
102
RTVSPropertyOp4
 70
     1
102
RTVSPropertyOp5
 70
     1
102
RTVSPropertyOp6
 70
     1
102
RTVSPropertyOp7
 70
     1
102
RTVSPropertyOp8
 70
     1
102
RTVSPropertyOp9
 70
     1
102
RTVSPropertyOp10
 70
     1
102
RTVSPropertyOp11
 70
     1
102
RTVSPropertyOp12
 70
     1
102
RTVSPropertyOp13
 70
     1
102
RTVSPropertyOp14
 70
     1
102
RTVSPropertyOp15
 70
     1
102
RTVSPropertyOp16
 70
     1
102
RTVSPropertyOp17
 70
     1
102
RTVSPropertyOp18
 70
     1
102
RTVSPropertyOp19
 70
     1
102
RTVSPropertyOp20
 70
     1
102
RTVSPropertyOp21
 70
     1
102
RTVSPropertyOp22
 70
     1
102
RTVSPropertyOp23
 70
     1
102
RTVSPropertyOp24
 70
     1
102
RTVSPropertyOp25
 70
     1
102
RTVSPropertyOp26
 70
     1
102
RTVSPropertyOp27
 70
     1
  0
XRECORD
  5
8E8
102
{ACAD_REACTORS
330
8E7
102
}
330
8E7
100
AcDbXrecord
280
     1
102
RTVSPropertyOp0
 70
     1
102
RTVSPropertyOp1
 70
     1
102
RTVSPropertyOp2
 70
     1
102
RTVSPropertyOp3
 70
     1
102
RTVSPropertyOp4
 70
     1
102
RTVSPropertyOp5
 70
     1
102
RTVSPropertyOp6
 70
     1
102
RTVSPropertyOp7
 70
     1
102
RTVSPropertyOp8
 70
     1
102
RTVSPropertyOp9
 70
     1
102
RTVSPropertyOp10
 70
     1
102
RTVSPropertyOp11
 70
     1
102
RTVSPropertyOp12
 70
     1
102
RTVSPropertyOp13
 70
     1
102
RTVSPropertyOp14
 70
     1
102
RTVSPropertyOp15
 70
     1
102
RTVSPropertyOp16
 70
     1
102
RTVSPropertyOp17
 70
     1
102
RTVSPropertyOp18
 70
     1
102
RTVSPropertyOp19
 70
     1
102
RTVSPropertyOp20
 70
     1
102
RTVSPropertyOp21
 70
     1
102
RTVSPropertyOp22
 70
     1
102
RTVSPropertyOp23
 70
     1
102
RTVSPropertyOp24
 70
     1
102
RTVSPropertyOp25
 70
     1
102
RTVSPropertyOp26
 70
     1
102
RTVSPropertyOp27
 70
     1
  0
XRECORD
  5
8EC
102
{ACAD_REACTORS
330
8EB
102
}
330
8EB
100
AcDbXrecord
280
     1
102
RTVSPropertyOp0
 70
     1
102
RTVSPropertyOp1
 70
     1
102
RTVSPropertyOp2
 70
     1
102
RTVSPropertyOp3
 70
     1
102
RTVSPropertyOp4
 70
     1
102
RTVSPropertyOp5
 70
     1
102
RTVSPropertyOp6
 70
     1
102
RTVSPropertyOp7
 70
     1
102
RTVSPropertyOp8
 70
     1
102
RTVSPropertyOp9
 70
     1
102
RTVSPropertyOp10
 70
     1
102
RTVSPropertyOp11
 70
     1
102
RTVSPropertyOp12
 70
     1
102
RTVSPropertyOp13
 70
     1
102
RTVSPropertyOp14
 70
     1
102
RTVSPropertyOp15
 70
     1
102
RTVSPropertyOp16
 70
     1
102
RTVSPropertyOp17
 70
     1
102
RTVSPropertyOp18
 70
     1
102
RTVSPropertyOp19
 70
     1
102
RTVSPropertyOp20
 70
     1
102
RTVSPropertyOp21
 70
     1
102
RTVSPropertyOp22
 70
     1
102
RTVSPropertyOp23
 70
     1
102
RTVSPropertyOp24
 70
     1
102
RTVSPropertyOp25
 70
     1
102
RTVSPropertyOp26
 70
     1
102
RTVSPropertyOp27
 70
     1
  0
XRECORD
  5
8FC
102
{ACAD_REACTORS
330
8FB
102
}
330
8FB
100
AcDbXrecord
280
     1
102
RTVSPropertyOp0
 70
     0
102
RTVSPropertyOp1
 70
     0
102
RTVSPropertyOp2
 70
     0
102
RTVSPropertyOp3
 70
     0
102
RTVSPropertyOp4
 70
     0
102
RTVSPropertyOp5
 70
     0
102
RTVSPropertyOp6
 70
     0
102
RTVSPropertyOp7
 70
     0
102
RTVSPropertyOp8
 70
     0
102
RTVSPropertyOp9
 70
     0
102
RTVSPropertyOp10
 70
     0
102
RTVSPropertyOp11
 70
     0
102
RTVSPropertyOp12
 70
     0
102
RTVSPropertyOp13
 70
     0
102
RTVSPropertyOp14
 70
     2
102
RTVSPropertyOp15
 70
     0
102
RTVSPropertyOp16
 70
     0
102
RTVSPropertyOp17
 70
     0
102
RTVSPropertyOp18
 70
     0
102
RTVSPropertyOp19
 70
     0
102
RTVSPropertyOp20
 70
     0
102
RTVSPropertyOp21
 70
     0
102
RTVSPropertyOp22
 70
     0
102
RTVSPropertyOp23
 70
     0
102
RTVSPropertyOp24
 70
     0
102
RTVSPropertyOp25
 70
     0
102
RTVSPropertyOp26
 70
     0
102
RTVSPropertyOp27
 70
     0
  0
XRECORD
  5
8F4
102
{ACAD_REACTORS
330
8F3
102
}
330
8F3
100
AcDbXrecord
280
     1
102
RTVSPropertyOp0
 70
     1
102
RTVSPropertyOp1
 70
     1
102
RTVSPropertyOp2
 70
     1
102
RTVSPropertyOp3
 70
     1
102
RTVSPropertyOp4
 70
     1
102
RTVSPropertyOp5
 70
     1
102
RTVSPropertyOp6
 70
     1
102
RTVSPropertyOp7
 70
     1
102
RTVSPropertyOp8
 70
     1
102
RTVSPropertyOp9
 70
     1
102
RTVSPropertyOp10
 70
     1
102
RTVSPropertyOp11
 70
     1
102
RTVSPropertyOp12
 70
     1
102
RTVSPropertyOp13
 70
     1
102
RTVSPropertyOp14
 70
     1
102
RTVSPropertyOp15
 70
     1
102
RTVSPropertyOp16
 70
     1
102
RTVSPropertyOp17
 70
     1
102
RTVSPropertyOp18
 70
     1
102
RTVSPropertyOp19
 70
     1
102
RTVSPropertyOp20
 70
     1
102
RTVSPropertyOp21
 70
     1
102
RTVSPropertyOp22
 70
     1
102
RTVSPropertyOp23
 70
     1
102
RTVSPropertyOp24
 70
     1
102
RTVSPropertyOp25
 70
     1
102
RTVSPropertyOp26
 70
     1
102
RTVSPropertyOp27
 70
     1
  0
XRECORD
  5
8D8
102
{ACAD_REACTORS
330
8D7
102
}
330
8D7
100
AcDbXrecord
280
     1
102
RTVSPropertyOp0
 70
     1
102
RTVSPropertyOp1
 70
     1
102
RTVSPropertyOp2
 70
     1
102
RTVSPropertyOp3
 70
     1
102
RTVSPropertyOp4
 70
     1
102
RTVSPropertyOp5
 70
     1
102
RTVSPropertyOp6
 70
     1
102
RTVSPropertyOp7
 70
     1
102
RTVSPropertyOp8
 70
     1
102
RTVSPropertyOp9
 70
     1
102
RTVSPropertyOp10
 70
     1
102
RTVSPropertyOp11
 70
     1
102
RTVSPropertyOp12
 70
     1
102
RTVSPropertyOp13
 70
     1
102
RTVSPropertyOp14
 70
     1
102
RTVSPropertyOp15
 70
     1
102
RTVSPropertyOp16
 70
     1
102
RTVSPropertyOp17
 70
     1
102
RTVSPropertyOp18
 70
     1
102
RTVSPropertyOp19
 70
     1
102
RTVSPropertyOp20
 70
     1
102
RTVSPropertyOp21
 70
     1
102
RTVSPropertyOp22
 70
     1
102
RTVSPropertyOp23
 70
     1
102
RTVSPropertyOp24
 70
     1
102
RTVSPropertyOp25
 70
     1
102
RTVSPropertyOp26
 70
     1
102
RTVSPropertyOp27
 70
     1
  0
XRECORD
  5
8DA
102
{ACAD_REACTORS
330
8D9
102
}
330
8D9
100
AcDbXrecord
280
     1
102
RTVSPropertyOp0
 70
     1
102
RTVSPropertyOp1
 70
     1
102
RTVSPropertyOp2
 70
     1
102
RTVSPropertyOp3
 70
     1
102
RTVSPropertyOp4
 70
     1
102
RTVSPropertyOp5
 70
     1
102
RTVSPropertyOp6
 70
     1
102
RTVSPropertyOp7
 70
     1
102
RTVSPropertyOp8
 70
     1
102
RTVSPropertyOp9
 70
     1
102
RTVSPropertyOp10
 70
     1
102
RTVSPropertyOp11
 70
     1
102
RTVSPropertyOp12
 70
     1
102
RTVSPropertyOp13
 70
     1
102
RTVSPropertyOp14
 70
     1
102
RTVSPropertyOp15
 70
     1
102
RTVSPropertyOp16
 70
     1
102
RTVSPropertyOp17
 70
     1
102
RTVSPropertyOp18
 70
     1
102
RTVSPropertyOp19
 70
     1
102
RTVSPropertyOp20
 70
     1
102
RTVSPropertyOp21
 70
     1
102
RTVSPropertyOp22
 70
     1
102
RTVSPropertyOp23
 70
     1
102
RTVSPropertyOp24
 70
     1
102
RTVSPropertyOp25
 70
     1
102
RTVSPropertyOp26
 70
     1
102
RTVSPropertyOp27
 70
     1
  0
XRECORD
  5
8DC
102
{ACAD_REACTORS
330
8DB
102
}
330
8DB
100
AcDbXrecord
280
     1
102
RTVSPropertyOp0
 70
     1
102
RTVSPropertyOp1
 70
     1
102
RTVSPropertyOp2
 70
     1
102
RTVSPropertyOp3
 70
     1
102
RTVSPropertyOp4
 70
     1
102
RTVSPropertyOp5
 70
     1
102
RTVSPropertyOp6
 70
     1
102
RTVSPropertyOp7
 70
     1
102
RTVSPropertyOp8
 70
     1
102
RTVSPropertyOp9
 70
     1
102
RTVSPropertyOp10
 70
     1
102
RTVSPropertyOp11
 70
     1
102
RTVSPropertyOp12
 70
     1
102
RTVSPropertyOp13
 70
     1
102
RTVSPropertyOp14
 70
     1
102
RTVSPropertyOp15
 70
     1
102
RTVSPropertyOp16
 70
     1
102
RTVSPropertyOp17
 70
     1
102
RTVSPropertyOp18
 70
     1
102
RTVSPropertyOp19
 70
     1
102
RTVSPropertyOp20
 70
     1
102
RTVSPropertyOp21
 70
     1
102
RTVSPropertyOp22
 70
     1
102
RTVSPropertyOp23
 70
     1
102
RTVSPropertyOp24
 70
     1
102
RTVSPropertyOp25
 70
     1
102
RTVSPropertyOp26
 70
     1
102
RTVSPropertyOp27
 70
     1
  0
XRECORD
  5
8DE
102
{ACAD_REACTORS
330
8DD
102
}
330
8DD
100
AcDbXrecord
280
     1
102
RTVSPropertyOp0
 70
     1
102
RTVSPropertyOp1
 70
     1
102
RTVSPropertyOp2
 70
     1
102
RTVSPropertyOp3
 70
     1
102
RTVSPropertyOp4
 70
     1
102
RTVSPropertyOp5
 70
     1
102
RTVSPropertyOp6
 70
     1
102
RTVSPropertyOp7
 70
     1
102
RTVSPropertyOp8
 70
     1
102
RTVSPropertyOp9
 70
     1
102
RTVSPropertyOp10
 70
     1
102
RTVSPropertyOp11
 70
     1
102
RTVSPropertyOp12
 70
     1
102
RTVSPropertyOp13
 70
     1
102
RTVSPropertyOp14
 70
     1
102
RTVSPropertyOp15
 70
     1
102
RTVSPropertyOp16
 70
     1
102
RTVSPropertyOp17
 70
     1
102
RTVSPropertyOp18
 70
     1
102
RTVSPropertyOp19
 70
     1
102
RTVSPropertyOp20
 70
     1
102
RTVSPropertyOp21
 70
     1
102
RTVSPropertyOp22
 70
     1
102
RTVSPropertyOp23
 70
     1
102
RTVSPropertyOp24
 70
     1
102
RTVSPropertyOp25
 70
     1
102
RTVSPropertyOp26
 70
     1
102
RTVSPropertyOp27
 70
     1
  0
XRECORD
  5
8F8
102
{ACAD_REACTORS
330
8F7
102
}
330
8F7
100
AcDbXrecord
280
     1
102
RTVSPropertyOp0
 70
     0
102
RTVSPropertyOp1
 70
     0
102
RTVSPropertyOp2
 70
     0
102
RTVSPropertyOp3
 70
     0
102
RTVSPropertyOp4
 70
     0
102
RTVSPropertyOp5
 70
     0
102
RTVSPropertyOp6
 70
     0
102
RTVSPropertyOp7
 70
     0
102
RTVSPropertyOp8
 70
     0
102
RTVSPropertyOp9
 70
     0
102
RTVSPropertyOp10
 70
     0
102
RTVSPropertyOp11
 70
     0
102
RTVSPropertyOp12
 70
     0
102
RTVSPropertyOp13
 70
     0
102
RTVSPropertyOp14
 70
     2
102
RTVSPropertyOp15
 70
     0
102
RTVSPropertyOp16
 70
     0
102
RTVSPropertyOp17
 70
     0
102
RTVSPropertyOp18
 70
     0
102
RTVSPropertyOp19
 70
     0
102
RTVSPropertyOp20
 70
     0
102
RTVSPropertyOp21
 70
     0
102
RTVSPropertyOp22
 70
     0
102
RTVSPropertyOp23
 70
     0
102
RTVSPropertyOp24
 70
     0
102
RTVSPropertyOp25
 70
     0
102
RTVSPropertyOp26
 70
     0
102
RTVSPropertyOp27
 70
     0
  0
XRECORD
  5
8F2
102
{ACAD_REACTORS
330
8F1
102
}
330
8F1
100
AcDbXrecord
280
     1
102
RTVSPropertyOp0
 70
     1
102
RTVSPropertyOp1
 70
     1
102
RTVSPropertyOp2
 70
     1
102
RTVSPropertyOp3
 70
     1
102
RTVSPropertyOp4
 70
     1
102
RTVSPropertyOp5
 70
     1
102
RTVSPropertyOp6
 70
     1
102
RTVSPropertyOp7
 70
     1
102
RTVSPropertyOp8
 70
     1
102
RTVSPropertyOp9
 70
     1
102
RTVSPropertyOp10
 70
     1
102
RTVSPropertyOp11
 70
     1
102
RTVSPropertyOp12
 70
     1
102
RTVSPropertyOp13
 70
     1
102
RTVSPropertyOp14
 70
     1
102
RTVSPropertyOp15
 70
     1
102
RTVSPropertyOp16
 70
     1
102
RTVSPropertyOp17
 70
     1
102
RTVSPropertyOp18
 70
     1
102
RTVSPropertyOp19
 70
     1
102
RTVSPropertyOp20
 70
     1
102
RTVSPropertyOp21
 70
     1
102
RTVSPropertyOp22
 70
     1
102
RTVSPropertyOp23
 70
     1
102
RTVSPropertyOp24
 70
     1
102
RTVSPropertyOp25
 70
     1
102
RTVSPropertyOp26
 70
     1
102
RTVSPropertyOp27
 70
     1
  0
XRECORD
  5
8FA
102
{ACAD_REACTORS
330
8F9
102
}
330
8F9
100
AcDbXrecord
280
     1
102
RTVSPropertyOp0
 70
     0
102
RTVSPropertyOp1
 70
     0
102
RTVSPropertyOp2
 70
     0
102
RTVSPropertyOp3
 70
     0
102
RTVSPropertyOp4
 70
     0
102
RTVSPropertyOp5
 70
     0
102
RTVSPropertyOp6
 70
     0
102
RTVSPropertyOp7
 70
     0
102
RTVSPropertyOp8
 70
     0
102
RTVSPropertyOp9
 70
     0
102
RTVSPropertyOp10
 70
     0
102
RTVSPropertyOp11
 70
     0
102
RTVSPropertyOp12
 70
     0
102
RTVSPropertyOp13
 70
     0
102
RTVSPropertyOp14
 70
     2
102
RTVSPropertyOp15
 70
     0
102
RTVSPropertyOp16
 70
     0
102
RTVSPropertyOp17
 70
     0
102
RTVSPropertyOp18
 70
     0
102
RTVSPropertyOp19
 70
     0
102
RTVSPropertyOp20
 70
     0
102
RTVSPropertyOp21
 70
     0
102
RTVSPropertyOp22
 70
     0
102
RTVSPropertyOp23
 70
     0
102
RTVSPropertyOp24
 70
     0
102
RTVSPropertyOp25
 70
     0
102
RTVSPropertyOp26
 70
     0
102
RTVSPropertyOp27
 70
     0
  0
XRECORD
  5
8EA
102
{ACAD_REACTORS
330
8E9
102
}
330
8E9
100
AcDbXrecord
280
     1
102
RTVSPropertyOp0
 70
     1
102
RTVSPropertyOp1
 70
     1
102
RTVSPropertyOp2
 70
     1
102
RTVSPropertyOp3
 70
     1
102
RTVSPropertyOp4
 70
     1
102
RTVSPropertyOp5
 70
     1
102
RTVSPropertyOp6
 70
     1
102
RTVSPropertyOp7
 70
     1
102
RTVSPropertyOp8
 70
     1
102
RTVSPropertyOp9
 70
     1
102
RTVSPropertyOp10
 70
     1
102
RTVSPropertyOp11
 70
     1
102
RTVSPropertyOp12
 70
     1
102
RTVSPropertyOp13
 70
     1
102
RTVSPropertyOp14
 70
     1
102
RTVSPropertyOp15
 70
     1
102
RTVSPropertyOp16
 70
     1
102
RTVSPropertyOp17
 70
     1
102
RTVSPropertyOp18
 70
     1
102
RTVSPropertyOp19
 70
     1
102
RTVSPropertyOp20
 70
     1
102
RTVSPropertyOp21
 70
     1
102
RTVSPropertyOp22
 70
     1
102
RTVSPropertyOp23
 70
     1
102
RTVSPropertyOp24
 70
     1
102
RTVSPropertyOp25
 70
     1
102
RTVSPropertyOp26
 70
     1
102
RTVSPropertyOp27
 70
     1
  0
XRECORD
  5
8F0
102
{ACAD_REACTORS
330
8EF
102
}
330
8EF
100
AcDbXrecord
280
     1
102
RTVSPropertyOp0
 70
     1
102
RTVSPropertyOp1
 70
     1
102
RTVSPropertyOp2
 70
     1
102
RTVSPropertyOp3
 70
     1
102
RTVSPropertyOp4
 70
     1
102
RTVSPropertyOp5
 70
     1
102
RTVSPropertyOp6
 70
     1
102
RTVSPropertyOp7
 70
     1
102
RTVSPropertyOp8
 70
     1
102
RTVSPropertyOp9
 70
     1
102
RTVSPropertyOp10
 70
     1
102
RTVSPropertyOp11
 70
     1
102
RTVSPropertyOp12
 70
     1
102
RTVSPropertyOp13
 70
     1
102
RTVSPropertyOp14
 70
     1
102
RTVSPropertyOp15
 70
     1
102
RTVSPropertyOp16
 70
     1
102
RTVSPropertyOp17
 70
     1
102
RTVSPropertyOp18
 70
     1
102
RTVSPropertyOp19
 70
     1
102
RTVSPropertyOp20
 70
     1
102
RTVSPropertyOp21
 70
     1
102
RTVSPropertyOp22
 70
     1
102
RTVSPropertyOp23
 70
     1
102
RTVSPropertyOp24
 70
     1
102
RTVSPropertyOp25
 70
     1
102
RTVSPropertyOp26
 70
     1
102
RTVSPropertyOp27
 70
     1
  0
ENDSEC
  0
EOF
